  0
SECTION
  2
HEADER
  9
$ACADVER
  1
AC1015
  9
$ACADMAINTVER
 70
     6
  9
$DWGCODEPAGE
  3
ANSI_1252
  9
$INSBASE
 10
0.0
 20
0.0
 30
0.0
  9
$EXTMIN
 10
0.0
 20
0.0
 30
0.0
  9
$EXTMAX
 10
420.0
 20
297.0
 30
0.0
  9
$LIMMIN
 10
0.0
 20
0.0
  9
$LIMMAX
 10
420.0
 20
297.0
  9
$ORTHOMODE
 70
     0
  9
$REGENMODE
 70
     1
  9
$FILLMODE
 70
     1
  9
$QTEXTMODE
 70
     0
  9
$MIRRTEXT
 70
     1
  9
$LTSCALE
 40
1.0
  9
$ATTMODE
 70
     1
  9
$TEXTSIZE
 40
0.2
  9
$TRACEWID
 40
0.05
  9
$TEXTSTYLE
  7
Standard
  9
$CLAYER
  8
0
  9
$CELTYPE
  6
ByLayer
  9
$CECOLOR
 62
   256
  9
$CELTSCALE
 40
25.4
  9
$DISPSILH
 70
     0
  9
$DIMSCALE
 40
1.0
  9
$DIMASZ
 40
0.18
  9
$DIMEXO
 40
0.0625
  9
$DIMDLI
 40
0.38
  9
$DIMRND
 40
0.0
  9
$DIMDLE
 40
0.0
  9
$DIMEXE
 40
0.18
  9
$DIMTP
 40
0.0
  9
$DIMTM
 40
0.0
  9
$DIMTXT
 40
0.18
  9
$DIMCEN
 40
0.09
  9
$DIMTSZ
 40
0.0
  9
$DIMTOL
 70
     0
  9
$DIMLIM
 70
     0
  9
$DIMTIH
 70
     1
  9
$DIMTOH
 70
     1
  9
$DIMSE1
 70
     0
  9
$DIMSE2
 70
     0
  9
$DIMTAD
 70
     0
  9
$DIMZIN
 70
     0
  9
$DIMBLK
  1

  9
$DIMASO
 70
     1
  9
$DIMSHO
 70
     1
  9
$DIMPOST
  1

  9
$DIMAPOST
  1

  9
$DIMALT
 70
     0
  9
$DIMALTD
 70
     2
  9
$DIMALTF
 40
25.4
  9
$DIMLFAC
 40
1.0
  9
$DIMTOFL
 70
     0
  9
$DIMTVP
 40
0.0
  9
$DIMTIX
 70
     0
  9
$DIMSOXD
 70
     0
  9
$DIMSAH
 70
     0
  9
$DIMBLK1
  1

  9
$DIMBLK2
  1

  9
$DIMSTYLE
  2
Standard
  9
$DIMCLRD
 70
     0
  9
$DIMCLRE
 70
     0
  9
$DIMCLRT
 70
     0
  9
$DIMTFAC
 40
1.0
  9
$DIMGAP
 40
0.09
  9
$DIMJUST
 70
     0
  9
$DIMSD1
 70
     0
  9
$DIMSD2
 70
     0
  9
$DIMTOLJ
 70
     1
  9
$DIMTZIN
 70
     0
  9
$DIMALTZ
 70
     0
  9
$DIMALTTZ
 70
     0
  9
$DIMUPT
 70
     0
  9
$DIMDEC
 70
     4
  9
$DIMTDEC
 70
     4
  9
$DIMALTU
 70
     2
  9
$DIMALTTD
 70
     2
  9
$DIMTXSTY
  7
Standard
  9
$DIMAUNIT
 70
     0
  9
$DIMADEC
 70
     0
  9
$DIMALTRND
 40
0.0
  9
$DIMAZIN
 70
     0
  9
$DIMDSEP
 70
    46
  9
$DIMATFIT
 70
     3
  9
$DIMFRAC
 70
     0
  9
$DIMLDRBLK
  1

  9
$DIMLUNIT
 70
     2
  9
$DIMLWD
 70
    -2
  9
$DIMLWE
 70
    -2
  9
$DIMTMOVE
 70
     0
  9
$LUNITS
 70
     2
  9
$LUPREC
 70
     4
  9
$SKETCHINC
 40
0.1
  9
$FILLETRAD
 40
0.5
  9
$AUNITS
 70
     0
  9
$AUPREC
 70
     0
  9
$MENU
  1
.
  9
$ELEVATION
 40
0.0
  9
$PELEVATION
 40
0.0
  9
$THICKNESS
 40
0.0
  9
$LIMCHECK
 70
     0
  9
$CHAMFERA
 40
0.5
  9
$CHAMFERB
 40
0.5
  9
$CHAMFERC
 40
1.0
  9
$CHAMFERD
 40
0.0
  9
$SKPOLY
 70
     0
  9
$TDCREATE
 40
2454187.36365831
  9
$TDUCREATE
 40
2454187.280324977
  9
$TDUPDATE
 40
2454187.363658322
  9
$TDUUPDATE
 40
2454187.280324989
  9
$TDINDWG
 40
0.0000000116
  9
$TDUSRTIMER
 40
0.0000000116
  9
$USRTIMER
 70
     1
  9
$ANGBASE
 50
0.0
  9
$ANGDIR
 70
     0
  9
$PDMODE
 70
     0
  9
$PDSIZE
 40
0.0
  9
$PLINEWID
 40
0.0
  9
$SPLFRAME
 70
     0
  9
$SPLINETYPE
 70
     6
  9
$SPLINESEGS
 70
     8
  9
$HANDSEED
  5
2CC
  9
$SURFTAB1
 70
     6
  9
$SURFTAB2
 70
     6
  9
$SURFTYPE
 70
     6
  9
$SURFU
 70
     6
  9
$SURFV
 70
     6
  9
$UCSBASE
  2

  9
$UCSNAME
  2

  9
$UCSORG
 10
0.0
 20
0.0
 30
0.0
  9
$UCSXDIR
 10
1.0
 20
0.0
 30
0.0
  9
$UCSYDIR
 10
0.0
 20
1.0
 30
0.0
  9
$UCSORTHOREF
  2

  9
$UCSORTHOVIEW
 70
     0
  9
$UCSORGTOP
 10
0.0
 20
0.0
 30
0.0
  9
$UCSORGBOTTOM
 10
0.0
 20
0.0
 30
0.0
  9
$UCSORGLEFT
 10
0.0
 20
0.0
 30
0.0
  9
$UCSORGRIGHT
 10
0.0
 20
0.0
 30
0.0
  9
$UCSORGFRONT
 10
0.0
 20
0.0
 30
0.0
  9
$UCSORGBACK
 10
0.0
 20
0.0
 30
0.0
  9
$PUCSBASE
  2

  9
$PUCSNAME
  2

  9
$PUCSORG
 10
0.0
 20
0.0
 30
0.0
  9
$PUCSXDIR
 10
1.0
 20
0.0
 30
0.0
  9
$PUCSYDIR
 10
0.0
 20
1.0
 30
0.0
  9
$PUCSORTHOREF
  2

  9
$PUCSORTHOVIEW
 70
     0
  9
$PUCSORGTOP
 10
0.0
 20
0.0
 30
0.0
  9
$PUCSORGBOTTOM
 10
0.0
 20
0.0
 30
0.0
  9
$PUCSORGLEFT
 10
0.0
 20
0.0
 30
0.0
  9
$PUCSORGRIGHT
 10
0.0
 20
0.0
 30
0.0
  9
$PUCSORGFRONT
 10
0.0
 20
0.0
 30
0.0
  9
$PUCSORGBACK
 10
0.0
 20
0.0
 30
0.0
  9
$USERI1
 70
     0
  9
$USERI2
 70
     0
  9
$USERI3
 70
     0
  9
$USERI4
 70
     0
  9
$USERI5
 70
     0
  9
$USERR1
 40
0.0
  9
$USERR2
 40
0.0
  9
$USERR3
 40
0.0
  9
$USERR4
 40
0.0
  9
$USERR5
 40
0.0
  9
$WORLDVIEW
 70
     1
  9
$SHADEDGE
 70
     3
  9
$SHADEDIF
 70
    70
  9
$TILEMODE
 70
     1
  9
$MAXACTVP
 70
    64
  9
$PINSBASE
 10
0.0
 20
0.0
 30
0.0
  9
$PLIMCHECK
 70
     0
  9
$PEXTMIN
 10
0.0
 20
0.0
 30
0.0
  9
$PEXTMAX
 10
420.0
 20
297.0
 30
0.0
  9
$PLIMMIN
 10
0.0
 20
0.0
  9
$PLIMMAX
 10
420.0
 20
297.0
  9
$UNITMODE
 70
     0
  9
$VISRETAIN
 70
     1
  9
$PLINEGEN
 70
     0
  9
$PSLTSCALE
 70
     1
  9
$TREEDEPTH
 70
  3020
  9
$CMLSTYLE
  2
Standard
  9
$CMLJUST
 70
     0
  9
$CMLSCALE
 40
1.0
  9
$PROXYGRAPHICS
 70
     1
  9
$MEASUREMENT
 70
     1
  9
$CELWEIGHT
370
    -1
  9
$ENDCAPS
280
     0
  9
$JOINSTYLE
280
     0
  9
$LWDISPLAY
290
     0
  9
$INSUNITS
 70
     1
  9
$HYPERLINKBASE
  1

  9
$STYLESHEET
  1

  9
$XEDIT
290
     1
  9
$CEPSNTYPE
380
     0
  9
$PSTYLEMODE
290
     1
  9
$FINGERPRINTGUID
  2
{C6BFBCD9-3337-46B7-9FD6-3E27F3CAC3F8}
  9
$VERSIONGUID
  2
{FAEB1C32-E019-11D5-929B-00C0DF256EC4}
  9
$EXTNAMES
290
     1
  9
$PSVPSCALE
 40
0.0
  9
$OLESTARTUP
290
     0
  0
ENDSEC
  0
SECTION
  2
CLASSES
  0
CLASS
  1
ACDBDICTIONARYWDFLT
  2
AcDbDictionaryWithDefault
  3
ObjectDBX Classes
 90
        0
280
     0
281
     0
  0
CLASS
  1
SPATIAL_FILTER
  2
AcDbSpatialFilter
  3
ObjectDBX Classes
 90
        0
280
     0
281
     0
  0
CLASS
  1
ACDBPLACEHOLDER
  2
AcDbPlaceHolder
  3
ObjectDBX Classes
 90
        0
280
     0
281
     0
  0
CLASS
  1
LAYOUT
  2
AcDbLayout
  3
ObjectDBX Classes
 90
        0
280
     0
281
     0
  0
ENDSEC
  0
SECTION
  2
TABLES
  0
TABLE
  2
VPORT
  5
8
330
0
100
AcDbSymbolTable
 70
     1
  0
VPORT
  5
29
330
8
100
AcDbSymbolTableRecord
100
AcDbViewportTableRecord
  2
*Active
 70
     0
 10
0.0
 20
0.0
 11
1.0
 21
1.0
 12
10.4299065421
 22
4.5
 13
0.0
 23
0.0
 14
0.5
 24
0.5
 15
0.5
 25
0.5
 16
0.0
 26
0.0
 36
1.0
 17
0.0
 27
0.0
 37
0.0
 40
9.0
 41
1.9729729729
 42
50.0
 43
0.0
 44
0.0
 50
0.0
 51
0.0
 71
     0
 72
   100
 73
     1
 74
     3
 75
     0
 76
     0
 77
     0
 78
     0
281
     0
 65
     1
110
0.0
120
0.0
130
0.0
111
1.0
121
0.0
131
0.0
112
0.0
122
1.0
132
0.0
 79
     0
146
0.0
  0
ENDTAB
  0
TABLE
  2
LTYPE
  5
5
330
0
100
AcDbSymbolTable
 70
     1
  0
LTYPE
  5
14
330
5
100
AcDbSymbolTableRecord
100
AcDbLinetypeTableRecord
  2
ByBlock
 70
     0
  3

 72
    65
 73
     0
 40
0.0
  0
LTYPE
  5
15
330
5
100
AcDbSymbolTableRecord
100
AcDbLinetypeTableRecord
  2
ByLayer
 70
     0
  3

 72
    65
 73
     0
 40
0.0
  0
LTYPE
  5
16
330
5
100
AcDbSymbolTableRecord
100
AcDbLinetypeTableRecord
  2
Continuous
 70
     0
  3
Solid line
 72
    65
 73
     0
 40
0.0
  0
ENDTAB
  0
TABLE
  2
LAYER
  5
2
330
0
100
AcDbSymbolTable
 70
     4
  0
LAYER
  5
10
330
2
100
AcDbSymbolTableRecord
100
AcDbLayerTableRecord
  2
0
 70
     0
 62
     7
  6
Continuous
370
    -3
390
F
  0
LAYER
  5
2A
330
2
100
AcDbSymbolTableRecord
100
AcDbLayerTableRecord
  2
Default
 70
     0
 62
     7
  6
Continuous
370
    -3
390
F
  0
LAYER
  5
2D
330
2
100
AcDbSymbolTableRecord
100
AcDbLayerTableRecord
  2
52134120
 70
     0
 62
     7
  6
Continuous
370
    -3
390
F
  0
LAYER
  5
DB
330
2
100
AcDbSymbolTableRecord
100
AcDbLayerTableRecord
  2
30997201-A
 70
     0
 62
     7
  6
Continuous
370
    -3
390
F
  0
ENDTAB
  0
TABLE
  2
STYLE
  5
3
330
0
100
AcDbSymbolTable
 70
     1
  0
STYLE
  5
11
330
3
100
AcDbSymbolTableRecord
100
AcDbTextStyleTableRecord
  2
Standard
 70
     0
 40
0.0
 41
1.0
 50
0.0
 71
     0
 42
0.2
  3
txt
  4

  0
ENDTAB
  0
TABLE
  2
VIEW
  5
6
330
0
100
AcDbSymbolTable
 70
     0
  0
ENDTAB
  0
TABLE
  2
UCS
  5
7
330
0
100
AcDbSymbolTable
 70
     0
  0
ENDTAB
  0
TABLE
  2
APPID
  5
9
330
0
100
AcDbSymbolTable
 70
     1
  0
APPID
  5
12
330
9
100
AcDbSymbolTableRecord
100
AcDbRegAppTableRecord
  2
ACAD
 70
     0
  0
ENDTAB
  0
TABLE
  2
DIMSTYLE
  5
A
330
0
100
AcDbSymbolTable
 70
     1
100
AcDbDimStyleTable
  0
DIMSTYLE
105
27
330
A
100
AcDbSymbolTableRecord
100
AcDbDimStyleTableRecord
  2
Standard
 70
     0
340
11
  0
ENDTAB
  0
TABLE
  2
BLOCK_RECORD
  5
1
330
0
100
AcDbSymbolTable
 70
     5
  0
BLOCK_RECORD
  5
1F
330
1
100
AcDbSymbolTableRecord
100
AcDbBlockTableRecord
  2
*Model_Space
340
22
  0
BLOCK_RECORD
  5
1B
330
1
100
AcDbSymbolTableRecord
100
AcDbBlockTableRecord
  2
*Paper_Space
340
1E
  0
BLOCK_RECORD
  5
2B
330
1
100
AcDbSymbolTableRecord
100
AcDbBlockTableRecord
  2
SE
340
0
102
{BLKREFS
331
2C
102
}
  0
BLOCK_RECORD
  5
ED
330
1
100
AcDbSymbolTableRecord
100
AcDbBlockTableRecord
  2
SE1
340
0
102
{BLKREFS
331
EE
102
}
  0
BLOCK_RECORD
  5
1A6
330
1
100
AcDbSymbolTableRecord
100
AcDbBlockTableRecord
  2
SE2
340
0
102
{BLKREFS
331
1A7
102
}
  0
BLOCK_RECORD
  5
20C
330
1
100
AcDbSymbolTableRecord
100
AcDbBlockTableRecord
  2
SE3
340
0
102
{BLKREFS
331
20D
102
}
  0
ENDTAB
  0
ENDSEC
  0
SECTION
  2
BLOCKS
  0
BLOCK
  5
20
330
1F
100
AcDbEntity
  8
0
100
AcDbBlockBegin
  2
*Model_Space
 70
     0
 71
     0
 10
0.0
 20
0.0
 30
0.0
  3
*Model_Space
  1

  0
ENDBLK
  5
21
330
1F
100
AcDbEntity
  8
0
100
AcDbBlockEnd
  0
BLOCK
  5
1C
330
1B
100
AcDbEntity
 67
     1
  8
0
100
AcDbBlockBegin
  2
*Paper_Space
 70
     0
 71
     0
 10
0.0
 20
0.0
 30
0.0
  3
*Paper_Space
  1

  0
ENDBLK
  5
1D
330
1B
100
AcDbEntity
 67
     1
  8
0
100
AcDbBlockEnd
  0
BLOCK
  5
EB
330
2B
100
AcDbEntity
  8
0
100
AcDbBlockBegin
  2
SE
 70
     0
 71
     0
 10
0.0
 20
0.0
 30
0.0
  3
SE
  1

  0
LINE
  5
2E
330
2B
100
AcDbEntity
  8
52134120
  6
Continuous
 62
     7
 48
25.4
100
AcDbLine
 10
127.6791578072
 20
74.6725284894
 30
0.0
 11
155.5321815681
 21
90.7534792555
 31
0.0
  0
LINE
  5
2F
330
2B
100
AcDbEntity
  8
52134120
  6
Continuous
 62
     7
 48
25.4
100
AcDbLine
 10
121.3162505252
 20
84.8553087179
 30
0.0
 11
149.8950888501
 21
101.3553087179
 31
0.0
  0
LINE
  5
30
330
2B
100
AcDbEntity
  8
52134120
  6
Continuous
 62
     7
 48
25.4
100
AcDbLine
 10
142.6104791592
 20
65.9726228157
 30
0.0
 11
155.600860216
 21
73.4726228157
 31
0.0
  0
LINE
  5
31
330
2B
100
AcDbEntity
  8
52134120
  6
Continuous
 62
     7
 48
25.4
100
AcDbLine
 10
130.5527852017
 20
72.7674927988
 30
0.0
 11
155.745177174
 21
87.3123270856
 31
0.0
  0
LINE
  5
32
330
2B
100
AcDbEntity
  8
52134120
  6
Continuous
 62
     7
 48
25.4
100
AcDbLine
 10
71.7397647705
 20
107.1647393426
 30
0.0
 11
79.2290587233
 21
107.1647393426
 31
0.0
  0
ARC
  5
33
330
2B
100
AcDbEntity
  8
52134120
  6
Continuous
 62
     7
 48
25.4
100
AcDbCircle
 10
69.1185418752
 20
111.9247805369
 30
0.0
 40
12.29853470667425
100
AcDbArc
 50
346.6973377072
 51
22.2195253658
  0
LINE
  5
34
330
2B
100
AcDbEntity
  8
52134120
  6
Continuous
 62
     7
 48
25.4
100
AcDbLine
 10
71.7397647705
 20
116.5755487304
 30
0.0
 11
80.5038091598
 21
116.5755487304
 31
0.0
  0
SPLINE
  5
35
330
2B
100
AcDbEntity
  8
52134120
  6
Continuous
 62
     7
 48
25.4
100
AcDbSpline
210
0.0
220
0.0
230
1.0
 70
     8
 71
     3
 72
    16
 73
    12
 74
     0
 42
0.0000000001
 43
0.0000000001
 40
0.0
 40
0.0
 40
0.0
 40
0.0
 40
0.125
 40
0.125
 40
0.25
 40
0.25
 40
0.5
 40
0.5
 40
0.75
 40
0.75
 40
1.0
 40
1.0
 40
1.0
 40
1.0
 10
80.50380915982463
 20
116.5755487303873
 30
0.0
 10
80.64712701585493
 20
117.3630738768832
 30
0.0
 10
80.77775445502309
 20
118.1554392549037
 30
0.0
 10
81.00579705094118
 20
119.7354442488393
 30
0.0
 10
81.10349357292382
 20
120.5246351655677
 30
0.0
 10
81.34071573563368
 20
122.8894304883281
 30
0.0
 10
81.42313743400831
 20
124.4621959928478
 30
0.0
 10
81.42002516283689
 20
127.5993771475684
 30
0.0
 10
81.33459945587404
 20
129.1637981800038
 30
0.0
 10
81.01745863126244
 20
132.2853675205734
 30
0.0
 10
80.78672375881702
 20
133.8425645612377
 30
0.0
 10
80.50380915982461
 20
135.3971675059691
 30
0.0
  0
LINE
  5
36
330
2B
100
AcDbEntity
  8
52134120
  6
Continuous
 62
     7
 48
25.4
100
AcDbLine
 10
80.5038091598
 20
135.397167506
 30
0.0
 11
71.7397647705
 21
135.397167506
 31
0.0
  0
LINE
  5
37
330
2B
100
AcDbEntity
  8
52134120
  6
Continuous
 62
     7
 48
25.4
100
AcDbLine
 10
71.7397647705
 20
144.8079768938
 30
0.0
 11
80.5038091598
 21
144.8079768938
 31
0.0
  0
ARC
  5
38
330
2B
100
AcDbEntity
  8
52134120
  6
Continuous
 62
     7
 48
25.4
100
AcDbCircle
 10
68.7562972925
 20
140.1025721999
 30
0.0
 40
12.65483577159224
100
AcDbArc
 50
338.1716867205
 51
21.8283132795
  0
LINE
  5
39
330
2B
100
AcDbEntity
  8
52134120
  6
Continuous
 62
     7
 48
25.4
100
AcDbLine
 10
93.1217869651
 20
114.1453056838
 30
0.0
 11
93.1217869651
 21
139.4863581182
 31
0.0
  0
ARC
  5
3A
330
2B
100
AcDbEntity
  8
52134120
  6
Continuous
 62
     7
 48
25.4
100
AcDbCircle
 10
93.7589218908
 20
100.9503307433
 30
0.0
 40
13.21034839038231
100
AcDbArc
 50
62.1941845237
 51
92.7644471292
  0
LINE
  5
3B
330
2B
100
AcDbEntity
  8
52134120
  6
Continuous
 62
     7
 48
25.4
100
AcDbLine
 10
99.9212379441
 20
112.6353281954
 30
0.0
 11
108.6217296126
 21
112.6353281954
 31
0.0
  0
ARC
  5
3C
330
2B
100
AcDbEntity
  8
52134120
  6
Continuous
 62
     7
 48
25.4
100
AcDbCircle
 10
103.0192154343
 20
94.9675486456
 30
0.0
 40
15.20078578835234
100
AcDbArc
 50
15.5135667825
 51
55.7977777192
  0
LINE
  5
3D
330
2B
100
AcDbEntity
  8
52134120
  6
Continuous
 62
     7
 48
25.4
100
AcDbLine
 10
111.5638120795
 20
107.5394918826
 30
0.0
 11
109.4060967005
 21
103.8022192179
 31
0.0
  0
LINE
  5
3E
330
2B
100
AcDbEntity
  8
52134120
  6
Continuous
 62
     7
 48
25.4
100
AcDbLine
 10
117.6661932461
 20
99.0332502538
 30
0.0
 11
109.4060967005
 21
103.8022192179
 31
0.0
  0
SPLINE
  5
3F
330
2B
100
AcDbEntity
  8
52134120
  6
Continuous
 62
     7
 48
25.4
100
AcDbSpline
210
0.0
220
0.0
230
1.0
 70
     8
 71
     3
 72
     8
 73
     4
 74
     0
 42
0.0000000001
 43
0.0000000001
 40
0.0
 40
0.0
 40
0.0
 40
0.0
 40
1.0
 40
1.0
 40
1.0
 40
1.0
 10
109.406096700509
 20
103.8022192178607
 30
0.0
 10
107.9315766739792
 20
102.9932321701518
 30
0.0
 10
106.4635156394897
 20
102.1721976384762
 30
0.0
 10
104.9977624356697
 20
101.3473721923435
 30
0.0
  0
ARC
  5
40
330
2B
100
AcDbEntity
  8
52134120
  6
Continuous
 62
     7
 48
25.4
100
AcDbCircle
 10
78.6566338226
 20
80.0001513186
 30
0.0
 40
43.40512160436791
100
AcDbArc
 50
16.8324594342
 51
26.0081454759
  0
LINE
  5
41
330
2B
100
AcDbEntity
  8
52134120
  6
Continuous
 62
     7
 48
25.4
100
AcDbLine
 10
86.448691528
 20
112.0566832741
 30
0.0
 11
98.5458114946
 21
105.072407805
 31
0.0
  0
LINE
  5
42
330
2B
100
AcDbEntity
  8
52134120
  6
Continuous
 62
     7
 48
25.4
100
AcDbLine
 10
92.3749245825
 20
113.6351710248
 30
0.0
 11
98.4676042487
 21
110.1175607794
 31
0.0
  0
LINE
  5
43
330
2B
100
AcDbEntity
  8
52134120
  6
Continuous
 62
     7
 48
25.4
100
AcDbLine
 10
89.2246726481
 20
112.1964405815
 30
0.0
 11
89.2246726481
 21
141.7363581182
 31
0.0
  0
ARC
  5
44
330
2B
100
AcDbEntity
  8
52134120
  6
Continuous
 62
     7
 48
25.4
100
AcDbCircle
 10
127.3209245825
 20
32.948951513
 30
0.0
 40
87.92888566971263
100
AcDbArc
 50
113.4179137217
 51
115.6747588139
  0
LINE
  5
45
330
2B
100
AcDbEntity
  8
52134120
  6
Continuous
 62
     7
 48
25.4
100
AcDbLine
 10
92.3749245825
 20
113.6351710248
 30
0.0
 11
93.1217869651
 21
114.1453056838
 31
0.0
  0
LINE
  5
46
330
2B
100
AcDbEntity
  8
52134120
  6
Continuous
 62
     7
 48
25.4
100
AcDbLine
 10
81.6217869651
 20
110.4717786914
 30
0.0
 11
81.6217869651
 21
141.7363581182
 31
0.0
  0
ARC
  5
47
330
2B
100
AcDbEntity
  8
52134120
  6
Continuous
 62
     7
 48
25.4
100
AcDbCircle
 10
101.2690496498
 20
58.7778169888
 30
0.0
 40
55.30172336830588
100
AcDbArc
 50
105.5447480728
 51
110.810236161
  0
ARC
  5
48
330
2B
100
AcDbEntity
  8
52134120
  6
Continuous
 62
     7
 48
25.4
100
AcDbCircle
 10
89.5075793062
 20
78.9377489972
 30
0.0
 40
33.25989479951505
100
AcDbArc
 50
90.4873603199
 51
95.2769071
  0
LINE
  5
49
330
2B
100
AcDbEntity
  8
52134120
  6
Continuous
 62
     7
 48
25.4
100
AcDbLine
 10
81.0870845405
 20
109.0949497291
 30
0.0
 11
81.6217869651
 21
110.4717786914
 31
0.0
  0
LINE
  5
4A
330
2B
100
AcDbEntity
  8
52134120
  6
Continuous
 62
     7
 48
25.4
100
AcDbLine
 10
150.1217869651
 20
141.7363581182
 30
0.0
 11
150.1217869651
 21
110.2363581182
 31
0.0
  0
LINE
  5
4B
330
2B
100
AcDbEntity
  8
52134120
  6
Continuous
 62
     7
 48
25.4
100
AcDbLine
 10
142.5189012822
 20
141.7363581182
 30
0.0
 11
142.5189012822
 21
110.2363581182
 31
0.0
  0
LINE
  5
4C
330
2B
100
AcDbEntity
  8
52134120
  6
Continuous
 62
     7
 48
25.4
100
AcDbLine
 10
138.6217869651
 20
113.4640675291
 30
0.0
 11
138.6217869651
 21
139.4863581182
 31
0.0
  0
LINE
  5
4D
330
2B
100
AcDbEntity
  8
52134120
  6
Continuous
 62
     7
 48
25.4
100
AcDbLine
 10
151.2397647705
 20
116.5755487304
 30
0.0
 11
160.0038091598
 21
116.5755487304
 31
0.0
  0
SPLINE
  5
4E
330
2B
100
AcDbEntity
  8
52134120
  6
Continuous
 62
     7
 48
25.4
100
AcDbSpline
210
0.0
220
0.0
230
1.0
 70
     8
 71
     3
 72
    14
 73
    10
 74
     0
 42
0.0000000001
 43
0.0000000001
 40
0.0
 40
0.0
 40
0.0
 40
0.0
 40
0.2500000000000001
 40
0.2500000000000001
 40
0.5000000000000001
 40
0.5000000000000001
 40
0.7500000000000001
 40
0.7500000000000001
 40
1.0
 40
1.0
 40
1.0
 40
1.0
 10
160.0038091598246
 20
116.5755487303873
 30
0.0
 10
160.2880672258812
 20
118.1375339659636
 30
0.0
 10
160.5198115953598
 20
119.7038601325262
 30
0.0
 10
160.8366980295468
 20
122.8363162914236
 30
0.0
 10
160.9211478445224
 20
124.404024727592
 30
0.0
 10
160.9220550865721
 20
127.5428025571653
 30
0.0
 10
160.838470384785
 20
129.1138727934256
 30
0.0
 10
160.5213085916547
 20
132.2590141043377
 30
0.0
 10
160.2878035997047
 20
133.8366308843266
 30
0.0
 10
160.0038091598246
 20
135.3971675059691
 30
0.0
  0
LINE
  5
4F
330
2B
100
AcDbEntity
  8
52134120
  6
Continuous
 62
     7
 48
25.4
100
AcDbLine
 10
160.0038091598
 20
135.397167506
 30
0.0
 11
151.2397647705
 21
135.397167506
 31
0.0
  0
SPLINE
  5
50
330
2B
100
AcDbEntity
  8
52134120
  6
Continuous
 62
     7
 48
25.4
100
AcDbSpline
210
0.0
220
0.0
230
1.0
 70
     8
 71
     3
 72
    16
 73
    12
 74
     0
 42
0.0000000001
 43
0.0000000001
 40
0.0
 40
0.0
 40
0.0
 40
0.0
 40
0.2499999999999999
 40
0.2499999999999999
 40
0.4999999999999999
 40
0.4999999999999999
 40
0.7499999999999999
 40
0.7499999999999999
 40
0.8749999999999999
 40
0.8749999999999999
 40
1.0
 40
1.0
 40
1.0
 40
1.0
 10
151.2397647704746
 20
135.3971675059691
 30
0.0
 10
150.9568501714822
 20
133.8425645612377
 30
0.0
 10
150.7261152990367
 20
132.2853675205734
 30
0.0
 10
150.4089744744252
 20
129.1637981800038
 30
0.0
 10
150.3235487674623
 20
127.5993771475684
 30
0.0
 10
150.3204364962909
 20
124.4621959928478
 30
0.0
 10
150.4028581946655
 20
122.8894304883281
 30
0.0
 10
150.6400803573753
 20
120.5246351655677
 30
0.0
 10
150.737776879358
 20
119.7354442488393
 30
0.0
 10
150.9658194752761
 20
118.1554392549037
 30
0.0
 10
151.0964469144443
 20
117.3630738768832
 30
0.0
 10
151.2397647704746
 20
116.5755487303873
 30
0.0
  0
LINE
  5
51
330
2B
100
AcDbEntity
  8
52134120
  6
Continuous
 62
     7
 48
25.4
100
AcDbLine
 10
151.2397647705
 20
107.1647393426
 30
0.0
 11
160.0038091598
 21
107.1647393426
 31
0.0
  0
ARC
  5
52
330
2B
100
AcDbEntity
  8
52134120
  6
Continuous
 62
     7
 48
25.4
100
AcDbCircle
 10
148.256297253
 20
111.8701440365
 30
0.0
 40
12.65483580825103
100
AcDbArc
 50
338.1716867869
 51
21.8283132131
  0
ARC
  5
53
330
2B
100
AcDbEntity
  8
52134120
  6
Continuous
 62
     7
 48
25.4
100
AcDbCircle
 10
162.9872766367
 20
111.8701440365
 30
0.0
 40
12.65483577057223
100
AcDbArc
 50
158.1716867186
 51
201.8283132814
  0
LINE
  5
54
330
2B
100
AcDbEntity
  8
52134120
  6
Continuous
 62
     7
 48
25.4
100
AcDbLine
 10
151.2397647705
 20
144.8079768938
 30
0.0
 11
160.0038091598
 21
144.8079768938
 31
0.0
  0
ARC
  5
55
330
2B
100
AcDbEntity
  8
52134120
  6
Continuous
 62
     7
 48
25.4
100
AcDbCircle
 10
148.256297253
 20
140.1025721999
 30
0.0
 40
12.65483580825085
100
AcDbArc
 50
338.1716867869
 51
21.8283132131
  0
ARC
  5
56
330
2B
100
AcDbEntity
  8
52134120
  6
Continuous
 62
     7
 48
25.4
100
AcDbCircle
 10
162.9872766378
 20
140.1025721999
 30
0.0
 40
12.65483577159223
100
AcDbArc
 50
158.1716867205
 51
201.8283132795
  0
ARC
  5
57
330
2B
100
AcDbEntity
  8
52134120
  6
Continuous
 62
     7
 48
25.4
100
AcDbCircle
 10
128.0337878194
 20
101.6013906692
 30
0.0
 40
23.48087989518957
100
AcDbArc
 50
106.4155972282
 51
133.5844027718
  0
ARC
  5
58
330
2B
100
AcDbEntity
  8
52134120
  6
Continuous
 62
     7
 48
25.4
100
AcDbCircle
 10
225.2030700549
 20
200.4605512525
 30
0.0
 40
122.7383671135873
100
AcDbArc
 50
225.1370521065
 51
226.7653793911
  0
ARC
  5
59
330
2B
100
AcDbEntity
  8
52134120
  6
Continuous
 62
     7
 48
25.4
100
AcDbCircle
 10
224.5895697166
 20
271.5953498453
 30
0.0
 40
179.9887833120849
100
AcDbArc
 50
235.0177906996
 51
241.4693664954
  0
LINE
  5
5A
330
2B
100
AcDbEntity
  8
52134120
  6
Continuous
 62
     7
 48
25.4
100
AcDbLine
 10
121.3980302588
 20
124.125121316
 30
0.0
 11
111.8455436715
 21
118.6099906134
 31
0.0
  0
ARC
  5
5B
330
2B
100
AcDbEntity
  8
52134120
  6
Continuous
 62
     7
 48
25.4
100
AcDbCircle
 10
-71.1288867089
 20
213.4824231241
 30
0.0
 40
206.1077888473861
100
AcDbArc
 50
330.7058779794
 51
332.593213799
  0
LINE
  5
5C
330
2B
100
AcDbEntity
  8
52134120
  6
Continuous
 62
     7
 48
25.4
100
AcDbLine
 10
108.6217296126
 20
112.6353281954
 30
0.0
 11
111.5638120795
 21
107.5394918826
 31
0.0
  0
LINE
  5
5D
330
2B
100
AcDbEntity
  8
52134120
  6
Continuous
 62
     7
 48
25.4
100
AcDbLine
 10
146.3796362672
 20
101.9442512031
 30
0.0
 11
122.5639376631
 21
88.1942512031
 31
0.0
  0
LINE
  5
5E
330
2B
100
AcDbEntity
  8
52134120
  6
Continuous
 62
     7
 48
25.4
100
AcDbLine
 10
149.4531934257
 20
101.1206940446
 30
0.0
 11
121.7403805046
 21
85.1206940446
 31
0.0
  0
LINE
  5
5F
330
2B
100
AcDbEntity
  8
52134120
  6
Continuous
 62
     7
 48
25.4
100
AcDbLine
 10
101.0247694924
 20
88.9160177816
 30
0.0
 11
111.4170743378
 21
82.9160177816
 31
0.0
  0
LINE
  5
60
330
2B
100
AcDbEntity
  8
52134120
  6
Continuous
 62
     7
 48
25.4
100
AcDbLine
 10
114.0413331465
 20
81.4613673706
 30
0.0
 11
98.4528758784
 21
90.4613673706
 31
0.0
  0
ARC
  5
61
330
2B
100
AcDbEntity
  8
52134120
  6
Continuous
 62
     7
 48
25.4
100
AcDbCircle
 10
26.3569971777
 20
80.8913795582
 30
0.0
 40
94.5688722302322
100
AcDbArc
 50
6.8731590695
 51
7.0932341806
  0
LINE
  5
62
330
2B
100
AcDbEntity
  8
52134120
  6
Continuous
 62
     7
 48
25.4
100
AcDbLine
 10
120.2020890551
 20
92.5691501258
 30
0.0
 11
104.9977624357
 21
101.3473721923
 31
0.0
  0
LINE
  5
63
330
2B
100
AcDbEntity
  8
52134120
  6
Continuous
 62
     7
 48
25.4
100
AcDbLine
 10
104.9977624357
 20
101.3473721923
 30
0.0
 11
99.9848996116
 21
92.6648390897
 31
0.0
  0
ELLIPSE
  5
64
330
2B
100
AcDbEntity
  8
52134120
  6
Continuous
 62
     7
 48
25.4
100
AcDbEllipse
 10
89.6213635687
 20
107.1647393426
 30
0.0
 11
-10.7855720465107
 21
-1.815202255603984
 31
0.0
210
0.0
220
0.0
230
1.0
 40
0.4514162296
 41
5.545732207443082
 42
5.926323117707275
  0
LINE
  5
65
330
2B
100
AcDbEntity
  8
52134120
  6
Continuous
 62
     7
 48
25.4
100
AcDbLine
 10
76.8022407838
 20
102.9613673706
 30
0.0
 11
92.3906980519
 21
93.9613673706
 31
0.0
  0
LINE
  5
66
330
2B
100
AcDbEntity
  8
52134120
  6
Continuous
 62
     7
 48
25.4
100
AcDbLine
 10
99.9212379441
 20
112.6353281954
 30
0.0
 11
98.4676042487
 21
110.1175607794
 31
0.0
  0
LINE
  5
67
330
2B
100
AcDbEntity
  8
52134120
  6
Continuous
 62
     7
 48
25.4
100
AcDbLine
 10
98.4676042487
 20
110.1175607794
 30
0.0
 11
98.5458114946
 21
105.072407805
 31
0.0
  0
LINE
  5
68
330
2B
100
AcDbEntity
  8
52134120
  6
Continuous
 62
     7
 48
25.4
100
AcDbLine
 10
98.5458114946
 20
105.072407805
 30
0.0
 11
93.5329486706
 21
96.3898747024
 31
0.0
  0
LINE
  5
69
330
2B
100
AcDbEntity
  8
52134120
  6
Continuous
 62
     7
 48
25.4
100
AcDbLine
 10
93.5329486706
 20
96.3898747024
 30
0.0
 11
99.9848996116
 21
92.6648390897
 31
0.0
  0
LINE
  5
6A
330
2B
100
AcDbEntity
  8
52134120
  6
Continuous
 62
     7
 48
25.4
100
AcDbLine
 10
104.2567869651
 20
125.6868471157
 30
0.0
 11
104.2567869651
 21
125.9863581182
 31
0.0
  0
LINE
  5
6B
330
2B
100
AcDbEntity
  8
52134120
  6
Continuous
 62
     7
 48
25.4
100
AcDbLine
 10
104.2567869651
 20
125.9863581182
 30
0.0
 11
104.2567869651
 21
126.2858691206
 31
0.0
  0
LINE
  5
6C
330
2B
100
AcDbEntity
  8
52134120
  6
Continuous
 62
     7
 48
25.4
100
AcDbLine
 10
110.5159556693
 20
126.2858691206
 30
0.0
 11
109.2567869651
 21
127.5419815901
 31
0.0
  0
LINE
  5
6D
330
2B
100
AcDbEntity
  8
52134120
  6
Continuous
 62
     7
 48
25.4
100
AcDbLine
 10
109.2567869651
 20
127.5419815901
 30
0.0
 11
109.2567869651
 21
128.4863581182
 31
0.0
  0
LINE
  5
6E
330
2B
100
AcDbEntity
  8
52134120
  6
Continuous
 62
     7
 48
25.4
100
AcDbLine
 10
111.750681959
 20
125.9863581182
 30
0.0
 11
109.2567869651
 21
123.4863581182
 31
0.0
  0
LINE
  5
6F
330
2B
100
AcDbEntity
  8
52134120
  6
Continuous
 62
     7
 48
25.4
100
AcDbLine
 10
109.2567869651
 20
123.4863581182
 30
0.0
 11
109.2567869651
 21
124.4307346463
 31
0.0
  0
LINE
  5
70
330
2B
100
AcDbEntity
  8
52134120
  6
Continuous
 62
     7
 48
25.4
100
AcDbLine
 10
110.5159556693
 20
125.6868471157
 30
0.0
 11
104.2567869651
 21
125.6868471157
 31
0.0
  0
LINE
  5
71
330
2B
100
AcDbEntity
  8
52134120
  6
Continuous
 62
     7
 48
25.4
100
AcDbLine
 10
104.2567869651
 20
126.2858691206
 30
0.0
 11
110.5159556693
 21
126.2858691206
 31
0.0
  0
LINE
  5
72
330
2B
100
AcDbEntity
  8
52134120
  6
Continuous
 62
     7
 48
25.4
100
AcDbLine
 10
109.2567869651
 20
128.4863581182
 30
0.0
 11
111.7537307304
 21
125.9894143529
 31
0.0
  0
LINE
  5
73
330
2B
100
AcDbEntity
  8
52134120
  6
Continuous
 62
     7
 48
25.4
100
AcDbLine
 10
109.2567869651
 20
124.4307346463
 30
0.0
 11
110.5159556693
 21
125.6868471157
 31
0.0
  0
LINE
  5
74
330
2B
100
AcDbEntity
  8
52134120
  6
Continuous
 62
     7
 48
25.4
100
AcDbLine
 10
95.1230950336
 20
128.4863581182
 30
0.0
 11
94.6677160605
 21
126.9857468712
 31
0.0
  0
LINE
  5
75
330
2B
100
AcDbEntity
  8
52134120
  6
Continuous
 62
     7
 48
25.4
100
AcDbLine
 10
94.6677160605
 20
126.9857468712
 30
0.0
 11
96.0216280409
 21
126.9857468712
 31
0.0
  0
LINE
  5
76
330
2B
100
AcDbEntity
  8
52134120
  6
Continuous
 62
     7
 48
25.4
100
AcDbLine
 10
96.0216280409
 20
126.9857468712
 30
0.0
 11
96.0216280409
 21
123.4863581182
 31
0.0
  0
LINE
  5
77
330
2B
100
AcDbEntity
  8
52134120
  6
Continuous
 62
     7
 48
25.4
100
AcDbLine
 10
96.0216280409
 20
123.4863581182
 30
0.0
 11
97.5252955226
 21
123.4863581182
 31
0.0
  0
LINE
  5
78
330
2B
100
AcDbEntity
  8
52134120
  6
Continuous
 62
     7
 48
25.4
100
AcDbLine
 10
97.5252955226
 20
123.4863581182
 30
0.0
 11
97.5252955226
 21
126.9857468712
 31
0.0
  0
LINE
  5
79
330
2B
100
AcDbEntity
  8
52134120
  6
Continuous
 62
     7
 48
25.4
100
AcDbLine
 10
97.5252955226
 20
126.9857468712
 30
0.0
 11
98.4146598258
 21
126.9857468712
 31
0.0
  0
LINE
  5
7A
330
2B
100
AcDbEntity
  8
52134120
  6
Continuous
 62
     7
 48
25.4
100
AcDbLine
 10
98.4146598258
 20
126.9857468712
 30
0.0
 11
98.879207503
 21
128.4863581182
 31
0.0
  0
LINE
  5
7B
330
2B
100
AcDbEntity
  8
52134120
  6
Continuous
 62
     7
 48
25.4
100
AcDbLine
 10
98.879207503
 20
128.4863581182
 30
0.0
 11
95.1230950336
 21
128.4863581182
 31
0.0
  0
LINE
  5
7C
330
2B
100
AcDbEntity
  8
52134120
  6
Continuous
 62
     7
 48
25.4
100
AcDbLine
 10
100.5204055471
 20
126.4203434483
 30
0.0
 11
100.0833639823
 21
124.9900255998
 31
0.0
  0
LINE
  5
7D
330
2B
100
AcDbEntity
  8
52134120
  6
Continuous
 62
     7
 48
25.4
100
AcDbLine
 10
100.0833639823
 20
124.9900255998
 30
0.0
 11
100.7007233955
 21
124.9900255998
 31
0.0
  0
LINE
  5
7E
330
2B
100
AcDbEntity
  8
52134120
  6
Continuous
 62
     7
 48
25.4
100
AcDbLine
 10
100.7007233955
 20
124.9900255998
 30
0.0
 11
100.2392319529
 21
123.4863581182
 31
0.0
  0
LINE
  5
7F
330
2B
100
AcDbEntity
  8
52134120
  6
Continuous
 62
     7
 48
25.4
100
AcDbLine
 10
100.2392319529
 20
123.4863581182
 30
0.0
 11
98.0570803637
 21
123.4863581182
 31
0.0
  0
LINE
  5
80
330
2B
100
AcDbEntity
  8
52134120
  6
Continuous
 62
     7
 48
25.4
100
AcDbLine
 10
98.0570803637
 20
123.4863581182
 30
0.0
 11
99.5851977231
 21
128.4863581182
 31
0.0
  0
LINE
  5
81
330
2B
100
AcDbEntity
  8
52134120
  6
Continuous
 62
     7
 48
25.4
100
AcDbLine
 10
99.5851977231
 20
128.4863581182
 30
0.0
 11
101.4586696057
 21
128.4863581182
 31
0.0
  0
LINE
  5
82
330
2B
100
AcDbEntity
  8
52134120
  6
Continuous
 62
     7
 48
25.4
100
AcDbLine
 10
101.4586696057
 20
128.4863581182
 30
0.0
 11
102.9867869651
 21
123.4863581182
 31
0.0
  0
LINE
  5
83
330
2B
100
AcDbEntity
  8
52134120
  6
Continuous
 62
     7
 48
25.4
100
AcDbLine
 10
102.9867869651
 20
123.4863581182
 30
0.0
 11
101.4189385544
 21
123.4863581182
 31
0.0
  0
LINE
  5
84
330
2B
100
AcDbEntity
  8
52134120
  6
Continuous
 62
     7
 48
25.4
100
AcDbLine
 10
101.4189385544
 20
123.4863581182
 30
0.0
 11
100.5204055471
 21
126.4203434483
 31
0.0
  0
LINE
  5
85
330
2B
100
AcDbEntity
  8
52134120
  6
Continuous
 62
     7
 48
25.4
100
AcDbLine
 10
161.1217869651
 20
141.7363581182
 30
0.0
 11
161.1217869651
 21
110.2363581182
 31
0.0
  0
LINE
  5
86
330
2B
100
AcDbEntity
  8
52134120
  6
Continuous
 62
     7
 48
25.4
100
AcDbLine
 10
70.6217869651
 20
110.2363581182
 30
0.0
 11
70.6217869651
 21
141.7363581182
 31
0.0
  0
ARC
  5
87
330
2B
100
AcDbEntity
  8
52134120
  6
Continuous
 62
     7
 48
25.4
100
AcDbCircle
 10
83.4872766773
 20
111.8701440365
 30
0.0
 40
12.65483580825094
100
AcDbArc
 50
158.1716867869
 51
201.8283132131
  0
SPLINE
  5
88
330
2B
100
AcDbEntity
  8
52134120
  6
Continuous
 62
     7
 48
25.4
100
AcDbSpline
210
0.0
220
0.0
230
1.0
 70
     8
 71
     3
 72
    14
 73
    10
 74
     0
 42
0.0000000001
 43
0.0000000001
 40
0.0
 40
0.0
 40
0.0
 40
0.0
 40
0.25
 40
0.25
 40
0.5
 40
0.5
 40
0.75
 40
0.75
 40
1.0
 40
1.0
 40
1.0
 40
1.0
 10
71.73976477047457
 20
116.5755487303873
 30
0.0
 10
71.45550580788363
 20
118.1375388923796
 30
0.0
 10
71.2237025942453
 20
119.7042831481755
 30
0.0
 10
70.90682502815794
 20
122.8369867584012
 30
0.0
 10
70.82240299570049
 20
124.4047346743312
 30
0.0
 10
70.8215415657249
 20
127.5433990102372
 30
0.0
 10
70.90514190873309
 20
129.1143161798028
 30
0.0
 10
71.22226809042768
 20
132.2589784275442
 30
0.0
 10
71.45574417323614
 20
133.8364871508238
 30
0.0
 10
71.73976477047457
 20
135.3971675059691
 30
0.0
  0
ARC
  5
89
330
2B
100
AcDbEntity
  8
52134120
  6
Continuous
 62
     7
 48
25.4
100
AcDbCircle
 10
83.4872766773
 20
140.1025721999
 30
0.0
 40
12.65483580825098
100
AcDbArc
 50
158.1716867869
 51
201.8283132131
  0
LINE
  5
8A
330
2B
100
AcDbEntity
  8
52134120
  6
Continuous
 62
     7
 48
25.4
100
AcDbLine
 10
100.2803941111
 20
64.7814223398
 30
0.0
 11
90.8880892657
 21
70.2040720706
 31
0.0
  0
LINE
  5
8B
330
2B
100
AcDbEntity
  8
52134120
  6
Continuous
 62
     7
 48
25.4
100
AcDbLine
 10
101.2803941111
 20
65.358772609
 30
0.0
 11
90.8880892657
 21
71.358772609
 31
0.0
  0
LINE
  5
8C
330
2B
100
AcDbEntity
  8
52134120
  6
Continuous
 62
     7
 48
25.4
100
AcDbLine
 10
85.8211019676
 20
61.5824931674
 30
0.0
 11
95.3473814092
 21
56.0824931674
 31
0.0
  0
LINE
  5
8D
330
2B
100
AcDbEntity
  8
52134120
  6
Continuous
 62
     7
 48
25.4
100
AcDbLine
 10
85.0128115907
 20
62.9824931674
 30
0.0
 11
96.963962163
 21
56.0824931674
 31
0.0
  0
LINE
  5
8E
330
2B
100
AcDbEntity
  8
52134120
  6
Continuous
 62
     7
 48
25.4
100
AcDbLine
 10
87.4086664023
 20
67.1322354286
 30
0.0
 11
99.3598169745
 21
60.2322354286
 31
0.0
  0
LINE
  5
8F
330
2B
100
AcDbEntity
  8
52134120
  6
Continuous
 62
     7
 48
25.4
100
AcDbLine
 10
88.6380892657
 20
67.461658292
 30
0.0
 11
99.0303941111
 21
61.461658292
 31
0.0
  0
LINE
  5
90
330
2B
100
AcDbEntity
  8
52134120
  6
Continuous
 62
     7
 48
25.4
100
AcDbLine
 10
88.6635702129
 20
69.0057925871
 30
0.0
 11
100.354913164
 21
62.2557925871
 31
0.0
  0
LINE
  5
91
330
2B
100
AcDbEntity
  8
52134120
  6
Continuous
 62
     7
 48
25.4
100
AcDbLine
 10
89.2385702129
 20
70.0017218014
 30
0.0
 11
100.929913164
 21
63.2517218014
 31
0.0
  0
LINE
  5
92
330
2B
100
AcDbEntity
  8
52134120
  6
Continuous
 62
     7
 48
25.4
100
AcDbLine
 10
89.7664392432
 20
95.4160177816
 30
0.0
 11
79.3741343977
 21
101.4160177816
 31
0.0
  0
LINE
  5
93
330
2B
100
AcDbEntity
  8
52134120
  6
Continuous
 62
     7
 48
25.4
100
AcDbLine
 10
78.6297590165
 20
77.2814223398
 30
0.0
 11
69.2374541711
 21
82.7040720706
 31
0.0
  0
LINE
  5
94
330
2B
100
AcDbEntity
  8
52134120
  6
Continuous
 62
     7
 48
25.4
100
AcDbLine
 10
79.6297590165
 20
77.858772609
 30
0.0
 11
69.2374541711
 21
83.858772609
 31
0.0
  0
LINE
  5
95
330
2B
100
AcDbEntity
  8
52134120
  6
Continuous
 62
     7
 48
25.4
100
AcDbLine
 10
64.170466873
 20
74.0824931674
 30
0.0
 11
73.6967463146
 21
68.5824931674
 31
0.0
  0
LINE
  5
96
330
2B
100
AcDbEntity
  8
52134120
  6
Continuous
 62
     7
 48
25.4
100
AcDbLine
 10
63.3621764961
 20
75.4824931674
 30
0.0
 11
75.3133270684
 21
68.5824931674
 31
0.0
  0
LINE
  5
97
330
2B
100
AcDbEntity
  8
52134120
  6
Continuous
 62
     7
 48
25.4
100
AcDbLine
 10
65.7580313077
 20
79.6322354286
 30
0.0
 11
77.7091818799
 21
72.7322354286
 31
0.0
  0
LINE
  5
98
330
2B
100
AcDbEntity
  8
52134120
  6
Continuous
 62
     7
 48
25.4
100
AcDbLine
 10
66.9874541711
 20
79.961658292
 30
0.0
 11
77.3797590165
 21
73.961658292
 31
0.0
  0
LINE
  5
99
330
2B
100
AcDbEntity
  8
52134120
  6
Continuous
 62
     7
 48
25.4
100
AcDbLine
 10
67.0129351183
 20
81.5057925871
 30
0.0
 11
78.7042780694
 21
74.7557925871
 31
0.0
  0
LINE
  5
9A
330
2B
100
AcDbEntity
  8
52134120
  6
Continuous
 62
     7
 48
25.4
100
AcDbLine
 10
67.5879351183
 20
82.5017218014
 30
0.0
 11
79.2792780694
 21
75.7517218014
 31
0.0
  0
LINE
  5
9B
330
2B
100
AcDbEntity
  8
52134120
  6
Continuous
 62
     7
 48
25.4
100
AcDbLine
 10
121.3162505252
 20
84.8553087179
 30
0.0
 11
127.6791578072
 21
74.6725284894
 31
0.0
  0
LINE
  5
9C
330
2B
100
AcDbEntity
  8
52134120
  6
Continuous
 62
     7
 48
25.4
100
AcDbLine
 10
155.5321815681
 20
90.7534792555
 30
0.0
 11
149.8950888501
 21
101.3553087179
 31
0.0
  0
ARC
  5
9D
330
2B
100
AcDbEntity
  8
52134120
  6
Continuous
 62
     7
 48
25.4
100
AcDbCircle
 10
138.4080678694
 20
80.572509519
 30
0.0
 40
18.60108867434927
100
AcDbArc
 50
337.5614716397
 51
21.2436396899
  0
ARC
  5
9E
330
2B
100
AcDbEntity
  8
52134120
  6
Continuous
 62
     7
 48
25.4
100
AcDbCircle
 10
145.0581930835
 20
84.4119611015
 30
0.0
 40
18.60108867434926
100
AcDbArc
 50
218.7563603101
 51
262.4385283603
  0
LINE
  5
9F
330
2B
100
AcDbEntity
  8
52134120
  6
Continuous
 62
     7
 48
25.4
100
AcDbLine
 10
127.6791578072
 20
74.6725284894
 30
0.0
 11
130.5527852017
 21
72.7674927988
 31
0.0
  0
LINE
  5
A0
330
2B
100
AcDbEntity
  8
52134120
  6
Continuous
 62
     7
 48
25.4
100
AcDbLine
 10
155.745177174
 20
87.3123270856
 30
0.0
 11
155.5321815681
 21
90.7534792555
 31
0.0
  0
LINE
  5
A1
330
2B
100
AcDbEntity
  8
52134120
  6
Continuous
 62
     7
 48
25.4
100
AcDbLine
 10
138.6217869651
 20
139.4863581182
 30
0.0
 11
93.1217869651
 21
139.4863581182
 31
0.0
  0
LINE
  5
A2
330
2B
100
AcDbEntity
  8
52134120
  6
Continuous
 62
     7
 48
25.4
100
AcDbLine
 10
93.1217869651
 20
139.4863581182
 30
0.0
 11
89.2246726481
 21
141.7363581182
 31
0.0
  0
LINE
  5
A3
330
2B
100
AcDbEntity
  8
52134120
  6
Continuous
 62
     7
 48
25.4
100
AcDbLine
 10
89.2246726481
 20
141.7363581182
 30
0.0
 11
81.6217869651
 21
141.7363581182
 31
0.0
  0
LINE
  5
A4
330
2B
100
AcDbEntity
  8
52134120
  6
Continuous
 62
     7
 48
25.4
100
AcDbLine
 10
81.6217869651
 20
141.7363581182
 30
0.0
 11
80.5038091598
 21
144.8079768938
 31
0.0
  0
LINE
  5
A5
330
2B
100
AcDbEntity
  8
52134120
  6
Continuous
 62
     7
 48
25.4
100
AcDbLine
 10
151.2397647705
 20
144.8079768938
 30
0.0
 11
150.1217869651
 21
141.7363581182
 31
0.0
  0
LINE
  5
A6
330
2B
100
AcDbEntity
  8
52134120
  6
Continuous
 62
     7
 48
25.4
100
AcDbLine
 10
150.1217869651
 20
110.2363581182
 30
0.0
 11
151.2397647705
 21
107.1647393426
 31
0.0
  0
LINE
  5
A7
330
2B
100
AcDbEntity
  8
52134120
  6
Continuous
 62
     7
 48
25.4
100
AcDbLine
 10
150.1217869651
 20
141.7363581182
 30
0.0
 11
142.5189012822
 21
141.7363581182
 31
0.0
  0
LINE
  5
A8
330
2B
100
AcDbEntity
  8
52134120
  6
Continuous
 62
     7
 48
25.4
100
AcDbLine
 10
142.5189012822
 20
110.2363581182
 30
0.0
 11
150.1217869651
 21
110.2363581182
 31
0.0
  0
LINE
  5
A9
330
2B
100
AcDbEntity
  8
52134120
  6
Continuous
 62
     7
 48
25.4
100
AcDbLine
 10
142.5189012822
 20
141.7363581182
 30
0.0
 11
138.6217869651
 21
139.4863581182
 31
0.0
  0
LINE
  5
AA
330
2B
100
AcDbEntity
  8
52134120
  6
Continuous
 62
     7
 48
25.4
100
AcDbLine
 10
141.1154847144
 20
111.0466210514
 30
0.0
 11
142.5189012822
 21
110.2363581182
 31
0.0
  0
LINE
  5
AB
330
2B
100
AcDbEntity
  8
52134120
  6
Continuous
 62
     7
 48
25.4
100
AcDbLine
 10
146.3796362672
 20
101.9442512031
 30
0.0
 11
141.1212484517
 21
111.0520460653
 31
0.0
  0
LINE
  5
AC
330
2B
100
AcDbEntity
  8
52134120
  6
Continuous
 62
     7
 48
25.4
100
AcDbLine
 10
120.2418983274
 20
92.2161413096
 30
0.0
 11
122.5639376631
 21
88.1942512031
 31
0.0
  0
LINE
  5
AD
330
2B
100
AcDbEntity
  8
52134120
  6
Continuous
 62
     7
 48
25.4
100
AcDbLine
 10
149.4531934257
 20
101.1206940446
 30
0.0
 11
146.3796362672
 21
101.9442512031
 31
0.0
  0
LINE
  5
AE
330
2B
100
AcDbEntity
  8
52134120
  6
Continuous
 62
     7
 48
25.4
100
AcDbLine
 10
122.5639376631
 20
88.1942512031
 30
0.0
 11
121.7403805046
 21
85.1206940446
 31
0.0
  0
LINE
  5
AF
330
2B
100
AcDbEntity
  8
52134120
  6
Continuous
 62
     7
 48
25.4
100
AcDbLine
 10
98.4528758784
 20
90.4613673706
 30
0.0
 11
101.0247694924
 21
88.9160177816
 31
0.0
  0
LINE
  5
B0
330
2B
100
AcDbEntity
  8
52134120
  6
Continuous
 62
     7
 48
25.4
100
AcDbLine
 10
111.4170743378
 20
82.9160177816
 30
0.0
 11
114.0413331465
 21
81.4613673706
 31
0.0
  0
LINE
  5
B1
330
2B
100
AcDbEntity
  8
52134120
  6
Continuous
 62
     7
 48
25.4
100
AcDbLine
 10
114.0413331465
 20
81.4613673706
 30
0.0
 11
120.2500321006
 21
92.215149408
 31
0.0
  0
LINE
  5
B2
330
2B
100
AcDbEntity
  8
52134120
  6
Continuous
 62
     7
 48
25.4
100
AcDbLine
 10
99.7900130544
 20
92.7773568961
 30
0.0
 11
98.4528758784
 21
90.4613673706
 31
0.0
  0
LINE
  5
B3
330
2B
100
AcDbEntity
  8
52134120
  6
Continuous
 62
     7
 48
25.4
100
AcDbLine
 10
76.8022407838
 20
102.9613673706
 30
0.0
 11
79.3741343977
 21
101.4160177816
 31
0.0
  0
LINE
  5
B4
330
2B
100
AcDbEntity
  8
52134120
  6
Continuous
 62
     7
 48
25.4
100
AcDbLine
 10
89.7664392432
 20
95.4160177816
 30
0.0
 11
92.3906980519
 21
93.9613673706
 31
0.0
  0
LINE
  5
B5
330
2B
100
AcDbEntity
  8
52134120
  6
Continuous
 62
     7
 48
25.4
100
AcDbLine
 10
79.2290587233
 20
107.1647393426
 30
0.0
 11
76.8022407838
 21
102.9613673706
 31
0.0
  0
LINE
  5
B6
330
2B
100
AcDbEntity
  8
52134120
  6
Continuous
 62
     7
 48
25.4
100
AcDbLine
 10
92.3906980519
 20
93.9613673706
 30
0.0
 11
93.7278352279
 21
96.2773568961
 31
0.0
  0
LINE
  5
B7
330
2B
100
AcDbEntity
  8
52134120
  6
Continuous
 62
     7
 48
25.4
100
AcDbLine
 10
160.0038091598
 20
107.1647393426
 30
0.0
 11
161.1217869651
 21
110.2363581182
 31
0.0
  0
LINE
  5
B8
330
2B
100
AcDbEntity
  8
52134120
  6
Continuous
 62
     7
 48
25.4
100
AcDbLine
 10
161.1217869651
 20
141.7363581182
 30
0.0
 11
160.0038091598
 21
144.8079768938
 31
0.0
  0
LINE
  5
B9
330
2B
100
AcDbEntity
  8
52134120
  6
Continuous
 62
     7
 48
25.4
100
AcDbLine
 10
71.7397647705
 20
144.8079768938
 30
0.0
 11
70.6217869651
 21
141.7363581182
 31
0.0
  0
LINE
  5
BA
330
2B
100
AcDbEntity
  8
52134120
  6
Continuous
 62
     7
 48
25.4
100
AcDbLine
 10
70.6217869651
 20
110.2363581182
 30
0.0
 11
71.7397647705
 21
107.1647393426
 31
0.0
  0
LINE
  5
BB
330
2B
100
AcDbEntity
  8
52134120
  6
Continuous
 62
     7
 48
25.4
100
AcDbLine
 10
98.5483433036
 20
64.6267218014
 30
0.0
 11
99.0483433036
 21
65.4927472052
 31
0.0
  0
LINE
  5
BC
330
2B
100
AcDbEntity
  8
52134120
  6
Continuous
 62
     7
 48
25.4
100
AcDbLine
 10
92.1201400733
 20
69.4927472052
 30
0.0
 11
91.6201400733
 21
68.6267218014
 31
0.0
  0
LINE
  5
BD
330
2B
100
AcDbEntity
  8
52134120
  6
Continuous
 62
     7
 48
25.4
100
AcDbLine
 10
90.8880892657
 20
71.358772609
 30
0.0
 11
90.8880892657
 21
70.2040720706
 31
0.0
  0
LINE
  5
BE
330
2B
100
AcDbEntity
  8
52134120
  6
Continuous
 62
     7
 48
25.4
100
AcDbLine
 10
100.2803941111
 20
64.7814223398
 30
0.0
 11
101.2803941111
 21
65.358772609
 31
0.0
  0
LINE
  5
BF
330
2B
100
AcDbEntity
  8
52134120
  6
Continuous
 62
     7
 48
25.4
100
AcDbLine
 10
101.2803941111
 20
65.358772609
 30
0.0
 11
111.4170743378
 21
82.9160177816
 31
0.0
  0
LINE
  5
C0
330
2B
100
AcDbEntity
  8
52134120
  6
Continuous
 62
     7
 48
25.4
100
AcDbLine
 10
101.0247694924
 20
88.9160177816
 30
0.0
 11
90.8880892657
 21
71.358772609
 31
0.0
  0
LINE
  5
C1
330
2B
100
AcDbEntity
  8
52134120
  6
Continuous
 62
     7
 48
25.4
100
AcDbLine
 10
85.0128115907
 20
62.9824931674
 30
0.0
 11
85.8211019676
 21
61.5824931674
 31
0.0
  0
LINE
  5
C2
330
2B
100
AcDbEntity
  8
52134120
  6
Continuous
 62
     7
 48
25.4
100
AcDbLine
 10
95.3473814092
 20
56.0824931674
 30
0.0
 11
96.963962163
 21
56.0824931674
 31
0.0
  0
LINE
  5
C3
330
2B
100
AcDbEntity
  8
52134120
  6
Continuous
 62
     7
 48
25.4
100
AcDbLine
 10
87.4086664023
 20
67.1322354286
 30
0.0
 11
85.0128115907
 21
62.9824931674
 31
0.0
  0
LINE
  5
C4
330
2B
100
AcDbEntity
  8
52134120
  6
Continuous
 62
     7
 48
25.4
100
AcDbLine
 10
96.963962163
 20
56.0824931674
 30
0.0
 11
99.3598169745
 21
60.2322354286
 31
0.0
  0
LINE
  5
C5
330
2B
100
AcDbEntity
  8
52134120
  6
Continuous
 62
     7
 48
25.4
100
AcDbLine
 10
99.3598169745
 20
60.2322354286
 30
0.0
 11
99.0303941111
 21
61.461658292
 31
0.0
  0
LINE
  5
C6
330
2B
100
AcDbEntity
  8
52134120
  6
Continuous
 62
     7
 48
25.4
100
AcDbLine
 10
88.6380892657
 20
67.461658292
 30
0.0
 11
87.4086664023
 21
67.1322354286
 31
0.0
  0
LINE
  5
C7
330
2B
100
AcDbEntity
  8
52134120
  6
Continuous
 62
     7
 48
25.4
100
AcDbLine
 10
89.3130892657
 20
68.6307925871
 30
0.0
 11
88.6380892657
 21
67.461658292
 31
0.0
  0
LINE
  5
C8
330
2B
100
AcDbEntity
  8
52134120
  6
Continuous
 62
     7
 48
25.4
100
AcDbLine
 10
99.0303941111
 20
61.461658292
 30
0.0
 11
99.7053941111
 21
62.6307925871
 31
0.0
  0
LINE
  5
C9
330
2B
100
AcDbEntity
  8
52134120
  6
Continuous
 62
     7
 48
25.4
100
AcDbLine
 10
89.2385702129
 20
70.0017218014
 30
0.0
 11
88.6635702129
 21
69.0057925871
 31
0.0
  0
LINE
  5
CA
330
2B
100
AcDbEntity
  8
52134120
  6
Continuous
 62
     7
 48
25.4
100
AcDbLine
 10
100.354913164
 20
62.2557925871
 30
0.0
 11
100.929913164
 21
63.2517218014
 31
0.0
  0
LINE
  5
CB
330
2B
100
AcDbEntity
  8
52134120
  6
Continuous
 62
     7
 48
25.4
100
AcDbLine
 10
76.897708209
 20
77.1267218014
 30
0.0
 11
77.397708209
 21
77.9927472052
 31
0.0
  0
LINE
  5
CC
330
2B
100
AcDbEntity
  8
52134120
  6
Continuous
 62
     7
 48
25.4
100
AcDbLine
 10
70.4695049787
 20
81.9927472052
 30
0.0
 11
69.9695049787
 21
81.1267218014
 31
0.0
  0
LINE
  5
CD
330
2B
100
AcDbEntity
  8
52134120
  6
Continuous
 62
     7
 48
25.4
100
AcDbLine
 10
79.6297590165
 20
77.858772609
 30
0.0
 11
89.7664392432
 21
95.4160177816
 31
0.0
  0
LINE
  5
CE
330
2B
100
AcDbEntity
  8
52134120
  6
Continuous
 62
     7
 48
25.4
100
AcDbLine
 10
79.3741343977
 20
101.4160177816
 30
0.0
 11
69.2374541711
 21
83.858772609
 31
0.0
  0
LINE
  5
CF
330
2B
100
AcDbEntity
  8
52134120
  6
Continuous
 62
     7
 48
25.4
100
AcDbLine
 10
69.2374541711
 20
83.858772609
 30
0.0
 11
69.2374541711
 21
82.7040720706
 31
0.0
  0
LINE
  5
D0
330
2B
100
AcDbEntity
  8
52134120
  6
Continuous
 62
     7
 48
25.4
100
AcDbLine
 10
78.6297590165
 20
77.2814223398
 30
0.0
 11
79.6297590165
 21
77.858772609
 31
0.0
  0
LINE
  5
D1
330
2B
100
AcDbEntity
  8
52134120
  6
Continuous
 62
     7
 48
25.4
100
AcDbLine
 10
63.3621764961
 20
75.4824931674
 30
0.0
 11
64.170466873
 21
74.0824931674
 31
0.0
  0
LINE
  5
D2
330
2B
100
AcDbEntity
  8
52134120
  6
Continuous
 62
     7
 48
25.4
100
AcDbLine
 10
73.6967463146
 20
68.5824931674
 30
0.0
 11
75.3133270684
 21
68.5824931674
 31
0.0
  0
LINE
  5
D3
330
2B
100
AcDbEntity
  8
52134120
  6
Continuous
 62
     7
 48
25.4
100
AcDbLine
 10
65.7580313077
 20
79.6322354286
 30
0.0
 11
63.3621764961
 21
75.4824931674
 31
0.0
  0
LINE
  5
D4
330
2B
100
AcDbEntity
  8
52134120
  6
Continuous
 62
     7
 48
25.4
100
AcDbLine
 10
75.3133270684
 20
68.5824931674
 30
0.0
 11
77.7091818799
 21
72.7322354286
 31
0.0
  0
LINE
  5
D5
330
2B
100
AcDbEntity
  8
52134120
  6
Continuous
 62
     7
 48
25.4
100
AcDbLine
 10
77.7091818799
 20
72.7322354286
 30
0.0
 11
77.3797590165
 21
73.961658292
 31
0.0
  0
LINE
  5
D6
330
2B
100
AcDbEntity
  8
52134120
  6
Continuous
 62
     7
 48
25.4
100
AcDbLine
 10
66.9874541711
 20
79.961658292
 30
0.0
 11
65.7580313077
 21
79.6322354286
 31
0.0
  0
LINE
  5
D7
330
2B
100
AcDbEntity
  8
52134120
  6
Continuous
 62
     7
 48
25.4
100
AcDbLine
 10
67.6624541711
 20
81.1307925871
 30
0.0
 11
66.9874541711
 21
79.961658292
 31
0.0
  0
LINE
  5
D8
330
2B
100
AcDbEntity
  8
52134120
  6
Continuous
 62
     7
 48
25.4
100
AcDbLine
 10
77.3797590165
 20
73.961658292
 30
0.0
 11
78.0547590165
 21
75.1307925871
 31
0.0
  0
LINE
  5
D9
330
2B
100
AcDbEntity
  8
52134120
  6
Continuous
 62
     7
 48
25.4
100
AcDbLine
 10
67.5879351183
 20
82.5017218014
 30
0.0
 11
67.0129351183
 21
81.5057925871
 31
0.0
  0
LINE
  5
DA
330
2B
100
AcDbEntity
  8
52134120
  6
Continuous
 62
     7
 48
25.4
100
AcDbLine
 10
78.7042780694
 20
74.7557925871
 30
0.0
 11
79.2792780694
 21
75.7517218014
 31
0.0
  0
LINE
  5
DC
330
2B
100
AcDbEntity
  8
30997201-A
  6
Continuous
 62
     7
 48
25.4
100
AcDbLine
 10
28.4017869651
 20
114.9863581182
 30
0.0
 11
28.4017869651
 21
136.9863581182
 31
0.0
  0
LINE
  5
DD
330
2B
100
AcDbEntity
  8
30997201-A
  6
Continuous
 62
     7
 48
25.4
100
AcDbLine
 10
68.4017869651
 20
114.9863581182
 30
0.0
 11
68.4017869651
 21
136.9863581182
 31
0.0
  0
LINE
  5
DE
330
2B
100
AcDbEntity
  8
30997201-A
  6
Continuous
 62
     7
 48
25.4
100
AcDbLine
 10
28.4017869651
 20
114.9863581182
 30
0.0
 11
68.4017869651
 21
114.9863581182
 31
0.0
  0
LINE
  5
DF
330
2B
100
AcDbEntity
  8
30997201-A
  6
Continuous
 62
     7
 48
25.4
100
AcDbLine
 10
68.4017869651
 20
136.9863581182
 30
0.0
 11
28.4017869651
 21
136.9863581182
 31
0.0
  0
LINE
  5
E0
330
2B
100
AcDbEntity
  8
30997201-A
  6
Continuous
 62
     7
 48
25.4
100
AcDbLine
 10
70.6217869651
 20
139.2063581182
 30
0.0
 11
68.4017869651
 21
136.9863581182
 31
0.0
  0
LINE
  5
E1
330
2B
100
AcDbEntity
  8
30997201-A
  6
Continuous
 62
     7
 48
25.4
100
AcDbLine
 10
68.4017869651
 20
114.9863581182
 30
0.0
 11
70.6217869651
 21
112.7663581182
 31
0.0
  0
LINE
  5
E2
330
2B
100
AcDbEntity
  8
30997201-A
  6
Continuous
 62
     7
 48
25.4
100
AcDbLine
 10
203.3417869651
 20
114.9863581182
 30
0.0
 11
203.3417869651
 21
136.9863581182
 31
0.0
  0
LINE
  5
E3
330
2B
100
AcDbEntity
  8
30997201-A
  6
Continuous
 62
     7
 48
25.4
100
AcDbLine
 10
163.3417869651
 20
114.9863581182
 30
0.0
 11
163.3417869651
 21
136.9863581182
 31
0.0
  0
LINE
  5
E4
330
2B
100
AcDbEntity
  8
30997201-A
  6
Continuous
 62
     7
 48
25.4
100
AcDbLine
 10
203.3417869651
 20
136.9863581182
 30
0.0
 11
163.3417869651
 21
136.9863581182
 31
0.0
  0
LINE
  5
E5
330
2B
100
AcDbEntity
  8
30997201-A
  6
Continuous
 62
     7
 48
25.4
100
AcDbLine
 10
163.3417869651
 20
114.9863581182
 30
0.0
 11
203.3417869651
 21
114.9863581182
 31
0.0
  0
LINE
  5
E6
330
2B
100
AcDbEntity
  8
30997201-A
  6
Continuous
 62
     7
 48
25.4
100
AcDbLine
 10
161.1217869651
 20
112.7663581182
 30
0.0
 11
163.3417869651
 21
114.9863581182
 31
0.0
  0
LINE
  5
E7
330
2B
100
AcDbEntity
  8
30997201-A
  6
Continuous
 62
     7
 48
25.4
100
AcDbLine
 10
163.3417869651
 20
136.9863581182
 30
0.0
 11
161.1217869651
 21
139.2063581182
 31
0.0
  0
ENDBLK
  5
EC
330
2B
100
AcDbEntity
  8
0
100
AcDbBlockEnd
  0
BLOCK
  5
1A4
330
ED
100
AcDbEntity
  8
0
100
AcDbBlockBegin
  2
SE1
 70
     0
 71
     0
 10
0.0
 20
0.0
 30
0.0
  3
SE1
  1

  0
ELLIPSE
  5
EF
330
ED
100
AcDbEntity
  8
52134120
  6
Continuous
 62
     7
 48
25.4
100
AcDbEllipse
 10
141.6056696876
 20
215.4505162891
 30
0.0
 11
-6.938893903907228E-14
 21
16.08095076609904
 31
0.0
210
0.0
220
0.0
230
1.0
 40
0.8660254038
 41
5.502066367783365
 42
6.283185307179585
  0
ELLIPSE
  5
F0
330
ED
100
AcDbEntity
  8
52134120
  6
Continuous
 62
     7
 48
25.4
100
AcDbEllipse
 10
141.6056696876
 20
215.4505162891
 30
0.0
 11
-6.938893903907228E-14
 21
16.08095076609904
 31
0.0
210
0.0
220
0.0
230
1.0
 40
0.8660254038
 41
0.0
 42
3.923395175275942
  0
ELLIPSE
  5
F1
330
ED
100
AcDbEntity
  8
52134120
  6
Continuous
 62
     7
 48
25.4
100
AcDbEllipse
 10
135.6056696876
 20
215.4505162891
 30
0.0
 11
-3.469446951953615E-15
 21
16.5
 31
0.0
210
0.0
220
0.0
230
1.0
 40
0.8660254038
 41
6.222663820087589
 42
6.283185307179586
  0
ELLIPSE
  5
F2
330
ED
100
AcDbEntity
  8
52134120
  6
Continuous
 62
     7
 48
25.4
100
AcDbEllipse
 10
135.6056696876
 20
215.4505162891
 30
0.0
 11
-3.469446951953615E-15
 21
16.5
 31
0.0
210
0.0
220
0.0
230
1.0
 40
0.8660254038
 41
0.0
 42
3.202114140681818
  0
ELLIPSE
  5
F3
330
ED
100
AcDbEntity
  8
52134120
  6
Continuous
 62
     7
 48
25.4
100
AcDbEllipse
 10
149.1056696876
 20
215.4505162891
 30
0.0
 11
0.0
 21
-7.499999999999999
 31
0.0
210
0.0
220
0.0
230
1.0
 40
0.8660254038
 41
0.0
 42
6.283185307179586
  0
ELLIPSE
  5
F4
330
ED
100
AcDbEntity
  8
52134120
  6
Continuous
 62
     7
 48
25.4
100
AcDbEllipse
 10
143.1489811878
 20
215.4505162891
 30
0.0
 11
-3.122502256758253E-14
 21
14.54483428678401
 31
0.0
210
0.0
220
0.0
230
1.0
 40
0.8660254038
 41
6.013077437356779
 42
6.283185307179586
  0
ELLIPSE
  5
F5
330
ED
100
AcDbEntity
  8
52134120
  6
Continuous
 62
     7
 48
25.4
100
AcDbEllipse
 10
143.1489811878
 20
215.4505162891
 30
0.0
 11
-3.122502256758253E-14
 21
14.54483428678401
 31
0.0
210
0.0
220
0.0
230
1.0
 40
0.8660254038
 41
0.0
 42
3.411714243437468
  0
ARC
  5
F6
330
ED
100
AcDbEntity
  8
52134120
  6
Continuous
 62
     7
 48
25.4
100
AcDbCircle
 10
45.2793260364
 20
223.6732979621
 30
0.0
 40
36.13870040845247
100
AcDbArc
 50
359.9683145423
 51
12.9150443114
  0
LINE
  5
F7
330
ED
100
AcDbEntity
  8
52134120
  6
Continuous
 62
     7
 48
25.4
100
AcDbLine
 10
71.7397647705
 20
199.1505162891
 30
0.0
 11
80.5038091598
 21
199.1505162891
 31
0.0
  0
ARC
  5
F8
330
ED
100
AcDbEntity
  8
52134120
  6
Continuous
 62
     7
 48
25.4
100
AcDbCircle
 10
45.2738911818
 20
207.227979277
 30
0.0
 40
36.14405247142074
100
AcDbArc
 50
347.0865032483
 51
0.0302900747
  0
LINE
  5
F9
330
ED
100
AcDbEntity
  8
52134120
  6
Continuous
 62
     7
 48
25.4
100
AcDbLine
 10
71.7397647705
 20
231.7505162891
 30
0.0
 11
80.5038091598
 21
231.7505162891
 31
0.0
  0
LINE
  5
FA
330
ED
100
AcDbEntity
  8
52134120
  6
Continuous
 62
     7
 48
25.4
100
AcDbLine
 10
81.4216020226
 20
231.7505162891
 30
0.0
 11
80.5038091598
 21
231.7505162891
 31
0.0
  0
LINE
  5
FB
330
ED
100
AcDbEntity
  8
52134120
  6
Continuous
 62
     7
 48
25.4
100
AcDbLine
 10
80.5038091598
 20
199.1505162891
 30
0.0
 11
81.4216016503
 21
199.1505162891
 31
0.0
  0
LINE
  5
FC
330
ED
100
AcDbEntity
  8
52134120
  6
Continuous
 62
     7
 48
25.4
100
AcDbLine
 10
97.5252955226
 20
228.7170154505
 30
0.0
 11
96.0216280409
 21
228.7170154505
 31
0.0
  0
LINE
  5
FD
330
ED
100
AcDbEntity
  8
52134120
  6
Continuous
 62
     7
 48
25.4
100
AcDbLine
 10
93.1217869651
 20
201.9505162891
 30
0.0
 11
93.1217869651
 21
206.8081405688
 31
0.0
  0
LINE
  5
FE
330
ED
100
AcDbEntity
  8
52134120
  6
Continuous
 62
     7
 48
25.4
100
AcDbLine
 10
93.1217869651
 20
224.0928920094
 30
0.0
 11
93.1217869651
 21
228.9505162891
 31
0.0
  0
ELLIPSE
  5
FF
330
ED
100
AcDbEntity
  8
52134120
  6
Continuous
 62
     7
 48
25.4
100
AcDbEllipse
 10
111.750681959
 20
215.4505162891
 30
0.0
 11
-2.628773934643114E-10
 21
13.50000000001497
 31
0.0
210
0.0
220
0.0
230
0.9999999999999999
 40
0.9975579976
 41
0.0
 42
0.1862603035571522
  0
LINE
  5
100
330
ED
100
AcDbEntity
  8
52134120
  6
Continuous
 62
     7
 48
25.4
100
AcDbLine
 10
109.2567869651
 20
228.9471934045
 30
0.0
 11
104.2567869651
 21
228.9471934045
 31
0.0
  0
LINE
  5
101
330
ED
100
AcDbEntity
  8
52134120
  6
Continuous
 62
     7
 48
25.4
100
AcDbLine
 10
104.2567869651
 20
201.9538391736
 30
0.0
 11
109.2567869651
 21
201.9538391736
 31
0.0
  0
ELLIPSE
  5
102
330
ED
100
AcDbEntity
  8
52134120
  6
Continuous
 62
     7
 48
25.4
100
AcDbEllipse
 10
111.7506819591
 20
215.4505162891
 30
0.0
 11
1.271810781688920E-9
 21
13.5000000000462
 31
0.0
210
0.0
220
0.0
230
0.9999999999999999
 40
0.9975579976
 41
2.955332350108266
 42
3.141592653589793
  0
LINE
  5
103
330
ED
100
AcDbEntity
  8
52134120
  6
Continuous
 62
     7
 48
25.4
100
AcDbLine
 10
100.129207503
 20
202.1840171277
 30
0.0
 11
101.6328749847
 21
202.1840171277
 31
0.0
  0
ELLIPSE
  5
104
330
ED
100
AcDbEntity
  8
52134120
  6
Continuous
 62
     7
 48
25.4
100
AcDbEllipse
 10
90.9464694178
 20
215.4505162891
 30
0.0
 11
2.081668171172169E-14
 21
-9.000000000000002
 31
0.0
210
0.0
220
0.0
230
1.0
 40
0.8660254038
 41
2.3972442665604
 42
3.141592653589794
  0
LINE
  5
105
330
ED
100
AcDbEntity
  8
52134120
  6
Continuous
 62
     7
 48
25.4
100
AcDbLine
 10
89.2246726481
 20
199.7005162891
 30
0.0
 11
89.2246726481
 21
206.4505162891
 31
0.0
  0
LINE
  5
106
330
ED
100
AcDbEntity
  8
52134120
  6
Continuous
 62
     7
 48
25.4
100
AcDbLine
 10
89.2246726481
 20
224.4505162891
 30
0.0
 11
89.2246726481
 21
231.2005162891
 31
0.0
  0
LINE
  5
107
330
ED
100
AcDbEntity
  8
52134120
  6
Continuous
 62
     7
 48
25.4
100
AcDbLine
 10
81.6217869651
 20
199.7005162891
 30
0.0
 11
81.6217869651
 21
207.1317612295
 31
0.0
  0
LINE
  5
108
330
ED
100
AcDbEntity
  8
52134120
  6
Continuous
 62
     7
 48
25.4
100
AcDbLine
 10
81.6217869651
 20
223.7692713486
 30
0.0
 11
81.6217869651
 21
231.2005162891
 31
0.0
  0
LINE
  5
109
330
ED
100
AcDbEntity
  8
52134120
  6
Continuous
 62
     7
 48
25.4
100
AcDbLine
 10
150.1217869651
 20
231.2005162891
 30
0.0
 11
150.1217869651
 21
228.174429716
 31
0.0
  0
LINE
  5
10A
330
ED
100
AcDbEntity
  8
52134120
  6
Continuous
 62
     7
 48
25.4
100
AcDbLine
 10
150.1217869651
 20
202.7266028622
 30
0.0
 11
150.1217869651
 21
199.7005162891
 31
0.0
  0
LINE
  5
10B
330
ED
100
AcDbEntity
  8
52134120
  6
Continuous
 62
     7
 48
25.4
100
AcDbLine
 10
151.2397647705
 20
231.7505162891
 30
0.0
 11
160.0038091598
 21
231.7505162891
 31
0.0
  0
LINE
  5
10C
330
ED
100
AcDbEntity
  8
52134120
  6
Continuous
 62
     7
 48
25.4
100
AcDbLine
 10
160.9216014655
 20
231.7505162891
 30
0.0
 11
160.0038091598
 21
231.7505162891
 31
0.0
  0
LINE
  5
10D
330
ED
100
AcDbEntity
  8
52134120
  6
Continuous
 62
     7
 48
25.4
100
AcDbLine
 10
151.2397647705
 20
231.7505162891
 30
0.0
 11
150.3219719076
 21
231.7505162891
 31
0.0
  0
LINE
  5
10E
330
ED
100
AcDbEntity
  8
52134120
  6
Continuous
 62
     7
 48
25.4
100
AcDbLine
 10
157.0063797889
 20
215.4505162891
 30
0.0
 11
160.0038091598
 21
215.4505162891
 31
0.0
  0
ARC
  5
10F
330
ED
100
AcDbEntity
  8
52134120
  6
Continuous
 62
     7
 48
25.4
100
AcDbCircle
 10
124.2767608028
 20
223.6005162891
 30
0.0
 40
36.64484253346605
100
AcDbArc
 50
347.1496643135
 51
12.8503356865
  0
ARC
  5
110
330
ED
100
AcDbEntity
  8
52134120
  6
Continuous
 62
     7
 48
25.4
100
AcDbCircle
 10
186.966813497
 20
223.6005162891
 30
0.0
 40
36.64484289372884
100
AcDbArc
 50
167.149664442
 51
173.5165372839
  0
LINE
  5
111
330
ED
100
AcDbEntity
  8
52134120
  6
Continuous
 62
     7
 48
25.4
100
AcDbLine
 10
151.2397647705
 20
199.1505162891
 30
0.0
 11
160.0038091598
 21
199.1505162891
 31
0.0
  0
ARC
  5
112
330
ED
100
AcDbEntity
  8
52134120
  6
Continuous
 62
     7
 48
25.4
100
AcDbCircle
 10
124.2767608028
 20
207.3005162891
 30
0.0
 40
36.64484253346603
100
AcDbArc
 50
347.1496643135
 51
12.8503356865
  0
ARC
  5
113
330
ED
100
AcDbEntity
  8
52134120
  6
Continuous
 62
     7
 48
25.4
100
AcDbCircle
 10
186.9668200814
 20
207.3005162891
 30
0.0
 40
36.64484931321343
100
AcDbArc
 50
186.4720776439
 51
192.8503332683
  0
LINE
  5
114
330
ED
100
AcDbEntity
  8
52134120
  6
Continuous
 62
     7
 48
25.4
100
AcDbLine
 10
160.0038091598
 20
199.1505162891
 30
0.0
 11
160.9216014655
 21
199.1505162891
 31
0.0
  0
LINE
  5
115
330
ED
100
AcDbEntity
  8
52134120
  6
Continuous
 62
     7
 48
25.4
100
AcDbLine
 10
151.2397647705
 20
199.1505162891
 30
0.0
 11
150.32197228
 21
199.1505162891
 31
0.0
  0
ARC
  5
116
330
ED
100
AcDbEntity
  8
52134120
  6
Continuous
 62
     7
 48
25.4
100
AcDbCircle
 10
126.2382065243
 20
214.341212797
 30
0.0
 40
17.638979535312
100
AcDbArc
 50
206.553047277
 51
215.3178231109
  0
ELLIPSE
  5
117
330
ED
100
AcDbEntity
  8
52134120
  6
Continuous
 62
     7
 48
25.4
100
AcDbEllipse
 10
118.6217869651
 20
215.4505162891
 30
0.0
 11
1.114559833315099E-13
 21
13.75000000000009
 31
0.0
210
0.0
220
0.0
230
1.0
 40
0.8660254038
 41
2.53623421442689
 42
3.141592653589793
  0
ELLIPSE
  5
118
330
ED
100
AcDbEntity
  8
52134120
  6
Continuous
 62
     7
 48
25.4
100
AcDbEllipse
 10
118.6217869651
 20
215.4505162891
 30
0.0
 11
1.127570259384925E-13
 21
-13.75000000000011
 31
0.0
210
0.0
220
0.0
230
0.9999999999999999
 40
0.8660254038
 41
3.141592653589793
 42
3.746951092752691
  0
ARC
  5
119
330
ED
100
AcDbEntity
  8
52134120
  6
Continuous
 62
     7
 48
25.4
100
AcDbCircle
 10
126.3074449584
 20
216.5358355293
 30
0.0
 40
17.70935256255646
100
AcDbArc
 50
144.7483635384
 51
153.492576234
  0
ELLIPSE
  5
11A
330
ED
100
AcDbEntity
  8
52134120
  6
Continuous
 62
     7
 48
25.4
100
AcDbEllipse
 10
106.2209219151
 20
215.4505162891
 30
0.0
 11
-1.214306433183765E-14
 21
-5.999999999999993
 31
0.0
210
0.0
220
0.0
230
0.9999999999999999
 40
0.8660254038
 41
0.0
 42
3.141592653589795
  0
ELLIPSE
  5
11B
330
ED
100
AcDbEntity
  8
52134120
  6
Continuous
 62
     7
 48
25.4
100
AcDbEllipse
 10
106.2471045125
 20
215.4505162891
 30
0.0
 11
5.204170427930421E-15
 21
-9.000000000000002
 31
0.0
210
0.0
220
0.0
230
1.0
 40
0.8660254038
 41
0.0
 42
3.982661324157719
  0
ELLIPSE
  5
11C
330
ED
100
AcDbEntity
  8
52134120
  6
Continuous
 62
     7
 48
25.4
100
AcDbEllipse
 10
106.2471045125
 20
215.4505162891
 30
0.0
 11
5.204170427930421E-15
 21
-9.000000000000002
 31
0.0
210
0.0
220
0.0
230
1.0
 40
0.8660254038
 41
5.442116636611651
 42
6.283185307179586
  0
ELLIPSE
  5
11D
330
ED
100
AcDbEntity
  8
52134120
  6
Continuous
 62
     7
 48
25.4
100
AcDbEllipse
 10
112.5971045125
 20
215.4505162891
 30
0.0
 11
8.673617379884035E-16
 21
9.0
 31
0.0
210
0.0
220
0.0
230
1.0
 40
0.8660254038
 41
3.141592653589793
 42
4.491577193036763
  0
ARC
  5
11E
330
ED
100
AcDbEntity
  8
52134120
  6
Continuous
 62
     7
 48
25.4
100
AcDbCircle
 10
76.3133702215
 20
215.4505162891
 30
0.0
 40
43.93296318631303
100
AcDbArc
 50
357.4283742877
 51
2.5716257123
  0
ELLIPSE
  5
11F
330
ED
100
AcDbEntity
  8
52134120
  6
Continuous
 62
     7
 48
25.4
100
AcDbEllipse
 10
112.5971045125
 20
215.4505162891
 30
0.0
 11
-1.994931997373328E-14
 21
-9.000000000000007
 31
0.0
210
0.0
220
0.0
230
1.0
 40
0.8660254038
 41
1.791608114142825
 42
3.141592653589795
  0
ELLIPSE
  5
120
330
ED
100
AcDbEntity
  8
52134120
  6
Continuous
 62
     7
 48
25.4
100
AcDbEllipse
 10
84.5964694178
 20
215.4505162891
 30
0.0
 11
-6.938893903907228E-15
 21
-9.000000000000002
 31
0.0
210
0.0
220
0.0
230
1.0
 40
0.8660254038
 41
5.442116636611656
 42
6.283185307179586
  0
ELLIPSE
  5
121
330
ED
100
AcDbEntity
  8
52134120
  6
Continuous
 62
     7
 48
25.4
100
AcDbEllipse
 10
84.5964694178
 20
215.4505162891
 30
0.0
 11
-6.938893903907228E-15
 21
-9.000000000000002
 31
0.0
210
0.0
220
0.0
230
1.0
 40
0.8660254038
 41
2.418947305944439
 42
3.98266132415772
  0
ELLIPSE
  5
122
330
ED
100
AcDbEntity
  8
52134120
  6
Continuous
 62
     7
 48
25.4
100
AcDbEllipse
 10
84.5964694178
 20
215.4505162891
 30
0.0
 11
-6.938893903907228E-15
 21
-9.000000000000002
 31
0.0
210
0.0
220
0.0
230
1.0
 40
0.8660254038
 41
0.0
 42
0.7226453476453553
  0
ELLIPSE
  5
123
330
ED
100
AcDbEntity
  8
52134120
  6
Continuous
 62
     7
 48
25.4
100
AcDbEllipse
 10
90.9464694178
 20
215.4505162891
 30
0.0
 11
3.469446951953614E-15
 21
9.000000000000004
 31
0.0
210
0.0
220
0.0
230
1.0
 40
0.8660254038
 41
3.141592653589793
 42
3.885941040619195
  0
LINE
  5
124
330
ED
100
AcDbEntity
  8
52134120
  6
Continuous
 62
     7
 48
25.4
100
AcDbLine
 10
111.750681959
 20
201.9505162891
 30
0.0
 11
109.2567869651
 21
201.9505162891
 31
0.0
  0
LINE
  5
125
330
ED
100
AcDbEntity
  8
52134120
  6
Continuous
 62
     7
 48
25.4
100
AcDbLine
 10
109.2567869651
 20
201.9505162891
 30
0.0
 11
104.2567869651
 21
201.9505162891
 31
0.0
  0
LINE
  5
126
330
ED
100
AcDbEntity
  8
52134120
  6
Continuous
 62
     7
 48
25.4
100
AcDbLine
 10
109.2567869651
 20
201.9505162891
 30
0.0
 11
109.2567869651
 21
202.1840171277
 31
0.0
  0
LINE
  5
127
330
ED
100
AcDbEntity
  8
52134120
  6
Continuous
 62
     7
 48
25.4
100
AcDbLine
 10
104.2567869651
 20
201.9505162891
 30
0.0
 11
104.2567869651
 21
201.9538391736
 31
0.0
  0
LINE
  5
128
330
ED
100
AcDbEntity
  8
52134120
  6
Continuous
 62
     7
 48
25.4
100
AcDbLine
 10
104.2567869651
 20
228.9471934045
 30
0.0
 11
104.2567869651
 21
228.9505162891
 31
0.0
  0
LINE
  5
129
330
ED
100
AcDbEntity
  8
52134120
  6
Continuous
 62
     7
 48
25.4
100
AcDbLine
 10
111.750681959
 20
228.9505162891
 30
0.0
 11
109.2567869651
 21
228.9505162891
 31
0.0
  0
LINE
  5
12A
330
ED
100
AcDbEntity
  8
52134120
  6
Continuous
 62
     7
 48
25.4
100
AcDbLine
 10
109.2567869651
 20
228.7170154505
 30
0.0
 11
109.2567869651
 21
228.9505162891
 31
0.0
  0
LINE
  5
12B
330
ED
100
AcDbEntity
  8
52134120
  6
Continuous
 62
     7
 48
25.4
100
AcDbLine
 10
109.2567869651
 20
228.9505162891
 30
0.0
 11
104.2567869651
 21
228.9505162891
 31
0.0
  0
LINE
  5
12C
330
ED
100
AcDbEntity
  8
52134120
  6
Continuous
 62
     7
 48
25.4
100
AcDbLine
 10
94.6677160605
 20
229.4505162891
 30
0.0
 11
94.6677160605
 21
228.9505162891
 31
0.0
  0
LINE
  5
12D
330
ED
100
AcDbEntity
  8
52134120
  6
Continuous
 62
     7
 48
25.4
100
AcDbLine
 10
96.0216280409
 20
229.4505162891
 30
0.0
 11
96.0216280409
 21
228.7170154505
 31
0.0
  0
LINE
  5
12E
330
ED
100
AcDbEntity
  8
52134120
  6
Continuous
 62
     7
 48
25.4
100
AcDbLine
 10
97.5252955226
 20
229.4505162891
 30
0.0
 11
97.5252955226
 21
228.7170154505
 31
0.0
  0
LINE
  5
12F
330
ED
100
AcDbEntity
  8
52134120
  6
Continuous
 62
     7
 48
25.4
100
AcDbLine
 10
94.6677160605
 20
229.4505162891
 30
0.0
 11
96.0216280409
 21
229.4505162891
 31
0.0
  0
LINE
  5
130
330
ED
100
AcDbEntity
  8
52134120
  6
Continuous
 62
     7
 48
25.4
100
AcDbLine
 10
96.0216280409
 20
229.4505162891
 30
0.0
 11
97.5252955226
 21
229.4505162891
 31
0.0
  0
LINE
  5
131
330
ED
100
AcDbEntity
  8
52134120
  6
Continuous
 62
     7
 48
25.4
100
AcDbLine
 10
97.5252955226
 20
229.4505162891
 30
0.0
 11
98.0570803637
 21
229.4505162891
 31
0.0
  0
LINE
  5
132
330
ED
100
AcDbEntity
  8
52134120
  6
Continuous
 62
     7
 48
25.4
100
AcDbLine
 10
100.7007233955
 20
229.4505162891
 30
0.0
 11
100.7007233955
 21
228.9137002183
 31
0.0
  0
LINE
  5
133
330
ED
100
AcDbEntity
  8
52134120
  6
Continuous
 62
     7
 48
25.4
100
AcDbLine
 10
100.2392319529
 20
229.4505162891
 30
0.0
 11
100.2392319529
 21
228.7170154505
 31
0.0
  0
ELLIPSE
  5
134
330
ED
100
AcDbEntity
  8
52134120
  6
Continuous
 62
     7
 48
25.4
100
AcDbEllipse
 10
101.0065083757
 20
215.4505162888
 30
0.0
 11
-1.333308463635774E-11
 21
13.50000000028733
 31
0.0
210
0.0
220
0.0
230
1.0
 40
0.3069105691
 41
0.0738695712862651
 42
0.1862603035742739
  0
LINE
  5
135
330
ED
100
AcDbEntity
  8
52134120
  6
Continuous
 62
     7
 48
25.4
100
AcDbLine
 10
100.7007233955
 20
229.4505162891
 30
0.0
 11
100.2392319529
 21
229.4505162891
 31
0.0
  0
LINE
  5
136
330
ED
100
AcDbEntity
  8
52134120
  6
Continuous
 62
     7
 48
25.4
100
AcDbLine
 10
98.0570803637
 20
229.4505162891
 30
0.0
 11
98.0570803637
 21
228.7170154505
 31
0.0
  0
LINE
  5
137
330
ED
100
AcDbEntity
  8
52134120
  6
Continuous
 62
     7
 48
25.4
100
AcDbLine
 10
98.0570803637
 20
228.7170154505
 30
0.0
 11
100.2392319529
 21
228.7170154505
 31
0.0
  0
LINE
  5
138
330
ED
100
AcDbEntity
  8
52134120
  6
Continuous
 62
     7
 48
25.4
100
AcDbLine
 10
100.2392319529
 20
229.4505162891
 30
0.0
 11
98.0570803637
 21
229.4505162891
 31
0.0
  0
LINE
  5
139
330
ED
100
AcDbEntity
  8
52134120
  6
Continuous
 62
     7
 48
25.4
100
AcDbLine
 10
102.9867869651
 20
229.4505162891
 30
0.0
 11
102.9867869651
 21
228.7170154505
 31
0.0
  0
LINE
  5
13A
330
ED
100
AcDbEntity
  8
52134120
  6
Continuous
 62
     7
 48
25.4
100
AcDbLine
 10
101.4189385544
 20
229.4505162891
 30
0.0
 11
101.4189385544
 21
228.7170154505
 31
0.0
  0
LINE
  5
13B
330
ED
100
AcDbEntity
  8
52134120
  6
Continuous
 62
     7
 48
25.4
100
AcDbLine
 10
101.4189385544
 20
228.7170154505
 30
0.0
 11
102.9867869651
 21
228.7170154505
 31
0.0
  0
LINE
  5
13C
330
ED
100
AcDbEntity
  8
52134120
  6
Continuous
 62
     7
 48
25.4
100
AcDbLine
 10
102.9867869651
 20
229.4505162891
 30
0.0
 11
101.4189385544
 21
229.4505162891
 31
0.0
  0
ELLIPSE
  5
13D
330
ED
100
AcDbEntity
  8
52134120
  6
Continuous
 62
     7
 48
25.4
100
AcDbEllipse
 10
100.6533135544
 20
215.450516289
 30
0.0
 11
-1.582067810090849E-12
 21
-13.50000000005445
 31
0.0
210
0.0
220
0.0
230
0.9999999999999999
 40
0.30625
 41
2.95533235001366
 42
3.130125169343233
  0
LINE
  5
13E
330
ED
100
AcDbEntity
  8
52134120
  6
Continuous
 62
     7
 48
25.4
100
AcDbLine
 10
101.4189385544
 20
229.4505162891
 30
0.0
 11
100.7007233955
 21
229.4505162891
 31
0.0
  0
LINE
  5
13F
330
ED
100
AcDbEntity
  8
52134120
  6
Continuous
 62
     7
 48
25.4
100
AcDbLine
 10
102.9867869651
 20
201.4505162891
 30
0.0
 11
102.9867869651
 21
201.9505162891
 31
0.0
  0
LINE
  5
140
330
ED
100
AcDbEntity
  8
52134120
  6
Continuous
 62
     7
 48
25.4
100
AcDbLine
 10
101.6328749847
 20
201.4505162891
 30
0.0
 11
101.6328749847
 21
202.1840171277
 31
0.0
  0
LINE
  5
141
330
ED
100
AcDbEntity
  8
52134120
  6
Continuous
 62
     7
 48
25.4
100
AcDbLine
 10
100.129207503
 20
201.4505162891
 30
0.0
 11
100.129207503
 21
202.1840171277
 31
0.0
  0
LINE
  5
142
330
ED
100
AcDbEntity
  8
52134120
  6
Continuous
 62
     7
 48
25.4
100
AcDbLine
 10
102.9867869651
 20
201.4505162891
 30
0.0
 11
101.6328749847
 21
201.4505162891
 31
0.0
  0
LINE
  5
143
330
ED
100
AcDbEntity
  8
52134120
  6
Continuous
 62
     7
 48
25.4
100
AcDbLine
 10
101.6328749847
 20
201.4505162891
 30
0.0
 11
100.129207503
 21
201.4505162891
 31
0.0
  0
LINE
  5
144
330
ED
100
AcDbEntity
  8
52134120
  6
Continuous
 62
     7
 48
25.4
100
AcDbLine
 10
100.129207503
 20
201.4505162891
 30
0.0
 11
99.597422662
 21
201.4505162891
 31
0.0
  0
LINE
  5
145
330
ED
100
AcDbEntity
  8
52134120
  6
Continuous
 62
     7
 48
25.4
100
AcDbLine
 10
96.9537796302
 20
201.4505162891
 30
0.0
 11
96.9537796302
 21
201.9873323598
 31
0.0
  0
LINE
  5
146
330
ED
100
AcDbEntity
  8
52134120
  6
Continuous
 62
     7
 48
25.4
100
AcDbLine
 10
97.4152710727
 20
201.4505162891
 30
0.0
 11
97.4152710727
 21
202.1840171277
 31
0.0
  0
ELLIPSE
  5
147
330
ED
100
AcDbEntity
  8
52134120
  6
Continuous
 62
     7
 48
25.4
100
AcDbEllipse
 10
96.64799465
 20
215.4505162885
 30
0.0
 11
-2.475450400218904E-11
 21
-13.49999999940998
 31
0.0
210
0.0
220
0.0
230
1.0
 40
0.3069105691
 41
0.0738695712895024
 42
0.1862603035811984
  0
LINE
  5
148
330
ED
100
AcDbEntity
  8
52134120
  6
Continuous
 62
     7
 48
25.4
100
AcDbLine
 10
96.9537796302
 20
201.4505162891
 30
0.0
 11
97.4152710727
 21
201.4505162891
 31
0.0
  0
LINE
  5
149
330
ED
100
AcDbEntity
  8
52134120
  6
Continuous
 62
     7
 48
25.4
100
AcDbLine
 10
99.597422662
 20
201.4505162891
 30
0.0
 11
99.597422662
 21
202.1840171277
 31
0.0
  0
LINE
  5
14A
330
ED
100
AcDbEntity
  8
52134120
  6
Continuous
 62
     7
 48
25.4
100
AcDbLine
 10
99.597422662
 20
202.1840171277
 30
0.0
 11
97.4152710727
 21
202.1840171277
 31
0.0
  0
LINE
  5
14B
330
ED
100
AcDbEntity
  8
52134120
  6
Continuous
 62
     7
 48
25.4
100
AcDbLine
 10
97.4152710727
 20
201.4505162891
 30
0.0
 11
99.597422662
 21
201.4505162891
 31
0.0
  0
LINE
  5
14C
330
ED
100
AcDbEntity
  8
52134120
  6
Continuous
 62
     7
 48
25.4
100
AcDbLine
 10
94.6677160605
 20
201.4505162891
 30
0.0
 11
94.6677160605
 21
202.1840171277
 31
0.0
  0
LINE
  5
14D
330
ED
100
AcDbEntity
  8
52134120
  6
Continuous
 62
     7
 48
25.4
100
AcDbLine
 10
96.2355644713
 20
201.4505162891
 30
0.0
 11
96.2355644713
 21
202.1840171277
 31
0.0
  0
LINE
  5
14E
330
ED
100
AcDbEntity
  8
52134120
  6
Continuous
 62
     7
 48
25.4
100
AcDbLine
 10
96.2355644713
 20
202.1840171277
 30
0.0
 11
94.6677160605
 21
202.1840171277
 31
0.0
  0
LINE
  5
14F
330
ED
100
AcDbEntity
  8
52134120
  6
Continuous
 62
     7
 48
25.4
100
AcDbLine
 10
94.6677160605
 20
201.4505162891
 30
0.0
 11
96.2355644713
 21
201.4505162891
 31
0.0
  0
ELLIPSE
  5
150
330
ED
100
AcDbEntity
  8
52134120
  6
Continuous
 62
     7
 48
25.4
100
AcDbEllipse
 10
97.0011894713
 20
215.4505162891
 30
0.0
 11
2.428612866367530E-14
 21
13.49999999999201
 31
0.0
210
0.0
220
0.0
230
1.0
 40
0.30625
 41
2.955332350013182
 42
3.130125169343001
  0
LINE
  5
151
330
ED
100
AcDbEntity
  8
52134120
  6
Continuous
 62
     7
 48
25.4
100
AcDbLine
 10
96.2355644713
 20
201.4505162891
 30
0.0
 11
96.9537796302
 21
201.4505162891
 31
0.0
  0
LINE
  5
152
330
ED
100
AcDbEntity
  8
52134120
  6
Continuous
 62
     7
 48
25.4
100
AcDbLine
 10
161.1217869651
 20
231.2005162891
 30
0.0
 11
161.1217869651
 21
199.7005162891
 31
0.0
  0
LINE
  5
153
330
ED
100
AcDbEntity
  8
52134120
  6
Continuous
 62
     7
 48
25.4
100
AcDbLine
 10
70.6217869651
 20
199.7005162891
 30
0.0
 11
70.6217869651
 21
208.5505162891
 31
0.0
  0
LINE
  5
154
330
ED
100
AcDbEntity
  8
52134120
  6
Continuous
 62
     7
 48
25.4
100
AcDbLine
 10
70.6217869651
 20
222.3505162891
 30
0.0
 11
70.6217869651
 21
231.2005162891
 31
0.0
  0
ARC
  5
155
330
ED
100
AcDbEntity
  8
52134120
  6
Continuous
 62
     7
 48
25.4
100
AcDbCircle
 10
107.4668131275
 20
207.3005162891
 30
0.0
 40
36.64484253346603
100
AcDbArc
 50
178.0450617798
 51
192.8503356865
  0
ARC
  5
156
330
ED
100
AcDbEntity
  8
52134120
  6
Continuous
 62
     7
 48
25.4
100
AcDbCircle
 10
107.4668131275
 20
223.6005162891
 30
0.0
 40
36.64484253346597
100
AcDbArc
 50
167.1496643135
 51
181.9551012531
  0
LINE
  5
157
330
ED
100
AcDbEntity
  8
52134120
  6
Continuous
 62
     7
 48
25.4
100
AcDbLine
 10
71.7397647705
 20
231.7505162891
 30
0.0
 11
70.8219722807
 21
231.7505162891
 31
0.0
  0
LINE
  5
158
330
ED
100
AcDbEntity
  8
52134120
  6
Continuous
 62
     7
 48
25.4
100
AcDbLine
 10
71.7397647705
 20
199.1505162891
 30
0.0
 11
70.8219722807
 21
199.1505162891
 31
0.0
  0
ELLIPSE
  5
159
330
ED
100
AcDbEntity
  8
52134120
  6
Continuous
 62
     7
 48
25.4
100
AcDbEllipse
 10
96.0842416884
 20
215.4505162891
 30
0.0
 11
3.469446951953614E-15
 21
5.999999999999996
 31
0.0
210
0.0
220
0.0
230
1.0
 40
0.8660254038
 41
3.777476632340674
 42
5.647301328428706
  0
ELLIPSE
  5
15A
330
ED
100
AcDbEntity
  8
52134120
  6
Continuous
 62
     7
 48
25.4
100
AcDbEllipse
 10
90.5842416884
 20
215.4505162891
 30
0.0
 11
-3.469446951953614E-15
 21
5.500000000000001
 31
0.0
210
0.0
220
0.0
230
0.9999999999999999
 40
0.8660254038
 41
0.0
 42
6.283185307179586
  0
ELLIPSE
  5
15B
330
ED
100
AcDbEntity
  8
52134120
  6
Continuous
 62
     7
 48
25.4
100
AcDbEllipse
 10
90.9883868769
 20
215.4505162891
 30
0.0
 11
-1.040834085586084E-14
 21
-6.900000000000001
 31
0.0
210
0.0
220
0.0
230
1.0
 40
0.8660254038
 41
0.0
 42
6.283185307179586
  0
ELLIPSE
  5
15C
330
ED
100
AcDbEntity
  8
52134120
  6
Continuous
 62
     7
 48
25.4
100
AcDbEllipse
 10
93.3842416884
 20
215.4505162891
 30
0.0
 11
-3.469446951953614E-15
 21
6.9
 31
0.0
210
0.0
220
0.0
230
1.0
 40
0.8660254038
 41
3.141592653589793
 42
6.283185307179585
  0
ELLIPSE
  5
15D
330
ED
100
AcDbEntity
  8
52134120
  6
Continuous
 62
     7
 48
25.4
100
AcDbEllipse
 10
94.5092416884
 20
215.4505162891
 30
0.0
 11
-6.938893903907229E-15
 21
6.000000000000001
 31
0.0
210
0.0
220
0.0
230
0.9999999999999999
 40
0.8660254038
 41
3.831581618976678
 42
5.593196341792707
  0
ELLIPSE
  5
15E
330
ED
100
AcDbEntity
  8
52134120
  6
Continuous
 62
     7
 48
25.4
100
AcDbEllipse
 10
94.5092416884
 20
215.4505162891
 30
0.0
 11
-6.938893903907228E-15
 21
6.75
 31
0.0
210
0.0
220
0.0
230
1.0
 40
0.8660254038
 41
3.162122105182173
 42
6.262655855587617
  0
ELLIPSE
  5
15F
330
ED
100
AcDbEntity
  8
52134120
  6
Continuous
 62
     7
 48
25.4
100
AcDbEllipse
 10
95.0842416884
 20
215.4505162891
 30
0.0
 11
-2.081668171172169E-14
 21
-6.749999999999999
 31
0.0
210
0.0
220
0.0
230
1.0
 40
0.8660254038
 41
0.0000000000000011
 42
3.141592653589792
  0
ELLIPSE
  5
160
330
ED
100
AcDbEntity
  8
52134120
  6
Continuous
 62
     7
 48
25.4
100
AcDbEllipse
 10
84.5702868205
 20
215.4505162891
 30
0.0
 11
6.938893903907229E-15
 21
5.999999999999993
 31
0.0
210
0.0
220
0.0
230
0.9999999999999999
 40
0.8660254038
 41
3.141592653589794
 42
3.650281462980228
  0
ELLIPSE
  5
161
330
ED
100
AcDbEntity
  8
52134120
  6
Continuous
 62
     7
 48
25.4
100
AcDbEllipse
 10
84.5702868205
 20
215.4505162891
 30
0.0
 11
6.938893903907229E-15
 21
5.999999999999993
 31
0.0
210
0.0
220
0.0
230
0.9999999999999999
 40
0.8660254038
 41
5.774496497789174
 42
6.283185307179586
  0
ELLIPSE
  5
162
330
ED
100
AcDbEntity
  8
52134120
  6
Continuous
 62
     7
 48
25.4
100
AcDbEllipse
 10
74.4336065938
 20
215.4505162891
 30
0.0
 11
0.0
 21
-5.999999999999997
 31
0.0
210
0.0
220
0.0
230
1.0
 40
0.8660254038
 41
0.6358839787510402
 42
2.505708674838769
  0
ELLIPSE
  5
163
330
ED
100
AcDbEntity
  8
52134120
  6
Continuous
 62
     7
 48
25.4
100
AcDbEllipse
 10
68.9336065938
 20
215.4505162891
 30
0.0
 11
-6.938893903907228E-15
 21
-5.500000000000003
 31
0.0
210
0.0
220
0.0
230
1.0
 40
0.8660254038
 41
0.0
 42
6.283185307179586
  0
ELLIPSE
  5
164
330
ED
100
AcDbEntity
  8
52134120
  6
Continuous
 62
     7
 48
25.4
100
AcDbEllipse
 10
69.3377517822
 20
215.4505162891
 30
0.0
 11
0.0
 21
6.900000000000001
 31
0.0
210
0.0
220
0.0
230
1.0
 40
0.8660254038
 41
0.0
 42
6.283185307179586
  0
ELLIPSE
  5
165
330
ED
100
AcDbEntity
  8
52134120
  6
Continuous
 62
     7
 48
25.4
100
AcDbEllipse
 10
71.7336065938
 20
215.4505162891
 30
0.0
 11
-6.938893903907228E-15
 21
6.900000000000002
 31
0.0
210
0.0
220
0.0
230
1.0
 40
0.8660254038
 41
3.141592653589793
 42
6.283185307179585
  0
ELLIPSE
  5
166
330
ED
100
AcDbEntity
  8
52134120
  6
Continuous
 62
     7
 48
25.4
100
AcDbEllipse
 10
72.8586065938
 20
215.4505162891
 30
0.0
 11
-6.938893903907228E-15
 21
-6.000000000000005
 31
0.0
210
0.0
220
0.0
230
1.0
 40
0.8660254038
 41
0.68998896538656
 42
2.451603688203242
  0
ELLIPSE
  5
167
330
ED
100
AcDbEntity
  8
52134120
  6
Continuous
 62
     7
 48
25.4
100
AcDbEllipse
 10
72.8586065938
 20
215.4505162891
 30
0.0
 11
0.0
 21
6.750000000000001
 31
0.0
210
0.0
220
0.0
230
1.0
 40
0.8660254038
 41
3.162122105180951
 42
6.262655855588634
  0
ELLIPSE
  5
168
330
ED
100
AcDbEntity
  8
52134120
  6
Continuous
 62
     7
 48
25.4
100
AcDbEllipse
 10
73.4336065938
 20
215.4505162891
 30
0.0
 11
-6.938893903907230E-15
 21
6.749999999999997
 31
0.0
210
0.0
220
0.0
230
0.9999999999999998
 40
0.8660254038
 41
3.141592653589792
 42
6.283185307179585
  0
LINE
  5
169
330
ED
100
AcDbEntity
  8
52134120
  6
Continuous
 62
     7
 48
25.4
100
AcDbLine
 10
136.4699587326
 20
198.9807255822
 30
0.0
 11
142.44800845
 21
199.399007593
 31
0.0
  0
LINE
  5
16A
330
ED
100
AcDbEntity
  8
52134120
  6
Continuous
 62
     7
 48
25.4
100
AcDbLine
 10
142.44800845
 20
231.5020249852
 30
0.0
 11
136.4699587326
 21
231.920306996
 31
0.0
  0
ARC
  5
16B
330
ED
100
AcDbEntity
  8
52134120
  6
Continuous
 62
     7
 48
25.4
100
AcDbCircle
 10
142.4312564409
 20
215.4509499711
 30
0.0
 40
14.59599222729625
100
AcDbArc
 50
286.2248136156
 51
73.7749731813
  0
LINE
  5
16C
330
ED
100
AcDbEntity
  8
52134120
  6
Continuous
 62
     7
 48
25.4
100
AcDbLine
 10
96.0216280409
 20
228.9505162891
 30
0.0
 11
93.1217869651
 21
228.9505162891
 31
0.0
  0
LINE
  5
16D
330
ED
100
AcDbEntity
  8
52134120
  6
Continuous
 62
     7
 48
25.4
100
AcDbLine
 10
98.0570803637
 20
228.9505162891
 30
0.0
 11
97.5252955226
 21
228.9505162891
 31
0.0
  0
LINE
  5
16E
330
ED
100
AcDbEntity
  8
52134120
  6
Continuous
 62
     7
 48
25.4
100
AcDbLine
 10
104.2567869651
 20
228.9505162891
 30
0.0
 11
102.9867869651
 21
228.9505162891
 31
0.0
  0
LINE
  5
16F
330
ED
100
AcDbEntity
  8
52134120
  6
Continuous
 62
     7
 48
25.4
100
AcDbLine
 10
116.3613943001
 20
228.9505162891
 30
0.0
 11
111.750681959
 21
228.9505162891
 31
0.0
  0
LINE
  5
170
330
ED
100
AcDbEntity
  8
52134120
  6
Continuous
 62
     7
 48
25.4
100
AcDbLine
 10
111.750681959
 20
201.9505162891
 30
0.0
 11
116.3613943001
 21
201.9505162891
 31
0.0
  0
LINE
  5
171
330
ED
100
AcDbEntity
  8
52134120
  6
Continuous
 62
     7
 48
25.4
100
AcDbLine
 10
101.6328749847
 20
201.9505162891
 30
0.0
 11
104.2567869651
 21
201.9505162891
 31
0.0
  0
LINE
  5
172
330
ED
100
AcDbEntity
  8
52134120
  6
Continuous
 62
     7
 48
25.4
100
AcDbLine
 10
99.597422662
 20
201.9505162891
 30
0.0
 11
100.129207503
 21
201.9505162891
 31
0.0
  0
LINE
  5
173
330
ED
100
AcDbEntity
  8
52134120
  6
Continuous
 62
     7
 48
25.4
100
AcDbLine
 10
93.1217869651
 20
201.9505162891
 30
0.0
 11
94.6677160605
 21
201.9505162891
 31
0.0
  0
LINE
  5
174
330
ED
100
AcDbEntity
  8
52134120
  6
Continuous
 62
     7
 48
25.4
100
AcDbLine
 10
89.2246726481
 20
199.7005162891
 30
0.0
 11
93.1217869651
 21
201.9505162891
 31
0.0
  0
LINE
  5
175
330
ED
100
AcDbEntity
  8
52134120
  6
Continuous
 62
     7
 48
25.4
100
AcDbLine
 10
93.1217869651
 20
228.9505162891
 30
0.0
 11
89.2246726481
 21
231.2005162891
 31
0.0
  0
LINE
  5
176
330
ED
100
AcDbEntity
  8
52134120
  6
Continuous
 62
     7
 48
25.4
100
AcDbLine
 10
89.2246726481
 20
231.2005162891
 30
0.0
 11
81.6217869651
 21
231.2005162891
 31
0.0
  0
LINE
  5
177
330
ED
100
AcDbEntity
  8
52134120
  6
Continuous
 62
     7
 48
25.4
100
AcDbLine
 10
81.6217869651
 20
199.7005162891
 30
0.0
 11
89.2246726481
 21
199.7005162891
 31
0.0
  0
LINE
  5
178
330
ED
100
AcDbEntity
  8
52134120
  6
Continuous
 62
     7
 48
25.4
100
AcDbLine
 10
81.4216033363
 20
199.1505162891
 30
0.0
 11
81.6217869651
 21
199.7005162891
 31
0.0
  0
LINE
  5
179
330
ED
100
AcDbEntity
  8
52134120
  6
Continuous
 62
     7
 48
25.4
100
AcDbLine
 10
81.6217869651
 20
231.2005162891
 30
0.0
 11
81.4216033363
 21
231.7505162891
 31
0.0
  0
LINE
  5
17A
330
ED
100
AcDbEntity
  8
52134120
  6
Continuous
 62
     7
 48
25.4
100
AcDbLine
 10
150.321970594
 20
231.7505162891
 30
0.0
 11
150.1217869651
 21
231.2005162891
 31
0.0
  0
LINE
  5
17B
330
ED
100
AcDbEntity
  8
52134120
  6
Continuous
 62
     7
 48
25.4
100
AcDbLine
 10
150.1217869651
 20
199.7005162891
 30
0.0
 11
150.321970594
 21
199.1505162891
 31
0.0
  0
LINE
  5
17C
330
ED
100
AcDbEntity
  8
52134120
  6
Continuous
 62
     7
 48
25.4
100
AcDbLine
 10
150.1217869651
 20
231.2005162891
 30
0.0
 11
144.4165162071
 21
231.2005162891
 31
0.0
  0
LINE
  5
17D
330
ED
100
AcDbEntity
  8
52134120
  6
Continuous
 62
     7
 48
25.4
100
AcDbLine
 10
144.4165162071
 20
199.7005162891
 30
0.0
 11
150.1217869651
 21
199.7005162891
 31
0.0
  0
LINE
  5
17E
330
ED
100
AcDbEntity
  8
52134120
  6
Continuous
 62
     7
 48
25.4
100
AcDbLine
 10
127.7068960486
 20
229.2005162891
 30
0.0
 11
118.6217869651
 21
229.2005162891
 31
0.0
  0
LINE
  5
17F
330
ED
100
AcDbEntity
  8
52134120
  6
Continuous
 62
     7
 48
25.4
100
AcDbLine
 10
118.6217869651
 20
201.7005162891
 30
0.0
 11
127.7068960486
 21
201.7005162891
 31
0.0
  0
LINE
  5
180
330
ED
100
AcDbEntity
  8
52134120
  6
Continuous
 62
     7
 48
25.4
100
AcDbLine
 10
106.2471045125
 20
206.4505162891
 30
0.0
 11
112.5971045125
 21
206.4505162891
 31
0.0
  0
LINE
  5
181
330
ED
100
AcDbEntity
  8
52134120
  6
Continuous
 62
     7
 48
25.4
100
AcDbLine
 10
112.5971045125
 20
224.4505162891
 30
0.0
 11
106.2471045125
 21
224.4505162891
 31
0.0
  0
LINE
  5
182
330
ED
100
AcDbEntity
  8
52134120
  6
Continuous
 62
     7
 48
25.4
100
AcDbLine
 10
90.9464694178
 20
224.4505162891
 30
0.0
 11
84.5964694178
 21
224.4505162891
 31
0.0
  0
LINE
  5
183
330
ED
100
AcDbEntity
  8
52134120
  6
Continuous
 62
     7
 48
25.4
100
AcDbLine
 10
84.5964694178
 20
206.4505162891
 30
0.0
 11
90.9464694178
 21
206.4505162891
 31
0.0
  0
LINE
  5
184
330
ED
100
AcDbEntity
  8
52134120
  6
Continuous
 62
     7
 48
25.4
100
AcDbLine
 10
160.9216033363
 20
199.1505162891
 30
0.0
 11
161.1217869651
 21
199.7005162891
 31
0.0
  0
LINE
  5
185
330
ED
100
AcDbEntity
  8
52134120
  6
Continuous
 62
     7
 48
25.4
100
AcDbLine
 10
161.1217869651
 20
231.2005162891
 30
0.0
 11
160.9216033363
 21
231.7505162891
 31
0.0
  0
LINE
  5
186
330
ED
100
AcDbEntity
  8
52134120
  6
Continuous
 62
     7
 48
25.4
100
AcDbLine
 10
70.821970594
 20
231.7505162891
 30
0.0
 11
70.6217869651
 21
231.2005162891
 31
0.0
  0
LINE
  5
187
330
ED
100
AcDbEntity
  8
52134120
  6
Continuous
 62
     7
 48
25.4
100
AcDbLine
 10
70.6217869651
 20
199.7005162891
 30
0.0
 11
70.821970594
 21
199.1505162891
 31
0.0
  0
LINE
  5
188
330
ED
100
AcDbEntity
  8
52134120
  6
Continuous
 62
     7
 48
25.4
100
AcDbLine
 10
97.7622773491
 20
209.4505162891
 30
0.0
 11
106.2209219151
 21
209.4505162891
 31
0.0
  0
LINE
  5
189
330
ED
100
AcDbEntity
  8
52134120
  6
Continuous
 62
     7
 48
25.4
100
AcDbLine
 10
106.2209219151
 20
221.4505162891
 30
0.0
 11
97.7622773491
 21
221.4505162891
 31
0.0
  0
LINE
  5
18A
330
ED
100
AcDbEntity
  8
52134120
  6
Continuous
 62
     7
 48
25.4
100
AcDbLine
 10
93.3842416884
 20
222.3505162891
 30
0.0
 11
90.9883868769
 21
222.3505162891
 31
0.0
  0
LINE
  5
18B
330
ED
100
AcDbEntity
  8
52134120
  6
Continuous
 62
     7
 48
25.4
100
AcDbLine
 10
90.9883868769
 20
208.5505162891
 30
0.0
 11
93.3842416884
 21
208.5505162891
 31
0.0
  0
LINE
  5
18C
330
ED
100
AcDbEntity
  8
52134120
  6
Continuous
 62
     7
 48
25.4
100
AcDbLine
 10
95.0842416884
 20
222.2005162891
 30
0.0
 11
94.6234450616
 21
222.2005162891
 31
0.0
  0
LINE
  5
18D
330
ED
100
AcDbEntity
  8
52134120
  6
Continuous
 62
     7
 48
25.4
100
AcDbLine
 10
94.6234450616
 20
208.7005162891
 30
0.0
 11
95.0842416884
 21
208.7005162891
 31
0.0
  0
LINE
  5
18E
330
ED
100
AcDbEntity
  8
52134120
  6
Continuous
 62
     7
 48
25.4
100
AcDbLine
 10
76.1116422545
 20
209.4505162891
 30
0.0
 11
84.5702868205
 21
209.4505162891
 31
0.0
  0
LINE
  5
18F
330
ED
100
AcDbEntity
  8
52134120
  6
Continuous
 62
     7
 48
25.4
100
AcDbLine
 10
84.5702868205
 20
221.4505162891
 30
0.0
 11
76.1116422545
 21
221.4505162891
 31
0.0
  0
LINE
  5
190
330
ED
100
AcDbEntity
  8
52134120
  6
Continuous
 62
     7
 48
25.4
100
AcDbLine
 10
71.7336065938
 20
222.3505162891
 30
0.0
 11
69.3377517822
 21
222.3505162891
 31
0.0
  0
LINE
  5
191
330
ED
100
AcDbEntity
  8
52134120
  6
Continuous
 62
     7
 48
25.4
100
AcDbLine
 10
69.3377517822
 20
208.5505162891
 30
0.0
 11
71.7336065938
 21
208.5505162891
 31
0.0
  0
LINE
  5
192
330
ED
100
AcDbEntity
  8
52134120
  6
Continuous
 62
     7
 48
25.4
100
AcDbLine
 10
73.4336065938
 20
222.2005162891
 30
0.0
 11
72.972809967
 21
222.2005162891
 31
0.0
  0
LINE
  5
193
330
ED
100
AcDbEntity
  8
52134120
  6
Continuous
 62
     7
 48
25.4
100
AcDbLine
 10
72.972809967
 20
208.7005162891
 30
0.0
 11
73.4336065938
 21
208.7005162891
 31
0.0
  0
LINE
  5
194
330
ED
100
AcDbEntity
  8
30997201-A
  6
Continuous
 62
     7
 48
25.4
100
AcDbLine
 10
28.4017869651
 20
204.4505162891
 30
0.0
 11
28.4017869651
 21
226.4505162891
 31
0.0
  0
LINE
  5
195
330
ED
100
AcDbEntity
  8
30997201-A
  6
Continuous
 62
     7
 48
25.4
100
AcDbLine
 10
68.4017869651
 20
204.4505162891
 30
0.0
 11
68.4017869651
 21
208.6356824822
 31
0.0
  0
LINE
  5
196
330
ED
100
AcDbEntity
  8
30997201-A
  6
Continuous
 62
     7
 48
25.4
100
AcDbLine
 10
68.4017869651
 20
222.2653500959
 30
0.0
 11
68.4017869651
 21
226.4505162891
 31
0.0
  0
LINE
  5
197
330
ED
100
AcDbEntity
  8
30997201-A
  6
Continuous
 62
     7
 48
25.4
100
AcDbLine
 10
28.4017869651
 20
204.4505162891
 30
0.0
 11
68.4017869651
 21
204.4505162891
 31
0.0
  0
LINE
  5
198
330
ED
100
AcDbEntity
  8
30997201-A
  6
Continuous
 62
     7
 48
25.4
100
AcDbLine
 10
68.4017869651
 20
226.4505162891
 30
0.0
 11
28.4017869651
 21
226.4505162891
 31
0.0
  0
LINE
  5
199
330
ED
100
AcDbEntity
  8
30997201-A
  6
Continuous
 62
     7
 48
25.4
100
AcDbLine
 10
70.6217869651
 20
228.6705162891
 30
0.0
 11
68.4017869651
 21
226.4505162891
 31
0.0
  0
LINE
  5
19A
330
ED
100
AcDbEntity
  8
30997201-A
  6
Continuous
 62
     7
 48
25.4
100
AcDbLine
 10
68.4017869651
 20
204.4505162891
 30
0.0
 11
70.6217869651
 21
202.2305162891
 31
0.0
  0
LINE
  5
19B
330
ED
100
AcDbEntity
  8
30997201-A
  6
Continuous
 62
     7
 48
25.4
100
AcDbLine
 10
203.3417869651
 20
226.4505162891
 30
0.0
 11
203.3417869651
 21
204.4505162891
 31
0.0
  0
LINE
  5
19C
330
ED
100
AcDbEntity
  8
30997201-A
  6
Continuous
 62
     7
 48
25.4
100
AcDbLine
 10
163.3417869651
 20
226.4505162891
 30
0.0
 11
163.3417869651
 21
204.4505162891
 31
0.0
  0
LINE
  5
19D
330
ED
100
AcDbEntity
  8
30997201-A
  6
Continuous
 62
     7
 48
25.4
100
AcDbLine
 10
203.3417869651
 20
226.4505162891
 30
0.0
 11
163.3417869651
 21
226.4505162891
 31
0.0
  0
LINE
  5
19E
330
ED
100
AcDbEntity
  8
30997201-A
  6
Continuous
 62
     7
 48
25.4
100
AcDbLine
 10
163.3417869651
 20
204.4505162891
 30
0.0
 11
203.3417869651
 21
204.4505162891
 31
0.0
  0
LINE
  5
19F
330
ED
100
AcDbEntity
  8
30997201-A
  6
Continuous
 62
     7
 48
25.4
100
AcDbLine
 10
161.1217869651
 20
202.2305162891
 30
0.0
 11
163.3417869651
 21
204.4505162891
 31
0.0
  0
LINE
  5
1A0
330
ED
100
AcDbEntity
  8
30997201-A
  6
Continuous
 62
     7
 48
25.4
100
AcDbLine
 10
163.3417869651
 20
226.4505162891
 30
0.0
 11
161.1217869651
 21
228.6705162891
 31
0.0
  0
ENDBLK
  5
1A5
330
ED
100
AcDbEntity
  8
0
100
AcDbBlockEnd
  0
BLOCK
  5
20A
330
1A6
100
AcDbEntity
  8
0
100
AcDbBlockBegin
  2
SE2
 70
     0
 71
     0
 10
0.0
 20
0.0
 30
0.0
  3
SE2
  1

  0
ELLIPSE
  5
1A8
330
1A6
100
AcDbEntity
  8
52134120
  6
Continuous
 62
     7
 48
25.4
100
AcDbEllipse
 10
323.9303111899
 20
215.4505162891
 30
0.0
 11
5.954252179723744E-15
 21
-16.08095076609904
 31
0.0
210
0.0
220
0.0
230
1.0
 40
0.5
 41
0.0201628818143789
 42
1.127323310352983
  0
ELLIPSE
  5
1A9
330
1A6
100
AcDbEntity
  8
52134120
  6
Continuous
 62
     7
 48
25.4
100
AcDbEllipse
 10
323.9303111899
 20
215.4505162891
 30
0.0
 11
5.954252179723744E-15
 21
-16.08095076609904
 31
0.0
210
0.0
220
0.0
230
1.0
 40
0.5
 41
2.014269343236808
 42
3.121429771775414
  0
ELLIPSE
  5
1AA
330
1A6
100
AcDbEntity
  8
52134120
  6
Continuous
 62
     7
 48
25.4
100
AcDbEllipse
 10
313.5380063445
 20
215.4505162891
 30
0.0
 11
5.928593662003768E-15
 21
-16.5
 31
0.0
210
0.0
220
0.0
230
1.0
 40
0.5
 41
0.0
 42
0.9938649815584376
  0
ELLIPSE
  5
1AB
330
1A6
100
AcDbEntity
  8
52134120
  6
Continuous
 62
     7
 48
25.4
100
AcDbEllipse
 10
313.5380063445
 20
215.4505162891
 30
0.0
 11
5.928593662003768E-15
 21
-16.5
 31
0.0
210
0.0
220
0.0
230
1.0
 40
0.5
 41
2.147727672031353
 42
3.727278197046943
  0
ELLIPSE
  5
1AC
330
1A6
100
AcDbEntity
  8
52134120
  6
Continuous
 62
     7
 48
25.4
100
AcDbEllipse
 10
313.5380063445
 20
215.4505162891
 30
0.0
 11
5.928593662003768E-15
 21
-16.5
 31
0.0
210
0.0
220
0.0
230
1.0
 40
0.5
 41
5.697499763722439
 42
6.283185307179586
  0
ELLIPSE
  5
1AD
330
1A6
100
AcDbEntity
  8
52134120
  6
Continuous
 62
     7
 48
25.4
100
AcDbEllipse
 10
326.6034051202
 20
215.4505162891
 30
0.0
 11
6.048309079762766E-15
 21
-14.54483428678401
 31
0.0
210
0.0
220
0.0
230
1.0
 40
0.5
 41
0.291437403068086
 42
1.076519417966722
  0
ELLIPSE
  5
1AE
330
1A6
100
AcDbEntity
  8
52134120
  6
Continuous
 62
     7
 48
25.4
100
AcDbEllipse
 10
326.6034051202
 20
215.4505162891
 30
0.0
 11
6.048309079762766E-15
 21
-14.54483428678401
 31
0.0
210
0.0
220
0.0
230
1.0
 40
0.5
 41
2.065073235623069
 42
2.850155250521721
  0
ELLIPSE
  5
1AF
330
1A6
100
AcDbEntity
  8
52134120
  6
Continuous
 62
     7
 48
25.4
100
AcDbEllipse
 10
313.5380063445
 20
215.4505162891
 30
0.0
 11
5.959208820849327E-15
 21
-16.0
 31
0.0
210
0.0
220
0.0
230
1.0
 40
0.5
 41
0.0
 42
0.9733899101495461
  0
ELLIPSE
  5
1B0
330
1A6
100
AcDbEntity
  8
52134120
  6
Continuous
 62
     7
 48
25.4
100
AcDbEllipse
 10
313.5380063445
 20
215.4505162891
 30
0.0
 11
5.959208820849327E-15
 21
-16.0
 31
0.0
210
0.0
220
0.0
230
1.0
 40
0.5
 41
2.168202743440249
 42
3.141592653589793
  0
ELLIPSE
  5
1B1
330
1A6
100
AcDbEntity
  8
52134120
  6
Continuous
 62
     7
 48
25.4
100
AcDbEllipse
 10
297.1834250637
 20
215.4505162891
 30
0.0
 11
2.918374092733544E-15
 21
-9.0
 31
0.0
210
0.0
220
0.0
230
1.0
 40
0.5
 41
3.141592653589793
 42
3.657975571674024
  0
ELLIPSE
  5
1B2
330
1A6
100
AcDbEntity
  8
52134120
  6
Continuous
 62
     7
 48
25.4
100
AcDbEllipse
 10
311.5740638593
 20
215.4505162891
 30
0.0
 11
-2.627530083700730E-15
 21
13.75
 31
0.0
210
0.0
220
0.0
230
1.0
 40
0.5
 41
5.425970211675005
 42
6.283185307179586
  0
ELLIPSE
  5
1B3
330
1A6
100
AcDbEntity
  8
52134120
  6
Continuous
 62
     7
 48
25.4
100
AcDbEllipse
 10
311.5740638593
 20
215.4505162891
 30
0.0
 11
-2.627530083700730E-15
 21
13.75
 31
0.0
210
0.0
220
0.0
230
1.0
 40
0.5
 41
3.141592653589793
 42
3.998807749094377
  0
ELLIPSE
  5
1B4
330
1A6
100
AcDbEntity
  8
52134120
  6
Continuous
 62
     7
 48
25.4
100
AcDbEllipse
 10
313.5226210178
 20
215.4505162891
 30
0.0
 11
-5.959208820849327E-15
 21
16.0
 31
0.0
210
0.0
220
0.0
230
1.0
 40
0.5
 41
5.309795397030042
 42
6.283185307179585
  0
ELLIPSE
  5
1B5
330
1A6
100
AcDbEntity
  8
52134120
  6
Continuous
 62
     7
 48
25.4
100
AcDbEllipse
 10
313.5226210178
 20
215.4505162891
 30
0.0
 11
-5.959208820849327E-15
 21
16.0
 31
0.0
210
0.0
220
0.0
230
1.0
 40
0.5
 41
2.604842476361082
 42
4.114982563739339
  0
ELLIPSE
  5
1B6
330
1A6
100
AcDbEntity
  8
52134120
  6
Continuous
 62
     7
 48
25.4
100
AcDbEllipse
 10
313.5226210178
 20
215.4505162891
 30
0.0
 11
-5.959208820849327E-15
 21
16.0
 31
0.0
210
0.0
220
0.0
230
1.0
 40
0.5
 41
0.0
 42
0.5367501772287074
  0
ELLIPSE
  5
1B7
330
1A6
100
AcDbEntity
  8
52134120
  6
Continuous
 62
     7
 48
25.4
100
AcDbEllipse
 10
320.6819476918
 20
215.4505162891
 30
0.0
 11
5.510728592200698E-16
 21
9.0
 31
0.0
210
0.0
220
0.0
230
1.0
 40
0.5
 41
0.0000000000000001
 42
0.8410686705679303
  0
ELLIPSE
  5
1B8
330
1A6
100
AcDbEntity
  8
52134120
  6
Continuous
 62
     7
 48
25.4
100
AcDbEllipse
 10
320.6819476918
 20
215.4505162891
 30
0.0
 11
5.510728592200698E-16
 21
9.0
 31
0.0
210
0.0
220
0.0
230
1.0
 40
0.5
 41
2.300523983021863
 42
3.982661324157723
  0
ELLIPSE
  5
1B9
330
1A6
100
AcDbEntity
  8
52134120
  6
Continuous
 62
     7
 48
25.4
100
AcDbEllipse
 10
320.6819476918
 20
215.4505162891
 30
0.0
 11
5.510728592200698E-16
 21
9.0
 31
0.0
210
0.0
220
0.0
230
1.0
 40
0.5
 41
5.442116636611656
 42
6.283185307179586
  0
ELLIPSE
  5
1BA
330
1A6
100
AcDbEntity
  8
52134120
  6
Continuous
 62
     7
 48
25.4
100
AcDbEllipse
 10
309.6834250637
 20
215.4505162891
 30
0.0
 11
-2.918374092733544E-15
 21
9.000000000000005
 31
0.0
210
0.0
220
0.0
230
1.0
 40
0.5
 41
2.973978091069673
 42
3.141592653589793
  0
ELLIPSE
  5
1BB
330
1A6
100
AcDbEntity
  8
52134120
  6
Continuous
 62
     7
 48
25.4
100
AcDbEllipse
 10
309.6834250637
 20
215.4505162891
 30
0.0
 11
-7.489966763127298E-15
 21
-9.000000000000005
 31
0.0
210
0.0
220
0.0
230
1.0
 40
0.5
 41
3.141592653589794
 42
3.309207216109894
  0
ELLIPSE
  5
1BC
330
1A6
100
AcDbEntity
  8
52134120
  6
Continuous
 62
     7
 48
25.4
100
AcDbEllipse
 10
308.1819476918
 20
215.4505162891
 30
0.0
 11
5.510728592200697E-16
 21
8.999999999999998
 31
0.0
210
0.0
220
0.0
230
1.0
 40
0.5
 41
5.442116636611656
 42
6.283185307179586
  0
ELLIPSE
  5
1BD
330
1A6
100
AcDbEntity
  8
52134120
  6
Continuous
 62
     7
 48
25.4
100
AcDbEllipse
 10
308.1819476918
 20
215.4505162891
 30
0.0
 11
5.510728592200697E-16
 21
8.999999999999998
 31
0.0
210
0.0
220
0.0
230
1.0
 40
0.5
 41
0.0000000000000001
 42
3.982661324157723
  0
ELLIPSE
  5
1BE
330
1A6
100
AcDbEntity
  8
52134120
  6
Continuous
 62
     7
 48
25.4
100
AcDbEllipse
 10
297.1834250637
 20
215.4505162891
 30
0.0
 11
5.510728592200701E-16
 21
9.000000000000005
 31
0.0
210
0.0
220
0.0
230
1.0
 40
0.5
 41
2.6253701264399
 42
3.141592653589793
  0
CIRCLE
  5
1BF
330
1A6
100
AcDbEntity
  8
52134120
  6
Continuous
 62
     7
 48
25.4
100
AcDbCircle
 10
280.6569569442
 20
215.4505162891
 30
0.0
 40
15.75
  0
LINE
  5
1C0
330
1A6
100
AcDbEntity
  8
52134120
  6
Continuous
 62
     7
 48
25.4
100
AcDbLine
 10
290.067766332
 20
199.1505162891
 30
0.0
 11
299.4785757198
 21
215.4505162891
 31
0.0
  0
LINE
  5
1C1
330
1A6
100
AcDbEntity
  8
52134120
  6
Continuous
 62
     7
 48
25.4
100
AcDbLine
 10
299.4785757198
 20
215.4505162891
 30
0.0
 11
290.067766332
 21
231.7505162891
 31
0.0
  0
LINE
  5
1C2
330
1A6
100
AcDbEntity
  8
52134120
  6
Continuous
 62
     7
 48
25.4
100
AcDbLine
 10
290.067766332
 20
231.7505162891
 30
0.0
 11
271.2461475564
 21
231.7505162891
 31
0.0
  0
LINE
  5
1C3
330
1A6
100
AcDbEntity
  8
52134120
  6
Continuous
 62
     7
 48
25.4
100
AcDbLine
 10
271.2461475564
 20
231.7505162891
 30
0.0
 11
261.8353381686
 21
215.4505162891
 31
0.0
  0
LINE
  5
1C4
330
1A6
100
AcDbEntity
  8
52134120
  6
Continuous
 62
     7
 48
25.4
100
AcDbLine
 10
261.8353381686
 20
215.4505162891
 30
0.0
 11
271.2461475564
 21
199.1505162891
 31
0.0
  0
LINE
  5
1C5
330
1A6
100
AcDbEntity
  8
52134120
  6
Continuous
 62
     7
 48
25.4
100
AcDbLine
 10
271.2461475564
 20
199.1505162891
 30
0.0
 11
290.067766332
 21
199.1505162891
 31
0.0
  0
ELLIPSE
  5
1C6
330
1A6
100
AcDbEntity
  8
52134120
  6
Continuous
 62
     7
 48
25.4
100
AcDbEllipse
 10
338.2845424534
 20
215.4505162891
 30
0.0
 11
3.673819061467130E-16
 21
5.999999999999997
 31
0.0
210
0.0
220
0.0
230
1.0
 40
0.5
 41
0.0000000000000001
 42
0.5013482043332485
  0
ELLIPSE
  5
1C7
330
1A6
100
AcDbEntity
  8
52134120
  6
Continuous
 62
     7
 48
25.4
100
AcDbEllipse
 10
338.2845424534
 20
215.4505162891
 30
0.0
 11
3.673819061467130E-16
 21
5.999999999999997
 31
0.0
210
0.0
220
0.0
230
1.0
 40
0.5
 41
2.640244449256555
 42
3.200263444547874
  0
ELLIPSE
  5
1C8
330
1A6
100
AcDbEntity
  8
52134120
  6
Continuous
 62
     7
 48
25.4
100
AcDbEllipse
 10
338.2845424534
 20
215.4505162891
 30
0.0
 11
3.673819061467130E-16
 21
5.999999999999997
 31
0.0
210
0.0
220
0.0
230
1.0
 40
0.5
 41
6.224514516221587
 42
6.283185307179586
  0
ELLIPSE
  5
1C9
330
1A6
100
AcDbEntity
  8
52134120
  6
Continuous
 62
     7
 48
25.4
100
AcDbEllipse
 10
347.810821895
 20
215.4505162891
 30
0.0
 11
3.367667473011539E-16
 21
5.500000000000003
 31
0.0
210
0.0
220
0.0
230
0.9999999999999999
 40
0.5
 41
0.0
 42
6.283185307179586
  0
ELLIPSE
  5
1CA
330
1A6
100
AcDbEntity
  8
52134120
  6
Continuous
 62
     7
 48
25.4
100
AcDbEllipse
 10
347.110821895
 20
215.4505162891
 30
0.0
 11
-1.345529861574574E-14
 21
6.9
 31
0.0
210
0.0
220
0.0
230
1.0
 40
0.5
 41
0.0
 42
6.283185307179586
  0
ELLIPSE
  5
1CB
330
1A6
100
AcDbEntity
  8
52134120
  6
Continuous
 62
     7
 48
25.4
100
AcDbEllipse
 10
342.9610796338
 20
215.4505162891
 30
0.0
 11
-6.516404711838509E-15
 21
6.9
 31
0.0
210
0.0
220
0.0
230
1.0
 40
0.5
 41
0.0
 42
3.141592653589793
  0
ELLIPSE
  5
1CC
330
1A6
100
AcDbEntity
  8
52134120
  6
Continuous
 62
     7
 48
25.4
100
AcDbEllipse
 10
342.1816567704
 20
215.4505162891
 30
0.0
 11
-3.673819061467133E-16
 21
-6.000000000000001
 31
0.0
210
0.0
220
0.0
230
0.9999999999999999
 40
0.5
 41
3.757072362260177
 42
5.667705598509195
  0
ELLIPSE
  5
1CD
330
1A6
100
AcDbEntity
  8
52134120
  6
Continuous
 62
     7
 48
25.4
100
AcDbEllipse
 10
341.0125224753
 20
215.4505162891
 30
0.0
 11
-3.673819061467133E-16
 21
-6.000000000000002
 31
0.0
210
0.0
220
0.0
230
1.0
 40
0.5
 41
4.843752309723261
 42
6.283185307179586
  0
ELLIPSE
  5
1CE
330
1A6
100
AcDbEntity
  8
52134120
  6
Continuous
 62
     7
 48
25.4
100
AcDbEllipse
 10
341.0125224753
 20
215.4505162891
 30
0.0
 11
-3.673819061467133E-16
 21
-6.000000000000002
 31
0.0
210
0.0
220
0.0
230
1.0
 40
0.5
 41
3.141592653589793
 42
4.581025651046119
  0
ELLIPSE
  5
1CF
330
1A6
100
AcDbEntity
  8
52134120
  6
Continuous
 62
     7
 48
25.4
100
AcDbEllipse
 10
341.0125224753
 20
215.4505162891
 30
0.0
 11
-4.133046444150523E-16
 21
-6.75
 31
0.0
210
0.0
220
0.0
230
1.0
 40
0.5
 41
5.070518023210767
 42
6.283185307179586
  0
ELLIPSE
  5
1D0
330
1A6
100
AcDbEntity
  8
52134120
  6
Continuous
 62
     7
 48
25.4
100
AcDbEllipse
 10
341.0125224753
 20
215.4505162891
 30
0.0
 11
-4.133046444150523E-16
 21
-6.75
 31
0.0
210
0.0
220
0.0
230
1.0
 40
0.5
 41
2.889162895136868
 42
4.354259937558608
  0
ELLIPSE
  5
1D1
330
1A6
100
AcDbEntity
  8
52134120
  6
Continuous
 62
     7
 48
25.4
100
AcDbEllipse
 10
341.0125224753
 20
215.4505162891
 30
0.0
 11
-4.133046444150523E-16
 21
-6.75
 31
0.0
210
0.0
220
0.0
230
1.0
 40
0.5
 41
0.0000000000000001
 42
0.2524297584529426
  0
ELLIPSE
  5
1D2
330
1A6
100
AcDbEntity
  8
52134120
  6
Continuous
 62
     7
 48
25.4
100
AcDbEllipse
 10
340.0165932609
 20
215.4505162891
 30
0.0
 11
-4.133046444150523E-16
 21
-6.75
 31
0.0
210
0.0
220
0.0
230
1.0
 40
0.5
 41
5.37753479542971
 42
6.283185307179586
  0
ELLIPSE
  5
1D3
330
1A6
100
AcDbEntity
  8
52134120
  6
Continuous
 62
     7
 48
25.4
100
AcDbEllipse
 10
340.0165932609
 20
215.4505162891
 30
0.0
 11
-4.133046444150523E-16
 21
-6.75
 31
0.0
210
0.0
220
0.0
230
1.0
 40
0.5
 41
3.14159265358981
 42
4.047243165339664
  0
ELLIPSE
  5
1D4
330
1A6
100
AcDbEntity
  8
52134120
  6
Continuous
 62
     7
 48
25.4
100
AcDbEllipse
 10
308.2272972808
 20
215.4505162891
 30
0.0
 11
-3.673819061467128E-16
 21
-5.999999999999992
 31
0.0
210
0.0
220
0.0
230
0.9999999999999999
 40
0.5
 41
3.141592653589793
 42
6.283185307179586
  0
ELLIPSE
  5
1D5
330
1A6
100
AcDbEntity
  8
52134120
  6
Continuous
 62
     7
 48
25.4
100
AcDbEllipse
 10
326.6505678572
 20
215.4505162891
 30
0.0
 11
3.320305657451785E-16
 21
5.422649730810359
 31
0.0
210
0.0
220
0.0
230
1.0
 40
0.5
 41
0.7760046976464861
 42
2.365587955943307
  0
ELLIPSE
  5
1D6
330
1A6
100
AcDbEntity
  8
52134120
  6
Continuous
 62
     7
 48
25.4
100
AcDbEllipse
 10
325.7845424534
 20
215.4505162891
 30
0.0
 11
-3.673819061467131E-16
 21
-5.999999999999998
 31
0.0
210
0.0
220
0.0
230
1.0
 40
0.5
 41
0.0000000000000001
 42
0.0586707909579997
  0
ELLIPSE
  5
1D7
330
1A6
100
AcDbEntity
  8
52134120
  6
Continuous
 62
     7
 48
25.4
100
AcDbEllipse
 10
325.7845424534
 20
215.4505162891
 30
0.0
 11
-3.673819061467131E-16
 21
-5.999999999999998
 31
0.0
210
0.0
220
0.0
230
1.0
 40
0.5
 41
3.082921862631793
 42
6.283185307179586
  0
ELLIPSE
  5
1D8
330
1A6
100
AcDbEntity
  8
52134120
  6
Continuous
 62
     7
 48
25.4
100
AcDbEllipse
 10
335.310821895
 20
215.4505162891
 30
0.0
 11
-3.367667473011538E-16
 21
-5.500000000000001
 31
0.0
210
0.0
220
0.0
230
1.0
 40
0.5
 41
0.0
 42
6.283185307179586
  0
ELLIPSE
  5
1D9
330
1A6
100
AcDbEntity
  8
52134120
  6
Continuous
 62
     7
 48
25.4
100
AcDbEllipse
 10
334.610821895
 20
215.4505162891
 30
0.0
 11
4.224891920687203E-16
 21
6.9
 31
0.0
210
0.0
220
0.0
230
1.0
 40
0.5
 41
0.0
 42
6.283185307179586
  0
ELLIPSE
  5
1DA
330
1A6
100
AcDbEntity
  8
52134120
  6
Continuous
 62
     7
 48
25.4
100
AcDbEllipse
 10
330.4610796338
 20
215.4505162891
 30
0.0
 11
4.224891920687204E-16
 21
6.900000000000003
 31
0.0
210
0.0
220
0.0
230
1.0
 40
0.5
 41
0.0000000000000001
 42
3.141592653589793
  0
ELLIPSE
  5
1DB
330
1A6
100
AcDbEntity
  8
52134120
  6
Continuous
 62
     7
 48
25.4
100
AcDbEllipse
 10
329.6816567704
 20
215.4505162891
 30
0.0
 11
-3.673819061467134E-16
 21
-6.000000000000004
 31
0.0
210
0.0
220
0.0
230
1.0
 40
0.5
 41
3.757072362260177
 42
5.667705598509194
  0
ELLIPSE
  5
1DC
330
1A6
100
AcDbEntity
  8
52134120
  6
Continuous
 62
     7
 48
25.4
100
AcDbEllipse
 10
328.5125224753
 20
215.4505162891
 30
0.0
 11
-3.673819061467136E-16
 21
-6.000000000000006
 31
0.0
210
0.0
220
0.0
230
1.0
 40
0.5
 41
3.141592653589793
 42
6.283185307179586
  0
ELLIPSE
  5
1DD
330
1A6
100
AcDbEntity
  8
52134120
  6
Continuous
 62
     7
 48
25.4
100
AcDbEllipse
 10
328.5125224753
 20
215.4505162891
 30
0.0
 11
-6.525589259492176E-15
 21
6.75
 31
0.0
210
0.0
220
0.0
230
1.0
 40
0.5
 41
6.030755548726609
 42
6.283185307179585
  0
ELLIPSE
  5
1DE
330
1A6
100
AcDbEntity
  8
52134120
  6
Continuous
 62
     7
 48
25.4
100
AcDbEllipse
 10
328.5125224753
 20
215.4505162891
 30
0.0
 11
-6.525589259492176E-15
 21
6.75
 31
0.0
210
0.0
220
0.0
230
1.0
 40
0.5
 41
0.0
 42
3.394022412042785
  0
ELLIPSE
  5
1DF
330
1A6
100
AcDbEntity
  8
52134120
  6
Continuous
 62
     7
 48
25.4
100
AcDbEllipse
 10
327.5165932609
 20
215.4505162891
 30
0.0
 11
-6.525589259492177E-15
 21
6.749999999999998
 31
0.0
210
0.0
220
0.0
230
1.0
 40
0.5
 41
0.0
 42
3.141592653589791
  0
LINE
  5
1E0
330
1A6
100
AcDbEntity
  8
52134120
  6
Continuous
 62
     7
 48
25.4
100
AcDbLine
 10
313.7043388487
 20
198.9538701453
 30
0.0
 11
324.0924193603
 21
199.3728342016
 31
0.0
  0
LINE
  5
1E1
330
1A6
100
AcDbEntity
  8
52134120
  6
Continuous
 62
     7
 48
25.4
100
AcDbLine
 10
324.0924193603
 20
231.5281983766
 30
0.0
 11
313.7043388487
 21
231.9471624328
 31
0.0
  0
ARC
  5
1E2
330
1A6
100
AcDbEntity
  8
52134120
  6
Continuous
 62
     7
 48
25.4
100
AcDbCircle
 10
324.8280453968
 20
213.6457239553
 30
0.0
 40
16.36585058234267
100
AcDbArc
 50
300.1513678571
 51
60.7624431435
  0
ARC
  5
1E3
330
1A6
100
AcDbEntity
  8
52134120
  6
Continuous
 62
     7
 48
25.4
100
AcDbCircle
 10
324.4268293858
 20
217.6016016024
 30
0.0
 40
16.87490889024069
100
AcDbArc
 50
192.3375114737
 51
239.5360877021
  0
ARC
  5
1E4
330
1A6
100
AcDbEntity
  8
52134120
  6
Continuous
 62
     7
 48
25.4
100
AcDbCircle
 10
324.2205473634
 20
212.7937563066
 30
0.0
 40
17.40637382776163
100
AcDbArc
 50
60.3872707315
 51
347.3293431613
  0
LINE
  5
1E5
330
1A6
100
AcDbEntity
  8
52134120
  6
Continuous
 62
     7
 48
25.4
100
AcDbLine
 10
326.2405754491
 20
200.0476693525
 30
0.0
 11
328.6929837339
 21
201.5190106526
 31
0.0
  0
LINE
  5
1E6
330
1A6
100
AcDbEntity
  8
52134120
  6
Continuous
 62
     7
 48
25.4
100
AcDbLine
 10
328.6929837339
 20
229.3820219255
 30
0.0
 11
326.2405754491
 21
230.8533632256
 31
0.0
  0
LINE
  5
1E7
330
1A6
100
AcDbEntity
  8
52134120
  6
Continuous
 62
     7
 48
25.4
100
AcDbLine
 10
295.6834250637
 20
223.9357976633
 30
0.0
 11
294.8995939475
 21
223.3815453657
 31
0.0
  0
LINE
  5
1E8
330
1A6
100
AcDbEntity
  8
52134120
  6
Continuous
 62
     7
 48
25.4
100
AcDbLine
 10
311.5740638593
 20
229.2005162891
 30
0.0
 11
291.5400095184
 21
229.2005162891
 31
0.0
  0
LINE
  5
1E9
330
1A6
100
AcDbEntity
  8
52134120
  6
Continuous
 62
     7
 48
25.4
100
AcDbLine
 10
291.5400095184
 20
201.7005162891
 30
0.0
 11
311.5740638593
 21
201.7005162891
 31
0.0
  0
LINE
  5
1EA
330
1A6
100
AcDbEntity
  8
52134120
  6
Continuous
 62
     7
 48
25.4
100
AcDbLine
 10
313.5380063445
 20
231.4505162891
 30
0.0
 11
313.5226210178
 21
231.4505162891
 31
0.0
  0
LINE
  5
1EB
330
1A6
100
AcDbEntity
  8
52134120
  6
Continuous
 62
     7
 48
25.4
100
AcDbLine
 10
313.5226210178
 20
199.4505162891
 30
0.0
 11
313.5380063445
 21
199.4505162891
 31
0.0
  0
LINE
  5
1EC
330
1A6
100
AcDbEntity
  8
52134120
  6
Continuous
 62
     7
 48
25.4
100
AcDbLine
 10
320.6819476918
 20
224.4505162891
 30
0.0
 11
309.6834250637
 21
224.4505162891
 31
0.0
  0
LINE
  5
1ED
330
1A6
100
AcDbEntity
  8
52134120
  6
Continuous
 62
     7
 48
25.4
100
AcDbLine
 10
309.6834250637
 20
206.4505162891
 30
0.0
 11
320.6819476918
 21
206.4505162891
 31
0.0
  0
LINE
  5
1EE
330
1A6
100
AcDbEntity
  8
52134120
  6
Continuous
 62
     7
 48
25.4
100
AcDbLine
 10
297.1834250637
 20
206.4505162891
 30
0.0
 11
308.1819476918
 21
206.4505162891
 31
0.0
  0
LINE
  5
1EF
330
1A6
100
AcDbEntity
  8
52134120
  6
Continuous
 62
     7
 48
25.4
100
AcDbLine
 10
308.1819476918
 20
224.4505162891
 30
0.0
 11
297.1834250637
 21
224.4505162891
 31
0.0
  0
LINE
  5
1F0
330
1A6
100
AcDbEntity
  8
52134120
  6
Continuous
 62
     7
 48
25.4
100
AcDbLine
 10
294.8995939475
 20
207.5194872125
 30
0.0
 11
295.6834250637
 21
206.9652349148
 31
0.0
  0
LINE
  5
1F1
330
1A6
100
AcDbEntity
  8
52134120
  6
Continuous
 62
     7
 48
25.4
100
AcDbLine
 10
338.2845424534
 20
221.4505162891
 30
0.0
 11
336.3144943987
 21
221.4505162891
 31
0.0
  0
LINE
  5
1F2
330
1A6
100
AcDbEntity
  8
52134120
  6
Continuous
 62
     7
 48
25.4
100
AcDbLine
 10
336.3144943987
 20
209.4505162891
 30
0.0
 11
338.2845424534
 21
209.4505162891
 31
0.0
  0
LINE
  5
1F3
330
1A6
100
AcDbEntity
  8
52134120
  6
Continuous
 62
     7
 48
25.4
100
AcDbLine
 10
342.9610796338
 20
208.5505162891
 30
0.0
 11
347.110821895
 21
208.5505162891
 31
0.0
  0
LINE
  5
1F4
330
1A6
100
AcDbEntity
  8
52134120
  6
Continuous
 62
     7
 48
25.4
100
AcDbLine
 10
347.110821895
 20
222.3505162891
 30
0.0
 11
342.9610796338
 21
222.3505162891
 31
0.0
  0
LINE
  5
1F5
330
1A6
100
AcDbEntity
  8
52134120
  6
Continuous
 62
     7
 48
25.4
100
AcDbLine
 10
340.9692212051
 20
221.0843426975
 30
0.0
 11
340.4496059628
 21
220.3494957746
 31
0.0
  0
LINE
  5
1F6
330
1A6
100
AcDbEntity
  8
52134120
  6
Continuous
 62
     7
 48
25.4
100
AcDbLine
 10
340.4496059628
 20
210.5515368035
 30
0.0
 11
340.9692212051
 21
209.8166898807
 31
0.0
  0
LINE
  5
1F7
330
1A6
100
AcDbEntity
  8
52134120
  6
Continuous
 62
     7
 48
25.4
100
AcDbLine
 10
341.0125224753
 20
209.4505162891
 30
0.0
 11
341.2574071301
 21
209.4505162891
 31
0.0
  0
LINE
  5
1F8
330
1A6
100
AcDbEntity
  8
52134120
  6
Continuous
 62
     7
 48
25.4
100
AcDbLine
 10
341.2574071301
 20
221.4505162891
 30
0.0
 11
341.0125224753
 21
221.4505162891
 31
0.0
  0
LINE
  5
1F9
330
1A6
100
AcDbEntity
  8
52134120
  6
Continuous
 62
     7
 48
25.4
100
AcDbLine
 10
340.0165932609
 20
208.7005162891
 30
0.0
 11
341.0125224753
 21
208.7005162891
 31
0.0
  0
LINE
  5
1FA
330
1A6
100
AcDbEntity
  8
52134120
  6
Continuous
 62
     7
 48
25.4
100
AcDbLine
 10
341.0125224753
 20
222.2005162891
 30
0.0
 11
340.0165932609
 21
222.2005162891
 31
0.0
  0
LINE
  5
1FB
330
1A6
100
AcDbEntity
  8
52134120
  6
Continuous
 62
     7
 48
25.4
100
AcDbLine
 10
325.7845424534
 20
221.4505162891
 30
0.0
 11
308.2272972808
 21
221.4505162891
 31
0.0
  0
LINE
  5
1FC
330
1A6
100
AcDbEntity
  8
52134120
  6
Continuous
 62
     7
 48
25.4
100
AcDbLine
 10
308.2272972808
 20
209.4505162891
 30
0.0
 11
325.7845424534
 21
209.4505162891
 31
0.0
  0
LINE
  5
1FD
330
1A6
100
AcDbEntity
  8
52134120
  6
Continuous
 62
     7
 48
25.4
100
AcDbLine
 10
330.4610796338
 20
208.5505162891
 30
0.0
 11
334.610821895
 21
208.5505162891
 31
0.0
  0
LINE
  5
1FE
330
1A6
100
AcDbEntity
  8
52134120
  6
Continuous
 62
     7
 48
25.4
100
AcDbLine
 10
334.610821895
 20
222.3505162891
 30
0.0
 11
330.4610796338
 21
222.3505162891
 31
0.0
  0
LINE
  5
1FF
330
1A6
100
AcDbEntity
  8
52134120
  6
Continuous
 62
     7
 48
25.4
100
AcDbLine
 10
328.4692212051
 20
221.0843426975
 30
0.0
 11
327.9496059628
 21
220.3494957746
 31
0.0
  0
LINE
  5
200
330
1A6
100
AcDbEntity
  8
52134120
  6
Continuous
 62
     7
 48
25.4
100
AcDbLine
 10
327.9496059628
 20
210.5515368035
 30
0.0
 11
328.4692212051
 21
209.8166898807
 31
0.0
  0
LINE
  5
201
330
1A6
100
AcDbEntity
  8
52134120
  6
Continuous
 62
     7
 48
25.4
100
AcDbLine
 10
328.5125224753
 20
209.4505162891
 30
0.0
 11
328.7574071301
 21
209.4505162891
 31
0.0
  0
LINE
  5
202
330
1A6
100
AcDbEntity
  8
52134120
  6
Continuous
 62
     7
 48
25.4
100
AcDbLine
 10
328.7574071301
 20
221.4505162891
 30
0.0
 11
328.5125224753
 21
221.4505162891
 31
0.0
  0
LINE
  5
203
330
1A6
100
AcDbEntity
  8
52134120
  6
Continuous
 62
     7
 48
25.4
100
AcDbLine
 10
327.5165932609
 20
208.7005162891
 30
0.0
 11
328.5125224753
 21
208.7005162891
 31
0.0
  0
LINE
  5
204
330
1A6
100
AcDbEntity
  8
52134120
  6
Continuous
 62
     7
 48
25.4
100
AcDbLine
 10
328.5125224753
 20
222.2005162891
 30
0.0
 11
327.5165932609
 21
222.2005162891
 31
0.0
  0
CIRCLE
  5
205
330
1A6
100
AcDbEntity
  8
30997201-A
  6
Continuous
 62
     7
 48
25.4
100
AcDbCircle
 10
280.6569569442
 20
215.4505162891
 30
0.0
 40
11.00000000000001
  0
CIRCLE
  5
206
330
1A6
100
AcDbEntity
  8
30997201-A
  6
Continuous
 62
     7
 48
25.4
100
AcDbCircle
 10
280.6569569442
 20
215.4505162891
 30
0.0
 40
13.22050000000001
  0
ENDBLK
  5
20B
330
1A6
100
AcDbEntity
  8
0
100
AcDbBlockEnd
  0
BLOCK
  5
2CA
330
20C
100
AcDbEntity
  8
0
100
AcDbBlockBegin
  2
SE3
 70
     0
 71
     0
 10
0.0
 20
0.0
 30
0.0
  3
SE3
  1

  0
LINE
  5
20E
330
20C
100
AcDbEntity
  8
52134120
  6
Continuous
 62
     7
 48
25.4
100
AcDbLine
 10
295.3908788353
 20
74.6725284894
 30
0.0
 11
267.5378550744
 21
90.7534792555
 31
0.0
  0
LINE
  5
20F
330
20C
100
AcDbEntity
  8
52134120
  6
Continuous
 62
     7
 48
25.4
100
AcDbLine
 10
301.7537861173
 20
84.8553087179
 30
0.0
 11
273.1749477924
 21
101.3553087179
 31
0.0
  0
LINE
  5
210
330
20C
100
AcDbEntity
  8
52134120
  6
Continuous
 62
     7
 48
25.4
100
AcDbLine
 10
280.4595574832
 20
65.9726228157
 30
0.0
 11
267.4691764264
 21
73.4726228157
 31
0.0
  0
LINE
  5
211
330
20C
100
AcDbEntity
  8
52134120
  6
Continuous
 62
     7
 48
25.4
100
AcDbLine
 10
292.5172514408
 20
72.7674927988
 30
0.0
 11
267.3248594684
 21
87.3123270856
 31
0.0
  0
LINE
  5
212
330
20C
100
AcDbEntity
  8
52134120
  6
Continuous
 62
     7
 48
25.4
100
AcDbLine
 10
351.330271872
 20
107.1647393426
 30
0.0
 11
343.8409779191
 21
107.1647393426
 31
0.0
  0
LINE
  5
213
330
20C
100
AcDbEntity
  8
52134120
  6
Continuous
 62
     7
 48
25.4
100
AcDbLine
 10
351.330271872
 20
116.5755487304
 30
0.0
 11
342.5662274826
 21
116.5755487304
 31
0.0
  0
ARC
  5
214
330
20C
100
AcDbEntity
  8
52134120
  6
Continuous
 62
     7
 48
25.4
100
AcDbCircle
 10
353.9538502945
 20
111.9245968723
 30
0.0
 40
12.30078479171692
100
AcDbArc
 50
157.7838317267
 51
193.2993052003
  0
LINE
  5
215
330
20C
100
AcDbEntity
  8
52134120
  6
Continuous
 62
     7
 48
25.4
100
AcDbLine
 10
351.330271872
 20
135.397167506
 30
0.0
 11
342.5662274826
 21
135.397167506
 31
0.0
  0
SPLINE
  5
216
330
20C
100
AcDbEntity
  8
52134120
  6
Continuous
 62
     7
 48
25.4
100
AcDbSpline
210
0.0
220
0.0
230
1.0
 70
     8
 71
     3
 72
    14
 73
    10
 74
     0
 42
0.0000000001
 43
0.0000000001
 40
0.0
 40
0.0
 40
0.0
 40
0.0
 40
0.2499999999999999
 40
0.2499999999999999
 40
0.4999999999999999
 40
0.4999999999999999
 40
0.7499999999999999
 40
0.7499999999999999
 40
1.0
 40
1.0
 40
1.0
 40
1.0
 10
342.5662274826179
 20
135.397167505969
 30
0.0
 10
342.2842512795657
 20
133.8477210045497
 30
0.0
 10
342.0536913011806
 20
132.2936868014362
 30
0.0
 10
341.7360864681909
 20
129.1728130097343
 30
0.0
 10
341.6500401862636
 20
127.6058843217694
 30
0.0
 10
341.6468717662464
 20
124.4569543965441
 30
0.0
 10
341.7299358517255
 20
122.8749365431633
 30
0.0
 10
342.0504068316657
 20
119.6971293319621
 30
0.0
 10
342.2836853603804
 20
118.1281049321722
 30
0.0
 10
342.5662274826179
 20
116.5755487303872
 30
0.0
  0
LINE
  5
217
330
20C
100
AcDbEntity
  8
52134120
  6
Continuous
 62
     7
 48
25.4
100
AcDbLine
 10
351.330271872
 20
144.8079768938
 30
0.0
 11
342.5662274826
 21
144.8079768938
 31
0.0
  0
ARC
  5
218
330
20C
100
AcDbEntity
  8
52134120
  6
Continuous
 62
     7
 48
25.4
100
AcDbCircle
 10
354.3137393488
 20
140.1025721999
 30
0.0
 40
12.65483577057238
100
AcDbArc
 50
158.1716867186
 51
201.8283132814
  0
ARC
  5
219
330
20C
100
AcDbEntity
  8
52134120
  6
Continuous
 62
     7
 48
25.4
100
AcDbCircle
 10
329.3110677118
 20
100.9505425642
 30
0.0
 40
13.21013908485109
100
AcDbArc
 50
87.2353047746
 51
117.8060635725
  0
LINE
  5
21A
330
20C
100
AcDbEntity
  8
52134120
  6
Continuous
 62
     7
 48
25.4
100
AcDbLine
 10
329.9482496773
 20
114.1453056838
 30
0.0
 11
329.9482496773
 21
139.4863581182
 31
0.0
  0
LINE
  5
21B
330
20C
100
AcDbEntity
  8
52134120
  6
Continuous
 62
     7
 48
25.4
100
AcDbLine
 10
329.9482496773
 20
114.1453056838
 30
0.0
 11
330.69511206
 21
113.6351710248
 31
0.0
  0
ARC
  5
21C
330
20C
100
AcDbEntity
  8
52134120
  6
Continuous
 62
     7
 48
25.4
100
AcDbCircle
 10
295.7491120599
 20
32.948951513
 30
0.0
 40
87.92888566971574
100
AcDbArc
 50
64.3252411861
 51
66.5820862783
  0
LINE
  5
21D
330
20C
100
AcDbEntity
  8
52134120
  6
Continuous
 62
     7
 48
25.4
100
AcDbLine
 10
333.8453639943
 20
112.1964405815
 30
0.0
 11
333.8453639943
 21
141.7363581182
 31
0.0
  0
ARC
  5
21E
330
20C
100
AcDbEntity
  8
52134120
  6
Continuous
 62
     7
 48
25.4
100
AcDbCircle
 10
333.5620073991
 20
78.9288119546
 30
0.0
 40
33.26883534812533
100
AcDbArc
 50
84.7237368377
 51
89.5119957423
  0
ARC
  5
21F
330
20C
100
AcDbEntity
  8
52134120
  6
Continuous
 62
     7
 48
25.4
100
AcDbCircle
 10
321.8019063937
 20
58.7806170696
 30
0.0
 40
55.2987793194827
100
AcDbArc
 50
69.1896235757
 51
74.4553921904
  0
LINE
  5
220
330
20C
100
AcDbEntity
  8
52134120
  6
Continuous
 62
     7
 48
25.4
100
AcDbLine
 10
341.4482496773
 20
110.4717786914
 30
0.0
 11
341.4482496773
 21
141.7363581182
 31
0.0
  0
ARC
  5
221
330
20C
100
AcDbEntity
  8
52134120
  6
Continuous
 62
     7
 48
25.4
100
AcDbCircle
 10
-24.6898521432
 20
-32.5130934525
 30
0.0
 40
393.0671485467426
100
AcDbArc
 50
21.1164256714
 51
21.3317237658
  0
LINE
  5
222
330
20C
100
AcDbEntity
  8
52134120
  6
Continuous
 62
     7
 48
25.4
100
AcDbLine
 10
272.9482496773
 20
141.7363581182
 30
0.0
 11
272.9482496773
 21
110.2363581182
 31
0.0
  0
LINE
  5
223
330
20C
100
AcDbEntity
  8
52134120
  6
Continuous
 62
     7
 48
25.4
100
AcDbLine
 10
280.5511353603
 20
141.7363581182
 30
0.0
 11
280.5511353603
 21
110.2363581182
 31
0.0
  0
LINE
  5
224
330
20C
100
AcDbEntity
  8
52134120
  6
Continuous
 62
     7
 48
25.4
100
AcDbLine
 10
284.4482496773
 20
113.4640675291
 30
0.0
 11
284.4482496773
 21
139.4863581182
 31
0.0
  0
LINE
  5
225
330
20C
100
AcDbEntity
  8
52134120
  6
Continuous
 62
     7
 48
25.4
100
AcDbLine
 10
271.830271872
 20
107.1647393426
 30
0.0
 11
263.0662274826
 21
107.1647393426
 31
0.0
  0
LINE
  5
226
330
20C
100
AcDbEntity
  8
52134120
  6
Continuous
 62
     7
 48
25.4
100
AcDbLine
 10
271.830271872
 20
116.5755487304
 30
0.0
 11
263.0662274826
 21
116.5755487304
 31
0.0
  0
ARC
  5
227
330
20C
100
AcDbEntity
  8
52134120
  6
Continuous
 62
     7
 48
25.4
100
AcDbCircle
 10
274.8137393894
 20
111.8701440365
 30
0.0
 40
12.65483580825094
100
AcDbArc
 50
158.1716867869
 51
201.8283132131
  0
ARC
  5
228
330
20C
100
AcDbEntity
  8
52134120
  6
Continuous
 62
     7
 48
25.4
100
AcDbCircle
 10
260.2271841312
 20
111.8701440365
 30
0.0
 40
12.52088169629658
100
AcDbArc
 50
337.9259504462
 51
22.0740495538
  0
LINE
  5
229
330
20C
100
AcDbEntity
  8
52134120
  6
Continuous
 62
     7
 48
25.4
100
AcDbLine
 10
271.830271872
 20
135.397167506
 30
0.0
 11
263.0662274826
 21
135.397167506
 31
0.0
  0
SPLINE
  5
22A
330
20C
100
AcDbEntity
  8
52134120
  6
Continuous
 62
     7
 48
25.4
100
AcDbSpline
210
0.0
220
0.0
230
1.0
 70
     8
 71
     3
 72
    10
 73
     6
 74
     0
 42
0.0000000001
 43
0.0000000001
 40
0.0
 40
0.0
 40
0.0
 40
0.0
 40
0.5
 40
0.5
 40
1.0
 40
1.0
 40
1.0
 40
1.0
 10
263.0662274826179
 20
135.397167505969
 30
0.0
 10
262.4982386028578
 20
132.276094262684
 30
0.0
 10
262.1475279348456
 20
129.1121914719519
 30
0.0
 10
262.149342418945
 20
122.8346358128054
 30
0.0
 10
262.4977113505049
 20
119.69951920154
 30
0.0
 10
263.0662274826179
 20
116.5755487303872
 30
0.0
  0
SPLINE
  5
22B
330
20C
100
AcDbEntity
  8
52134120
  6
Continuous
 62
     7
 48
25.4
100
AcDbSpline
210
0.0
220
0.0
230
1.0
 70
     8
 71
     3
 72
    14
 73
    10
 74
     0
 42
0.0000000001
 43
0.0000000001
 40
0.0
 40
0.0
 40
0.0
 40
0.0
 40
0.2499999999999998
 40
0.2499999999999998
 40
0.4999999999999999
 40
0.4999999999999999
 40
0.75
 40
0.75
 40
1.0
 40
1.0
 40
1.0
 40
1.0
 10
271.830271871968
 20
116.5755487303872
 30
0.0
 10
272.1128139942056
 20
118.1281049321722
 30
0.0
 10
272.3460925229203
 20
119.6971293319621
 30
0.0
 10
272.6665635028605
 20
122.8749365431633
 30
0.0
 10
272.7496275883396
 20
124.4569543965441
 30
0.0
 10
272.7464591683224
 20
127.6058843217694
 30
0.0
 10
272.6604128863951
 20
129.1728130097343
 30
0.0
 10
272.3428080534055
 20
132.2936868014362
 30
0.0
 10
272.1122480750203
 20
133.8477210045497
 30
0.0
 10
271.830271871968
 20
135.397167505969
 30
0.0
  0
LINE
  5
22C
330
20C
100
AcDbEntity
  8
52134120
  6
Continuous
 62
     7
 48
25.4
100
AcDbLine
 10
271.830271872
 20
144.8079768938
 30
0.0
 11
263.0662274826
 21
144.8079768938
 31
0.0
  0
ARC
  5
22D
330
20C
100
AcDbEntity
  8
52134120
  6
Continuous
 62
     7
 48
25.4
100
AcDbCircle
 10
274.8137393894
 20
140.1025721999
 30
0.0
 40
12.65483580825109
100
AcDbArc
 50
158.1716867869
 51
201.8283132131
  0
ARC
  5
22E
330
20C
100
AcDbEntity
  8
52134120
  6
Continuous
 62
     7
 48
25.4
100
AcDbCircle
 10
260.0827600058
 20
140.1025721999
 30
0.0
 40
12.65483577057226
100
AcDbArc
 50
338.1716867186
 51
21.8283132814
  0
ARC
  5
22F
330
20C
100
AcDbEntity
  8
52134120
  6
Continuous
 62
     7
 48
25.4
100
AcDbCircle
 10
295.1420741032
 20
101.7846854311
 30
0.0
 40
23.27520335280833
100
AcDbArc
 50
46.2932228937
 51
73.7067771063
  0
ARC
  5
230
330
20C
100
AcDbEntity
  8
52134120
  6
Continuous
 62
     7
 48
25.4
100
AcDbCircle
 10
514.9338604901
 20
224.6706003266
 30
0.0
 40
229.6657557142459
100
AcDbArc
 50
207.5035903975
 51
209.1973178241
  0
LINE
  5
231
330
20C
100
AcDbEntity
  8
52134120
  6
Continuous
 62
     7
 48
25.4
100
AcDbLine
 10
311.2244929709
 20
118.6099906134
 30
0.0
 11
301.6720063837
 21
124.125121316
 31
0.0
  0
ARC
  5
232
330
20C
100
AcDbEntity
  8
52134120
  6
Continuous
 62
     7
 48
25.4
100
AcDbCircle
 10
198.4909721684
 20
271.5783778138
 30
0.0
 40
179.9688547319993
100
AcDbArc
 50
298.5302759239
 51
304.9825668811
  0
SPLINE
  5
233
330
20C
100
AcDbEntity
  8
52134120
  6
Continuous
 62
     7
 48
25.4
100
AcDbSpline
210
0.0
220
0.0
230
1.0
 70
     8
 71
     3
 72
    12
 73
     8
 74
     0
 42
0.0000000001
 43
0.0000000001
 40
0.0
 40
0.0
 40
0.0
 40
0.0
 40
0.25
 40
0.25
 40
0.5
 40
0.5
 40
0.5001312718306461
 40
0.5001312718306461
 40
0.5001312718306461
 40
0.5001312718306461
 10
284.448249677293
 20
113.4640675290909
 30
0.0
 10
283.8174286842286
 20
112.8347830622323
 30
0.0
 10
283.221851001593
 20
112.2577529534863
 30
0.0
 10
282.2771835232632
 20
111.3539092399774
 30
0.0
 10
281.9415343302615
 20
111.0392240057614
 30
0.0
 10
281.9412082066821
 20
111.0389170810093
 30
0.0
 10
281.9412081286037
 20
111.0389170072017
 30
0.0
 10
281.9412081435707
 20
111.038917020638
 30
0.0
  0
LINE
  5
234
330
20C
100
AcDbEntity
  8
52134120
  6
Continuous
 62
     7
 48
25.4
100
AcDbLine
 10
276.6904003753
 20
101.9442512031
 30
0.0
 11
300.5060989793
 21
88.1942512031
 31
0.0
  0
LINE
  5
235
330
20C
100
AcDbEntity
  8
52134120
  6
Continuous
 62
     7
 48
25.4
100
AcDbLine
 10
273.6168432167
 20
101.1206940446
 30
0.0
 11
301.3296561378
 21
85.1206940446
 31
0.0
  0
LINE
  5
236
330
20C
100
AcDbEntity
  8
52134120
  6
Continuous
 62
     7
 48
25.4
100
AcDbLine
 10
322.0452671501
 20
88.9160177816
 30
0.0
 11
311.6529623047
 21
82.9160177816
 31
0.0
  0
LINE
  5
237
330
20C
100
AcDbEntity
  8
52134120
  6
Continuous
 62
     7
 48
25.4
100
AcDbLine
 10
309.0287034959
 20
81.4613673706
 30
0.0
 11
324.617160764
 21
90.4613673706
 31
0.0
  0
ARC
  5
238
330
20C
100
AcDbEntity
  8
52134120
  6
Continuous
 62
     7
 48
25.4
100
AcDbCircle
 10
320.0519569487
 20
94.9667338649
 30
0.0
 40
15.20209808489444
100
AcDbArc
 50
124.2040363592
 51
164.4846191391
  0
LINE
  5
239
330
20C
100
AcDbEntity
  8
52134120
  6
Continuous
 62
     7
 48
25.4
100
AcDbLine
 10
313.6639399419
 20
103.8022192179
 30
0.0
 11
305.4038433964
 21
99.0332502538
 31
0.0
  0
ARC
  5
23A
330
20C
100
AcDbEntity
  8
52134120
  6
Continuous
 62
     7
 48
25.4
100
AcDbCircle
 10
344.0315565792
 20
80.1499513314
 30
0.0
 40
42.99626965124043
100
AcDbArc
 50
153.9481338586
 51
163.2112612313
  0
LINE
  5
23B
330
20C
100
AcDbEntity
  8
52134120
  6
Continuous
 62
     7
 48
25.4
100
AcDbLine
 10
318.0722742068
 20
101.3473721923
 30
0.0
 11
302.8679475874
 21
92.5691501258
 31
0.0
  0
SPLINE
  5
23C
330
20C
100
AcDbEntity
  8
52134120
  6
Continuous
 62
     7
 48
25.4
100
AcDbSpline
210
0.0
220
0.0
230
1.0
 70
     8
 71
     3
 72
    10
 73
     6
 74
     0
 42
0.0000000001
 43
0.0000000001
 40
0.0
 40
0.0
 40
0.0
 40
0.0
 40
0.25
 40
0.25
 40
0.4990632415849222
 40
0.4990632415849222
 40
0.4990632415849222
 40
0.4990632415849222
 10
302.8679475873842
 20
92.56915012579241
 30
0.0
 10
302.8533314230923
 20
92.45171286065232
 30
0.0
 10
302.8423482873119
 20
92.36172192339505
 30
0.0
 10
302.8275891566654
 20
92.24027720256967
 30
0.0
 10
302.8237861029581
 20
92.20861059476057
 30
0.0
 10
302.8237850922394
 20
92.2086013193284
 30
0.0
  0
LINE
  5
23D
330
20C
100
AcDbEntity
  8
52134120
  6
Continuous
 62
     7
 48
25.4
100
AcDbLine
 10
324.5242251478
 20
105.072407805
 30
0.0
 11
329.5370879718
 21
96.3898747024
 31
0.0
  0
ELLIPSE
  5
23E
330
20C
100
AcDbEntity
  8
52134120
  6
Continuous
 62
     7
 48
25.4
100
AcDbEllipse
 10
333.4486730737
 20
107.1647393426
 30
0.0
 11
10.78557204650133
 21
-1.815202255605049
 31
0.0
210
0.0
220
0.0
230
1.0
 40
0.4514162296
 41
0.3568621894725567
 42
0.7374530997369179
  0
LINE
  5
23F
330
20C
100
AcDbEntity
  8
52134120
  6
Continuous
 62
     7
 48
25.4
100
AcDbLine
 10
346.2677958587
 20
102.9613673706
 30
0.0
 11
330.6793385905
 21
93.9613673706
 31
0.0
  0
LINE
  5
240
330
20C
100
AcDbEntity
  8
52134120
  6
Continuous
 62
     7
 48
25.4
100
AcDbLine
 10
324.6024323937
 20
110.1175607794
 30
0.0
 11
324.5242251478
 21
105.072407805
 31
0.0
  0
LINE
  5
241
330
20C
100
AcDbEntity
  8
52134120
  6
Continuous
 62
     7
 48
25.4
100
AcDbLine
 10
324.5242251478
 20
105.072407805
 30
0.0
 11
336.6213451144
 21
112.0566832741
 31
0.0
  0
LINE
  5
242
330
20C
100
AcDbEntity
  8
52134120
  6
Continuous
 62
     7
 48
25.4
100
AcDbLine
 10
323.1487986984
 20
112.6353281954
 30
0.0
 11
324.6024323937
 21
110.1175607794
 31
0.0
  0
LINE
  5
243
330
20C
100
AcDbEntity
  8
52134120
  6
Continuous
 62
     7
 48
25.4
100
AcDbLine
 10
324.6024323937
 20
110.1175607794
 30
0.0
 11
330.69511206
 21
113.6351710248
 31
0.0
  0
LINE
  5
244
330
20C
100
AcDbEntity
  8
52134120
  6
Continuous
 62
     7
 48
25.4
100
AcDbLine
 10
329.5370879718
 20
96.3898747024
 30
0.0
 11
323.0851370308
 21
92.6648390897
 31
0.0
  0
SPLINE
  5
245
330
20C
100
AcDbEntity
  8
52134120
  6
Continuous
 62
     7
 48
25.4
100
AcDbSpline
210
0.0
220
0.0
230
1.0
 70
     8
 71
     3
 72
     8
 73
     4
 74
     0
 42
0.0000000001
 43
0.0000000001
 40
0.0
 40
0.0
 40
0.0
 40
0.0
 40
1.0
 40
1.0
 40
1.0
 40
1.0
 10
313.6639399419335
 20
103.8022192178606
 30
0.0
 10
315.1384599684633
 20
102.9932321701518
 30
0.0
 10
316.6065210029529
 20
102.1721976384762
 30
0.0
 10
318.0722742067728
 20
101.3473721923434
 30
0.0
  0
LINE
  5
246
330
20C
100
AcDbEntity
  8
52134120
  6
Continuous
 62
     7
 48
25.4
100
AcDbLine
 10
318.0722742068
 20
101.3473721923
 30
0.0
 11
323.0851370308
 21
92.6648390897
 31
0.0
  0
LINE
  5
247
330
20C
100
AcDbEntity
  8
52134120
  6
Continuous
 62
     7
 48
25.4
100
AcDbLine
 10
323.1487986984
 20
112.6353281954
 30
0.0
 11
314.4483070298
 21
112.6353281954
 31
0.0
  0
LINE
  5
248
330
20C
100
AcDbEntity
  8
52134120
  6
Continuous
 62
     7
 48
25.4
100
AcDbLine
 10
314.4483070298
 20
112.6353281954
 30
0.0
 11
311.5062245629
 21
107.5394918826
 31
0.0
  0
LINE
  5
249
330
20C
100
AcDbEntity
  8
52134120
  6
Continuous
 62
     7
 48
25.4
100
AcDbLine
 10
311.5062245629
 20
107.5394918826
 30
0.0
 11
313.6639399419
 21
103.8022192179
 31
0.0
  0
LINE
  5
24A
330
20C
100
AcDbEntity
  8
52134120
  6
Continuous
 62
     7
 48
25.4
100
AcDbLine
 10
318.8132496773
 20
125.6868471157
 30
0.0
 11
318.8132496773
 21
125.9863581182
 31
0.0
  0
LINE
  5
24B
330
20C
100
AcDbEntity
  8
52134120
  6
Continuous
 62
     7
 48
25.4
100
AcDbLine
 10
318.8132496773
 20
125.9863581182
 30
0.0
 11
318.8132496773
 21
126.2858691206
 31
0.0
  0
LINE
  5
24C
330
20C
100
AcDbEntity
  8
52134120
  6
Continuous
 62
     7
 48
25.4
100
AcDbLine
 10
318.8132496773
 20
126.2858691206
 30
0.0
 11
312.5540809731
 21
126.2858691206
 31
0.0
  0
LINE
  5
24D
330
20C
100
AcDbEntity
  8
52134120
  6
Continuous
 62
     7
 48
25.4
100
AcDbLine
 10
312.5540809731
 20
126.2858691206
 30
0.0
 11
313.8132496773
 21
127.5419815901
 31
0.0
  0
LINE
  5
24E
330
20C
100
AcDbEntity
  8
52134120
  6
Continuous
 62
     7
 48
25.4
100
AcDbLine
 10
313.8132496773
 20
127.5419815901
 30
0.0
 11
313.8132496773
 21
128.4863581182
 31
0.0
  0
LINE
  5
24F
330
20C
100
AcDbEntity
  8
52134120
  6
Continuous
 62
     7
 48
25.4
100
AcDbLine
 10
313.8132496773
 20
128.4863581182
 30
0.0
 11
311.316305912
 21
125.9894143529
 31
0.0
  0
LINE
  5
250
330
20C
100
AcDbEntity
  8
52134120
  6
Continuous
 62
     7
 48
25.4
100
AcDbLine
 10
311.3193546834
 20
125.9863581182
 30
0.0
 11
313.8132496773
 21
123.4863581182
 31
0.0
  0
LINE
  5
251
330
20C
100
AcDbEntity
  8
52134120
  6
Continuous
 62
     7
 48
25.4
100
AcDbLine
 10
313.8132496773
 20
123.4863581182
 30
0.0
 11
313.8132496773
 21
124.4307346463
 31
0.0
  0
LINE
  5
252
330
20C
100
AcDbEntity
  8
52134120
  6
Continuous
 62
     7
 48
25.4
100
AcDbLine
 10
313.8132496773
 20
124.4307346463
 30
0.0
 11
312.5540809731
 21
125.6868471157
 31
0.0
  0
LINE
  5
253
330
20C
100
AcDbEntity
  8
52134120
  6
Continuous
 62
     7
 48
25.4
100
AcDbLine
 10
312.5540809731
 20
125.6868471157
 30
0.0
 11
318.8132496773
 21
125.6868471157
 31
0.0
  0
LINE
  5
254
330
20C
100
AcDbEntity
  8
52134120
  6
Continuous
 62
     7
 48
25.4
100
AcDbLine
 10
320.5386286504
 20
128.4863581182
 30
0.0
 11
320.0832496773
 21
126.9857468712
 31
0.0
  0
LINE
  5
255
330
20C
100
AcDbEntity
  8
52134120
  6
Continuous
 62
     7
 48
25.4
100
AcDbLine
 10
320.0832496773
 20
126.9857468712
 30
0.0
 11
321.4371616577
 21
126.9857468712
 31
0.0
  0
LINE
  5
256
330
20C
100
AcDbEntity
  8
52134120
  6
Continuous
 62
     7
 48
25.4
100
AcDbLine
 10
321.4371616577
 20
126.9857468712
 30
0.0
 11
321.4371616577
 21
123.4863581182
 31
0.0
  0
LINE
  5
257
330
20C
100
AcDbEntity
  8
52134120
  6
Continuous
 62
     7
 48
25.4
100
AcDbLine
 10
321.4371616577
 20
123.4863581182
 30
0.0
 11
322.9408291394
 21
123.4863581182
 31
0.0
  0
LINE
  5
258
330
20C
100
AcDbEntity
  8
52134120
  6
Continuous
 62
     7
 48
25.4
100
AcDbLine
 10
322.9408291394
 20
123.4863581182
 30
0.0
 11
322.9408291394
 21
126.9857468712
 31
0.0
  0
LINE
  5
259
330
20C
100
AcDbEntity
  8
52134120
  6
Continuous
 62
     7
 48
25.4
100
AcDbLine
 10
322.9408291394
 20
126.9857468712
 30
0.0
 11
323.8301934426
 21
126.9857468712
 31
0.0
  0
LINE
  5
25A
330
20C
100
AcDbEntity
  8
52134120
  6
Continuous
 62
     7
 48
25.4
100
AcDbLine
 10
323.8301934426
 20
126.9857468712
 30
0.0
 11
324.2947411198
 21
128.4863581182
 31
0.0
  0
LINE
  5
25B
330
20C
100
AcDbEntity
  8
52134120
  6
Continuous
 62
     7
 48
25.4
100
AcDbLine
 10
324.2947411198
 20
128.4863581182
 30
0.0
 11
320.5386286504
 21
128.4863581182
 31
0.0
  0
LINE
  5
25C
330
20C
100
AcDbEntity
  8
52134120
  6
Continuous
 62
     7
 48
25.4
100
AcDbLine
 10
325.9359391638
 20
126.4203434483
 30
0.0
 11
325.4988975991
 21
124.9900255998
 31
0.0
  0
LINE
  5
25D
330
20C
100
AcDbEntity
  8
52134120
  6
Continuous
 62
     7
 48
25.4
100
AcDbLine
 10
325.4988975991
 20
124.9900255998
 30
0.0
 11
326.1162570123
 21
124.9900255998
 31
0.0
  0
LINE
  5
25E
330
20C
100
AcDbEntity
  8
52134120
  6
Continuous
 62
     7
 48
25.4
100
AcDbLine
 10
326.1162570123
 20
124.9900255998
 30
0.0
 11
325.6547655697
 21
123.4863581182
 31
0.0
  0
LINE
  5
25F
330
20C
100
AcDbEntity
  8
52134120
  6
Continuous
 62
     7
 48
25.4
100
AcDbLine
 10
325.6547655697
 20
123.4863581182
 30
0.0
 11
323.4726139805
 21
123.4863581182
 31
0.0
  0
LINE
  5
260
330
20C
100
AcDbEntity
  8
52134120
  6
Continuous
 62
     7
 48
25.4
100
AcDbLine
 10
323.4726139805
 20
123.4863581182
 30
0.0
 11
325.0007313399
 21
128.4863581182
 31
0.0
  0
LINE
  5
261
330
20C
100
AcDbEntity
  8
52134120
  6
Continuous
 62
     7
 48
25.4
100
AcDbLine
 10
325.0007313399
 20
128.4863581182
 30
0.0
 11
326.8742032225
 21
128.4863581182
 31
0.0
  0
LINE
  5
262
330
20C
100
AcDbEntity
  8
52134120
  6
Continuous
 62
     7
 48
25.4
100
AcDbLine
 10
326.8742032225
 20
128.4863581182
 30
0.0
 11
328.4023205819
 21
123.4863581182
 31
0.0
  0
LINE
  5
263
330
20C
100
AcDbEntity
  8
52134120
  6
Continuous
 62
     7
 48
25.4
100
AcDbLine
 10
328.4023205819
 20
123.4863581182
 30
0.0
 11
326.8344721712
 21
123.4863581182
 31
0.0
  0
LINE
  5
264
330
20C
100
AcDbEntity
  8
52134120
  6
Continuous
 62
     7
 48
25.4
100
AcDbLine
 10
326.8344721712
 20
123.4863581182
 30
0.0
 11
325.9359391638
 21
126.4203434483
 31
0.0
  0
LINE
  5
265
330
20C
100
AcDbEntity
  8
52134120
  6
Continuous
 62
     7
 48
25.4
100
AcDbLine
 10
261.9482496773
 20
141.7363581182
 30
0.0
 11
261.9482496773
 21
110.2363581182
 31
0.0
  0
LINE
  5
266
330
20C
100
AcDbEntity
  8
52134120
  6
Continuous
 62
     7
 48
25.4
100
AcDbLine
 10
352.4482496773
 20
110.2363581182
 30
0.0
 11
352.4482496773
 21
141.7363581182
 31
0.0
  0
ARC
  5
267
330
20C
100
AcDbEntity
  8
52134120
  6
Continuous
 62
     7
 48
25.4
100
AcDbCircle
 10
339.5827599652
 20
111.8701440365
 30
0.0
 40
12.65483580825093
100
AcDbArc
 50
338.1716867869
 51
21.8283132131
  0
ARC
  5
268
330
20C
100
AcDbEntity
  8
52134120
  6
Continuous
 62
     7
 48
25.4
100
AcDbCircle
 10
339.5827599652
 20
140.1025721999
 30
0.0
 40
12.65483580825106
100
AcDbArc
 50
338.1716867869
 51
21.8283132131
  0
SPLINE
  5
269
330
20C
100
AcDbEntity
  8
52134120
  6
Continuous
 62
     7
 48
25.4
100
AcDbSpline
210
0.0
220
0.0
230
1.0
 70
     8
 71
     3
 72
    10
 73
     6
 74
     0
 42
0.0000000001
 43
0.0000000001
 40
0.0
 40
0.0
 40
0.0
 40
0.0
 40
0.5
 40
0.5
 40
1.0
 40
1.0
 40
1.0
 40
1.0
 10
351.330271871968
 20
135.397167505969
 30
0.0
 10
351.8983130664449
 20
132.2758067956785
 30
0.0
 10
352.2489257917055
 20
129.1127311781902
 30
0.0
 10
352.2472029317543
 20
122.8354025063781
 30
0.0
 10
351.8987897971499
 20
119.699529054372
 30
0.0
 10
351.330271871968
 20
116.5755487303872
 30
0.0
  0
LINE
  5
26A
330
20C
100
AcDbEntity
  8
52134120
  6
Continuous
 62
     7
 48
25.4
100
AcDbLine
 10
322.7896425313
 20
64.7814223398
 30
0.0
 11
332.1819473767
 21
70.2040720706
 31
0.0
  0
LINE
  5
26B
330
20C
100
AcDbEntity
  8
52134120
  6
Continuous
 62
     7
 48
25.4
100
AcDbLine
 10
321.7896425313
 20
65.358772609
 30
0.0
 11
332.1819473767
 21
71.358772609
 31
0.0
  0
LINE
  5
26C
330
20C
100
AcDbEntity
  8
52134120
  6
Continuous
 62
     7
 48
25.4
100
AcDbLine
 10
337.2489346748
 20
61.5824931674
 30
0.0
 11
327.7226552332
 21
56.0824931674
 31
0.0
  0
LINE
  5
26D
330
20C
100
AcDbEntity
  8
52134120
  6
Continuous
 62
     7
 48
25.4
100
AcDbLine
 10
338.0572250517
 20
62.9824931674
 30
0.0
 11
326.1060744795
 21
56.0824931674
 31
0.0
  0
LINE
  5
26E
330
20C
100
AcDbEntity
  8
52134120
  6
Continuous
 62
     7
 48
25.4
100
AcDbLine
 10
335.6613702401
 20
67.1322354286
 30
0.0
 11
323.7102196679
 21
60.2322354286
 31
0.0
  0
LINE
  5
26F
330
20C
100
AcDbEntity
  8
52134120
  6
Continuous
 62
     7
 48
25.4
100
AcDbLine
 10
334.4319473767
 20
67.461658292
 30
0.0
 11
324.0396425313
 21
61.461658292
 31
0.0
  0
LINE
  5
270
330
20C
100
AcDbEntity
  8
52134120
  6
Continuous
 62
     7
 48
25.4
100
AcDbLine
 10
334.4064664296
 20
69.0057925871
 30
0.0
 11
322.7151234785
 21
62.2557925871
 31
0.0
  0
LINE
  5
271
330
20C
100
AcDbEntity
  8
52134120
  6
Continuous
 62
     7
 48
25.4
100
AcDbLine
 10
333.8314664296
 20
70.0017218014
 30
0.0
 11
322.1401234785
 21
63.2517218014
 31
0.0
  0
LINE
  5
272
330
20C
100
AcDbEntity
  8
52134120
  6
Continuous
 62
     7
 48
25.4
100
AcDbLine
 10
333.3035973993
 20
95.4160177816
 30
0.0
 11
343.6959022447
 21
101.4160177816
 31
0.0
  0
LINE
  5
273
330
20C
100
AcDbEntity
  8
52134120
  6
Continuous
 62
     7
 48
25.4
100
AcDbLine
 10
344.4402776259
 20
77.2814223398
 30
0.0
 11
353.8325824713
 21
82.7040720706
 31
0.0
  0
LINE
  5
274
330
20C
100
AcDbEntity
  8
52134120
  6
Continuous
 62
     7
 48
25.4
100
AcDbLine
 10
343.4402776259
 20
77.858772609
 30
0.0
 11
353.8325824713
 21
83.858772609
 31
0.0
  0
LINE
  5
275
330
20C
100
AcDbEntity
  8
52134120
  6
Continuous
 62
     7
 48
25.4
100
AcDbLine
 10
358.8995697694
 20
74.0824931674
 30
0.0
 11
349.3732903278
 21
68.5824931674
 31
0.0
  0
LINE
  5
276
330
20C
100
AcDbEntity
  8
52134120
  6
Continuous
 62
     7
 48
25.4
100
AcDbLine
 10
359.7078601463
 20
75.4824931674
 30
0.0
 11
347.7567095741
 21
68.5824931674
 31
0.0
  0
LINE
  5
277
330
20C
100
AcDbEntity
  8
52134120
  6
Continuous
 62
     7
 48
25.4
100
AcDbLine
 10
357.3120053347
 20
79.6322354286
 30
0.0
 11
345.3608547625
 21
72.7322354286
 31
0.0
  0
LINE
  5
278
330
20C
100
AcDbEntity
  8
52134120
  6
Continuous
 62
     7
 48
25.4
100
AcDbLine
 10
356.0825824713
 20
79.961658292
 30
0.0
 11
345.6902776259
 21
73.961658292
 31
0.0
  0
LINE
  5
279
330
20C
100
AcDbEntity
  8
52134120
  6
Continuous
 62
     7
 48
25.4
100
AcDbLine
 10
356.0571015242
 20
81.5057925871
 30
0.0
 11
344.3657585731
 21
74.7557925871
 31
0.0
  0
LINE
  5
27A
330
20C
100
AcDbEntity
  8
52134120
  6
Continuous
 62
     7
 48
25.4
100
AcDbLine
 10
355.4821015242
 20
82.5017218014
 30
0.0
 11
343.7907585731
 21
75.7517218014
 31
0.0
  0
LINE
  5
27B
330
20C
100
AcDbEntity
  8
52134120
  6
Continuous
 62
     7
 48
25.4
100
AcDbLine
 10
273.1749477924
 20
101.3553087179
 30
0.0
 11
267.5378550744
 21
90.7534792555
 31
0.0
  0
LINE
  5
27C
330
20C
100
AcDbEntity
  8
52134120
  6
Continuous
 62
     7
 48
25.4
100
AcDbLine
 10
295.3908788353
 20
74.6725284894
 30
0.0
 11
301.7537861173
 21
84.8553087179
 31
0.0
  0
ARC
  5
27D
330
20C
100
AcDbEntity
  8
52134120
  6
Continuous
 62
     7
 48
25.4
100
AcDbCircle
 10
278.0118435589
 20
84.4119611015
 30
0.0
 40
18.60108867434927
100
AcDbArc
 50
277.5614716397
 51
321.2436396899
  0
ARC
  5
27E
330
20C
100
AcDbEntity
  8
52134120
  6
Continuous
 62
     7
 48
25.4
100
AcDbCircle
 10
284.661968773
 20
80.572509519
 30
0.0
 40
18.60108867434927
100
AcDbArc
 50
158.7563603101
 51
202.4385283603
  0
LINE
  5
27F
330
20C
100
AcDbEntity
  8
52134120
  6
Continuous
 62
     7
 48
25.4
100
AcDbLine
 10
267.5378550744
 20
90.7534792555
 30
0.0
 11
267.3248594684
 21
87.3123270856
 31
0.0
  0
LINE
  5
280
330
20C
100
AcDbEntity
  8
52134120
  6
Continuous
 62
     7
 48
25.4
100
AcDbLine
 10
292.5172514408
 20
72.7674927988
 30
0.0
 11
295.3908788353
 21
74.6725284894
 31
0.0
  0
LINE
  5
281
330
20C
100
AcDbEntity
  8
52134120
  6
Continuous
 62
     7
 48
25.4
100
AcDbLine
 10
329.9482496773
 20
139.4863581182
 30
0.0
 11
284.4482496773
 21
139.4863581182
 31
0.0
  0
LINE
  5
282
330
20C
100
AcDbEntity
  8
52134120
  6
Continuous
 62
     7
 48
25.4
100
AcDbLine
 10
333.8453639943
 20
141.7363581182
 30
0.0
 11
329.9482496773
 21
139.4863581182
 31
0.0
  0
LINE
  5
283
330
20C
100
AcDbEntity
  8
52134120
  6
Continuous
 62
     7
 48
25.4
100
AcDbLine
 10
341.4482496773
 20
141.7363581182
 30
0.0
 11
333.8453639943
 21
141.7363581182
 31
0.0
  0
LINE
  5
284
330
20C
100
AcDbEntity
  8
52134120
  6
Continuous
 62
     7
 48
25.4
100
AcDbLine
 10
342.5662274826
 20
144.8079768938
 30
0.0
 11
341.4482496773
 21
141.7363581182
 31
0.0
  0
LINE
  5
285
330
20C
100
AcDbEntity
  8
52134120
  6
Continuous
 62
     7
 48
25.4
100
AcDbLine
 10
271.830271872
 20
107.1647393426
 30
0.0
 11
272.9482496773
 21
110.2363581182
 31
0.0
  0
LINE
  5
286
330
20C
100
AcDbEntity
  8
52134120
  6
Continuous
 62
     7
 48
25.4
100
AcDbLine
 10
272.9482496773
 20
141.7363581182
 30
0.0
 11
271.830271872
 21
144.8079768938
 31
0.0
  0
LINE
  5
287
330
20C
100
AcDbEntity
  8
52134120
  6
Continuous
 62
     7
 48
25.4
100
AcDbLine
 10
272.9482496773
 20
110.2363581182
 30
0.0
 11
280.5511353603
 21
110.2363581182
 31
0.0
  0
LINE
  5
288
330
20C
100
AcDbEntity
  8
52134120
  6
Continuous
 62
     7
 48
25.4
100
AcDbLine
 10
280.5511353603
 20
141.7363581182
 30
0.0
 11
272.9482496773
 21
141.7363581182
 31
0.0
  0
LINE
  5
289
330
20C
100
AcDbEntity
  8
52134120
  6
Continuous
 62
     7
 48
25.4
100
AcDbLine
 10
280.5511353603
 20
110.2363581182
 30
0.0
 11
281.9545519281
 21
111.0466210514
 31
0.0
  0
LINE
  5
28A
330
20C
100
AcDbEntity
  8
52134120
  6
Continuous
 62
     7
 48
25.4
100
AcDbLine
 10
284.4482496773
 20
139.4863581182
 30
0.0
 11
280.5511353603
 21
141.7363581182
 31
0.0
  0
LINE
  5
28B
330
20C
100
AcDbEntity
  8
52134120
  6
Continuous
 62
     7
 48
25.4
100
AcDbLine
 10
300.5060989793
 20
88.1942512031
 30
0.0
 11
302.828138315
 21
92.2161413096
 31
0.0
  0
LINE
  5
28C
330
20C
100
AcDbEntity
  8
52134120
  6
Continuous
 62
     7
 48
25.4
100
AcDbLine
 10
281.9487881907
 20
111.0520460653
 30
0.0
 11
276.6904003753
 21
101.9442512031
 31
0.0
  0
LINE
  5
28D
330
20C
100
AcDbEntity
  8
52134120
  6
Continuous
 62
     7
 48
25.4
100
AcDbLine
 10
301.3296561378
 20
85.1206940446
 30
0.0
 11
300.5060989793
 21
88.1942512031
 31
0.0
  0
LINE
  5
28E
330
20C
100
AcDbEntity
  8
52134120
  6
Continuous
 62
     7
 48
25.4
100
AcDbLine
 10
276.6904003753
 20
101.9442512031
 30
0.0
 11
273.6168432167
 21
101.1206940446
 31
0.0
  0
LINE
  5
28F
330
20C
100
AcDbEntity
  8
52134120
  6
Continuous
 62
     7
 48
25.4
100
AcDbLine
 10
309.0287034959
 20
81.4613673706
 30
0.0
 11
311.6529623047
 21
82.9160177816
 31
0.0
  0
LINE
  5
290
330
20C
100
AcDbEntity
  8
52134120
  6
Continuous
 62
     7
 48
25.4
100
AcDbLine
 10
322.0452671501
 20
88.9160177816
 30
0.0
 11
324.617160764
 21
90.4613673706
 31
0.0
  0
LINE
  5
291
330
20C
100
AcDbEntity
  8
52134120
  6
Continuous
 62
     7
 48
25.4
100
AcDbLine
 10
324.617160764
 20
90.4613673706
 30
0.0
 11
323.2800235881
 21
92.7773568961
 31
0.0
  0
LINE
  5
292
330
20C
100
AcDbEntity
  8
52134120
  6
Continuous
 62
     7
 48
25.4
100
AcDbLine
 10
302.8200045418
 20
92.215149408
 30
0.0
 11
309.0287034959
 21
81.4613673706
 31
0.0
  0
LINE
  5
293
330
20C
100
AcDbEntity
  8
52134120
  6
Continuous
 62
     7
 48
25.4
100
AcDbLine
 10
330.6793385905
 20
93.9613673706
 30
0.0
 11
333.3035973993
 21
95.4160177816
 31
0.0
  0
LINE
  5
294
330
20C
100
AcDbEntity
  8
52134120
  6
Continuous
 62
     7
 48
25.4
100
AcDbLine
 10
343.6959022447
 20
101.4160177816
 30
0.0
 11
346.2677958587
 21
102.9613673706
 31
0.0
  0
LINE
  5
295
330
20C
100
AcDbEntity
  8
52134120
  6
Continuous
 62
     7
 48
25.4
100
AcDbLine
 10
329.3422014146
 20
96.2773568961
 30
0.0
 11
330.6793385905
 21
93.9613673706
 31
0.0
  0
LINE
  5
296
330
20C
100
AcDbEntity
  8
52134120
  6
Continuous
 62
     7
 48
25.4
100
AcDbLine
 10
346.2677958587
 20
102.9613673706
 30
0.0
 11
343.8409779191
 21
107.1647393426
 31
0.0
  0
LINE
  5
297
330
20C
100
AcDbEntity
  8
52134120
  6
Continuous
 62
     7
 48
25.4
100
AcDbLine
 10
263.0662274826
 20
144.8079768938
 30
0.0
 11
261.9482496773
 21
141.7363581182
 31
0.0
  0
LINE
  5
298
330
20C
100
AcDbEntity
  8
52134120
  6
Continuous
 62
     7
 48
25.4
100
AcDbLine
 10
261.9482496773
 20
110.2363581182
 30
0.0
 11
263.0662274826
 21
107.1647393426
 31
0.0
  0
LINE
  5
299
330
20C
100
AcDbEntity
  8
52134120
  6
Continuous
 62
     7
 48
25.4
100
AcDbLine
 10
351.330271872
 20
107.1647393426
 30
0.0
 11
352.4482496773
 21
110.2363581182
 31
0.0
  0
LINE
  5
29A
330
20C
100
AcDbEntity
  8
52134120
  6
Continuous
 62
     7
 48
25.4
100
AcDbLine
 10
352.4482496773
 20
141.7363581182
 30
0.0
 11
351.330271872
 21
144.8079768938
 31
0.0
  0
LINE
  5
29B
330
20C
100
AcDbEntity
  8
52134120
  6
Continuous
 62
     7
 48
25.4
100
AcDbLine
 10
331.4498965692
 20
68.6267218014
 30
0.0
 11
330.9498965692
 21
69.4927472052
 31
0.0
  0
LINE
  5
29C
330
20C
100
AcDbEntity
  8
52134120
  6
Continuous
 62
     7
 48
25.4
100
AcDbLine
 10
324.0216933389
 20
65.4927472052
 30
0.0
 11
324.5216933389
 21
64.6267218014
 31
0.0
  0
LINE
  5
29D
330
20C
100
AcDbEntity
  8
52134120
  6
Continuous
 62
     7
 48
25.4
100
AcDbLine
 10
321.7896425313
 20
65.358772609
 30
0.0
 11
322.7896425313
 21
64.7814223398
 31
0.0
  0
LINE
  5
29E
330
20C
100
AcDbEntity
  8
52134120
  6
Continuous
 62
     7
 48
25.4
100
AcDbLine
 10
332.1819473767
 20
70.2040720706
 30
0.0
 11
332.1819473767
 21
71.358772609
 31
0.0
  0
LINE
  5
29F
330
20C
100
AcDbEntity
  8
52134120
  6
Continuous
 62
     7
 48
25.4
100
AcDbLine
 10
332.1819473767
 20
71.358772609
 30
0.0
 11
322.0452671501
 21
88.9160177816
 31
0.0
  0
LINE
  5
2A0
330
20C
100
AcDbEntity
  8
52134120
  6
Continuous
 62
     7
 48
25.4
100
AcDbLine
 10
311.6529623047
 20
82.9160177816
 30
0.0
 11
321.7896425313
 21
65.358772609
 31
0.0
  0
LINE
  5
2A1
330
20C
100
AcDbEntity
  8
52134120
  6
Continuous
 62
     7
 48
25.4
100
AcDbLine
 10
326.1060744795
 20
56.0824931674
 30
0.0
 11
327.7226552332
 21
56.0824931674
 31
0.0
  0
LINE
  5
2A2
330
20C
100
AcDbEntity
  8
52134120
  6
Continuous
 62
     7
 48
25.4
100
AcDbLine
 10
337.2489346748
 20
61.5824931674
 30
0.0
 11
338.0572250517
 21
62.9824931674
 31
0.0
  0
LINE
  5
2A3
330
20C
100
AcDbEntity
  8
52134120
  6
Continuous
 62
     7
 48
25.4
100
AcDbLine
 10
323.7102196679
 20
60.2322354286
 30
0.0
 11
326.1060744795
 21
56.0824931674
 31
0.0
  0
LINE
  5
2A4
330
20C
100
AcDbEntity
  8
52134120
  6
Continuous
 62
     7
 48
25.4
100
AcDbLine
 10
338.0572250517
 20
62.9824931674
 30
0.0
 11
335.6613702401
 21
67.1322354286
 31
0.0
  0
LINE
  5
2A5
330
20C
100
AcDbEntity
  8
52134120
  6
Continuous
 62
     7
 48
25.4
100
AcDbLine
 10
335.6613702401
 20
67.1322354286
 30
0.0
 11
334.4319473767
 21
67.461658292
 31
0.0
  0
LINE
  5
2A6
330
20C
100
AcDbEntity
  8
52134120
  6
Continuous
 62
     7
 48
25.4
100
AcDbLine
 10
324.0396425313
 20
61.461658292
 30
0.0
 11
323.7102196679
 21
60.2322354286
 31
0.0
  0
LINE
  5
2A7
330
20C
100
AcDbEntity
  8
52134120
  6
Continuous
 62
     7
 48
25.4
100
AcDbLine
 10
323.3646425313
 20
62.6307925871
 30
0.0
 11
324.0396425313
 21
61.461658292
 31
0.0
  0
LINE
  5
2A8
330
20C
100
AcDbEntity
  8
52134120
  6
Continuous
 62
     7
 48
25.4
100
AcDbLine
 10
334.4319473767
 20
67.461658292
 30
0.0
 11
333.7569473767
 21
68.6307925871
 31
0.0
  0
LINE
  5
2A9
330
20C
100
AcDbEntity
  8
52134120
  6
Continuous
 62
     7
 48
25.4
100
AcDbLine
 10
322.1401234785
 20
63.2517218014
 30
0.0
 11
322.7151234785
 21
62.2557925871
 31
0.0
  0
LINE
  5
2AA
330
20C
100
AcDbEntity
  8
52134120
  6
Continuous
 62
     7
 48
25.4
100
AcDbLine
 10
334.4064664296
 20
69.0057925871
 30
0.0
 11
333.8314664296
 21
70.0017218014
 31
0.0
  0
LINE
  5
2AB
330
20C
100
AcDbEntity
  8
52134120
  6
Continuous
 62
     7
 48
25.4
100
AcDbLine
 10
353.1005316638
 20
81.1267218014
 30
0.0
 11
352.6005316638
 21
81.9927472052
 31
0.0
  0
LINE
  5
2AC
330
20C
100
AcDbEntity
  8
52134120
  6
Continuous
 62
     7
 48
25.4
100
AcDbLine
 10
345.6723284335
 20
77.9927472052
 30
0.0
 11
346.1723284335
 21
77.1267218014
 31
0.0
  0
LINE
  5
2AD
330
20C
100
AcDbEntity
  8
52134120
  6
Continuous
 62
     7
 48
25.4
100
AcDbLine
 10
353.8325824713
 20
83.858772609
 30
0.0
 11
343.6959022447
 21
101.4160177816
 31
0.0
  0
LINE
  5
2AE
330
20C
100
AcDbEntity
  8
52134120
  6
Continuous
 62
     7
 48
25.4
100
AcDbLine
 10
333.3035973993
 20
95.4160177816
 30
0.0
 11
343.4402776259
 21
77.858772609
 31
0.0
  0
LINE
  5
2AF
330
20C
100
AcDbEntity
  8
52134120
  6
Continuous
 62
     7
 48
25.4
100
AcDbLine
 10
343.4402776259
 20
77.858772609
 30
0.0
 11
344.4402776259
 21
77.2814223398
 31
0.0
  0
LINE
  5
2B0
330
20C
100
AcDbEntity
  8
52134120
  6
Continuous
 62
     7
 48
25.4
100
AcDbLine
 10
353.8325824713
 20
82.7040720706
 30
0.0
 11
353.8325824713
 21
83.858772609
 31
0.0
  0
LINE
  5
2B1
330
20C
100
AcDbEntity
  8
52134120
  6
Continuous
 62
     7
 48
25.4
100
AcDbLine
 10
347.7567095741
 20
68.5824931674
 30
0.0
 11
349.3732903278
 21
68.5824931674
 31
0.0
  0
LINE
  5
2B2
330
20C
100
AcDbEntity
  8
52134120
  6
Continuous
 62
     7
 48
25.4
100
AcDbLine
 10
358.8995697694
 20
74.0824931674
 30
0.0
 11
359.7078601463
 21
75.4824931674
 31
0.0
  0
LINE
  5
2B3
330
20C
100
AcDbEntity
  8
52134120
  6
Continuous
 62
     7
 48
25.4
100
AcDbLine
 10
345.3608547625
 20
72.7322354286
 30
0.0
 11
347.7567095741
 21
68.5824931674
 31
0.0
  0
LINE
  5
2B4
330
20C
100
AcDbEntity
  8
52134120
  6
Continuous
 62
     7
 48
25.4
100
AcDbLine
 10
359.7078601463
 20
75.4824931674
 30
0.0
 11
357.3120053347
 21
79.6322354286
 31
0.0
  0
LINE
  5
2B5
330
20C
100
AcDbEntity
  8
52134120
  6
Continuous
 62
     7
 48
25.4
100
AcDbLine
 10
357.3120053347
 20
79.6322354286
 30
0.0
 11
356.0825824713
 21
79.961658292
 31
0.0
  0
LINE
  5
2B6
330
20C
100
AcDbEntity
  8
52134120
  6
Continuous
 62
     7
 48
25.4
100
AcDbLine
 10
345.6902776259
 20
73.961658292
 30
0.0
 11
345.3608547625
 21
72.7322354286
 31
0.0
  0
LINE
  5
2B7
330
20C
100
AcDbEntity
  8
52134120
  6
Continuous
 62
     7
 48
25.4
100
AcDbLine
 10
345.0152776259
 20
75.1307925871
 30
0.0
 11
345.6902776259
 21
73.961658292
 31
0.0
  0
LINE
  5
2B8
330
20C
100
AcDbEntity
  8
52134120
  6
Continuous
 62
     7
 48
25.4
100
AcDbLine
 10
356.0825824713
 20
79.961658292
 30
0.0
 11
355.4075824713
 21
81.1307925871
 31
0.0
  0
LINE
  5
2B9
330
20C
100
AcDbEntity
  8
52134120
  6
Continuous
 62
     7
 48
25.4
100
AcDbLine
 10
343.7907585731
 20
75.7517218014
 30
0.0
 11
344.3657585731
 21
74.7557925871
 31
0.0
  0
LINE
  5
2BA
330
20C
100
AcDbEntity
  8
52134120
  6
Continuous
 62
     7
 48
25.4
100
AcDbLine
 10
356.0571015242
 20
81.5057925871
 30
0.0
 11
355.4821015242
 21
82.5017218014
 31
0.0
  0
LINE
  5
2BB
330
20C
100
AcDbEntity
  8
30997201-A
  6
Continuous
 62
     7
 48
25.4
100
AcDbLine
 10
394.6682496773
 20
114.9863581182
 30
0.0
 11
394.6682496773
 21
136.9863581182
 31
0.0
  0
LINE
  5
2BC
330
20C
100
AcDbEntity
  8
30997201-A
  6
Continuous
 62
     7
 48
25.4
100
AcDbLine
 10
354.6682496773
 20
114.9863581182
 30
0.0
 11
354.6682496773
 21
136.9863581182
 31
0.0
  0
LINE
  5
2BD
330
20C
100
AcDbEntity
  8
30997201-A
  6
Continuous
 62
     7
 48
25.4
100
AcDbLine
 10
394.6682496773
 20
136.9863581182
 30
0.0
 11
354.6682496773
 21
136.9863581182
 31
0.0
  0
LINE
  5
2BE
330
20C
100
AcDbEntity
  8
30997201-A
  6
Continuous
 62
     7
 48
25.4
100
AcDbLine
 10
354.6682496773
 20
114.9863581182
 30
0.0
 11
394.6682496773
 21
114.9863581182
 31
0.0
  0
LINE
  5
2BF
330
20C
100
AcDbEntity
  8
30997201-A
  6
Continuous
 62
     7
 48
25.4
100
AcDbLine
 10
352.4482496773
 20
112.7663581182
 30
0.0
 11
354.6682496773
 21
114.9863581182
 31
0.0
  0
LINE
  5
2C0
330
20C
100
AcDbEntity
  8
30997201-A
  6
Continuous
 62
     7
 48
25.4
100
AcDbLine
 10
354.6682496773
 20
136.9863581182
 30
0.0
 11
352.4482496773
 21
139.2063581182
 31
0.0
  0
LINE
  5
2C1
330
20C
100
AcDbEntity
  8
30997201-A
  6
Continuous
 62
     7
 48
25.4
100
AcDbLine
 10
219.7282496773
 20
114.9863581182
 30
0.0
 11
219.7282496773
 21
136.9863581182
 31
0.0
  0
LINE
  5
2C2
330
20C
100
AcDbEntity
  8
30997201-A
  6
Continuous
 62
     7
 48
25.4
100
AcDbLine
 10
259.7282496773
 20
114.9863581182
 30
0.0
 11
259.7282496773
 21
136.9863581182
 31
0.0
  0
LINE
  5
2C3
330
20C
100
AcDbEntity
  8
30997201-A
  6
Continuous
 62
     7
 48
25.4
100
AcDbLine
 10
219.7282496773
 20
114.9863581182
 30
0.0
 11
259.7282496773
 21
114.9863581182
 31
0.0
  0
LINE
  5
2C4
330
20C
100
AcDbEntity
  8
30997201-A
  6
Continuous
 62
     7
 48
25.4
100
AcDbLine
 10
259.7282496773
 20
136.9863581182
 30
0.0
 11
219.7282496773
 21
136.9863581182
 31
0.0
  0
LINE
  5
2C5
330
20C
100
AcDbEntity
  8
30997201-A
  6
Continuous
 62
     7
 48
25.4
100
AcDbLine
 10
261.9482496773
 20
139.2063581182
 30
0.0
 11
259.7282496773
 21
136.9863581182
 31
0.0
  0
LINE
  5
2C6
330
20C
100
AcDbEntity
  8
30997201-A
  6
Continuous
 62
     7
 48
25.4
100
AcDbLine
 10
259.7282496773
 20
114.9863581182
 30
0.0
 11
261.9482496773
 21
112.7663581182
 31
0.0
  0
ENDBLK
  5
2CB
330
20C
100
AcDbEntity
  8
0
100
AcDbBlockEnd
  0
ENDSEC
  0
SECTION
  2
ENTITIES
  0
INSERT
  5
2C
102
{ACAD_XDICTIONARY
360
E8
102
}
330
1F
100
AcDbEntity
  8
Default
100
AcDbBlockReference
  2
SE
 10
0.0
 20
0.0
 30
0.0
  0
INSERT
  5
EE
102
{ACAD_XDICTIONARY
360
1A1
102
}
330
1F
100
AcDbEntity
  8
Default
100
AcDbBlockReference
  2
SE1
 10
0.0
 20
0.0
 30
0.0
  0
INSERT
  5
1A7
102
{ACAD_XDICTIONARY
360
207
102
}
330
1F
100
AcDbEntity
  8
Default
100
AcDbBlockReference
  2
SE2
 10
0.0
 20
0.0
 30
0.0
  0
INSERT
  5
20D
102
{ACAD_XDICTIONARY
360
2C7
102
}
330
1F
100
AcDbEntity
  8
Default
100
AcDbBlockReference
  2
SE3
 10
0.0
 20
0.0
 30
0.0
  0
ENDSEC
  0
SECTION
  2
OBJECTS
  0
DICTIONARY
  5
C
330
0
100
AcDbDictionary
281
     1
  3
ACAD_GROUP
350
D
  3
ACAD_LAYOUT
350
1A
  3
ACAD_MLINESTYLE
350
17
  3
ACAD_PLOTSETTINGS
350
19
  3
ACAD_PLOTSTYLENAME
350
E
  0
DICTIONARY
  5
E8
330
2C
100
AcDbDictionary
280
     1
281
     1
  3
ACAD_FILTER
360
E9
  0
DICTIONARY
  5
1A1
330
EE
100
AcDbDictionary
280
     1
281
     1
  3
ACAD_FILTER
360
1A2
  0
DICTIONARY
  5
207
330
1A7
100
AcDbDictionary
280
     1
281
     1
  3
ACAD_FILTER
360
208
  0
DICTIONARY
  5
2C7
330
20D
100
AcDbDictionary
280
     1
281
     1
  3
ACAD_FILTER
360
2C8
  0
DICTIONARY
  5
D
102
{ACAD_REACTORS
330
C
102
}
330
C
100
AcDbDictionary
281
     1
  0
DICTIONARY
  5
1A
102
{ACAD_REACTORS
330
C
102
}
330
C
100
AcDbDictionary
281
     1
  3
Layout1
350
1E
  3
Model
350
22
  0
DICTIONARY
  5
17
102
{ACAD_REACTORS
330
C
102
}
330
C
100
AcDbDictionary
281
     1
  3
Standard
350
18
  0
DICTIONARY
  5
19
102
{ACAD_REACTORS
330
C
102
}
330
C
100
AcDbDictionary
281
     1
  0
ACDBDICTIONARYWDFLT
  5
E
102
{ACAD_REACTORS
330
C
102
}
330
C
100
AcDbDictionary
281
     1
  3
Normal
350
F
100
AcDbDictionaryWithDefault
340
F
  0
DICTIONARY
  5
E9
102
{ACAD_REACTORS
330
E8
102
}
330
E8
100
AcDbDictionary
281
     1
  3
SPATIAL
360
EA
  0
DICTIONARY
  5
1A2
102
{ACAD_REACTORS
330
1A1
102
}
330
1A1
100
AcDbDictionary
281
     1
  3
SPATIAL
360
1A3
  0
DICTIONARY
  5
208
102
{ACAD_REACTORS
330
207
102
}
330
207
100
AcDbDictionary
281
     1
  3
SPATIAL
360
209
  0
DICTIONARY
  5
2C8
102
{ACAD_REACTORS
330
2C7
102
}
330
2C7
100
AcDbDictionary
281
     1
  3
SPATIAL
360
2C9
  0
LAYOUT
  5
1E
102
{ACAD_REACTORS
330
1A
102
}
330
1A
100
AcDbPlotSettings
  1

  2

  4

  6

 40
0.0
 41
0.0
 42
0.0
 43
0.0
 44
0.0
 45
0.0
 46
0.0
 47
0.0
 48
0.0
 49
0.0
140
0.0
141
0.0
142
1.0
143
1.0
 70
   688
 72
     0
 73
     0
 74
     5
  7

 75
    16
147
1.0
148
0.0
149
0.0
100
AcDbLayout
  1
Layout1
 70
     1
 71
     1
 10
0.0
 20
0.0
 11
420.0
 21
297.0
 12
0.0
 22
0.0
 32
0.0
 14
0.0
 24
0.0
 34
0.0
 15
420.0
 25
297.0
 35
0.0
146
0.0
 13
0.0
 23
0.0
 33
0.0
 16
1.0
 26
0.0
 36
0.0
 17
0.0
 27
1.0
 37
0.0
 76
     0
330
1B
  0
LAYOUT
  5
22
102
{ACAD_REACTORS
330
1A
102
}
330
1A
100
AcDbPlotSettings
  1

  2

  4

  6

 40
0.0
 41
0.0
 42
0.0
 43
0.0
 44
0.0
 45
0.0
 46
0.0
 47
0.0
 48
0.0
 49
0.0
140
0.0
141
0.0
142
1.0
143
1.0
 70
  1712
 72
     0
 73
     0
 74
     0
  7

 75
     0
147
1.0
148
0.0
149
0.0
100
AcDbLayout
  1
Model
 70
     1
 71
     0
 10
0.0
 20
0.0
 11
420.0
 21
297.0
 12
0.0
 22
0.0
 32
0.0
 14
0.0
 24
0.0
 34
0.0
 15
420.0
 25
297.0
 35
0.0
146
0.0
 13
0.0
 23
0.0
 33
0.0
 16
1.0
 26
0.0
 36
0.0
 17
0.0
 27
1.0
 37
0.0
 76
     0
330
1F
  0
MLINESTYLE
  5
18
102
{ACAD_REACTORS
330
17
102
}
330
17
100
AcDbMlineStyle
  2
Standard
 70
     0
  3

 62
   256
 51
90.0
 52
90.0
 71
     2
 49
0.5
 62
   256
  6
BYLAYER
 49
-0.5
 62
   256
  6
BYLAYER
  0
ACDBPLACEHOLDER
  5
F
102
{ACAD_REACTORS
330
E
102
}
330
E
  0
SPATIAL_FILTER
  5
EA
102
{ACAD_REACTORS
330
E9
102
}
330
E9
100
AcDbFilter
100
AcDbSpatialFilter
 70
     2
 10
22.0517869651
 20
49.7324931674
 10
209.6917869651
 20
151.1579768938
210
0.0
220
0.0
230
1.0
 11
0.0
 21
0.0
 31
0.0
 71
     1
 72
     0
 73
     0
 40
1.0
 40
0.0
 40
0.0
 40
0.0
 40
0.0
 40
1.0
 40
0.0
 40
0.0
 40
0.0
 40
0.0
 40
1.0
 40
0.0
 40
1.0
 40
0.0
 40
0.0
 40
0.0
 40
0.0
 40
1.0
 40
0.0
 40
0.0
 40
0.0
 40
0.0
 40
1.0
 40
0.0
  0
SPATIAL_FILTER
  5
1A3
102
{ACAD_REACTORS
330
1A2
102
}
330
1A2
100
AcDbFilter
100
AcDbSpatialFilter
 70
     2
 10
22.0517869651
 20
192.6005162891
 10
209.6917869651
 20
238.3005162891
210
0.0
220
0.0
230
1.0
 11
0.0
 21
0.0
 31
0.0
 71
     1
 72
     0
 73
     0
 40
1.0
 40
0.0
 40
0.0
 40
0.0
 40
0.0
 40
1.0
 40
0.0
 40
0.0
 40
0.0
 40
0.0
 40
1.0
 40
0.0
 40
1.0
 40
0.0
 40
0.0
 40
0.0
 40
0.0
 40
1.0
 40
0.0
 40
0.0
 40
0.0
 40
0.0
 40
1.0
 40
0.0
  0
SPATIAL_FILTER
  5
209
102
{ACAD_REACTORS
330
208
102
}
330
208
100
AcDbFilter
100
AcDbSpatialFilter
 70
     2
 10
255.4853381686
 20
192.6005162891
 10
356.910821895
 20
238.3005162891
210
0.0
220
0.0
230
1.0
 11
0.0
 21
0.0
 31
0.0
 71
     1
 72
     0
 73
     0
 40
1.0
 40
0.0
 40
0.0
 40
0.0
 40
0.0
 40
1.0
 40
0.0
 40
0.0
 40
0.0
 40
0.0
 40
1.0
 40
0.0
 40
1.0
 40
0.0
 40
0.0
 40
0.0
 40
0.0
 40
1.0
 40
0.0
 40
0.0
 40
0.0
 40
0.0
 40
1.0
 40
0.0
  0
SPATIAL_FILTER
  5
2C9
102
{ACAD_REACTORS
330
2C8
102
}
330
2C8
100
AcDbFilter
100
AcDbSpatialFilter
 70
     2
 10
213.3782496773
 20
49.7324931674
 10
401.0182496773
 20
151.1579768938
210
0.0
220
0.0
230
1.0
 11
0.0
 21
0.0
 31
0.0
 71
     1
 72
     0
 73
     0
 40
1.0
 40
0.0
 40
0.0
 40
0.0
 40
0.0
 40
1.0
 40
0.0
 40
0.0
 40
0.0
 40
0.0
 40
1.0
 40
0.0
 40
1.0
 40
0.0
 40
0.0
 40
0.0
 40
0.0
 40
1.0
 40
0.0
 40
0.0
 40
0.0
 40
0.0
 40
1.0
 40
0.0
  0
ENDSEC
  0
EOF
