  0
SECTION
  2
HEADER
  9
$ACADVER
  1
AC1015
  9
$ACADMAINTVER
 70
     6
  9
$DWGCODEPAGE
  3
ANSI_1252
  9
$INSBASE
 10
0.0
 20
0.0
 30
0.0
  9
$EXTMIN
 10
0.0
 20
0.0
 30
0.0
  9
$EXTMAX
 10
420.0
 20
297.0
 30
0.0
  9
$LIMMIN
 10
0.0
 20
0.0
  9
$LIMMAX
 10
420.0
 20
297.0
  9
$ORTHOMODE
 70
     0
  9
$REGENMODE
 70
     1
  9
$FILLMODE
 70
     1
  9
$QTEXTMODE
 70
     0
  9
$MIRRTEXT
 70
     1
  9
$LTSCALE
 40
1.0
  9
$ATTMODE
 70
     1
  9
$TEXTSIZE
 40
0.2
  9
$TRACEWID
 40
0.05
  9
$TEXTSTYLE
  7
Standard
  9
$CLAYER
  8
0
  9
$CELTYPE
  6
ByLayer
  9
$CECOLOR
 62
   256
  9
$CELTSCALE
 40
25.4
  9
$DISPSILH
 70
     0
  9
$DIMSCALE
 40
1.0
  9
$DIMASZ
 40
0.18
  9
$DIMEXO
 40
0.0625
  9
$DIMDLI
 40
0.38
  9
$DIMRND
 40
0.0
  9
$DIMDLE
 40
0.0
  9
$DIMEXE
 40
0.18
  9
$DIMTP
 40
0.0
  9
$DIMTM
 40
0.0
  9
$DIMTXT
 40
0.18
  9
$DIMCEN
 40
0.09
  9
$DIMTSZ
 40
0.0
  9
$DIMTOL
 70
     0
  9
$DIMLIM
 70
     0
  9
$DIMTIH
 70
     1
  9
$DIMTOH
 70
     1
  9
$DIMSE1
 70
     0
  9
$DIMSE2
 70
     0
  9
$DIMTAD
 70
     0
  9
$DIMZIN
 70
     0
  9
$DIMBLK
  1

  9
$DIMASO
 70
     1
  9
$DIMSHO
 70
     1
  9
$DIMPOST
  1

  9
$DIMAPOST
  1

  9
$DIMALT
 70
     0
  9
$DIMALTD
 70
     2
  9
$DIMALTF
 40
25.4
  9
$DIMLFAC
 40
1.0
  9
$DIMTOFL
 70
     0
  9
$DIMTVP
 40
0.0
  9
$DIMTIX
 70
     0
  9
$DIMSOXD
 70
     0
  9
$DIMSAH
 70
     0
  9
$DIMBLK1
  1

  9
$DIMBLK2
  1

  9
$DIMSTYLE
  2
Standard
  9
$DIMCLRD
 70
     0
  9
$DIMCLRE
 70
     0
  9
$DIMCLRT
 70
     0
  9
$DIMTFAC
 40
1.0
  9
$DIMGAP
 40
0.09
  9
$DIMJUST
 70
     0
  9
$DIMSD1
 70
     0
  9
$DIMSD2
 70
     0
  9
$DIMTOLJ
 70
     1
  9
$DIMTZIN
 70
     0
  9
$DIMALTZ
 70
     0
  9
$DIMALTTZ
 70
     0
  9
$DIMUPT
 70
     0
  9
$DIMDEC
 70
     4
  9
$DIMTDEC
 70
     4
  9
$DIMALTU
 70
     2
  9
$DIMALTTD
 70
     2
  9
$DIMTXSTY
  7
Standard
  9
$DIMAUNIT
 70
     0
  9
$DIMADEC
 70
     0
  9
$DIMALTRND
 40
0.0
  9
$DIMAZIN
 70
     0
  9
$DIMDSEP
 70
    46
  9
$DIMATFIT
 70
     3
  9
$DIMFRAC
 70
     0
  9
$DIMLDRBLK
  1

  9
$DIMLUNIT
 70
     2
  9
$DIMLWD
 70
    -2
  9
$DIMLWE
 70
    -2
  9
$DIMTMOVE
 70
     0
  9
$LUNITS
 70
     2
  9
$LUPREC
 70
     4
  9
$SKETCHINC
 40
0.1
  9
$FILLETRAD
 40
0.5
  9
$AUNITS
 70
     0
  9
$AUPREC
 70
     0
  9
$MENU
  1
.
  9
$ELEVATION
 40
0.0
  9
$PELEVATION
 40
0.0
  9
$THICKNESS
 40
0.0
  9
$LIMCHECK
 70
     0
  9
$CHAMFERA
 40
0.5
  9
$CHAMFERB
 40
0.5
  9
$CHAMFERC
 40
1.0
  9
$CHAMFERD
 40
0.0
  9
$SKPOLY
 70
     0
  9
$TDCREATE
 40
2454187.36354654
  9
$TDUCREATE
 40
2454187.280213206
  9
$TDUPDATE
 40
2454187.363546551
  9
$TDUUPDATE
 40
2454187.280213218
  9
$TDINDWG
 40
0.0000000116
  9
$TDUSRTIMER
 40
0.0000000116
  9
$USRTIMER
 70
     1
  9
$ANGBASE
 50
0.0
  9
$ANGDIR
 70
     0
  9
$PDMODE
 70
     0
  9
$PDSIZE
 40
0.0
  9
$PLINEWID
 40
0.0
  9
$SPLFRAME
 70
     0
  9
$SPLINETYPE
 70
     6
  9
$SPLINESEGS
 70
     8
  9
$HANDSEED
  5
28C
  9
$SURFTAB1
 70
     6
  9
$SURFTAB2
 70
     6
  9
$SURFTYPE
 70
     6
  9
$SURFU
 70
     6
  9
$SURFV
 70
     6
  9
$UCSBASE
  2

  9
$UCSNAME
  2

  9
$UCSORG
 10
0.0
 20
0.0
 30
0.0
  9
$UCSXDIR
 10
1.0
 20
0.0
 30
0.0
  9
$UCSYDIR
 10
0.0
 20
1.0
 30
0.0
  9
$UCSORTHOREF
  2

  9
$UCSORTHOVIEW
 70
     0
  9
$UCSORGTOP
 10
0.0
 20
0.0
 30
0.0
  9
$UCSORGBOTTOM
 10
0.0
 20
0.0
 30
0.0
  9
$UCSORGLEFT
 10
0.0
 20
0.0
 30
0.0
  9
$UCSORGRIGHT
 10
0.0
 20
0.0
 30
0.0
  9
$UCSORGFRONT
 10
0.0
 20
0.0
 30
0.0
  9
$UCSORGBACK
 10
0.0
 20
0.0
 30
0.0
  9
$PUCSBASE
  2

  9
$PUCSNAME
  2

  9
$PUCSORG
 10
0.0
 20
0.0
 30
0.0
  9
$PUCSXDIR
 10
1.0
 20
0.0
 30
0.0
  9
$PUCSYDIR
 10
0.0
 20
1.0
 30
0.0
  9
$PUCSORTHOREF
  2

  9
$PUCSORTHOVIEW
 70
     0
  9
$PUCSORGTOP
 10
0.0
 20
0.0
 30
0.0
  9
$PUCSORGBOTTOM
 10
0.0
 20
0.0
 30
0.0
  9
$PUCSORGLEFT
 10
0.0
 20
0.0
 30
0.0
  9
$PUCSORGRIGHT
 10
0.0
 20
0.0
 30
0.0
  9
$PUCSORGFRONT
 10
0.0
 20
0.0
 30
0.0
  9
$PUCSORGBACK
 10
0.0
 20
0.0
 30
0.0
  9
$USERI1
 70
     0
  9
$USERI2
 70
     0
  9
$USERI3
 70
     0
  9
$USERI4
 70
     0
  9
$USERI5
 70
     0
  9
$USERR1
 40
0.0
  9
$USERR2
 40
0.0
  9
$USERR3
 40
0.0
  9
$USERR4
 40
0.0
  9
$USERR5
 40
0.0
  9
$WORLDVIEW
 70
     1
  9
$SHADEDGE
 70
     3
  9
$SHADEDIF
 70
    70
  9
$TILEMODE
 70
     1
  9
$MAXACTVP
 70
    64
  9
$PINSBASE
 10
0.0
 20
0.0
 30
0.0
  9
$PLIMCHECK
 70
     0
  9
$PEXTMIN
 10
0.0
 20
0.0
 30
0.0
  9
$PEXTMAX
 10
420.0
 20
297.0
 30
0.0
  9
$PLIMMIN
 10
0.0
 20
0.0
  9
$PLIMMAX
 10
420.0
 20
297.0
  9
$UNITMODE
 70
     0
  9
$VISRETAIN
 70
     1
  9
$PLINEGEN
 70
     0
  9
$PSLTSCALE
 70
     1
  9
$TREEDEPTH
 70
  3020
  9
$CMLSTYLE
  2
Standard
  9
$CMLJUST
 70
     0
  9
$CMLSCALE
 40
1.0
  9
$PROXYGRAPHICS
 70
     1
  9
$MEASUREMENT
 70
     1
  9
$CELWEIGHT
370
    -1
  9
$ENDCAPS
280
     0
  9
$JOINSTYLE
280
     0
  9
$LWDISPLAY
290
     0
  9
$INSUNITS
 70
     1
  9
$HYPERLINKBASE
  1

  9
$STYLESHEET
  1

  9
$XEDIT
290
     1
  9
$CEPSNTYPE
380
     0
  9
$PSTYLEMODE
290
     1
  9
$FINGERPRINTGUID
  2
{2CE34324-D406-43BE-BC86-9C304E4CD80F}
  9
$VERSIONGUID
  2
{FAEB1C32-E019-11D5-929B-00C0DF256EC4}
  9
$EXTNAMES
290
     1
  9
$PSVPSCALE
 40
0.0
  9
$OLESTARTUP
290
     0
  0
ENDSEC
  0
SECTION
  2
CLASSES
  0
CLASS
  1
ACDBDICTIONARYWDFLT
  2
AcDbDictionaryWithDefault
  3
ObjectDBX Classes
 90
        0
280
     0
281
     0
  0
CLASS
  1
SPATIAL_FILTER
  2
AcDbSpatialFilter
  3
ObjectDBX Classes
 90
        0
280
     0
281
     0
  0
CLASS
  1
ACDBPLACEHOLDER
  2
AcDbPlaceHolder
  3
ObjectDBX Classes
 90
        0
280
     0
281
     0
  0
CLASS
  1
LAYOUT
  2
AcDbLayout
  3
ObjectDBX Classes
 90
        0
280
     0
281
     0
  0
ENDSEC
  0
SECTION
  2
TABLES
  0
TABLE
  2
VPORT
  5
8
330
0
100
AcDbSymbolTable
 70
     1
  0
VPORT
  5
29
330
8
100
AcDbSymbolTableRecord
100
AcDbViewportTableRecord
  2
*Active
 70
     0
 10
0.0
 20
0.0
 11
1.0
 21
1.0
 12
10.4299065421
 22
4.5
 13
0.0
 23
0.0
 14
0.5
 24
0.5
 15
0.5
 25
0.5
 16
0.0
 26
0.0
 36
1.0
 17
0.0
 27
0.0
 37
0.0
 40
9.0
 41
1.9729729729
 42
50.0
 43
0.0
 44
0.0
 50
0.0
 51
0.0
 71
     0
 72
   100
 73
     1
 74
     3
 75
     0
 76
     0
 77
     0
 78
     0
281
     0
 65
     1
110
0.0
120
0.0
130
0.0
111
1.0
121
0.0
131
0.0
112
0.0
122
1.0
132
0.0
 79
     0
146
0.0
  0
ENDTAB
  0
TABLE
  2
LTYPE
  5
5
330
0
100
AcDbSymbolTable
 70
     1
  0
LTYPE
  5
14
330
5
100
AcDbSymbolTableRecord
100
AcDbLinetypeTableRecord
  2
ByBlock
 70
     0
  3

 72
    65
 73
     0
 40
0.0
  0
LTYPE
  5
15
330
5
100
AcDbSymbolTableRecord
100
AcDbLinetypeTableRecord
  2
ByLayer
 70
     0
  3

 72
    65
 73
     0
 40
0.0
  0
LTYPE
  5
16
330
5
100
AcDbSymbolTableRecord
100
AcDbLinetypeTableRecord
  2
Continuous
 70
     0
  3
Solid line
 72
    65
 73
     0
 40
0.0
  0
ENDTAB
  0
TABLE
  2
LAYER
  5
2
330
0
100
AcDbSymbolTable
 70
     3
  0
LAYER
  5
10
330
2
100
AcDbSymbolTableRecord
100
AcDbLayerTableRecord
  2
0
 70
     0
 62
     7
  6
Continuous
370
    -3
390
F
  0
LAYER
  5
2A
330
2
100
AcDbSymbolTableRecord
100
AcDbLayerTableRecord
  2
Default
 70
     0
 62
     7
  6
Continuous
370
    -3
390
F
  0
LAYER
  5
2D
330
2
100
AcDbSymbolTableRecord
100
AcDbLayerTableRecord
  2
52433115
 70
     0
 62
     7
  6
Continuous
370
    -3
390
F
  0
ENDTAB
  0
TABLE
  2
STYLE
  5
3
330
0
100
AcDbSymbolTable
 70
     1
  0
STYLE
  5
11
330
3
100
AcDbSymbolTableRecord
100
AcDbTextStyleTableRecord
  2
Standard
 70
     0
 40
0.0
 41
1.0
 50
0.0
 71
     0
 42
0.2
  3
txt
  4

  0
ENDTAB
  0
TABLE
  2
VIEW
  5
6
330
0
100
AcDbSymbolTable
 70
     0
  0
ENDTAB
  0
TABLE
  2
UCS
  5
7
330
0
100
AcDbSymbolTable
 70
     0
  0
ENDTAB
  0
TABLE
  2
APPID
  5
9
330
0
100
AcDbSymbolTable
 70
     1
  0
APPID
  5
12
330
9
100
AcDbSymbolTableRecord
100
AcDbRegAppTableRecord
  2
ACAD
 70
     0
  0
ENDTAB
  0
TABLE
  2
DIMSTYLE
  5
A
330
0
100
AcDbSymbolTable
 70
     1
100
AcDbDimStyleTable
  0
DIMSTYLE
105
27
330
A
100
AcDbSymbolTableRecord
100
AcDbDimStyleTableRecord
  2
Standard
 70
     0
340
11
  0
ENDTAB
  0
TABLE
  2
BLOCK_RECORD
  5
1
330
0
100
AcDbSymbolTable
 70
     5
  0
BLOCK_RECORD
  5
1F
330
1
100
AcDbSymbolTableRecord
100
AcDbBlockTableRecord
  2
*Model_Space
340
22
  0
BLOCK_RECORD
  5
1B
330
1
100
AcDbSymbolTableRecord
100
AcDbBlockTableRecord
  2
*Paper_Space
340
1E
  0
BLOCK_RECORD
  5
2B
330
1
100
AcDbSymbolTableRecord
100
AcDbBlockTableRecord
  2
SE
340
0
102
{BLKREFS
331
2C
102
}
  0
BLOCK_RECORD
  5
D7
330
1
100
AcDbSymbolTableRecord
100
AcDbBlockTableRecord
  2
SE1
340
0
102
{BLKREFS
331
D8
102
}
  0
BLOCK_RECORD
  5
17F
330
1
100
AcDbSymbolTableRecord
100
AcDbBlockTableRecord
  2
SE2
340
0
102
{BLKREFS
331
180
102
}
  0
BLOCK_RECORD
  5
1E1
330
1
100
AcDbSymbolTableRecord
100
AcDbBlockTableRecord
  2
SE3
340
0
102
{BLKREFS
331
1E2
102
}
  0
ENDTAB
  0
ENDSEC
  0
SECTION
  2
BLOCKS
  0
BLOCK
  5
20
330
1F
100
AcDbEntity
  8
0
100
AcDbBlockBegin
  2
*Model_Space
 70
     0
 71
     0
 10
0.0
 20
0.0
 30
0.0
  3
*Model_Space
  1

  0
ENDBLK
  5
21
330
1F
100
AcDbEntity
  8
0
100
AcDbBlockEnd
  0
BLOCK
  5
1C
330
1B
100
AcDbEntity
 67
     1
  8
0
100
AcDbBlockBegin
  2
*Paper_Space
 70
     0
 71
     0
 10
0.0
 20
0.0
 30
0.0
  3
*Paper_Space
  1

  0
ENDBLK
  5
1D
330
1B
100
AcDbEntity
 67
     1
  8
0
100
AcDbBlockEnd
  0
BLOCK
  5
D5
330
2B
100
AcDbEntity
  8
0
100
AcDbBlockBegin
  2
SE
 70
     0
 71
     0
 10
0.0
 20
0.0
 30
0.0
  3
SE
  1

  0
LINE
  5
2E
330
2B
100
AcDbEntity
  8
52433115
  6
Continuous
 62
     7
 48
25.4
100
AcDbLine
 10
131.5513842133
 20
77.3230134902
 30
0.0
 11
159.4044079742
 21
93.4039642563
 31
0.0
  0
LINE
  5
2F
330
2B
100
AcDbEntity
  8
52433115
  6
Continuous
 62
     7
 48
25.4
100
AcDbLine
 10
125.1884769313
 20
87.5057937187
 30
0.0
 11
153.7673152562
 21
104.0057937187
 31
0.0
  0
LINE
  5
30
330
2B
100
AcDbEntity
  8
52433115
  6
Continuous
 62
     7
 48
25.4
100
AcDbLine
 10
146.4827055654
 20
68.6231078165
 30
0.0
 11
159.4730866221
 21
76.1231078165
 31
0.0
  0
LINE
  5
31
330
2B
100
AcDbEntity
  8
52433115
  6
Continuous
 62
     7
 48
25.4
100
AcDbLine
 10
134.4250116078
 20
75.4179777996
 30
0.0
 11
159.6174035802
 21
89.9628120864
 31
0.0
  0
LINE
  5
32
330
2B
100
AcDbEntity
  8
52433115
  6
Continuous
 62
     7
 48
25.4
100
AcDbLine
 10
150.9241084214
 20
103.430372413
 30
0.0
 11
127.1084098173
 21
89.680372413
 31
0.0
  0
LINE
  5
33
330
2B
100
AcDbEntity
  8
52433115
  6
Continuous
 62
     7
 48
25.4
100
AcDbLine
 10
110.1590269004
 20
106.8235228578
 30
0.0
 11
123.4144900489
 21
99.1704776408
 31
0.0
  0
LINE
  5
34
330
2B
100
AcDbEntity
  8
52433115
  6
Continuous
 62
     7
 48
25.4
100
AcDbLine
 10
114.518682202
 20
109.3064746958
 30
0.0
 11
119.1618391949
 21
106.6257467561
 31
0.0
  0
LINE
  5
35
330
2B
100
AcDbEntity
  8
52433115
  6
Continuous
 62
     7
 48
25.4
100
AcDbLine
 10
103.9162370044
 20
115.4277992847
 30
0.0
 11
106.5522642785
 21
119.9935324536
 31
0.0
  0
ARC
  5
36
330
2B
100
AcDbEntity
  8
52433115
  6
Continuous
 62
     7
 48
25.4
100
AcDbCircle
 10
100.4228448628
 20
112.6780950528
 30
0.0
 40
9.543867493870007
100
AcDbArc
 50
50.0412124606
 51
97.3050783141
  0
LINE
  5
37
330
2B
100
AcDbEntity
  8
52433115
  6
Continuous
 62
     7
 48
25.4
100
AcDbLine
 10
103.9162370044
 20
115.4277992847
 30
0.0
 11
96.2762010173
 21
119.8387761185
 31
0.0
  0
ARC
  5
38
330
2B
100
AcDbEntity
  8
52433115
  6
Continuous
 62
     7
 48
25.4
100
AcDbCircle
 10
76.5291410811
 20
141.7772497012
 30
0.0
 40
10.31815900358762
100
AcDbArc
 50
338.1721266934
 51
21.8278733066
  0
SPLINE
  5
39
330
2B
100
AcDbEntity
  8
52433115
  6
Continuous
 62
     7
 48
25.4
100
AcDbSpline
210
0.0
220
0.0
230
1.0
 70
     8
 71
     3
 72
    16
 73
    12
 74
     0
 42
0.0000000001
 43
0.0000000001
 40
0.0
 40
0.0
 40
0.0
 40
0.0
 40
0.2500000000000001
 40
0.2500000000000001
 40
0.5000000000000001
 40
0.5000000000000001
 40
0.7500000000000001
 40
0.7500000000000001
 40
0.875
 40
0.875
 40
1.0
 40
1.0
 40
1.0
 40
1.0
 10
86.10754022827972
 20
137.9407571624098
 30
0.0
 10
86.33905251325058
 20
136.6686076118422
 30
0.0
 10
86.52753894269686
 20
135.3951466986752
 30
0.0
 10
86.78597507484875
 20
132.8446120532999
 30
0.0
 10
86.85512617279525
 20
131.567513980834
 30
0.0
 10
86.85656658705094
 20
129.0091464970746
 30
0.0
 10
86.78880223157267
 20
127.7278754499469
 30
0.0
 10
86.59513732369337
 20
125.8031642992296
 30
0.0
 10
86.51549438066782
 20
125.1611340571787
 30
0.0
 10
86.32982229293434
 20
123.8762693618044
 30
0.0
 10
86.22373148181548
 20
123.2332526982047
 30
0.0
 10
86.10754022827972
 20
122.5947870073495
 30
0.0
  0
ARC
  5
3A
330
2B
100
AcDbEntity
  8
52433115
  6
Continuous
 62
     7
 48
25.4
100
AcDbCircle
 10
76.6755097997
 20
118.7833819893
 30
0.0
 40
10.17300379515682
100
AcDbArc
 50
341.6568746913
 51
22.0032238823
  0
SPLINE
  5
3B
330
2B
100
AcDbEntity
  8
52433115
  6
Continuous
 62
     7
 48
25.4
100
AcDbSpline
210
0.0
220
0.0
230
1.0
 70
     8
 71
     3
 72
    12
 73
     8
 74
     0
 42
0.0000000001
 43
0.0000000001
 40
0.0
 40
0.0
 40
0.0
 40
0.0
 40
0.2499999999999999
 40
0.2499999999999999
 40
0.4999999999999998
 40
0.4999999999999998
 40
0.5009621005258147
 40
0.5009621005258147
 40
0.5009621005258147
 40
0.5009621005258147
 10
86.33161181030427
 20
115.5818666953412
 30
0.0
 10
86.38359743369783
 20
115.7127231760723
 30
0.0
 10
86.42923782953008
 20
115.8273071043441
 30
0.0
 10
86.49762446903748
 20
115.9987886060205
 30
0.0
 10
86.51881938610237
 20
116.0518198164206
 30
0.0
 10
86.51897345169596
 20
116.0522054929377
 30
0.0
 10
86.51897374730733
 20
116.0522062330964
 30
0.0
 10
86.51897374811365
 20
116.0522062354017
 30
0.0
  0
ELLIPSE
  5
3C
330
2B
100
AcDbEntity
  8
52433115
  6
Continuous
 62
     7
 48
25.4
100
AcDbEllipse
 10
96.2586393641
 20
114.9218019298
 30
0.0
 11
-10.78557204659091
 21
-1.815202255598472
 31
0.0
210
0.0
220
0.0
230
1.0
 40
0.4514162296
 41
5.798949454192645
 42
5.926323117709257
  0
LINE
  5
3D
330
2B
100
AcDbEntity
  8
52433115
  6
Continuous
 62
     7
 48
25.4
100
AcDbLine
 10
77.2882831863
 20
114.9218019298
 30
0.0
 11
85.8663345186
 21
114.9218019298
 31
0.0
  0
LINE
  5
3E
330
2B
100
AcDbEntity
  8
52433115
  6
Continuous
 62
     7
 48
25.4
100
AcDbLine
 10
99.2093180319
 20
122.144496659
 30
0.0
 11
99.2093180319
 21
140.6177720849
 31
0.0
  0
LINE
  5
3F
330
2B
100
AcDbEntity
  8
52433115
  6
Continuous
 62
     7
 48
25.4
100
AcDbLine
 10
106.5522642785
 20
119.9935324536
 30
0.0
 11
109.6728428097
 21
119.9935324536
 31
0.0
  0
LINE
  5
40
330
2B
100
AcDbEntity
  8
52433115
  6
Continuous
 62
     7
 48
25.4
100
AcDbLine
 10
95.0523960938
 20
119.2383346585
 30
0.0
 11
95.0523960938
 21
143.0177720849
 31
0.0
  0
LINE
  5
41
330
2B
100
AcDbEntity
  8
52433115
  6
Continuous
 62
     7
 48
25.4
100
AcDbLine
 10
95.0523960938
 20
119.2383346585
 30
0.0
 11
96.2762010173
 21
119.8387761185
 31
0.0
  0
ARC
  5
42
330
2B
100
AcDbEntity
  8
52433115
  6
Continuous
 62
     7
 48
25.4
100
AcDbCircle
 10
-108.302194474
 20
383.1023083995
 30
0.0
 40
333.4066695957104
100
AcDbArc
 50
307.8502778029
 51
308.4914324373
  0
LINE
  5
43
330
2B
100
AcDbEntity
  8
52433115
  6
Continuous
 62
     7
 48
25.4
100
AcDbLine
 10
87.0523960938
 20
143.0177720849
 30
0.0
 11
87.0523960938
 21
117.5177720849
 31
0.0
  0
ARC
  5
44
330
2B
100
AcDbEntity
  8
52433115
  6
Continuous
 62
     7
 48
25.4
100
AcDbCircle
 10
96.8913458804
 20
83.379782489
 30
0.0
 40
35.90567503902184
100
AcDbArc
 50
92.9357526109
 51
101.3916240553
  0
SPLINE
  5
45
330
2B
100
AcDbEntity
  8
52433115
  6
Continuous
 62
     7
 48
25.4
100
AcDbSpline
210
0.0
220
0.0
230
1.0
 70
     8
 71
     3
 72
    10
 73
     6
 74
     0
 42
0.0000000001
 43
0.0000000001
 40
0.5003553079373683
 40
0.5003553079373683
 40
0.5003553079373683
 40
0.5003553079373683
 40
0.7500000000000002
 40
0.7500000000000002
 40
1.0
 40
1.0
 40
1.0
 40
1.0
 10
87.36511869596416
 20
117.5177721393779
 30
0.0
 10
87.36513904823777
 20
117.5177836795098
 30
0.0
 10
87.63153221694297
 20
117.6389725103624
 30
0.0
 10
88.51480025096925
 20
118.0302495554982
 30
0.0
 10
89.11363289653872
 20
118.2918764815469
 30
0.0
 10
89.79947113954771
 20
118.5781178568945
 30
0.0
  0
SPLINE
  5
46
330
2B
100
AcDbEntity
  8
52433115
  6
Continuous
 62
     7
 48
25.4
100
AcDbSpline
210
0.0
220
0.0
230
1.0
 70
     8
 71
     3
 72
     8
 73
     4
 74
     0
 42
0.0000000001
 43
0.0000000001
 40
0.500448049887616
 40
0.500448049887616
 40
0.500448049887616
 40
0.500448049887616
 40
1.0
 40
1.0
 40
1.0
 40
1.0
 10
142.7907443489718
 20
117.5177721319754
 30
0.0
 10
142.7906768443702
 20
117.5178121643246
 30
0.0
 10
142.2992879339594
 20
117.8154556526096
 30
0.0
 10
141.5523960937651
 20
118.2712999365945
 30
0.0
  0
ARC
  5
47
330
2B
100
AcDbEntity
  8
52433115
  6
Continuous
 62
     7
 48
25.4
100
AcDbCircle
 10
189.4403272009
 20
166.2631367449
 30
0.0
 40
67.79727388296347
100
AcDbArc
 50
219.8563090031
 51
225.062091888
  0
ARC
  5
48
330
2B
100
AcDbEntity
  8
52433115
  6
Continuous
 62
     7
 48
25.4
100
AcDbCircle
 10
150.0252219523
 20
142.4896790542
 30
0.0
 40
23.38016398416693
100
AcDbArc
 50
208.0604246122
 51
237.3033765488
  0
LINE
  5
49
330
2B
100
AcDbEntity
  8
52433115
  6
Continuous
 62
     7
 48
25.4
100
AcDbLine
 10
129.3933496414
 20
131.4915922719
 30
0.0
 11
109.7114425462
 21
120.1282379123
 31
0.0
  0
LINE
  5
4A
330
2B
100
AcDbEntity
  8
52433115
  6
Continuous
 62
     7
 48
25.4
100
AcDbLine
 10
109.7114425462
 20
120.1282379123
 30
0.0
 11
109.6728428097
 21
119.9935324536
 31
0.0
  0
LINE
  5
4B
330
2B
100
AcDbEntity
  8
52433115
  6
Continuous
 62
     7
 48
25.4
100
AcDbLine
 10
109.6728428097
 20
119.9935324536
 30
0.0
 11
115.1808503426
 21
110.4533835583
 31
0.0
  0
ARC
  5
4C
330
2B
100
AcDbEntity
  8
52433115
  6
Continuous
 62
     7
 48
25.4
100
AcDbCircle
 10
108.1260840421
 20
99.1319113019
 30
0.0
 40
13.33961999485996
100
AcDbArc
 50
34.1784864
 51
58.0716652429
  0
ARC
  5
4D
330
2B
100
AcDbEntity
  8
52433115
  6
Continuous
 62
     7
 48
25.4
100
AcDbCircle
 10
98.9425497488
 20
90.1516778708
 30
0.0
 40
26.08092428084743
100
AcDbArc
 50
20.2306762041
 51
39.1721120911
  0
ARC
  5
4E
330
2B
100
AcDbEntity
  8
52433115
  6
Continuous
 62
     7
 48
25.4
100
AcDbCircle
 10
49.4913148976
 20
86.1480369484
 30
0.0
 40
75.06144007437764
100
AcDbArc
 50
6.7862896919
 51
9.9908217865
  0
ARC
  5
4F
330
2B
100
AcDbEntity
  8
52433115
  6
Continuous
 62
     7
 48
25.4
100
AcDbCircle
 10
282.33923431
 20
118.7582944686
 30
0.0
 40
205.0868382703198
100
AcDbArc
 50
178.9281240337
 51
181.0718759663
  0
SPLINE
  5
50
330
2B
100
AcDbEntity
  8
52433115
  6
Continuous
 62
     7
 48
25.4
100
AcDbSpline
210
0.0
220
0.0
230
1.0
 70
     8
 71
     3
 72
    10
 73
     6
 74
     0
 42
0.0000000001
 43
0.0000000001
 40
0.0
 40
0.0
 40
0.0
 40
0.0
 40
0.5
 40
0.5
 40
1.0
 40
1.0
 40
1.0
 40
1.0
 10
77.28828318631211
 20
122.5947870073495
 30
0.0
 10
77.26596108819273
 20
125.1524512969055
 30
0.0
 10
77.2523959574076
 20
127.7101504548558
 30
0.0
 10
77.25239623012467
 20
132.8254748993132
 30
0.0
 10
77.26596133522
 20
135.3831211772198
 30
0.0
 10
77.28828318631211
 20
137.9407571624098
 30
0.0
  0
ARC
  5
51
330
2B
100
AcDbEntity
  8
52433115
  6
Continuous
 62
     7
 48
25.4
100
AcDbCircle
 10
282.3395435737
 20
141.7772497012
 30
0.0
 40
205.0871474799678
100
AcDbArc
 50
178.92812565
 51
181.07187435
  0
LINE
  5
52
330
2B
100
AcDbEntity
  8
52433115
  6
Continuous
 62
     7
 48
25.4
100
AcDbLine
 10
77.2882831863
 20
122.5947870073
 30
0.0
 11
86.1075402283
 21
122.5947870073
 31
0.0
  0
LINE
  5
53
330
2B
100
AcDbEntity
  8
52433115
  6
Continuous
 62
     7
 48
25.4
100
AcDbLine
 10
77.2882831863
 20
137.9407571624
 30
0.0
 11
86.1075402283
 21
137.9407571624
 31
0.0
  0
LINE
  5
54
330
2B
100
AcDbEntity
  8
52433115
  6
Continuous
 62
     7
 48
25.4
100
AcDbLine
 10
77.2882831863
 20
145.6137422399
 30
0.0
 11
86.1075402283
 21
145.6137422399
 31
0.0
  0
LINE
  5
55
330
2B
100
AcDbEntity
  8
52433115
  6
Continuous
 62
     7
 48
25.4
100
AcDbLine
 10
137.3954741556
 20
122.8142746488
 30
0.0
 11
137.3954741556
 21
140.6177720849
 31
0.0
  0
LINE
  5
56
330
2B
100
AcDbEntity
  8
52433115
  6
Continuous
 62
     7
 48
25.4
100
AcDbLine
 10
149.5523960938
 20
143.0177720849
 30
0.0
 11
149.5523960938
 21
117.5177720849
 31
0.0
  0
LINE
  5
57
330
2B
100
AcDbEntity
  8
52433115
  6
Continuous
 62
     7
 48
25.4
100
AcDbLine
 10
141.5523960938
 20
143.0177720849
 30
0.0
 11
141.5523960938
 21
118.2712999366
 31
0.0
  0
LINE
  5
58
330
2B
100
AcDbEntity
  8
52433115
  6
Continuous
 62
     7
 48
25.4
100
AcDbLine
 10
150.4972519593
 20
145.6137422399
 30
0.0
 11
159.3165090012
 21
145.6137422399
 31
0.0
  0
ARC
  5
59
330
2B
100
AcDbEntity
  8
52433115
  6
Continuous
 62
     7
 48
25.4
100
AcDbCircle
 10
160.0756511065
 20
141.7772497012
 30
0.0
 40
10.31815900358746
100
AcDbArc
 50
158.1721266934
 51
201.8278733066
  0
LINE
  5
5A
330
2B
100
AcDbEntity
  8
52433115
  6
Continuous
 62
     7
 48
25.4
100
AcDbLine
 10
150.4972519593
 20
137.9407571624
 30
0.0
 11
159.3165090012
 21
137.9407571624
 31
0.0
  0
ARC
  5
5B
330
2B
100
AcDbEntity
  8
52433115
  6
Continuous
 62
     7
 48
25.4
100
AcDbCircle
 10
-45.7347513861
 20
141.7772497012
 30
0.0
 40
205.0871474799083
100
AcDbArc
 50
358.92812565
 51
1.07187435
  0
SPLINE
  5
5C
330
2B
100
AcDbEntity
  8
52433115
  6
Continuous
 62
     7
 48
25.4
100
AcDbSpline
210
0.0
220
0.0
230
1.0
 70
     8
 71
     3
 72
    16
 73
    12
 74
     0
 42
0.0000000001
 43
0.0000000001
 40
0.0
 40
0.0
 40
0.0
 40
0.0
 40
0.2500000000000001
 40
0.2500000000000001
 40
0.5
 40
0.5
 40
0.75
 40
0.75
 40
0.875
 40
0.875
 40
1.0
 40
1.0
 40
1.0
 40
1.0
 10
150.4972519592505
 20
137.9407571624098
 30
0.0
 10
150.2657396742796
 20
136.6686076118422
 30
0.0
 10
150.0772532448333
 20
135.3951466986752
 30
0.0
 10
149.8188171126814
 20
132.8446120533
 30
0.0
 10
149.7496660147349
 20
131.567513980834
 30
0.0
 10
149.7482256004792
 20
129.0091464970746
 30
0.0
 10
149.8159899559575
 20
127.7278754499469
 30
0.0
 10
150.0096548638368
 20
125.8031642992296
 30
0.0
 10
150.0892978068623
 20
125.1611340571787
 30
0.0
 10
150.2749698945958
 20
123.8762693618045
 30
0.0
 10
150.3810607057147
 20
123.2332526982047
 30
0.0
 10
150.4972519592505
 20
122.5947870073495
 30
0.0
  0
LINE
  5
5D
330
2B
100
AcDbEntity
  8
52433115
  6
Continuous
 62
     7
 48
25.4
100
AcDbLine
 10
150.4972519593
 20
122.5947870073
 30
0.0
 11
159.3165090012
 21
122.5947870073
 31
0.0
  0
SPLINE
  5
5E
330
2B
100
AcDbEntity
  8
52433115
  6
Continuous
 62
     7
 48
25.4
100
AcDbSpline
210
0.0
220
0.0
230
1.0
 70
     8
 71
     3
 72
    10
 73
     6
 74
     0
 42
0.0000000001
 43
0.0000000001
 40
0.0
 40
0.0
 40
0.0
 40
0.0
 40
0.5
 40
0.5
 40
1.0
 40
1.0
 40
1.0
 40
1.0
 10
159.316509001218
 20
122.5947870073495
 30
0.0
 10
159.3388310993374
 20
125.1524512969055
 30
0.0
 10
159.3523962301225
 20
127.7101504548558
 30
0.0
 10
159.3523959574055
 20
132.8254748993132
 30
0.0
 10
159.3388308523101
 20
135.3831211772198
 30
0.0
 10
159.316509001218
 20
137.9407571624098
 30
0.0
  0
ARC
  5
5F
330
2B
100
AcDbEntity
  8
52433115
  6
Continuous
 62
     7
 48
25.4
100
AcDbCircle
 10
-45.7344421224
 20
118.7582944686
 30
0.0
 40
205.0868382703198
100
AcDbArc
 50
358.9281240337
 51
1.0718759663
  0
ARC
  5
60
330
2B
100
AcDbEntity
  8
52433115
  6
Continuous
 62
     7
 48
25.4
100
AcDbCircle
 10
160.0754466366
 20
118.7582944686
 30
0.0
 40
10.31796919345961
100
AcDbArc
 50
158.171704521
 51
201.828295479
  0
LINE
  5
61
330
2B
100
AcDbEntity
  8
52433115
  6
Continuous
 62
     7
 48
25.4
100
AcDbLine
 10
150.4972519593
 20
114.9218019298
 30
0.0
 11
159.3165090012
 21
114.9218019298
 31
0.0
  0
SPLINE
  5
62
330
2B
100
AcDbEntity
  8
52433115
  6
Continuous
 62
     7
 48
25.4
100
AcDbSpline
210
0.0
220
0.0
230
1.0
 70
     8
 71
     3
 72
    20
 73
    16
 74
     0
 42
0.0000000001
 43
0.0000000001
 40
0.0
 40
0.0
 40
0.0
 40
0.0
 40
0.125
 40
0.125
 40
0.25
 40
0.25
 40
0.375
 40
0.375
 40
0.5
 40
0.5
 40
0.625
 40
0.625
 40
0.75
 40
0.75
 40
1.0
 40
1.0
 40
1.0
 40
1.0
 10
129.3933496413793
 20
131.491592271861
 30
0.0
 10
128.2619563729311
 20
131.5684202183493
 30
0.0
 10
127.1293669619953
 20
131.6005599373036
 30
0.0
 10
124.8593838721044
 20
131.485627748559
 30
0.0
 10
123.7034417019059
 20
131.3307082410667
 30
0.0
 10
121.5052216518221
 20
130.7281117904709
 30
0.0
 10
120.4619313714989
 20
130.2807728166021
 30
0.0
 10
118.4774636281218
 20
129.117479794786
 30
0.0
 10
117.5612602711293
 20
128.4221380035416
 30
0.0
 10
115.8565773056734
 20
126.9519066164553
 30
0.0
 10
115.0508871563293
 20
126.1620089200063
 30
0.0
 10
113.5744459029224
 20
124.6271734509653
 30
0.0
 10
112.8984188111404
 20
123.877522135377
 30
0.0
 10
111.0409090253464
 20
121.7586603743396
 30
0.0
 10
110.0849107344921
 20
120.584842414382
 30
0.0
 10
109.7114425461508
 20
120.1282379122657
 30
0.0
  0
LINE
  5
63
330
2B
100
AcDbEntity
  8
52433115
  6
Continuous
 62
     7
 48
25.4
100
AcDbLine
 10
103.733485007
 20
95.8686143622
 30
0.0
 11
119.3219422751
 21
86.8686143622
 31
0.0
  0
LINE
  5
64
330
2B
100
AcDbEntity
  8
52433115
  6
Continuous
 62
     7
 48
25.4
100
AcDbLine
 10
97.6713071805
 20
99.3686143622
 30
0.0
 11
82.0828499124
 21
108.3686143622
 31
0.0
  0
LINE
  5
65
330
2B
100
AcDbEntity
  8
52433115
  6
Continuous
 62
     7
 48
25.4
100
AcDbLine
 10
103.9457652871
 20
110.4107511228
 30
0.0
 11
89.7994711395
 21
118.5781178569
 31
0.0
  0
LINE
  5
66
330
2B
100
AcDbEntity
  8
52433115
  6
Continuous
 62
     7
 48
25.4
100
AcDbLine
 10
105.1590269004
 20
98.1632688199
 30
0.0
 11
98.9457652871
 21
101.7504970849
 31
0.0
  0
LINE
  5
67
330
2B
100
AcDbEntity
  8
52433115
  6
Continuous
 62
     7
 48
25.4
100
AcDbLine
 10
105.1590269004
 20
98.1632688199
 30
0.0
 11
110.1590269004
 21
106.8235228578
 31
0.0
  0
LINE
  5
68
330
2B
100
AcDbEntity
  8
52433115
  6
Continuous
 62
     7
 48
25.4
100
AcDbLine
 10
110.1590269004
 20
106.8235228578
 30
0.0
 11
114.518682202
 21
109.3064746958
 31
0.0
  0
LINE
  5
69
330
2B
100
AcDbEntity
  8
52433115
  6
Continuous
 62
     7
 48
25.4
100
AcDbLine
 10
114.518682202
 20
109.3064746958
 30
0.0
 11
115.1808503426
 21
110.4533835583
 31
0.0
  0
LINE
  5
6A
330
2B
100
AcDbEntity
  8
52433115
  6
Continuous
 62
     7
 48
25.4
100
AcDbLine
 10
103.9162370044
 20
115.4277992847
 30
0.0
 11
103.9457652871
 21
110.4107511228
 31
0.0
  0
LINE
  5
6B
330
2B
100
AcDbEntity
  8
52433115
  6
Continuous
 62
     7
 48
25.4
100
AcDbLine
 10
103.9457652871
 20
110.4107511228
 30
0.0
 11
98.9457652871
 21
101.7504970849
 31
0.0
  0
SPLINE
  5
6C
330
2B
100
AcDbEntity
  8
52433115
  6
Continuous
 62
     7
 48
25.4
100
AcDbSpline
210
0.0
220
0.0
230
1.0
 70
    11
 71
     3
 72
    87
 73
    83
 74
     0
 42
0.0000000001
 43
0.0000000001
 40
0.0
 40
0.0
 40
0.0
 40
0.0
 40
0.0361163525492691
 40
0.0361163525492691
 40
0.0714118789042365
 40
0.0714118789042365
 40
0.0714118789042365
 40
0.0714355907496163
 40
0.0714355907496163
 40
0.0714355907496163
 40
0.1428474696538528
 40
0.1428474696538528
 40
0.1428474696538528
 40
0.1428704311014854
 40
0.1428704311014854
 40
0.1428704311014854
 40
0.1428937245235389
 40
0.1428937245235389
 40
0.1428937245235389
 40
0.2143056034277753
 40
0.2143056034277753
 40
0.2143056034277753
 40
0.2143288968498288
 40
0.2143288968498288
 40
0.2143288968498288
 40
0.2143518582974614
 40
0.2143518582974614
 40
0.2143518582974614
 40
0.2857637372016978
 40
0.2857637372016978
 40
0.2857637372016978
 40
0.285787812302476
 40
0.285787812302476
 40
0.285787812302476
 40
0.3223052503785061
 40
0.3223052503785061
 40
0.3571996912067124
 40
0.3571996912067124
 40
0.3571996912067124
 40
0.4286115701109489
 40
0.4286115701109489
 40
0.4286115701109489
 40
0.4635060109391555
 40
0.4635060109391555
 40
0.5000234490151854
 40
0.5000234490151854
 40
0.5000234490151854
 40
0.5000470371852781
 40
0.5000470371852781
 40
0.5000470371852781
 40
0.5714589160895146
 40
0.5714589160895146
 40
0.5714589160895146
 40
0.5714819980912324
 40
0.5714819980912324
 40
0.5714819980912324
 40
0.6428938769954689
 40
0.6428938769954689
 40
0.6428938769954689
 40
0.6789921894085992
 40
0.6789921894085992
 40
0.7143057558997054
 40
0.7143057558997054
 40
0.7143057558997054
 40
0.7857176348039417
 40
0.7857176348039417
 40
0.7857176348039417
 40
0.7857407168056595
 40
0.7857407168056595
 40
0.7857407168056595
 40
0.857152595709896
 40
0.857152595709896
 40
0.857152595709896
 40
0.8571762421915271
 40
0.8571762421915271
 40
0.8571762421915271
 40
0.8924809913127226
 40
0.8924809913127226
 40
0.9285881210957636
 40
0.9285881210957636
 40
0.9285881210957636
 40
1.0
 40
1.0
 40
1.0
 40
1.0
 10
112.6032151646697
 20
128.9865984907476
 30
0.0
 10
112.6750115115703
 20
129.070360895465
 30
0.0
 10
112.7205745778726
 20
129.1577476350019
 30
0.0
 10
112.7205745778726
 20
129.3704615714322
 30
0.0
 10
112.6838997612467
 20
129.4658160946596
 30
0.0
 10
112.6081051402198
 20
129.5465006912366
 30
0.0
 10
112.5322365732212
 20
129.6272640044932
 30
0.0
 10
112.4369559959656
 20
129.6711950677647
 30
0.0
 10
112.3220415705377
 20
129.6711950677647
 30
0.0
 10
111.2641768598612
 20
129.6711950677647
 30
0.0
 10
110.2063121491848
 20
129.6711950677647
 30
0.0
 10
109.1484474385084
 20
129.6711950677647
 30
0.0
 10
109.0384229886306
 20
129.6711950677647
 30
0.0
 10
108.9455134531783
 20
129.7103148721657
 30
0.0
 10
108.8648288566013
 20
129.7861094931926
 30
0.0
 10
108.7842229767038
 20
129.8618301682478
 30
0.0
 10
108.7474694433983
 20
129.959703625222
 30
0.0
 10
108.7474694433983
 20
130.0721730628748
 30
0.0
 10
108.7474694433983
 20
130.204202402728
 30
0.0
 10
108.7474694433983
 20
130.3362317425814
 30
0.0
 10
108.7474694433983
 20
130.4682610824347
 30
0.0
 10
108.7474694433983
 20
130.5807305200875
 30
0.0
 10
108.7865892477993
 20
130.6760850433149
 30
0.0
 10
108.8648288566013
 20
130.7543246521168
 30
0.0
 10
108.9430684654032
 20
130.8325642609187
 30
0.0
 10
109.0384229886306
 20
130.8692390775447
 30
0.0
 10
109.1484474385084
 20
130.8692390775447
 30
0.0
 10
110.2063121491848
 20
130.8692390775447
 30
0.0
 10
111.2641768598612
 20
130.8692390775447
 30
0.0
 10
112.3220415705377
 20
130.8692390775447
 30
0.0
 10
112.4369559959656
 20
130.8692390775447
 30
0.0
 10
112.534755506968
 20
130.9108038697207
 30
0.0
 10
112.61299511577
 20
130.9963784418479
 30
0.0
 10
112.6841378458722
 20
131.0741908028972
 30
0.0
 10
112.7205745778726
 20
131.1650825983271
 30
0.0
 10
112.7205745778726
 20
131.3802415225324
 30
0.0
 10
112.6814547734717
 20
131.4707060702097
 30
0.0
 10
112.6032151646697
 20
131.5513906667867
 30
0.0
 10
112.5927733427662
 20
131.5621587956248
 30
0.0
 10
112.5836552624692
 20
131.5742105526873
 30
0.0
 10
112.573875311369
 20
131.5856204956376
 30
0.0
 10
112.5010434402342
 20
131.6705910119615
 30
0.0
 10
112.454070910391
 20
131.7567696398919
 30
0.0
 10
112.454070910391
 20
131.9719285640972
 30
0.0
 10
112.493190714792
 20
132.0672830873246
 30
0.0
 10
112.5665403480438
 20
132.1479676839016
 30
0.0
 10
112.6397793483646
 20
132.2285305842545
 30
0.0
 10
112.7376894922981
 20
132.2677720848796
 30
0.0
 10
112.855048905501
 20
132.2677720848796
 30
0.0
 10
113.0433129641807
 20
132.2677720848796
 30
0.0
 10
113.2315770228604
 20
132.2677720848796
 30
0.0
 10
113.4198410815401
 20
132.2677720848796
 30
0.0
 10
113.5298655314179
 20
132.2677720848796
 30
0.0
 10
113.6227750668702
 20
132.2286522804787
 30
0.0
 10
113.7034596634472
 20
132.1504126716767
 30
0.0
 10
114.2437117066262
 20
131.6265319025335
 30
0.0
 10
114.7678443415238
 20
131.0860279936001
 30
0.0
 10
115.3000366805621
 20
130.5538356545618
 30
0.0
 10
115.3794987832516
 20
130.4743735518723
 30
0.0
 10
115.4173960937651
 20
130.3777965347574
 30
0.0
 10
115.4173960937651
 20
130.1553026472268
 30
0.0
 10
115.3782762893641
 20
130.0623931117745
 30
0.0
 10
115.3000366805621
 20
129.9817085151975
 30
0.0
 10
114.7761559114189
 20
129.4414564720185
 30
0.0
 10
114.2356520024855
 20
128.9173238371209
 30
0.0
 10
113.7034596634472
 20
128.3851314980826
 30
0.0
 10
113.6239975607577
 20
128.3056693953931
 30
0.0
 10
113.5298655314179
 20
128.2677720848796
 30
0.0
 10
113.4198410815401
 20
128.2677720848796
 30
0.0
 10
113.2315770228604
 20
128.2677720848796
 30
0.0
 10
113.0433129641807
 20
128.2677720848796
 30
0.0
 10
112.855048905501
 20
128.2677720848796
 30
0.0
 10
112.7376894922981
 20
128.2677720848796
 30
0.0
 10
112.6423349690707
 20
128.3068918892806
 30
0.0
 10
112.5665403480438
 20
128.3875764858576
 30
0.0
 10
112.4918918895788
 20
128.4670409739011
 30
0.0
 10
112.454070910391
 20
128.561170617887
 30
0.0
 10
112.454070910391
 20
128.7787745298674
 30
0.0
 10
112.493190714792
 20
128.8716840653197
 30
0.0
 10
112.573875311369
 20
128.9523686618967
 30
0.0
 10
112.5844702583943
 20
128.962963608922
 30
0.0
 10
112.5934352135695
 20
128.9751885477973
 30
0.0
 10
112.6032151646697
 20
128.9865984907476
 30
0.0
  0
SPLINE
  5
6D
330
2B
100
AcDbEntity
  8
52433115
  6
Continuous
 62
     7
 48
25.4
100
AcDbSpline
210
0.0
220
0.0
230
1.0
 70
     8
 71
     3
 72
    26
 73
    22
 74
     0
 42
0.0000000001
 43
0.0000000001
 40
0.0
 40
0.0
 40
0.0
 40
0.0
 40
0.3332188762246482
 40
0.3332188762246482
 40
0.3332188762246482
 40
0.3333049793714082
 40
0.3333049793714082
 40
0.3333049793714082
 40
0.3333913483133231
 40
0.3333913483133231
 40
0.3333913483133231
 40
0.6666102245379711
 40
0.6666102245379711
 40
0.6666102245379711
 40
0.6666950206285913
 40
0.6666950206285913
 40
0.6666950206285913
 40
0.6667811237753514
 40
0.6667811237753514
 40
0.6667811237753514
 40
1.0
 40
1.0
 40
1.0
 40
1.0
 10
103.9797432820291
 20
131.0648380995496
 30
0.0
 10
103.9797432820291
 20
130.2384322315789
 30
0.0
 10
103.9797432820291
 20
129.4120263636083
 30
0.0
 10
103.9797432820291
 20
128.5856204956376
 30
0.0
 10
103.9797432820291
 20
128.4976009357354
 30
0.0
 10
103.9479584409533
 20
128.4218063147085
 30
0.0
 10
103.8843887588017
 20
128.360681620332
 30
0.0
 10
103.8195975224197
 20
128.29838235458
 30
0.0
 10
103.7450244556233
 20
128.2677720848796
 30
0.0
 10
103.657004895721
 20
128.2677720848796
 30
0.0
 10
103.4695558329664
 20
128.2677720848796
 30
0.0
 10
103.2821067702117
 20
128.2677720848796
 30
0.0
 10
103.094657707457
 20
128.2677720848796
 30
0.0
 10
103.0090831353299
 20
128.2677720848796
 30
0.0
 10
102.935733502078
 20
128.2971119381804
 30
0.0
 10
102.8721638199264
 20
128.360681620332
 30
0.0
 10
102.8098166316624
 20
128.423028808596
 30
0.0
 10
102.7768092966991
 20
128.4976009357354
 30
0.0
 10
102.7768092966991
 20
128.5856204956376
 30
0.0
 10
102.7768092966991
 20
129.4120263636083
 30
0.0
 10
102.7768092966991
 20
130.2384322315789
 30
0.0
 10
102.7768092966991
 20
131.0648380995496
 30
0.0
  0
SPLINE
  5
6E
330
2B
100
AcDbEntity
  8
52433115
  6
Continuous
 62
     7
 48
25.4
100
AcDbSpline
210
0.0
220
0.0
230
1.0
 70
     8
 71
     3
 72
    32
 73
    28
 74
     0
 42
0.0000000001
 43
0.0000000001
 40
0.0
 40
0.0
 40
0.0
 40
0.0
 40
0.1999719572905488
 40
0.1999719572905488
 40
0.1999719572905488
 40
0.2832936061616115
 40
0.2832936061616115
 40
0.3666152550326731
 40
0.3666152550326731
 40
0.3999439145810977
 40
0.3999439145810977
 40
0.3999439145810977
 40
0.5999158718716465
 40
0.5999158718716465
 40
0.5999158718716465
 40
0.6000044130317266
 40
0.6000044130317266
 40
0.6000044130317266
 40
0.7999763703222754
 40
0.7999763703222754
 40
0.7999763703222754
 40
0.8000280427094511
 40
0.8000280427094511
 40
0.8000280427094511
 40
0.9428651550598435
 40
0.9428651550598435
 40
1.0
 40
1.0
 40
1.0
 40
1.0
 10
102.7768092966991
 20
131.0648380995496
 30
0.0
 10
102.5600203806436
 20
131.0648380995496
 30
0.0
 10
102.3432314645882
 20
131.0648380995496
 30
0.0
 10
102.1264425485328
 20
131.0648380995496
 30
0.0
 10
102.0384229886306
 20
131.0648380995496
 30
0.0
 10
101.9626283676037
 20
131.0966229406253
 30
0.0
 10
101.8403789788507
 20
131.2237623049286
 30
0.0
 10
101.8085941377749
 20
131.2971119381804
 30
0.0
 10
101.8085941377749
 20
131.4169163391584
 30
0.0
 10
101.813484113325
 20
131.4511461680092
 30
0.0
 10
101.8232640644252
 20
131.48048602131
 30
0.0
 10
101.8852037547268
 20
131.6663050922146
 30
0.0
 10
101.9373634939281
 20
131.8553841468193
 30
0.0
 10
101.9944132086795
 20
132.042833209574
 30
0.0
 10
102.0398950573948
 20
132.1922735696386
 30
0.0
 10
102.1435574629582
 20
132.2677720848796
 30
0.0
 10
102.3024816683372
 20
132.2677720848796
 30
0.0
 10
103.0791727848816
 20
132.2677720848796
 30
0.0
 10
103.855863901426
 20
132.2677720848796
 30
0.0
 10
104.6325550179705
 20
132.2677720848796
 30
0.0
 10
104.7205745778727
 20
132.2677720848796
 30
0.0
 10
104.7963691988995
 20
132.2359872438038
 30
0.0
 10
104.8574938932761
 20
132.1724175616523
 30
0.0
 10
104.919793159028
 20
132.1076263252703
 30
0.0
 10
104.9504034287284
 20
132.0354982462488
 30
0.0
 10
104.9504034287284
 20
131.9156938452708
 30
0.0
 10
104.9455134531783
 20
131.88146401642
 30
0.0
 10
104.935733502078
 20
131.8521241631192
 30
0.0
  0
SPLINE
  5
6F
330
2B
100
AcDbEntity
  8
52433115
  6
Continuous
 62
     7
 48
25.4
100
AcDbSpline
210
0.0
220
0.0
230
1.0
 70
     8
 71
     3
 72
    14
 73
    10
 74
     0
 42
0.0000000001
 43
0.0000000001
 40
0.0
 40
0.0
 40
0.0
 40
0.0
 40
0.4998885654750458
 40
0.4998885654750458
 40
0.4998885654750458
 40
0.5001114345249541
 40
0.5001114345249541
 40
0.5001114345249541
 40
1.0
 40
1.0
 40
1.0
 40
1.0
 10
104.935733502078
 20
131.8521241631192
 30
0.0
 10
104.8741198101465
 20
131.6672830873246
 30
0.0
 10
104.8232640644252
 20
131.4788560294599
 30
0.0
 10
104.7670293455988
 20
131.2922219626302
 30
0.0
 10
104.7210856137427
 20
131.1397420409629
 30
0.0
 10
104.615440103545
 20
131.0648380995496
 30
0.0
 10
104.4565158981661
 20
131.0648380995496
 30
0.0
 10
104.2975916927871
 20
131.0648380995496
 30
0.0
 10
104.1386674874081
 20
131.0648380995496
 30
0.0
 10
103.9797432820291
 20
131.0648380995496
 30
0.0
  0
LINE
  5
70
330
2B
100
AcDbEntity
  8
52433115
  6
Continuous
 62
     7
 48
25.4
100
AcDbLine
 10
106.3782762894
 20
130.6149603489
 30
0.0
 11
106.0286430375
 21
129.4707060702
 31
0.0
  0
SPLINE
  5
71
330
2B
100
AcDbEntity
  8
52433115
  6
Continuous
 62
     7
 48
25.4
100
AcDbSpline
210
0.0
220
0.0
230
1.0
 70
     8
 71
     3
 72
    55
 73
    51
 74
     0
 42
0.0000000001
 43
0.0000000001
 40
0.0
 40
0.0
 40
0.0
 40
0.0
 40
0.1110884006543617
 40
0.1110884006543617
 40
0.1110884006543617
 40
0.1581376056373857
 40
0.1581376056373857
 40
0.2051868106204094
 40
0.2051868106204094
 40
0.2221768013087234
 40
0.2221768013087234
 40
0.2221768013087234
 40
0.3332652019630852
 40
0.3332652019630852
 40
0.3332652019630852
 40
0.3333143525883017
 40
0.3333143525883017
 40
0.3333143525883017
 40
0.4444027532426635
 40
0.4444027532426635
 40
0.4444027532426635
 40
0.4444314582817455
 40
0.4444314582817455
 40
0.4444314582817455
 40
0.5254334170922173
 40
0.5254334170922173
 40
0.5555198589361072
 40
0.5555198589361072
 40
0.5555198589361072
 40
0.666608259590469
 40
0.666608259590469
 40
0.666608259590469
 40
0.6666570955308576
 40
0.6666570955308576
 40
0.6666570955308576
 40
0.7777454961852194
 40
0.7777454961852194
 40
0.7777454961852194
 40
0.7777944936521946
 40
0.7777944936521946
 40
0.7777944936521946
 40
0.8888828943065563
 40
0.8888828943065563
 40
0.8888828943065563
 40
0.9189693361504463
 40
0.9189693361504463
 40
0.9999712949609181
 40
0.9999712949609181
 40
0.9999712949609181
 40
1.0
 40
1.0
 40
1.0
 40
1.0
 10
106.0286430375303
 20
129.4707060702097
 30
0.0
 10
106.0718378215564
 20
129.4707060702097
 30
0.0
 10
106.1150326055825
 20
129.4707060702097
 30
0.0
 10
106.1582273896086
 20
129.4707060702097
 30
0.0
 10
106.2462469495108
 20
129.4707060702097
 30
0.0
 10
106.3220415705377
 20
129.4389212291339
 30
0.0
 10
106.4491809348409
 20
129.3117818648307
 30
0.0
 10
106.4809657759167
 20
129.2359872438038
 30
0.0
 10
106.4809657759167
 20
129.1161828428258
 30
0.0
 10
106.4760758003665
 20
129.0843980017501
 30
0.0
 10
106.4662958492663
 20
129.0550581484493
 30
0.0
 10
106.4044376585573
 20
128.8694835763222
 30
0.0
 10
106.3489364360634
 20
128.68179001479
 30
0.0
 10
106.2902567294619
 20
128.4951559479603
 30
0.0
 10
106.2429239724597
 20
128.3446114847174
 30
0.0
 10
106.1460024507333
 20
128.2677720848796
 30
0.0
 10
105.9870782453543
 20
128.2677720848796
 30
0.0
 10
105.6040301605947
 20
128.2677720848796
 30
0.0
 10
105.2209820758352
 20
128.2677720848796
 30
0.0
 10
104.8379339910756
 20
128.2677720848796
 30
0.0
 10
104.7499144311734
 20
128.2677720848796
 30
0.0
 10
104.6741198101465
 20
128.2995569259554
 30
0.0
 10
104.61299511577
 20
128.363126608107
 30
0.0
 10
104.550695850018
 20
128.427917844489
 30
0.0
 10
104.5200855803176
 20
128.5000459235104
 30
0.0
 10
104.5200855803176
 20
128.6174053367134
 30
0.0
 10
104.5249755558678
 20
128.6491901777892
 30
0.0
 10
104.534755506968
 20
128.68342000664
 30
0.0
 10
104.8563867290006
 20
129.809129283754
 30
0.0
 10
105.2193520839851
 20
130.923028808596
 30
0.0
 10
105.5616503724937
 20
132.042833209574
 30
0.0
 10
105.607105288136
 20
132.1915357193183
 30
0.0
 10
105.7083496389973
 20
132.2677720848796
 30
0.0
 10
105.8648288566013
 20
132.2677720848796
 30
0.0
 10
106.2071271451098
 20
132.2677720848796
 30
0.0
 10
106.5494254336184
 20
132.2677720848796
 30
0.0
 10
106.8917237221269
 20
132.2677720848796
 30
0.0
 10
107.0482029397308
 20
132.2677720848796
 30
0.0
 10
107.1508924262834
 20
132.1919774638527
 30
0.0
 10
107.1997921817846
 20
132.042833209574
 30
0.0
 10
107.5645290622983
 20
130.9303857240075
 30
0.0
 10
107.8843887588018
 20
129.803224407618
 30
0.0
 10
108.2266870473103
 20
128.68342000664
 30
0.0
 10
108.236882988727
 20
128.650064712577
 30
0.0
 10
108.2364669984106
 20
128.6174053367134
 30
0.0
 10
108.2364669984106
 20
128.5000459235104
 30
0.0
 10
108.2071271451098
 20
128.4266962902586
 30
0.0
 10
108.1435574629582
 20
128.363126608107
 30
0.0
 10
108.0812102746942
 20
128.300779419843
 30
0.0
 10
108.0066381475548
 20
128.2677720848796
 30
0.0
 10
107.9186185876526
 20
128.2677720848796
 30
0.0
  0
SPLINE
  5
72
330
2B
100
AcDbEntity
  8
52433115
  6
Continuous
 62
     7
 48
25.4
100
AcDbSpline
210
0.0
220
0.0
230
1.0
 70
     8
 71
     3
 72
    14
 73
    10
 74
     0
 42
0.0000000001
 43
0.0000000001
 40
0.0
 40
0.0
 40
0.0
 40
0.0
 40
0.4998893325293868
 40
0.4998893325293868
 40
0.4998893325293868
 40
0.5001106674706131
 40
0.5001106674706131
 40
0.5001106674706131
 40
1.0
 40
1.0
 40
1.0
 40
1.0
 10
107.9186185876526
 20
128.2677720848796
 30
0.0
 10
107.7238345615727
 20
128.2677720848796
 30
0.0
 10
107.5290505354929
 20
128.2677720848796
 30
0.0
 10
107.334266509413
 20
128.2677720848796
 30
0.0
 10
107.175342304034
 20
128.2677720848796
 30
0.0
 10
107.0726528174815
 20
128.3435667059065
 30
0.0
 10
107.0261980497553
 20
128.4927109601853
 30
0.0
 10
106.8062415907429
 20
129.1988869601725
 30
0.0
 10
106.5942502094945
 20
129.9075438860206
 30
0.0
 10
106.3782762893641
 20
130.6149603489383
 30
0.0
  0
LINE
  5
73
330
2B
100
AcDbEntity
  8
52433115
  6
Continuous
 62
     7
 48
25.4
100
AcDbLine
 10
105.8238660638
 20
70.6439610981
 30
0.0
 11
96.4315612184
 21
76.0666108289
 31
0.0
  0
LINE
  5
74
330
2B
100
AcDbEntity
  8
52433115
  6
Continuous
 62
     7
 48
25.4
100
AcDbLine
 10
106.8238660638
 20
71.2213113673
 30
0.0
 11
96.4315612184
 21
77.2213113673
 31
0.0
  0
LINE
  5
75
330
2B
100
AcDbEntity
  8
52433115
  6
Continuous
 62
     7
 48
25.4
100
AcDbLine
 10
91.3645739203
 20
67.4450319256
 30
0.0
 11
100.8908533619
 21
61.9450319256
 31
0.0
  0
LINE
  5
76
330
2B
100
AcDbEntity
  8
52433115
  6
Continuous
 62
     7
 48
25.4
100
AcDbLine
 10
90.5562835434
 20
68.8450319256
 30
0.0
 11
102.5074341156
 21
61.9450319256
 31
0.0
  0
LINE
  5
77
330
2B
100
AcDbEntity
  8
52433115
  6
Continuous
 62
     7
 48
25.4
100
AcDbLine
 10
92.952138355
 20
72.9947741868
 30
0.0
 11
104.9032889272
 21
66.0947741868
 31
0.0
  0
LINE
  5
78
330
2B
100
AcDbEntity
  8
52433115
  6
Continuous
 62
     7
 48
25.4
100
AcDbLine
 10
94.1815612184
 20
73.3241970502
 30
0.0
 11
104.5738660638
 21
67.3241970502
 31
0.0
  0
LINE
  5
79
330
2B
100
AcDbEntity
  8
52433115
  6
Continuous
 62
     7
 48
25.4
100
AcDbLine
 10
94.2070421655
 20
74.8683313454
 30
0.0
 11
105.8983851166
 21
68.1183313454
 31
0.0
  0
LINE
  5
7A
330
2B
100
AcDbEntity
  8
52433115
  6
Continuous
 62
     7
 48
25.4
100
AcDbLine
 10
94.7820421655
 20
75.8642605597
 30
0.0
 11
106.4733851166
 21
69.1142605597
 31
0.0
  0
LINE
  5
7B
330
2B
100
AcDbEntity
  8
52433115
  6
Continuous
 62
     7
 48
25.4
100
AcDbLine
 10
84.1732309692
 20
83.1439610981
 30
0.0
 11
74.7809261238
 21
88.5666108289
 31
0.0
  0
LINE
  5
7C
330
2B
100
AcDbEntity
  8
52433115
  6
Continuous
 62
     7
 48
25.4
100
AcDbLine
 10
85.1732309692
 20
83.7213113673
 30
0.0
 11
74.7809261238
 21
89.7213113673
 31
0.0
  0
LINE
  5
7D
330
2B
100
AcDbEntity
  8
52433115
  6
Continuous
 62
     7
 48
25.4
100
AcDbLine
 10
69.7139388256
 20
79.9450319256
 30
0.0
 11
79.2402182673
 21
74.4450319256
 31
0.0
  0
LINE
  5
7E
330
2B
100
AcDbEntity
  8
52433115
  6
Continuous
 62
     7
 48
25.4
100
AcDbLine
 10
68.9056484488
 20
81.3450319256
 30
0.0
 11
80.856799021
 21
74.4450319256
 31
0.0
  0
LINE
  5
7F
330
2B
100
AcDbEntity
  8
52433115
  6
Continuous
 62
     7
 48
25.4
100
AcDbLine
 10
71.3015032603
 20
85.4947741868
 30
0.0
 11
83.2526538326
 21
78.5947741868
 31
0.0
  0
LINE
  5
80
330
2B
100
AcDbEntity
  8
52433115
  6
Continuous
 62
     7
 48
25.4
100
AcDbLine
 10
72.5309261238
 20
85.8241970502
 30
0.0
 11
82.9232309692
 21
79.8241970502
 31
0.0
  0
LINE
  5
81
330
2B
100
AcDbEntity
  8
52433115
  6
Continuous
 62
     7
 48
25.4
100
AcDbLine
 10
72.5564070709
 20
87.3683313454
 30
0.0
 11
84.247750022
 21
80.6183313454
 31
0.0
  0
LINE
  5
82
330
2B
100
AcDbEntity
  8
52433115
  6
Continuous
 62
     7
 48
25.4
100
AcDbLine
 10
73.1314070709
 20
88.3642605597
 30
0.0
 11
84.822750022
 21
81.6142605597
 31
0.0
  0
LINE
  5
83
330
2B
100
AcDbEntity
  8
52433115
  6
Continuous
 62
     7
 48
25.4
100
AcDbLine
 10
77.2010547903
 20
119.9191133883
 30
0.0
 11
77.2010547903
 21
140.6164307815
 31
0.0
  0
LINE
  5
84
330
2B
100
AcDbEntity
  8
52433115
  6
Continuous
 62
     7
 48
25.4
100
AcDbLine
 10
159.4014884639
 20
119.7902720849
 30
0.0
 11
159.4014884639
 21
140.7452720849
 31
0.0
  0
LINE
  5
85
330
2B
100
AcDbEntity
  8
52433115
  6
Continuous
 62
     7
 48
25.4
100
AcDbLine
 10
162.5523960938
 20
122.7677720849
 30
0.0
 11
162.5523960938
 21
137.7677720849
 31
0.0
  0
LINE
  5
86
330
2B
100
AcDbEntity
  8
52433115
  6
Continuous
 62
     7
 48
25.4
100
AcDbLine
 10
159.5748960938
 20
119.7902720849
 30
0.0
 11
159.5748960938
 21
140.7452720849
 31
0.0
  0
LINE
  5
87
330
2B
100
AcDbEntity
  8
52433115
  6
Continuous
 62
     7
 48
25.4
100
AcDbLine
 10
194.0523960938
 20
122.7677720849
 30
0.0
 11
194.0523960938
 21
137.7677720849
 31
0.0
  0
LINE
  5
88
330
2B
100
AcDbEntity
  8
52433115
  6
Continuous
 62
     7
 48
25.4
100
AcDbLine
 10
74.3523960938
 20
122.7677720849
 30
0.0
 11
74.3523960938
 21
137.7677720849
 31
0.0
  0
LINE
  5
89
330
2B
100
AcDbEntity
  8
52433115
  6
Continuous
 62
     7
 48
25.4
100
AcDbLine
 10
42.8523960938
 20
122.7677720849
 30
0.0
 11
42.8523960938
 21
137.7677720849
 31
0.0
  0
LINE
  5
8A
330
2B
100
AcDbEntity
  8
52433115
  6
Continuous
 62
     7
 48
25.4
100
AcDbLine
 10
125.1884769313
 20
87.5057937187
 30
0.0
 11
131.5513842133
 21
77.3230134902
 31
0.0
  0
LINE
  5
8B
330
2B
100
AcDbEntity
  8
52433115
  6
Continuous
 62
     7
 48
25.4
100
AcDbLine
 10
159.4044079742
 20
93.4039642563
 30
0.0
 11
153.7673152562
 21
104.0057937187
 31
0.0
  0
ARC
  5
8C
330
2B
100
AcDbEntity
  8
52433115
  6
Continuous
 62
     7
 48
25.4
100
AcDbCircle
 10
142.2802942756
 20
83.2229945197
 30
0.0
 40
18.60108867434927
100
AcDbArc
 50
337.5614716397
 51
21.2436396899
  0
ARC
  5
8D
330
2B
100
AcDbEntity
  8
52433115
  6
Continuous
 62
     7
 48
25.4
100
AcDbCircle
 10
148.9304194897
 20
87.0624461022
 30
0.0
 40
18.60108867434927
100
AcDbArc
 50
218.7563603101
 51
262.4385283603
  0
LINE
  5
8E
330
2B
100
AcDbEntity
  8
52433115
  6
Continuous
 62
     7
 48
25.4
100
AcDbLine
 10
131.5513842133
 20
77.3230134902
 30
0.0
 11
134.4250116078
 21
75.4179777996
 31
0.0
  0
LINE
  5
8F
330
2B
100
AcDbEntity
  8
52433115
  6
Continuous
 62
     7
 48
25.4
100
AcDbLine
 10
159.6174035802
 20
89.9628120864
 30
0.0
 11
159.4044079742
 21
93.4039642563
 31
0.0
  0
LINE
  5
90
330
2B
100
AcDbEntity
  8
52433115
  6
Continuous
 62
     7
 48
25.4
100
AcDbLine
 10
152.1853240901
 20
103.0924306931
 30
0.0
 11
150.9241084214
 21
103.430372413
 31
0.0
  0
LINE
  5
91
330
2B
100
AcDbEntity
  8
52433115
  6
Continuous
 62
     7
 48
25.4
100
AcDbLine
 10
127.1084098173
 20
89.680372413
 30
0.0
 11
126.7704680974
 21
88.4191567442
 31
0.0
  0
LINE
  5
92
330
2B
100
AcDbEntity
  8
52433115
  6
Continuous
 62
     7
 48
25.4
100
AcDbLine
 10
86.5161468878
 20
116.0444395002
 30
0.0
 11
87.0523960938
 21
117.5177720849
 31
0.0
  0
LINE
  5
93
330
2B
100
AcDbEntity
  8
52433115
  6
Continuous
 62
     7
 48
25.4
100
AcDbLine
 10
87.0523960938
 20
143.0177720849
 30
0.0
 11
86.1075402283
 21
145.6137422399
 31
0.0
  0
LINE
  5
94
330
2B
100
AcDbEntity
  8
52433115
  6
Continuous
 62
     7
 48
25.4
100
AcDbLine
 10
137.3954741556
 20
140.6177720849
 30
0.0
 11
99.2093180319
 21
140.6177720849
 31
0.0
  0
LINE
  5
95
330
2B
100
AcDbEntity
  8
52433115
  6
Continuous
 62
     7
 48
25.4
100
AcDbLine
 10
99.2093180319
 20
140.6177720849
 30
0.0
 11
95.0523960938
 21
143.0177720849
 31
0.0
  0
LINE
  5
96
330
2B
100
AcDbEntity
  8
52433115
  6
Continuous
 62
     7
 48
25.4
100
AcDbLine
 10
95.0523960938
 20
143.0177720849
 30
0.0
 11
87.0523960938
 21
143.0177720849
 31
0.0
  0
LINE
  5
97
330
2B
100
AcDbEntity
  8
52433115
  6
Continuous
 62
     7
 48
25.4
100
AcDbLine
 10
87.0523960938
 20
117.5177720849
 30
0.0
 11
87.3831444976
 21
117.5177720849
 31
0.0
  0
LINE
  5
98
330
2B
100
AcDbEntity
  8
52433115
  6
Continuous
 62
     7
 48
25.4
100
AcDbLine
 10
150.9241084214
 20
103.430372413
 30
0.0
 11
142.7795320025
 21
117.5371925767
 31
0.0
  0
LINE
  5
99
330
2B
100
AcDbEntity
  8
52433115
  6
Continuous
 62
     7
 48
25.4
100
AcDbLine
 10
124.0196155554
 20
95.0303210088
 30
0.0
 11
127.1084098173
 21
89.680372413
 31
0.0
  0
LINE
  5
9A
330
2B
100
AcDbEntity
  8
52433115
  6
Continuous
 62
     7
 48
25.4
100
AcDbLine
 10
77.2882831863
 20
145.6137422399
 30
0.0
 11
77.2010547903
 21
140.6164307815
 31
0.0
  0
LINE
  5
9B
330
2B
100
AcDbEntity
  8
52433115
  6
Continuous
 62
     7
 48
25.4
100
AcDbLine
 10
77.2010547903
 20
119.9191133883
 30
0.0
 11
77.2882831863
 21
114.9218019298
 31
0.0
  0
LINE
  5
9C
330
2B
100
AcDbEntity
  8
52433115
  6
Continuous
 62
     7
 48
25.4
100
AcDbLine
 10
141.5523960938
 20
143.0177720849
 30
0.0
 11
137.3954741556
 21
140.6177720849
 31
0.0
  0
LINE
  5
9D
330
2B
100
AcDbEntity
  8
52433115
  6
Continuous
 62
     7
 48
25.4
100
AcDbLine
 10
159.3165090012
 20
114.9218019298
 30
0.0
 11
159.4014884639
 21
119.7902720849
 31
0.0
  0
LINE
  5
9E
330
2B
100
AcDbEntity
  8
52433115
  6
Continuous
 62
     7
 48
25.4
100
AcDbLine
 10
159.4014884639
 20
140.7452720849
 30
0.0
 11
159.3165090012
 21
145.6137422399
 31
0.0
  0
LINE
  5
9F
330
2B
100
AcDbEntity
  8
52433115
  6
Continuous
 62
     7
 48
25.4
100
AcDbLine
 10
150.4972519593
 20
145.6137422399
 30
0.0
 11
149.5523960938
 21
143.0177720849
 31
0.0
  0
LINE
  5
A0
330
2B
100
AcDbEntity
  8
52433115
  6
Continuous
 62
     7
 48
25.4
100
AcDbLine
 10
149.5523960938
 20
117.5177720849
 30
0.0
 11
150.4972519593
 21
114.9218019298
 31
0.0
  0
LINE
  5
A1
330
2B
100
AcDbEntity
  8
52433115
  6
Continuous
 62
     7
 48
25.4
100
AcDbLine
 10
149.5523960938
 20
143.0177720849
 30
0.0
 11
141.5523960938
 21
143.0177720849
 31
0.0
  0
LINE
  5
A2
330
2B
100
AcDbEntity
  8
52433115
  6
Continuous
 62
     7
 48
25.4
100
AcDbLine
 10
142.7688773
 20
117.5177720849
 30
0.0
 11
149.5523960938
 21
117.5177720849
 31
0.0
  0
LINE
  5
A3
330
2B
100
AcDbEntity
  8
52433115
  6
Continuous
 62
     7
 48
25.4
100
AcDbLine
 10
105.083485007
 20
98.2068829524
 30
0.0
 11
103.733485007
 21
95.8686143622
 31
0.0
  0
LINE
  5
A4
330
2B
100
AcDbEntity
  8
52433115
  6
Continuous
 62
     7
 48
25.4
100
AcDbLine
 10
119.3219422751
 20
86.8686143622
 30
0.0
 11
124.033159284
 21
95.028681587
 31
0.0
  0
LINE
  5
A5
330
2B
100
AcDbEntity
  8
52433115
  6
Continuous
 62
     7
 48
25.4
100
AcDbLine
 10
97.6713071805
 20
99.3686143622
 30
0.0
 11
99.0213071805
 21
101.7068829524
 31
0.0
  0
LINE
  5
A6
330
2B
100
AcDbEntity
  8
52433115
  6
Continuous
 62
     7
 48
25.4
100
AcDbLine
 10
85.8663345186
 20
114.9218019298
 30
0.0
 11
82.0828499124
 21
108.3686143622
 31
0.0
  0
LINE
  5
A7
330
2B
100
AcDbEntity
  8
52433115
  6
Continuous
 62
     7
 48
25.4
100
AcDbLine
 10
87.3651185864
 20
117.5177720849
 30
0.0
 11
86.5189737473
 21
116.0522062329
 31
0.0
  0
LINE
  5
A8
330
2B
100
AcDbEntity
  8
52433115
  6
Continuous
 62
     7
 48
25.4
100
AcDbLine
 10
104.0918152562
 20
70.4892605597
 30
0.0
 11
104.5918152562
 21
71.3552859635
 31
0.0
  0
LINE
  5
A9
330
2B
100
AcDbEntity
  8
52433115
  6
Continuous
 62
     7
 48
25.4
100
AcDbLine
 10
97.6636120259
 20
75.3552859635
 30
0.0
 11
97.1636120259
 21
74.4892605597
 31
0.0
  0
LINE
  5
AA
330
2B
100
AcDbEntity
  8
52433115
  6
Continuous
 62
     7
 48
25.4
100
AcDbLine
 10
106.8238660638
 20
71.2213113673
 30
0.0
 11
116.7238660638
 21
88.3686143622
 31
0.0
  0
LINE
  5
AB
330
2B
100
AcDbEntity
  8
52433115
  6
Continuous
 62
     7
 48
25.4
100
AcDbLine
 10
106.3315612184
 20
94.3686143622
 30
0.0
 11
96.4315612184
 21
77.2213113673
 31
0.0
  0
LINE
  5
AC
330
2B
100
AcDbEntity
  8
52433115
  6
Continuous
 62
     7
 48
25.4
100
AcDbLine
 10
96.4315612184
 20
77.2213113673
 30
0.0
 11
96.4315612184
 21
76.0666108289
 31
0.0
  0
LINE
  5
AD
330
2B
100
AcDbEntity
  8
52433115
  6
Continuous
 62
     7
 48
25.4
100
AcDbLine
 10
105.8238660638
 20
70.6439610981
 30
0.0
 11
106.8238660638
 21
71.2213113673
 31
0.0
  0
LINE
  5
AE
330
2B
100
AcDbEntity
  8
52433115
  6
Continuous
 62
     7
 48
25.4
100
AcDbLine
 10
90.5562835434
 20
68.8450319256
 30
0.0
 11
91.3645739203
 21
67.4450319256
 31
0.0
  0
LINE
  5
AF
330
2B
100
AcDbEntity
  8
52433115
  6
Continuous
 62
     7
 48
25.4
100
AcDbLine
 10
100.8908533619
 20
61.9450319256
 30
0.0
 11
102.5074341156
 21
61.9450319256
 31
0.0
  0
LINE
  5
B0
330
2B
100
AcDbEntity
  8
52433115
  6
Continuous
 62
     7
 48
25.4
100
AcDbLine
 10
92.952138355
 20
72.9947741868
 30
0.0
 11
90.5562835434
 21
68.8450319256
 31
0.0
  0
LINE
  5
B1
330
2B
100
AcDbEntity
  8
52433115
  6
Continuous
 62
     7
 48
25.4
100
AcDbLine
 10
102.5074341156
 20
61.9450319256
 30
0.0
 11
104.9032889272
 21
66.0947741868
 31
0.0
  0
LINE
  5
B2
330
2B
100
AcDbEntity
  8
52433115
  6
Continuous
 62
     7
 48
25.4
100
AcDbLine
 10
104.9032889272
 20
66.0947741868
 30
0.0
 11
104.5738660638
 21
67.3241970502
 31
0.0
  0
LINE
  5
B3
330
2B
100
AcDbEntity
  8
52433115
  6
Continuous
 62
     7
 48
25.4
100
AcDbLine
 10
94.1815612184
 20
73.3241970502
 30
0.0
 11
92.952138355
 21
72.9947741868
 31
0.0
  0
LINE
  5
B4
330
2B
100
AcDbEntity
  8
52433115
  6
Continuous
 62
     7
 48
25.4
100
AcDbLine
 10
94.8565612184
 20
74.4933313454
 30
0.0
 11
94.1815612184
 21
73.3241970502
 31
0.0
  0
LINE
  5
B5
330
2B
100
AcDbEntity
  8
52433115
  6
Continuous
 62
     7
 48
25.4
100
AcDbLine
 10
104.5738660638
 20
67.3241970502
 30
0.0
 11
105.2488660638
 21
68.4933313454
 31
0.0
  0
LINE
  5
B6
330
2B
100
AcDbEntity
  8
52433115
  6
Continuous
 62
     7
 48
25.4
100
AcDbLine
 10
94.7820421655
 20
75.8642605597
 30
0.0
 11
94.2070421655
 21
74.8683313454
 31
0.0
  0
LINE
  5
B7
330
2B
100
AcDbEntity
  8
52433115
  6
Continuous
 62
     7
 48
25.4
100
AcDbLine
 10
105.8983851166
 20
68.1183313454
 30
0.0
 11
106.4733851166
 21
69.1142605597
 31
0.0
  0
LINE
  5
B8
330
2B
100
AcDbEntity
  8
52433115
  6
Continuous
 62
     7
 48
25.4
100
AcDbLine
 10
82.4411801616
 20
82.9892605597
 30
0.0
 11
82.9411801616
 21
83.8552859635
 31
0.0
  0
LINE
  5
B9
330
2B
100
AcDbEntity
  8
52433115
  6
Continuous
 62
     7
 48
25.4
100
AcDbLine
 10
76.0129769313
 20
87.8552859635
 30
0.0
 11
75.5129769313
 21
86.9892605597
 31
0.0
  0
LINE
  5
BA
330
2B
100
AcDbEntity
  8
52433115
  6
Continuous
 62
     7
 48
25.4
100
AcDbLine
 10
85.1732309692
 20
83.7213113673
 30
0.0
 11
95.0732309692
 21
100.8686143622
 31
0.0
  0
LINE
  5
BB
330
2B
100
AcDbEntity
  8
52433115
  6
Continuous
 62
     7
 48
25.4
100
AcDbLine
 10
84.6809261238
 20
106.8686143622
 30
0.0
 11
74.7809261238
 21
89.7213113673
 31
0.0
  0
LINE
  5
BC
330
2B
100
AcDbEntity
  8
52433115
  6
Continuous
 62
     7
 48
25.4
100
AcDbLine
 10
74.7809261238
 20
89.7213113673
 30
0.0
 11
74.7809261238
 21
88.5666108289
 31
0.0
  0
LINE
  5
BD
330
2B
100
AcDbEntity
  8
52433115
  6
Continuous
 62
     7
 48
25.4
100
AcDbLine
 10
84.1732309692
 20
83.1439610981
 30
0.0
 11
85.1732309692
 21
83.7213113673
 31
0.0
  0
LINE
  5
BE
330
2B
100
AcDbEntity
  8
52433115
  6
Continuous
 62
     7
 48
25.4
100
AcDbLine
 10
68.9056484488
 20
81.3450319256
 30
0.0
 11
69.7139388256
 21
79.9450319256
 31
0.0
  0
LINE
  5
BF
330
2B
100
AcDbEntity
  8
52433115
  6
Continuous
 62
     7
 48
25.4
100
AcDbLine
 10
79.2402182673
 20
74.4450319256
 30
0.0
 11
80.856799021
 21
74.4450319256
 31
0.0
  0
LINE
  5
C0
330
2B
100
AcDbEntity
  8
52433115
  6
Continuous
 62
     7
 48
25.4
100
AcDbLine
 10
71.3015032603
 20
85.4947741868
 30
0.0
 11
68.9056484488
 21
81.3450319256
 31
0.0
  0
LINE
  5
C1
330
2B
100
AcDbEntity
  8
52433115
  6
Continuous
 62
     7
 48
25.4
100
AcDbLine
 10
80.856799021
 20
74.4450319256
 30
0.0
 11
83.2526538326
 21
78.5947741868
 31
0.0
  0
LINE
  5
C2
330
2B
100
AcDbEntity
  8
52433115
  6
Continuous
 62
     7
 48
25.4
100
AcDbLine
 10
83.2526538326
 20
78.5947741868
 30
0.0
 11
82.9232309692
 21
79.8241970502
 31
0.0
  0
LINE
  5
C3
330
2B
100
AcDbEntity
  8
52433115
  6
Continuous
 62
     7
 48
25.4
100
AcDbLine
 10
72.5309261238
 20
85.8241970502
 30
0.0
 11
71.3015032603
 21
85.4947741868
 31
0.0
  0
LINE
  5
C4
330
2B
100
AcDbEntity
  8
52433115
  6
Continuous
 62
     7
 48
25.4
100
AcDbLine
 10
73.2059261238
 20
86.9933313454
 30
0.0
 11
72.5309261238
 21
85.8241970502
 31
0.0
  0
LINE
  5
C5
330
2B
100
AcDbEntity
  8
52433115
  6
Continuous
 62
     7
 48
25.4
100
AcDbLine
 10
82.9232309692
 20
79.8241970502
 30
0.0
 11
83.5982309692
 21
80.9933313454
 31
0.0
  0
LINE
  5
C6
330
2B
100
AcDbEntity
  8
52433115
  6
Continuous
 62
     7
 48
25.4
100
AcDbLine
 10
73.1314070709
 20
88.3642605597
 30
0.0
 11
72.5564070709
 21
87.3683313454
 31
0.0
  0
LINE
  5
C7
330
2B
100
AcDbEntity
  8
52433115
  6
Continuous
 62
     7
 48
25.4
100
AcDbLine
 10
84.247750022
 20
80.6183313454
 30
0.0
 11
84.822750022
 21
81.6142605597
 31
0.0
  0
LINE
  5
C8
330
2B
100
AcDbEntity
  8
52433115
  6
Continuous
 62
     7
 48
25.4
100
AcDbLine
 10
159.4014884639
 20
119.7902720849
 30
0.0
 11
159.5748960938
 21
119.7902720849
 31
0.0
  0
LINE
  5
C9
330
2B
100
AcDbEntity
  8
52433115
  6
Continuous
 62
     7
 48
25.4
100
AcDbLine
 10
159.5748960938
 20
140.7452720849
 30
0.0
 11
159.4014884639
 21
140.7452720849
 31
0.0
  0
LINE
  5
CA
330
2B
100
AcDbEntity
  8
52433115
  6
Continuous
 62
     7
 48
25.4
100
AcDbLine
 10
194.0523960938
 20
137.7677720849
 30
0.0
 11
162.5523960938
 21
137.7677720849
 31
0.0
  0
LINE
  5
CB
330
2B
100
AcDbEntity
  8
52433115
  6
Continuous
 62
     7
 48
25.4
100
AcDbLine
 10
162.5523960938
 20
122.7677720849
 30
0.0
 11
194.0523960938
 21
122.7677720849
 31
0.0
  0
LINE
  5
CC
330
2B
100
AcDbEntity
  8
52433115
  6
Continuous
 62
     7
 48
25.4
100
AcDbLine
 10
159.5748960938
 20
119.7902720849
 30
0.0
 11
162.5523960938
 21
122.7677720849
 31
0.0
  0
LINE
  5
CD
330
2B
100
AcDbEntity
  8
52433115
  6
Continuous
 62
     7
 48
25.4
100
AcDbLine
 10
162.5523960938
 20
137.7677720849
 30
0.0
 11
159.5748960938
 21
140.7452720849
 31
0.0
  0
LINE
  5
CE
330
2B
100
AcDbEntity
  8
52433115
  6
Continuous
 62
     7
 48
25.4
100
AcDbLine
 10
42.8523960938
 20
122.7677720849
 30
0.0
 11
74.3523960938
 21
122.7677720849
 31
0.0
  0
LINE
  5
CF
330
2B
100
AcDbEntity
  8
52433115
  6
Continuous
 62
     7
 48
25.4
100
AcDbLine
 10
74.3523960938
 20
137.7677720849
 30
0.0
 11
42.8523960938
 21
137.7677720849
 31
0.0
  0
LINE
  5
D0
330
2B
100
AcDbEntity
  8
52433115
  6
Continuous
 62
     7
 48
25.4
100
AcDbLine
 10
77.2010547903
 20
140.6164307815
 30
0.0
 11
74.3523960938
 21
137.7677720849
 31
0.0
  0
LINE
  5
D1
330
2B
100
AcDbEntity
  8
52433115
  6
Continuous
 62
     7
 48
25.4
100
AcDbLine
 10
74.3523960938
 20
122.7677720849
 30
0.0
 11
77.2010547903
 21
119.9191133883
 31
0.0
  0
ENDBLK
  5
D6
330
2B
100
AcDbEntity
  8
0
100
AcDbBlockEnd
  0
BLOCK
  5
17D
330
D7
100
AcDbEntity
  8
0
100
AcDbBlockBegin
  2
SE1
 70
     0
 71
     0
 10
0.0
 20
0.0
 30
0.0
  3
SE1
  1

  0
ELLIPSE
  5
D9
330
D7
100
AcDbEntity
  8
52433115
  6
Continuous
 62
     7
 48
25.4
100
AcDbEllipse
 10
145.4778960938
 20
212.2285807348
 30
0.0
 11
-2.775557561562891E-14
 21
16.08095076609903
 31
0.0
210
0.0
220
0.0
230
1.0
 40
0.8660254038
 41
5.502453072301255
 42
6.283185307179586
  0
ELLIPSE
  5
DA
330
D7
100
AcDbEntity
  8
52433115
  6
Continuous
 62
     7
 48
25.4
100
AcDbEllipse
 10
145.4778960938
 20
212.2285807348
 30
0.0
 11
-2.775557561562891E-14
 21
16.08095076609903
 31
0.0
210
0.0
220
0.0
230
1.0
 40
0.8660254038
 41
0.0
 42
3.925611333304569
  0
ELLIPSE
  5
DB
330
D7
100
AcDbEntity
  8
52433115
  6
Continuous
 62
     7
 48
25.4
100
AcDbEllipse
 10
139.4778960938
 20
212.2285807348
 30
0.0
 11
0.0
 21
-16.50000000000001
 31
0.0
210
0.0
220
0.0
230
1.0
 40
0.8660254038
 41
3.081071166497756
 42
6.283185307179586
  0
ELLIPSE
  5
DC
330
D7
100
AcDbEntity
  8
52433115
  6
Continuous
 62
     7
 48
25.4
100
AcDbEllipse
 10
139.4778960938
 20
212.2285807348
 30
0.0
 11
0.0
 21
-16.50000000000001
 31
0.0
210
0.0
220
0.0
230
1.0
 40
0.8660254038
 41
0.0
 42
0.0605214870920376
  0
ELLIPSE
  5
DD
330
D7
100
AcDbEntity
  8
52433115
  6
Continuous
 62
     7
 48
25.4
100
AcDbEllipse
 10
152.9778960938
 20
212.2285807348
 30
0.0
 11
-1.387778780781446E-14
 21
-7.499999999999998
 31
0.0
210
0.0
220
0.0
230
1.0
 40
0.8660254038
 41
0.0
 42
6.283185307179586
  0
ELLIPSE
  5
DE
330
D7
100
AcDbEntity
  8
52433115
  6
Continuous
 62
     7
 48
25.4
100
AcDbEllipse
 10
147.021207594
 20
212.2285807348
 30
0.0
 11
-2.081668171172169E-14
 21
-14.54483428678401
 31
0.0
210
0.0
220
0.0
230
1.0
 40
0.8660254038
 41
2.871457766259532
 42
6.283185307179585
  0
ELLIPSE
  5
DF
330
D7
100
AcDbEntity
  8
52433115
  6
Continuous
 62
     7
 48
25.4
100
AcDbEllipse
 10
147.021207594
 20
212.2285807348
 30
0.0
 11
-2.081668171172169E-14
 21
-14.54483428678401
 31
0.0
210
0.0
220
0.0
230
1.0
 40
0.8660254038
 41
0.0
 42
0.2702281060290457
  0
ELLIPSE
  5
E0
330
D7
100
AcDbEntity
  8
52433115
  6
Continuous
 62
     7
 48
25.4
100
AcDbEllipse
 10
117.8777136411
 20
212.2285807348
 30
0.0
 11
1.181780368009200E-13
 21
-9.000000000000018
 31
0.0
210
0.0
220
0.0
230
1.0
 40
0.8660254038
 41
2.351570671361264
 42
3.141592653589793
  0
ARC
  5
E1
330
D7
100
AcDbEntity
  8
52433115
  6
Continuous
 62
     7
 48
25.4
100
AcDbCircle
 10
57.0436113363
 20
205.5501587607
 30
0.0
 40
29.80645780079635
100
AcDbArc
 50
347.1842254257
 51
356.9573614823
  0
LINE
  5
E2
330
D7
100
AcDbEntity
  8
52433115
  6
Continuous
 62
     7
 48
25.4
100
AcDbLine
 10
86.1075402283
 20
198.9385807348
 30
0.0
 11
86.8558518142
 21
198.9385807348
 31
0.0
  0
LINE
  5
E3
330
D7
100
AcDbEntity
  8
52433115
  6
Continuous
 62
     7
 48
25.4
100
AcDbLine
 10
86.1075402283
 20
225.5185807348
 30
0.0
 11
86.8558518142
 21
225.5185807348
 31
0.0
  0
ARC
  5
E4
330
D7
100
AcDbEntity
  8
52433115
  6
Continuous
 62
     7
 48
25.4
100
AcDbCircle
 10
57.0434645266
 20
218.9070000006
 30
0.0
 40
29.8066015539213
100
AcDbArc
 50
3.0379019477
 51
12.8157170526
  0
LINE
  5
E5
330
D7
100
AcDbEntity
  8
52433115
  6
Continuous
 62
     7
 48
25.4
100
AcDbLine
 10
99.2093180319
 20
201.8785807348
 30
0.0
 11
99.2093180319
 21
203.9134341014
 31
0.0
  0
LINE
  5
E6
330
D7
100
AcDbEntity
  8
52433115
  6
Continuous
 62
     7
 48
25.4
100
AcDbLine
 10
99.2093180319
 20
220.5437273682
 30
0.0
 11
99.2093180319
 21
222.5785807348
 31
0.0
  0
LINE
  5
E7
330
D7
100
AcDbEntity
  8
52433115
  6
Continuous
 62
     7
 48
25.4
100
AcDbLine
 10
95.0523960938
 20
199.4785807348
 30
0.0
 11
95.0523960938
 21
203.2285807348
 31
0.0
  0
LINE
  5
E8
330
D7
100
AcDbEntity
  8
52433115
  6
Continuous
 62
     7
 48
25.4
100
AcDbLine
 10
95.0523960938
 20
221.2285807348
 30
0.0
 11
95.0523960938
 21
224.9785807348
 31
0.0
  0
LINE
  5
E9
330
D7
100
AcDbEntity
  8
52433115
  6
Continuous
 62
     7
 48
25.4
100
AcDbLine
 10
87.0523960938
 20
224.9785807348
 30
0.0
 11
87.0523960938
 21
220.6167604373
 31
0.0
  0
LINE
  5
EA
330
D7
100
AcDbEntity
  8
52433115
  6
Continuous
 62
     7
 48
25.4
100
AcDbLine
 10
87.0523960938
 20
203.8404010322
 30
0.0
 11
87.0523960938
 21
199.4785807348
 31
0.0
  0
ELLIPSE
  5
EB
330
D7
100
AcDbEntity
  8
52433115
  6
Continuous
 62
     7
 48
25.4
100
AcDbEllipse
 10
121.4827047949
 20
212.2285807348
 30
0.0
 11
2.298508605669269E-14
 21
-13.75000000000001
 31
0.0
210
0.0
220
0.0
230
1.0
 40
0.8660254038
 41
3.141592653589793
 42
3.998807749094379
  0
ARC
  5
EC
330
D7
100
AcDbEntity
  8
52433115
  6
Continuous
 62
     7
 48
25.4
100
AcDbCircle
 10
92.1781662054
 20
212.2285807348
 30
0.0
 40
31.87214149170933
100
AcDbArc
 50
348.5363496603
 51
11.4636503397
  0
ELLIPSE
  5
ED
330
D7
100
AcDbEntity
  8
52433115
  6
Continuous
 62
     7
 48
25.4
100
AcDbEllipse
 10
121.4827047949
 20
212.2285807348
 30
0.0
 11
-7.177418381854039E-14
 21
13.75000000000003
 31
0.0
210
0.0
220
0.0
230
0.9999999999999999
 40
0.8660254038
 41
2.284377558085197
 42
3.141592653589793
  0
ARC
  5
EE
330
D7
100
AcDbEntity
  8
52433115
  6
Continuous
 62
     7
 48
25.4
100
AcDbCircle
 10
692.4779517487
 20
205.5835807348
 30
0.0
 40
615.2255556549067
100
AcDbArc
 50
180.0236061005
 51
180.6188589769
  0
ARC
  5
EF
330
D7
100
AcDbEntity
  8
52433115
  6
Continuous
 62
     7
 48
25.4
100
AcDbCircle
 10
692.4770237039
 20
218.8735807348
 30
0.0
 40
615.2246276642909
100
AcDbArc
 50
179.3811400896
 51
179.9762518434
  0
LINE
  5
F0
330
D7
100
AcDbEntity
  8
52433115
  6
Continuous
 62
     7
 48
25.4
100
AcDbLine
 10
77.2882831863
 20
225.5185807348
 30
0.0
 11
77.2523960938
 21
225.5185807348
 31
0.0
  0
LINE
  5
F1
330
D7
100
AcDbEntity
  8
52433115
  6
Continuous
 62
     7
 48
25.4
100
AcDbLine
 10
77.2523960938
 20
198.9385807348
 30
0.0
 11
77.2882831863
 21
198.9385807348
 31
0.0
  0
LINE
  5
F2
330
D7
100
AcDbEntity
  8
52433115
  6
Continuous
 62
     7
 48
25.4
100
AcDbLine
 10
86.1075402283
 20
198.9385807348
 30
0.0
 11
77.2882831863
 21
198.9385807348
 31
0.0
  0
LINE
  5
F3
330
D7
100
AcDbEntity
  8
52433115
  6
Continuous
 62
     7
 48
25.4
100
AcDbLine
 10
77.2882831863
 20
225.5185807348
 30
0.0
 11
86.1075402283
 21
225.5185807348
 31
0.0
  0
LINE
  5
F4
330
D7
100
AcDbEntity
  8
52433115
  6
Continuous
 62
     7
 48
25.4
100
AcDbLine
 10
159.3165090012
 20
198.9385807348
 30
0.0
 11
159.3523960938
 21
198.9385807348
 31
0.0
  0
LINE
  5
F5
330
D7
100
AcDbEntity
  8
52433115
  6
Continuous
 62
     7
 48
25.4
100
AcDbLine
 10
159.3165090012
 20
198.9385807348
 30
0.0
 11
153.3187926086
 21
198.9385807348
 31
0.0
  0
LINE
  5
F6
330
D7
100
AcDbEntity
  8
52433115
  6
Continuous
 62
     7
 48
25.4
100
AcDbLine
 10
153.3187926086
 20
225.5185807348
 30
0.0
 11
159.3165090012
 21
225.5185807348
 31
0.0
  0
LINE
  5
F7
330
D7
100
AcDbEntity
  8
52433115
  6
Continuous
 62
     7
 48
25.4
100
AcDbLine
 10
159.3165090012
 20
225.5185807348
 30
0.0
 11
159.3523960938
 21
225.5185807348
 31
0.0
  0
ARC
  5
F8
330
D7
100
AcDbEntity
  8
52433115
  6
Continuous
 62
     7
 48
25.4
100
AcDbCircle
 10
-455.8722315164
 20
218.8735807348
 30
0.0
 40
615.2246276642907
100
AcDbArc
 50
359.978749079
 51
0.6188599104
  0
ARC
  5
F9
330
D7
100
AcDbEntity
  8
52433115
  6
Continuous
 62
     7
 48
25.4
100
AcDbCircle
 10
-455.8731595612
 20
205.5835807348
 30
0.0
 40
615.2255556549693
100
AcDbArc
 50
359.3811410231
 51
0.0212603233
  0
ELLIPSE
  5
FA
330
D7
100
AcDbEntity
  8
52433115
  6
Continuous
 62
     7
 48
25.4
100
AcDbEllipse
 10
117.8777136411
 20
212.2285807348
 30
0.0
 11
5.551115123125782E-14
 21
9.000000000000007
 31
0.0
210
0.0
220
0.0
230
1.0
 40
0.8660254038
 41
3.141592653589793
 42
3.93161463581832
  0
ELLIPSE
  5
FB
330
D7
100
AcDbEntity
  8
52433115
  6
Continuous
 62
     7
 48
25.4
100
AcDbEllipse
 10
111.5277136411
 20
212.2285807348
 30
0.0
 11
-1.214306433183765E-14
 21
-8.999999999999977
 31
0.0
210
0.0
220
0.0
230
1.0
 40
0.8660254038
 41
5.44211663661166
 42
6.283185307179586
  0
ELLIPSE
  5
FC
330
D7
100
AcDbEntity
  8
52433115
  6
Continuous
 62
     7
 48
25.4
100
AcDbEllipse
 10
111.5277136411
 20
212.2285807348
 30
0.0
 11
-1.214306433183765E-14
 21
-8.999999999999977
 31
0.0
210
0.0
220
0.0
230
1.0
 40
0.8660254038
 41
0.0
 42
3.982661324157722
  0
ELLIPSE
  5
FD
330
D7
100
AcDbEntity
  8
52433115
  6
Continuous
 62
     7
 48
25.4
100
AcDbEllipse
 10
89.8770785465
 20
212.2285807348
 30
0.0
 11
2.081668171172169E-14
 21
-8.999999999999988
 31
0.0
210
0.0
220
0.0
230
1.0
 40
0.8660254038
 41
0.0
 42
0.7319296687472588
  0
ELLIPSE
  5
FE
330
D7
100
AcDbEntity
  8
52433115
  6
Continuous
 62
     7
 48
25.4
100
AcDbEllipse
 10
89.8770785465
 20
212.2285807348
 30
0.0
 11
2.081668171172169E-14
 21
-8.999999999999988
 31
0.0
210
0.0
220
0.0
230
1.0
 40
0.8660254038
 41
2.409662984842535
 42
3.982661324157716
  0
ELLIPSE
  5
FF
330
D7
100
AcDbEntity
  8
52433115
  6
Continuous
 62
     7
 48
25.4
100
AcDbEllipse
 10
89.8770785465
 20
212.2285807348
 30
0.0
 11
2.081668171172169E-14
 21
-8.999999999999988
 31
0.0
210
0.0
220
0.0
230
1.0
 40
0.8660254038
 41
5.442116636611647
 42
6.283185307179586
  0
ELLIPSE
  5
100
330
D7
100
AcDbEntity
  8
52433115
  6
Continuous
 62
     7
 48
25.4
100
AcDbEllipse
 10
96.2270785465
 20
212.2285807348
 30
0.0
 11
0.0
 21
-8.999999999999988
 31
0.0
210
0.0
220
0.0
230
1.0
 40
0.8660254038
 41
2.407731200594362
 42
3.141592653589793
  0
ELLIPSE
  5
101
330
D7
100
AcDbEntity
  8
52433115
  6
Continuous
 62
     7
 48
25.4
100
AcDbEllipse
 10
96.2270785465
 20
212.2285807348
 30
0.0
 11
-7.285838599102590E-14
 21
9.000000000000011
 31
0.0
210
0.0
220
0.0
230
1.0
 40
0.8660254038
 41
3.141592653589793
 42
3.875454106585216
  0
SPLINE
  5
102
330
D7
100
AcDbEntity
  8
52433115
  6
Continuous
 62
     7
 48
25.4
100
AcDbSpline
210
0.0
220
0.0
230
1.0
 70
     8
 71
     3
 72
    89
 73
    85
 74
     0
 42
0.0000000001
 43
0.0000000001
 40
0.3794113629504661
 40
0.3794113629504661
 40
0.3794113629504661
 40
0.3794113629504661
 40
0.3796695005566109
 40
0.3796695005566109
 40
0.3796695005566109
 40
0.3811460805141445
 40
0.3811460805141445
 40
0.3811460805141445
 40
0.3870706287739901
 40
0.3870706287739901
 40
0.3870706287739901
 40
0.4029837120463419
 40
0.4029837120463419
 40
0.4029837120463419
 40
0.4188183243238787
 40
0.4188183243238787
 40
0.4188183243238787
 40
0.436795602608089
 40
0.436795602608089
 40
0.436795602608089
 40
0.4536127701062809
 40
0.4536127701062809
 40
0.4536127701062809
 40
0.4554901252112498
 40
0.4554901252112498
 40
0.4554901252112498
 40
0.4564285749110228
 40
0.4564285749110228
 40
0.4564285749110228
 40
0.4568977734463566
 40
0.4568977734463566
 40
0.4568977734463566
 40
0.4571323688410893
 40
0.4571323688410893
 40
0.4571323688410893
 40
0.458070749769638
 40
0.458070749769638
 40
0.458070749769638
 40
0.461824273483833
 40
0.461824273483833
 40
0.461824273483833
 40
0.4768383683406118
 40
0.4768383683406118
 40
0.4768383683406118
 40
0.5368947477677268
 40
0.5368947477677268
 40
0.5368947477677268
 40
0.5406482714819216
 40
0.5406482714819216
 40
0.5406482714819216
 40
0.542525033339019
 40
0.542525033339019
 40
0.542525033339019
 40
0.5426423309550875
 40
0.5426423309550875
 40
0.5426423309550875
 40
0.5427009797631403
 40
0.5427009797631403
 40
0.5427009797631403
 40
0.5429355759976626
 40
0.5429355759976626
 40
0.5429355759976626
 40
0.5438740226902222
 40
0.5438740226902222
 40
0.5438740226902222
 40
0.547632132105397
 40
0.547632132105397
 40
0.547632132105397
 40
0.5630383300671173
 40
0.5630383300671173
 40
0.5630383300671173
 40
0.5784198401228475
 40
0.5784198401228475
 40
0.5784198401228475
 40
0.5954200131078942
 40
0.5954200131078942
 40
0.5954200131078942
 40
0.6129689174963523
 40
0.6129689174963523
 40
0.6129689174963523
 40
0.6206826805979974
 40
0.6206826805979974
 40
0.6206826805979974
 40
0.6208856992236648
 40
0.6208856992236648
 40
0.6208856992236648
 40
0.6208856992236648
 10
107.2658068917062
 20
202.0159343249317
 30
0.0
 10
107.2658069399832
 20
202.0160259778716
 30
0.0
 10
107.2658069963874
 20
202.0161176763739
 30
0.0
 10
107.2658068373621
 20
202.0162094204316
 30
0.0
 10
107.2658059278009
 20
202.0167341601009
 30
0.0
 10
107.2657617610924
 20
202.017260438636
 30
0.0
 10
107.2656731404617
 20
202.017787959898
 30
0.0
 10
107.2653181110438
 20
202.0199013003822
 30
0.0
 10
107.2642449859318
 20
202.0220393560991
 30
0.0
 10
107.2623960655746
 20
202.0241789395407
 30
0.0
 10
107.2574912129285
 20
202.0298548689903
 30
0.0
 10
107.2467482597576
 20
202.0356460355296
 30
0.0
 10
107.2308766373218
 20
202.0410141015316
 30
0.0
 10
107.2150464133296
 20
202.0463681658412
 30
0.0
 10
107.1939025467477
 20
202.0514195461887
 30
0.0
 10
107.1698621732948
 20
202.0559085454215
 30
0.0
 10
107.1426937656279
 20
202.0609816347149
 30
0.0
 10
107.1106264101902
 20
202.0654869600885
 30
0.0
 10
107.0754609579996
 20
202.068556691498
 30
0.0
 10
107.0425486830972
 20
202.0714297341501
 30
0.0
 10
107.0061269088701
 20
202.0730863356971
 30
0.0
 10
106.9700019252111
 20
202.0735241866329
 30
0.0
 10
106.9659051066559
 20
202.0735738419035
 30
0.0
 10
106.9618029845895
 20
202.0736090954156
 30
0.0
 10
106.9576996097467
 20
202.0736305362412
 30
0.0
 10
106.9556481762288
 20
202.0736412553274
 30
0.0
 10
106.9535961857315
 20
202.0736485247622
 30
0.0
 10
106.9515441014501
 20
202.073652423312
 30
0.0
 10
106.9505180883809
 20
202.0736543725316
 30
0.0
 10
106.9494920234003
 20
202.0736554792013
 30
0.0
 10
106.9484659617267
 20
202.0736557534202
 30
0.0
 10
106.9479529351432
 20
202.0736558905285
 30
0.0
 10
106.9474399076184
 20
202.0736558212157
 30
0.0
 10
106.9469268805442
 20
202.0736558212157
 30
0.0
 10
106.9448747736166
 20
202.0736558212157
 30
0.0
 10
106.9428226666889
 20
202.0736558212157
 30
0.0
 10
106.9407705597612
 20
202.0736558212157
 30
0.0
 10
106.9325621320506
 20
202.0736558212157
 30
0.0
 10
106.9243537043399
 20
202.0736558212157
 30
0.0
 10
106.9161452766293
 20
202.0736558212157
 30
0.0
 10
106.8833115657866
 20
202.0736558212157
 30
0.0
 10
106.850477854944
 20
202.0736558212157
 30
0.0
 10
106.8176441441013
 20
202.0736558212157
 30
0.0
 10
106.6863093007307
 20
202.0736558212157
 30
0.0
 10
106.5549744573602
 20
202.0736558212157
 30
0.0
 10
106.4236396139896
 20
202.0736558212157
 30
0.0
 10
106.4154311862789
 20
202.0736558212157
 30
0.0
 10
106.4072227585683
 20
202.0736558212157
 30
0.0
 10
106.3990143308576
 20
202.0736558212157
 30
0.0
 10
106.3949101170023
 20
202.0736558212157
 30
0.0
 10
106.390805903147
 20
202.0736558212157
 30
0.0
 10
106.3867016892916
 20
202.0736558212157
 30
0.0
 10
106.3864451759257
 20
202.0736558212157
 30
0.0
 10
106.3861886625597
 20
202.0736558212157
 30
0.0
 10
106.3859321491938
 20
202.0736558212157
 30
0.0
 10
106.3858038925107
 20
202.0736558212157
 30
0.0
 10
106.3856756358259
 20
202.0736558244077
 30
0.0
 10
106.3855473791448
 20
202.0736558201574
 30
0.0
 10
106.3850343513214
 20
202.0736558031561
 30
0.0
 10
106.3845213225724
 20
202.0736555813007
 30
0.0
 10
106.3840082995192
 20
202.0736551534584
 30
0.0
 10
106.3819561397752
 20
202.0736534420332
 30
0.0
 10
106.379903979643
 20
202.0736484342066
 30
0.0
 10
106.3778522585236
 20
202.0736400593343
 30
0.0
 10
106.3696406480264
 20
202.0736065405541
 30
0.0
 10
106.3614294054506
 20
202.0735189457956
 30
0.0
 10
106.3532506503571
 20
202.0733733387322
 30
0.0
 10
106.3201308791442
 20
202.0727837046654
 30
0.0
 10
106.2870123983336
 20
202.0711741548766
 30
0.0
 10
106.2566278703188
 20
202.0685937499494
 30
0.0
 10
106.226251878324
 20
202.0660140699433
 30
0.0
 10
106.1979725213185
 20
202.0624324467875
 30
0.0
 10
106.1730500902044
 20
202.0583478399223
 30
0.0
 10
106.1455495524275
 20
202.0538406999532
 30
0.0
 10
106.1210870620266
 20
202.0486046698523
 30
0.0
 10
106.1029213835107
 20
202.0429460666359
 30
0.0
 10
106.0842274864175
 20
202.0371229234967
 30
0.0
 10
106.0718197514454
 20
202.0307113003952
 30
0.0
 10
106.0664043217021
 20
202.0244596580403
 30
0.0
 10
106.0639895024854
 20
202.021671959407
 30
0.0
 10
106.0628728663812
 20
202.0188867932521
 30
0.0
 10
106.0628728663812
 20
202.0161508134673
 30
0.0
 10
106.0628728663812
 20
202.0160786283348
 30
0.0
 10
106.0628728663812
 20
202.0160064714183
 30
0.0
 10
106.0628728663812
 20
202.0159343427187
 30
0.0
  0
LINE
  5
103
330
D7
100
AcDbEntity
  8
52433115
  6
Continuous
 62
     7
 48
25.4
100
AcDbLine
 10
106.0628728664
 20
201.2285807348
 30
0.0
 11
107.2658068517
 21
201.2285807348
 31
0.0
  0
LINE
  5
104
330
D7
100
AcDbEntity
  8
52433115
  6
Continuous
 62
     7
 48
25.4
100
AcDbLine
 10
108.2340220106
 20
201.2285807348
 30
0.0
 11
107.2658068517
 21
201.2285807348
 31
0.0
  0
LINE
  5
105
330
D7
100
AcDbEntity
  8
52433115
  6
Continuous
 62
     7
 48
25.4
100
AcDbLine
 10
105.5467932519
 20
201.2285807348
 30
0.0
 11
106.0628728664
 21
201.2285807348
 31
0.0
  0
SPLINE
  5
106
330
D7
100
AcDbEntity
  8
52433115
  6
Continuous
 62
     7
 48
25.4
100
AcDbSpline
210
0.0
220
0.0
230
1.0
 70
     8
 71
     3
 72
    10
 73
     6
 74
     0
 42
0.0000000001
 43
0.0000000001
 40
0.0
 40
0.0
 40
0.0
 40
0.0
 40
0.0312499999999996
 40
0.0312499999999996
 40
0.0392463718217481
 40
0.0392463718217481
 40
0.0392463718217481
 40
0.0392463718217481
 10
102.1239975607577
 20
202.0736558212157
 30
0.0
 10
101.9868847331062
 20
202.0736558212157
 30
0.0
 10
101.8574308161471
 20
202.0541797786048
 30
0.0
 10
101.8091496714327
 20
202.0260228355812
 30
0.0
 10
101.8055795762572
 20
202.0204191708693
 30
0.0
 10
101.8063592535606
 20
202.0149684806736
 30
0.0
  0
SPLINE
  5
107
330
D7
100
AcDbEntity
  8
52433115
  6
Continuous
 62
     7
 48
25.4
100
AcDbSpline
210
0.0
220
0.0
230
1.0
 70
     8
 71
     3
 72
    21
 73
    17
 74
     0
 42
0.0000000001
 43
0.0000000001
 40
0.7410628587185302
 40
0.7410628587185302
 40
0.7410628587185302
 40
0.7410628587185302
 40
0.7499999999999975
 40
0.7499999999999975
 40
0.7812499999999978
 40
0.7812499999999978
 40
0.8124999999999981
 40
0.8437499999999985
 40
0.8437499999999985
 40
0.8749999999999987
 40
0.8749999999999987
 40
0.906249999999999
 40
0.906249999999999
 40
0.9374999999999993
 40
0.9374999999999993
 40
0.9516540565000259
 40
0.9516540565000259
 40
0.9516540565000259
 40
0.9516540565000259
 10
105.5210408809535
 20
202.0162311178908
 30
0.0
 10
105.521737966091
 20
202.0223625591151
 30
0.0
 10
105.5167047821512
 20
202.0286273983267
 30
0.0
 10
105.4549187672552
 20
202.0571107406238
 30
0.0
 10
105.3228659209718
 20
202.0736558212157
 30
0.0
 10
105.0500497257866
 20
202.0736558212157
 30
0.0
 10
104.7772335306013
 20
202.0736558212157
 30
0.0
 10
104.5044173354161
 20
202.0736558212157
 30
0.0
 10
104.2316011402309
 20
202.0736558212157
 30
0.0
 10
104.0911260959776
 20
202.0779897836397
 30
0.0
 10
103.8288241664077
 20
202.0649982827276
 30
0.0
 10
103.7654997650295
 20
202.0382257446604
 30
0.0
 10
103.6854987850027
 20
201.9955998018519
 30
0.0
 10
103.6462176424152
 20
201.9767107187154
 30
0.0
 10
103.5855765978034
 20
201.9529672301175
 30
0.0
 10
103.5631477795526
 20
201.9460233630151
 30
0.0
 10
103.561857397771
 20
201.9393367018234
 30
0.0
  0
LINE
  5
108
330
D7
100
AcDbEntity
  8
52433115
  6
Continuous
 62
     7
 48
25.4
100
AcDbLine
 10
105.5225305681
 20
201.2285807348
 30
0.0
 11
103.5616503725
 21
201.2285807348
 31
0.0
  0
LINE
  5
109
330
D7
100
AcDbEntity
  8
52433115
  6
Continuous
 62
     7
 48
25.4
100
AcDbLine
 10
102.1239975608
 20
201.2285807348
 30
0.0
 11
101.80614915
 21
201.2285807348
 31
0.0
  0
SPLINE
  5
10A
330
D7
100
AcDbEntity
  8
52433115
  6
Continuous
 62
     7
 48
25.4
100
AcDbSpline
210
0.0
220
0.0
230
1.0
 70
     8
 71
     3
 72
    50
 73
    46
 74
     0
 42
0.0000000001
 43
0.0000000001
 40
0.1125995714530083
 40
0.1125995714530083
 40
0.1125995714530083
 40
0.1125995714530083
 40
0.4177345868181985
 40
0.4177345868181985
 40
0.4177345868181985
 40
0.628099600665583
 40
0.628099600665583
 40
0.628099600665583
 40
0.6806463940901585
 40
0.6806463940901585
 40
0.6806463940901585
 40
0.70695193865244
 40
0.70695193865244
 40
0.70695193865244
 40
0.7421070848556329
 40
0.7421070848556329
 40
0.7421070848556329
 40
0.7700632088304616
 40
0.7700632088304616
 40
0.7700632088304616
 40
0.7978604215247086
 40
0.7978604215247086
 40
0.7978604215247086
 40
0.8136089128043637
 40
0.8136089128043637
 40
0.8136089128043637
 40
0.8175309245678109
 40
0.8175309245678109
 40
0.8175309245678109
 40
0.8194916450135396
 40
0.8194916450135396
 40
0.8194916450135396
 40
0.8199818046665105
 40
0.8199818046665105
 40
0.8199818046665105
 40
0.8219424411813288
 40
0.8219424411813288
 40
0.8219424411813288
 40
0.8297849872406017
 40
0.8297849872406017
 40
0.8297849872406017
 40
0.8611551714776954
 40
0.8611551714776954
 40
0.8611551714776954
 40
1.0
 40
1.0
 40
1.0
 40
1.0
 10
103.5586456753129
 20
201.8785946596048
 30
0.0
 10
103.4633204829505
 20
201.8786095754693
 30
0.0
 10
103.3683372972285
 20
201.8928837270922
 30
0.0
 10
103.2731980537943
 20
201.9213722722923
 30
0.0
 10
103.2075205862762
 20
201.9410387677833
 30
0.0
 10
103.1416803313153
 20
201.9674828827367
 30
0.0
 10
103.0755293086533
 20
202.0006075688963
 30
0.0
 10
103.0589985452958
 20
202.0088852390843
 30
0.0
 10
103.0424461543516
 20
202.0175808191793
 30
0.0
 10
103.0258700479886
 20
202.0266922781261
 30
0.0
 10
103.0175769257776
 20
202.0312507939145
 30
0.0
 10
103.0095639087298
 20
202.0359582337307
 30
0.0
 10
102.9981212562285
 20
202.040516131906
 30
0.0
 10
102.9829852864969
 20
202.0465451718348
 30
0.0
 10
102.962470754413
 20
202.0524835070397
 30
0.0
 10
102.9364325085961
 20
202.0574571175369
 30
0.0
 10
102.9156596902228
 20
202.0614249696052
 30
0.0
 10
102.8908617098632
 20
202.0648443423651
 30
0.0
 10
102.8641276548354
 20
202.0673684397193
 30
0.0
 10
102.8374698078357
 20
202.0698853418882
 30
0.0
 10
102.80838400201
 20
202.071587176834
 30
0.0
 10
102.7790472797787
 20
202.0725553402854
 30
0.0
 10
102.7623016593017
 20
202.0731079752249
 30
0.0
 10
102.7453274719117
 20
202.0734346692006
 30
0.0
 10
102.7283534886631
 20
202.0735746009711
 30
0.0
 10
102.7241187633594
 20
202.0736095116106
 30
0.0
 10
102.7198811020875
 20
202.0736328512551
 30
0.0
 10
102.7156430072397
 20
202.0736452284605
 30
0.0
 10
102.7135241177714
 20
202.073651416602
 30
0.0
 10
102.7114049691349
 20
202.073654864983
 30
0.0
 10
102.7092858415516
 20
202.0736556483039
 30
0.0
 10
102.7087560708188
 20
202.07365584413
 30
0.0
 10
102.7082262983993
 20
202.0736558212157
 30
0.0
 10
102.7076965266973
 20
202.0736558212157
 30
0.0
 10
102.7055774418196
 20
202.0736558212157
 30
0.0
 10
102.703458356942
 20
202.0736558212157
 30
0.0
 10
102.7013392720644
 20
202.0736558212157
 30
0.0
 10
102.6928629325539
 20
202.0736558212157
 30
0.0
 10
102.6843865930434
 20
202.0736558212157
 30
0.0
 10
102.675910253533
 20
202.0736558212157
 30
0.0
 10
102.642004895491
 20
202.0736558212157
 30
0.0
 10
102.6080995374491
 20
202.0736558212157
 30
0.0
 10
102.5741941794072
 20
202.0736558212157
 30
0.0
 10
102.4241286398574
 20
202.0736558212157
 30
0.0
 10
102.2740631003076
 20
202.0736558212157
 30
0.0
 10
102.1239975607577
 20
202.0736558212157
 30
0.0
  0
LINE
  5
10B
330
D7
100
AcDbEntity
  8
52433115
  6
Continuous
 62
     7
 48
25.4
100
AcDbLine
 10
102.1239975608
 20
201.2285807348
 30
0.0
 11
103.5619034607
 21
201.2285807348
 31
0.0
  0
SPLINE
  5
10C
330
D7
100
AcDbEntity
  8
52433115
  6
Continuous
 62
     7
 48
25.4
100
AcDbSpline
210
0.0
220
0.0
230
1.0
 70
     8
 71
     3
 72
    68
 73
    64
 74
     0
 42
0.0000000001
 43
0.0000000001
 40
0.6647037250529801
 40
0.6647037250529801
 40
0.6647037250529801
 40
0.6647037250529801
 40
0.6659406825155472
 40
0.6659406825155472
 40
0.6659406825155472
 40
0.6667781908890167
 40
0.6667781908890167
 40
0.6667781908890167
 40
0.6671968382997474
 40
0.6671968382997474
 40
0.6671968382997474
 40
0.6673014923355886
 40
0.6673014923355886
 40
0.6673014923355886
 40
0.667720107561687
 40
0.667720107561687
 40
0.667720107561687
 40
0.6693945684660808
 40
0.6693945684660808
 40
0.6693945684660808
 40
0.6760924120836558
 40
0.6760924120836558
 40
0.6760924120836558
 40
0.6894880993188056
 40
0.6894880993188056
 40
0.6894880993188056
 40
0.6961859429363806
 40
0.6961859429363806
 40
0.6961859429363806
 40
0.6978604238853968
 40
0.6978604238853968
 40
0.6978604238853968
 40
0.7046976584648236
 40
0.7046976584648236
 40
0.7046976584648236
 40
0.7116145017973562
 40
0.7116145017973562
 40
0.7116145017973562
 40
0.7131297165637194
 40
0.7131297165637194
 40
0.7131297165637194
 40
0.7138864386876959
 40
0.7138864386876959
 40
0.7138864386876959
 40
0.7142647001438429
 40
0.7142647001438429
 40
0.7142647001438429
 40
0.7144538191279812
 40
0.7144538191279812
 40
0.7144538191279812
 40
0.7148320670287909
 40
0.7148320670287909
 40
0.7148320670287909
 40
0.7163461733792398
 40
0.7163461733792398
 40
0.7163461733792398
 40
0.7224996486315661
 40
0.7224996486315661
 40
0.7224996486315661
 40
0.7286752209154064
 40
0.7286752209154064
 40
0.7286752209154064
 40
0.7310066897468792
 40
0.7310066897468792
 40
0.7310066897468792
 40
0.7310066897468792
 10
113.468057097135
 20
202.0731342370164
 30
0.0
 10
113.4603513667813
 20
202.0733058264348
 30
0.0
 10
113.4526321423384
 20
202.0734341459403
 30
0.0
 10
113.4449214947205
 20
202.073519168921
 30
0.0
 10
113.4396348077898
 20
202.0735774636199
 30
0.0
 10
113.4343416462292
 20
202.0736167307362
 30
0.0
 10
113.4290474633521
 20
202.07363768273
 30
0.0
 10
113.4264007154833
 20
202.0736481573672
 30
0.0
 10
113.4237533813783
 20
202.0736540578312
 30
0.0
 10
113.4211060886851
 20
202.0736554813134
 30
0.0
 10
113.4204442904162
 20
202.0736558371706
 30
0.0
 10
113.419782487802
 20
202.0736558212157
 30
0.0
 10
113.4191206869709
 20
202.0736558212157
 30
0.0
 10
113.416473488408
 20
202.0736558212157
 30
0.0
 10
113.4138262898451
 20
202.0736558212157
 30
0.0
 10
113.4111790912821
 20
202.0736558212157
 30
0.0
 10
113.4005902970304
 20
202.0736558212157
 30
0.0
 10
113.3900015027787
 20
202.0736558212158
 30
0.0
 10
113.379412708527
 20
202.0736558212158
 30
0.0
 10
113.3370575315201
 20
202.0736558212158
 30
0.0
 10
113.2947023545133
 20
202.0736558212157
 30
0.0
 10
113.2523471775064
 20
202.0736558212157
 30
0.0
 10
113.1676368234927
 20
202.0736558212157
 30
0.0
 10
113.082926469479
 20
202.0736558212157
 30
0.0
 10
112.9982161154652
 20
202.0736558212157
 30
0.0
 10
112.9558609384584
 20
202.0736558212157
 30
0.0
 10
112.9135057614515
 20
202.0736558212157
 30
0.0
 10
112.8711505844447
 20
202.0736558212157
 30
0.0
 10
112.860561726815
 20
202.0736558212157
 30
0.0
 10
112.8499708285833
 20
202.0736765794427
 30
0.0
 10
112.8393842016894
 20
202.0736345835344
 30
0.0
 10
112.7965965885096
 20
202.0734648500869
 30
0.0
 10
112.7532631042618
 20
202.0722206397814
 30
0.0
 10
112.7127229720736
 20
202.0695982095941
 30
0.0
 10
112.6718905074895
 20
202.0669568692243
 30
0.0
 10
112.6330193609976
 20
202.0627958935552
 30
0.0
 10
112.6000530569456
 20
202.0576521603588
 30
0.0
 10
112.592708818926
 20
202.0565062387279
 30
0.0
 10
112.5856073914076
 20
202.0553104269238
 30
0.0
 10
112.5787670537772
 20
202.0540745225634
 30
0.0
 10
112.5753489319234
 20
202.0534569402258
 30
0.0
 10
112.571993928827
 20
202.0528290195125
 30
0.0
 10
112.5687033682956
 20
202.0521919796924
 30
0.0
 10
112.5670583078086
 20
202.0518735023307
 30
0.0
 10
112.5654291336211
 20
202.0515527054909
 30
0.0
 10
112.5638159564674
 20
202.0512297391432
 30
0.0
 10
112.5630093931335
 20
202.0510682610232
 30
0.0
 10
112.5622069736782
 20
202.0509062081201
 30
0.0
 10
112.5614081683253
 20
202.0507436864891
 30
0.0
 10
112.5598105373911
 20
202.0504186391117
 30
0.0
 10
112.5582248207796
 20
202.0500921026115
 30
0.0
 10
112.5566514709722
 20
202.0497641003398
 30
0.0
 10
112.5503557528043
 20
202.048451607815
 30
0.0
 10
112.544254952317
 20
202.0471149366045
 30
0.0
 10
112.538379247759
 20
202.0457560974539
 30
0.0
 10
112.5146886356331
 20
202.0402773108776
 30
0.0
 10
112.494490154688
 20
202.0343593382619
 30
0.0
 10
112.4797081460212
 20
202.0282972375993
 30
0.0
 10
112.4648907972253
 20
202.0222206439523
 30
0.0
 10
112.4553342012121
 20
202.0158974257943
 30
0.0
 10
112.4513994266415
 20
202.0097716006329
 30
0.0
 10
112.4499149389626
 20
202.0074604867907
 30
0.0
 10
112.4491363715395
 20
202.005161037031
 30
0.0
 10
112.4490668837195
 20
202.0028887878025
 30
0.0
  0
SPLINE
  5
10D
330
D7
100
AcDbEntity
  8
52433115
  6
Continuous
 62
     7
 48
25.4
100
AcDbSpline
210
0.0
220
0.0
230
1.0
 70
     8
 71
     3
 72
    50
 73
    46
 74
     0
 42
0.0000000001
 43
0.0000000001
 40
0.7935922019265587
 40
0.7935922019265587
 40
0.7935922019265587
 40
0.7935922019265587
 40
0.7999007149792908
 40
0.7999007149792908
 40
0.7999007149792908
 40
0.8007642406537926
 40
0.8007642406537926
 40
0.8007642406537926
 40
0.8042179186172559
 40
0.8042179186172559
 40
0.8042179186172559
 40
0.8180326304711094
 40
0.8180326304711094
 40
0.8180326304711094
 40
0.8732914778865231
 40
0.8732914778865231
 40
0.8732914778865231
 40
0.930433747123137
 40
0.930433747123137
 40
0.930433747123137
 40
0.9590048817414438
 40
0.9590048817414438
 40
0.9590048817414438
 40
0.9661476653960204
 40
0.9661476653960204
 40
0.9661476653960204
 40
0.966594089374463
 40
0.966594089374463
 40
0.966594089374463
 40
0.9683818662281144
 40
0.9683818662281144
 40
0.9683818662281144
 40
0.9757197776644407
 40
0.9757197776644407
 40
0.9757197776644407
 40
0.9831139284466318
 40
0.9831139284466318
 40
0.9831139284466318
 40
0.9896232456247027
 40
0.9896232456247027
 40
0.9896232456247027
 40
0.9970420272629025
 40
0.9970420272629025
 40
0.9970420272629025
 40
1.0
 40
1.0
 40
1.0
 40
1.0
 10
112.4492626363806
 20
201.8969341445817
 30
0.0
 10
112.4115317465102
 20
201.8961900946677
 30
0.0
 10
112.3713575533208
 20
201.8958409143986
 30
0.0
 10
112.3316282782637
 20
201.895794097091
 30
0.0
 10
112.3261324153462
 20
201.8957876207205
 30
0.0
 10
112.3206345446412
 20
201.8957884760156
 30
0.0
 10
112.3151375336809
 20
201.8957884760156
 30
0.0
 10
112.2931518092482
 20
201.8957884760156
 30
0.0
 10
112.2711660848155
 20
201.8957884760156
 30
0.0
 10
112.2491803603828
 20
201.8957884760156
 30
0.0
 10
112.1612374626521
 20
201.8957884760156
 30
0.0
 10
112.0732945649213
 20
201.8957884760156
 30
0.0
 10
111.9853516671905
 20
201.8957884760156
 30
0.0
 10
111.6335800762674
 20
201.8957884760156
 30
0.0
 10
111.2818084853443
 20
201.8957884760156
 30
0.0
 10
110.9300368944212
 20
201.8957884760156
 30
0.0
 10
110.5662756525841
 20
201.8957884760156
 30
0.0
 10
110.2025144107469
 20
201.8957884760156
 30
0.0
 10
109.8387531689098
 20
201.8957884760156
 30
0.0
 10
109.6568725479912
 20
201.8957884760156
 30
0.0
 10
109.4749919270726
 20
201.8957884760156
 30
0.0
 10
109.2931113061541
 20
201.8957884760156
 30
0.0
 10
109.2476411509244
 20
201.8957884760156
 30
0.0
 10
109.2021709956947
 20
201.8957884760156
 30
0.0
 10
109.1567008404651
 20
201.8957884760156
 30
0.0
 10
109.1538589557632
 20
201.8957884760156
 30
0.0
 10
109.1510170706656
 20
201.8957885583432
 30
0.0
 10
109.1481751863596
 20
201.8957884718743
 30
0.0
 10
109.1368010267837
 20
201.8957881257971
 30
0.0
 10
109.1254196416564
 20
201.895766039195
 30
0.0
 10
109.1140731892518
 20
201.8957203951004
 30
0.0
 10
109.0680975827871
 20
201.8955354461085
 30
0.0
 10
109.0217958345373
 20
201.8949329426013
 30
0.0
 10
108.9795688937934
 20
201.8939277279572
 30
0.0
 10
108.9371268970135
 20
201.8929173938923
 30
0.0
 10
108.897769421351
 20
201.8914727553919
 30
0.0
 10
108.8652178216285
 20
201.8899297911559
 30
0.0
 10
108.8363570441123
 20
201.8885617739797
 30
0.0
 10
108.811199415407
 20
201.8871148079857
 30
0.0
 10
108.7921859988358
 20
201.8857591925415
 30
0.0
 10
108.7706198214341
 20
201.884221570776
 30
0.0
 10
108.7566949468796
 20
201.882773215703
 30
0.0
 10
108.7509091964337
 20
201.8816479595398
 30
0.0
 10
108.7485711240683
 20
201.8811932336812
 30
0.0
 10
108.7474694433983
 20
201.880784927065
 30
0.0
 10
108.7474694433983
 20
201.8804291596087
 30
0.0
  0
LINE
  5
10E
330
D7
100
AcDbEntity
  8
52433115
  6
Continuous
 62
     7
 48
25.4
100
AcDbLine
 10
114.3505830243
 20
201.2285807348
 30
0.0
 11
112.4491809348
 21
201.2285807348
 31
0.0
  0
LINE
  5
10F
330
D7
100
AcDbEntity
  8
52433115
  6
Continuous
 62
     7
 48
25.4
100
AcDbLine
 10
112.4236287258
 20
201.2285807348
 30
0.0
 11
108.7474694434
 21
201.2285807348
 31
0.0
  0
SPLINE
  5
110
330
D7
100
AcDbEntity
  8
52433115
  6
Continuous
 62
     7
 48
25.4
100
AcDbSpline
210
0.0
220
0.0
230
1.0
 70
     8
 71
     3
 72
    53
 73
    49
 74
     0
 42
0.0000000001
 43
0.0000000001
 40
0.0195625594096186
 40
0.0195625594096186
 40
0.0195625594096186
 40
0.0195625594096186
 40
0.026547351705452
 40
0.026547351705452
 40
0.026547351705452
 40
0.0342568163578682
 40
0.0342568163578682
 40
0.0342568163578682
 40
0.0378838873424798
 40
0.0378838873424798
 40
0.0378838873424798
 40
0.0447584784048953
 40
0.0447584784048953
 40
0.0447584784048953
 40
0.0513971391018464
 40
0.0513971391018464
 40
0.0513971391018464
 40
0.0531065810225966
 40
0.0531065810225966
 40
0.0531065810225966
 40
0.0535334750456262
 40
0.0535334750456262
 40
0.0535334750456262
 40
0.0537469117998963
 40
0.0537469117998963
 40
0.0537469117998963
 40
0.053853628782859
 40
0.053853628782859
 40
0.053853628782859
 40
0.0542804962036005
 40
0.0542804962036005
 40
0.0542804962036005
 40
0.0559879658865664
 40
0.0559879658865664
 40
0.0559879658865664
 40
0.0628178446184302
 40
0.0628178446184302
 40
0.0628178446184302
 40
0.0764776020821578
 40
0.0764776020821578
 40
0.0764776020821578
 40
0.0833074808140216
 40
0.0833074808140216
 40
0.0833074808140216
 40
0.0841612169834738
 40
0.0841612169834738
 40
0.0841612169834738
 40
0.0865478176300515
 40
0.0865478176300515
 40
0.0865478176300515
 40
0.0865478176300515
 10
112.4540719804936
 20
222.4543314688074
 30
0.0
 10
112.4540807021819
 20
222.447660517075
 30
0.0
 10
112.4602555380306
 20
222.4406265135156
 30
0.0
 10
112.4733248684508
 20
222.4337754037176
 30
0.0
 10
112.4877148810444
 20
222.4262319754695
 30
0.0
 10
112.510909469885
 20
222.4187441559328
 30
0.0
 10
112.5399418992077
 20
222.4120299030687
 30
0.0
 10
112.5537656141261
 20
222.408832929214
 30
0.0
 10
112.568904036995
 20
222.4057546878049
 30
0.0
 10
112.5852706548194
 20
222.4028924572381
 30
0.0
 10
112.6159343717627
 20
222.3975299181436
 30
0.0
 10
112.6519874407261
 20
222.3928916077975
 30
0.0
 10
112.6907936031247
 20
222.3896603219988
 30
0.0
 10
112.7283499605779
 20
222.3865331041295
 30
0.0
 10
112.769242886039
 20
222.3846432432788
 30
0.0
 10
112.8100611362544
 20
222.3839030493312
 30
0.0
 10
112.8206898336424
 20
222.3837103096269
 30
0.0
 10
112.831359721559
 20
222.3835906773721
 30
0.0
 10
112.8420316915605
 20
222.3835377127801
 30
0.0
 10
112.8446981757825
 20
222.3835244791176
 30
0.0
 10
112.8473652945078
 20
222.3835153992928
 30
0.0
 10
112.8500325310501
 20
222.3835103670908
 30
0.0
 10
112.8513661169037
 20
222.3835078510509
 30
0.0
 10
112.8526997638864
 20
222.3835063467619
 30
0.0
 10
112.8540334107331
 20
222.3835058408377
 30
0.0
 10
112.8547002297781
 20
222.3835055878772
 30
0.0
 10
112.8553670511449
 20
222.3835056483316
 30
0.0
 10
112.8560338714748
 20
222.3835056483316
 30
0.0
 10
112.8587011499315
 20
222.3835056483316
 30
0.0
 10
112.8613684283882
 20
222.3835056483316
 30
0.0
 10
112.8640357068449
 20
222.3835056483316
 30
0.0
 10
112.8747048206717
 20
222.3835056483316
 30
0.0
 10
112.8853739344985
 20
222.3835056483316
 30
0.0
 10
112.8960430483253
 20
222.3835056483316
 30
0.0
 10
112.9387195036325
 20
222.3835056483316
 30
0.0
 10
112.9813959589397
 20
222.3835056483316
 30
0.0
 10
113.0240724142469
 20
222.3835056483316
 30
0.0
 10
113.1094253248614
 20
222.3835056483316
 30
0.0
 10
113.1947782354758
 20
222.3835056483316
 30
0.0
 10
113.2801311460903
 20
222.3835056483316
 30
0.0
 10
113.3228076013975
 20
222.3835056483316
 30
0.0
 10
113.3654840567047
 20
222.3835056483316
 30
0.0
 10
113.408160512012
 20
222.3835056483316
 30
0.0
 10
113.4134950730734
 20
222.3835056483316
 30
0.0
 10
113.4188298501047
 20
222.3834999664327
 30
0.0
 10
113.4241641827473
 20
222.3835095056128
 30
0.0
 10
113.4390365878039
 20
222.3835361013576
 30
0.0
 10
113.4539360147241
 20
222.3837022866514
 30
0.0
 10
113.468733542999
 20
222.3840216594684
 30
0.0
  0
SPLINE
  5
111
330
D7
100
AcDbEntity
  8
52433115
  6
Continuous
 62
     7
 48
25.4
100
AcDbSpline
210
0.0
220
0.0
230
1.0
 70
     8
 71
     3
 72
    83
 73
    79
 74
     0
 42
0.0000000001
 43
0.0000000001
 40
0.748769159267497
 40
0.748769159267497
 40
0.748769159267497
 40
0.748769159267497
 40
0.7487823065752518
 40
0.7487823065752518
 40
0.7487823065752518
 40
0.7487954538829924
 40
0.7487954538829924
 40
0.7487954538829924
 40
0.7488480431631643
 40
0.7488480431631643
 40
0.7488480431631643
 40
0.7490584032756518
 40
0.7490584032756518
 40
0.7490584032756518
 40
0.7499000446089025
 40
0.7499000446089025
 40
0.7499000446089025
 40
0.7532821964922354
 40
0.7532821964922354
 40
0.7532821964922354
 40
0.7602113102006506
 40
0.7602113102006506
 40
0.7602113102006506
 40
0.766885472286838
 40
0.766885472286838
 40
0.766885472286838
 40
0.7737827898333322
 40
0.7737827898333322
 40
0.7737827898333322
 40
0.7813990227166529
 40
0.7813990227166529
 40
0.7813990227166529
 40
0.7822629933671244
 40
0.7822629933671244
 40
0.7822629933671244
 40
0.7826948469494184
 40
0.7826948469494184
 40
0.7826948469494184
 40
0.7844222386006404
 40
0.7844222386006404
 40
0.7844222386006404
 40
0.7913318052055284
 40
0.7913318052055284
 40
0.7913318052055284
 40
0.81897007162508
 40
0.81897007162508
 40
0.81897007162508
 40
0.9295231373032868
 40
0.9295231373032868
 40
0.9295231373032868
 40
0.9433422705130627
 40
0.9433422705130627
 40
0.9433422705130627
 40
0.9467970538155068
 40
0.9467970538155068
 40
0.9467970538155068
 40
0.9485244454667288
 40
0.9485244454667288
 40
0.9485244454667288
 40
0.9493881412923398
 40
0.9493881412923398
 40
0.9493881412923398
 40
0.9498199892051453
 40
0.9498199892051453
 40
0.9498199892051453
 40
0.9498739701949225
 40
0.9498739701949225
 40
0.9498739701949225
 40
0.9500898986131023
 40
0.9500898986131023
 40
0.9500898986131023
 40
0.9509538941610514
 40
0.9509538941610514
 40
0.9509538941610514
 40
0.954431094189122
 40
0.954431094189122
 40
0.954431094189122
 40
0.9570827053512248
 40
0.9570827053512248
 40
0.9570827053512248
 40
0.9570827053512248
 10
108.7474694433983
 20
222.5767411690733
 30
0.0
 10
108.7474694433983
 20
222.5767396021044
 30
0.0
 10
108.7474694433983
 20
222.5767380341345
 30
0.0
 10
108.7474694433983
 20
222.5767364651636
 30
0.0
 10
108.7474694433983
 20
222.5767348961927
 30
0.0
 10
108.7474694395087
 20
222.5767333262208
 30
0.0
 10
108.7474694442323
 20
222.576731755248
 30
0.0
 10
108.7474694631266
 20
222.5767254713536
 30
0.0
 10
108.7474698030813
 20
222.5767191714409
 30
0.0
 10
108.7474704650163
 20
222.5767128555275
 30
0.0
 10
108.747473112775
 20
222.5766875916944
 30
0.0
 10
108.7474809123645
 20
222.5766620715993
 30
0.0
 10
108.7474939226227
 20
222.5766362964491
 30
0.0
 10
108.7475459698686
 20
222.5765331835392
 30
0.0
 10
108.747681430873
 20
222.5764259697578
 30
0.0
 10
108.7479040429476
 20
222.5763147501653
 30
0.0
 10
108.7487965518917
 20
222.5758688422724
 30
0.0
 10
108.7511011841174
 20
222.5753563138368
 30
0.0
 10
108.7550300076589
 20
222.5747888851807
 30
0.0
 10
108.762983922796
 20
222.5736401241512
 30
0.0
 10
108.7781155687841
 20
222.5722307795409
 30
0.0
 10
108.8001452771558
 20
222.5707900539255
 30
0.0
 10
108.8213963379151
 20
222.5694002512521
 30
0.0
 10
108.8497178463322
 20
222.5679709506863
 30
0.0
 10
108.8812794058406
 20
222.5666669831276
 30
0.0
 10
108.9139245126506
 20
222.5653182487528
 30
0.0
 10
108.9509173098618
 20
222.5640485800251
 30
0.0
 10
108.9905459683799
 20
222.563124890489
 30
0.0
 10
109.0341187429783
 20
222.5621092690307
 30
0.0
 10
109.0819558905247
 20
222.5615118539651
 30
0.0
 10
109.1292864465029
 20
222.561396210816
 30
0.0
 10
109.1347389619261
 20
222.5613828886388
 30
0.0
 10
109.1401966299004
 20
222.561375383319
 30
0.0
 10
109.1456539484279
 20
222.5613734800567
 30
0.0
 10
109.1483821854372
 20
222.5613725285729
 30
0.0
 10
109.1511105179738
 20
222.5613729935317
 30
0.0
 10
109.153838804923
 20
222.5613729935317
 30
0.0
 10
109.164751815252
 20
222.5613729935317
 30
0.0
 10
109.175664825581
 20
222.5613729935317
 30
0.0
 10
109.18657783591
 20
222.5613729935317
 30
0.0
 10
109.230229877226
 20
222.5613729935317
 30
0.0
 10
109.273881918542
 20
222.5613729935317
 30
0.0
 10
109.3175339598579
 20
222.5613729935317
 30
0.0
 10
109.4921421251219
 20
222.5613729935317
 30
0.0
 10
109.6667502903858
 20
222.5613729935317
 30
0.0
 10
109.8413584556497
 20
222.5613729935317
 30
0.0
 10
110.5397911167054
 20
222.5613729935317
 30
0.0
 10
111.2382237777612
 20
222.5613729935317
 30
0.0
 10
111.9366564388169
 20
222.5613729935317
 30
0.0
 10
112.0239605214489
 20
222.5613729935317
 30
0.0
 10
112.1112646040808
 20
222.5613729935317
 30
0.0
 10
112.1985686867128
 20
222.5613729935317
 30
0.0
 10
112.2203947073708
 20
222.5613729935317
 30
0.0
 10
112.2422207280288
 20
222.5613729935317
 30
0.0
 10
112.2640467486868
 20
222.5613729935317
 30
0.0
 10
112.2749597590158
 20
222.5613729935317
 30
0.0
 10
112.2858727693448
 20
222.5613729935317
 30
0.0
 10
112.2967857796738
 20
222.5613729935317
 30
0.0
 10
112.3022422848383
 20
222.5613729935317
 30
0.0
 10
112.3076987900028
 20
222.5613729935317
 30
0.0
 10
112.3131552951673
 20
222.5613729935317
 30
0.0
 10
112.3158835477495
 20
222.5613729935317
 30
0.0
 10
112.3186118003318
 20
222.5613729935317
 30
0.0
 10
112.321340052914
 20
222.5613729935317
 30
0.0
 10
112.3216810844889
 20
222.5613729935317
 30
0.0
 10
112.3220221161445
 20
222.5613730009576
 30
0.0
 10
112.3223631476323
 20
222.561372986909
 30
0.0
 10
112.3237272877883
 20
222.5613729307138
 30
0.0
 10
112.3250914379149
 20
222.5613725167976
 30
0.0
 10
112.326455512109
 20
222.5613717414945
 30
0.0
 10
112.3319126993447
 20
222.5613686397757
 30
0.0
 10
112.3373698934183
 20
222.5613597522006
 30
0.0
 10
112.3428212241541
 20
222.5613448445928
 30
0.0
 10
112.3646934310026
 20
222.5612850312558
 30
0.0
 10
112.3865671665893
 20
222.5611274570649
 30
0.0
 10
112.4079759924362
 20
222.5608585675234
 30
0.0
 10
112.4241265471716
 20
222.5606557205626
 30
0.0
 10
112.4401284343762
 20
222.560385570431
 30
0.0
 10
112.4557694737398
 20
222.5600474695717
 30
0.0
  0
LINE
  5
112
330
D7
100
AcDbEntity
  8
52433115
  6
Continuous
 62
     7
 48
25.4
100
AcDbLine
 10
114.3562448425
 20
223.2285807348
 30
0.0
 11
112.4540709104
 21
223.2285807348
 31
0.0
  0
LINE
  5
113
330
D7
100
AcDbEntity
  8
52433115
  6
Continuous
 62
     7
 48
25.4
100
AcDbLine
 10
112.4283620468
 20
223.2285807348
 30
0.0
 11
108.7474694434
 21
223.2285807348
 31
0.0
  0
SPLINE
  5
114
330
D7
100
AcDbEntity
  8
52433115
  6
Continuous
 62
     7
 48
25.4
100
AcDbSpline
210
0.0
220
0.0
230
1.0
 70
     8
 71
     3
 72
    89
 73
    85
 74
     0
 42
0.0000000001
 43
0.0000000001
 40
0.3794113629507182
 40
0.3794113629507182
 40
0.3794113629507182
 40
0.3794113629507182
 40
0.3796695005566018
 40
0.3796695005566018
 40
0.3796695005566018
 40
0.3811460805141355
 40
0.3811460805141355
 40
0.3811460805141355
 40
0.3870706287739816
 40
0.3870706287739816
 40
0.3870706287739816
 40
0.4029837120463328
 40
0.4029837120463328
 40
0.4029837120463328
 40
0.4188183243238691
 40
0.4188183243238691
 40
0.4188183243238691
 40
0.4367956026080786
 40
0.4367956026080786
 40
0.4367956026080786
 40
0.4536127701062718
 40
0.4536127701062718
 40
0.4536127701062718
 40
0.45549012521124
 40
0.45549012521124
 40
0.45549012521124
 40
0.4564285749110143
 40
0.4564285749110143
 40
0.4564285749110143
 40
0.4568977734463994
 40
0.4568977734463994
 40
0.4568977734463994
 40
0.4571323688411327
 40
0.4571323688411327
 40
0.4571323688411327
 40
0.4580707497696811
 40
0.4580707497696811
 40
0.4580707497696811
 40
0.4618242734838747
 40
0.4618242734838747
 40
0.4618242734838747
 40
0.4768383683406499
 40
0.4768383683406499
 40
0.4768383683406499
 40
0.53689474776775
 40
0.53689474776775
 40
0.53689474776775
 40
0.5406482714819443
 40
0.5406482714819443
 40
0.5406482714819443
 40
0.5425250333390416
 40
0.5425250333390416
 40
0.5425250333390416
 40
0.5426423309551106
 40
0.5426423309551106
 40
0.5426423309551106
 40
0.5427009797631552
 40
0.5427009797631552
 40
0.5427009797631552
 40
0.5429355759976776
 40
0.5429355759976776
 40
0.5429355759976776
 40
0.543874022690238
 40
0.543874022690238
 40
0.543874022690238
 40
0.547632132105412
 40
0.547632132105412
 40
0.547632132105412
 40
0.5630383300671313
 40
0.5630383300671313
 40
0.5630383300671313
 40
0.5784198401228635
 40
0.5784198401228635
 40
0.5784198401228635
 40
0.5954200131079086
 40
0.5954200131079086
 40
0.5954200131079086
 40
0.6129689174963677
 40
0.6129689174963677
 40
0.6129689174963677
 40
0.6206826805980116
 40
0.6206826805980116
 40
0.6206826805980116
 40
0.620885699223656
 40
0.620885699223656
 40
0.620885699223656
 40
0.620885699223656
 10
102.7768092567041
 20
222.4412271446154
 30
0.0
 10
102.7768092084271
 20
222.4411354916756
 30
0.0
 10
102.776809152023
 20
222.4410437931734
 30
0.0
 10
102.7768093110482
 20
222.4409520491158
 30
0.0
 10
102.7768102206094
 20
222.4404273094465
 30
0.0
 10
102.776854387318
 20
222.4399010309113
 30
0.0
 10
102.7769430079487
 20
222.4393735096494
 30
0.0
 10
102.7772980373665
 20
222.4372601691652
 30
0.0
 10
102.7783711624786
 20
222.4351221134482
 30
0.0
 10
102.7802200828357
 20
222.4329825300067
 30
0.0
 10
102.7851249354819
 20
222.4273066005571
 30
0.0
 10
102.7958678886528
 20
222.4215154340178
 30
0.0
 10
102.8117395110885
 20
222.4161473680158
 30
0.0
 10
102.8275697350808
 20
222.4107933037062
 30
0.0
 10
102.8487136016627
 20
222.4057419233587
 30
0.0
 10
102.8727539751156
 20
222.4012529241259
 30
0.0
 10
102.8999223827824
 20
222.3961798348325
 30
0.0
 10
102.9319897382201
 20
222.3916745094589
 30
0.0
 10
102.9671551904107
 20
222.3886047780494
 30
0.0
 10
103.0000674653131
 20
222.3857317353973
 30
0.0
 10
103.0364892395402
 20
222.3840751338503
 30
0.0
 10
103.0726142231992
 20
222.3836372829144
 30
0.0
 10
103.0767110417544
 20
222.3835876276439
 30
0.0
 10
103.0808131638209
 20
222.3835523741318
 30
0.0
 10
103.0849165386636
 20
222.3835309333062
 30
0.0
 10
103.0869679721815
 20
222.38352021422
 30
0.0
 10
103.0890199626789
 20
222.3835129447851
 30
0.0
 10
103.0910720469603
 20
222.3835090462354
 30
0.0
 10
103.0920980600296
 20
222.3835070970158
 30
0.0
 10
103.0931241250103
 20
222.3835059903461
 30
0.0
 10
103.094150186684
 20
222.3835057161272
 30
0.0
 10
103.0946632132675
 20
222.3835055790189
 30
0.0
 10
103.0951762407923
 20
222.3835056483316
 30
0.0
 10
103.0956892678665
 20
222.3835056483316
 30
0.0
 10
103.0977413747941
 20
222.3835056483316
 30
0.0
 10
103.0997934817218
 20
222.3835056483316
 30
0.0
 10
103.1018455886494
 20
222.3835056483316
 30
0.0
 10
103.1100540163601
 20
222.3835056483316
 30
0.0
 10
103.1182624440708
 20
222.3835056483316
 30
0.0
 10
103.1264708717814
 20
222.3835056483316
 30
0.0
 10
103.1593045826241
 20
222.3835056483316
 30
0.0
 10
103.1921382934667
 20
222.3835056483316
 30
0.0
 10
103.2249720043093
 20
222.3835056483316
 30
0.0
 10
103.3563068476799
 20
222.3835056483316
 30
0.0
 10
103.4876416910504
 20
222.3835056483316
 30
0.0
 10
103.618976534421
 20
222.3835056483316
 30
0.0
 10
103.6271849621316
 20
222.3835056483316
 30
0.0
 10
103.6353933898423
 20
222.3835056483316
 30
0.0
 10
103.643601817553
 20
222.3835056483316
 30
0.0
 10
103.6477060314083
 20
222.3835056483316
 30
0.0
 10
103.6518102452636
 20
222.3835056483316
 30
0.0
 10
103.6559144591189
 20
222.3835056483316
 30
0.0
 10
103.6561709724849
 20
222.3835056483316
 30
0.0
 10
103.6564274858509
 20
222.3835056483316
 30
0.0
 10
103.6566839992168
 20
222.3835056483316
 30
0.0
 10
103.6568122558998
 20
222.3835056483316
 30
0.0
 10
103.6569405125846
 20
222.3835056451397
 30
0.0
 10
103.6570687692657
 20
222.38350564939
 30
0.0
 10
103.6575817970891
 20
222.3835056663912
 30
0.0
 10
103.6580948258382
 20
222.3835058882467
 30
0.0
 10
103.6586078488914
 20
222.3835063160889
 30
0.0
 10
103.6606600086353
 20
222.3835080275142
 30
0.0
 10
103.6627121687675
 20
222.3835130353408
 30
0.0
 10
103.6647638898869
 20
222.3835214102131
 30
0.0
 10
103.6729755003841
 20
222.3835549289933
 30
0.0
 10
103.68118674296
 20
222.3836425237518
 30
0.0
 10
103.6893654980534
 20
222.3837881308152
 30
0.0
 10
103.7224852692663
 20
222.384377764882
 30
0.0
 10
103.7556037500769
 20
222.3859873146707
 30
0.0
 10
103.7859882780917
 20
222.388567719598
 30
0.0
 10
103.8163642700865
 20
222.3911473996041
 30
0.0
 10
103.844643627092
 20
222.3947290227598
 30
0.0
 10
103.869566058206
 20
222.398813629625
 30
0.0
 10
103.897066595983
 20
222.4033207695942
 30
0.0
 10
103.9215290863838
 20
222.4085567996951
 30
0.0
 10
103.9396947648998
 20
222.4142154029115
 30
0.0
 10
103.9583886619929
 20
222.4200385460507
 30
0.0
 10
103.970796396965
 20
222.4264501691522
 30
0.0
 10
103.9762118267083
 20
222.4327018115071
 30
0.0
 10
103.9786266459249
 20
222.4354895101404
 30
0.0
 10
103.9797432820291
 20
222.4382746762953
 30
0.0
 10
103.9797432820291
 20
222.4410106560801
 30
0.0
 10
103.9797432820291
 20
222.4410828412126
 30
0.0
 10
103.9797432820291
 20
222.4411549981291
 30
0.0
 10
103.9797432820291
 20
222.4412271268287
 30
0.0
  0
LINE
  5
115
330
D7
100
AcDbEntity
  8
52433115
  6
Continuous
 62
     7
 48
25.4
100
AcDbLine
 10
103.979743282
 20
223.2285807348
 30
0.0
 11
102.7768092967
 21
223.2285807348
 31
0.0
  0
LINE
  5
116
330
D7
100
AcDbEntity
  8
52433115
  6
Continuous
 62
     7
 48
25.4
100
AcDbLine
 10
101.8085941378
 20
223.2285807348
 30
0.0
 11
102.7768092967
 21
223.2285807348
 31
0.0
  0
LINE
  5
117
330
D7
100
AcDbEntity
  8
52433115
  6
Continuous
 62
     7
 48
25.4
100
AcDbLine
 10
104.4958228965
 20
223.2285807348
 30
0.0
 11
103.979743282
 21
223.2285807348
 31
0.0
  0
SPLINE
  5
118
330
D7
100
AcDbEntity
  8
52433115
  6
Continuous
 62
     7
 48
25.4
100
AcDbSpline
210
0.0
220
0.0
230
1.0
 70
     8
 71
     3
 72
    10
 73
     6
 74
     0
 42
0.0000000001
 43
0.0000000001
 40
0.0
 40
0.0
 40
0.0
 40
0.0
 40
0.0312500000000003
 40
0.0312500000000003
 40
0.0392463718216837
 40
0.0392463718216837
 40
0.0392463718216837
 40
0.0392463718216837
 10
107.9186185876526
 20
222.3835056483316
 30
0.0
 10
108.0557314153048
 20
222.3835056483316
 30
0.0
 10
108.1851853322642
 20
222.4029816909427
 30
0.0
 10
108.2334664769779
 20
222.4311386339665
 30
0.0
 10
108.2370365721533
 20
222.4367422986783
 30
0.0
 10
108.2362568948498
 20
222.442192988874
 30
0.0
  0
SPLINE
  5
119
330
D7
100
AcDbEntity
  8
52433115
  6
Continuous
 62
     7
 48
25.4
100
AcDbSpline
210
0.0
220
0.0
230
1.0
 70
     8
 71
     3
 72
    21
 73
    17
 74
     0
 42
0.0000000001
 43
0.0000000001
 40
0.7410628587177016
 40
0.7410628587177016
 40
0.7410628587177016
 40
0.7410628587177016
 40
0.750000000000002
 40
0.750000000000002
 40
0.7812500000000018
 40
0.7812500000000018
 40
0.8125000000000016
 40
0.8437500000000012
 40
0.8437500000000012
 40
0.875000000000001
 40
0.875000000000001
 40
0.9062500000000007
 40
0.9062500000000007
 40
0.9375000000000004
 40
0.9375000000000004
 40
0.9516540564998997
 40
0.9516540564998997
 40
0.9516540564998997
 40
0.9516540564998997
 10
104.5215752674578
 20
222.4409303516567
 30
0.0
 10
104.5208781823199
 20
222.4347989104317
 30
0.0
 10
104.5259113662602
 20
222.4285340712197
 30
0.0
 10
104.5876973811616
 20
222.4000507289226
 30
0.0
 10
104.7197502274467
 20
222.3835056483316
 30
0.0
 10
104.9925664226311
 20
222.3835056483316
 30
0.0
 10
105.2653826178156
 20
222.3835056483316
 30
0.0
 10
105.5381988130001
 20
222.3835056483316
 30
0.0
 10
105.8110150081845
 20
222.3835056483316
 30
0.0
 10
105.9514900524381
 20
222.3791716859076
 30
0.0
 10
106.2137919820063
 20
222.3921631868204
 30
0.0
 10
106.2771163833819
 20
222.4189357248876
 30
0.0
 10
106.3571173634085
 20
222.4615616676959
 30
0.0
 10
106.3963985059959
 20
222.4804507508324
 30
0.0
 10
106.4570395506074
 20
222.5041942394301
 30
0.0
 10
106.4794683688577
 20
222.5111381065323
 30
0.0
 10
106.4807587506393
 20
222.517824767724
 30
0.0
  0
LINE
  5
11A
330
D7
100
AcDbEntity
  8
52433115
  6
Continuous
 62
     7
 48
25.4
100
AcDbLine
 10
104.5200855803
 20
223.2285807348
 30
0.0
 11
106.4809657759
 21
223.2285807348
 31
0.0
  0
LINE
  5
11B
330
D7
100
AcDbEntity
  8
52433115
  6
Continuous
 62
     7
 48
25.4
100
AcDbLine
 10
107.9186185877
 20
223.2285807348
 30
0.0
 11
108.2364669984
 21
223.2285807348
 31
0.0
  0
SPLINE
  5
11C
330
D7
100
AcDbEntity
  8
52433115
  6
Continuous
 62
     7
 48
25.4
100
AcDbSpline
210
0.0
220
0.0
230
1.0
 70
     8
 71
     3
 72
    50
 73
    46
 74
     0
 42
0.0000000001
 43
0.0000000001
 40
0.112599571452998
 40
0.112599571452998
 40
0.112599571452998
 40
0.112599571452998
 40
0.4177345868181669
 40
0.4177345868181669
 40
0.4177345868181669
 40
0.6280996006655355
 40
0.6280996006655355
 40
0.6280996006655355
 40
0.6806463940901076
 40
0.6806463940901076
 40
0.6806463940901076
 40
0.7069519386523865
 40
0.7069519386523865
 40
0.7069519386523865
 40
0.7421070848555836
 40
0.7421070848555836
 40
0.7421070848555836
 40
0.7700632088304176
 40
0.7700632088304176
 40
0.7700632088304176
 40
0.7978604215246734
 40
0.7978604215246734
 40
0.7978604215246734
 40
0.8136089128043303
 40
0.8136089128043303
 40
0.8136089128043303
 40
0.8175309245677751
 40
0.8175309245677751
 40
0.8175309245677751
 40
0.8194916450135079
 40
0.8194916450135079
 40
0.8194916450135079
 40
0.81998180466648
 40
0.81998180466648
 40
0.81998180466648
 40
0.8219424411812987
 40
0.8219424411812987
 40
0.8219424411812987
 40
0.8297849872405742
 40
0.8297849872405742
 40
0.8297849872405742
 40
0.8611551714776737
 40
0.8611551714776737
 40
0.8611551714776737
 40
1.0
 40
1.0
 40
1.0
 40
1.0
 10
106.4839704730974
 20
222.5785668099426
 30
0.0
 10
106.5792956654598
 20
222.5785518940781
 30
0.0
 10
106.6742788511818
 20
222.5642777424552
 30
0.0
 10
106.7694180946161
 20
222.5357891972551
 30
0.0
 10
106.8350955621341
 20
222.5161227017641
 30
0.0
 10
106.900935817095
 20
222.4896785868107
 30
0.0
 10
106.967086839757
 20
222.456553900651
 30
0.0
 10
106.9836176031145
 20
222.4482762304631
 30
0.0
 10
107.0001699940588
 20
222.4395806503681
 30
0.0
 10
107.0167461004218
 20
222.4304691914213
 30
0.0
 10
107.0250392226328
 20
222.4259106756329
 30
0.0
 10
107.0330522396806
 20
222.4212032358167
 30
0.0
 10
107.0444948921818
 20
222.4166453376414
 30
0.0
 10
107.0596308619134
 20
222.4106162977126
 30
0.0
 10
107.0801453939973
 20
222.4046779625077
 30
0.0
 10
107.1061836398143
 20
222.3997043520105
 30
0.0
 10
107.1269564581876
 20
222.3957364999422
 30
0.0
 10
107.1517544385471
 20
222.3923171271823
 30
0.0
 10
107.178488493575
 20
222.389793029828
 30
0.0
 10
107.2051463405746
 20
222.3872761276592
 30
0.0
 10
107.2342321464003
 20
222.3855742927134
 30
0.0
 10
107.2635688686316
 20
222.384606129262
 30
0.0
 10
107.2803144891087
 20
222.3840534943225
 30
0.0
 10
107.2972886764986
 20
222.3837268003468
 30
0.0
 10
107.3142626597472
 20
222.3835868685763
 30
0.0
 10
107.3184973850509
 20
222.3835519579368
 30
0.0
 10
107.3227350463228
 20
222.3835286182923
 30
0.0
 10
107.3269731411706
 20
222.3835162410869
 30
0.0
 10
107.3290920306389
 20
222.3835100529454
 30
0.0
 10
107.3312111792754
 20
222.3835066045644
 30
0.0
 10
107.3333303068588
 20
222.3835058212435
 30
0.0
 10
107.3338600775916
 20
222.3835056254174
 30
0.0
 10
107.334389850011
 20
222.3835056483316
 30
0.0
 10
107.3349196217131
 20
222.3835056483316
 30
0.0
 10
107.3370387065907
 20
222.3835056483316
 30
0.0
 10
107.3391577914683
 20
222.3835056483316
 30
0.0
 10
107.341276876346
 20
222.3835056483316
 30
0.0
 10
107.3497532158564
 20
222.3835056483316
 30
0.0
 10
107.3582295553669
 20
222.3835056483316
 30
0.0
 10
107.3667058948774
 20
222.3835056483316
 30
0.0
 10
107.4006112529193
 20
222.3835056483316
 30
0.0
 10
107.4345166109612
 20
222.3835056483316
 30
0.0
 10
107.4684219690031
 20
222.3835056483316
 30
0.0
 10
107.618487508553
 20
222.3835056483316
 30
0.0
 10
107.7685530481028
 20
222.3835056483316
 30
0.0
 10
107.9186185876526
 20
222.3835056483316
 30
0.0
  0
LINE
  5
11D
330
D7
100
AcDbEntity
  8
52433115
  6
Continuous
 62
     7
 48
25.4
100
AcDbLine
 10
107.9186185877
 20
223.2285807348
 30
0.0
 11
106.4807126877
 21
223.2285807348
 31
0.0
  0
ELLIPSE
  5
11E
330
D7
100
AcDbEntity
  8
52433115
  6
Continuous
 62
     7
 48
25.4
100
AcDbEllipse
 10
111.5277136411
 20
212.2285807348
 30
0.0
 11
3.469446951953615E-15
 21
-5.999999999999994
 31
0.0
210
0.0
220
0.0
230
1.0
 40
0.8660254038
 41
0.0000000000000021
 42
3.141592653589793
  0
ELLIPSE
  5
11F
330
D7
100
AcDbEntity
  8
52433115
  6
Continuous
 62
     7
 48
25.4
100
AcDbEllipse
 10
101.6277136411
 20
212.2285807348
 30
0.0
 11
0.0
 21
-5.999999999999996
 31
0.0
210
0.0
220
0.0
230
1.0
 40
0.8660254038
 41
0.6358839787510715
 42
2.505708674838722
  0
ELLIPSE
  5
120
330
D7
100
AcDbEntity
  8
52433115
  6
Continuous
 62
     7
 48
25.4
100
AcDbEllipse
 10
96.1277136411
 20
212.2285807348
 30
0.0
 11
-1.040834085586084E-14
 21
5.500000000000002
 31
0.0
210
0.0
220
0.0
230
1.0
 40
0.8660254038
 41
0.0
 42
6.283185307179586
  0
ELLIPSE
  5
121
330
D7
100
AcDbEntity
  8
52433115
  6
Continuous
 62
     7
 48
25.4
100
AcDbEllipse
 10
96.5318588295
 20
212.2285807348
 30
0.0
 11
-1.734723475976807E-14
 21
6.900000000000004
 31
0.0
210
0.0
220
0.0
230
1.0
 40
0.8660254038
 41
0.0
 42
6.283185307179586
  0
ELLIPSE
  5
122
330
D7
100
AcDbEntity
  8
52433115
  6
Continuous
 62
     7
 48
25.4
100
AcDbEllipse
 10
98.9277136411
 20
212.2285807348
 30
0.0
 11
-1.040834085586084E-14
 21
6.9
 31
0.0
210
0.0
220
0.0
230
1.0
 40
0.8660254038
 41
3.141592653589793
 42
6.283185307179586
  0
ELLIPSE
  5
123
330
D7
100
AcDbEntity
  8
52433115
  6
Continuous
 62
     7
 48
25.4
100
AcDbEllipse
 10
100.0527136411
 20
212.2285807348
 30
0.0
 11
-1.734723475976807E-14
 21
6.000000000000004
 31
0.0
210
0.0
220
0.0
230
1.0
 40
0.8660254038
 41
3.831581618976245
 42
5.59319634179313
  0
ELLIPSE
  5
124
330
D7
100
AcDbEntity
  8
52433115
  6
Continuous
 62
     7
 48
25.4
100
AcDbEllipse
 10
100.0527136411
 20
212.2285807348
 30
0.0
 11
-3.469446951953614E-15
 21
6.749999999999995
 31
0.0
210
0.0
220
0.0
230
1.0
 40
0.8660254038
 41
3.16212210518193
 42
6.262655855587449
  0
ELLIPSE
  5
125
330
D7
100
AcDbEntity
  8
52433115
  6
Continuous
 62
     7
 48
25.4
100
AcDbEllipse
 10
100.6277136411
 20
212.2285807348
 30
0.0
 11
-1.387778780781446E-14
 21
-6.749999999999998
 31
0.0
210
0.0
220
0.0
230
1.0
 40
0.8660254038
 41
0.0
 42
3.141592653589793
  0
ELLIPSE
  5
126
330
D7
100
AcDbEntity
  8
52433115
  6
Continuous
 62
     7
 48
25.4
100
AcDbEllipse
 10
89.8770785465
 20
212.2285807348
 30
0.0
 11
3.469446951953615E-15
 21
5.999999999999994
 31
0.0
210
0.0
220
0.0
230
1.0
 40
0.8660254038
 41
3.141592653589794
 42
3.681958922019186
  0
ELLIPSE
  5
127
330
D7
100
AcDbEntity
  8
52433115
  6
Continuous
 62
     7
 48
25.4
100
AcDbEllipse
 10
89.8770785465
 20
212.2285807348
 30
0.0
 11
3.469446951953615E-15
 21
5.999999999999994
 31
0.0
210
0.0
220
0.0
230
1.0
 40
0.8660254038
 41
5.742819038750195
 42
6.283185307179586
  0
ELLIPSE
  5
128
330
D7
100
AcDbEntity
  8
52433115
  6
Continuous
 62
     7
 48
25.4
100
AcDbEllipse
 10
79.9770785465
 20
212.2285807348
 30
0.0
 11
6.938893903907229E-15
 21
5.999999999999995
 31
0.0
210
0.0
220
0.0
230
1.0
 40
0.8660254038
 41
3.777476632340498
 42
5.647301328428891
  0
ELLIPSE
  5
129
330
D7
100
AcDbEntity
  8
52433115
  6
Continuous
 62
     7
 48
25.4
100
AcDbEllipse
 10
74.4770785465
 20
212.2285807348
 30
0.0
 11
-6.938893903907228E-15
 21
-5.500000000000004
 31
0.0
210
0.0
220
0.0
230
1.0
 40
0.8660254038
 41
0.0
 42
6.283185307179586
  0
ELLIPSE
  5
12A
330
D7
100
AcDbEntity
  8
52433115
  6
Continuous
 62
     7
 48
25.4
100
AcDbEllipse
 10
74.8812237349
 20
212.2285807348
 30
0.0
 11
0.0
 21
6.900000000000001
 31
0.0
210
0.0
220
0.0
230
1.0
 40
0.8660254038
 41
0.0
 42
6.283185307179586
  0
ELLIPSE
  5
12B
330
D7
100
AcDbEntity
  8
52433115
  6
Continuous
 62
     7
 48
25.4
100
AcDbEllipse
 10
77.2770785465
 20
212.2285807348
 30
0.0
 11
-6.938893903907229E-15
 21
-6.9
 31
0.0
210
0.0
220
0.0
230
1.0
 40
0.8660254038
 41
0.0
 42
3.141592653589793
  0
ELLIPSE
  5
12C
330
D7
100
AcDbEntity
  8
52433115
  6
Continuous
 62
     7
 48
25.4
100
AcDbEllipse
 10
78.4020785465
 20
212.2285807348
 30
0.0
 11
0.0
 21
-6.000000000000005
 31
0.0
210
0.0
220
0.0
230
1.0
 40
0.8660254038
 41
0.6899889653861274
 42
2.451603688203666
  0
ELLIPSE
  5
12D
330
D7
100
AcDbEntity
  8
52433115
  6
Continuous
 62
     7
 48
25.4
100
AcDbEllipse
 10
78.4020785465
 20
212.2285807348
 30
0.0
 11
0.0
 21
6.75
 31
0.0
210
0.0
220
0.0
230
1.0
 40
0.8660254038
 41
3.162122105181762
 42
6.262655855587617
  0
ELLIPSE
  5
12E
330
D7
100
AcDbEntity
  8
52433115
  6
Continuous
 62
     7
 48
25.4
100
AcDbEllipse
 10
78.9770785465
 20
212.2285807348
 30
0.0
 11
-6.938893903907229E-15
 21
6.749999999999999
 31
0.0
210
0.0
220
0.0
230
1.0
 40
0.8660254038
 41
3.141592653589792
 42
6.283185307179585
  0
LINE
  5
12F
330
D7
100
AcDbEntity
  8
52433115
  6
Continuous
 62
     7
 48
25.4
100
AcDbLine
 10
77.2010547903
 20
201.8799220382
 30
0.0
 11
77.2010547903
 21
205.3285807348
 31
0.0
  0
LINE
  5
130
330
D7
100
AcDbEntity
  8
52433115
  6
Continuous
 62
     7
 48
25.4
100
AcDbLine
 10
77.2010547903
 20
219.1285807348
 30
0.0
 11
77.2010547903
 21
222.5772394313
 31
0.0
  0
LINE
  5
131
330
D7
100
AcDbEntity
  8
52433115
  6
Continuous
 62
     7
 48
25.4
100
AcDbLine
 10
159.4014884639
 20
201.7510807348
 30
0.0
 11
159.4014884639
 21
205.9090626598
 31
0.0
  0
LINE
  5
132
330
D7
100
AcDbEntity
  8
52433115
  6
Continuous
 62
     7
 48
25.4
100
AcDbLine
 10
159.4014884639
 20
218.5528306524
 30
0.0
 11
159.4014884639
 21
222.7060807348
 31
0.0
  0
LINE
  5
133
330
D7
100
AcDbEntity
  8
52433115
  6
Continuous
 62
     7
 48
25.4
100
AcDbLine
 10
162.5523960938
 20
219.7285807348
 30
0.0
 11
162.5523960938
 21
204.7285807348
 31
0.0
  0
LINE
  5
134
330
D7
100
AcDbEntity
  8
52433115
  6
Continuous
 62
     7
 48
25.4
100
AcDbLine
 10
159.5748960938
 20
222.7060807348
 30
0.0
 11
159.5748960938
 21
218.1852557253
 31
0.0
  0
LINE
  5
135
330
D7
100
AcDbEntity
  8
52433115
  6
Continuous
 62
     7
 48
25.4
100
AcDbLine
 10
159.5748960938
 20
206.2696791205
 30
0.0
 11
159.5748960938
 21
201.7510807348
 31
0.0
  0
LINE
  5
136
330
D7
100
AcDbEntity
  8
52433115
  6
Continuous
 62
     7
 48
25.4
100
AcDbLine
 10
194.0523960938
 20
219.7285807348
 30
0.0
 11
194.0523960938
 21
204.7285807348
 31
0.0
  0
LINE
  5
137
330
D7
100
AcDbEntity
  8
52433115
  6
Continuous
 62
     7
 48
25.4
100
AcDbLine
 10
74.3523960938
 20
204.7285807348
 30
0.0
 11
74.3523960938
 21
205.3556540097
 31
0.0
  0
LINE
  5
138
330
D7
100
AcDbEntity
  8
52433115
  6
Continuous
 62
     7
 48
25.4
100
AcDbLine
 10
74.3523960938
 20
219.1015074598
 30
0.0
 11
74.3523960938
 21
219.7285807348
 31
0.0
  0
LINE
  5
139
330
D7
100
AcDbEntity
  8
52433115
  6
Continuous
 62
     7
 48
25.4
100
AcDbLine
 10
42.8523960938
 20
204.7285807348
 30
0.0
 11
42.8523960938
 21
219.7285807348
 31
0.0
  0
LINE
  5
13A
330
D7
100
AcDbEntity
  8
52433115
  6
Continuous
 62
     7
 48
25.4
100
AcDbLine
 10
140.3421851387
 20
195.7587900279
 30
0.0
 11
146.3202348561
 21
196.1770720387
 31
0.0
  0
LINE
  5
13B
330
D7
100
AcDbEntity
  8
52433115
  6
Continuous
 62
     7
 48
25.4
100
AcDbLine
 10
146.3202348561
 20
228.2800894309
 30
0.0
 11
140.3421851387
 21
228.6983714417
 31
0.0
  0
ARC
  5
13C
330
D7
100
AcDbEntity
  8
52433115
  6
Continuous
 62
     7
 48
25.4
100
AcDbCircle
 10
146.3066596543
 20
212.2278886132
 30
0.0
 40
14.59672654266348
100
AcDbArc
 50
286.2223360289
 51
73.7859558559
  0
LINE
  5
13D
330
D7
100
AcDbEntity
  8
52433115
  6
Continuous
 62
     7
 48
25.4
100
AcDbLine
 10
86.8558521673
 20
198.9385807348
 30
0.0
 11
87.0523960938
 21
199.4785807348
 31
0.0
  0
LINE
  5
13E
330
D7
100
AcDbEntity
  8
52433115
  6
Continuous
 62
     7
 48
25.4
100
AcDbLine
 10
87.0523960938
 20
224.9785807348
 30
0.0
 11
86.8558521673
 21
225.5185807348
 31
0.0
  0
LINE
  5
13F
330
D7
100
AcDbEntity
  8
52433115
  6
Continuous
 62
     7
 48
25.4
100
AcDbLine
 10
102.7768092967
 20
222.5785807348
 30
0.0
 11
99.2093180319
 21
222.5785807348
 31
0.0
  0
LINE
  5
140
330
D7
100
AcDbEntity
  8
52433115
  6
Continuous
 62
     7
 48
25.4
100
AcDbLine
 10
104.5200855803
 20
222.5785807348
 30
0.0
 11
103.979743282
 21
222.5785807348
 31
0.0
  0
LINE
  5
141
330
D7
100
AcDbEntity
  8
52433115
  6
Continuous
 62
     7
 48
25.4
100
AcDbLine
 10
106.4838246727
 20
222.5785807348
 30
0.0
 11
106.4809657759
 21
222.5785807348
 31
0.0
  0
LINE
  5
142
330
D7
100
AcDbEntity
  8
52433115
  6
Continuous
 62
     7
 48
25.4
100
AcDbLine
 10
108.7474694434
 20
222.5785807348
 30
0.0
 11
108.2364693661
 21
222.5785807348
 31
0.0
  0
LINE
  5
143
330
D7
100
AcDbEntity
  8
52433115
  6
Continuous
 62
     7
 48
25.4
100
AcDbLine
 10
107.2658068517
 20
201.8785807348
 30
0.0
 11
108.7474694434
 21
201.8785807348
 31
0.0
  0
LINE
  5
144
330
D7
100
AcDbEntity
  8
52433115
  6
Continuous
 62
     7
 48
25.4
100
AcDbLine
 10
105.5225305681
 20
201.8785807348
 30
0.0
 11
106.0628728664
 21
201.8785807348
 31
0.0
  0
LINE
  5
145
330
D7
100
AcDbEntity
  8
52433115
  6
Continuous
 62
     7
 48
25.4
100
AcDbLine
 10
103.5587914757
 20
201.8785807348
 30
0.0
 11
103.5616503725
 21
201.8785807348
 31
0.0
  0
LINE
  5
146
330
D7
100
AcDbEntity
  8
52433115
  6
Continuous
 62
     7
 48
25.4
100
AcDbLine
 10
99.2093180319
 20
201.8785807348
 30
0.0
 11
101.8061467823
 21
201.8785807348
 31
0.0
  0
LINE
  5
147
330
D7
100
AcDbEntity
  8
52433115
  6
Continuous
 62
     7
 48
25.4
100
AcDbLine
 10
95.0523960938
 20
199.4785807348
 30
0.0
 11
99.2093180319
 21
201.8785807348
 31
0.0
  0
LINE
  5
148
330
D7
100
AcDbEntity
  8
52433115
  6
Continuous
 62
     7
 48
25.4
100
AcDbLine
 10
99.2093180319
 20
222.5785807348
 30
0.0
 11
95.0523960938
 21
224.9785807348
 31
0.0
  0
LINE
  5
149
330
D7
100
AcDbEntity
  8
52433115
  6
Continuous
 62
     7
 48
25.4
100
AcDbLine
 10
95.0523960938
 20
224.9785807348
 30
0.0
 11
87.0523960938
 21
224.9785807348
 31
0.0
  0
LINE
  5
14A
330
D7
100
AcDbEntity
  8
52433115
  6
Continuous
 62
     7
 48
25.4
100
AcDbLine
 10
87.0523960938
 20
199.4785807348
 30
0.0
 11
95.0523960938
 21
199.4785807348
 31
0.0
  0
LINE
  5
14B
330
D7
100
AcDbEntity
  8
52433115
  6
Continuous
 62
     7
 48
25.4
100
AcDbLine
 10
131.5791224548
 20
225.9785807348
 30
0.0
 11
121.4827047949
 21
225.9785807348
 31
0.0
  0
LINE
  5
14C
330
D7
100
AcDbEntity
  8
52433115
  6
Continuous
 62
     7
 48
25.4
100
AcDbLine
 10
121.4827047949
 20
198.4785807348
 30
0.0
 11
131.5791224548
 21
198.4785807348
 31
0.0
  0
LINE
  5
14D
330
D7
100
AcDbEntity
  8
52433115
  6
Continuous
 62
     7
 48
25.4
100
AcDbLine
 10
77.2523960938
 20
225.5185807348
 30
0.0
 11
77.2010547903
 21
222.5772394313
 31
0.0
  0
LINE
  5
14E
330
D7
100
AcDbEntity
  8
52433115
  6
Continuous
 62
     7
 48
25.4
100
AcDbLine
 10
77.2010547903
 20
201.8799220382
 30
0.0
 11
77.2523960938
 21
198.9385807348
 31
0.0
  0
LINE
  5
14F
330
D7
100
AcDbEntity
  8
52433115
  6
Continuous
 62
     7
 48
25.4
100
AcDbLine
 10
159.3523960938
 20
198.9385807348
 30
0.0
 11
159.4014884639
 21
201.7510807348
 31
0.0
  0
LINE
  5
150
330
D7
100
AcDbEntity
  8
52433115
  6
Continuous
 62
     7
 48
25.4
100
AcDbLine
 10
159.4014884639
 20
222.7060807348
 30
0.0
 11
159.3523960938
 21
225.5185807348
 31
0.0
  0
LINE
  5
151
330
D7
100
AcDbEntity
  8
52433115
  6
Continuous
 62
     7
 48
25.4
100
AcDbLine
 10
117.8777136411
 20
221.2285807348
 30
0.0
 11
111.5277136411
 21
221.2285807348
 31
0.0
  0
LINE
  5
152
330
D7
100
AcDbEntity
  8
52433115
  6
Continuous
 62
     7
 48
25.4
100
AcDbLine
 10
111.5277136411
 20
203.2285807348
 30
0.0
 11
117.8777136411
 21
203.2285807348
 31
0.0
  0
LINE
  5
153
330
D7
100
AcDbEntity
  8
52433115
  6
Continuous
 62
     7
 48
25.4
100
AcDbLine
 10
89.8770785465
 20
203.2285807348
 30
0.0
 11
96.2270785465
 21
203.2285807348
 31
0.0
  0
LINE
  5
154
330
D7
100
AcDbEntity
  8
52433115
  6
Continuous
 62
     7
 48
25.4
100
AcDbLine
 10
96.2270785465
 20
221.2285807348
 30
0.0
 11
89.8770785465
 21
221.2285807348
 31
0.0
  0
LINE
  5
155
330
D7
100
AcDbEntity
  8
52433115
  6
Continuous
 62
     7
 48
25.4
100
AcDbLine
 10
106.0628728664
 20
202.015935058
 30
0.0
 11
106.0628728664
 21
201.2285807348
 31
0.0
  0
LINE
  5
156
330
D7
100
AcDbEntity
  8
52433115
  6
Continuous
 62
     7
 48
25.4
100
AcDbLine
 10
107.2658068517
 20
201.2285807348
 30
0.0
 11
107.2658068517
 21
202.0159343837
 31
0.0
  0
LINE
  5
157
330
D7
100
AcDbEntity
  8
52433115
  6
Continuous
 62
     7
 48
25.4
100
AcDbLine
 10
108.2340220106
 20
201.2285807348
 30
0.0
 11
108.2340220106
 21
201.8785807348
 31
0.0
  0
LINE
  5
158
330
D7
100
AcDbEntity
  8
52433115
  6
Continuous
 62
     7
 48
25.4
100
AcDbLine
 10
101.8061467823
 20
202.0151629775
 30
0.0
 11
101.8061467823
 21
201.2285807348
 31
0.0
  0
LINE
  5
159
330
D7
100
AcDbEntity
  8
52433115
  6
Continuous
 62
     7
 48
25.4
100
AcDbLine
 10
105.5225305681
 20
201.2285807348
 30
0.0
 11
105.5225305681
 21
202.0162181724
 31
0.0
  0
LINE
  5
15A
330
D7
100
AcDbEntity
  8
52433115
  6
Continuous
 62
     7
 48
25.4
100
AcDbLine
 10
103.5616503725
 20
201.9393386756
 30
0.0
 11
103.5616503725
 21
201.2285807348
 31
0.0
  0
LINE
  5
15B
330
D7
100
AcDbEntity
  8
52433115
  6
Continuous
 62
     7
 48
25.4
100
AcDbLine
 10
108.7474694434
 20
201.8804291596
 30
0.0
 11
108.7474694434
 21
201.2285807348
 31
0.0
  0
LINE
  5
15C
330
D7
100
AcDbEntity
  8
52433115
  6
Continuous
 62
     7
 48
25.4
100
AcDbLine
 10
112.4491809348
 20
202.0030735421
 30
0.0
 11
112.4491809348
 21
201.2285807348
 31
0.0
  0
LINE
  5
15D
330
D7
100
AcDbEntity
  8
52433115
  6
Continuous
 62
     7
 48
25.4
100
AcDbLine
 10
112.4540709104
 20
223.2285807348
 30
0.0
 11
112.4540709104
 21
222.4542995692
 31
0.0
  0
LINE
  5
15E
330
D7
100
AcDbEntity
  8
52433115
  6
Continuous
 62
     7
 48
25.4
100
AcDbLine
 10
103.979743282
 20
222.4412264115
 30
0.0
 11
103.979743282
 21
223.2285807348
 31
0.0
  0
LINE
  5
15F
330
D7
100
AcDbEntity
  8
52433115
  6
Continuous
 62
     7
 48
25.4
100
AcDbLine
 10
102.7768092967
 20
223.2285807348
 30
0.0
 11
102.7768092967
 21
222.4412270859
 31
0.0
  0
LINE
  5
160
330
D7
100
AcDbEntity
  8
52433115
  6
Continuous
 62
     7
 48
25.4
100
AcDbLine
 10
101.8085941378
 20
223.2285807348
 30
0.0
 11
101.8085941378
 21
222.5785807348
 31
0.0
  0
LINE
  5
161
330
D7
100
AcDbEntity
  8
52433115
  6
Continuous
 62
     7
 48
25.4
100
AcDbLine
 10
108.2364693661
 20
222.441998492
 30
0.0
 11
108.2364693661
 21
223.2285807348
 31
0.0
  0
LINE
  5
162
330
D7
100
AcDbEntity
  8
52433115
  6
Continuous
 62
     7
 48
25.4
100
AcDbLine
 10
104.5200855803
 20
223.2285807348
 30
0.0
 11
104.5200855803
 21
222.4409432971
 31
0.0
  0
LINE
  5
163
330
D7
100
AcDbEntity
  8
52433115
  6
Continuous
 62
     7
 48
25.4
100
AcDbLine
 10
106.4809657759
 20
222.517822794
 30
0.0
 11
106.4809657759
 21
223.2285807348
 31
0.0
  0
LINE
  5
164
330
D7
100
AcDbEntity
  8
52433115
  6
Continuous
 62
     7
 48
25.4
100
AcDbLine
 10
103.3057493018
 20
206.2285807348
 30
0.0
 11
111.5277136411
 21
206.2285807348
 31
0.0
  0
LINE
  5
165
330
D7
100
AcDbEntity
  8
52433115
  6
Continuous
 62
     7
 48
25.4
100
AcDbLine
 10
111.5277136411
 20
218.2285807348
 30
0.0
 11
103.3057493018
 21
218.2285807348
 31
0.0
  0
LINE
  5
166
330
D7
100
AcDbEntity
  8
52433115
  6
Continuous
 62
     7
 48
25.4
100
AcDbLine
 10
98.9277136411
 20
219.1285807348
 30
0.0
 11
96.5318588295
 21
219.1285807348
 31
0.0
  0
LINE
  5
167
330
D7
100
AcDbEntity
  8
52433115
  6
Continuous
 62
     7
 48
25.4
100
AcDbLine
 10
96.5318588295
 20
205.3285807348
 30
0.0
 11
98.9277136411
 21
205.3285807348
 31
0.0
  0
LINE
  5
168
330
D7
100
AcDbEntity
  8
52433115
  6
Continuous
 62
     7
 48
25.4
100
AcDbLine
 10
100.6277136411
 20
218.9785807348
 30
0.0
 11
100.1669170142
 21
218.9785807348
 31
0.0
  0
LINE
  5
169
330
D7
100
AcDbEntity
  8
52433115
  6
Continuous
 62
     7
 48
25.4
100
AcDbLine
 10
100.1669170142
 20
205.4785807348
 30
0.0
 11
100.6277136411
 21
205.4785807348
 31
0.0
  0
LINE
  5
16A
330
D7
100
AcDbEntity
  8
52433115
  6
Continuous
 62
     7
 48
25.4
100
AcDbLine
 10
81.6551142072
 20
206.2285807348
 30
0.0
 11
89.8770785465
 21
206.2285807348
 31
0.0
  0
LINE
  5
16B
330
D7
100
AcDbEntity
  8
52433115
  6
Continuous
 62
     7
 48
25.4
100
AcDbLine
 10
89.8770785465
 20
218.2285807348
 30
0.0
 11
81.6551142072
 21
218.2285807348
 31
0.0
  0
LINE
  5
16C
330
D7
100
AcDbEntity
  8
52433115
  6
Continuous
 62
     7
 48
25.4
100
AcDbLine
 10
77.2770785465
 20
219.1285807348
 30
0.0
 11
74.8812237349
 21
219.1285807348
 31
0.0
  0
LINE
  5
16D
330
D7
100
AcDbEntity
  8
52433115
  6
Continuous
 62
     7
 48
25.4
100
AcDbLine
 10
74.8812237349
 20
205.3285807348
 30
0.0
 11
77.2770785465
 21
205.3285807348
 31
0.0
  0
LINE
  5
16E
330
D7
100
AcDbEntity
  8
52433115
  6
Continuous
 62
     7
 48
25.4
100
AcDbLine
 10
78.9770785465
 20
218.9785807348
 30
0.0
 11
78.5162819196
 21
218.9785807348
 31
0.0
  0
LINE
  5
16F
330
D7
100
AcDbEntity
  8
52433115
  6
Continuous
 62
     7
 48
25.4
100
AcDbLine
 10
78.5162819196
 20
205.4785807348
 30
0.0
 11
78.9770785465
 21
205.4785807348
 31
0.0
  0
LINE
  5
170
330
D7
100
AcDbEntity
  8
52433115
  6
Continuous
 62
     7
 48
25.4
100
AcDbLine
 10
159.4014884639
 20
201.7510807348
 30
0.0
 11
159.5748960938
 21
201.7510807348
 31
0.0
  0
LINE
  5
171
330
D7
100
AcDbEntity
  8
52433115
  6
Continuous
 62
     7
 48
25.4
100
AcDbLine
 10
159.5748960938
 20
222.7060807348
 30
0.0
 11
159.4014884639
 21
222.7060807348
 31
0.0
  0
LINE
  5
172
330
D7
100
AcDbEntity
  8
52433115
  6
Continuous
 62
     7
 48
25.4
100
AcDbLine
 10
194.0523960938
 20
219.7285807348
 30
0.0
 11
162.5523960938
 21
219.7285807348
 31
0.0
  0
LINE
  5
173
330
D7
100
AcDbEntity
  8
52433115
  6
Continuous
 62
     7
 48
25.4
100
AcDbLine
 10
162.5523960938
 20
204.7285807348
 30
0.0
 11
194.0523960938
 21
204.7285807348
 31
0.0
  0
LINE
  5
174
330
D7
100
AcDbEntity
  8
52433115
  6
Continuous
 62
     7
 48
25.4
100
AcDbLine
 10
159.5748960938
 20
201.7510807348
 30
0.0
 11
162.5523960938
 21
204.7285807348
 31
0.0
  0
LINE
  5
175
330
D7
100
AcDbEntity
  8
52433115
  6
Continuous
 62
     7
 48
25.4
100
AcDbLine
 10
162.5523960938
 20
219.7285807348
 30
0.0
 11
159.5748960938
 21
222.7060807348
 31
0.0
  0
LINE
  5
176
330
D7
100
AcDbEntity
  8
52433115
  6
Continuous
 62
     7
 48
25.4
100
AcDbLine
 10
42.8523960938
 20
204.7285807348
 30
0.0
 11
74.3523960938
 21
204.7285807348
 31
0.0
  0
LINE
  5
177
330
D7
100
AcDbEntity
  8
52433115
  6
Continuous
 62
     7
 48
25.4
100
AcDbLine
 10
74.3523960938
 20
219.7285807348
 30
0.0
 11
42.8523960938
 21
219.7285807348
 31
0.0
  0
LINE
  5
178
330
D7
100
AcDbEntity
  8
52433115
  6
Continuous
 62
     7
 48
25.4
100
AcDbLine
 10
77.2010547903
 20
222.5772394313
 30
0.0
 11
74.3523960938
 21
219.7285807348
 31
0.0
  0
LINE
  5
179
330
D7
100
AcDbEntity
  8
52433115
  6
Continuous
 62
     7
 48
25.4
100
AcDbLine
 10
74.3523960938
 20
204.7285807348
 30
0.0
 11
77.2010547903
 21
201.8799220382
 31
0.0
  0
ENDBLK
  5
17E
330
D7
100
AcDbEntity
  8
0
100
AcDbBlockEnd
  0
BLOCK
  5
1DF
330
17F
100
AcDbEntity
  8
0
100
AcDbBlockBegin
  2
SE2
 70
     0
 71
     0
 10
0.0
 20
0.0
 30
0.0
  3
SE2
  1

  0
ELLIPSE
  5
181
330
17F
100
AcDbEntity
  8
52433115
  6
Continuous
 62
     7
 48
25.4
100
AcDbEllipse
 10
322.2511086028
 20
212.2285807348
 30
0.0
 11
9.846417241834846E-16
 21
16.08095076609903
 31
0.0
210
0.0
220
0.0
230
1.0
 40
0.5
 41
3.161755535404139
 42
4.26891596394278
  0
ELLIPSE
  5
182
330
17F
100
AcDbEntity
  8
52433115
  6
Continuous
 62
     7
 48
25.4
100
AcDbEllipse
 10
322.2511086028
 20
212.2285807348
 30
0.0
 11
9.846417241834846E-16
 21
16.08095076609903
 31
0.0
210
0.0
220
0.0
230
1.0
 40
0.5
 41
5.155861996826602
 42
6.26302242536524
  0
ELLIPSE
  5
183
330
17F
100
AcDbEntity
  8
52433115
  6
Continuous
 62
     7
 48
25.4
100
AcDbEllipse
 10
311.8588037574
 20
212.2285807348
 30
0.0
 11
5.928593662003767E-15
 21
-16.50000000000001
 31
0.0
210
0.0
220
0.0
230
1.0
 40
0.5
 41
0.0
 42
1.184706501286615
  0
ELLIPSE
  5
184
330
17F
100
AcDbEntity
  8
52433115
  6
Continuous
 62
     7
 48
25.4
100
AcDbEllipse
 10
311.8588037574
 20
212.2285807348
 30
0.0
 11
5.928593662003767E-15
 21
-16.50000000000001
 31
0.0
210
0.0
220
0.0
230
1.0
 40
0.5
 41
1.95688615230318
 42
3.727278197046945
  0
ELLIPSE
  5
185
330
17F
100
AcDbEntity
  8
52433115
  6
Continuous
 62
     7
 48
25.4
100
AcDbEllipse
 10
311.8588037574
 20
212.2285807348
 30
0.0
 11
5.928593662003767E-15
 21
-16.50000000000001
 31
0.0
210
0.0
220
0.0
230
1.0
 40
0.5
 41
5.697499763722434
 42
6.283185307179586
  0
ELLIPSE
  5
186
330
17F
100
AcDbEntity
  8
52433115
  6
Continuous
 62
     7
 48
25.4
100
AcDbEllipse
 10
324.924202533
 20
212.2285807348
 30
0.0
 11
-8.905848241444633E-16
 21
-14.54483428678402
 31
0.0
210
0.0
220
0.0
230
1.0
 40
0.5
 41
0.2914374030680864
 42
1.145580289022486
  0
ELLIPSE
  5
187
330
17F
100
AcDbEntity
  8
52433115
  6
Continuous
 62
     7
 48
25.4
100
AcDbEllipse
 10
324.924202533
 20
212.2285807348
 30
0.0
 11
-8.905848241444633E-16
 21
-14.54483428678402
 31
0.0
210
0.0
220
0.0
230
1.0
 40
0.5
 41
1.996012364567309
 42
2.850155250521707
  0
ELLIPSE
  5
188
330
17F
100
AcDbEntity
  8
52433115
  6
Continuous
 62
     7
 48
25.4
100
AcDbEllipse
 10
311.8588037574
 20
212.2285807348
 30
0.0
 11
6.040444678451424E-15
 21
-14.67327394883204
 31
0.0
210
0.0
220
0.0
230
1.0
 40
0.5
 41
0.0
 42
0.9624070062489649
  0
ELLIPSE
  5
189
330
17F
100
AcDbEntity
  8
52433115
  6
Continuous
 62
     7
 48
25.4
100
AcDbEllipse
 10
311.8588037574
 20
212.2285807348
 30
0.0
 11
6.040444678451424E-15
 21
-14.67327394883204
 31
0.0
210
0.0
220
0.0
230
1.0
 40
0.5
 41
2.179185647340828
 42
3.498225006540834
  0
ELLIPSE
  5
18A
330
17F
100
AcDbEntity
  8
52433115
  6
Continuous
 62
     7
 48
25.4
100
AcDbEllipse
 10
311.8588037574
 20
212.2285807348
 30
0.0
 11
6.040444678451424E-15
 21
-14.67327394883204
 31
0.0
210
0.0
220
0.0
230
1.0
 40
0.5
 41
5.926552954228539
 42
6.283185307179585
  0
ELLIPSE
  5
18B
330
17F
100
AcDbEntity
  8
52433115
  6
Continuous
 62
     7
 48
25.4
100
AcDbEllipse
 10
311.059225063
 20
212.2285807348
 30
0.0
 11
-8.419168682528849E-16
 21
-13.75000000000001
 31
0.0
210
0.0
220
0.0
230
1.0
 40
0.5
 41
2.284375014012573
 42
3.141592653589793
  0
ELLIPSE
  5
18C
330
17F
100
AcDbEntity
  8
52433115
  6
Continuous
 62
     7
 48
25.4
100
AcDbEllipse
 10
311.059225063
 20
212.2285807348
 30
0.0
 11
-8.419168682528849E-16
 21
-13.75000000000001
 31
0.0
210
0.0
220
0.0
230
1.0
 40
0.5
 41
0.0
 42
0.8572176395772228
  0
ELLIPSE
  5
18D
330
17F
100
AcDbEntity
  8
52433115
  6
Continuous
 62
     7
 48
25.4
100
AcDbEllipse
 10
305.2474604857
 20
212.2285807348
 30
0.0
 11
2.026560885250162E-14
 21
-9.000000000000011
 31
0.0
210
0.0
220
0.0
230
1.0
 40
0.5
 41
3.141592653589793
 42
3.309207216110389
  0
ELLIPSE
  5
18E
330
17F
100
AcDbEntity
  8
52433115
  6
Continuous
 62
     7
 48
25.4
100
AcDbEllipse
 10
280.6902181357
 20
212.2285807348
 30
0.0
 11
-3.877682951212298E-15
 21
-13.75000000000001
 31
0.0
210
0.0
220
0.0
230
1.0
 40
0.5
 41
2.884695785698471
 42
3.39758473635249
  0
ELLIPSE
  5
18F
330
17F
100
AcDbEntity
  8
52433115
  6
Continuous
 62
     7
 48
25.4
100
AcDbEllipse
 10
280.6902181357
 20
212.2285807348
 30
0.0
 11
1.038289598612533E-14
 21
13.75000000000003
 31
0.0
210
0.0
220
0.0
230
1.0
 40
0.5
 41
2.883868469681948
 42
3.398136359234736
  0
LINE
  5
190
330
17F
100
AcDbEntity
  8
52433115
  6
Continuous
 62
     7
 48
25.4
100
AcDbLine
 10
285.0198104687
 20
198.9385807348
 30
0.0
 11
292.6927955462
 21
212.2285807348
 31
0.0
  0
LINE
  5
191
330
17F
100
AcDbEntity
  8
52433115
  6
Continuous
 62
     7
 48
25.4
100
AcDbLine
 10
292.6927955462
 20
212.2285807348
 30
0.0
 11
285.0198104687
 21
225.5185807348
 31
0.0
  0
LINE
  5
192
330
17F
100
AcDbEntity
  8
52433115
  6
Continuous
 62
     7
 48
25.4
100
AcDbLine
 10
285.0198104687
 20
225.5185807348
 30
0.0
 11
269.6738403136
 21
225.5185807348
 31
0.0
  0
LINE
  5
193
330
17F
100
AcDbEntity
  8
52433115
  6
Continuous
 62
     7
 48
25.4
100
AcDbLine
 10
269.6738403136
 20
225.5185807348
 30
0.0
 11
262.0008552361
 21
212.2285807348
 31
0.0
  0
LINE
  5
194
330
17F
100
AcDbEntity
  8
52433115
  6
Continuous
 62
     7
 48
25.4
100
AcDbLine
 10
262.0008552361
 20
212.2285807348
 30
0.0
 11
269.6738403136
 21
198.9385807348
 31
0.0
  0
LINE
  5
195
330
17F
100
AcDbEntity
  8
52433115
  6
Continuous
 62
     7
 48
25.4
100
AcDbLine
 10
269.6738403136
 20
198.9385807348
 30
0.0
 11
285.0198104687
 21
198.9385807348
 31
0.0
  0
ELLIPSE
  5
196
330
17F
100
AcDbEntity
  8
52433115
  6
Continuous
 62
     7
 48
25.4
100
AcDbEllipse
 10
305.2474604857
 20
212.2285807348
 30
0.0
 11
4.020519811173685E-15
 21
9.000000000000002
 31
0.0
210
0.0
220
0.0
230
1.0
 40
0.5
 41
2.973978091069203
 42
3.141592653589793
  0
ELLIPSE
  5
197
330
17F
100
AcDbEntity
  8
52433115
  6
Continuous
 62
     7
 48
25.4
100
AcDbEllipse
 10
316.2459831138
 20
212.2285807348
 30
0.0
 11
-6.387821044687159E-15
 21
8.999999999999982
 31
0.0
210
0.0
220
0.0
230
1.0
 40
0.5
 41
5.442116636611653
 42
6.283185307179586
  0
ELLIPSE
  5
198
330
17F
100
AcDbEntity
  8
52433115
  6
Continuous
 62
     7
 48
25.4
100
AcDbEllipse
 10
316.2459831138
 20
212.2285807348
 30
0.0
 11
-6.387821044687159E-15
 21
8.999999999999982
 31
0.0
210
0.0
220
0.0
230
1.0
 40
0.5
 41
2.30052398302186
 42
3.982661324157721
  0
ELLIPSE
  5
199
330
17F
100
AcDbEntity
  8
52433115
  6
Continuous
 62
     7
 48
25.4
100
AcDbEllipse
 10
316.2459831138
 20
212.2285807348
 30
0.0
 11
-6.387821044687159E-15
 21
8.999999999999982
 31
0.0
210
0.0
220
0.0
230
1.0
 40
0.5
 41
0.0
 42
0.8410686705679282
  0
ELLIPSE
  5
19A
330
17F
100
AcDbEntity
  8
52433115
  6
Continuous
 62
     7
 48
25.4
100
AcDbEllipse
 10
303.7459831138
 20
212.2285807348
 30
0.0
 11
2.918374092733545E-15
 21
-8.999999999999991
 31
0.0
210
0.0
220
0.0
230
1.0
 40
0.5
 41
0.0
 42
0.8410686705679294
  0
ELLIPSE
  5
19B
330
17F
100
AcDbEntity
  8
52433115
  6
Continuous
 62
     7
 48
25.4
100
AcDbEllipse
 10
303.7459831138
 20
212.2285807348
 30
0.0
 11
2.918374092733545E-15
 21
-8.999999999999991
 31
0.0
210
0.0
220
0.0
230
1.0
 40
0.5
 41
2.300523983021864
 42
6.283185307179586
  0
ELLIPSE
  5
19C
330
17F
100
AcDbEntity
  8
52433115
  6
Continuous
 62
     7
 48
25.4
100
AcDbEllipse
 10
292.7474604857
 20
212.2285807348
 30
0.0
 11
4.653097568710351E-15
 21
-8.999999999999991
 31
0.0
210
0.0
220
0.0
230
1.0
 40
0.5
 41
3.141592653589793
 42
4.006645030265938
  0
ELLIPSE
  5
19D
330
17F
100
AcDbEntity
  8
52433115
  6
Continuous
 62
     7
 48
25.4
100
AcDbEllipse
 10
292.7474604857
 20
212.2285807348
 30
0.0
 11
-9.857267996640773E-15
 21
9.000000000000011
 31
0.0
210
0.0
220
0.0
230
1.0
 40
0.5
 41
2.27655987376978
 42
3.141592653589793
  0
ELLIPSE
  5
19E
330
17F
100
AcDbEntity
  8
52433115
  6
Continuous
 62
     7
 48
25.4
100
AcDbEllipse
 10
333.3932861087
 20
212.2285807348
 30
0.0
 11
3.673819061467128E-16
 21
5.999999999999994
 31
0.0
210
0.0
220
0.0
230
1.0
 40
0.5
 41
0.0000000000000001
 42
0.5013482043325377
  0
ELLIPSE
  5
19F
330
17F
100
AcDbEntity
  8
52433115
  6
Continuous
 62
     7
 48
25.4
100
AcDbEllipse
 10
333.3932861087
 20
212.2285807348
 30
0.0
 11
3.673819061467128E-16
 21
5.999999999999994
 31
0.0
210
0.0
220
0.0
230
1.0
 40
0.5
 41
2.640244449257265
 42
3.200263444547702
  0
ELLIPSE
  5
1A0
330
17F
100
AcDbEntity
  8
52433115
  6
Continuous
 62
     7
 48
25.4
100
AcDbEllipse
 10
333.3932861087
 20
212.2285807348
 30
0.0
 11
3.673819061467128E-16
 21
5.999999999999994
 31
0.0
210
0.0
220
0.0
230
1.0
 40
0.5
 41
6.224514516221677
 42
6.283185307179586
  0
ELLIPSE
  5
1A1
330
17F
100
AcDbEntity
  8
52433115
  6
Continuous
 62
     7
 48
25.4
100
AcDbEllipse
 10
342.9195655504
 20
212.2285807348
 30
0.0
 11
3.367667473011538E-16
 21
5.500000000000001
 31
0.0
210
0.0
220
0.0
230
1.0
 40
0.5
 41
0.0
 42
6.283185307179586
  0
ELLIPSE
  5
1A2
330
17F
100
AcDbEntity
  8
52433115
  6
Continuous
 62
     7
 48
25.4
100
AcDbEllipse
 10
342.2195655504
 20
212.2285807348
 30
0.0
 11
4.224891920687203E-16
 21
6.9
 31
0.0
210
0.0
220
0.0
230
1.0
 40
0.5
 41
0.0
 42
6.283185307179586
  0
ELLIPSE
  5
1A3
330
17F
100
AcDbEntity
  8
52433115
  6
Continuous
 62
     7
 48
25.4
100
AcDbEllipse
 10
338.0698232892
 20
212.2285807348
 30
0.0
 11
-4.224891920687203E-16
 21
-6.9
 31
0.0
210
0.0
220
0.0
230
1.0
 40
0.5
 41
3.141592653589793
 42
6.283185307179586
  0
ELLIPSE
  5
1A4
330
17F
100
AcDbEntity
  8
52433115
  6
Continuous
 62
     7
 48
25.4
100
AcDbEllipse
 10
337.2904004258
 20
212.2285807348
 30
0.0
 11
-3.673819061467133E-16
 21
-6.000000000000001
 31
0.0
210
0.0
220
0.0
230
0.9999999999999999
 40
0.5
 41
3.757072362260152
 42
5.667705598509228
  0
ELLIPSE
  5
1A5
330
17F
100
AcDbEntity
  8
52433115
  6
Continuous
 62
     7
 48
25.4
100
AcDbEllipse
 10
336.1212661307
 20
212.2285807348
 30
0.0
 11
-3.673819061467133E-16
 21
-6.000000000000001
 31
0.0
210
0.0
220
0.0
230
0.9999999999999999
 40
0.5
 41
4.843752309727403
 42
6.283185307179586
  0
ELLIPSE
  5
1A6
330
17F
100
AcDbEntity
  8
52433115
  6
Continuous
 62
     7
 48
25.4
100
AcDbEllipse
 10
336.1212661307
 20
212.2285807348
 30
0.0
 11
-3.673819061467133E-16
 21
-6.000000000000001
 31
0.0
210
0.0
220
0.0
230
0.9999999999999999
 40
0.5
 41
3.141592653589793
 42
4.581025651041976
  0
ELLIPSE
  5
1A7
330
17F
100
AcDbEntity
  8
52433115
  6
Continuous
 62
     7
 48
25.4
100
AcDbEllipse
 10
336.1212661307
 20
212.2285807348
 30
0.0
 11
4.133046444150521E-16
 21
6.749999999999996
 31
0.0
210
0.0
220
0.0
230
1.0
 40
0.5
 41
6.030755548726883
 42
6.283185307179586
  0
ELLIPSE
  5
1A8
330
17F
100
AcDbEntity
  8
52433115
  6
Continuous
 62
     7
 48
25.4
100
AcDbEllipse
 10
336.1212661307
 20
212.2285807348
 30
0.0
 11
4.133046444150521E-16
 21
6.749999999999996
 31
0.0
210
0.0
220
0.0
230
1.0
 40
0.5
 41
1.928925369622264
 42
3.394022412042497
  0
ELLIPSE
  5
1A9
330
17F
100
AcDbEntity
  8
52433115
  6
Continuous
 62
     7
 48
25.4
100
AcDbEllipse
 10
336.1212661307
 20
212.2285807348
 30
0.0
 11
4.133046444150521E-16
 21
6.749999999999996
 31
0.0
210
0.0
220
0.0
230
1.0
 40
0.5
 41
0.0000000000000001
 42
1.212667283967525
  0
ELLIPSE
  5
1AA
330
17F
100
AcDbEntity
  8
52433115
  6
Continuous
 62
     7
 48
25.4
100
AcDbEllipse
 10
335.1253369163
 20
212.2285807348
 30
0.0
 11
-4.133046444150523E-16
 21
-6.75
 31
0.0
210
0.0
220
0.0
230
1.0
 40
0.5
 41
5.377534795430428
 42
6.283185307179586
  0
ELLIPSE
  5
1AB
330
17F
100
AcDbEntity
  8
52433115
  6
Continuous
 62
     7
 48
25.4
100
AcDbEllipse
 10
335.1253369163
 20
212.2285807348
 30
0.0
 11
-4.133046444150523E-16
 21
-6.75
 31
0.0
210
0.0
220
0.0
230
1.0
 40
0.5
 41
3.141592653589793
 42
4.047243165338946
  0
ELLIPSE
  5
1AC
330
17F
100
AcDbEntity
  8
52433115
  6
Continuous
 62
     7
 48
25.4
100
AcDbEllipse
 10
303.7459831138
 20
212.2285807348
 30
0.0
 11
3.673819061467128E-16
 21
5.999999999999993
 31
0.0
210
0.0
220
0.0
230
0.9999999999999999
 40
0.5
 41
0.0000000000000001
 42
3.141592653589793
  0
ELLIPSE
  5
1AD
330
17F
100
AcDbEntity
  8
52433115
  6
Continuous
 62
     7
 48
25.4
100
AcDbEllipse
 10
321.7593115125
 20
212.2285807348
 30
0.0
 11
3.320305657451787E-16
 21
5.422649730810361
 31
0.0
210
0.0
220
0.0
230
0.9999999999999999
 40
0.5
 41
0.7760046976466588
 42
2.365587955943127
  0
ELLIPSE
  5
1AE
330
17F
100
AcDbEntity
  8
52433115
  6
Continuous
 62
     7
 48
25.4
100
AcDbEllipse
 10
320.8932861087
 20
212.2285807348
 30
0.0
 11
-3.673819061467129E-16
 21
-5.999999999999996
 31
0.0
210
0.0
220
0.0
230
1.0
 40
0.5
 41
0.0000000000000001
 42
0.0586707909579959
  0
ELLIPSE
  5
1AF
330
17F
100
AcDbEntity
  8
52433115
  6
Continuous
 62
     7
 48
25.4
100
AcDbEllipse
 10
320.8932861087
 20
212.2285807348
 30
0.0
 11
-3.673819061467129E-16
 21
-5.999999999999996
 31
0.0
210
0.0
220
0.0
230
1.0
 40
0.5
 41
3.082921862631877
 42
6.283185307179586
  0
ELLIPSE
  5
1B0
330
17F
100
AcDbEntity
  8
52433115
  6
Continuous
 62
     7
 48
25.4
100
AcDbEllipse
 10
330.4195655504
 20
212.2285807348
 30
0.0
 11
-3.367667473011539E-16
 21
-5.500000000000004
 31
0.0
210
0.0
220
0.0
230
1.0
 40
0.5
 41
0.0
 42
6.283185307179586
  0
ELLIPSE
  5
1B1
330
17F
100
AcDbEntity
  8
52433115
  6
Continuous
 62
     7
 48
25.4
100
AcDbEllipse
 10
329.7195655504
 20
212.2285807348
 30
0.0
 11
4.224891920687204E-16
 21
6.900000000000003
 31
0.0
210
0.0
220
0.0
230
1.0
 40
0.5
 41
0.0
 42
6.283185307179586
  0
ELLIPSE
  5
1B2
330
17F
100
AcDbEntity
  8
52433115
  6
Continuous
 62
     7
 48
25.4
100
AcDbEllipse
 10
325.5698232892
 20
212.2285807348
 30
0.0
 11
4.224891920687203E-16
 21
6.9
 31
0.0
210
0.0
220
0.0
230
1.0
 40
0.5
 41
0.0
 42
3.141592653589793
  0
ELLIPSE
  5
1B3
330
17F
100
AcDbEntity
  8
52433115
  6
Continuous
 62
     7
 48
25.4
100
AcDbEllipse
 10
324.7904004258
 20
212.2285807348
 30
0.0
 11
-3.673819061467135E-16
 21
-6.000000000000004
 31
0.0
210
0.0
220
0.0
230
1.0
 40
0.5
 41
3.757072362260177
 42
5.667705598509202
  0
ELLIPSE
  5
1B4
330
17F
100
AcDbEntity
  8
52433115
  6
Continuous
 62
     7
 48
25.4
100
AcDbEllipse
 10
323.6212661307
 20
212.2285807348
 30
0.0
 11
-3.673819061467134E-16
 21
-6.000000000000004
 31
0.0
210
0.0
220
0.0
230
1.0
 40
0.5
 41
3.141592653589793
 42
6.283185307179586
  0
ELLIPSE
  5
1B5
330
17F
100
AcDbEntity
  8
52433115
  6
Continuous
 62
     7
 48
25.4
100
AcDbEllipse
 10
323.6212661307
 20
212.2285807348
 30
0.0
 11
4.133046444150524E-16
 21
6.750000000000001
 31
0.0
210
0.0
220
0.0
230
1.0
 40
0.5
 41
6.030755548726492
 42
6.283185307179586
  0
ELLIPSE
  5
1B6
330
17F
100
AcDbEntity
  8
52433115
  6
Continuous
 62
     7
 48
25.4
100
AcDbEllipse
 10
323.6212661307
 20
212.2285807348
 30
0.0
 11
4.133046444150524E-16
 21
6.750000000000001
 31
0.0
210
0.0
220
0.0
230
1.0
 40
0.5
 41
0.0
 42
3.394022412042888
  0
ELLIPSE
  5
1B7
330
17F
100
AcDbEntity
  8
52433115
  6
Continuous
 62
     7
 48
25.4
100
AcDbEllipse
 10
322.6253369163
 20
212.2285807348
 30
0.0
 11
-6.525589259492177E-15
 21
6.749999999999998
 31
0.0
210
0.0
220
0.0
230
1.0
 40
0.5
 41
0.0
 42
3.141592653589791
  0
CIRCLE
  5
1B8
330
17F
100
AcDbEntity
  8
52433115
  6
Continuous
 62
     7
 48
25.4
100
AcDbCircle
 10
277.3468253911
 20
212.2285807348
 30
0.0
 40
10.34865869657263
  0
CIRCLE
  5
1B9
330
17F
100
AcDbEntity
  8
52433115
  6
Continuous
 62
     7
 48
25.4
100
AcDbCircle
 10
277.3468253911
 20
212.2285807348
 30
0.0
 40
7.500000000000005
  0
LINE
  5
1BA
330
17F
100
AcDbEntity
  8
52433115
  6
Continuous
 62
     7
 48
25.4
100
AcDbLine
 10
312.0251362616
 20
195.731934591
 30
0.0
 11
322.4132167732
 21
196.1508986473
 31
0.0
  0
LINE
  5
1BB
330
17F
100
AcDbEntity
  8
52433115
  6
Continuous
 62
     7
 48
25.4
100
AcDbLine
 10
322.4132167732
 20
228.3062628223
 30
0.0
 11
312.0251362616
 21
228.7252268785
 31
0.0
  0
ARC
  5
1BC
330
17F
100
AcDbEntity
  8
52433115
  6
Continuous
 62
     7
 48
25.4
100
AcDbCircle
 10
322.7502433647
 20
210.0777000761
 30
0.0
 40
16.87252996238183
100
AcDbArc
 50
301.4238597426
 51
347.6505298142
  0
ARC
  5
1BD
330
17F
100
AcDbEntity
  8
52433115
  6
Continuous
 62
     7
 48
25.4
100
AcDbCircle
 10
322.749502072
 20
214.380398501
 30
0.0
 40
16.87362518006015
100
AcDbArc
 50
192.3421809679
 51
238.6075726463
  0
LINE
  5
1BE
330
17F
100
AcDbEntity
  8
52433115
  6
Continuous
 62
     7
 48
25.4
100
AcDbLine
 10
324.561372862
 20
196.8257337982
 30
0.0
 11
327.0137811468
 21
198.2970750983
 31
0.0
  0
LINE
  5
1BF
330
17F
100
AcDbEntity
  8
52433115
  6
Continuous
 62
     7
 48
25.4
100
AcDbLine
 10
327.0137811468
 20
226.1600863712
 30
0.0
 11
324.561372862
 21
227.6314276713
 31
0.0
  0
LINE
  5
1C0
330
17F
100
AcDbEntity
  8
52433115
  6
Continuous
 62
     7
 48
25.4
100
AcDbLine
 10
291.2474604857
 20
220.713862109
 30
0.0
 11
288.7950204945
 21
218.9797251608
 31
0.0
  0
LINE
  5
1C1
330
17F
100
AcDbEntity
  8
52433115
  6
Continuous
 62
     7
 48
25.4
100
AcDbLine
 10
311.059225063
 20
225.9785807348
 30
0.0
 11
280.6902181357
 21
225.9785807348
 31
0.0
  0
LINE
  5
1C2
330
17F
100
AcDbEntity
  8
52433115
  6
Continuous
 62
     7
 48
25.4
100
AcDbLine
 10
280.6902181357
 20
198.4785807348
 30
0.0
 11
311.059225063
 21
198.4785807348
 31
0.0
  0
LINE
  5
1C3
330
17F
100
AcDbEntity
  8
52433115
  6
Continuous
 62
     7
 48
25.4
100
AcDbLine
 10
305.2474604857
 20
203.2285807348
 30
0.0
 11
316.2459831138
 21
203.2285807348
 31
0.0
  0
LINE
  5
1C4
330
17F
100
AcDbEntity
  8
52433115
  6
Continuous
 62
     7
 48
25.4
100
AcDbLine
 10
316.2459831138
 20
221.2285807348
 30
0.0
 11
305.2474604857
 21
221.2285807348
 31
0.0
  0
LINE
  5
1C5
330
17F
100
AcDbEntity
  8
52433115
  6
Continuous
 62
     7
 48
25.4
100
AcDbLine
 10
288.7950204945
 20
205.4774363088
 30
0.0
 11
291.2474604857
 21
203.7432993605
 31
0.0
  0
LINE
  5
1C6
330
17F
100
AcDbEntity
  8
52433115
  6
Continuous
 62
     7
 48
25.4
100
AcDbLine
 10
303.7459831138
 20
221.2285807348
 30
0.0
 11
292.7474604857
 21
221.2285807348
 31
0.0
  0
LINE
  5
1C7
330
17F
100
AcDbEntity
  8
52433115
  6
Continuous
 62
     7
 48
25.4
100
AcDbLine
 10
292.7474604857
 20
203.2285807348
 30
0.0
 11
303.7459831138
 21
203.2285807348
 31
0.0
  0
LINE
  5
1C8
330
17F
100
AcDbEntity
  8
52433115
  6
Continuous
 62
     7
 48
25.4
100
AcDbLine
 10
333.3932861087
 20
218.2285807348
 30
0.0
 11
331.4232380541
 21
218.2285807348
 31
0.0
  0
LINE
  5
1C9
330
17F
100
AcDbEntity
  8
52433115
  6
Continuous
 62
     7
 48
25.4
100
AcDbLine
 10
331.4232380541
 20
206.2285807348
 30
0.0
 11
333.3932861087
 21
206.2285807348
 31
0.0
  0
LINE
  5
1CA
330
17F
100
AcDbEntity
  8
52433115
  6
Continuous
 62
     7
 48
25.4
100
AcDbLine
 10
338.0698232892
 20
205.3285807348
 30
0.0
 11
342.2195655504
 21
205.3285807348
 31
0.0
  0
LINE
  5
1CB
330
17F
100
AcDbEntity
  8
52433115
  6
Continuous
 62
     7
 48
25.4
100
AcDbLine
 10
342.2195655504
 20
219.1285807348
 30
0.0
 11
338.0698232892
 21
219.1285807348
 31
0.0
  0
LINE
  5
1CC
330
17F
100
AcDbEntity
  8
52433115
  6
Continuous
 62
     7
 48
25.4
100
AcDbLine
 10
336.0779648605
 20
217.8624071432
 30
0.0
 11
335.5583496182
 21
217.1275602203
 31
0.0
  0
LINE
  5
1CD
330
17F
100
AcDbEntity
  8
52433115
  6
Continuous
 62
     7
 48
25.4
100
AcDbLine
 10
335.5583496182
 20
207.3296012492
 30
0.0
 11
336.0779648605
 21
206.5947543264
 31
0.0
  0
LINE
  5
1CE
330
17F
100
AcDbEntity
  8
52433115
  6
Continuous
 62
     7
 48
25.4
100
AcDbLine
 10
336.1212661307
 20
206.2285807348
 30
0.0
 11
336.3661507854
 21
206.2285807348
 31
0.0
  0
LINE
  5
1CF
330
17F
100
AcDbEntity
  8
52433115
  6
Continuous
 62
     7
 48
25.4
100
AcDbLine
 10
336.3661507854
 20
218.2285807348
 30
0.0
 11
336.1212661307
 21
218.2285807348
 31
0.0
  0
LINE
  5
1D0
330
17F
100
AcDbEntity
  8
52433115
  6
Continuous
 62
     7
 48
25.4
100
AcDbLine
 10
335.1253369163
 20
205.4785807348
 30
0.0
 11
336.1212661307
 21
205.4785807348
 31
0.0
  0
LINE
  5
1D1
330
17F
100
AcDbEntity
  8
52433115
  6
Continuous
 62
     7
 48
25.4
100
AcDbLine
 10
336.1212661307
 20
218.9785807348
 30
0.0
 11
335.1253369163
 21
218.9785807348
 31
0.0
  0
LINE
  5
1D2
330
17F
100
AcDbEntity
  8
52433115
  6
Continuous
 62
     7
 48
25.4
100
AcDbLine
 10
320.8932861087
 20
218.2285807348
 30
0.0
 11
303.7459831138
 21
218.2285807348
 31
0.0
  0
LINE
  5
1D3
330
17F
100
AcDbEntity
  8
52433115
  6
Continuous
 62
     7
 48
25.4
100
AcDbLine
 10
303.7459831138
 20
206.2285807348
 30
0.0
 11
320.8932861087
 21
206.2285807348
 31
0.0
  0
LINE
  5
1D4
330
17F
100
AcDbEntity
  8
52433115
  6
Continuous
 62
     7
 48
25.4
100
AcDbLine
 10
325.5698232892
 20
205.3285807348
 30
0.0
 11
329.7195655504
 21
205.3285807348
 31
0.0
  0
LINE
  5
1D5
330
17F
100
AcDbEntity
  8
52433115
  6
Continuous
 62
     7
 48
25.4
100
AcDbLine
 10
329.7195655504
 20
219.1285807348
 30
0.0
 11
325.5698232892
 21
219.1285807348
 31
0.0
  0
LINE
  5
1D6
330
17F
100
AcDbEntity
  8
52433115
  6
Continuous
 62
     7
 48
25.4
100
AcDbLine
 10
323.5779648605
 20
217.8624071432
 30
0.0
 11
323.0583496182
 21
217.1275602203
 31
0.0
  0
LINE
  5
1D7
330
17F
100
AcDbEntity
  8
52433115
  6
Continuous
 62
     7
 48
25.4
100
AcDbLine
 10
323.0583496182
 20
207.3296012492
 30
0.0
 11
323.5779648605
 21
206.5947543264
 31
0.0
  0
LINE
  5
1D8
330
17F
100
AcDbEntity
  8
52433115
  6
Continuous
 62
     7
 48
25.4
100
AcDbLine
 10
323.6212661307
 20
206.2285807348
 30
0.0
 11
323.8661507854
 21
206.2285807348
 31
0.0
  0
LINE
  5
1D9
330
17F
100
AcDbEntity
  8
52433115
  6
Continuous
 62
     7
 48
25.4
100
AcDbLine
 10
323.8661507854
 20
218.2285807348
 30
0.0
 11
323.6212661307
 21
218.2285807348
 31
0.0
  0
LINE
  5
1DA
330
17F
100
AcDbEntity
  8
52433115
  6
Continuous
 62
     7
 48
25.4
100
AcDbLine
 10
322.6253369163
 20
205.4785807348
 30
0.0
 11
323.6212661307
 21
205.4785807348
 31
0.0
  0
LINE
  5
1DB
330
17F
100
AcDbEntity
  8
52433115
  6
Continuous
 62
     7
 48
25.4
100
AcDbLine
 10
323.6212661307
 20
218.9785807348
 30
0.0
 11
322.6253369163
 21
218.9785807348
 31
0.0
  0
ENDBLK
  5
1E0
330
17F
100
AcDbEntity
  8
0
100
AcDbBlockEnd
  0
BLOCK
  5
28A
330
1E1
100
AcDbEntity
  8
0
100
AcDbBlockBegin
  2
SE3
 70
     0
 71
     0
 10
0.0
 20
0.0
 30
0.0
  3
SE3
  1

  0
LINE
  5
1E3
330
1E1
100
AcDbEntity
  8
52433115
  6
Continuous
 62
     7
 48
25.4
100
AcDbLine
 10
289.9951533303
 20
77.3230134902
 30
0.0
 11
262.1421295694
 21
93.4039642563
 31
0.0
  0
LINE
  5
1E4
330
1E1
100
AcDbEntity
  8
52433115
  6
Continuous
 62
     7
 48
25.4
100
AcDbLine
 10
296.3580606123
 20
87.5057937187
 30
0.0
 11
267.7792222874
 21
104.0057937187
 31
0.0
  0
LINE
  5
1E5
330
1E1
100
AcDbEntity
  8
52433115
  6
Continuous
 62
     7
 48
25.4
100
AcDbLine
 10
275.0638319782
 20
68.6231078165
 30
0.0
 11
262.0734509215
 21
76.1231078165
 31
0.0
  0
LINE
  5
1E6
330
1E1
100
AcDbEntity
  8
52433115
  6
Continuous
 62
     7
 48
25.4
100
AcDbLine
 10
287.1215259358
 20
75.4179777996
 30
0.0
 11
261.9291339635
 21
89.9628120864
 31
0.0
  0
LINE
  5
1E7
330
1E1
100
AcDbEntity
  8
52433115
  6
Continuous
 62
     7
 48
25.4
100
AcDbLine
 10
270.6224291222
 20
103.430372413
 30
0.0
 11
294.4381277263
 21
89.680372413
 31
0.0
  0
ARC
  5
1E8
330
1E1
100
AcDbEntity
  8
52433115
  6
Continuous
 62
     7
 48
25.4
100
AcDbCircle
 10
344.8709641149
 20
118.7833840224
 30
0.0
 40
10.17294403908445
100
AcDbArc
 50
157.9966524678
 51
198.3432489586
  0
SPLINE
  5
1E9
330
1E1
100
AcDbEntity
  8
52433115
  6
Continuous
 62
     7
 48
25.4
100
AcDbSpline
210
0.0
220
0.0
230
1.0
 70
     8
 71
     3
 72
    16
 73
    12
 74
     0
 42
0.0000000001
 43
0.0000000001
 40
0.0
 40
0.0
 40
0.0
 40
0.0
 40
0.1250000000000001
 40
0.1250000000000001
 40
0.2500000000000001
 40
0.2500000000000001
 40
0.5000000000000001
 40
0.5000000000000001
 40
0.7500000000000001
 40
0.7500000000000001
 40
1.0
 40
1.0
 40
1.0
 40
1.0
 10
335.438997315345
 20
122.5947870073495
 30
0.0
 10
335.3228060618093
 20
123.2332526982047
 30
0.0
 10
335.2167152506904
 20
123.8762693618044
 30
0.0
 10
335.031043162957
 20
125.1611340571787
 30
0.0
 10
334.9514002199314
 20
125.8031642992296
 30
0.0
 10
334.757735312052
 20
127.7278754499469
 30
0.0
 10
334.6899709565738
 20
129.0091464970746
 30
0.0
 10
334.6914113708295
 20
131.5675139808339
 30
0.0
 10
334.760562468776
 20
132.8446120532999
 30
0.0
 10
335.0189986009279
 20
135.3951466986752
 30
0.0
 10
335.2074850303742
 20
136.6686076118422
 30
0.0
 10
335.438997315345
 20
137.9407571624098
 30
0.0
  0
ARC
  5
1EA
330
1E1
100
AcDbEntity
  8
52433115
  6
Continuous
 62
     7
 48
25.4
100
AcDbCircle
 10
345.0171919927
 20
141.7772497012
 30
0.0
 40
10.31796919345979
100
AcDbArc
 50
158.171704521
 51
201.828295479
  0
SPLINE
  5
1EB
330
1E1
100
AcDbEntity
  8
52433115
  6
Continuous
 62
     7
 48
25.4
100
AcDbSpline
210
0.0
220
0.0
230
1.0
 70
     8
 71
     3
 72
    12
 73
     8
 74
     0
 42
0.0000000001
 43
0.0000000001
 40
0.5009621005258147
 40
0.5009621005258147
 40
0.5009621005258147
 40
0.5009621005258147
 40
0.6249999999999998
 40
0.6249999999999998
 40
0.7499999999999997
 40
0.7499999999999997
 40
1.0
 40
1.0
 40
1.0
 40
1.0
 10
335.0275637955111
 20
116.0522062354017
 30
0.0
 10
335.027563691555
 20
116.0522065326123
 30
0.0
 10
335.0324636631482
 20
116.0399426657476
 30
0.0
 10
335.0512062123685
 20
115.9930036010377
 30
0.0
 10
335.0651567235661
 20
115.9580559094783
 30
0.0
 10
335.1160910680986
 20
115.8303402554011
 30
0.0
 10
335.1630007207118
 20
115.7125706086221
 30
0.0
 10
335.2149257333205
 20
115.5818666953412
 30
0.0
  0
LINE
  5
1EC
330
1E1
100
AcDbEntity
  8
52433115
  6
Continuous
 62
     7
 48
25.4
100
AcDbLine
 10
344.2582543573
 20
114.9218019298
 30
0.0
 11
335.680203025
 21
114.9218019298
 31
0.0
  0
LINE
  5
1ED
330
1E1
100
AcDbEntity
  8
52433115
  6
Continuous
 62
     7
 48
25.4
100
AcDbLine
 10
322.3372195117
 20
122.144496659
 30
0.0
 11
322.3372195117
 21
140.6177720849
 31
0.0
  0
LINE
  5
1EE
330
1E1
100
AcDbEntity
  8
52433115
  6
Continuous
 62
     7
 48
25.4
100
AcDbLine
 10
326.4941414499
 20
119.2383346585
 30
0.0
 11
326.4941414499
 21
143.0177720849
 31
0.0
  0
ARC
  5
1EF
330
1E1
100
AcDbEntity
  8
52433115
  6
Continuous
 62
     7
 48
25.4
100
AcDbCircle
 10
529.8487320176
 20
383.1023083995
 30
0.0
 40
333.4066695956524
100
AcDbArc
 50
231.5085675627
 51
232.1497221971
  0
LINE
  5
1F0
330
1E1
100
AcDbEntity
  8
52433115
  6
Continuous
 62
     7
 48
25.4
100
AcDbLine
 10
325.2703365263
 20
119.8387761185
 30
0.0
 11
326.4941414499
 21
119.2383346585
 31
0.0
  0
LINE
  5
1F1
330
1E1
100
AcDbEntity
  8
52433115
  6
Continuous
 62
     7
 48
25.4
100
AcDbLine
 10
334.4941414499
 20
143.0177720849
 30
0.0
 11
334.4941414499
 21
117.5177720849
 31
0.0
  0
ARC
  5
1F2
330
1E1
100
AcDbEntity
  8
52433115
  6
Continuous
 62
     7
 48
25.4
100
AcDbCircle
 10
324.5057547761
 20
82.190808274
 30
0.0
 40
37.10084760182189
100
AcDbArc
 50
78.7448112031
 51
86.9278121306
  0
SPLINE
  5
1F3
330
1E1
100
AcDbEntity
  8
52433115
  6
Continuous
 62
     7
 48
25.4
100
AcDbSpline
210
0.0
220
0.0
230
1.0
 70
     8
 71
     3
 72
    12
 73
     8
 74
     0
 42
0.0000000001
 43
0.0000000001
 40
0.0
 40
0.0
 40
0.0
 40
0.0
 40
0.2499999999999998
 40
0.2499999999999998
 40
0.5
 40
0.5
 40
0.5003553079373683
 40
0.5003553079373683
 40
0.5003553079373683
 40
0.5003553079373683
 10
331.747066404077
 20
118.5781178568945
 30
0.0
 10
332.4325739991392
 20
118.2920144807384
 30
0.0
 10
333.033500896956
 20
118.0294746836966
 30
0.0
 10
333.9160779053319
 20
117.6384909714642
 30
0.0
 10
334.1806781995077
 20
117.5181067883243
 30
0.0
 10
334.1814183660145
 20
117.5177723519921
 30
0.0
 10
334.1814188766271
 20
117.5177721229534
 30
0.0
 10
334.1814188476606
 20
117.5177721393779
 30
0.0
  0
ELLIPSE
  5
1F4
330
1E1
100
AcDbEntity
  8
52433115
  6
Continuous
 62
     7
 48
25.4
100
AcDbEllipse
 10
325.2878981799
 20
114.9218019298
 30
0.0
 11
10.78557204616299
 21
-1.815202255624425
 31
0.0
210
0.0
220
0.0
230
1.0
 40
0.4514162297
 41
0.3568621894807781
 42
0.4842358530000417
  0
SPLINE
  5
1F5
330
1E1
100
AcDbEntity
  8
52433115
  6
Continuous
 62
     7
 48
25.4
100
AcDbSpline
210
0.0
220
0.0
230
1.0
 70
     8
 71
     3
 72
    10
 73
     6
 74
     0
 42
0.0000000001
 43
0.0000000001
 40
0.0
 40
0.0
 40
0.0
 40
0.0
 40
0.5
 40
0.5
 40
0.500448049887616
 40
0.500448049887616
 40
0.500448049887616
 40
0.500448049887616
 10
279.9941414498597
 20
118.2712999365945
 30
0.0
 10
279.254558923904
 20
117.8199166855681
 30
0.0
 10
278.7566089498623
 20
117.5182671085184
 30
0.0
 10
278.7557934687993
 20
117.517772299568
 30
0.0
 10
278.7557931341078
 20
117.5177720960703
 30
0.0
 10
278.7557931946529
 20
117.5177721319754
 30
0.0
  0
ARC
  5
1F6
330
1E1
100
AcDbEntity
  8
52433115
  6
Continuous
 62
     7
 48
25.4
100
AcDbCircle
 10
372.055222646
 20
86.1480369484
 30
0.0
 40
75.06144007435236
100
AcDbArc
 50
170.0091782135
 51
173.2137103081
  0
ARC
  5
1F7
330
1E1
100
AcDbEntity
  8
52433115
  6
Continuous
 62
     7
 48
25.4
100
AcDbCircle
 10
322.6061152172
 20
90.1504643419
 30
0.0
 40
26.08334010045904
100
AcDbArc
 50
140.8287731558
 51
159.768438549
  0
ARC
  5
1F8
330
1E1
100
AcDbEntity
  8
52433115
  6
Continuous
 62
     7
 48
25.4
100
AcDbCircle
 10
313.4150549651
 20
99.1375261275
 30
0.0
 40
13.33199967250219
100
AcDbArc
 50
121.9214055128
 51
145.8284428444
  0
ARC
  5
1F9
330
1E1
100
AcDbEntity
  8
52433115
  6
Continuous
 62
     7
 48
25.4
100
AcDbCircle
 10
340.4980677841
 20
128.2687056825
 30
0.0
 40
29.79653041017675
100
AcDbArc
 50
195.8548858595
 51
196.124335942
  0
LINE
  5
1FA
330
1E1
100
AcDbEntity
  8
52433115
  6
Continuous
 62
     7
 48
25.4
100
AcDbLine
 10
311.8350949975
 20
120.1282379123
 30
0.0
 11
292.1531879022
 21
131.4915922719
 31
0.0
  0
ARC
  5
1FB
330
1E1
100
AcDbEntity
  8
52433115
  6
Continuous
 62
     7
 48
25.4
100
AcDbCircle
 10
270.0881993205
 20
143.8112827272
 30
0.0
 40
25.27129783035714
100
AcDbArc
 50
303.8124201009
 51
330.8237787381
  0
ARC
  5
1FC
330
1E1
100
AcDbEntity
  8
52433115
  6
Continuous
 62
     7
 48
25.4
100
AcDbCircle
 10
230.9381527482
 20
167.3319351749
 30
0.0
 40
69.37893021288311
100
AcDbArc
 50
314.9972866277
 51
320.0843124813
  0
ARC
  5
1FD
330
1E1
100
AcDbEntity
  8
52433115
  6
Continuous
 62
     7
 48
25.4
100
AcDbCircle
 10
139.2069938674
 20
118.7582944686
 30
0.0
 40
205.0871475824777
100
AcDbArc
 50
358.9281256505
 51
1.0718743495
  0
ARC
  5
1FE
330
1E1
100
AcDbEntity
  8
52433115
  6
Continuous
 62
     7
 48
25.4
100
AcDbCircle
 10
139.2066847081
 20
141.7772497012
 30
0.0
 40
205.0874566876837
100
AcDbArc
 50
358.9281272662
 51
1.0718727338
  0
SPLINE
  5
1FF
330
1E1
100
AcDbEntity
  8
52433115
  6
Continuous
 62
     7
 48
25.4
100
AcDbSpline
210
0.0
220
0.0
230
1.0
 70
     8
 71
     3
 72
    10
 73
     6
 74
     0
 42
0.0000000001
 43
0.0000000001
 40
0.0
 40
0.0
 40
0.0
 40
0.0
 40
0.5
 40
0.5
 40
1.0
 40
1.0
 40
1.0
 40
1.0
 10
344.2582543573126
 20
137.9407571624098
 30
0.0
 10
344.2805762084047
 20
135.3831211772216
 30
0.0
 10
344.2941413135001
 20
132.8254748993169
 30
0.0
 10
344.2941415862171
 20
127.7101504548634
 30
0.0
 10
344.2805764554321
 20
125.1524512969149
 30
0.0
 10
344.2582543573125
 20
122.5947870073608
 30
0.0
  0
LINE
  5
200
330
1E1
100
AcDbEntity
  8
52433115
  6
Continuous
 62
     7
 48
25.4
100
AcDbLine
 10
335.4389973153
 20
122.5947870073
 30
0.0
 11
344.2582543573
 21
122.5947870074
 31
0.0
  0
LINE
  5
201
330
1E1
100
AcDbEntity
  8
52433115
  6
Continuous
 62
     7
 48
25.4
100
AcDbLine
 10
344.2582543573
 20
137.9407571624
 30
0.0
 11
335.4389973153
 21
137.9407571624
 31
0.0
  0
LINE
  5
202
330
1E1
100
AcDbEntity
  8
52433115
  6
Continuous
 62
     7
 48
25.4
100
AcDbLine
 10
344.2582543573
 20
145.6137422399
 30
0.0
 11
335.4389973153
 21
145.6137422399
 31
0.0
  0
LINE
  5
203
330
1E1
100
AcDbEntity
  8
52433115
  6
Continuous
 62
     7
 48
25.4
100
AcDbLine
 10
284.151063388
 20
122.8142746488
 30
0.0
 11
284.151063388
 21
140.6177720849
 31
0.0
  0
LINE
  5
204
330
1E1
100
AcDbEntity
  8
52433115
  6
Continuous
 62
     7
 48
25.4
100
AcDbLine
 10
271.9941414499
 20
143.0177720849
 30
0.0
 11
271.9941414499
 21
117.5177720849
 31
0.0
  0
LINE
  5
205
330
1E1
100
AcDbEntity
  8
52433115
  6
Continuous
 62
     7
 48
25.4
100
AcDbLine
 10
279.9941414499
 20
143.0177720849
 30
0.0
 11
279.9941414499
 21
118.2712999366
 31
0.0
  0
SPLINE
  5
206
330
1E1
100
AcDbEntity
  8
52433115
  6
Continuous
 62
     7
 48
25.4
100
AcDbSpline
210
0.0
220
0.0
230
1.0
 70
     8
 71
     3
 72
    10
 73
     6
 74
     0
 42
0.0000000001
 43
0.0000000001
 40
0.0
 40
0.0
 40
0.0
 40
0.0
 40
0.5
 40
0.5
 40
1.0
 40
1.0
 40
1.0
 40
1.0
 10
262.2300285424067
 20
137.9407571624098
 30
0.0
 10
262.2077066913146
 20
135.3831211772197
 30
0.0
 10
262.1941415862193
 20
132.8254748993132
 30
0.0
 10
262.1941413135022
 20
127.7101504548558
 30
0.0
 10
262.2077064442874
 20
125.1524512969055
 30
0.0
 10
262.2300285424067
 20
122.5947870073495
 30
0.0
  0
LINE
  5
207
330
1E1
100
AcDbEntity
  8
52433115
  6
Continuous
 62
     7
 48
25.4
100
AcDbLine
 10
262.2300285424
 20
122.5947870073
 30
0.0
 11
271.0492855844
 21
122.5947870073
 31
0.0
  0
SPLINE
  5
208
330
1E1
100
AcDbEntity
  8
52433115
  6
Continuous
 62
     7
 48
25.4
100
AcDbSpline
210
0.0
220
0.0
230
1.0
 70
     8
 71
     3
 72
    16
 73
    12
 74
     0
 42
0.0000000001
 43
0.0000000001
 40
0.0
 40
0.0
 40
0.0
 40
0.0
 40
0.125
 40
0.125
 40
0.2499999999999999
 40
0.2499999999999999
 40
0.4999999999999999
 40
0.4999999999999999
 40
0.7499999999999999
 40
0.7499999999999999
 40
1.0
 40
1.0
 40
1.0
 40
1.0
 10
271.0492855843743
 20
122.5947870073495
 30
0.0
 10
271.16547683791
 20
123.2332526982047
 30
0.0
 10
271.271567649029
 20
123.8762693618044
 30
0.0
 10
271.4572397367624
 20
125.1611340571787
 30
0.0
 10
271.536882679788
 20
125.8031642992296
 30
0.0
 10
271.7305475876673
 20
127.7278754499468
 30
0.0
 10
271.7983119431455
 20
129.0091464970746
 30
0.0
 10
271.7968715288899
 20
131.5675139808339
 30
0.0
 10
271.7277204309434
 20
132.8446120532999
 30
0.0
 10
271.4692842987915
 20
135.3951466986752
 30
0.0
 10
271.2807978693452
 20
136.6686076118422
 30
0.0
 10
271.0492855843743
 20
137.9407571624098
 30
0.0
  0
LINE
  5
209
330
1E1
100
AcDbEntity
  8
52433115
  6
Continuous
 62
     7
 48
25.4
100
AcDbLine
 10
271.0492855844
 20
137.9407571624
 30
0.0
 11
262.2300285424
 21
137.9407571624
 31
0.0
  0
ARC
  5
20A
330
1E1
100
AcDbEntity
  8
52433115
  6
Continuous
 62
     7
 48
25.4
100
AcDbCircle
 10
261.471090907
 20
141.7772497012
 30
0.0
 40
10.31796919345958
100
AcDbArc
 50
338.171704521
 51
21.828295479
  0
LINE
  5
20B
330
1E1
100
AcDbEntity
  8
52433115
  6
Continuous
 62
     7
 48
25.4
100
AcDbLine
 10
271.0492855844
 20
145.6137422399
 30
0.0
 11
262.2300285424
 21
145.6137422399
 31
0.0
  0
ARC
  5
20C
330
1E1
100
AcDbEntity
  8
52433115
  6
Continuous
 62
     7
 48
25.4
100
AcDbCircle
 10
467.2809796661
 20
141.7772497012
 30
0.0
 40
205.08683827031
100
AcDbArc
 50
178.9281240337
 51
181.0718759663
  0
LINE
  5
20D
330
1E1
100
AcDbEntity
  8
52433115
  6
Continuous
 62
     7
 48
25.4
100
AcDbLine
 10
271.0492855844
 20
114.9218019298
 30
0.0
 11
262.2300285424
 21
114.9218019298
 31
0.0
  0
ARC
  5
20E
330
1E1
100
AcDbEntity
  8
52433115
  6
Continuous
 62
     7
 48
25.4
100
AcDbCircle
 10
467.2812890324
 20
118.7582944686
 30
0.0
 40
205.0871475824986
100
AcDbArc
 50
178.9281256505
 51
181.0718743495
  0
ARC
  5
20F
330
1E1
100
AcDbEntity
  8
52433115
  6
Continuous
 62
     7
 48
25.4
100
AcDbCircle
 10
261.470929379
 20
118.7582944686
 30
0.0
 40
10.31811914049329
100
AcDbArc
 50
338.172038032
 51
21.827961968
  0
SPLINE
  5
210
330
1E1
100
AcDbEntity
  8
52433115
  6
Continuous
 62
     7
 48
25.4
100
AcDbSpline
210
0.0
220
0.0
230
1.0
 70
     8
 71
     3
 72
    16
 73
    12
 74
     0
 42
0.0000000001
 43
0.0000000001
 40
0.0
 40
0.0
 40
0.0
 40
0.0
 40
0.2499999999999999
 40
0.2499999999999999
 40
0.4999999999999998
 40
0.4999999999999998
 40
0.6249999999999998
 40
0.6249999999999998
 40
0.7499999999999999
 40
0.7499999999999999
 40
1.0
 40
1.0
 40
1.0
 40
1.0
 10
311.8350949974739
 20
120.1282379122656
 30
0.0
 10
311.4630877767289
 20
120.5830562264209
 30
0.0
 10
310.5022583477561
 20
121.7620109643199
 30
0.0
 10
308.0521209771889
 20
124.5578666749682
 30
0.0
 10
306.5661119710513
 20
126.1939063071857
 30
0.0
 10
303.9966536834003
 20
128.4134848773379
 30
0.0
 10
303.0855754357764
 20
129.1043540297329
 30
0.0
 10
301.1331410533726
 20
130.2556611814226
 30
0.0
 10
300.0642282215958
 20
130.7197847496697
 30
0.0
 10
296.7625569845679
 20
131.6309485127724
 30
0.0
 10
294.434020627435
 20
131.6464736022051
 30
0.0
 10
292.1531879022454
 20
131.491592271861
 30
0.0
  0
LINE
  5
211
330
1E1
100
AcDbEntity
  8
52433115
  6
Continuous
 62
     7
 48
25.4
100
AcDbLine
 10
298.1320474947
 20
99.1704776408
 30
0.0
 11
311.3875106432
 21
106.8235228578
 31
0.0
  0
LINE
  5
212
330
1E1
100
AcDbEntity
  8
52433115
  6
Continuous
 62
     7
 48
25.4
100
AcDbLine
 10
311.3875106432
 20
106.8235228578
 30
0.0
 11
307.0278553416
 21
109.3064746958
 31
0.0
  0
LINE
  5
213
330
1E1
100
AcDbEntity
  8
52433115
  6
Continuous
 62
     7
 48
25.4
100
AcDbLine
 10
302.3846983487
 20
106.6257467561
 30
0.0
 11
307.0278553416
 21
109.3064746958
 31
0.0
  0
LINE
  5
214
330
1E1
100
AcDbEntity
  8
52433115
  6
Continuous
 62
     7
 48
25.4
100
AcDbLine
 10
307.0278553416
 20
109.3064746958
 30
0.0
 11
306.3656872011
 21
110.4533835583
 31
0.0
  0
LINE
  5
215
330
1E1
100
AcDbEntity
  8
52433115
  6
Continuous
 62
     7
 48
25.4
100
AcDbLine
 10
316.3875106432
 20
98.1632688199
 30
0.0
 11
311.3875106432
 21
106.8235228578
 31
0.0
  0
LINE
  5
216
330
1E1
100
AcDbEntity
  8
52433115
  6
Continuous
 62
     7
 48
25.4
100
AcDbLine
 10
317.8130525366
 20
95.8686143622
 30
0.0
 11
302.2245952685
 21
86.8686143622
 31
0.0
  0
ARC
  5
217
330
1E1
100
AcDbEntity
  8
52433115
  6
Continuous
 62
     7
 48
25.4
100
AcDbCircle
 10
321.1237938508
 20
112.6777496797
 30
0.0
 40
9.544197200715979
100
AcDbArc
 50
82.6957877311
 51
129.9579214942
  0
LINE
  5
218
330
1E1
100
AcDbEntity
  8
52433115
  6
Continuous
 62
     7
 48
25.4
100
AcDbLine
 10
325.2703365263
 20
119.8387761185
 30
0.0
 11
317.6303005392
 21
115.4277992847
 31
0.0
  0
LINE
  5
219
330
1E1
100
AcDbEntity
  8
52433115
  6
Continuous
 62
     7
 48
25.4
100
AcDbLine
 10
317.6303005392
 20
115.4277992847
 30
0.0
 11
317.6007722565
 21
110.4107511228
 31
0.0
  0
LINE
  5
21A
330
1E1
100
AcDbEntity
  8
52433115
  6
Continuous
 62
     7
 48
25.4
100
AcDbLine
 10
323.8752303631
 20
99.3686143622
 30
0.0
 11
339.4636876312
 21
108.3686143622
 31
0.0
  0
LINE
  5
21B
330
1E1
100
AcDbEntity
  8
52433115
  6
Continuous
 62
     7
 48
25.4
100
AcDbLine
 10
331.7470664041
 20
118.5781178569
 30
0.0
 11
317.6007722565
 21
110.4107511228
 31
0.0
  0
LINE
  5
21C
330
1E1
100
AcDbEntity
  8
52433115
  6
Continuous
 62
     7
 48
25.4
100
AcDbLine
 10
317.6007722565
 20
110.4107511228
 30
0.0
 11
322.6007722565
 21
101.7504970849
 31
0.0
  0
LINE
  5
21D
330
1E1
100
AcDbEntity
  8
52433115
  6
Continuous
 62
     7
 48
25.4
100
AcDbLine
 10
316.3875106432
 20
98.1632688199
 30
0.0
 11
322.6007722565
 21
101.7504970849
 31
0.0
  0
LINE
  5
21E
330
1E1
100
AcDbEntity
  8
52433115
  6
Continuous
 62
     7
 48
25.4
100
AcDbLine
 10
317.6303005392
 20
115.4277992847
 30
0.0
 11
314.9942732651
 21
119.9935324536
 31
0.0
  0
LINE
  5
21F
330
1E1
100
AcDbEntity
  8
52433115
  6
Continuous
 62
     7
 48
25.4
100
AcDbLine
 10
314.9942732651
 20
119.9935324536
 30
0.0
 11
311.8736947339
 21
119.9935324536
 31
0.0
  0
LINE
  5
220
330
1E1
100
AcDbEntity
  8
52433115
  6
Continuous
 62
     7
 48
25.4
100
AcDbLine
 10
311.8736947339
 20
119.9935324536
 30
0.0
 11
306.3656872011
 21
110.4533835583
 31
0.0
  0
SPLINE
  5
221
330
1E1
100
AcDbEntity
  8
52433115
  6
Continuous
 62
     7
 48
25.4
100
AcDbSpline
210
0.0
220
0.0
230
1.0
 70
     8
 71
     3
 72
    26
 73
    22
 74
     0
 42
0.0000000001
 43
0.0000000001
 40
0.0
 40
0.0
 40
0.0
 40
0.0
 40
0.3332188762246482
 40
0.3332188762246482
 40
0.3332188762246482
 40
0.3333049793714082
 40
0.3333049793714082
 40
0.3333049793714082
 40
0.3333913483133231
 40
0.3333913483133231
 40
0.3333913483133231
 40
0.6666102245379711
 40
0.6666102245379711
 40
0.6666102245379711
 40
0.6666950206285913
 40
0.6666950206285913
 40
0.6666950206285913
 40
0.6667811237753514
 40
0.6667811237753514
 40
0.6667811237753514
 40
1.0
 40
1.0
 40
1.0
 40
1.0
 10
315.4836646772436
 20
131.0648380995496
 30
0.0
 10
315.4836646772436
 20
130.2384322315789
 30
0.0
 10
315.4836646772436
 20
129.4120263636083
 30
0.0
 10
315.4836646772436
 20
128.5856204956376
 30
0.0
 10
315.4836646772436
 20
128.4976009357354
 30
0.0
 10
315.4518798361677
 20
128.4218063147085
 30
0.0
 10
315.3883101540162
 20
128.360681620332
 30
0.0
 10
315.3235189176342
 20
128.29838235458
 30
0.0
 10
315.2489458508377
 20
128.2677720848796
 30
0.0
 10
315.1609262909355
 20
128.2677720848796
 30
0.0
 10
314.9734772281808
 20
128.2677720848796
 30
0.0
 10
314.7860281654261
 20
128.2677720848796
 30
0.0
 10
314.5985791026714
 20
128.2677720848796
 30
0.0
 10
314.5130045305443
 20
128.2677720848796
 30
0.0
 10
314.4396548972925
 20
128.2971119381804
 30
0.0
 10
314.3760852151409
 20
128.360681620332
 30
0.0
 10
314.3137380268768
 20
128.423028808596
 30
0.0
 10
314.2807306919135
 20
128.4976009357354
 30
0.0
 10
314.2807306919135
 20
128.5856204956376
 30
0.0
 10
314.2807306919135
 20
129.4120263636083
 30
0.0
 10
314.2807306919135
 20
130.2384322315789
 30
0.0
 10
314.2807306919135
 20
131.0648380995496
 30
0.0
  0
SPLINE
  5
222
330
1E1
100
AcDbEntity
  8
52433115
  6
Continuous
 62
     7
 48
25.4
100
AcDbSpline
210
0.0
220
0.0
230
1.0
 70
     8
 71
     3
 72
    32
 73
    28
 74
     0
 42
0.0000000001
 43
0.0000000001
 40
0.0
 40
0.0
 40
0.0
 40
0.0
 40
0.1999719572905488
 40
0.1999719572905488
 40
0.1999719572905488
 40
0.2832936061616111
 40
0.2832936061616111
 40
0.3666152550326731
 40
0.3666152550326731
 40
0.3999439145810977
 40
0.3999439145810977
 40
0.3999439145810977
 40
0.5999158718716465
 40
0.5999158718716465
 40
0.5999158718716465
 40
0.6000044130317266
 40
0.6000044130317266
 40
0.6000044130317266
 40
0.7999763703222754
 40
0.7999763703222754
 40
0.7999763703222754
 40
0.8000280427094511
 40
0.8000280427094511
 40
0.8000280427094511
 40
0.9428651550598435
 40
0.9428651550598435
 40
1.0
 40
1.0
 40
1.0
 40
1.0
 10
314.2807306919135
 20
131.0648380995496
 30
0.0
 10
314.063941775858
 20
131.0648380995496
 30
0.0
 10
313.8471528598026
 20
131.0648380995496
 30
0.0
 10
313.6303639437472
 20
131.0648380995496
 30
0.0
 10
313.542344383845
 20
131.0648380995496
 30
0.0
 10
313.4665497628182
 20
131.0966229406253
 30
0.0
 10
313.3443003740651
 20
131.2237623049286
 30
0.0
 10
313.3125155329893
 20
131.2971119381804
 30
0.0
 10
313.3125155329893
 20
131.4169163391584
 30
0.0
 10
313.3174055085394
 20
131.4511461680092
 30
0.0
 10
313.3271854596396
 20
131.48048602131
 30
0.0
 10
313.3891251499412
 20
131.6663050922146
 30
0.0
 10
313.4412848891425
 20
131.8553841468193
 30
0.0
 10
313.4983346038939
 20
132.042833209574
 30
0.0
 10
313.5438164526092
 20
132.1922735696386
 30
0.0
 10
313.6474788581726
 20
132.2677720848796
 30
0.0
 10
313.8064030635516
 20
132.2677720848796
 30
0.0
 10
314.5830941800961
 20
132.2677720848796
 30
0.0
 10
315.3597852966404
 20
132.2677720848796
 30
0.0
 10
316.1364764131849
 20
132.2677720848796
 30
0.0
 10
316.2244959730871
 20
132.2677720848796
 30
0.0
 10
316.300290594114
 20
132.2359872438038
 30
0.0
 10
316.3614152884905
 20
132.1724175616523
 30
0.0
 10
316.4237145542425
 20
132.1076263252703
 30
0.0
 10
316.4543248239428
 20
132.0354982462488
 30
0.0
 10
316.4543248239428
 20
131.9156938452708
 30
0.0
 10
316.4494348483927
 20
131.88146401642
 30
0.0
 10
316.4396548972925
 20
131.8521241631192
 30
0.0
  0
SPLINE
  5
223
330
1E1
100
AcDbEntity
  8
52433115
  6
Continuous
 62
     7
 48
25.4
100
AcDbSpline
210
0.0
220
0.0
230
1.0
 70
     8
 71
     3
 72
    14
 73
    10
 74
     0
 42
0.0000000001
 43
0.0000000001
 40
0.0
 40
0.0
 40
0.0
 40
0.0
 40
0.4998885654750458
 40
0.4998885654750458
 40
0.4998885654750458
 40
0.5001114345249541
 40
0.5001114345249541
 40
0.5001114345249541
 40
1.0
 40
1.0
 40
1.0
 40
1.0
 10
316.4396548972925
 20
131.8521241631192
 30
0.0
 10
316.3780412053609
 20
131.6672830873246
 30
0.0
 10
316.3271854596396
 20
131.4788560294599
 30
0.0
 10
316.2709507408133
 20
131.2922219626302
 30
0.0
 10
316.2250070089571
 20
131.1397420409629
 30
0.0
 10
316.1193614987595
 20
131.0648380995496
 30
0.0
 10
315.9604372933805
 20
131.0648380995496
 30
0.0
 10
315.8015130880015
 20
131.0648380995496
 30
0.0
 10
315.6425888826225
 20
131.0648380995496
 30
0.0
 10
315.4836646772436
 20
131.0648380995496
 30
0.0
  0
LINE
  5
224
330
1E1
100
AcDbEntity
  8
52433115
  6
Continuous
 62
     7
 48
25.4
100
AcDbLine
 10
317.8821976846
 20
130.6149603489
 30
0.0
 11
317.5325644327
 21
129.4707060702
 31
0.0
  0
SPLINE
  5
225
330
1E1
100
AcDbEntity
  8
52433115
  6
Continuous
 62
     7
 48
25.4
100
AcDbSpline
210
0.0
220
0.0
230
1.0
 70
     8
 71
     3
 72
    55
 73
    51
 74
     0
 42
0.0000000001
 43
0.0000000001
 40
0.0
 40
0.0
 40
0.0
 40
0.0
 40
0.1110884006543617
 40
0.1110884006543617
 40
0.1110884006543617
 40
0.1581376056373861
 40
0.1581376056373861
 40
0.2051868106204095
 40
0.2051868106204095
 40
0.2221768013087234
 40
0.2221768013087234
 40
0.2221768013087234
 40
0.3332652019630852
 40
0.3332652019630852
 40
0.3332652019630852
 40
0.3333143525883017
 40
0.3333143525883017
 40
0.3333143525883017
 40
0.4444027532426635
 40
0.4444027532426635
 40
0.4444027532426635
 40
0.4444314582817455
 40
0.4444314582817455
 40
0.4444314582817455
 40
0.5254334170922173
 40
0.5254334170922173
 40
0.5555198589361072
 40
0.5555198589361072
 40
0.5555198589361072
 40
0.666608259590469
 40
0.666608259590469
 40
0.666608259590469
 40
0.6666570955308576
 40
0.6666570955308576
 40
0.6666570955308576
 40
0.7777454961852194
 40
0.7777454961852194
 40
0.7777454961852194
 40
0.7777944936521946
 40
0.7777944936521946
 40
0.7777944936521946
 40
0.8888828943065563
 40
0.8888828943065563
 40
0.8888828943065563
 40
0.9189693361504463
 40
0.9189693361504463
 40
0.9999712949609181
 40
0.9999712949609181
 40
0.9999712949609181
 40
1.0
 40
1.0
 40
1.0
 40
1.0
 10
317.5325644327447
 20
129.4707060702097
 30
0.0
 10
317.5757592167709
 20
129.4707060702097
 30
0.0
 10
317.6189540007969
 20
129.4707060702097
 30
0.0
 10
317.662148784823
 20
129.4707060702097
 30
0.0
 10
317.7501683447252
 20
129.4707060702097
 30
0.0
 10
317.8259629657521
 20
129.4389212291339
 30
0.0
 10
317.9531023300553
 20
129.3117818648308
 30
0.0
 10
317.9848871711311
 20
129.2359872438038
 30
0.0
 10
317.9848871711311
 20
129.1161828428259
 30
0.0
 10
317.979997195581
 20
129.0843980017501
 30
0.0
 10
317.9702172444807
 20
129.0550581484493
 30
0.0
 10
317.9083590537717
 20
128.8694835763222
 30
0.0
 10
317.8528578312777
 20
128.68179001479
 30
0.0
 10
317.7941781246763
 20
128.4951559479603
 30
0.0
 10
317.7468453676742
 20
128.3446114847174
 30
0.0
 10
317.6499238459477
 20
128.2677720848796
 30
0.0
 10
317.4909996405688
 20
128.2677720848796
 30
0.0
 10
317.1079515558092
 20
128.2677720848796
 30
0.0
 10
316.7249034710496
 20
128.2677720848796
 30
0.0
 10
316.34185538629
 20
128.2677720848796
 30
0.0
 10
316.2538358263878
 20
128.2677720848796
 30
0.0
 10
316.1780412053609
 20
128.2995569259554
 30
0.0
 10
316.1169165109844
 20
128.363126608107
 30
0.0
 10
316.0546172452324
 20
128.427917844489
 30
0.0
 10
316.0240069755321
 20
128.5000459235104
 30
0.0
 10
316.0240069755321
 20
128.6174053367134
 30
0.0
 10
316.0288969510822
 20
128.6491901777892
 30
0.0
 10
316.0386769021824
 20
128.68342000664
 30
0.0
 10
316.3603081242151
 20
129.809129283754
 30
0.0
 10
316.7232734791995
 20
130.923028808596
 30
0.0
 10
317.0655717677081
 20
132.042833209574
 30
0.0
 10
317.1110266833505
 20
132.1915357193183
 30
0.0
 10
317.2122710342118
 20
132.2677720848796
 30
0.0
 10
317.3687502518156
 20
132.2677720848796
 30
0.0
 10
317.7110485403242
 20
132.2677720848796
 30
0.0
 10
318.0533468288328
 20
132.2677720848796
 30
0.0
 10
318.3956451173414
 20
132.2677720848796
 30
0.0
 10
318.5521243349453
 20
132.2677720848796
 30
0.0
 10
318.6548138214978
 20
132.1919774638527
 30
0.0
 10
318.7037135769991
 20
132.042833209574
 30
0.0
 10
319.0684504575127
 20
130.9303857240075
 30
0.0
 10
319.3883101540162
 20
129.803224407618
 30
0.0
 10
319.7306084425247
 20
128.68342000664
 30
0.0
 10
319.7408043839414
 20
128.650064712577
 30
0.0
 10
319.7403883936249
 20
128.6174053367134
 30
0.0
 10
319.7403883936249
 20
128.5000459235104
 30
0.0
 10
319.7110485403242
 20
128.4266962902586
 30
0.0
 10
319.6474788581726
 20
128.363126608107
 30
0.0
 10
319.5851316699086
 20
128.300779419843
 30
0.0
 10
319.5105595427693
 20
128.2677720848796
 30
0.0
 10
319.422539982867
 20
128.2677720848796
 30
0.0
  0
SPLINE
  5
226
330
1E1
100
AcDbEntity
  8
52433115
  6
Continuous
 62
     7
 48
25.4
100
AcDbSpline
210
0.0
220
0.0
230
1.0
 70
     8
 71
     3
 72
    14
 73
    10
 74
     0
 42
0.0000000001
 43
0.0000000001
 40
0.0
 40
0.0
 40
0.0
 40
0.0
 40
0.4998893325293868
 40
0.4998893325293868
 40
0.4998893325293868
 40
0.5001106674706131
 40
0.5001106674706131
 40
0.5001106674706131
 40
1.0
 40
1.0
 40
1.0
 40
1.0
 10
319.422539982867
 20
128.2677720848796
 30
0.0
 10
319.2277559567872
 20
128.2677720848796
 30
0.0
 10
319.0329719307073
 20
128.2677720848796
 30
0.0
 10
318.8381879046274
 20
128.2677720848796
 30
0.0
 10
318.6792636992485
 20
128.2677720848796
 30
0.0
 10
318.5765742126959
 20
128.3435667059065
 30
0.0
 10
318.5301194449697
 20
128.4927109601853
 30
0.0
 10
318.3101629859573
 20
129.1988869601725
 30
0.0
 10
318.0981716047089
 20
129.9075438860206
 30
0.0
 10
317.8821976845786
 20
130.6149603489383
 30
0.0
  0
SPLINE
  5
227
330
1E1
100
AcDbEntity
  8
52433115
  6
Continuous
 62
     7
 48
25.4
100
AcDbSpline
210
0.0
220
0.0
230
1.0
 70
    11
 71
     3
 72
    87
 73
    83
 74
     0
 42
0.0000000001
 43
0.0000000001
 40
0.0
 40
0.0
 40
0.0
 40
0.0
 40
0.0000231709371567
 40
0.0000231709371567
 40
0.0000231709371567
 40
0.0000463418743135
 40
0.0000463418743135
 40
0.0000463418743135
 40
0.0714582114784952
 40
0.0714582114784952
 40
0.0714582114784952
 40
0.0714818795306854
 40
0.0714818795306854
 40
0.0714818795306854
 40
0.106777401289074
 40
0.106777401289074
 40
0.1428937491348671
 40
0.1428937491348671
 40
0.1428937491348671
 40
0.2143056187390488
 40
0.2143056187390488
 40
0.2143056187390488
 40
0.2504127438198148
 40
0.2504127438198148
 40
0.2857174883432305
 40
0.2857174883432305
 40
0.2857174883432305
 40
0.2857411348217821
 40
0.2857411348217821
 40
0.2857411348217821
 40
0.3571530044259638
 40
0.3571530044259638
 40
0.3571530044259638
 40
0.3571760864246756
 40
0.3571760864246756
 40
0.3571760864246756
 40
0.4285879560288572
 40
0.4285879560288572
 40
0.4285879560288572
 40
0.4639015179210353
 40
0.4639015179210353
 40
0.499999825633039
 40
0.499999825633039
 40
0.499999825633039
 40
0.5714116952372208
 40
0.5714116952372208
 40
0.5714116952372208
 40
0.5714347772359325
 40
0.5714347772359325
 40
0.5714347772359325
 40
0.6428466468401142
 40
0.6428466468401142
 40
0.6428466468401142
 40
0.6428702350071351
 40
0.6428702350071351
 40
0.6428702350071351
 40
0.6793876683274553
 40
0.6793876683274553
 40
0.7142821046113169
 40
0.7142821046113169
 40
0.7142821046113169
 40
0.7856939742154986
 40
0.7856939742154986
 40
0.7856939742154986
 40
0.8205884104993599
 40
0.8205884104993599
 40
0.8571058438196803
 40
0.8571058438196803
 40
0.8571058438196803
 40
0.857129918917323
 40
0.857129918917323
 40
0.857129918917323
 40
0.9285417885215048
 40
0.9285417885215048
 40
0.9285417885215048
 40
0.9285649594586616
 40
0.9285649594586616
 40
0.9285649594586616
 40
0.9285881303958183
 40
0.9285881303958183
 40
0.9285881303958183
 40
1.0
 40
1.0
 40
1.0
 40
1.0
 10
312.7990681002265
 20
130.0721730628748
 30
0.0
 10
312.7990681002265
 20
129.959703625222
 30
0.0
 10
312.7599482958254
 20
129.8643491019946
 30
0.0
 10
312.6841536747986
 20
129.7861094931926
 30
0.0
 10
312.6083972374599
 20
129.7079092998107
 30
0.0
 10
312.5105595427692
 20
129.6711950677647
 30
0.0
 10
312.3980901051164
 20
129.6711950677647
 30
0.0
 10
311.3402253944399
 20
129.6711950677647
 30
0.0
 10
310.2823606837635
 20
129.6711950677647
 30
0.0
 10
309.224495973087
 20
129.6711950677647
 30
0.0
 10
309.1095815476592
 20
129.6711950677647
 30
0.0
 10
309.0142270244318
 20
129.6296302755887
 30
0.0
 10
308.9384324034049
 20
129.5465006912366
 30
0.0
 10
308.8638550790785
 20
129.4647062064915
 30
0.0
 10
308.8259629657521
 20
129.3704615714322
 30
0.0
 10
308.8259629657521
 20
129.1577476350019
 30
0.0
 10
308.865082770153
 20
129.0648380995496
 30
0.0
 10
308.943322378955
 20
128.9865984907476
 30
0.0
 10
308.9551398198678
 20
128.9747810498348
 30
0.0
 10
308.9677722567056
 20
128.963778604847
 30
0.0
 10
308.979997195581
 20
128.9523686618967
 30
0.0
 10
309.0620581867012
 20
128.8757784035179
 30
0.0
 10
309.0973566087839
 20
128.7787745298674
 30
0.0
 10
309.0973566087839
 20
128.561170617887
 30
0.0
 10
309.0582368043829
 20
128.4682610824347
 30
0.0
 10
308.9848871711311
 20
128.3875764858576
 30
0.0
 10
308.9104312085693
 20
128.3056749270397
 30
0.0
 10
308.8137380268768
 20
128.2677720848796
 30
0.0
 10
308.6963786136739
 20
128.2677720848796
 30
0.0
 10
308.5064845631441
 20
128.2677720848796
 30
0.0
 10
308.3165905126144
 20
128.2677720848796
 30
0.0
 10
308.1266964620846
 20
128.2677720848796
 30
0.0
 10
308.0166720122069
 20
128.2677720848796
 30
0.0
 10
307.9237624767546
 20
128.3068918892806
 30
0.0
 10
307.8430778801776
 20
128.3851314980826
 30
0.0
 10
307.3028258369986
 20
128.9090122672258
 30
0.0
 10
306.778693202101
 20
129.4495161761592
 30
0.0
 10
306.2465008630626
 20
129.9817085151975
 30
0.0
 10
306.1670387603732
 20
130.061170617887
 30
0.0
 10
306.1291414498597
 20
130.1553026472268
 30
0.0
 10
306.1291414498597
 20
130.3777965347574
 30
0.0
 10
306.1682612542606
 20
130.4731510579848
 30
0.0
 10
306.2465008630626
 20
130.5538356545618
 30
0.0
 10
306.7703816322059
 20
131.0940876977408
 30
0.0
 10
307.3108855411392
 20
131.6182203326384
 30
0.0
 10
307.8430778801776
 20
132.1504126716767
 30
0.0
 10
307.922539982867
 20
132.2298747743662
 30
0.0
 10
308.0166720122069
 20
132.2677720848796
 30
0.0
 10
308.1266964620846
 20
132.2677720848796
 30
0.0
 10
308.3165905126144
 20
132.2677720848796
 30
0.0
 10
308.5064845631441
 20
132.2677720848796
 30
0.0
 10
308.6963786136739
 20
132.2677720848796
 30
0.0
 10
308.8137380268768
 20
132.2677720848796
 30
0.0
 10
308.9090925501042
 20
132.2262072927036
 30
0.0
 10
308.9848871711311
 20
132.1479676839016
 30
0.0
 10
309.0607199758462
 20
132.0696886596796
 30
0.0
 10
309.0973566087839
 20
131.9719285640973
 30
0.0
 10
309.0973566087839
 20
131.7567696398919
 30
0.0
 10
309.0582368043829
 20
131.6638601044395
 30
0.0
 10
308.979997195581
 20
131.5856204956376
 30
0.0
 10
308.9681797546682
 20
131.5738030547248
 30
0.0
 10
308.9555473178304
 20
131.562800609737
 30
0.0
 10
308.943322378955
 20
131.5513906667867
 30
0.0
 10
308.8612613878348
 20
131.4748004084079
 30
0.0
 10
308.8259629657521
 20
131.3802415225324
 30
0.0
 10
308.8259629657521
 20
131.1650825983271
 30
0.0
 10
308.860192794603
 20
131.0721730628748
 30
0.0
 10
308.9335424278548
 20
130.9963784418479
 30
0.0
 10
309.0141442548296
 20
130.9130898873073
 30
0.0
 10
309.1095815476592
 20
130.8692390775447
 30
0.0
 10
309.224495973087
 20
130.8692390775447
 30
0.0
 10
310.2823606837635
 20
130.8692390775447
 30
0.0
 10
311.3402253944399
 20
130.8692390775447
 30
0.0
 10
312.3980901051164
 20
130.8692390775447
 30
0.0
 10
312.5105595427692
 20
130.8692390775447
 30
0.0
 10
312.6059140659966
 20
130.8301192731437
 30
0.0
 10
312.6841536747986
 20
130.7543246521168
 30
0.0
 10
312.7623538681805
 20
130.6785682147781
 30
0.0
 10
312.7990681002265
 20
130.5807305200875
 30
0.0
 10
312.7990681002265
 20
130.4682610824347
 30
0.0
 10
312.7990681002265
 20
130.3362317425814
 30
0.0
 10
312.7990681002265
 20
130.204202402728
 30
0.0
 10
312.7990681002265
 20
130.0721730628748
 30
0.0
  0
LINE
  5
228
330
1E1
100
AcDbEntity
  8
52433115
  6
Continuous
 62
     7
 48
25.4
100
AcDbLine
 10
315.7226714799
 20
70.6439610981
 30
0.0
 11
325.1149763253
 21
76.0666108289
 31
0.0
  0
LINE
  5
229
330
1E1
100
AcDbEntity
  8
52433115
  6
Continuous
 62
     7
 48
25.4
100
AcDbLine
 10
314.7226714799
 20
71.2213113673
 30
0.0
 11
325.1149763253
 21
77.2213113673
 31
0.0
  0
LINE
  5
22A
330
1E1
100
AcDbEntity
  8
52433115
  6
Continuous
 62
     7
 48
25.4
100
AcDbLine
 10
330.1819636234
 20
67.4450319256
 30
0.0
 11
320.6556841817
 21
61.9450319256
 31
0.0
  0
LINE
  5
22B
330
1E1
100
AcDbEntity
  8
52433115
  6
Continuous
 62
     7
 48
25.4
100
AcDbLine
 10
330.9902540002
 20
68.8450319256
 30
0.0
 11
319.039103428
 21
61.9450319256
 31
0.0
  0
LINE
  5
22C
330
1E1
100
AcDbEntity
  8
52433115
  6
Continuous
 62
     7
 48
25.4
100
AcDbLine
 10
328.5943991887
 20
72.9947741868
 30
0.0
 11
316.6432486164
 21
66.0947741868
 31
0.0
  0
LINE
  5
22D
330
1E1
100
AcDbEntity
  8
52433115
  6
Continuous
 62
     7
 48
25.4
100
AcDbLine
 10
327.3649763253
 20
73.3241970502
 30
0.0
 11
316.9726714799
 21
67.3241970502
 31
0.0
  0
LINE
  5
22E
330
1E1
100
AcDbEntity
  8
52433115
  6
Continuous
 62
     7
 48
25.4
100
AcDbLine
 10
327.3394953781
 20
74.8683313454
 30
0.0
 11
315.648152427
 21
68.1183313454
 31
0.0
  0
LINE
  5
22F
330
1E1
100
AcDbEntity
  8
52433115
  6
Continuous
 62
     7
 48
25.4
100
AcDbLine
 10
326.7644953781
 20
75.8642605597
 30
0.0
 11
315.073152427
 21
69.1142605597
 31
0.0
  0
LINE
  5
230
330
1E1
100
AcDbEntity
  8
52433115
  6
Continuous
 62
     7
 48
25.4
100
AcDbLine
 10
337.3733065745
 20
83.1439610981
 30
0.0
 11
346.7656114199
 21
88.5666108289
 31
0.0
  0
LINE
  5
231
330
1E1
100
AcDbEntity
  8
52433115
  6
Continuous
 62
     7
 48
25.4
100
AcDbLine
 10
336.3733065745
 20
83.7213113673
 30
0.0
 11
346.7656114199
 21
89.7213113673
 31
0.0
  0
LINE
  5
232
330
1E1
100
AcDbEntity
  8
52433115
  6
Continuous
 62
     7
 48
25.4
100
AcDbLine
 10
351.832598718
 20
79.9450319256
 30
0.0
 11
342.3063192764
 21
74.4450319256
 31
0.0
  0
LINE
  5
233
330
1E1
100
AcDbEntity
  8
52433115
  6
Continuous
 62
     7
 48
25.4
100
AcDbLine
 10
352.6408890948
 20
81.3450319256
 30
0.0
 11
340.6897385226
 21
74.4450319256
 31
0.0
  0
LINE
  5
234
330
1E1
100
AcDbEntity
  8
52433115
  6
Continuous
 62
     7
 48
25.4
100
AcDbLine
 10
350.2450342833
 20
85.4947741868
 30
0.0
 11
338.2938837111
 21
78.5947741868
 31
0.0
  0
LINE
  5
235
330
1E1
100
AcDbEntity
  8
52433115
  6
Continuous
 62
     7
 48
25.4
100
AcDbLine
 10
349.0156114199
 20
85.8241970502
 30
0.0
 11
338.6233065745
 21
79.8241970502
 31
0.0
  0
LINE
  5
236
330
1E1
100
AcDbEntity
  8
52433115
  6
Continuous
 62
     7
 48
25.4
100
AcDbLine
 10
348.9901304727
 20
87.3683313454
 30
0.0
 11
337.2987875216
 21
80.6183313454
 31
0.0
  0
LINE
  5
237
330
1E1
100
AcDbEntity
  8
52433115
  6
Continuous
 62
     7
 48
25.4
100
AcDbLine
 10
348.4151304727
 20
88.3642605597
 30
0.0
 11
336.7237875216
 21
81.6142605597
 31
0.0
  0
LINE
  5
238
330
1E1
100
AcDbEntity
  8
52433115
  6
Continuous
 62
     7
 48
25.4
100
AcDbLine
 10
344.3454827533
 20
119.9191133883
 30
0.0
 11
344.3454827533
 21
140.6164307815
 31
0.0
  0
LINE
  5
239
330
1E1
100
AcDbEntity
  8
52433115
  6
Continuous
 62
     7
 48
25.4
100
AcDbLine
 10
262.1450490797
 20
119.7902720849
 30
0.0
 11
262.1450490797
 21
140.7452720849
 31
0.0
  0
LINE
  5
23A
330
1E1
100
AcDbEntity
  8
52433115
  6
Continuous
 62
     7
 48
25.4
100
AcDbLine
 10
258.9941414499
 20
122.7677720849
 30
0.0
 11
258.9941414499
 21
137.7677720849
 31
0.0
  0
LINE
  5
23B
330
1E1
100
AcDbEntity
  8
52433115
  6
Continuous
 62
     7
 48
25.4
100
AcDbLine
 10
261.9716414499
 20
119.7902720849
 30
0.0
 11
261.9716414499
 21
140.7452720849
 31
0.0
  0
LINE
  5
23C
330
1E1
100
AcDbEntity
  8
52433115
  6
Continuous
 62
     7
 48
25.4
100
AcDbLine
 10
227.4941414499
 20
122.7677720849
 30
0.0
 11
227.4941414499
 21
137.7677720849
 31
0.0
  0
LINE
  5
23D
330
1E1
100
AcDbEntity
  8
52433115
  6
Continuous
 62
     7
 48
25.4
100
AcDbLine
 10
347.1941414499
 20
122.7677720849
 30
0.0
 11
347.1941414499
 21
137.7677720849
 31
0.0
  0
LINE
  5
23E
330
1E1
100
AcDbEntity
  8
52433115
  6
Continuous
 62
     7
 48
25.4
100
AcDbLine
 10
378.6941414499
 20
122.7677720849
 30
0.0
 11
378.6941414499
 21
137.7677720849
 31
0.0
  0
LINE
  5
23F
330
1E1
100
AcDbEntity
  8
52433115
  6
Continuous
 62
     7
 48
25.4
100
AcDbLine
 10
267.7792222874
 20
104.0057937187
 30
0.0
 11
262.1421295694
 21
93.4039642563
 31
0.0
  0
LINE
  5
240
330
1E1
100
AcDbEntity
  8
52433115
  6
Continuous
 62
     7
 48
25.4
100
AcDbLine
 10
289.9951533303
 20
77.3230134902
 30
0.0
 11
296.3580606123
 21
87.5057937187
 31
0.0
  0
ARC
  5
241
330
1E1
100
AcDbEntity
  8
52433115
  6
Continuous
 62
     7
 48
25.4
100
AcDbCircle
 10
272.6161180539
 20
87.0624461022
 30
0.0
 40
18.60108867434927
100
AcDbArc
 50
277.5614716397
 51
321.2436396899
  0
ARC
  5
242
330
1E1
100
AcDbEntity
  8
52433115
  6
Continuous
 62
     7
 48
25.4
100
AcDbCircle
 10
279.266243268
 20
83.2229945197
 30
0.0
 40
18.60108867434926
100
AcDbArc
 50
158.7563603101
 51
202.4385283603
  0
LINE
  5
243
330
1E1
100
AcDbEntity
  8
52433115
  6
Continuous
 62
     7
 48
25.4
100
AcDbLine
 10
262.1421295694
 20
93.4039642563
 30
0.0
 11
261.9291339635
 21
89.9628120864
 31
0.0
  0
LINE
  5
244
330
1E1
100
AcDbEntity
  8
52433115
  6
Continuous
 62
     7
 48
25.4
100
AcDbLine
 10
287.1215259358
 20
75.4179777996
 30
0.0
 11
289.9951533303
 21
77.3230134902
 31
0.0
  0
LINE
  5
245
330
1E1
100
AcDbEntity
  8
52433115
  6
Continuous
 62
     7
 48
25.4
100
AcDbLine
 10
294.7760694462
 20
88.4191567442
 30
0.0
 11
294.4381277263
 21
89.680372413
 31
0.0
  0
LINE
  5
246
330
1E1
100
AcDbEntity
  8
52433115
  6
Continuous
 62
     7
 48
25.4
100
AcDbLine
 10
270.6224291222
 20
103.430372413
 30
0.0
 11
269.3612134535
 21
103.0924306931
 31
0.0
  0
LINE
  5
247
330
1E1
100
AcDbEntity
  8
52433115
  6
Continuous
 62
     7
 48
25.4
100
AcDbLine
 10
335.4389973153
 20
145.6137422399
 30
0.0
 11
334.4941414499
 21
143.0177720849
 31
0.0
  0
LINE
  5
248
330
1E1
100
AcDbEntity
  8
52433115
  6
Continuous
 62
     7
 48
25.4
100
AcDbLine
 10
334.4941414499
 20
117.5177720849
 30
0.0
 11
335.0303906559
 21
116.0444395002
 31
0.0
  0
LINE
  5
249
330
1E1
100
AcDbEntity
  8
52433115
  6
Continuous
 62
     7
 48
25.4
100
AcDbLine
 10
322.3372195117
 20
140.6177720849
 30
0.0
 11
284.151063388
 21
140.6177720849
 31
0.0
  0
LINE
  5
24A
330
1E1
100
AcDbEntity
  8
52433115
  6
Continuous
 62
     7
 48
25.4
100
AcDbLine
 10
326.4941414499
 20
143.0177720849
 30
0.0
 11
322.3372195117
 21
140.6177720849
 31
0.0
  0
LINE
  5
24B
330
1E1
100
AcDbEntity
  8
52433115
  6
Continuous
 62
     7
 48
25.4
100
AcDbLine
 10
334.1633930461
 20
117.5177720849
 30
0.0
 11
334.4941414499
 21
117.5177720849
 31
0.0
  0
LINE
  5
24C
330
1E1
100
AcDbEntity
  8
52433115
  6
Continuous
 62
     7
 48
25.4
100
AcDbLine
 10
334.4941414499
 20
143.0177720849
 30
0.0
 11
326.4941414499
 21
143.0177720849
 31
0.0
  0
LINE
  5
24D
330
1E1
100
AcDbEntity
  8
52433115
  6
Continuous
 62
     7
 48
25.4
100
AcDbLine
 10
294.4381277263
 20
89.680372413
 30
0.0
 11
297.5269219883
 21
95.0303210088
 31
0.0
  0
LINE
  5
24E
330
1E1
100
AcDbEntity
  8
52433115
  6
Continuous
 62
     7
 48
25.4
100
AcDbLine
 10
278.7670055411
 20
117.5371925767
 30
0.0
 11
270.6224291222
 21
103.430372413
 31
0.0
  0
LINE
  5
24F
330
1E1
100
AcDbEntity
  8
52433115
  6
Continuous
 62
     7
 48
25.4
100
AcDbLine
 10
344.2582543573
 20
114.9218019298
 30
0.0
 11
344.3454827533
 21
119.9191133883
 31
0.0
  0
LINE
  5
250
330
1E1
100
AcDbEntity
  8
52433115
  6
Continuous
 62
     7
 48
25.4
100
AcDbLine
 10
344.3454827533
 20
140.6164307815
 30
0.0
 11
344.2582543573
 21
145.6137422399
 31
0.0
  0
LINE
  5
251
330
1E1
100
AcDbEntity
  8
52433115
  6
Continuous
 62
     7
 48
25.4
100
AcDbLine
 10
284.151063388
 20
140.6177720849
 30
0.0
 11
279.9941414499
 21
143.0177720849
 31
0.0
  0
LINE
  5
252
330
1E1
100
AcDbEntity
  8
52433115
  6
Continuous
 62
     7
 48
25.4
100
AcDbLine
 10
262.2300285424
 20
145.6137422399
 30
0.0
 11
262.1450490797
 21
140.7452720849
 31
0.0
  0
LINE
  5
253
330
1E1
100
AcDbEntity
  8
52433115
  6
Continuous
 62
     7
 48
25.4
100
AcDbLine
 10
262.1450490797
 20
119.7902720849
 30
0.0
 11
262.2300285424
 21
114.9218019298
 31
0.0
  0
LINE
  5
254
330
1E1
100
AcDbEntity
  8
52433115
  6
Continuous
 62
     7
 48
25.4
100
AcDbLine
 10
271.0492855844
 20
114.9218019298
 30
0.0
 11
271.9941414499
 21
117.5177720849
 31
0.0
  0
LINE
  5
255
330
1E1
100
AcDbEntity
  8
52433115
  6
Continuous
 62
     7
 48
25.4
100
AcDbLine
 10
271.9941414499
 20
143.0177720849
 30
0.0
 11
271.0492855844
 21
145.6137422399
 31
0.0
  0
LINE
  5
256
330
1E1
100
AcDbEntity
  8
52433115
  6
Continuous
 62
     7
 48
25.4
100
AcDbLine
 10
271.9941414499
 20
117.5177720849
 30
0.0
 11
278.7776602437
 21
117.5177720849
 31
0.0
  0
LINE
  5
257
330
1E1
100
AcDbEntity
  8
52433115
  6
Continuous
 62
     7
 48
25.4
100
AcDbLine
 10
279.9941414499
 20
143.0177720849
 30
0.0
 11
271.9941414499
 21
143.0177720849
 31
0.0
  0
LINE
  5
258
330
1E1
100
AcDbEntity
  8
52433115
  6
Continuous
 62
     7
 48
25.4
100
AcDbLine
 10
297.5133782596
 20
95.028681587
 30
0.0
 11
302.2245952685
 21
86.8686143622
 31
0.0
  0
LINE
  5
259
330
1E1
100
AcDbEntity
  8
52433115
  6
Continuous
 62
     7
 48
25.4
100
AcDbLine
 10
317.8130525366
 20
95.8686143622
 30
0.0
 11
316.4630525366
 21
98.2068829524
 31
0.0
  0
LINE
  5
25A
330
1E1
100
AcDbEntity
  8
52433115
  6
Continuous
 62
     7
 48
25.4
100
AcDbLine
 10
335.0275637963
 20
116.0522062329
 30
0.0
 11
334.1733914829
 21
117.5316760781
 31
0.0
  0
LINE
  5
25B
330
1E1
100
AcDbEntity
  8
52433115
  6
Continuous
 62
     7
 48
25.4
100
AcDbLine
 10
339.4636876312
 20
108.3686143622
 30
0.0
 11
335.680203025
 21
114.9218019298
 31
0.0
  0
LINE
  5
25C
330
1E1
100
AcDbEntity
  8
52433115
  6
Continuous
 62
     7
 48
25.4
100
AcDbLine
 10
322.5252303631
 20
101.7068829524
 30
0.0
 11
323.8752303631
 21
99.3686143622
 31
0.0
  0
LINE
  5
25D
330
1E1
100
AcDbEntity
  8
52433115
  6
Continuous
 62
     7
 48
25.4
100
AcDbLine
 10
324.3829255177
 20
74.4892605597
 30
0.0
 11
323.8829255177
 21
75.3552859635
 31
0.0
  0
LINE
  5
25E
330
1E1
100
AcDbEntity
  8
52433115
  6
Continuous
 62
     7
 48
25.4
100
AcDbLine
 10
316.9547222874
 20
71.3552859635
 30
0.0
 11
317.4547222874
 21
70.4892605597
 31
0.0
  0
LINE
  5
25F
330
1E1
100
AcDbEntity
  8
52433115
  6
Continuous
 62
     7
 48
25.4
100
AcDbLine
 10
325.1149763253
 20
77.2213113673
 30
0.0
 11
315.2149763253
 21
94.3686143622
 31
0.0
  0
LINE
  5
260
330
1E1
100
AcDbEntity
  8
52433115
  6
Continuous
 62
     7
 48
25.4
100
AcDbLine
 10
304.8226714799
 20
88.3686143622
 30
0.0
 11
314.7226714799
 21
71.2213113673
 31
0.0
  0
LINE
  5
261
330
1E1
100
AcDbEntity
  8
52433115
  6
Continuous
 62
     7
 48
25.4
100
AcDbLine
 10
314.7226714799
 20
71.2213113673
 30
0.0
 11
315.7226714799
 21
70.6439610981
 31
0.0
  0
LINE
  5
262
330
1E1
100
AcDbEntity
  8
52433115
  6
Continuous
 62
     7
 48
25.4
100
AcDbLine
 10
325.1149763253
 20
76.0666108289
 30
0.0
 11
325.1149763253
 21
77.2213113673
 31
0.0
  0
LINE
  5
263
330
1E1
100
AcDbEntity
  8
52433115
  6
Continuous
 62
     7
 48
25.4
100
AcDbLine
 10
319.039103428
 20
61.9450319256
 30
0.0
 11
320.6556841817
 21
61.9450319256
 31
0.0
  0
LINE
  5
264
330
1E1
100
AcDbEntity
  8
52433115
  6
Continuous
 62
     7
 48
25.4
100
AcDbLine
 10
330.1819636234
 20
67.4450319256
 30
0.0
 11
330.9902540002
 21
68.8450319256
 31
0.0
  0
LINE
  5
265
330
1E1
100
AcDbEntity
  8
52433115
  6
Continuous
 62
     7
 48
25.4
100
AcDbLine
 10
316.6432486164
 20
66.0947741868
 30
0.0
 11
319.039103428
 21
61.9450319256
 31
0.0
  0
LINE
  5
266
330
1E1
100
AcDbEntity
  8
52433115
  6
Continuous
 62
     7
 48
25.4
100
AcDbLine
 10
330.9902540002
 20
68.8450319256
 30
0.0
 11
328.5943991887
 21
72.9947741868
 31
0.0
  0
LINE
  5
267
330
1E1
100
AcDbEntity
  8
52433115
  6
Continuous
 62
     7
 48
25.4
100
AcDbLine
 10
328.5943991887
 20
72.9947741868
 30
0.0
 11
327.3649763253
 21
73.3241970502
 31
0.0
  0
LINE
  5
268
330
1E1
100
AcDbEntity
  8
52433115
  6
Continuous
 62
     7
 48
25.4
100
AcDbLine
 10
316.9726714799
 20
67.3241970502
 30
0.0
 11
316.6432486164
 21
66.0947741868
 31
0.0
  0
LINE
  5
269
330
1E1
100
AcDbEntity
  8
52433115
  6
Continuous
 62
     7
 48
25.4
100
AcDbLine
 10
316.2976714799
 20
68.4933313454
 30
0.0
 11
316.9726714799
 21
67.3241970502
 31
0.0
  0
LINE
  5
26A
330
1E1
100
AcDbEntity
  8
52433115
  6
Continuous
 62
     7
 48
25.4
100
AcDbLine
 10
327.3649763253
 20
73.3241970502
 30
0.0
 11
326.6899763253
 21
74.4933313454
 31
0.0
  0
LINE
  5
26B
330
1E1
100
AcDbEntity
  8
52433115
  6
Continuous
 62
     7
 48
25.4
100
AcDbLine
 10
315.073152427
 20
69.1142605597
 30
0.0
 11
315.648152427
 21
68.1183313454
 31
0.0
  0
LINE
  5
26C
330
1E1
100
AcDbEntity
  8
52433115
  6
Continuous
 62
     7
 48
25.4
100
AcDbLine
 10
327.3394953781
 20
74.8683313454
 30
0.0
 11
326.7644953781
 21
75.8642605597
 31
0.0
  0
LINE
  5
26D
330
1E1
100
AcDbEntity
  8
52433115
  6
Continuous
 62
     7
 48
25.4
100
AcDbLine
 10
346.0335606123
 20
86.9892605597
 30
0.0
 11
345.5335606123
 21
87.8552859635
 31
0.0
  0
LINE
  5
26E
330
1E1
100
AcDbEntity
  8
52433115
  6
Continuous
 62
     7
 48
25.4
100
AcDbLine
 10
338.605357382
 20
83.8552859635
 30
0.0
 11
339.105357382
 21
82.9892605597
 31
0.0
  0
LINE
  5
26F
330
1E1
100
AcDbEntity
  8
52433115
  6
Continuous
 62
     7
 48
25.4
100
AcDbLine
 10
346.7656114199
 20
89.7213113673
 30
0.0
 11
336.8656114199
 21
106.8686143622
 31
0.0
  0
LINE
  5
270
330
1E1
100
AcDbEntity
  8
52433115
  6
Continuous
 62
     7
 48
25.4
100
AcDbLine
 10
326.4733065745
 20
100.8686143622
 30
0.0
 11
336.3733065745
 21
83.7213113673
 31
0.0
  0
LINE
  5
271
330
1E1
100
AcDbEntity
  8
52433115
  6
Continuous
 62
     7
 48
25.4
100
AcDbLine
 10
336.3733065745
 20
83.7213113673
 30
0.0
 11
337.3733065745
 21
83.1439610981
 31
0.0
  0
LINE
  5
272
330
1E1
100
AcDbEntity
  8
52433115
  6
Continuous
 62
     7
 48
25.4
100
AcDbLine
 10
346.7656114199
 20
88.5666108289
 30
0.0
 11
346.7656114199
 21
89.7213113673
 31
0.0
  0
LINE
  5
273
330
1E1
100
AcDbEntity
  8
52433115
  6
Continuous
 62
     7
 48
25.4
100
AcDbLine
 10
340.6897385226
 20
74.4450319256
 30
0.0
 11
342.3063192764
 21
74.4450319256
 31
0.0
  0
LINE
  5
274
330
1E1
100
AcDbEntity
  8
52433115
  6
Continuous
 62
     7
 48
25.4
100
AcDbLine
 10
351.832598718
 20
79.9450319256
 30
0.0
 11
352.6408890948
 21
81.3450319256
 31
0.0
  0
LINE
  5
275
330
1E1
100
AcDbEntity
  8
52433115
  6
Continuous
 62
     7
 48
25.4
100
AcDbLine
 10
338.2938837111
 20
78.5947741868
 30
0.0
 11
340.6897385226
 21
74.4450319256
 31
0.0
  0
LINE
  5
276
330
1E1
100
AcDbEntity
  8
52433115
  6
Continuous
 62
     7
 48
25.4
100
AcDbLine
 10
352.6408890948
 20
81.3450319256
 30
0.0
 11
350.2450342833
 21
85.4947741868
 31
0.0
  0
LINE
  5
277
330
1E1
100
AcDbEntity
  8
52433115
  6
Continuous
 62
     7
 48
25.4
100
AcDbLine
 10
350.2450342833
 20
85.4947741868
 30
0.0
 11
349.0156114199
 21
85.8241970502
 31
0.0
  0
LINE
  5
278
330
1E1
100
AcDbEntity
  8
52433115
  6
Continuous
 62
     7
 48
25.4
100
AcDbLine
 10
338.6233065745
 20
79.8241970502
 30
0.0
 11
338.2938837111
 21
78.5947741868
 31
0.0
  0
LINE
  5
279
330
1E1
100
AcDbEntity
  8
52433115
  6
Continuous
 62
     7
 48
25.4
100
AcDbLine
 10
337.9483065745
 20
80.9933313454
 30
0.0
 11
338.6233065745
 21
79.8241970502
 31
0.0
  0
LINE
  5
27A
330
1E1
100
AcDbEntity
  8
52433115
  6
Continuous
 62
     7
 48
25.4
100
AcDbLine
 10
349.0156114199
 20
85.8241970502
 30
0.0
 11
348.3406114199
 21
86.9933313454
 31
0.0
  0
LINE
  5
27B
330
1E1
100
AcDbEntity
  8
52433115
  6
Continuous
 62
     7
 48
25.4
100
AcDbLine
 10
336.7237875216
 20
81.6142605597
 30
0.0
 11
337.2987875216
 21
80.6183313454
 31
0.0
  0
LINE
  5
27C
330
1E1
100
AcDbEntity
  8
52433115
  6
Continuous
 62
     7
 48
25.4
100
AcDbLine
 10
348.9901304727
 20
87.3683313454
 30
0.0
 11
348.4151304727
 21
88.3642605597
 31
0.0
  0
LINE
  5
27D
330
1E1
100
AcDbEntity
  8
52433115
  6
Continuous
 62
     7
 48
25.4
100
AcDbLine
 10
262.1450490797
 20
140.7452720849
 30
0.0
 11
261.9716414499
 21
140.7452720849
 31
0.0
  0
LINE
  5
27E
330
1E1
100
AcDbEntity
  8
52433115
  6
Continuous
 62
     7
 48
25.4
100
AcDbLine
 10
261.9716414499
 20
119.7902720849
 30
0.0
 11
262.1450490797
 21
119.7902720849
 31
0.0
  0
LINE
  5
27F
330
1E1
100
AcDbEntity
  8
52433115
  6
Continuous
 62
     7
 48
25.4
100
AcDbLine
 10
227.4941414499
 20
122.7677720849
 30
0.0
 11
258.9941414499
 21
122.7677720849
 31
0.0
  0
LINE
  5
280
330
1E1
100
AcDbEntity
  8
52433115
  6
Continuous
 62
     7
 48
25.4
100
AcDbLine
 10
258.9941414499
 20
137.7677720849
 30
0.0
 11
227.4941414499
 21
137.7677720849
 31
0.0
  0
LINE
  5
281
330
1E1
100
AcDbEntity
  8
52433115
  6
Continuous
 62
     7
 48
25.4
100
AcDbLine
 10
261.9716414499
 20
140.7452720849
 30
0.0
 11
258.9941414499
 21
137.7677720849
 31
0.0
  0
LINE
  5
282
330
1E1
100
AcDbEntity
  8
52433115
  6
Continuous
 62
     7
 48
25.4
100
AcDbLine
 10
258.9941414499
 20
122.7677720849
 30
0.0
 11
261.9716414499
 21
119.7902720849
 31
0.0
  0
LINE
  5
283
330
1E1
100
AcDbEntity
  8
52433115
  6
Continuous
 62
     7
 48
25.4
100
AcDbLine
 10
378.6941414499
 20
137.7677720849
 30
0.0
 11
347.1941414499
 21
137.7677720849
 31
0.0
  0
LINE
  5
284
330
1E1
100
AcDbEntity
  8
52433115
  6
Continuous
 62
     7
 48
25.4
100
AcDbLine
 10
347.1941414499
 20
122.7677720849
 30
0.0
 11
378.6941414499
 21
122.7677720849
 31
0.0
  0
LINE
  5
285
330
1E1
100
AcDbEntity
  8
52433115
  6
Continuous
 62
     7
 48
25.4
100
AcDbLine
 10
344.3454827533
 20
119.9191133883
 30
0.0
 11
347.1941414499
 21
122.7677720849
 31
0.0
  0
LINE
  5
286
330
1E1
100
AcDbEntity
  8
52433115
  6
Continuous
 62
     7
 48
25.4
100
AcDbLine
 10
347.1941414499
 20
137.7677720849
 30
0.0
 11
344.3454827533
 21
140.6164307815
 31
0.0
  0
ENDBLK
  5
28B
330
1E1
100
AcDbEntity
  8
0
100
AcDbBlockEnd
  0
ENDSEC
  0
SECTION
  2
ENTITIES
  0
INSERT
  5
2C
102
{ACAD_XDICTIONARY
360
D2
102
}
330
1F
100
AcDbEntity
  8
Default
100
AcDbBlockReference
  2
SE
 10
0.0
 20
0.0
 30
0.0
  0
INSERT
  5
D8
102
{ACAD_XDICTIONARY
360
17A
102
}
330
1F
100
AcDbEntity
  8
Default
100
AcDbBlockReference
  2
SE1
 10
0.0
 20
0.0
 30
0.0
  0
INSERT
  5
180
102
{ACAD_XDICTIONARY
360
1DC
102
}
330
1F
100
AcDbEntity
  8
Default
100
AcDbBlockReference
  2
SE2
 10
0.0
 20
0.0
 30
0.0
  0
INSERT
  5
1E2
102
{ACAD_XDICTIONARY
360
287
102
}
330
1F
100
AcDbEntity
  8
Default
100
AcDbBlockReference
  2
SE3
 10
0.0
 20
0.0
 30
0.0
  0
ENDSEC
  0
SECTION
  2
OBJECTS
  0
DICTIONARY
  5
C
330
0
100
AcDbDictionary
281
     1
  3
ACAD_GROUP
350
D
  3
ACAD_LAYOUT
350
1A
  3
ACAD_MLINESTYLE
350
17
  3
ACAD_PLOTSETTINGS
350
19
  3
ACAD_PLOTSTYLENAME
350
E
  0
DICTIONARY
  5
D2
330
2C
100
AcDbDictionary
280
     1
281
     1
  3
ACAD_FILTER
360
D3
  0
DICTIONARY
  5
17A
330
D8
100
AcDbDictionary
280
     1
281
     1
  3
ACAD_FILTER
360
17B
  0
DICTIONARY
  5
1DC
330
180
100
AcDbDictionary
280
     1
281
     1
  3
ACAD_FILTER
360
1DD
  0
DICTIONARY
  5
287
330
1E2
100
AcDbDictionary
280
     1
281
     1
  3
ACAD_FILTER
360
288
  0
DICTIONARY
  5
D
102
{ACAD_REACTORS
330
C
102
}
330
C
100
AcDbDictionary
281
     1
  0
DICTIONARY
  5
1A
102
{ACAD_REACTORS
330
C
102
}
330
C
100
AcDbDictionary
281
     1
  3
Layout1
350
1E
  3
Model
350
22
  0
DICTIONARY
  5
17
102
{ACAD_REACTORS
330
C
102
}
330
C
100
AcDbDictionary
281
     1
  3
Standard
350
18
  0
DICTIONARY
  5
19
102
{ACAD_REACTORS
330
C
102
}
330
C
100
AcDbDictionary
281
     1
  0
ACDBDICTIONARYWDFLT
  5
E
102
{ACAD_REACTORS
330
C
102
}
330
C
100
AcDbDictionary
281
     1
  3
Normal
350
F
100
AcDbDictionaryWithDefault
340
F
  0
DICTIONARY
  5
D3
102
{ACAD_REACTORS
330
D2
102
}
330
D2
100
AcDbDictionary
281
     1
  3
SPATIAL
360
D4
  0
DICTIONARY
  5
17B
102
{ACAD_REACTORS
330
17A
102
}
330
17A
100
AcDbDictionary
281
     1
  3
SPATIAL
360
17C
  0
DICTIONARY
  5
1DD
102
{ACAD_REACTORS
330
1DC
102
}
330
1DC
100
AcDbDictionary
281
     1
  3
SPATIAL
360
1DE
  0
DICTIONARY
  5
288
102
{ACAD_REACTORS
330
287
102
}
330
287
100
AcDbDictionary
281
     1
  3
SPATIAL
360
289
  0
LAYOUT
  5
1E
102
{ACAD_REACTORS
330
1A
102
}
330
1A
100
AcDbPlotSettings
  1

  2

  4

  6

 40
0.0
 41
0.0
 42
0.0
 43
0.0
 44
0.0
 45
0.0
 46
0.0
 47
0.0
 48
0.0
 49
0.0
140
0.0
141
0.0
142
1.0
143
1.0
 70
   688
 72
     0
 73
     0
 74
     5
  7

 75
    16
147
1.0
148
0.0
149
0.0
100
AcDbLayout
  1
Layout1
 70
     1
 71
     1
 10
0.0
 20
0.0
 11
420.0
 21
297.0
 12
0.0
 22
0.0
 32
0.0
 14
0.0
 24
0.0
 34
0.0
 15
420.0
 25
297.0
 35
0.0
146
0.0
 13
0.0
 23
0.0
 33
0.0
 16
1.0
 26
0.0
 36
0.0
 17
0.0
 27
1.0
 37
0.0
 76
     0
330
1B
  0
LAYOUT
  5
22
102
{ACAD_REACTORS
330
1A
102
}
330
1A
100
AcDbPlotSettings
  1

  2

  4

  6

 40
0.0
 41
0.0
 42
0.0
 43
0.0
 44
0.0
 45
0.0
 46
0.0
 47
0.0
 48
0.0
 49
0.0
140
0.0
141
0.0
142
1.0
143
1.0
 70
  1712
 72
     0
 73
     0
 74
     0
  7

 75
     0
147
1.0
148
0.0
149
0.0
100
AcDbLayout
  1
Model
 70
     1
 71
     0
 10
0.0
 20
0.0
 11
420.0
 21
297.0
 12
0.0
 22
0.0
 32
0.0
 14
0.0
 24
0.0
 34
0.0
 15
420.0
 25
297.0
 35
0.0
146
0.0
 13
0.0
 23
0.0
 33
0.0
 16
1.0
 26
0.0
 36
0.0
 17
0.0
 27
1.0
 37
0.0
 76
     0
330
1F
  0
MLINESTYLE
  5
18
102
{ACAD_REACTORS
330
17
102
}
330
17
100
AcDbMlineStyle
  2
Standard
 70
     0
  3

 62
   256
 51
90.0
 52
90.0
 71
     2
 49
0.5
 62
   256
  6
BYLAYER
 49
-0.5
 62
   256
  6
BYLAYER
  0
ACDBPLACEHOLDER
  5
F
102
{ACAD_REACTORS
330
E
102
}
330
E
  0
SPATIAL_FILTER
  5
D4
102
{ACAD_REACTORS
330
D3
102
}
330
D3
100
AcDbFilter
100
AcDbSpatialFilter
 70
     2
 10
36.5023960938
 20
55.5950319256
 10
200.4023960938
 20
151.9637422399
210
0.0
220
0.0
230
1.0
 11
0.0
 21
0.0
 31
0.0
 71
     1
 72
     0
 73
     0
 40
1.0
 40
0.0
 40
0.0
 40
0.0
 40
0.0
 40
1.0
 40
0.0
 40
0.0
 40
0.0
 40
0.0
 40
1.0
 40
0.0
 40
1.0
 40
0.0
 40
0.0
 40
0.0
 40
0.0
 40
1.0
 40
0.0
 40
0.0
 40
0.0
 40
0.0
 40
1.0
 40
0.0
  0
SPATIAL_FILTER
  5
17C
102
{ACAD_REACTORS
330
17B
102
}
330
17B
100
AcDbFilter
100
AcDbSpatialFilter
 70
     2
 10
36.5023960938
 20
189.3785807348
 10
200.4023960938
 20
235.0785807348
210
0.0
220
0.0
230
1.0
 11
0.0
 21
0.0
 31
0.0
 71
     1
 72
     0
 73
     0
 40
1.0
 40
0.0
 40
0.0
 40
0.0
 40
0.0
 40
1.0
 40
0.0
 40
0.0
 40
0.0
 40
0.0
 40
1.0
 40
0.0
 40
1.0
 40
0.0
 40
0.0
 40
0.0
 40
0.0
 40
1.0
 40
0.0
 40
0.0
 40
0.0
 40
0.0
 40
1.0
 40
0.0
  0
SPATIAL_FILTER
  5
1DE
102
{ACAD_REACTORS
330
1DD
102
}
330
1DD
100
AcDbFilter
100
AcDbSpatialFilter
 70
     2
 10
255.6508552361
 20
189.3785807348
 10
352.0195655504
 20
235.0785807348
210
0.0
220
0.0
230
1.0
 11
0.0
 21
0.0
 31
0.0
 71
     1
 72
     0
 73
     0
 40
1.0
 40
0.0
 40
0.0
 40
0.0
 40
0.0
 40
1.0
 40
0.0
 40
0.0
 40
0.0
 40
0.0
 40
1.0
 40
0.0
 40
1.0
 40
0.0
 40
0.0
 40
0.0
 40
0.0
 40
1.0
 40
0.0
 40
0.0
 40
0.0
 40
0.0
 40
1.0
 40
0.0
  0
SPATIAL_FILTER
  5
289
102
{ACAD_REACTORS
330
288
102
}
330
288
100
AcDbFilter
100
AcDbSpatialFilter
 70
     2
 10
221.1441414499
 20
55.5950319256
 10
385.0441414499
 20
151.9637422399
210
0.0
220
0.0
230
1.0
 11
0.0
 21
0.0
 31
0.0
 71
     1
 72
     0
 73
     0
 40
1.0
 40
0.0
 40
0.0
 40
0.0
 40
0.0
 40
1.0
 40
0.0
 40
0.0
 40
0.0
 40
0.0
 40
1.0
 40
0.0
 40
1.0
 40
0.0
 40
0.0
 40
0.0
 40
0.0
 40
1.0
 40
0.0
 40
0.0
 40
0.0
 40
0.0
 40
1.0
 40
0.0
  0
ENDSEC
  0
EOF
