  0
SECTION
  2
HEADER
  9
$ACADVER
  1
AC1021
  9
$ACADMAINTVER
 70
    25
  9
$DWGCODEPAGE
  3
ANSI_1252
  9
$INSBASE
 10
0.0
 20
0.0
 30
0.0
  9
$EXTMIN
 10
0.0
 20
0.0
 30
0.0
  9
$EXTMAX
 10
420.0
 20
297.0
 30
0.0
  9
$LIMMIN
 10
0.0
 20
0.0
  9
$LIMMAX
 10
420.0
 20
297.0
  9
$ORTHOMODE
 70
     0
  9
$REGENMODE
 70
     1
  9
$FILLMODE
 70
     1
  9
$QTEXTMODE
 70
     0
  9
$MIRRTEXT
 70
     1
  9
$LTSCALE
 40
1.0
  9
$ATTMODE
 70
     1
  9
$TEXTSIZE
 40
2.5
  9
$TRACEWID
 40
1.0
  9
$TEXTSTYLE
  7
Standard
  9
$CLAYER
  8
0
  9
$CELTYPE
  6
ByLayer
  9
$CECOLOR
 62
   256
  9
$CELTSCALE
 40
1.0
  9
$DISPSILH
 70
     0
  9
$DIMSCALE
 40
1.0
  9
$DIMASZ
 40
2.5
  9
$DIMEXO
 40
0.625
  9
$DIMDLI
 40
3.75
  9
$DIMRND
 40
0.0
  9
$DIMDLE
 40
0.0
  9
$DIMEXE
 40
1.25
  9
$DIMTP
 40
0.0
  9
$DIMTM
 40
0.0
  9
$DIMTXT
 40
2.5
  9
$DIMCEN
 40
2.5
  9
$DIMTSZ
 40
0.0
  9
$DIMTOL
 70
     0
  9
$DIMLIM
 70
     0
  9
$DIMTIH
 70
     0
  9
$DIMTOH
 70
     0
  9
$DIMSE1
 70
     0
  9
$DIMSE2
 70
     0
  9
$DIMTAD
 70
     1
  9
$DIMZIN
 70
     8
  9
$DIMBLK
  1

  9
$DIMASO
 70
     1
  9
$DIMSHO
 70
     1
  9
$DIMPOST
  1

  9
$DIMAPOST
  1

  9
$DIMALT
 70
     0
  9
$DIMALTD
 70
     3
  9
$DIMALTF
 40
0.0393700787
  9
$DIMLFAC
 40
1.0
  9
$DIMTOFL
 70
     1
  9
$DIMTVP
 40
0.0
  9
$DIMTIX
 70
     0
  9
$DIMSOXD
 70
     0
  9
$DIMSAH
 70
     0
  9
$DIMBLK1
  1

  9
$DIMBLK2
  1

  9
$DIMSTYLE
  2
ISO-25
  9
$DIMCLRD
 70
     0
  9
$DIMCLRE
 70
     0
  9
$DIMCLRT
 70
     0
  9
$DIMTFAC
 40
1.0
  9
$DIMGAP
 40
0.625
  9
$DIMJUST
 70
     0
  9
$DIMSD1
 70
     0
  9
$DIMSD2
 70
     0
  9
$DIMTOLJ
 70
     0
  9
$DIMTZIN
 70
     8
  9
$DIMALTZ
 70
     0
  9
$DIMALTTZ
 70
     0
  9
$DIMUPT
 70
     0
  9
$DIMDEC
 70
     2
  9
$DIMTDEC
 70
     2
  9
$DIMALTU
 70
     2
  9
$DIMALTTD
 70
     3
  9
$DIMTXSTY
  7
Standard
  9
$DIMAUNIT
 70
     0
  9
$DIMADEC
 70
     0
  9
$DIMALTRND
 40
0.0
  9
$DIMAZIN
 70
     0
  9
$DIMDSEP
 70
    44
  9
$DIMATFIT
 70
     3
  9
$DIMFRAC
 70
     0
  9
$DIMLDRBLK
  1

  9
$DIMLUNIT
 70
     2
  9
$DIMLWD
 70
    -2
  9
$DIMLWE
 70
    -2
  9
$DIMTMOVE
 70
     0
  9
$DIMFXL
 40
1.0
  9
$DIMFXLON
 70
     0
  9
$DIMJOGANG
 40
0.7853981634
  9
$DIMTFILL
 70
     0
  9
$DIMTFILLCLR
 70
     0
  9
$DIMARCSYM
 70
     0
  9
$DIMLTYPE
  6

  9
$DIMLTEX1
  6

  9
$DIMLTEX2
  6

  9
$LUNITS
 70
     2
  9
$LUPREC
 70
     4
  9
$SKETCHINC
 40
1.0
  9
$FILLETRAD
 40
10.0
  9
$AUNITS
 70
     0
  9
$AUPREC
 70
     0
  9
$MENU
  1
.
  9
$ELEVATION
 40
0.0
  9
$PELEVATION
 40
0.0
  9
$THICKNESS
 40
0.0
  9
$LIMCHECK
 70
     0
  9
$CHAMFERA
 40
0.0
  9
$CHAMFERB
 40
0.0
  9
$CHAMFERC
 40
0.0
  9
$CHAMFERD
 40
0.0
  9
$SKPOLY
 70
     0
  9
$TDCREATE
 40
2460277.435735729
  9
$TDUCREATE
 40
2460277.394069063
  9
$TDUPDATE
 40
2460277.435736042
  9
$TDUUPDATE
 40
2460277.394069375
  9
$TDINDWG
 40
0.0000000116
  9
$TDUSRTIMER
 40
0.0000000116
  9
$USRTIMER
 70
     1
  9
$ANGBASE
 50
0.0
  9
$ANGDIR
 70
     0
  9
$PDMODE
 70
     0
  9
$PDSIZE
 40
0.0
  9
$PLINEWID
 40
0.0
  9
$SPLFRAME
 70
     0
  9
$SPLINETYPE
 70
     6
  9
$SPLINESEGS
 70
     8
  9
$HANDSEED
  5
2AE
  9
$SURFTAB1
 70
     6
  9
$SURFTAB2
 70
     6
  9
$SURFTYPE
 70
     6
  9
$SURFU
 70
     6
  9
$SURFV
 70
     6
  9
$UCSBASE
  2

  9
$UCSNAME
  2

  9
$UCSORG
 10
0.0
 20
0.0
 30
0.0
  9
$UCSXDIR
 10
1.0
 20
0.0
 30
0.0
  9
$UCSYDIR
 10
0.0
 20
1.0
 30
0.0
  9
$UCSORTHOREF
  2

  9
$UCSORTHOVIEW
 70
     0
  9
$UCSORGTOP
 10
0.0
 20
0.0
 30
0.0
  9
$UCSORGBOTTOM
 10
0.0
 20
0.0
 30
0.0
  9
$UCSORGLEFT
 10
0.0
 20
0.0
 30
0.0
  9
$UCSORGRIGHT
 10
0.0
 20
0.0
 30
0.0
  9
$UCSORGFRONT
 10
0.0
 20
0.0
 30
0.0
  9
$UCSORGBACK
 10
0.0
 20
0.0
 30
0.0
  9
$PUCSBASE
  2

  9
$PUCSNAME
  2

  9
$PUCSORG
 10
0.0
 20
0.0
 30
0.0
  9
$PUCSXDIR
 10
1.0
 20
0.0
 30
0.0
  9
$PUCSYDIR
 10
0.0
 20
1.0
 30
0.0
  9
$PUCSORTHOREF
  2

  9
$PUCSORTHOVIEW
 70
     0
  9
$PUCSORGTOP
 10
0.0
 20
0.0
 30
0.0
  9
$PUCSORGBOTTOM
 10
0.0
 20
0.0
 30
0.0
  9
$PUCSORGLEFT
 10
0.0
 20
0.0
 30
0.0
  9
$PUCSORGRIGHT
 10
0.0
 20
0.0
 30
0.0
  9
$PUCSORGFRONT
 10
0.0
 20
0.0
 30
0.0
  9
$PUCSORGBACK
 10
0.0
 20
0.0
 30
0.0
  9
$USERI1
 70
     0
  9
$USERI2
 70
     0
  9
$USERI3
 70
     0
  9
$USERI4
 70
     0
  9
$USERI5
 70
     0
  9
$USERR1
 40
0.0
  9
$USERR2
 40
0.0
  9
$USERR3
 40
0.0
  9
$USERR4
 40
0.0
  9
$USERR5
 40
0.0
  9
$WORLDVIEW
 70
     1
  9
$SHADEDGE
 70
     3
  9
$SHADEDIF
 70
    70
  9
$TILEMODE
 70
     1
  9
$MAXACTVP
 70
    64
  9
$PINSBASE
 10
0.0
 20
0.0
 30
0.0
  9
$PLIMCHECK
 70
     0
  9
$PEXTMIN
 10
0.0
 20
0.0
 30
0.0
  9
$PEXTMAX
 10
420.0
 20
297.0
 30
0.0
  9
$PLIMMIN
 10
0.0
 20
0.0
  9
$PLIMMAX
 10
420.0
 20
297.0
  9
$UNITMODE
 70
     0
  9
$VISRETAIN
 70
     1
  9
$PLINEGEN
 70
     0
  9
$PSLTSCALE
 70
     1
  9
$TREEDEPTH
 70
  3020
  9
$CMLSTYLE
  2
Standard
  9
$CMLJUST
 70
     0
  9
$CMLSCALE
 40
20.0
  9
$PROXYGRAPHICS
 70
     1
  9
$MEASUREMENT
 70
     1
  9
$CELWEIGHT
370
    -1
  9
$ENDCAPS
280
     0
  9
$JOINSTYLE
280
     0
  9
$LWDISPLAY
290
     0
  9
$INSUNITS
 70
     4
  9
$HYPERLINKBASE
  1

  9
$STYLESHEET
  1

  9
$XEDIT
290
     1
  9
$CEPSNTYPE
380
     0
  9
$PSTYLEMODE
290
     1
  9
$FINGERPRINTGUID
  2
{9b70abae-ac73-4501-a177-0a5067d584bf}
  9
$VERSIONGUID
  2
{FAEB1C32-E019-11D5-929B-00C0DF256EC4}
  9
$EXTNAMES
290
     1
  9
$PSVPSCALE
 40
0.0
  9
$OLESTARTUP
290
     0
  9
$SORTENTS
280
   127
  9
$INDEXCTL
280
     0
  9
$HIDETEXT
280
     1
  9
$XCLIPFRAME
290
     0
  9
$HALOGAP
280
     0
  9
$OBSCOLOR
 70
   257
  9
$OBSLTYPE
280
     0
  9
$INTERSECTIONDISPLAY
280
     0
  9
$INTERSECTIONCOLOR
 70
   257
  9
$DIMASSOC
280
     2
  9
$PROJECTNAME
  1

  9
$CAMERADISPLAY
290
     0
  9
$LENSLENGTH
 40
50.0
  9
$CAMERAHEIGHT
 40
0.0
  9
$STEPSPERSEC
 40
2.0
  9
$STEPSIZE
 40
6.0
  9
$3DDWFPREC
 40
2.0
  9
$PSOLWIDTH
 40
5.0
  9
$PSOLHEIGHT
 40
80.0
  9
$LOFTANG1
 40
1.5707963268
  9
$LOFTANG2
 40
1.5707963268
  9
$LOFTMAG1
 40
0.0
  9
$LOFTMAG2
 40
0.0
  9
$LOFTPARAM
 70
     7
  9
$LOFTNORMALS
280
     1
  9
$LATITUDE
 40
37.795
  9
$LONGITUDE
 40
-122.394
  9
$NORTHDIRECTION
 40
0.0
  9
$TIMEZONE
 70
 -8000
  9
$LIGHTGLYPHDISPLAY
280
     1
  9
$TILEMODELIGHTSYNCH
280
     1
  9
$CMATERIAL
347
44
  9
$SOLIDHIST
280
     0
  9
$SHOWHIST
280
     1
  9
$DWFFRAME
280
     2
  9
$DGNFRAME
280
     2
  9
$REALWORLDSCALE
290
     1
  9
$INTERFERECOLOR
 62
   256
  9
$CSHADOW
280
     0
  9
$SHADOWPLANELOCATION
 40
0.0
  0
ENDSEC
  0
SECTION
  2
CLASSES
  0
CLASS
  1
ACDBDICTIONARYWDFLT
  2
AcDbDictionaryWithDefault
  3
ObjectDBX Classes
 90
        0
 91
        3
280
     0
281
     0
  0
CLASS
  1
VISUALSTYLE
  2
AcDbVisualStyle
  3
ObjectDBX Classes
 90
     4095
 91
        3
280
     0
281
     0
  0
CLASS
  1
MATERIAL
  2
AcDbMaterial
  3
ObjectDBX Classes
 90
     1153
 91
        3
280
     0
281
     0
  0
CLASS
  1
SCALE
  2
AcDbScale
  3
ObjectDBX Classes
 90
     1153
 91
        3
280
     0
281
     0
  0
CLASS
  1
TABLESTYLE
  2
AcDbTableStyle
  3
ObjectDBX Classes
 90
     4095
 91
        3
280
     0
281
     0
  0
CLASS
  1
MLEADERSTYLE
  2
AcDbMLeaderStyle
  3
ACDB_MLEADERSTYLE_CLASS
 90
     4095
 91
        3
280
     0
281
     0
  0
CLASS
  1
SUN
  2
AcDbSun
  3
SCENEOE
 90
     1153
 91
        3
280
     0
281
     0
  0
CLASS
  1
DICTIONARYVAR
  2
AcDbDictionaryVar
  3
ObjectDBX Classes
 90
        0
 91
        3
280
     0
281
     0
  0
CLASS
  1
CELLSTYLEMAP
  2
AcDbCellStyleMap
  3
ObjectDBX Classes
 90
     1152
 91
        3
280
     0
281
     0
  0
ENDSEC
  0
SECTION
  2
TABLES
  0
TABLE
  2
VPORT
  5
8
330
0
100
AcDbSymbolTable
 70
     1
  0
VPORT
  5
29
330
8
100
AcDbSymbolTableRecord
100
AcDbViewportTableRecord
  2
*Active
 70
     0
 10
0.0
 20
0.0
 11
1.0
 21
1.0
 12
344.1869158879
 22
148.5
 13
0.0
 23
0.0
 14
10.0
 24
10.0
 15
10.0
 25
10.0
 16
0.0
 26
0.0
 36
1.0
 17
0.0
 27
0.0
 37
0.0
 40
297.0
 41
1.9729729729
 42
50.0
 43
0.0
 44
0.0
 50
0.0
 51
0.0
 71
     0
 72
   100
 73
     1
 74
     3
 75
     0
 76
     0
 77
     0
 78
     0
281
     0
 65
     1
110
0.0
120
0.0
130
0.0
111
1.0
121
0.0
131
0.0
112
0.0
122
1.0
132
0.0
 79
     0
146
0.0
348
2F
 60
     3
 61
     5
292
     1
282
     1
141
0.0
142
0.0
 63
   250
361
6D
  0
ENDTAB
  0
TABLE
  2
LTYPE
  5
5
330
0
100
AcDbSymbolTable
 70
     1
  0
LTYPE
  5
14
330
5
100
AcDbSymbolTableRecord
100
AcDbLinetypeTableRecord
  2
ByBlock
 70
     0
  3

 72
    65
 73
     0
 40
0.0
  0
LTYPE
  5
15
330
5
100
AcDbSymbolTableRecord
100
AcDbLinetypeTableRecord
  2
ByLayer
 70
     0
  3

 72
    65
 73
     0
 40
0.0
  0
LTYPE
  5
16
330
5
100
AcDbSymbolTableRecord
100
AcDbLinetypeTableRecord
  2
Continuous
 70
     0
  3
Solid line
 72
    65
 73
     0
 40
0.0
  0
ENDTAB
  0
TABLE
  2
LAYER
  5
2
330
0
100
AcDbSymbolTable
 70
     3
  0
LAYER
  5
10
330
2
100
AcDbSymbolTableRecord
100
AcDbLayerTableRecord
  2
0
 70
     0
 62
     7
  6
Continuous
370
    -3
390
F
347
46
  0
LAYER
  5
6E
330
2
100
AcDbSymbolTableRecord
100
AcDbLayerTableRecord
  2
Default
 70
     0
 62
     7
  6
Continuous
370
    -3
390
F
347
46
  0
LAYER
  5
71
330
2
100
AcDbSymbolTableRecord
100
AcDbLayerTableRecord
  2
TA-SMART_DN50_NP
 70
     0
 62
     7
  6
Continuous
370
    -3
390
F
347
46
  0
ENDTAB
  0
TABLE
  2
STYLE
  5
3
330
0
100
AcDbSymbolTable
 70
     1
  0
STYLE
  5
11
330
3
100
AcDbSymbolTableRecord
100
AcDbTextStyleTableRecord
  2
Standard
 70
     0
 40
0.0
 41
1.0
 50
0.0
 71
     0
 42
2.5
  3
txt
  4

  0
ENDTAB
  0
TABLE
  2
VIEW
  5
6
330
0
100
AcDbSymbolTable
 70
     0
  0
ENDTAB
  0
TABLE
  2
UCS
  5
7
330
0
100
AcDbSymbolTable
 70
     0
  0
ENDTAB
  0
TABLE
  2
APPID
  5
9
330
0
100
AcDbSymbolTable
 70
     2
  0
APPID
  5
12
330
9
100
AcDbSymbolTableRecord
100
AcDbRegAppTableRecord
  2
ACAD
 70
     0
  0
APPID
  5
2A4
330
9
100
AcDbSymbolTableRecord
100
AcDbRegAppTableRecord
  2
ACAD_MLEADERVER
 70
     0
  0
ENDTAB
  0
TABLE
  2
DIMSTYLE
  5
A
330
0
100
AcDbSymbolTable
 70
     1
100
AcDbDimStyleTable
  0
DIMSTYLE
105
27
330
A
100
AcDbSymbolTableRecord
100
AcDbDimStyleTableRecord
  2
ISO-25
 70
     0
 41
2.5
 42
0.625
 43
3.75
 44
1.25
 73
     0
 74
     0
 77
     1
 78
     8
140
2.5
141
2.5
143
0.0393700787
147
0.625
171
     3
172
     1
178
     0
271
     2
272
     2
274
     3
278
    44
283
     0
284
     8
340
11
  0
ENDTAB
  0
TABLE
  2
BLOCK_RECORD
  5
1
330
0
100
AcDbSymbolTable
 70
     5
  0
BLOCK_RECORD
  5
1F
330
1
100
AcDbSymbolTableRecord
100
AcDbBlockTableRecord
  2
*Model_Space
340
22
 70
     0
280
     1
281
     0
  0
BLOCK_RECORD
  5
1B
330
1
100
AcDbSymbolTableRecord
100
AcDbBlockTableRecord
  2
*Paper_Space
340
1E
 70
     0
280
     1
281
     0
  0
BLOCK_RECORD
  5
6F
330
1
100
AcDbSymbolTableRecord
100
AcDbBlockTableRecord
  2
SE
340
0
102
{BLKREFS
331
70
102
}
 70
     0
280
     1
281
     0
  0
BLOCK_RECORD
  5
F7
330
1
100
AcDbSymbolTableRecord
100
AcDbBlockTableRecord
  2
SE1
340
0
102
{BLKREFS
331
F8
102
}
 70
     0
280
     1
281
     0
  0
BLOCK_RECORD
  5
148
330
1
100
AcDbSymbolTableRecord
100
AcDbBlockTableRecord
  2
SE2
340
0
102
{BLKREFS
331
149
102
}
 70
     0
280
     1
281
     0
  0
BLOCK_RECORD
  5
1B1
330
1
100
AcDbSymbolTableRecord
100
AcDbBlockTableRecord
  2
SE3
340
0
102
{BLKREFS
331
1B2
102
}
 70
     0
280
     1
281
     0
  0
BLOCK_RECORD
  5
202
330
1
100
AcDbSymbolTableRecord
100
AcDbBlockTableRecord
  2
SE4
340
0
102
{BLKREFS
331
203
102
}
 70
     0
280
     1
281
     0
  0
ENDTAB
  0
ENDSEC
  0
SECTION
  2
BLOCKS
  0
BLOCK
  5
20
330
1F
100
AcDbEntity
  8
0
100
AcDbBlockBegin
  2
*Model_Space
 70
     0
 10
0.0
 20
0.0
 30
0.0
  3
*Model_Space
  1

  0
ENDBLK
  5
21
330
1F
100
AcDbEntity
  8
0
100
AcDbBlockEnd
  0
BLOCK
  5
1C
330
1B
100
AcDbEntity
 67
     1
  8
0
100
AcDbBlockBegin
  2
*Paper_Space
 70
     0
 10
0.0
 20
0.0
 30
0.0
  3
*Paper_Space
  1

  0
ENDBLK
  5
1D
330
1B
100
AcDbEntity
 67
     1
  8
0
100
AcDbBlockEnd
  0
BLOCK
  5
F5
330
6F
100
AcDbEntity
  8
0
100
AcDbBlockBegin
  2
SE
 70
     0
 10
0.0
 20
0.0
 30
0.0
  3
SE
  1

  0
LINE
  5
72
330
6F
100
AcDbEntity
  8
TA-SMART_DN50_NP
  6
Continuous
 62
     7
100
AcDbLine
 10
70.2198481364
 20
173.010618093
 30
0.0
 11
70.2198481364
 21
239.510618093
 31
0.0
  0
LINE
  5
73
330
6F
100
AcDbEntity
  8
TA-SMART_DN50_NP
  6
Continuous
 62
     7
100
AcDbLine
 10
90.2198481364
 20
170.260618093
 30
0.0
 11
90.2198481364
 21
172.4456187055
 31
0.0
  0
LINE
  5
74
330
6F
100
AcDbEntity
  8
TA-SMART_DN50_NP
  6
Continuous
 62
     7
100
AcDbLine
 10
90.2198481364
 20
172.4456187055
 30
0.0
 11
90.2198481364
 21
173.6163667205
 31
0.0
  0
LINE
  5
75
330
6F
100
AcDbEntity
  8
TA-SMART_DN50_NP
  6
Continuous
 62
     7
100
AcDbLine
 10
90.2198481364
 20
173.6163667205
 30
0.0
 11
90.2198481364
 21
191.0832361768
 31
0.0
  0
LINE
  5
76
330
6F
100
AcDbEntity
  8
TA-SMART_DN50_NP
  6
Continuous
 62
     7
100
AcDbLine
 10
90.2198481364
 20
191.0832361768
 30
0.0
 11
90.2198481364
 21
193.9096774983
 31
0.0
  0
LINE
  5
77
330
6F
100
AcDbEntity
  8
TA-SMART_DN50_NP
  6
Continuous
 62
     7
100
AcDbLine
 10
90.2198481364
 20
193.9096774983
 30
0.0
 11
90.2198481364
 21
218.6115620418
 31
0.0
  0
LINE
  5
78
330
6F
100
AcDbEntity
  8
TA-SMART_DN50_NP
  6
Continuous
 62
     7
100
AcDbLine
 10
90.2198481364
 20
218.6115620418
 30
0.0
 11
90.2198481364
 21
221.4379977196
 31
0.0
  0
LINE
  5
79
330
6F
100
AcDbEntity
  8
TA-SMART_DN50_NP
  6
Continuous
 62
     7
100
AcDbLine
 10
90.2198481364
 20
221.4379977196
 30
0.0
 11
90.2198481364
 21
238.904868401
 31
0.0
  0
LINE
  5
7A
330
6F
100
AcDbEntity
  8
TA-SMART_DN50_NP
  6
Continuous
 62
     7
100
AcDbLine
 10
90.2198481364
 20
238.904868401
 30
0.0
 11
90.2198481364
 21
240.0756187055
 31
0.0
  0
LINE
  5
7B
330
6F
100
AcDbEntity
  8
TA-SMART_DN50_NP
  6
Continuous
 62
     7
100
AcDbLine
 10
90.2198481364
 20
242.260618093
 30
0.0
 11
90.2198481364
 21
240.0756174805
 31
0.0
  0
LINE
  5
7C
330
6F
100
AcDbEntity
  8
TA-SMART_DN50_NP
  6
Continuous
 62
     7
100
AcDbLine
 10
71.2207662806
 20
172.4456187055
 30
0.0
 11
71.2207662806
 21
173.6163667205
 31
0.0
  0
LINE
  5
7D
330
6F
100
AcDbEntity
  8
TA-SMART_DN50_NP
  6
Continuous
 62
     7
100
AcDbLine
 10
71.2207662806
 20
191.0832361768
 30
0.0
 11
71.2207662806
 21
193.9096774983
 31
0.0
  0
LINE
  5
7E
330
6F
100
AcDbEntity
  8
TA-SMART_DN50_NP
  6
Continuous
 62
     7
100
AcDbLine
 10
71.2207662806
 20
218.6115620418
 30
0.0
 11
71.2207662806
 21
221.4379977196
 31
0.0
  0
LINE
  5
7F
330
6F
100
AcDbEntity
  8
TA-SMART_DN50_NP
  6
Continuous
 62
     7
100
AcDbLine
 10
71.2207662806
 20
238.904868401
 30
0.0
 11
71.2207662806
 21
240.0756187055
 31
0.0
  0
LINE
  5
80
330
6F
100
AcDbEntity
  8
TA-SMART_DN50_NP
  6
Continuous
 62
     7
100
AcDbLine
 10
70.4254913969
 20
240.0756180929
 30
0.0
 11
71.2207662806
 21
240.0756174805
 31
0.0
  0
LINE
  5
81
330
6F
100
AcDbEntity
  8
TA-SMART_DN50_NP
  6
Continuous
 62
     7
100
AcDbLine
 10
90.2198481364
 20
240.0756187055
 30
0.0
 11
71.2207662806
 21
240.0756187055
 31
0.0
  0
ARC
  5
82
330
6F
100
AcDbEntity
  8
TA-SMART_DN50_NP
  6
Continuous
 62
     7
100
AcDbCircle
 10
118.9819469283
 20
230.1714330603
 30
0.0
 40
48.55309742652761
100
AcDbArc
 50
169.6375846551
 51
190.3624153449
  0
LINE
  5
83
330
6F
100
AcDbEntity
  8
TA-SMART_DN50_NP
  6
Continuous
 62
     7
100
AcDbLine
 10
71.2207662806
 20
238.904868401
 30
0.0
 11
90.2198481364
 21
238.904868401
 31
0.0
  0
LINE
  5
84
330
6F
100
AcDbEntity
  8
TA-SMART_DN50_NP
  6
Continuous
 62
     7
100
AcDbLine
 10
90.2198481364
 20
221.4379977196
 30
0.0
 11
71.2207662806
 21
221.4379977196
 31
0.0
  0
ARC
  5
85
330
6F
100
AcDbEntity
  8
TA-SMART_DN50_NP
  6
Continuous
 62
     7
100
AcDbCircle
 10
167.0601270735
 20
206.26061977
 30
0.0
 40
96.63192460149564
100
AcDbArc
 50
172.656692452
 51
187.343307548
  0
LINE
  5
86
330
6F
100
AcDbEntity
  8
TA-SMART_DN50_NP
  6
Continuous
 62
     7
100
AcDbLine
 10
71.2207662806
 20
218.6115620418
 30
0.0
 11
90.2198481364
 21
218.6115620418
 31
0.0
  0
LINE
  5
87
330
6F
100
AcDbEntity
  8
TA-SMART_DN50_NP
  6
Continuous
 62
     7
100
AcDbLine
 10
90.2198481364
 20
193.9096774983
 30
0.0
 11
71.2207662806
 21
193.9096774983
 31
0.0
  0
ARC
  5
88
330
6F
100
AcDbEntity
  8
TA-SMART_DN50_NP
  6
Continuous
 62
     7
100
AcDbCircle
 10
118.9819401789
 20
182.3498014487
 30
0.0
 40
48.55309067707753
100
AcDbArc
 50
169.6375839335
 51
190.3624160665
  0
LINE
  5
89
330
6F
100
AcDbEntity
  8
TA-SMART_DN50_NP
  6
Continuous
 62
     7
100
AcDbLine
 10
71.2207662806
 20
191.0832361768
 30
0.0
 11
90.2198481364
 21
191.0832361768
 31
0.0
  0
LINE
  5
8A
330
6F
100
AcDbEntity
  8
TA-SMART_DN50_NP
  6
Continuous
 62
     7
100
AcDbLine
 10
90.2198481364
 20
173.6163667205
 30
0.0
 11
71.2207662806
 21
173.6163667205
 31
0.0
  0
LINE
  5
8B
330
6F
100
AcDbEntity
  8
TA-SMART_DN50_NP
  6
Continuous
 62
     7
100
AcDbLine
 10
71.2207662806
 20
172.4456174805
 30
0.0
 11
70.4254913969
 21
172.4456180929
 31
0.0
  0
LINE
  5
8C
330
6F
100
AcDbEntity
  8
TA-SMART_DN50_NP
  6
Continuous
 62
     7
100
AcDbLine
 10
71.2207662806
 20
172.4456187055
 30
0.0
 11
90.2198481364
 21
172.4456187055
 31
0.0
  0
LINE
  5
8D
330
6F
100
AcDbEntity
  8
TA-SMART_DN50_NP
  6
Continuous
 62
     7
100
AcDbLine
 10
90.2198481364
 20
172.4456174805
 30
0.0
 11
71.2207662806
 21
172.4456174805
 31
0.0
  0
LINE
  5
8E
330
6F
100
AcDbEntity
  8
TA-SMART_DN50_NP
  6
Continuous
 62
     7
100
AcDbLine
 10
138.2198481364
 20
173.010618093
 30
0.0
 11
138.2198481364
 21
239.510618093
 31
0.0
  0
LINE
  5
8F
330
6F
100
AcDbEntity
  8
TA-SMART_DN50_NP
  6
Continuous
 62
     7
100
AcDbLine
 10
137.2189299921
 20
172.4456187055
 30
0.0
 11
137.2189299921
 21
173.6163667205
 31
0.0
  0
LINE
  5
90
330
6F
100
AcDbEntity
  8
TA-SMART_DN50_NP
  6
Continuous
 62
     7
100
AcDbLine
 10
137.2189299921
 20
191.0832361768
 30
0.0
 11
137.2189299921
 21
193.9096774983
 31
0.0
  0
LINE
  5
91
330
6F
100
AcDbEntity
  8
TA-SMART_DN50_NP
  6
Continuous
 62
     7
100
AcDbLine
 10
137.2189299921
 20
218.6115620418
 30
0.0
 11
137.2189299921
 21
221.4379977196
 31
0.0
  0
LINE
  5
92
330
6F
100
AcDbEntity
  8
TA-SMART_DN50_NP
  6
Continuous
 62
     7
100
AcDbLine
 10
137.2189299921
 20
238.904868401
 30
0.0
 11
137.2189299921
 21
240.0756187055
 31
0.0
  0
LINE
  5
93
330
6F
100
AcDbEntity
  8
TA-SMART_DN50_NP
  6
Continuous
 62
     7
100
AcDbLine
 10
137.2189299921
 20
240.0756174805
 30
0.0
 11
138.0142048758
 21
240.0756180929
 31
0.0
  0
ARC
  5
94
330
6F
100
AcDbEntity
  8
TA-SMART_DN50_NP
  6
Continuous
 62
     7
100
AcDbCircle
 10
89.4577493444
 20
230.1714330603
 30
0.0
 40
48.55309742652784
100
AcDbArc
 50
349.6375846551
 51
10.3624153449
  0
ARC
  5
95
330
6F
100
AcDbEntity
  8
TA-SMART_DN50_NP
  6
Continuous
 62
     7
100
AcDbCircle
 10
41.3795691992
 20
206.26061977
 30
0.0
 40
96.6319246014954
100
AcDbArc
 50
352.656692452
 51
7.343307548
  0
ARC
  5
96
330
6F
100
AcDbEntity
  8
TA-SMART_DN50_NP
  6
Continuous
 62
     7
100
AcDbCircle
 10
89.4577560938
 20
182.3498014487
 30
0.0
 40
48.55309067707781
100
AcDbArc
 50
349.6375839335
 51
10.3624160665
  0
LINE
  5
97
330
6F
100
AcDbEntity
  8
TA-SMART_DN50_NP
  6
Continuous
 62
     7
100
AcDbLine
 10
138.0142048758
 20
172.4456180929
 30
0.0
 11
137.2189299921
 21
172.4456174805
 31
0.0
  0
LINE
  5
98
330
6F
100
AcDbEntity
  8
TA-SMART_DN50_NP
  6
Continuous
 62
     7
100
AcDbLine
 10
118.2198481364
 20
170.260618093
 30
0.0
 11
118.2198481364
 21
172.4456187055
 31
0.0
  0
LINE
  5
99
330
6F
100
AcDbEntity
  8
TA-SMART_DN50_NP
  6
Continuous
 62
     7
100
AcDbLine
 10
118.2198481364
 20
172.4456187055
 30
0.0
 11
118.2198481364
 21
173.6163667205
 31
0.0
  0
LINE
  5
9A
330
6F
100
AcDbEntity
  8
TA-SMART_DN50_NP
  6
Continuous
 62
     7
100
AcDbLine
 10
118.2198481364
 20
173.6163667205
 30
0.0
 11
118.2198481364
 21
191.0832361768
 31
0.0
  0
LINE
  5
9B
330
6F
100
AcDbEntity
  8
TA-SMART_DN50_NP
  6
Continuous
 62
     7
100
AcDbLine
 10
118.2198481364
 20
191.0832361768
 30
0.0
 11
118.2198481364
 21
193.9096774983
 31
0.0
  0
LINE
  5
9C
330
6F
100
AcDbEntity
  8
TA-SMART_DN50_NP
  6
Continuous
 62
     7
100
AcDbLine
 10
118.2198481364
 20
193.9096774983
 30
0.0
 11
118.2198481364
 21
218.6115620418
 31
0.0
  0
LINE
  5
9D
330
6F
100
AcDbEntity
  8
TA-SMART_DN50_NP
  6
Continuous
 62
     7
100
AcDbLine
 10
118.2198481364
 20
218.6115620418
 30
0.0
 11
118.2198481364
 21
221.4379977196
 31
0.0
  0
LINE
  5
9E
330
6F
100
AcDbEntity
  8
TA-SMART_DN50_NP
  6
Continuous
 62
     7
100
AcDbLine
 10
118.2198481364
 20
221.4379977196
 30
0.0
 11
118.2198481364
 21
238.904868401
 31
0.0
  0
LINE
  5
9F
330
6F
100
AcDbEntity
  8
TA-SMART_DN50_NP
  6
Continuous
 62
     7
100
AcDbLine
 10
118.2198481364
 20
238.904868401
 30
0.0
 11
118.2198481364
 21
240.0756187055
 31
0.0
  0
LINE
  5
A0
330
6F
100
AcDbEntity
  8
TA-SMART_DN50_NP
  6
Continuous
 62
     7
100
AcDbLine
 10
118.2198481364
 20
242.260618093
 30
0.0
 11
118.2198481364
 21
240.0756174805
 31
0.0
  0
LINE
  5
A1
330
6F
100
AcDbEntity
  8
TA-SMART_DN50_NP
  6
Continuous
 62
     7
100
AcDbLine
 10
118.2198481364
 20
172.4456187055
 30
0.0
 11
137.2189299921
 21
172.4456187055
 31
0.0
  0
LINE
  5
A2
330
6F
100
AcDbEntity
  8
TA-SMART_DN50_NP
  6
Continuous
 62
     7
100
AcDbLine
 10
137.2189299921
 20
172.4456174805
 30
0.0
 11
118.2198481364
 21
172.4456174805
 31
0.0
  0
LINE
  5
A3
330
6F
100
AcDbEntity
  8
TA-SMART_DN50_NP
  6
Continuous
 62
     7
100
AcDbLine
 10
118.2198481364
 20
191.0832361768
 30
0.0
 11
137.2189299921
 21
191.0832361768
 31
0.0
  0
LINE
  5
A4
330
6F
100
AcDbEntity
  8
TA-SMART_DN50_NP
  6
Continuous
 62
     7
100
AcDbLine
 10
137.2189299921
 20
173.6163667205
 30
0.0
 11
118.2198481364
 21
173.6163667205
 31
0.0
  0
LINE
  5
A5
330
6F
100
AcDbEntity
  8
TA-SMART_DN50_NP
  6
Continuous
 62
     7
100
AcDbLine
 10
118.2198481364
 20
218.6115620418
 30
0.0
 11
137.2189299921
 21
218.6115620418
 31
0.0
  0
LINE
  5
A6
330
6F
100
AcDbEntity
  8
TA-SMART_DN50_NP
  6
Continuous
 62
     7
100
AcDbLine
 10
137.2189299921
 20
193.9096774983
 30
0.0
 11
118.2198481364
 21
193.9096774983
 31
0.0
  0
LINE
  5
A7
330
6F
100
AcDbEntity
  8
TA-SMART_DN50_NP
  6
Continuous
 62
     7
100
AcDbLine
 10
118.2198481364
 20
238.904868401
 30
0.0
 11
137.2189299921
 21
238.904868401
 31
0.0
  0
LINE
  5
A8
330
6F
100
AcDbEntity
  8
TA-SMART_DN50_NP
  6
Continuous
 62
     7
100
AcDbLine
 10
137.2189299921
 20
221.4379977196
 30
0.0
 11
118.2198481364
 21
221.4379977196
 31
0.0
  0
LINE
  5
A9
330
6F
100
AcDbEntity
  8
TA-SMART_DN50_NP
  6
Continuous
 62
     7
100
AcDbLine
 10
137.2189299921
 20
240.0756187055
 30
0.0
 11
118.2198481364
 21
240.0756187055
 31
0.0
  0
LINE
  5
AA
330
6F
100
AcDbEntity
  8
TA-SMART_DN50_NP
  6
Continuous
 62
     7
100
AcDbLine
 10
116.4698481364
 20
243.260618093
 30
0.0
 11
107.637585412
 21
243.260618093
 31
0.0
  0
LINE
  5
AB
330
6F
100
AcDbEntity
  8
TA-SMART_DN50_NP
  6
Continuous
 62
     7
100
AcDbLine
 10
101.6214724478
 20
243.260618093
 30
0.0
 11
91.9698481364
 21
243.260618093
 31
0.0
  0
LINE
  5
AC
330
6F
100
AcDbEntity
  8
TA-SMART_DN50_NP
  6
Continuous
 62
     7
100
AcDbLine
 10
91.9698481364
 20
243.260618093
 30
0.0
 11
91.2198482613
 21
243.260618093
 31
0.0
  0
LINE
  5
AD
330
6F
100
AcDbEntity
  8
TA-SMART_DN50_NP
  6
Continuous
 62
     7
100
AcDbLine
 10
116.4698481364
 20
243.260618093
 30
0.0
 11
117.2198480114
 21
243.260618093
 31
0.0
  0
LINE
  5
AE
330
6F
100
AcDbEntity
  8
TA-SMART_DN50_NP
  6
Continuous
 62
     7
100
AcDbLine
 10
116.4698481364
 20
169.260618093
 30
0.0
 11
116.4698481364
 21
243.260618093
 31
0.0
  0
LINE
  5
AF
330
6F
100
AcDbEntity
  8
TA-SMART_DN50_NP
  6
Continuous
 62
     7
100
AcDbLine
 10
104.7198481364
 20
169.260618093
 30
0.0
 11
104.7198481364
 21
243.0172388413
 31
0.0
  0
LINE
  5
B0
330
6F
100
AcDbEntity
  8
TA-SMART_DN50_NP
  6
Continuous
 62
     7
100
AcDbLine
 10
104.7198481364
 20
169.260618093
 30
0.0
 11
116.4698481364
 21
169.260618093
 31
0.0
  0
LINE
  5
B1
330
6F
100
AcDbEntity
  8
TA-SMART_DN50_NP
  6
Continuous
 62
     7
100
AcDbLine
 10
104.2198481364
 20
169.260618093
 30
0.0
 11
104.2198481364
 21
242.5457998582
 31
0.0
  0
LINE
  5
B2
330
6F
100
AcDbEntity
  8
TA-SMART_DN50_NP
  6
Continuous
 62
     7
100
AcDbLine
 10
103.7198481364
 20
169.260618093
 30
0.0
 11
103.7198481364
 21
243.0996577106
 31
0.0
  0
LINE
  5
B3
330
6F
100
AcDbEntity
  8
TA-SMART_DN50_NP
  6
Continuous
 62
     7
100
AcDbLine
 10
91.9698481364
 20
169.260618093
 30
0.0
 11
91.9698481364
 21
243.260618093
 31
0.0
  0
LINE
  5
B4
330
6F
100
AcDbEntity
  8
TA-SMART_DN50_NP
  6
Continuous
 62
     7
100
AcDbLine
 10
91.9698481364
 20
169.260618093
 30
0.0
 11
91.2198482613
 21
169.260618093
 31
0.0
  0
LINE
  5
B5
330
6F
100
AcDbEntity
  8
TA-SMART_DN50_NP
  6
Continuous
 62
     7
100
AcDbLine
 10
91.9698481364
 20
169.260618093
 30
0.0
 11
103.7198481364
 21
169.260618093
 31
0.0
  0
LINE
  5
B6
330
6F
100
AcDbEntity
  8
TA-SMART_DN50_NP
  6
Continuous
 62
     7
100
AcDbLine
 10
116.4698481364
 20
169.260618093
 30
0.0
 11
117.2198480114
 21
169.260618093
 31
0.0
  0
LINE
  5
B7
330
6F
100
AcDbEntity
  8
TA-SMART_DN50_NP
  6
Continuous
 62
     7
100
AcDbLine
 10
104.7198481364
 20
169.260618093
 30
0.0
 11
104.2198481364
 21
169.260618093
 31
0.0
  0
LINE
  5
B8
330
6F
100
AcDbEntity
  8
TA-SMART_DN50_NP
  6
Continuous
 62
     7
100
AcDbLine
 10
104.2198481364
 20
169.260618093
 30
0.0
 11
103.7198481364
 21
169.260618093
 31
0.0
  0
SPLINE
  5
B9
330
6F
100
AcDbEntity
  8
TA-SMART_DN50_NP
  6
Continuous
 62
     7
100
AcDbSpline
210
0.0
220
0.0
230
1.0
 70
    12
 71
     2
 72
     6
 73
     3
 74
     0
 42
0.000000001
 43
0.0000000001
 40
0.0
 40
0.0
 40
0.0
 40
1.0
 40
1.0
 40
1.0
 10
105.0247862470057
 20
242.9913671373846
 30
0.0
 41
1.0
 10
104.8723708694031
 20
243.0043850127499
 30
0.0
 41
1.0
 10
104.7198481363609
 20
243.0172388413172
 30
0.0
 41
1.0
  0
ARC
  5
BA
330
6F
100
AcDbEntity
  8
TA-SMART_DN50_NP
  6
Continuous
 62
     7
100
AcDbCircle
 10
104.2146978863
 20
279.9067985463
 30
0.0
 40
36.92431880556381
100
AcDbArc
 50
271.2571218601
 51
273.551274888
  0
ELLIPSE
  5
BB
330
6F
100
AcDbEntity
  8
TA-SMART_DN50_NP
  6
Continuous
 62
     7
100
AcDbEllipse
 10
116.4984831123
 20
206.2606180554
 30
0.0
 11
-44.67437117052506
 21
2.699246441798132E-8
 31
0.0
210
0.0
220
0.0
230
1.0
 40
0.8450035009
 41
-1.371128166285066
 42
-1.345119061559122
  0
LINE
  5
BC
330
6F
100
AcDbEntity
  8
TA-SMART_DN50_NP
  6
Continuous
 62
     7
100
AcDbLine
 10
104.2198481364
 20
242.5457998582
 30
0.0
 11
104.7198481364
 21
243.0172388413
 31
0.0
  0
LINE
  5
BD
330
6F
100
AcDbEntity
  8
TA-SMART_DN50_NP
  6
Continuous
 62
     7
100
AcDbLine
 10
103.7198481364
 20
243.0996577106
 30
0.0
 11
104.2198481364
 21
242.5457998582
 31
0.0
  0
ELLIPSE
  5
BE
330
6F
100
AcDbEntity
  8
TA-SMART_DN50_NP
  6
Continuous
 62
     7
100
AcDbEllipse
 10
80.8265306333
 20
206.2606176358
 30
0.0
 11
104.8427568982703
 21
1.096844918328521E-7
 31
0.0
210
0.0
220
0.0
230
1.0
 40
0.3600630275
 41
1.350664163203091
 42
1.371128165198146
  0
ARC
  5
BF
330
6F
100
AcDbEntity
  8
TA-SMART_DN50_NP
  6
Continuous
 62
     7
100
AcDbCircle
 10
101.5350803295
 20
230.7686581752
 30
0.0
 40
20.42826512682991
100
AcDbArc
 50
80.1640749577
 51
99.8359250423
  0
ARC
  5
C0
330
6F
100
AcDbEntity
  8
TA-SMART_DN50_NP
  6
Continuous
 62
     7
100
AcDbCircle
 10
109.3348812953
 20
237.6823282805
 30
0.0
 40
13.51459502146876
100
AcDbArc
 50
77.8994967021
 51
102.1005032979
  0
SPLINE
  5
C1
330
6F
100
AcDbEntity
  8
TA-SMART_DN50_NP
  6
Continuous
 62
     7
100
AcDbSpline
210
0.0
220
0.0
230
1.0
 70
     8
 71
     3
 72
    10
 73
     6
 74
     0
 42
0.000000001
 43
0.0000000001
 40
0.0
 40
0.0
 40
0.0
 40
0.0
 40
0.2499999999999999
 40
0.2499999999999999
 40
0.3066842325246726
 40
0.3066842325246726
 40
0.3066842325246726
 40
0.3066842325246726
 10
112.6763289556086
 20
250.8966478587282
 30
0.0
 10
112.5670752110708
 20
250.9918529655234
 30
0.0
 10
112.4567512175345
 20
251.0682234656936
 30
0.0
 10
112.3219261186963
 20
251.131168316814
 30
0.0
 10
112.2970163579792
 20
251.1415209544601
 30
0.0
 10
112.2721166242343
 20
251.1505715527267
 30
0.0
  0
SPLINE
  5
C2
330
6F
100
AcDbEntity
  8
TA-SMART_DN50_NP
  6
Continuous
 62
     7
100
AcDbSpline
210
0.0
220
0.0
230
1.0
 70
     8
 71
     3
 72
    12
 73
     8
 74
     0
 42
0.000000001
 43
0.0000000001
 40
0.0
 40
0.0
 40
0.0
 40
0.0
 40
0.4999999999999999
 40
0.4999999999999999
 40
0.75
 40
0.75
 40
1.0
 40
1.0
 40
1.0
 40
1.0
 10
95.7633673171132
 20
250.8966478587282
 30
0.0
 10
95.98092798042701
 20
251.0862329962702
 30
0.0
 10
96.1991010018893
 20
251.1963011660926
 30
0.0
 10
96.52762482730381
 20
251.1972302756193
 30
0.0
 10
96.63733834598338
 20
251.1708450621845
 30
0.0
 10
96.8571492859335
 20
251.0682234656936
 30
0.0
 10
96.96747327946976
 20
250.9918529655234
 30
0.0
 10
97.07672702400764
 20
250.8966478587282
 30
0.0
  0
LINE
  5
C3
330
6F
100
AcDbEntity
  8
TA-SMART_DN50_NP
  6
Continuous
 62
     7
100
AcDbLine
 10
112.6763289556
 20
250.8966478587
 30
0.0
 11
112.1679073594
 21
250.8966478587
 31
0.0
  0
LINE
  5
C4
330
6F
100
AcDbEntity
  8
TA-SMART_DN50_NP
  6
Continuous
 62
     7
100
AcDbLine
 10
106.5018552313
 20
250.8966478587
 30
0.0
 11
105.024786247
 21
250.8966478587
 31
0.0
  0
LINE
  5
C5
330
6F
100
AcDbEntity
  8
TA-SMART_DN50_NP
  6
Continuous
 62
     7
100
AcDbLine
 10
98.045374412
 20
250.8966478587
 30
0.0
 11
97.076727024
 21
250.8966478587
 31
0.0
  0
LINE
  5
C6
330
6F
100
AcDbEntity
  8
TA-SMART_DN50_NP
  6
Continuous
 62
     7
100
AcDbLine
 10
111.9698481364
 20
251.260618093
 30
0.0
 11
96.4698481364
 21
251.260618093
 31
0.0
  0
LINE
  5
C7
330
6F
100
AcDbEntity
  8
TA-SMART_DN50_NP
  6
Continuous
 62
     7
100
AcDbLine
 10
97.076727024
 20
243.260618093
 30
0.0
 11
97.076727024
 21
250.8966478587
 31
0.0
  0
LINE
  5
C8
330
6F
100
AcDbEntity
  8
TA-SMART_DN50_NP
  6
Continuous
 62
     7
100
AcDbLine
 10
95.7633673171
 20
243.260618093
 30
0.0
 11
95.7633673171
 21
250.8966478587
 31
0.0
  0
LINE
  5
C9
330
6F
100
AcDbEntity
  8
TA-SMART_DN50_NP
  6
Continuous
 62
     7
100
AcDbLine
 10
112.6763289556
 20
243.260618093
 30
0.0
 11
112.6763289556
 21
250.8966478587
 31
0.0
  0
LINE
  5
CA
330
6F
100
AcDbEntity
  8
TA-SMART_DN50_NP
  6
Continuous
 62
     7
100
AcDbLine
 10
112.1679073594
 20
243.260618093
 30
0.0
 11
112.1679073594
 21
250.8966478587
 31
0.0
  0
LINE
  5
CB
330
6F
100
AcDbEntity
  8
TA-SMART_DN50_NP
  6
Continuous
 62
     7
100
AcDbLine
 10
106.5018552313
 20
243.0533830935
 30
0.0
 11
106.5018552313
 21
250.8966478587
 31
0.0
  0
LINE
  5
CC
330
6F
100
AcDbEntity
  8
TA-SMART_DN50_NP
  6
Continuous
 62
     7
100
AcDbLine
 10
105.024786247
 20
242.9913671374
 30
0.0
 11
105.024786247
 21
250.8966478587
 31
0.0
  0
LINE
  5
CD
330
6F
100
AcDbEntity
  8
TA-SMART_DN50_NP
  6
Continuous
 62
     7
100
AcDbLine
 10
98.045374412
 20
243.260618093
 30
0.0
 11
98.045374412
 21
250.8966478587
 31
0.0
  0
LINE
  5
CE
330
6F
100
AcDbEntity
  8
TA-SMART_DN50_NP
  6
Continuous
 62
     7
100
AcDbLine
 10
100.6330732355
 20
162.7319191588
 30
0.0
 11
100.323166576
 21
162.7319191588
 31
0.0
  0
LINE
  5
CF
330
6F
100
AcDbEntity
  8
TA-SMART_DN50_NP
  6
Continuous
 62
     7
100
AcDbLine
 10
108.2203342158
 20
162.7319191588
 30
0.0
 11
107.9379077115
 21
162.7319191588
 31
0.0
  0
LINE
  5
D0
330
6F
100
AcDbEntity
  8
TA-SMART_DN50_NP
  6
Continuous
 62
     7
100
AcDbLine
 10
104.6335593149
 20
162.7319191588
 30
0.0
 11
104.0412261511
 21
162.7319191588
 31
0.0
  0
ARC
  5
D1
330
6F
100
AcDbEntity
  8
TA-SMART_DN50_NP
  6
Continuous
 62
     7
100
AcDbCircle
 10
102.3371496933
 20
162.0936760661
 30
0.0
 40
5.749114235243225
100
AcDbArc
 50
72.7580865534
 51
107.2419134466
  0
SPLINE
  5
D2
330
6F
100
AcDbEntity
  8
TA-SMART_DN50_NP
  6
Continuous
 62
     7
100
AcDbSpline
210
0.0
220
0.0
230
1.0
 70
     8
 71
     3
 72
    12
 73
     8
 74
     0
 42
0.000000001
 43
0.0000000001
 40
0.0
 40
0.0
 40
0.0
 40
0.0
 40
0.5
 40
0.5
 40
0.75
 40
0.75
 40
1.0
 40
1.0
 40
1.0
 40
1.0
 10
100.323166576048
 20
167.5844353865909
 30
0.0
 10
100.3061894230191
 20
167.7457093591007
 30
0.0
 10
100.2889694188784
 20
167.8438504511116
 30
0.0
 10
100.2625753967006
 20
167.8444374664141
 30
0.0
 10
100.2537691945841
 20
167.8203781764755
 30
0.0
 10
100.2364403133245
 20
167.7306609830025
 30
0.0
 10
100.2278671194362
 20
167.6652289807439
 30
0.0
 10
100.2193620569618
 20
167.5844353865909
 30
0.0
  0
SPLINE
  5
D3
330
6F
100
AcDbEntity
  8
TA-SMART_DN50_NP
  6
Continuous
 62
     7
100
AcDbSpline
210
0.0
220
0.0
230
1.0
 70
     8
 71
     3
 72
    10
 73
     6
 74
     0
 42
0.000000001
 43
0.0000000001
 40
0.5279352077594105
 40
0.5279352077594105
 40
0.5279352077594105
 40
0.5279352077594105
 40
0.75
 40
0.75
 40
1.0
 40
1.0
 40
1.0
 40
1.0
 10
108.171272256341
 20
167.8434036662206
 30
0.0
 10
108.179087130671
 20
167.8388009558886
 30
0.0
 10
108.1868952499342
 20
167.815365639597
 30
0.0
 10
108.2032559593974
 20
167.7306609830025
 30
0.0
 10
108.2118291532856
 20
167.6652289807439
 30
0.0
 10
108.22033421576
 20
167.5844353865909
 30
0.0
  0
ARC
  5
D4
330
6F
100
AcDbEntity
  8
TA-SMART_DN50_NP
  6
Continuous
 62
     7
100
AcDbCircle
 10
106.2857335132
 20
162.430310251
 30
0.0
 40
5.412456512003953
100
AcDbArc
 50
72.2265519946
 51
107.7734480054
  0
LINE
  5
D5
330
6F
100
AcDbEntity
  8
TA-SMART_DN50_NP
  6
Continuous
 62
     7
100
AcDbLine
 10
100.3583481364
 20
167.8953385065
 30
0.0
 11
108.0813481364
 21
167.8953385065
 31
0.0
  0
LINE
  5
D6
330
6F
100
AcDbEntity
  8
TA-SMART_DN50_NP
  6
Continuous
 62
     7
100
AcDbLine
 10
100.4698481364
 20
162.4953385065
 30
0.0
 11
107.9698481364
 21
162.4953385065
 31
0.0
  0
ARC
  5
D7
330
6F
100
AcDbEntity
  8
TA-SMART_DN50_NP
  6
Continuous
 62
     7
100
AcDbCircle
 10
102.3371496933
 20
171.5148440303
 30
0.0
 40
8.946711455772647
100
AcDbArc
 50
259.0198098372
 51
280.9801901628
  0
SPLINE
  5
D8
330
6F
100
AcDbEntity
  8
TA-SMART_DN50_NP
  6
Continuous
 62
     7
100
AcDbSpline
210
0.0
220
0.0
230
1.0
 70
     8
 71
     3
 72
     9
 73
     5
 74
     0
 42
0.000000001
 43
0.0000000001
 40
0.0
 40
0.0
 40
0.0
 40
0.0
 40
0.5
 40
1.0
 40
1.0
 40
1.0
 40
1.0
 10
100.2193620569618
 20
162.7319191588226
 30
0.0
 10
100.2366628101428
 20
162.6283117228184
 30
0.0
 10
100.2712643165049
 20
162.5079533839872
 30
0.0
 10
100.305865822867
 20
162.6283117228184
 30
0.0
 10
100.323166576048
 20
162.7319191588226
 30
0.0
  0
SPLINE
  5
D9
330
6F
100
AcDbEntity
  8
TA-SMART_DN50_NP
  6
Continuous
 62
     7
100
AcDbSpline
210
0.0
220
0.0
230
1.0
 70
     8
 71
     3
 72
     8
 73
     4
 74
     0
 42
0.000000001
 43
0.0000000001
 40
0.0
 40
0.0
 40
0.0
 40
0.0
 40
0.4727280361738284
 40
0.4727280361738284
 40
0.4727280361738284
 40
0.4727280361738284
 10
108.22033421576
 20
162.7319191588225
 30
0.0
 10
108.2039771136088
 20
162.633962879312
 30
0.0
 10
108.1876200114576
 20
162.5748265707605
 30
0.0
 10
108.1712629093064
 20
162.568666941544
 30
0.0
  0
ARC
  5
DA
330
6F
100
AcDbEntity
  8
TA-SMART_DN50_NP
  6
Continuous
 62
     7
100
AcDbCircle
 10
106.2857335132
 20
170.9830625364
 30
0.0
 40
8.41492998299726
100
AcDbArc
 50
258.6770780458
 51
281.3229219542
  0
LINE
  5
DB
330
6F
100
AcDbEntity
  8
TA-SMART_DN50_NP
  6
Continuous
 62
     7
100
AcDbLine
 10
100.323166576
 20
167.5844353866
 30
0.0
 11
100.6330732355
 21
167.5844353866
 31
0.0
  0
LINE
  5
DC
330
6F
100
AcDbEntity
  8
TA-SMART_DN50_NP
  6
Continuous
 62
     7
100
AcDbLine
 10
100.6330732355
 20
162.7319191588
 30
0.0
 11
100.6330732355
 21
167.5844353866
 31
0.0
  0
LINE
  5
DD
330
6F
100
AcDbEntity
  8
TA-SMART_DN50_NP
  6
Continuous
 62
     7
100
AcDbLine
 10
100.323166576
 20
167.5844353866
 30
0.0
 11
100.323166576
 21
162.7319191588
 31
0.0
  0
LINE
  5
DE
330
6F
100
AcDbEntity
  8
TA-SMART_DN50_NP
  6
Continuous
 62
     7
100
AcDbLine
 10
100.219362057
 20
162.7319191588
 30
0.0
 11
100.219362057
 21
167.5844353866
 31
0.0
  0
LINE
  5
DF
330
6F
100
AcDbEntity
  8
TA-SMART_DN50_NP
  6
Continuous
 62
     7
100
AcDbLine
 10
107.9379077115
 20
167.5844353866
 30
0.0
 11
108.2203342158
 21
167.5844353866
 31
0.0
  0
LINE
  5
E0
330
6F
100
AcDbEntity
  8
TA-SMART_DN50_NP
  6
Continuous
 62
     7
100
AcDbLine
 10
108.2203342158
 20
162.7319191588
 30
0.0
 11
108.2203342158
 21
167.5844353866
 31
0.0
  0
LINE
  5
E1
330
6F
100
AcDbEntity
  8
TA-SMART_DN50_NP
  6
Continuous
 62
     7
100
AcDbLine
 10
107.9379077115
 20
167.5844353866
 30
0.0
 11
107.9379077115
 21
162.7319191588
 31
0.0
  0
LINE
  5
E2
330
6F
100
AcDbEntity
  8
TA-SMART_DN50_NP
  6
Continuous
 62
     7
100
AcDbLine
 10
104.0412261511
 20
167.5844353866
 30
0.0
 11
104.6335593149
 21
167.5844353866
 31
0.0
  0
LINE
  5
E3
330
6F
100
AcDbEntity
  8
TA-SMART_DN50_NP
  6
Continuous
 62
     7
100
AcDbLine
 10
104.0412261511
 20
167.5844353866
 30
0.0
 11
104.0412261511
 21
162.7319191588
 31
0.0
  0
LINE
  5
E4
330
6F
100
AcDbEntity
  8
TA-SMART_DN50_NP
  6
Continuous
 62
     7
100
AcDbLine
 10
104.6335593149
 20
162.7319191588
 30
0.0
 11
104.6335593149
 21
167.5844353866
 31
0.0
  0
LINE
  5
E5
330
6F
100
AcDbEntity
  8
TA-SMART_DN50_NP
  6
Continuous
 62
     7
100
AcDbLine
 10
70.4271063754
 20
240.0800554246
 30
0.0
 11
70.2198481364
 21
239.510618093
 31
0.0
  0
LINE
  5
E6
330
6F
100
AcDbEntity
  8
TA-SMART_DN50_NP
  6
Continuous
 62
     7
100
AcDbLine
 10
70.2198481364
 20
173.010618093
 30
0.0
 11
70.4273361852
 21
172.4405493641
 31
0.0
  0
LINE
  5
E7
330
6F
100
AcDbEntity
  8
TA-SMART_DN50_NP
  6
Continuous
 62
     7
100
AcDbLine
 10
138.0125898999
 20
172.4411807682
 30
0.0
 11
138.2198481364
 21
173.010618093
 31
0.0
  0
LINE
  5
E8
330
6F
100
AcDbEntity
  8
TA-SMART_DN50_NP
  6
Continuous
 62
     7
100
AcDbLine
 10
138.2198481364
 20
239.510618093
 30
0.0
 11
138.0123600852
 21
240.0806868284
 31
0.0
  0
LINE
  5
E9
330
6F
100
AcDbEntity
  8
TA-SMART_DN50_NP
  6
Continuous
 62
     7
100
AcDbLine
 10
117.2198481364
 20
169.260618093
 30
0.0
 11
118.2198481364
 21
170.260618093
 31
0.0
  0
LINE
  5
EA
330
6F
100
AcDbEntity
  8
TA-SMART_DN50_NP
  6
Continuous
 62
     7
100
AcDbLine
 10
118.2198481364
 20
242.260618093
 30
0.0
 11
117.2198481364
 21
243.260618093
 31
0.0
  0
LINE
  5
EB
330
6F
100
AcDbEntity
  8
TA-SMART_DN50_NP
  6
Continuous
 62
     7
100
AcDbLine
 10
91.2198481364
 20
243.260618093
 30
0.0
 11
90.2198481364
 21
242.260618093
 31
0.0
  0
LINE
  5
EC
330
6F
100
AcDbEntity
  8
TA-SMART_DN50_NP
  6
Continuous
 62
     7
100
AcDbLine
 10
90.2198481364
 20
170.260618093
 30
0.0
 11
91.2198481364
 21
169.260618093
 31
0.0
  0
LINE
  5
ED
330
6F
100
AcDbEntity
  8
TA-SMART_DN50_NP
  6
Continuous
 62
     7
100
AcDbLine
 10
112.27454483
 20
251.149717566
 30
0.0
 11
111.9698481364
 21
251.260618093
 31
0.0
  0
LINE
  5
EE
330
6F
100
AcDbEntity
  8
TA-SMART_DN50_NP
  6
Continuous
 62
     7
100
AcDbLine
 10
96.4698481364
 20
251.260618093
 30
0.0
 11
96.1630912075
 21
251.1489677017
 31
0.0
  0
LINE
  5
EF
330
6F
100
AcDbEntity
  8
TA-SMART_DN50_NP
  6
Continuous
 62
     7
100
AcDbLine
 10
108.1730487702
 20
167.8423951209
 30
0.0
 11
108.0813481364
 21
167.8953385065
 31
0.0
  0
LINE
  5
F0
330
6F
100
AcDbEntity
  8
TA-SMART_DN50_NP
  6
Continuous
 62
     7
100
AcDbLine
 10
100.3583481364
 20
167.8953385065
 30
0.0
 11
100.2666475025
 21
167.8423951209
 31
0.0
  0
LINE
  5
F1
330
6F
100
AcDbEntity
  8
TA-SMART_DN50_NP
  6
Continuous
 62
     7
100
AcDbLine
 10
100.3583481364
 20
169.260618093
 30
0.0
 11
100.3583481364
 21
167.8953385065
 31
0.0
  0
LINE
  5
F2
330
6F
100
AcDbEntity
  8
TA-SMART_DN50_NP
  6
Continuous
 62
     7
100
AcDbLine
 10
108.0813481364
 20
167.8953385065
 30
0.0
 11
108.0813481364
 21
169.260618093
 31
0.0
  0
LINE
  5
F3
330
6F
100
AcDbEntity
  8
TA-SMART_DN50_NP
  6
Continuous
 62
     7
100
AcDbLine
 10
100.2674054566
 20
162.5690216161
 30
0.0
 11
100.4698481364
 21
162.4953385065
 31
0.0
  0
LINE
  5
F4
330
6F
100
AcDbEntity
  8
TA-SMART_DN50_NP
  6
Continuous
 62
     7
100
AcDbLine
 10
107.9698481364
 20
162.4953385065
 30
0.0
 11
108.1722908161
 21
162.5690216161
 31
0.0
  0
ENDBLK
  5
F6
330
6F
100
AcDbEntity
  8
0
100
AcDbBlockEnd
  0
BLOCK
  5
146
330
F7
100
AcDbEntity
  8
0
100
AcDbBlockBegin
  2
SE1
 70
     0
 10
0.0
 20
0.0
 30
0.0
  3
SE1
  1

  0
CIRCLE
  5
F9
330
F7
100
AcDbEntity
  8
TA-SMART_DN50_NP
  6
Continuous
 62
     7
100
AcDbCircle
 10
276.0496344033
 20
206.260618093
 30
0.0
 40
33.25
  0
ARC
  5
FA
330
F7
100
AcDbEntity
  8
TA-SMART_DN50_NP
  6
Continuous
 62
     7
100
AcDbCircle
 10
276.0496344033
 20
206.260618093
 30
0.0
 40
36.0
100
AcDbArc
 50
110.0647441672
 51
114.9352566651
  0
ARC
  5
FB
330
F7
100
AcDbEntity
  8
TA-SMART_DN50_NP
  6
Continuous
 62
     7
100
AcDbCircle
 10
276.0496344033
 20
206.260618093
 30
0.0
 40
36.00000000000001
100
AcDbArc
 50
114.9352566651
 51
155.0647393164
  0
ARC
  5
FC
330
F7
100
AcDbEntity
  8
TA-SMART_DN50_NP
  6
Continuous
 62
     7
100
AcDbCircle
 10
276.0496344033
 20
206.260618093
 30
0.0
 40
36.00000000000001
100
AcDbArc
 50
159.9352615159
 51
200.0647441672
  0
ARC
  5
FD
330
F7
100
AcDbEntity
  8
TA-SMART_DN50_NP
  6
Continuous
 62
     7
100
AcDbCircle
 10
276.0496344033
 20
206.260618093
 30
0.0
 40
36.00000000000001
100
AcDbArc
 50
204.9352566651
 51
245.0647393164
  0
ARC
  5
FE
330
F7
100
AcDbEntity
  8
TA-SMART_DN50_NP
  6
Continuous
 62
     7
100
AcDbCircle
 10
276.0496344033
 20
206.260618093
 30
0.0
 40
36.00000000000001
100
AcDbArc
 50
249.9352615159
 51
290.0647441672
  0
ARC
  5
FF
330
F7
100
AcDbEntity
  8
TA-SMART_DN50_NP
  6
Continuous
 62
     7
100
AcDbCircle
 10
276.0496344033
 20
206.260618093
 30
0.0
 40
36.00000000000001
100
AcDbArc
 50
294.9352566651
 51
335.0647393164
  0
ARC
  5
100
330
F7
100
AcDbEntity
  8
TA-SMART_DN50_NP
  6
Continuous
 62
     7
100
AcDbCircle
 10
276.0496344033
 20
206.260618093
 30
0.0
 40
36.00000000000001
100
AcDbArc
 50
339.9352615159
 51
20.0647441672
  0
ARC
  5
101
330
F7
100
AcDbEntity
  8
TA-SMART_DN50_NP
  6
Continuous
 62
     7
100
AcDbCircle
 10
276.0496344033
 20
206.260618093
 30
0.0
 40
36.00000000000001
100
AcDbArc
 50
24.9352566651
 51
65.0647393164
  0
ARC
  5
102
330
F7
100
AcDbEntity
  8
TA-SMART_DN50_NP
  6
Continuous
 62
     7
100
AcDbCircle
 10
276.0496344033
 20
206.260618093
 30
0.0
 40
36.00000000000001
100
AcDbArc
 50
69.9352615159
 51
110.0647441672
  0
ARC
  5
103
330
F7
100
AcDbEntity
  8
TA-SMART_DN50_NP
  6
Continuous
 62
     7
100
AcDbCircle
 10
276.0496344033
 20
206.260618093
 30
0.0
 40
36.00000000000001
100
AcDbArc
 50
155.0647393164
 51
159.9352615159
  0
ARC
  5
104
330
F7
100
AcDbEntity
  8
TA-SMART_DN50_NP
  6
Continuous
 62
     7
100
AcDbCircle
 10
276.0496344033
 20
206.260618093
 30
0.0
 40
36.0
100
AcDbArc
 50
200.0647441672
 51
204.9352566651
  0
ARC
  5
105
330
F7
100
AcDbEntity
  8
TA-SMART_DN50_NP
  6
Continuous
 62
     7
100
AcDbCircle
 10
276.0496344033
 20
206.260618093
 30
0.0
 40
36.0
100
AcDbArc
 50
245.0647393164
 51
249.9352615159
  0
ARC
  5
106
330
F7
100
AcDbEntity
  8
TA-SMART_DN50_NP
  6
Continuous
 62
     7
100
AcDbCircle
 10
276.0496344033
 20
206.260618093
 30
0.0
 40
36.0
100
AcDbArc
 50
290.0647441672
 51
294.9352566651
  0
ARC
  5
107
330
F7
100
AcDbEntity
  8
TA-SMART_DN50_NP
  6
Continuous
 62
     7
100
AcDbCircle
 10
276.0496344033
 20
206.260618093
 30
0.0
 40
36.00000000000001
100
AcDbArc
 50
335.0647393164
 51
339.9352615159
  0
ARC
  5
108
330
F7
100
AcDbEntity
  8
TA-SMART_DN50_NP
  6
Continuous
 62
     7
100
AcDbCircle
 10
276.0496344033
 20
206.260618093
 30
0.0
 40
36.00000000000001
100
AcDbArc
 50
20.0647441672
 51
24.9352566651
  0
ARC
  5
109
330
F7
100
AcDbEntity
  8
TA-SMART_DN50_NP
  6
Continuous
 62
     7
100
AcDbCircle
 10
276.0496344033
 20
206.260618093
 30
0.0
 40
36.0
100
AcDbArc
 50
65.0647393164
 51
69.9352615159
  0
LINE
  5
10A
330
F7
100
AcDbEntity
  8
TA-SMART_DN50_NP
  6
Continuous
 62
     7
100
AcDbLine
 10
288.400574998
 20
240.0756187055
 30
0.0
 11
263.6986904545
 21
240.0756174805
 31
0.0
  0
LINE
  5
10B
330
F7
100
AcDbEntity
  8
TA-SMART_DN50_NP
  6
Continuous
 62
     7
100
AcDbLine
 10
308.6938857757
 20
221.4379977196
 30
0.0
 11
291.2270163195
 21
238.904868401
 31
0.0
  0
LINE
  5
10C
330
F7
100
AcDbEntity
  8
TA-SMART_DN50_NP
  6
Continuous
 62
     7
100
AcDbLine
 10
309.8646350158
 20
193.9096774983
 30
0.0
 11
309.8646337908
 21
218.6115620418
 31
0.0
  0
LINE
  5
10D
330
F7
100
AcDbEntity
  8
TA-SMART_DN50_NP
  6
Continuous
 62
     7
100
AcDbLine
 10
291.2270140299
 20
173.6163667205
 30
0.0
 11
308.6938847113
 21
191.0832361768
 31
0.0
  0
LINE
  5
10E
330
F7
100
AcDbEntity
  8
TA-SMART_DN50_NP
  6
Continuous
 62
     7
100
AcDbLine
 10
263.6986938086
 20
172.4456174805
 30
0.0
 11
288.400578352
 21
172.4456187055
 31
0.0
  0
LINE
  5
10F
330
F7
100
AcDbEntity
  8
TA-SMART_DN50_NP
  6
Continuous
 62
     7
100
AcDbLine
 10
243.4053830308
 20
191.0832384663
 30
0.0
 11
260.8722524871
 21
173.616367785
 31
0.0
  0
LINE
  5
110
330
F7
100
AcDbEntity
  8
TA-SMART_DN50_NP
  6
Continuous
 62
     7
100
AcDbLine
 10
242.2346337908
 20
218.6115586877
 30
0.0
 11
242.2346350158
 21
193.9096741442
 31
0.0
  0
LINE
  5
111
330
F7
100
AcDbEntity
  8
TA-SMART_DN50_NP
  6
Continuous
 62
     7
100
AcDbLine
 10
260.8722547766
 20
238.9048694655
 30
0.0
 11
243.4053840953
 21
221.4380000092
 31
0.0
  0
CIRCLE
  5
112
330
F7
100
AcDbEntity
  8
TA-SMART_DN50_NP
  6
Continuous
 62
     7
100
AcDbCircle
 10
276.0496344033
 20
206.260618093
 30
0.0
 40
27.67000000000001
  0
LINE
  5
113
330
F7
100
AcDbEntity
  8
TA-SMART_DN50_NP
  6
Continuous
 62
     7
100
AcDbLine
 10
283.5371239692
 20
243.260618093
 30
0.0
 11
268.5621448373
 21
243.260618093
 31
0.0
  0
ARC
  5
114
330
F7
100
AcDbEntity
  8
TA-SMART_DN50_NP
  6
Continuous
 62
     7
100
AcDbCircle
 10
276.0496344033
 20
206.260618093
 30
0.0
 40
37.75
100
AcDbArc
 50
101.4401428649
 51
258.5598571351
  0
ARC
  5
115
330
F7
100
AcDbEntity
  8
TA-SMART_DN50_NP
  6
Continuous
 62
     7
100
AcDbCircle
 10
276.0496344033
 20
206.260618093
 30
0.0
 40
37.75
100
AcDbArc
 50
281.4401428649
 51
78.5598571351
  0
LINE
  5
116
330
F7
100
AcDbEntity
  8
TA-SMART_DN50_NP
  6
Continuous
 62
     7
100
AcDbLine
 10
268.5621448373
 20
169.260618093
 30
0.0
 11
283.5371239692
 21
169.260618093
 31
0.0
  0
ARC
  5
117
330
F7
100
AcDbEntity
  8
TA-SMART_DN50_NP
  6
Continuous
 62
     7
100
AcDbCircle
 10
283.5060173618
 20
248.4178200009
 30
0.0
 40
2.779103301141563
100
AcDbArc
 50
63.119619154
 51
116.880380846
  0
ARC
  5
118
330
F7
100
AcDbEntity
  8
TA-SMART_DN50_NP
  6
Continuous
 62
     7
100
AcDbCircle
 10
268.5932514448
 20
248.4178200009
 30
0.0
 40
2.779103301141731
100
AcDbArc
 50
110.4288761093
 51
116.880380846
  0
ARC
  5
119
330
F7
100
AcDbEntity
  8
TA-SMART_DN50_NP
  6
Continuous
 62
     7
100
AcDbCircle
 10
269.9963658001
 20
241.5041498955
 30
0.0
 40
9.692773406504049
100
AcDbArc
 50
75.7011500116
 51
104.2988499884
  0
ARC
  5
11A
330
F7
100
AcDbEntity
  8
TA-SMART_DN50_NP
  6
Continuous
 62
     7
100
AcDbCircle
 10
277.4527487585
 20
228.7652962954
 30
0.0
 40
22.43038939897456
100
AcDbArc
 50
80.6337451127
 51
99.3662548873
  0
LINE
  5
11B
330
F7
100
AcDbEntity
  8
TA-SMART_DN50_NP
  6
Continuous
 62
     7
100
AcDbLine
 10
273.802317747
 20
250.8966478587
 30
0.0
 11
272.3902827411
 21
250.8966478587
 31
0.0
  0
LINE
  5
11C
330
F7
100
AcDbEntity
  8
TA-SMART_DN50_NP
  6
Continuous
 62
     7
100
AcDbLine
 10
267.602448859
 20
250.8966478587
 30
0.0
 11
267.3367373743
 21
250.8966478587
 31
0.0
  0
LINE
  5
11D
330
F7
100
AcDbEntity
  8
TA-SMART_DN50_NP
  6
Continuous
 62
     7
100
AcDbLine
 10
282.2495032912
 20
250.8966478587
 30
0.0
 11
281.1031797701
 21
250.8966478587
 31
0.0
  0
LINE
  5
11E
330
F7
100
AcDbEntity
  8
TA-SMART_DN50_NP
  6
Continuous
 62
     7
100
AcDbLine
 10
283.7996344033
 20
251.260618093
 30
0.0
 11
268.2996344033
 21
251.260618093
 31
0.0
  0
LINE
  5
11F
330
F7
100
AcDbEntity
  8
TA-SMART_DN50_NP
  6
Continuous
 62
     7
100
AcDbLine
 10
281.1031797701
 20
243.260618093
 30
0.0
 11
281.1031797701
 21
250.8966478587
 31
0.0
  0
LINE
  5
120
330
F7
100
AcDbEntity
  8
TA-SMART_DN50_NP
  6
Continuous
 62
     7
100
AcDbLine
 10
273.802317747
 20
243.260618093
 30
0.0
 11
273.802317747
 21
250.8966478587
 31
0.0
  0
LINE
  5
121
330
F7
100
AcDbEntity
  8
TA-SMART_DN50_NP
  6
Continuous
 62
     7
100
AcDbLine
 10
272.3902827411
 20
243.260618093
 30
0.0
 11
272.3902827411
 21
250.8966478587
 31
0.0
  0
LINE
  5
122
330
F7
100
AcDbEntity
  8
TA-SMART_DN50_NP
  6
Continuous
 62
     7
100
AcDbLine
 10
267.602448859
 20
243.0533830935
 30
0.0
 11
267.602448859
 21
250.8966478587
 31
0.0
  0
LINE
  5
123
330
F7
100
AcDbEntity
  8
TA-SMART_DN50_NP
  6
Continuous
 62
     7
100
AcDbLine
 10
267.3367373743
 20
242.9913671374
 30
0.0
 11
267.3367373743
 21
250.8966478587
 31
0.0
  0
LINE
  5
124
330
F7
100
AcDbEntity
  8
TA-SMART_DN50_NP
  6
Continuous
 62
     7
100
AcDbLine
 10
284.7625314323
 20
242.9913671374
 30
0.0
 11
284.7625314323
 21
250.8966478587
 31
0.0
  0
LINE
  5
125
330
F7
100
AcDbEntity
  8
TA-SMART_DN50_NP
  6
Continuous
 62
     7
100
AcDbLine
 10
282.2495032912
 20
243.260618093
 30
0.0
 11
282.2495032912
 21
250.8966478587
 31
0.0
  0
LINE
  5
126
330
F7
100
AcDbEntity
  8
TA-SMART_DN50_NP
  6
Continuous
 62
     7
100
AcDbLine
 10
278.5981723784
 20
162.7319191588
 30
0.0
 11
278.0931296486
 21
162.7319191588
 31
0.0
  0
LINE
  5
127
330
F7
100
AcDbEntity
  8
TA-SMART_DN50_NP
  6
Continuous
 62
     7
100
AcDbLine
 10
274.2176652091
 20
162.7319191588
 30
0.0
 11
273.6967568042
 21
162.7319191588
 31
0.0
  0
LINE
  5
128
330
F7
100
AcDbEntity
  8
TA-SMART_DN50_NP
  6
Continuous
 62
     7
100
AcDbLine
 10
271.6691272339
 20
162.7319191588
 30
0.0
 11
271.6496344033
 21
162.7319191588
 31
0.0
  0
LINE
  5
129
330
F7
100
AcDbEntity
  8
TA-SMART_DN50_NP
  6
Continuous
 62
     7
100
AcDbLine
 10
280.4460072476
 20
162.7319191588
 30
0.0
 11
280.4496344033
 21
162.7319191588
 31
0.0
  0
ARC
  5
12A
330
F7
100
AcDbEntity
  8
TA-SMART_DN50_NP
  6
Continuous
 62
     7
100
AcDbCircle
 10
279.522089813
 20
166.0552490371
 30
0.0
 40
1.786626518766995
100
AcDbArc
 50
58.8600938975
 51
121.1399061025
  0
ARC
  5
12B
330
F7
100
AcDbEntity
  8
TA-SMART_DN50_NP
  6
Continuous
 62
     7
100
AcDbCircle
 10
276.1553974288
 20
160.4495352165
 30
0.0
 40
7.393348807681688
100
AcDbArc
 50
74.8058127042
 51
105.1941872958
  0
ARC
  5
12C
330
F7
100
AcDbEntity
  8
TA-SMART_DN50_NP
  6
Continuous
 62
     7
100
AcDbCircle
 10
272.6829420191
 20
165.7186848062
 30
0.0
 40
2.123404258917756
100
AcDbArc
 50
61.4811510813
 51
118.5188489187
  0
LINE
  5
12D
330
F7
100
AcDbEntity
  8
TA-SMART_DN50_NP
  6
Continuous
 62
     7
100
AcDbLine
 10
279.9111344033
 20
167.8953385065
 30
0.0
 11
272.1881344033
 21
167.8953385065
 31
0.0
  0
LINE
  5
12E
330
F7
100
AcDbEntity
  8
TA-SMART_DN50_NP
  6
Continuous
 62
     7
100
AcDbLine
 10
279.7996344033
 20
162.4953385065
 30
0.0
 11
272.2996344033
 21
162.4953385065
 31
0.0
  0
ARC
  5
12F
330
F7
100
AcDbEntity
  8
TA-SMART_DN50_NP
  6
Continuous
 62
     7
100
AcDbCircle
 10
279.522089813
 20
165.2559275239
 30
0.0
 40
2.68779494246591
100
AcDbArc
 50
249.8947643612
 51
290.1052356388
  0
ARC
  5
130
330
F7
100
AcDbEntity
  8
TA-SMART_DN50_NP
  6
Continuous
 62
     7
100
AcDbCircle
 10
276.1553974288
 20
174.1125204412
 30
0.0
 40
11.54438788775462
100
AcDbArc
 50
260.3371292292
 51
279.6628707708
  0
ARC
  5
131
330
F7
100
AcDbEntity
  8
TA-SMART_DN50_NP
  6
Continuous
 62
     7
100
AcDbCircle
 10
272.6829420191
 20
165.787707402
 30
0.0
 40
3.219574848645774
100
AcDbArc
 50
251.6457730312
 51
288.3542269688
  0
LINE
  5
132
330
F7
100
AcDbEntity
  8
TA-SMART_DN50_NP
  6
Continuous
 62
     7
100
AcDbLine
 10
278.0931296486
 20
167.5844353866
 30
0.0
 11
278.5981723784
 21
167.5844353866
 31
0.0
  0
LINE
  5
133
330
F7
100
AcDbEntity
  8
TA-SMART_DN50_NP
  6
Continuous
 62
     7
100
AcDbLine
 10
278.5981723784
 20
162.7319191588
 30
0.0
 11
278.5981723784
 21
167.5844353866
 31
0.0
  0
LINE
  5
134
330
F7
100
AcDbEntity
  8
TA-SMART_DN50_NP
  6
Continuous
 62
     7
100
AcDbLine
 10
278.0931296486
 20
167.5844353866
 30
0.0
 11
278.0931296486
 21
162.7319191588
 31
0.0
  0
LINE
  5
135
330
F7
100
AcDbEntity
  8
TA-SMART_DN50_NP
  6
Continuous
 62
     7
100
AcDbLine
 10
273.6967568042
 20
167.5844353866
 30
0.0
 11
274.2176652091
 21
167.5844353866
 31
0.0
  0
LINE
  5
136
330
F7
100
AcDbEntity
  8
TA-SMART_DN50_NP
  6
Continuous
 62
     7
100
AcDbLine
 10
274.2176652091
 20
162.7319191588
 30
0.0
 11
274.2176652091
 21
167.5844353866
 31
0.0
  0
LINE
  5
137
330
F7
100
AcDbEntity
  8
TA-SMART_DN50_NP
  6
Continuous
 62
     7
100
AcDbLine
 10
273.6967568042
 20
167.5844353866
 30
0.0
 11
273.6967568042
 21
162.7319191588
 31
0.0
  0
LINE
  5
138
330
F7
100
AcDbEntity
  8
TA-SMART_DN50_NP
  6
Continuous
 62
     7
100
AcDbLine
 10
271.6496344033
 20
167.5844353866
 30
0.0
 11
271.6691272339
 21
167.5844353866
 31
0.0
  0
LINE
  5
139
330
F7
100
AcDbEntity
  8
TA-SMART_DN50_NP
  6
Continuous
 62
     7
100
AcDbLine
 10
271.6691272339
 20
162.7319191588
 30
0.0
 11
271.6691272339
 21
167.5844353866
 31
0.0
  0
LINE
  5
13A
330
F7
100
AcDbEntity
  8
TA-SMART_DN50_NP
  6
Continuous
 62
     7
100
AcDbLine
 10
280.4496344033
 20
167.5844353866
 30
0.0
 11
280.4460072476
 21
167.5844353866
 31
0.0
  0
LINE
  5
13B
330
F7
100
AcDbEntity
  8
TA-SMART_DN50_NP
  6
Continuous
 62
     7
100
AcDbLine
 10
280.4460072476
 20
167.5844353866
 30
0.0
 11
280.4460072476
 21
162.7319191588
 31
0.0
  0
LINE
  5
13C
330
F7
100
AcDbEntity
  8
TA-SMART_DN50_NP
  6
Continuous
 62
     7
100
AcDbLine
 10
284.4782314001
 20
251.0136289851
 30
0.0
 11
283.7996344033
 21
251.260618093
 31
0.0
  0
LINE
  5
13D
330
F7
100
AcDbEntity
  8
TA-SMART_DN50_NP
  6
Continuous
 62
     7
100
AcDbLine
 10
268.2996344033
 20
251.260618093
 30
0.0
 11
267.6210374064
 21
251.0136289851
 31
0.0
  0
LINE
  5
13E
330
F7
100
AcDbEntity
  8
TA-SMART_DN50_NP
  6
Continuous
 62
     7
100
AcDbLine
 10
280.4496344033
 20
167.5844353866
 30
0.0
 11
279.9111344033
 21
167.8953385065
 31
0.0
  0
LINE
  5
13F
330
F7
100
AcDbEntity
  8
TA-SMART_DN50_NP
  6
Continuous
 62
     7
100
AcDbLine
 10
272.1881344033
 20
167.8953385065
 30
0.0
 11
271.6496344033
 21
167.5844353866
 31
0.0
  0
LINE
  5
140
330
F7
100
AcDbEntity
  8
TA-SMART_DN50_NP
  6
Continuous
 62
     7
100
AcDbLine
 10
272.1881344033
 20
169.260618093
 30
0.0
 11
272.1881344033
 21
167.8953385065
 31
0.0
  0
LINE
  5
141
330
F7
100
AcDbEntity
  8
TA-SMART_DN50_NP
  6
Continuous
 62
     7
100
AcDbLine
 10
279.9111344033
 20
167.8953385065
 30
0.0
 11
279.9111344033
 21
169.260618093
 31
0.0
  0
LINE
  5
142
330
F7
100
AcDbEntity
  8
TA-SMART_DN50_NP
  6
Continuous
 62
     7
100
AcDbLine
 10
271.6496344033
 20
162.7319191588
 30
0.0
 11
272.2996344033
 21
162.4953385065
 31
0.0
  0
LINE
  5
143
330
F7
100
AcDbEntity
  8
TA-SMART_DN50_NP
  6
Continuous
 62
     7
100
AcDbLine
 10
279.7996344033
 20
162.4953385065
 30
0.0
 11
280.4496344033
 21
162.7319191588
 31
0.0
  0
LINE
  5
144
330
F7
100
AcDbEntity
  8
TA-SMART_DN50_NP
  6
Continuous
 62
     7
100
AcDbLine
 10
271.6496344033
 20
167.5844353866
 30
0.0
 11
271.6496344033
 21
162.7319191588
 31
0.0
  0
LINE
  5
145
330
F7
100
AcDbEntity
  8
TA-SMART_DN50_NP
  6
Continuous
 62
     7
100
AcDbLine
 10
280.4496344033
 20
162.7319191588
 30
0.0
 11
280.4496344033
 21
167.5844353866
 31
0.0
  0
ENDBLK
  5
147
330
F7
100
AcDbEntity
  8
0
100
AcDbBlockEnd
  0
BLOCK
  5
1AF
330
148
100
AcDbEntity
  8
0
100
AcDbBlockBegin
  2
SE2
 70
     0
 10
0.0
 20
0.0
 30
0.0
  3
SE2
  1

  0
LINE
  5
14A
330
148
100
AcDbEntity
  8
TA-SMART_DN50_NP
  6
Continuous
 62
     7
100
AcDbLine
 10
70.2198481364
 20
56.4091083124
 30
0.0
 11
70.2198481364
 21
122.9091083124
 31
0.0
  0
LINE
  5
14B
330
148
100
AcDbEntity
  8
TA-SMART_DN50_NP
  6
Continuous
 62
     7
100
AcDbLine
 10
71.2207662806
 20
102.0100522612
 30
0.0
 11
71.2207662806
 21
104.8364879391
 31
0.0
  0
LINE
  5
14C
330
148
100
AcDbEntity
  8
TA-SMART_DN50_NP
  6
Continuous
 62
     7
100
AcDbLine
 10
90.2198481364
 20
102.0100522612
 30
0.0
 11
90.2198481364
 21
104.8364879391
 31
0.0
  0
LINE
  5
14D
330
148
100
AcDbEntity
  8
TA-SMART_DN50_NP
  6
Continuous
 62
     7
100
AcDbLine
 10
90.2198481364
 20
104.8364879391
 30
0.0
 11
90.2198481364
 21
122.3033586204
 31
0.0
  0
LINE
  5
14E
330
148
100
AcDbEntity
  8
TA-SMART_DN50_NP
  6
Continuous
 62
     7
100
AcDbLine
 10
90.2198481364
 20
122.3033586204
 30
0.0
 11
90.2198481364
 21
123.474108925
 31
0.0
  0
LINE
  5
14F
330
148
100
AcDbEntity
  8
TA-SMART_DN50_NP
  6
Continuous
 62
     7
100
AcDbLine
 10
90.2198481364
 20
125.6591083124
 30
0.0
 11
90.2198481364
 21
123.4741076999
 31
0.0
  0
LINE
  5
150
330
148
100
AcDbEntity
  8
TA-SMART_DN50_NP
  6
Continuous
 62
     7
100
AcDbLine
 10
90.2198481364
 20
53.6591083124
 30
0.0
 11
90.2198481364
 21
55.844108925
 31
0.0
  0
LINE
  5
151
330
148
100
AcDbEntity
  8
TA-SMART_DN50_NP
  6
Continuous
 62
     7
100
AcDbLine
 10
90.2198481364
 20
55.844108925
 30
0.0
 11
90.2198481364
 21
57.01485694
 31
0.0
  0
LINE
  5
152
330
148
100
AcDbEntity
  8
TA-SMART_DN50_NP
  6
Continuous
 62
     7
100
AcDbLine
 10
90.2198481364
 20
57.01485694
 30
0.0
 11
90.2198481364
 21
74.4817263962
 31
0.0
  0
LINE
  5
153
330
148
100
AcDbEntity
  8
TA-SMART_DN50_NP
  6
Continuous
 62
     7
100
AcDbLine
 10
90.2198481364
 20
74.4817263962
 30
0.0
 11
90.2198481364
 21
77.3081677177
 31
0.0
  0
LINE
  5
154
330
148
100
AcDbEntity
  8
TA-SMART_DN50_NP
  6
Continuous
 62
     7
100
AcDbLine
 10
90.2198481364
 20
77.3081677177
 30
0.0
 11
90.2198481364
 21
102.0100522612
 31
0.0
  0
LINE
  5
155
330
148
100
AcDbEntity
  8
TA-SMART_DN50_NP
  6
Continuous
 62
     7
100
AcDbLine
 10
71.2207662806
 20
122.3033586204
 30
0.0
 11
71.2207662806
 21
123.474108925
 31
0.0
  0
LINE
  5
156
330
148
100
AcDbEntity
  8
TA-SMART_DN50_NP
  6
Continuous
 62
     7
100
AcDbLine
 10
71.2207662806
 20
55.844108925
 30
0.0
 11
71.2207662806
 21
57.01485694
 31
0.0
  0
LINE
  5
157
330
148
100
AcDbEntity
  8
TA-SMART_DN50_NP
  6
Continuous
 62
     7
100
AcDbLine
 10
71.2207662806
 20
74.4817263962
 30
0.0
 11
71.2207662806
 21
77.3081677177
 31
0.0
  0
ARC
  5
158
330
148
100
AcDbEntity
  8
TA-SMART_DN50_NP
  6
Continuous
 62
     7
100
AcDbCircle
 10
167.0601270735
 20
89.6591099895
 30
0.0
 40
96.63192460149521
100
AcDbArc
 50
172.656692452
 51
187.343307548
  0
LINE
  5
159
330
148
100
AcDbEntity
  8
TA-SMART_DN50_NP
  6
Continuous
 62
     7
100
AcDbLine
 10
71.2207662806
 20
102.0100522612
 30
0.0
 11
90.2198481364
 21
102.0100522612
 31
0.0
  0
LINE
  5
15A
330
148
100
AcDbEntity
  8
TA-SMART_DN50_NP
  6
Continuous
 62
     7
100
AcDbLine
 10
90.2198481364
 20
77.3081677177
 30
0.0
 11
71.2207662806
 21
77.3081677177
 31
0.0
  0
ARC
  5
15B
330
148
100
AcDbEntity
  8
TA-SMART_DN50_NP
  6
Continuous
 62
     7
100
AcDbCircle
 10
118.9819401789
 20
65.7482916681
 30
0.0
 40
48.55309067707765
100
AcDbArc
 50
169.6375839335
 51
190.3624160665
  0
LINE
  5
15C
330
148
100
AcDbEntity
  8
TA-SMART_DN50_NP
  6
Continuous
 62
     7
100
AcDbLine
 10
71.2207662806
 20
74.4817263962
 30
0.0
 11
90.2198481364
 21
74.4817263962
 31
0.0
  0
LINE
  5
15D
330
148
100
AcDbEntity
  8
TA-SMART_DN50_NP
  6
Continuous
 62
     7
100
AcDbLine
 10
90.2198481364
 20
57.01485694
 30
0.0
 11
71.2207662806
 21
57.01485694
 31
0.0
  0
LINE
  5
15E
330
148
100
AcDbEntity
  8
TA-SMART_DN50_NP
  6
Continuous
 62
     7
100
AcDbLine
 10
70.4254913969
 20
55.8441083125
 30
0.0
 11
71.2207662806
 21
55.844108925
 31
0.0
  0
LINE
  5
15F
330
148
100
AcDbEntity
  8
TA-SMART_DN50_NP
  6
Continuous
 62
     7
100
AcDbLine
 10
71.2207662806
 20
55.844108925
 30
0.0
 11
90.2198481364
 21
55.844108925
 31
0.0
  0
LINE
  5
160
330
148
100
AcDbEntity
  8
TA-SMART_DN50_NP
  6
Continuous
 62
     7
100
AcDbLine
 10
90.2198481364
 20
55.8441076999
 30
0.0
 11
71.2207662806
 21
55.8441076999
 31
0.0
  0
LINE
  5
161
330
148
100
AcDbEntity
  8
TA-SMART_DN50_NP
  6
Continuous
 62
     7
100
AcDbLine
 10
71.2207662806
 20
123.474108925
 30
0.0
 11
70.4254913969
 21
123.4741083125
 31
0.0
  0
LINE
  5
162
330
148
100
AcDbEntity
  8
TA-SMART_DN50_NP
  6
Continuous
 62
     7
100
AcDbLine
 10
90.2198481364
 20
123.474108925
 30
0.0
 11
71.2207662806
 21
123.474108925
 31
0.0
  0
ARC
  5
163
330
148
100
AcDbEntity
  8
TA-SMART_DN50_NP
  6
Continuous
 62
     7
100
AcDbCircle
 10
118.9819469283
 20
113.5699232797
 30
0.0
 40
48.55309742652751
100
AcDbArc
 50
169.6375846551
 51
190.3624153449
  0
LINE
  5
164
330
148
100
AcDbEntity
  8
TA-SMART_DN50_NP
  6
Continuous
 62
     7
100
AcDbLine
 10
71.2207662806
 20
122.3033586204
 30
0.0
 11
90.2198481364
 21
122.3033586204
 31
0.0
  0
LINE
  5
165
330
148
100
AcDbEntity
  8
TA-SMART_DN50_NP
  6
Continuous
 62
     7
100
AcDbLine
 10
90.2198481364
 20
104.8364879391
 30
0.0
 11
71.2207662806
 21
104.8364879391
 31
0.0
  0
LINE
  5
166
330
148
100
AcDbEntity
  8
TA-SMART_DN50_NP
  6
Continuous
 62
     7
100
AcDbLine
 10
118.2198481364
 20
102.0100522612
 30
0.0
 11
118.2198481364
 21
104.8364879391
 31
0.0
  0
LINE
  5
167
330
148
100
AcDbEntity
  8
TA-SMART_DN50_NP
  6
Continuous
 62
     7
100
AcDbLine
 10
137.2189299921
 20
102.0100522612
 30
0.0
 11
137.2189299921
 21
104.8364879391
 31
0.0
  0
LINE
  5
168
330
148
100
AcDbEntity
  8
TA-SMART_DN50_NP
  6
Continuous
 62
     7
100
AcDbLine
 10
138.2198481364
 20
56.4091083124
 30
0.0
 11
138.2198481364
 21
122.9091083124
 31
0.0
  0
LINE
  5
169
330
148
100
AcDbEntity
  8
TA-SMART_DN50_NP
  6
Continuous
 62
     7
100
AcDbLine
 10
137.2189299921
 20
122.3033586204
 30
0.0
 11
137.2189299921
 21
123.474108925
 31
0.0
  0
LINE
  5
16A
330
148
100
AcDbEntity
  8
TA-SMART_DN50_NP
  6
Continuous
 62
     7
100
AcDbLine
 10
137.2189299921
 20
55.844108925
 30
0.0
 11
137.2189299921
 21
57.01485694
 31
0.0
  0
LINE
  5
16B
330
148
100
AcDbEntity
  8
TA-SMART_DN50_NP
  6
Continuous
 62
     7
100
AcDbLine
 10
137.2189299921
 20
74.4817263962
 30
0.0
 11
137.2189299921
 21
77.3081677177
 31
0.0
  0
ARC
  5
16C
330
148
100
AcDbEntity
  8
TA-SMART_DN50_NP
  6
Continuous
 62
     7
100
AcDbCircle
 10
41.3795691992
 20
89.6591099895
 30
0.0
 40
96.63192460149514
100
AcDbArc
 50
352.656692452
 51
7.343307548
  0
ARC
  5
16D
330
148
100
AcDbEntity
  8
TA-SMART_DN50_NP
  6
Continuous
 62
     7
100
AcDbCircle
 10
89.4577560938
 20
65.7482916681
 30
0.0
 40
48.55309067707789
100
AcDbArc
 50
349.6375839335
 51
10.3624160665
  0
LINE
  5
16E
330
148
100
AcDbEntity
  8
TA-SMART_DN50_NP
  6
Continuous
 62
     7
100
AcDbLine
 10
137.2189299921
 20
55.844108925
 30
0.0
 11
138.0142048758
 21
55.8441083125
 31
0.0
  0
LINE
  5
16F
330
148
100
AcDbEntity
  8
TA-SMART_DN50_NP
  6
Continuous
 62
     7
100
AcDbLine
 10
138.0142048758
 20
123.4741083125
 30
0.0
 11
137.2189299921
 21
123.474108925
 31
0.0
  0
ARC
  5
170
330
148
100
AcDbEntity
  8
TA-SMART_DN50_NP
  6
Continuous
 62
     7
100
AcDbCircle
 10
89.4577493444
 20
113.5699232797
 30
0.0
 40
48.55309742652766
100
AcDbArc
 50
349.6375846551
 51
10.3624153449
  0
LINE
  5
171
330
148
100
AcDbEntity
  8
TA-SMART_DN50_NP
  6
Continuous
 62
     7
100
AcDbLine
 10
118.2198481364
 20
104.8364879391
 30
0.0
 11
118.2198481364
 21
122.3033586204
 31
0.0
  0
LINE
  5
172
330
148
100
AcDbEntity
  8
TA-SMART_DN50_NP
  6
Continuous
 62
     7
100
AcDbLine
 10
118.2198481364
 20
122.3033586204
 30
0.0
 11
118.2198481364
 21
123.474108925
 31
0.0
  0
LINE
  5
173
330
148
100
AcDbEntity
  8
TA-SMART_DN50_NP
  6
Continuous
 62
     7
100
AcDbLine
 10
118.2198481364
 20
125.6591083124
 30
0.0
 11
118.2198481364
 21
123.4741076999
 31
0.0
  0
LINE
  5
174
330
148
100
AcDbEntity
  8
TA-SMART_DN50_NP
  6
Continuous
 62
     7
100
AcDbLine
 10
118.2198481364
 20
53.6591083124
 30
0.0
 11
118.2198481364
 21
55.844108925
 31
0.0
  0
LINE
  5
175
330
148
100
AcDbEntity
  8
TA-SMART_DN50_NP
  6
Continuous
 62
     7
100
AcDbLine
 10
118.2198481364
 20
55.844108925
 30
0.0
 11
118.2198481364
 21
57.01485694
 31
0.0
  0
LINE
  5
176
330
148
100
AcDbEntity
  8
TA-SMART_DN50_NP
  6
Continuous
 62
     7
100
AcDbLine
 10
118.2198481364
 20
57.01485694
 30
0.0
 11
118.2198481364
 21
74.4817263962
 31
0.0
  0
LINE
  5
177
330
148
100
AcDbEntity
  8
TA-SMART_DN50_NP
  6
Continuous
 62
     7
100
AcDbLine
 10
118.2198481364
 20
74.4817263962
 30
0.0
 11
118.2198481364
 21
77.3081677177
 31
0.0
  0
LINE
  5
178
330
148
100
AcDbEntity
  8
TA-SMART_DN50_NP
  6
Continuous
 62
     7
100
AcDbLine
 10
118.2198481364
 20
77.3081677177
 30
0.0
 11
118.2198481364
 21
102.0100522612
 31
0.0
  0
LINE
  5
179
330
148
100
AcDbEntity
  8
TA-SMART_DN50_NP
  6
Continuous
 62
     7
100
AcDbLine
 10
118.2198481364
 20
122.3033586204
 30
0.0
 11
137.2189299921
 21
122.3033586204
 31
0.0
  0
LINE
  5
17A
330
148
100
AcDbEntity
  8
TA-SMART_DN50_NP
  6
Continuous
 62
     7
100
AcDbLine
 10
137.2189299921
 20
104.8364879391
 30
0.0
 11
118.2198481364
 21
104.8364879391
 31
0.0
  0
LINE
  5
17B
330
148
100
AcDbEntity
  8
TA-SMART_DN50_NP
  6
Continuous
 62
     7
100
AcDbLine
 10
137.2189299921
 20
123.474108925
 30
0.0
 11
118.2198481364
 21
123.474108925
 31
0.0
  0
LINE
  5
17C
330
148
100
AcDbEntity
  8
TA-SMART_DN50_NP
  6
Continuous
 62
     7
100
AcDbLine
 10
118.2198481364
 20
55.844108925
 30
0.0
 11
137.2189299921
 21
55.844108925
 31
0.0
  0
LINE
  5
17D
330
148
100
AcDbEntity
  8
TA-SMART_DN50_NP
  6
Continuous
 62
     7
100
AcDbLine
 10
137.2189299921
 20
55.8441076999
 30
0.0
 11
118.2198481364
 21
55.8441076999
 31
0.0
  0
LINE
  5
17E
330
148
100
AcDbEntity
  8
TA-SMART_DN50_NP
  6
Continuous
 62
     7
100
AcDbLine
 10
118.2198481364
 20
74.4817263962
 30
0.0
 11
137.2189299921
 21
74.4817263962
 31
0.0
  0
LINE
  5
17F
330
148
100
AcDbEntity
  8
TA-SMART_DN50_NP
  6
Continuous
 62
     7
100
AcDbLine
 10
137.2189299921
 20
57.01485694
 30
0.0
 11
118.2198481364
 21
57.01485694
 31
0.0
  0
LINE
  5
180
330
148
100
AcDbEntity
  8
TA-SMART_DN50_NP
  6
Continuous
 62
     7
100
AcDbLine
 10
118.2198481364
 20
102.0100522612
 30
0.0
 11
137.2189299921
 21
102.0100522612
 31
0.0
  0
LINE
  5
181
330
148
100
AcDbEntity
  8
TA-SMART_DN50_NP
  6
Continuous
 62
     7
100
AcDbLine
 10
137.2189299921
 20
77.3081677177
 30
0.0
 11
118.2198481364
 21
77.3081677177
 31
0.0
  0
LINE
  5
182
330
148
100
AcDbEntity
  8
TA-SMART_DN50_NP
  6
Continuous
 62
     7
100
AcDbLine
 10
116.4698481364
 20
82.1716187465
 30
0.0
 11
107.637585412
 21
82.1716187465
 31
0.0
  0
LINE
  5
183
330
148
100
AcDbEntity
  8
TA-SMART_DN50_NP
  6
Continuous
 62
     7
100
AcDbLine
 10
101.6214724478
 20
82.1716187465
 30
0.0
 11
91.9698481364
 21
82.1716187465
 31
0.0
  0
SPLINE
  5
184
330
148
100
AcDbEntity
  8
TA-SMART_DN50_NP
  6
Continuous
 62
     7
100
AcDbSpline
210
0.0
220
0.0
230
1.0
 70
     8
 71
     3
 72
    18
 73
    14
 74
     0
 42
0.000000001
 43
0.0000000001
 40
0.0
 40
0.0
 40
0.0
 40
0.0
 40
0.1249999999999999
 40
0.1249999999999999
 40
0.2499999999999999
 40
0.2499999999999999
 40
0.5
 40
0.5
 40
0.7499999999999999
 40
0.7499999999999999
 40
0.8749999999999999
 40
0.8749999999999999
 40
1.0
 40
1.0
 40
1.0
 40
1.0
 10
91.96984813636091
 20
82.1716187464961
 30
0.0
 10
91.84801819326118
 20
82.78585404011682
 30
0.0
 10
91.73976608174038
 20
83.40424042507433
 30
0.0
 10
91.55231501751693
 20
84.6498954907503
 30
0.0
 10
91.47306593088014
 20
85.27833755334362
 30
0.0
 10
91.28324910359964
 20
87.15883695725653
 30
0.0
 10
91.21974544054152
 20
88.41116719629578
 30
0.0
 10
91.21995108213507
 20
90.91313164049184
 30
0.0
 10
91.28365623685072
 20
92.16276593359852
 30
0.0
 10
91.47256497637481
 20
94.0352389784174
 30
0.0
 10
91.55106308324459
 20
94.65906756279588
 30
0.0
 10
91.73843930444045
 20
95.9060808857962
 30
0.0
 10
91.847457178753
 20
96.52953409363592
 30
0.0
 10
91.96984813636091
 20
97.14659787836804
 30
0.0
  0
SPLINE
  5
185
330
148
100
AcDbEntity
  8
TA-SMART_DN50_NP
  6
Continuous
 62
     7
100
AcDbSpline
210
0.0
220
0.0
230
1.0
 70
     8
 71
     3
 72
    18
 73
    14
 74
     0
 42
0.000000001
 43
0.0000000001
 40
0.0
 40
0.0
 40
0.0
 40
0.0
 40
0.125
 40
0.125
 40
0.25
 40
0.25
 40
0.4999999999999999
 40
0.4999999999999999
 40
0.7499999999999998
 40
0.7499999999999998
 40
0.8749999999999999
 40
0.8749999999999999
 40
1.0
 40
1.0
 40
1.0
 40
1.0
 10
116.4698481363609
 20
97.14659787836804
 30
0.0
 10
116.5922390939688
 20
96.52953409363592
 30
0.0
 10
116.7012569682814
 20
95.9060808857962
 30
0.0
 10
116.8886331894773
 20
94.65906756279588
 30
0.0
 10
116.967131296347
 20
94.0352389784174
 30
0.0
 10
117.1560400358711
 20
92.16276593359852
 30
0.0
 10
117.2197451905868
 20
90.91313164049184
 30
0.0
 10
117.2199508321803
 20
88.41116719629578
 30
0.0
 10
117.1564471691222
 20
87.15883695725653
 30
0.0
 10
116.9666303418417
 20
85.27833755334362
 30
0.0
 10
116.8873812552049
 20
84.6498954907503
 30
0.0
 10
116.6999301909815
 20
83.40424042507433
 30
0.0
 10
116.5916780794607
 20
82.78585404011682
 30
0.0
 10
116.4698481363609
 20
82.1716187464961
 30
0.0
  0
LINE
  5
186
330
148
100
AcDbEntity
  8
TA-SMART_DN50_NP
  6
Continuous
 62
     7
100
AcDbLine
 10
116.4698481364
 20
127.4091083124
 30
0.0
 11
116.4698481364
 21
97.1465978784
 31
0.0
  0
LINE
  5
187
330
148
100
AcDbEntity
  8
TA-SMART_DN50_NP
  6
Continuous
 62
     7
100
AcDbLine
 10
104.7198481364
 20
127.4091083124
 30
0.0
 11
104.7198481364
 21
97.9021453773
 31
0.0
  0
LINE
  5
188
330
148
100
AcDbEntity
  8
TA-SMART_DN50_NP
  6
Continuous
 62
     7
100
AcDbLine
 10
104.2198481364
 20
126.9091083124
 30
0.0
 11
104.2198481364
 21
98.08217689
 31
0.0
  0
LINE
  5
189
330
148
100
AcDbEntity
  8
TA-SMART_DN50_NP
  6
Continuous
 62
     7
100
AcDbLine
 10
103.7198481364
 20
127.4091083124
 30
0.0
 11
103.7198481364
 21
98.2622084027
 31
0.0
  0
LINE
  5
18A
330
148
100
AcDbEntity
  8
TA-SMART_DN50_NP
  6
Continuous
 62
     7
100
AcDbLine
 10
91.9698481364
 20
127.4091083124
 30
0.0
 11
91.9698481364
 21
97.1465978784
 31
0.0
  0
LINE
  5
18B
330
148
100
AcDbEntity
  8
TA-SMART_DN50_NP
  6
Continuous
 62
     7
100
AcDbLine
 10
100.8021108607
 20
97.1465978784
 30
0.0
 11
91.9698481364
 21
97.1465978784
 31
0.0
  0
LINE
  5
18C
330
148
100
AcDbEntity
  8
TA-SMART_DN50_NP
  6
Continuous
 62
     7
100
AcDbLine
 10
116.4698481364
 20
97.1465978784
 30
0.0
 11
106.818223825
 21
97.1465978784
 31
0.0
  0
LINE
  5
18D
330
148
100
AcDbEntity
  8
TA-SMART_DN50_NP
  6
Continuous
 62
     7
100
AcDbLine
 10
116.4698481364
 20
51.9091083124
 30
0.0
 11
116.4698481364
 21
82.1716187465
 31
0.0
  0
LINE
  5
18E
330
148
100
AcDbEntity
  8
TA-SMART_DN50_NP
  6
Continuous
 62
     7
100
AcDbLine
 10
104.7198481364
 20
81.0560082221
 30
0.0
 11
104.7198481364
 21
51.9091083124
 31
0.0
  0
LINE
  5
18F
330
148
100
AcDbEntity
  8
TA-SMART_DN50_NP
  6
Continuous
 62
     7
100
AcDbLine
 10
104.2198481364
 20
81.2360397348
 30
0.0
 11
104.2198481364
 21
52.4091083124
 31
0.0
  0
LINE
  5
190
330
148
100
AcDbEntity
  8
TA-SMART_DN50_NP
  6
Continuous
 62
     7
100
AcDbLine
 10
103.7198481364
 20
81.4160712476
 30
0.0
 11
103.7198481364
 21
51.9091083124
 31
0.0
  0
LINE
  5
191
330
148
100
AcDbEntity
  8
TA-SMART_DN50_NP
  6
Continuous
 62
     7
100
AcDbLine
 10
91.9698481364
 20
51.9091083124
 30
0.0
 11
91.9698481364
 21
82.1716187465
 31
0.0
  0
LINE
  5
192
330
148
100
AcDbEntity
  8
TA-SMART_DN50_NP
  6
Continuous
 62
     7
100
AcDbLine
 10
98.045374412
 20
83.4592394245
 30
0.0
 11
105.024786247
 21
80.9462112834
 31
0.0
  0
LINE
  5
193
330
148
100
AcDbEntity
  8
TA-SMART_DN50_NP
  6
Continuous
 62
     7
100
AcDbLine
 10
106.5018552313
 20
81.2119227682
 30
0.0
 11
112.1679073594
 21
85.9997566502
 31
0.0
  0
LINE
  5
194
330
148
100
AcDbEntity
  8
TA-SMART_DN50_NP
  6
Continuous
 62
     7
100
AcDbLine
 10
112.6763289556
 20
87.4117916561
 30
0.0
 11
111.3629692487
 21
94.7126536792
 31
0.0
  0
LINE
  5
195
330
148
100
AcDbEntity
  8
TA-SMART_DN50_NP
  6
Continuous
 62
     7
100
AcDbLine
 10
110.3943218607
 20
95.8589772004
 30
0.0
 11
103.4149100257
 21
98.3720053414
 31
0.0
  0
LINE
  5
196
330
148
100
AcDbEntity
  8
TA-SMART_DN50_NP
  6
Continuous
 62
     7
100
AcDbLine
 10
101.9378410414
 20
98.1062938567
 30
0.0
 11
96.2717889134
 21
93.3184599746
 31
0.0
  0
LINE
  5
197
330
148
100
AcDbEntity
  8
TA-SMART_DN50_NP
  6
Continuous
 62
     7
100
AcDbLine
 10
95.7633673171
 20
91.9064249687
 30
0.0
 11
97.076727024
 21
84.6055629456
 31
0.0
  0
ARC
  5
198
330
148
100
AcDbEntity
  8
TA-SMART_DN50_NP
  6
Continuous
 62
     7
100
AcDbCircle
 10
104.2198481364
 20
89.6591083124
 30
0.0
 40
8.749999999999998
100
AcDbArc
 50
155.2782691204
 51
165.1175847233
  0
ARC
  5
199
330
148
100
AcDbEntity
  8
TA-SMART_DN50_NP
  6
Continuous
 62
     7
100
AcDbCircle
 10
104.2198481364
 20
89.6591083124
 30
0.0
 40
8.75
100
AcDbArc
 50
95.2782691204
 51
105.1175847233
  0
ARC
  5
19A
330
148
100
AcDbEntity
  8
TA-SMART_DN50_NP
  6
Continuous
 62
     7
100
AcDbCircle
 10
104.2198481364
 20
89.6591083124
 30
0.0
 40
8.749999999999998
100
AcDbArc
 50
35.2782691204
 51
45.1175847233
  0
ARC
  5
19B
330
148
100
AcDbEntity
  8
TA-SMART_DN50_NP
  6
Continuous
 62
     7
100
AcDbCircle
 10
104.2198481364
 20
89.6591083124
 30
0.0
 40
8.749999999999998
100
AcDbArc
 50
335.2782691204
 51
345.1175847233
  0
ARC
  5
19C
330
148
100
AcDbEntity
  8
TA-SMART_DN50_NP
  6
Continuous
 62
     7
100
AcDbCircle
 10
104.2198481364
 20
89.6591083124
 30
0.0
 40
8.75
100
AcDbArc
 50
275.2782691204
 51
285.1175847233
  0
ARC
  5
19D
330
148
100
AcDbEntity
  8
TA-SMART_DN50_NP
  6
Continuous
 62
     7
100
AcDbCircle
 10
104.2198481364
 20
89.6591083124
 30
0.0
 40
8.749999999999998
100
AcDbArc
 50
215.2782691204
 51
225.1175847233
  0
CIRCLE
  5
19E
330
148
100
AcDbEntity
  8
TA-SMART_DN50_NP
  6
Continuous
 62
     7
100
AcDbCircle
 10
104.2198481364
 20
89.6591083124
 30
0.0
 40
7.75
  0
LINE
  5
19F
330
148
100
AcDbEntity
  8
TA-SMART_DN50_NP
  6
Continuous
 62
     7
100
AcDbLine
 10
70.4273361852
 20
123.4791770414
 30
0.0
 11
70.2198481364
 21
122.9091083124
 31
0.0
  0
LINE
  5
1A0
330
148
100
AcDbEntity
  8
TA-SMART_DN50_NP
  6
Continuous
 62
     7
100
AcDbLine
 10
70.2198481364
 20
56.4091083124
 30
0.0
 11
70.4271063754
 21
55.8396709808
 31
0.0
  0
LINE
  5
1A1
330
148
100
AcDbEntity
  8
TA-SMART_DN50_NP
  6
Continuous
 62
     7
100
AcDbLine
 10
138.0123600852
 20
55.839039577
 30
0.0
 11
138.2198481364
 21
56.4091083124
 31
0.0
  0
LINE
  5
1A2
330
148
100
AcDbEntity
  8
TA-SMART_DN50_NP
  6
Continuous
 62
     7
100
AcDbLine
 10
138.2198481364
 20
122.9091083124
 30
0.0
 11
138.0125898999
 21
123.4785456372
 31
0.0
  0
LINE
  5
1A3
330
148
100
AcDbEntity
  8
TA-SMART_DN50_NP
  6
Continuous
 62
     7
100
AcDbLine
 10
116.4698481364
 20
127.4091083124
 30
0.0
 11
104.7198481364
 21
127.4091083124
 31
0.0
  0
LINE
  5
1A4
330
148
100
AcDbEntity
  8
TA-SMART_DN50_NP
  6
Continuous
 62
     7
100
AcDbLine
 10
104.7198481364
 20
51.9091083124
 30
0.0
 11
116.4698481364
 21
51.9091083124
 31
0.0
  0
LINE
  5
1A5
330
148
100
AcDbEntity
  8
TA-SMART_DN50_NP
  6
Continuous
 62
     7
100
AcDbLine
 10
116.4698481364
 20
51.9091083124
 30
0.0
 11
118.2198481364
 21
53.6591083124
 31
0.0
  0
LINE
  5
1A6
330
148
100
AcDbEntity
  8
TA-SMART_DN50_NP
  6
Continuous
 62
     7
100
AcDbLine
 10
118.2198481364
 20
125.6591083124
 30
0.0
 11
116.4698481364
 21
127.4091083124
 31
0.0
  0
LINE
  5
1A7
330
148
100
AcDbEntity
  8
TA-SMART_DN50_NP
  6
Continuous
 62
     7
100
AcDbLine
 10
104.7198481364
 20
127.4091083124
 30
0.0
 11
104.2198481364
 21
126.9091083124
 31
0.0
  0
LINE
  5
1A8
330
148
100
AcDbEntity
  8
TA-SMART_DN50_NP
  6
Continuous
 62
     7
100
AcDbLine
 10
104.2198481364
 20
52.4091083124
 30
0.0
 11
104.7198481364
 21
51.9091083124
 31
0.0
  0
LINE
  5
1A9
330
148
100
AcDbEntity
  8
TA-SMART_DN50_NP
  6
Continuous
 62
     7
100
AcDbLine
 10
104.2198481364
 20
126.9091083124
 30
0.0
 11
103.7198481364
 21
127.4091083124
 31
0.0
  0
LINE
  5
1AA
330
148
100
AcDbEntity
  8
TA-SMART_DN50_NP
  6
Continuous
 62
     7
100
AcDbLine
 10
103.7198481364
 20
51.9091083124
 30
0.0
 11
104.2198481364
 21
52.4091083124
 31
0.0
  0
LINE
  5
1AB
330
148
100
AcDbEntity
  8
TA-SMART_DN50_NP
  6
Continuous
 62
     7
100
AcDbLine
 10
103.7198481364
 20
127.4091083124
 30
0.0
 11
91.9698481364
 21
127.4091083124
 31
0.0
  0
LINE
  5
1AC
330
148
100
AcDbEntity
  8
TA-SMART_DN50_NP
  6
Continuous
 62
     7
100
AcDbLine
 10
91.9698481364
 20
51.9091083124
 30
0.0
 11
103.7198481364
 21
51.9091083124
 31
0.0
  0
LINE
  5
1AD
330
148
100
AcDbEntity
  8
TA-SMART_DN50_NP
  6
Continuous
 62
     7
100
AcDbLine
 10
91.9698481364
 20
127.4091083124
 30
0.0
 11
90.2198481364
 21
125.6591083124
 31
0.0
  0
LINE
  5
1AE
330
148
100
AcDbEntity
  8
TA-SMART_DN50_NP
  6
Continuous
 62
     7
100
AcDbLine
 10
90.2198481364
 20
53.6591083124
 30
0.0
 11
91.9698481364
 21
51.9091083124
 31
0.0
  0
ENDBLK
  5
1B0
330
148
100
AcDbEntity
  8
0
100
AcDbBlockEnd
  0
BLOCK
  5
200
330
1B1
100
AcDbEntity
  8
0
100
AcDbBlockBegin
  2
SE3
 70
     0
 10
0.0
 20
0.0
 30
0.0
  3
SE3
  1

  0
CIRCLE
  5
1B3
330
1B1
100
AcDbEntity
  8
TA-SMART_DN50_NP
  6
Continuous
 62
     7
100
AcDbCircle
 10
211.1642807373
 20
89.6591083124
 30
0.0
 40
33.25
  0
ARC
  5
1B4
330
1B1
100
AcDbEntity
  8
TA-SMART_DN50_NP
  6
Continuous
 62
     7
100
AcDbCircle
 10
211.1642807373
 20
89.6591083124
 30
0.0
 40
36.0
100
AcDbArc
 50
20.0647441672
 51
24.9352566651
  0
ARC
  5
1B5
330
1B1
100
AcDbEntity
  8
TA-SMART_DN50_NP
  6
Continuous
 62
     7
100
AcDbCircle
 10
211.1642807373
 20
89.6591083124
 30
0.0
 40
36.00000000000001
100
AcDbArc
 50
24.9352566651
 51
65.0647393164
  0
ARC
  5
1B6
330
1B1
100
AcDbEntity
  8
TA-SMART_DN50_NP
  6
Continuous
 62
     7
100
AcDbCircle
 10
211.1642807373
 20
89.6591083124
 30
0.0
 40
36.00000000000001
100
AcDbArc
 50
69.9352615159
 51
110.0647441672
  0
ARC
  5
1B7
330
1B1
100
AcDbEntity
  8
TA-SMART_DN50_NP
  6
Continuous
 62
     7
100
AcDbCircle
 10
211.1642807373
 20
89.6591083124
 30
0.0
 40
36.00000000000001
100
AcDbArc
 50
114.9352566651
 51
155.0647393164
  0
ARC
  5
1B8
330
1B1
100
AcDbEntity
  8
TA-SMART_DN50_NP
  6
Continuous
 62
     7
100
AcDbCircle
 10
211.1642807373
 20
89.6591083124
 30
0.0
 40
36.00000000000001
100
AcDbArc
 50
159.9352615159
 51
200.0647441672
  0
ARC
  5
1B9
330
1B1
100
AcDbEntity
  8
TA-SMART_DN50_NP
  6
Continuous
 62
     7
100
AcDbCircle
 10
211.1642807373
 20
89.6591083124
 30
0.0
 40
36.00000000000001
100
AcDbArc
 50
204.9352566651
 51
245.0647393164
  0
ARC
  5
1BA
330
1B1
100
AcDbEntity
  8
TA-SMART_DN50_NP
  6
Continuous
 62
     7
100
AcDbCircle
 10
211.1642807373
 20
89.6591083124
 30
0.0
 40
36.00000000000001
100
AcDbArc
 50
249.9352615159
 51
290.0647441672
  0
ARC
  5
1BB
330
1B1
100
AcDbEntity
  8
TA-SMART_DN50_NP
  6
Continuous
 62
     7
100
AcDbCircle
 10
211.1642807373
 20
89.6591083124
 30
0.0
 40
36.00000000000001
100
AcDbArc
 50
294.9352566651
 51
335.0647393164
  0
ARC
  5
1BC
330
1B1
100
AcDbEntity
  8
TA-SMART_DN50_NP
  6
Continuous
 62
     7
100
AcDbCircle
 10
211.1642807373
 20
89.6591083124
 30
0.0
 40
36.00000000000001
100
AcDbArc
 50
339.9352615159
 51
20.0647441672
  0
ARC
  5
1BD
330
1B1
100
AcDbEntity
  8
TA-SMART_DN50_NP
  6
Continuous
 62
     7
100
AcDbCircle
 10
211.1642807373
 20
89.6591083124
 30
0.0
 40
36.00000000000001
100
AcDbArc
 50
65.0647393164
 51
69.9352615159
  0
ARC
  5
1BE
330
1B1
100
AcDbEntity
  8
TA-SMART_DN50_NP
  6
Continuous
 62
     7
100
AcDbCircle
 10
211.1642807373
 20
89.6591083124
 30
0.0
 40
36.0
100
AcDbArc
 50
110.0647441672
 51
114.9352566651
  0
ARC
  5
1BF
330
1B1
100
AcDbEntity
  8
TA-SMART_DN50_NP
  6
Continuous
 62
     7
100
AcDbCircle
 10
211.1642807373
 20
89.6591083124
 30
0.0
 40
36.0
100
AcDbArc
 50
155.0647393164
 51
159.9352615159
  0
ARC
  5
1C0
330
1B1
100
AcDbEntity
  8
TA-SMART_DN50_NP
  6
Continuous
 62
     7
100
AcDbCircle
 10
211.1642807373
 20
89.6591083124
 30
0.0
 40
36.0
100
AcDbArc
 50
200.0647441672
 51
204.9352566651
  0
ARC
  5
1C1
330
1B1
100
AcDbEntity
  8
TA-SMART_DN50_NP
  6
Continuous
 62
     7
100
AcDbCircle
 10
211.1642807373
 20
89.6591083124
 30
0.0
 40
36.00000000000001
100
AcDbArc
 50
245.0647393164
 51
249.9352615159
  0
ARC
  5
1C2
330
1B1
100
AcDbEntity
  8
TA-SMART_DN50_NP
  6
Continuous
 62
     7
100
AcDbCircle
 10
211.1642807373
 20
89.6591083124
 30
0.0
 40
36.00000000000001
100
AcDbArc
 50
290.0647441672
 51
294.9352566651
  0
ARC
  5
1C3
330
1B1
100
AcDbEntity
  8
TA-SMART_DN50_NP
  6
Continuous
 62
     7
100
AcDbCircle
 10
211.1642807373
 20
89.6591083124
 30
0.0
 40
36.0
100
AcDbArc
 50
335.0647393164
 51
339.9352615159
  0
LINE
  5
1C4
330
1B1
100
AcDbEntity
  8
TA-SMART_DN50_NP
  6
Continuous
 62
     7
100
AcDbLine
 10
244.9792813498
 20
77.3081677177
 30
0.0
 11
244.9792801247
 21
102.0100522612
 31
0.0
  0
LINE
  5
1C5
330
1B1
100
AcDbEntity
  8
TA-SMART_DN50_NP
  6
Continuous
 62
     7
100
AcDbLine
 10
226.3416603639
 20
57.01485694
 30
0.0
 11
243.8085310452
 21
74.4817263962
 31
0.0
  0
LINE
  5
1C6
330
1B1
100
AcDbEntity
  8
TA-SMART_DN50_NP
  6
Continuous
 62
     7
100
AcDbLine
 10
198.8133401425
 20
55.8441076999
 30
0.0
 11
223.515224686
 21
55.844108925
 31
0.0
  0
LINE
  5
1C7
330
1B1
100
AcDbEntity
  8
TA-SMART_DN50_NP
  6
Continuous
 62
     7
100
AcDbLine
 10
178.5200293648
 20
74.4817286858
 30
0.0
 11
195.9868988211
 21
57.0148580045
 31
0.0
  0
LINE
  5
1C8
330
1B1
100
AcDbEntity
  8
TA-SMART_DN50_NP
  6
Continuous
 62
     7
100
AcDbLine
 10
177.3492801247
 20
102.0100489072
 30
0.0
 11
177.3492813498
 21
77.3081643637
 31
0.0
  0
LINE
  5
1C9
330
1B1
100
AcDbEntity
  8
TA-SMART_DN50_NP
  6
Continuous
 62
     7
100
AcDbLine
 10
195.9869011106
 20
122.3033596849
 30
0.0
 11
178.5200304293
 21
104.8364902286
 31
0.0
  0
LINE
  5
1CA
330
1B1
100
AcDbEntity
  8
TA-SMART_DN50_NP
  6
Continuous
 62
     7
100
AcDbLine
 10
223.515221332
 20
123.474108925
 30
0.0
 11
198.8133367885
 21
123.4741076999
 31
0.0
  0
LINE
  5
1CB
330
1B1
100
AcDbEntity
  8
TA-SMART_DN50_NP
  6
Continuous
 62
     7
100
AcDbLine
 10
243.8085321097
 20
104.8364879391
 30
0.0
 11
226.3416626535
 21
122.3033586204
 31
0.0
  0
CIRCLE
  5
1CC
330
1B1
100
AcDbEntity
  8
TA-SMART_DN50_NP
  6
Continuous
 62
     7
100
AcDbCircle
 10
211.1642807373
 20
89.6591083124
 30
0.0
 40
27.67000000000001
  0
LINE
  5
1CD
330
1B1
100
AcDbEntity
  8
TA-SMART_DN50_NP
  6
Continuous
 62
     7
100
AcDbLine
 10
248.1642807373
 20
82.1716187465
 30
0.0
 11
248.1642807373
 21
97.1465978784
 31
0.0
  0
ARC
  5
1CE
330
1B1
100
AcDbEntity
  8
TA-SMART_DN50_NP
  6
Continuous
 62
     7
100
AcDbCircle
 10
211.1642807373
 20
89.6591083124
 30
0.0
 40
37.75
100
AcDbArc
 50
11.4401428649
 51
168.5598571351
  0
ARC
  5
1CF
330
1B1
100
AcDbEntity
  8
TA-SMART_DN50_NP
  6
Continuous
 62
     7
100
AcDbCircle
 10
211.1642807373
 20
89.6591083124
 30
0.0
 40
37.75
100
AcDbArc
 50
191.4401428649
 51
348.5598571351
  0
LINE
  5
1D0
330
1B1
100
AcDbEntity
  8
TA-SMART_DN50_NP
  6
Continuous
 62
     7
100
AcDbLine
 10
174.1642807373
 20
97.1465978784
 30
0.0
 11
174.1642807373
 21
82.1716187465
 31
0.0
  0
ARC
  5
1D1
330
1B1
100
AcDbEntity
  8
TA-SMART_DN50_NP
  6
Continuous
 62
     7
100
AcDbCircle
 10
253.3214826451
 20
82.202725354
 30
0.0
 40
2.779103301141563
100
AcDbArc
 50
333.119619154
 51
26.880380846
  0
ARC
  5
1D2
330
1B1
100
AcDbEntity
  8
TA-SMART_DN50_NP
  6
Continuous
 62
     7
100
AcDbCircle
 10
253.3214826451
 20
97.1154912709
 30
0.0
 40
2.779103301141731
100
AcDbArc
 50
20.4288761093
 51
26.880380846
  0
ARC
  5
1D3
330
1B1
100
AcDbEntity
  8
TA-SMART_DN50_NP
  6
Continuous
 62
     7
100
AcDbCircle
 10
246.4078125398
 20
95.7123769157
 30
0.0
 40
9.692773406504049
100
AcDbArc
 50
345.7011500116
 51
14.2988499884
  0
ARC
  5
1D4
330
1B1
100
AcDbEntity
  8
TA-SMART_DN50_NP
  6
Continuous
 62
     7
100
AcDbCircle
 10
233.6689589397
 20
88.2559939572
 30
0.0
 40
22.43038939897456
100
AcDbArc
 50
350.6337451127
 51
9.3662548873
  0
LINE
  5
1D5
330
1B1
100
AcDbEntity
  8
TA-SMART_DN50_NP
  6
Continuous
 62
     7
100
AcDbLine
 10
255.800310503
 20
91.9064249687
 30
0.0
 11
255.800310503
 21
93.3184599746
 31
0.0
  0
LINE
  5
1D6
330
1B1
100
AcDbEntity
  8
TA-SMART_DN50_NP
  6
Continuous
 62
     7
100
AcDbLine
 10
255.800310503
 20
98.1062938567
 30
0.0
 11
255.800310503
 21
98.3720053414
 31
0.0
  0
LINE
  5
1D7
330
1B1
100
AcDbEntity
  8
TA-SMART_DN50_NP
  6
Continuous
 62
     7
100
AcDbLine
 10
255.800310503
 20
83.4592394245
 30
0.0
 11
255.800310503
 21
84.6055629456
 31
0.0
  0
LINE
  5
1D8
330
1B1
100
AcDbEntity
  8
TA-SMART_DN50_NP
  6
Continuous
 62
     7
100
AcDbLine
 10
256.1642807373
 20
81.9091083124
 30
0.0
 11
256.1642807373
 21
97.4091083124
 31
0.0
  0
LINE
  5
1D9
330
1B1
100
AcDbEntity
  8
TA-SMART_DN50_NP
  6
Continuous
 62
     7
100
AcDbLine
 10
248.1642807373
 20
84.6055629456
 30
0.0
 11
255.800310503
 21
84.6055629456
 31
0.0
  0
LINE
  5
1DA
330
1B1
100
AcDbEntity
  8
TA-SMART_DN50_NP
  6
Continuous
 62
     7
100
AcDbLine
 10
248.1642807373
 20
91.9064249687
 30
0.0
 11
255.800310503
 21
91.9064249687
 31
0.0
  0
LINE
  5
1DB
330
1B1
100
AcDbEntity
  8
TA-SMART_DN50_NP
  6
Continuous
 62
     7
100
AcDbLine
 10
248.1642807373
 20
93.3184599746
 30
0.0
 11
255.800310503
 21
93.3184599746
 31
0.0
  0
LINE
  5
1DC
330
1B1
100
AcDbEntity
  8
TA-SMART_DN50_NP
  6
Continuous
 62
     7
100
AcDbLine
 10
247.9570457377
 20
98.1062938567
 30
0.0
 11
255.800310503
 21
98.1062938567
 31
0.0
  0
LINE
  5
1DD
330
1B1
100
AcDbEntity
  8
TA-SMART_DN50_NP
  6
Continuous
 62
     7
100
AcDbLine
 10
247.8950297816
 20
98.3720053414
 30
0.0
 11
255.800310503
 21
98.3720053414
 31
0.0
  0
LINE
  5
1DE
330
1B1
100
AcDbEntity
  8
TA-SMART_DN50_NP
  6
Continuous
 62
     7
100
AcDbLine
 10
247.8950297816
 20
80.9462112834
 30
0.0
 11
255.800310503
 21
80.9462112834
 31
0.0
  0
LINE
  5
1DF
330
1B1
100
AcDbEntity
  8
TA-SMART_DN50_NP
  6
Continuous
 62
     7
100
AcDbLine
 10
248.1642807373
 20
83.4592394245
 30
0.0
 11
255.800310503
 21
83.4592394245
 31
0.0
  0
LINE
  5
1E0
330
1B1
100
AcDbEntity
  8
TA-SMART_DN50_NP
  6
Continuous
 62
     7
100
AcDbLine
 10
167.6355818031
 20
87.1105703373
 30
0.0
 11
167.6355818031
 21
87.6156130671
 31
0.0
  0
LINE
  5
1E1
330
1B1
100
AcDbEntity
  8
TA-SMART_DN50_NP
  6
Continuous
 62
     7
100
AcDbLine
 10
167.6355818031
 20
91.4910775066
 30
0.0
 11
167.6355818031
 21
92.0119859115
 31
0.0
  0
LINE
  5
1E2
330
1B1
100
AcDbEntity
  8
TA-SMART_DN50_NP
  6
Continuous
 62
     7
100
AcDbLine
 10
167.6355818031
 20
94.0396154818
 30
0.0
 11
167.6355818031
 21
94.0591083124
 31
0.0
  0
LINE
  5
1E3
330
1B1
100
AcDbEntity
  8
TA-SMART_DN50_NP
  6
Continuous
 62
     7
100
AcDbLine
 10
167.6355818031
 20
85.2627354681
 30
0.0
 11
167.6355818031
 21
85.2591083124
 31
0.0
  0
ARC
  5
1E4
330
1B1
100
AcDbEntity
  8
TA-SMART_DN50_NP
  6
Continuous
 62
     7
100
AcDbCircle
 10
170.9589116813
 20
86.1866529027
 30
0.0
 40
1.786626518766995
100
AcDbArc
 50
328.8600938975
 51
31.1399061025
  0
ARC
  5
1E5
330
1B1
100
AcDbEntity
  8
TA-SMART_DN50_NP
  6
Continuous
 62
     7
100
AcDbCircle
 10
165.3531978608
 20
89.5533452869
 30
0.0
 40
7.393348807681691
100
AcDbArc
 50
344.8058127042
 51
15.1941872958
  0
ARC
  5
1E6
330
1B1
100
AcDbEntity
  8
TA-SMART_DN50_NP
  6
Continuous
 62
     7
100
AcDbCircle
 10
170.6223474505
 20
93.0258006966
 30
0.0
 40
2.123404258917757
100
AcDbArc
 50
331.4811510813
 51
28.5188489187
  0
LINE
  5
1E7
330
1B1
100
AcDbEntity
  8
TA-SMART_DN50_NP
  6
Continuous
 62
     7
100
AcDbLine
 10
172.7990011508
 20
85.7976083124
 30
0.0
 11
172.7990011508
 21
93.5206083124
 31
0.0
  0
LINE
  5
1E8
330
1B1
100
AcDbEntity
  8
TA-SMART_DN50_NP
  6
Continuous
 62
     7
100
AcDbLine
 10
167.3990011508
 20
85.9091083124
 30
0.0
 11
167.3990011508
 21
93.4091083124
 31
0.0
  0
ARC
  5
1E9
330
1B1
100
AcDbEntity
  8
TA-SMART_DN50_NP
  6
Continuous
 62
     7
100
AcDbCircle
 10
170.1595901681
 20
86.1866529027
 30
0.0
 40
2.68779494246591
100
AcDbArc
 50
159.8947643612
 51
200.1052356388
  0
ARC
  5
1EA
330
1B1
100
AcDbEntity
  8
TA-SMART_DN50_NP
  6
Continuous
 62
     7
100
AcDbCircle
 10
179.0161830854
 20
89.5533452869
 30
0.0
 40
11.54438788775462
100
AcDbArc
 50
170.3371292292
 51
189.6628707708
  0
ARC
  5
1EB
330
1B1
100
AcDbEntity
  8
TA-SMART_DN50_NP
  6
Continuous
 62
     7
100
AcDbCircle
 10
170.6913700463
 20
93.0258006966
 30
0.0
 40
3.219574848645775
100
AcDbArc
 50
161.6457730312
 51
198.3542269688
  0
LINE
  5
1EC
330
1B1
100
AcDbEntity
  8
TA-SMART_DN50_NP
  6
Continuous
 62
     7
100
AcDbLine
 10
172.4880980309
 20
87.6156130671
 30
0.0
 11
172.4880980309
 21
87.1105703373
 31
0.0
  0
LINE
  5
1ED
330
1B1
100
AcDbEntity
  8
TA-SMART_DN50_NP
  6
Continuous
 62
     7
100
AcDbLine
 10
167.6355818031
 20
87.1105703373
 30
0.0
 11
172.4880980309
 21
87.1105703373
 31
0.0
  0
LINE
  5
1EE
330
1B1
100
AcDbEntity
  8
TA-SMART_DN50_NP
  6
Continuous
 62
     7
100
AcDbLine
 10
172.4880980309
 20
87.6156130671
 30
0.0
 11
167.6355818031
 21
87.6156130671
 31
0.0
  0
LINE
  5
1EF
330
1B1
100
AcDbEntity
  8
TA-SMART_DN50_NP
  6
Continuous
 62
     7
100
AcDbLine
 10
172.4880980309
 20
92.0119859115
 30
0.0
 11
172.4880980309
 21
91.4910775066
 31
0.0
  0
LINE
  5
1F0
330
1B1
100
AcDbEntity
  8
TA-SMART_DN50_NP
  6
Continuous
 62
     7
100
AcDbLine
 10
167.6355818031
 20
91.4910775066
 30
0.0
 11
172.4880980309
 21
91.4910775066
 31
0.0
  0
LINE
  5
1F1
330
1B1
100
AcDbEntity
  8
TA-SMART_DN50_NP
  6
Continuous
 62
     7
100
AcDbLine
 10
172.4880980309
 20
92.0119859115
 30
0.0
 11
167.6355818031
 21
92.0119859115
 31
0.0
  0
LINE
  5
1F2
330
1B1
100
AcDbEntity
  8
TA-SMART_DN50_NP
  6
Continuous
 62
     7
100
AcDbLine
 10
172.4880980309
 20
94.0591083124
 30
0.0
 11
172.4880980309
 21
94.0396154818
 31
0.0
  0
LINE
  5
1F3
330
1B1
100
AcDbEntity
  8
TA-SMART_DN50_NP
  6
Continuous
 62
     7
100
AcDbLine
 10
167.6355818031
 20
94.0396154818
 30
0.0
 11
172.4880980309
 21
94.0396154818
 31
0.0
  0
LINE
  5
1F4
330
1B1
100
AcDbEntity
  8
TA-SMART_DN50_NP
  6
Continuous
 62
     7
100
AcDbLine
 10
172.4880980309
 20
85.2591083124
 30
0.0
 11
172.4880980309
 21
85.2627354681
 31
0.0
  0
LINE
  5
1F5
330
1B1
100
AcDbEntity
  8
TA-SMART_DN50_NP
  6
Continuous
 62
     7
100
AcDbLine
 10
172.4880980309
 20
85.2627354681
 30
0.0
 11
167.6355818031
 21
85.2627354681
 31
0.0
  0
LINE
  5
1F6
330
1B1
100
AcDbEntity
  8
TA-SMART_DN50_NP
  6
Continuous
 62
     7
100
AcDbLine
 10
255.9172916293
 20
81.2305113156
 30
0.0
 11
256.1642807373
 21
81.9091083124
 31
0.0
  0
LINE
  5
1F7
330
1B1
100
AcDbEntity
  8
TA-SMART_DN50_NP
  6
Continuous
 62
     7
100
AcDbLine
 10
256.1642807373
 20
97.4091083124
 30
0.0
 11
255.9172916293
 21
98.0877053093
 31
0.0
  0
LINE
  5
1F8
330
1B1
100
AcDbEntity
  8
TA-SMART_DN50_NP
  6
Continuous
 62
     7
100
AcDbLine
 10
172.4880980309
 20
85.2591083124
 30
0.0
 11
172.7990011508
 21
85.7976083124
 31
0.0
  0
LINE
  5
1F9
330
1B1
100
AcDbEntity
  8
TA-SMART_DN50_NP
  6
Continuous
 62
     7
100
AcDbLine
 10
172.7990011508
 20
93.5206083124
 30
0.0
 11
172.4880980309
 21
94.0591083124
 31
0.0
  0
LINE
  5
1FA
330
1B1
100
AcDbEntity
  8
TA-SMART_DN50_NP
  6
Continuous
 62
     7
100
AcDbLine
 10
174.1642807373
 20
93.5206083124
 30
0.0
 11
172.7990011508
 21
93.5206083124
 31
0.0
  0
LINE
  5
1FB
330
1B1
100
AcDbEntity
  8
TA-SMART_DN50_NP
  6
Continuous
 62
     7
100
AcDbLine
 10
172.7990011508
 20
85.7976083124
 30
0.0
 11
174.1642807373
 21
85.7976083124
 31
0.0
  0
LINE
  5
1FC
330
1B1
100
AcDbEntity
  8
TA-SMART_DN50_NP
  6
Continuous
 62
     7
100
AcDbLine
 10
167.6355818031
 20
94.0591083124
 30
0.0
 11
167.3990011508
 21
93.4091083124
 31
0.0
  0
LINE
  5
1FD
330
1B1
100
AcDbEntity
  8
TA-SMART_DN50_NP
  6
Continuous
 62
     7
100
AcDbLine
 10
167.3990011508
 20
85.9091083124
 30
0.0
 11
167.6355818031
 21
85.2591083124
 31
0.0
  0
LINE
  5
1FE
330
1B1
100
AcDbEntity
  8
TA-SMART_DN50_NP
  6
Continuous
 62
     7
100
AcDbLine
 10
172.4880980309
 20
94.0591083124
 30
0.0
 11
167.6355818031
 21
94.0591083124
 31
0.0
  0
LINE
  5
1FF
330
1B1
100
AcDbEntity
  8
TA-SMART_DN50_NP
  6
Continuous
 62
     7
100
AcDbLine
 10
167.6355818031
 20
85.2591083124
 30
0.0
 11
172.4880980309
 21
85.2591083124
 31
0.0
  0
ENDBLK
  5
201
330
1B1
100
AcDbEntity
  8
0
100
AcDbBlockEnd
  0
BLOCK
  5
26D
330
202
100
AcDbEntity
  8
0
100
AcDbBlockBegin
  2
SE4
 70
     0
 10
0.0
 20
0.0
 30
0.0
  3
SE4
  1

  0
LINE
  5
204
330
202
100
AcDbEntity
  8
TA-SMART_DN50_NP
  6
Continuous
 62
     7
100
AcDbLine
 10
356.4480865631
 20
56.4091083124
 30
0.0
 11
356.4480865631
 21
122.9091083124
 31
0.0
  0
LINE
  5
205
330
202
100
AcDbEntity
  8
TA-SMART_DN50_NP
  6
Continuous
 62
     7
100
AcDbLine
 10
336.4480865631
 20
125.6591083124
 30
0.0
 11
336.4480865631
 21
123.4741076999
 31
0.0
  0
LINE
  5
206
330
202
100
AcDbEntity
  8
TA-SMART_DN50_NP
  6
Continuous
 62
     7
100
AcDbLine
 10
336.4480865631
 20
123.4741076999
 30
0.0
 11
336.4480865631
 21
122.3033596849
 31
0.0
  0
LINE
  5
207
330
202
100
AcDbEntity
  8
TA-SMART_DN50_NP
  6
Continuous
 62
     7
100
AcDbLine
 10
336.4480865631
 20
122.3033596849
 30
0.0
 11
336.4480865631
 21
104.8364902286
 31
0.0
  0
LINE
  5
208
330
202
100
AcDbEntity
  8
TA-SMART_DN50_NP
  6
Continuous
 62
     7
100
AcDbLine
 10
336.4480865631
 20
104.8364902286
 30
0.0
 11
336.4480865631
 21
102.0100489072
 31
0.0
  0
LINE
  5
209
330
202
100
AcDbEntity
  8
TA-SMART_DN50_NP
  6
Continuous
 62
     7
100
AcDbLine
 10
336.4480865631
 20
102.0100489072
 30
0.0
 11
336.4480865631
 21
77.3081643637
 31
0.0
  0
LINE
  5
20A
330
202
100
AcDbEntity
  8
TA-SMART_DN50_NP
  6
Continuous
 62
     7
100
AcDbLine
 10
336.4480865631
 20
77.3081643637
 30
0.0
 11
336.4480865631
 21
74.4817286858
 31
0.0
  0
LINE
  5
20B
330
202
100
AcDbEntity
  8
TA-SMART_DN50_NP
  6
Continuous
 62
     7
100
AcDbLine
 10
336.4480865631
 20
74.4817286858
 30
0.0
 11
336.4480865631
 21
57.0148580045
 31
0.0
  0
LINE
  5
20C
330
202
100
AcDbEntity
  8
TA-SMART_DN50_NP
  6
Continuous
 62
     7
100
AcDbLine
 10
336.4480865631
 20
57.0148580045
 30
0.0
 11
336.4480865631
 21
55.8441076999
 31
0.0
  0
LINE
  5
20D
330
202
100
AcDbEntity
  8
TA-SMART_DN50_NP
  6
Continuous
 62
     7
100
AcDbLine
 10
336.4480865631
 20
53.6591083124
 30
0.0
 11
336.4480865631
 21
55.844108925
 31
0.0
  0
LINE
  5
20E
330
202
100
AcDbEntity
  8
TA-SMART_DN50_NP
  6
Continuous
 62
     7
100
AcDbLine
 10
355.4471684189
 20
123.4741076999
 30
0.0
 11
355.4471684189
 21
122.3033596849
 31
0.0
  0
LINE
  5
20F
330
202
100
AcDbEntity
  8
TA-SMART_DN50_NP
  6
Continuous
 62
     7
100
AcDbLine
 10
355.4471684189
 20
104.8364902286
 30
0.0
 11
355.4471684189
 21
102.0100489072
 31
0.0
  0
LINE
  5
210
330
202
100
AcDbEntity
  8
TA-SMART_DN50_NP
  6
Continuous
 62
     7
100
AcDbLine
 10
355.4471684189
 20
77.3081643637
 30
0.0
 11
355.4471684189
 21
74.4817286858
 31
0.0
  0
LINE
  5
211
330
202
100
AcDbEntity
  8
TA-SMART_DN50_NP
  6
Continuous
 62
     7
100
AcDbLine
 10
355.4471684189
 20
57.0148580045
 30
0.0
 11
355.4471684189
 21
55.8441076999
 31
0.0
  0
LINE
  5
212
330
202
100
AcDbEntity
  8
TA-SMART_DN50_NP
  6
Continuous
 62
     7
100
AcDbLine
 10
356.2424433025
 20
55.8441083125
 30
0.0
 11
355.4471684189
 21
55.844108925
 31
0.0
  0
LINE
  5
213
330
202
100
AcDbEntity
  8
TA-SMART_DN50_NP
  6
Continuous
 62
     7
100
AcDbLine
 10
336.4480865631
 20
55.8441076999
 30
0.0
 11
355.4471684189
 21
55.8441076999
 31
0.0
  0
ARC
  5
214
330
202
100
AcDbEntity
  8
TA-SMART_DN50_NP
  6
Continuous
 62
     7
100
AcDbCircle
 10
307.6859877712
 20
65.7482933451
 30
0.0
 40
48.5530974265271
100
AcDbArc
 50
349.6375846551
 51
10.3624153449
  0
LINE
  5
215
330
202
100
AcDbEntity
  8
TA-SMART_DN50_NP
  6
Continuous
 62
     7
100
AcDbLine
 10
355.4471684189
 20
57.0148580045
 30
0.0
 11
336.4480865631
 21
57.0148580045
 31
0.0
  0
LINE
  5
216
330
202
100
AcDbEntity
  8
TA-SMART_DN50_NP
  6
Continuous
 62
     7
100
AcDbLine
 10
336.4480865631
 20
74.4817286858
 30
0.0
 11
355.4471684189
 21
74.4817286858
 31
0.0
  0
ARC
  5
217
330
202
100
AcDbEntity
  8
TA-SMART_DN50_NP
  6
Continuous
 62
     7
100
AcDbCircle
 10
259.607807626
 20
89.6591066354
 30
0.0
 40
96.63192460144674
100
AcDbArc
 50
352.656692452
 51
7.343307548
  0
LINE
  5
218
330
202
100
AcDbEntity
  8
TA-SMART_DN50_NP
  6
Continuous
 62
     7
100
AcDbLine
 10
355.4471684189
 20
77.3081643637
 30
0.0
 11
336.4480865631
 21
77.3081643637
 31
0.0
  0
LINE
  5
219
330
202
100
AcDbEntity
  8
TA-SMART_DN50_NP
  6
Continuous
 62
     7
100
AcDbLine
 10
336.4480865631
 20
102.0100489072
 30
0.0
 11
355.4471684189
 21
102.0100489072
 31
0.0
  0
ARC
  5
21A
330
202
100
AcDbEntity
  8
TA-SMART_DN50_NP
  6
Continuous
 62
     7
100
AcDbCircle
 10
307.6859945205
 20
113.5699249568
 30
0.0
 40
48.55309067707734
100
AcDbArc
 50
349.6375839335
 51
10.3624160665
  0
LINE
  5
21B
330
202
100
AcDbEntity
  8
TA-SMART_DN50_NP
  6
Continuous
 62
     7
100
AcDbLine
 10
355.4471684189
 20
104.8364902286
 30
0.0
 11
336.4480865631
 21
104.8364902286
 31
0.0
  0
LINE
  5
21C
330
202
100
AcDbEntity
  8
TA-SMART_DN50_NP
  6
Continuous
 62
     7
100
AcDbLine
 10
336.4480865631
 20
122.3033596849
 30
0.0
 11
355.4471684189
 21
122.3033596849
 31
0.0
  0
LINE
  5
21D
330
202
100
AcDbEntity
  8
TA-SMART_DN50_NP
  6
Continuous
 62
     7
100
AcDbLine
 10
355.4471684189
 20
123.474108925
 30
0.0
 11
356.2424433025
 21
123.4741083125
 31
0.0
  0
LINE
  5
21E
330
202
100
AcDbEntity
  8
TA-SMART_DN50_NP
  6
Continuous
 62
     7
100
AcDbLine
 10
355.4471684189
 20
123.4741076999
 30
0.0
 11
336.4480865631
 21
123.4741076999
 31
0.0
  0
LINE
  5
21F
330
202
100
AcDbEntity
  8
TA-SMART_DN50_NP
  6
Continuous
 62
     7
100
AcDbLine
 10
336.4480865631
 20
123.474108925
 30
0.0
 11
355.4471684189
 21
123.474108925
 31
0.0
  0
LINE
  5
220
330
202
100
AcDbEntity
  8
TA-SMART_DN50_NP
  6
Continuous
 62
     7
100
AcDbLine
 10
288.4480865631
 20
56.4091083124
 30
0.0
 11
288.4480865631
 21
122.9091083124
 31
0.0
  0
LINE
  5
221
330
202
100
AcDbEntity
  8
TA-SMART_DN50_NP
  6
Continuous
 62
     7
100
AcDbLine
 10
289.4490047073
 20
123.4741076999
 30
0.0
 11
289.4490047073
 21
122.3033596849
 31
0.0
  0
LINE
  5
222
330
202
100
AcDbEntity
  8
TA-SMART_DN50_NP
  6
Continuous
 62
     7
100
AcDbLine
 10
289.4490047073
 20
104.8364902286
 30
0.0
 11
289.4490047073
 21
102.0100489072
 31
0.0
  0
LINE
  5
223
330
202
100
AcDbEntity
  8
TA-SMART_DN50_NP
  6
Continuous
 62
     7
100
AcDbLine
 10
289.4490047073
 20
77.3081643637
 30
0.0
 11
289.4490047073
 21
74.4817286858
 31
0.0
  0
LINE
  5
224
330
202
100
AcDbEntity
  8
TA-SMART_DN50_NP
  6
Continuous
 62
     7
100
AcDbLine
 10
289.4490047073
 20
57.0148580045
 30
0.0
 11
289.4490047073
 21
55.8441076999
 31
0.0
  0
LINE
  5
225
330
202
100
AcDbEntity
  8
TA-SMART_DN50_NP
  6
Continuous
 62
     7
100
AcDbLine
 10
289.4490047073
 20
55.844108925
 30
0.0
 11
288.6537298236
 21
55.8441083125
 31
0.0
  0
ARC
  5
226
330
202
100
AcDbEntity
  8
TA-SMART_DN50_NP
  6
Continuous
 62
     7
100
AcDbCircle
 10
337.210185355
 20
65.7482933451
 30
0.0
 40
48.55309742652781
100
AcDbArc
 50
169.6375846551
 51
190.3624153449
  0
ARC
  5
227
330
202
100
AcDbEntity
  8
TA-SMART_DN50_NP
  6
Continuous
 62
     7
100
AcDbCircle
 10
385.2883655002
 20
89.6591066354
 30
0.0
 40
96.63192460144712
100
AcDbArc
 50
172.656692452
 51
187.343307548
  0
ARC
  5
228
330
202
100
AcDbEntity
  8
TA-SMART_DN50_NP
  6
Continuous
 62
     7
100
AcDbCircle
 10
337.2101786057
 20
113.5699249568
 30
0.0
 40
48.55309067707786
100
AcDbArc
 50
169.6375839335
 51
190.3624160665
  0
LINE
  5
229
330
202
100
AcDbEntity
  8
TA-SMART_DN50_NP
  6
Continuous
 62
     7
100
AcDbLine
 10
288.6537298236
 20
123.4741083125
 30
0.0
 11
289.4490047073
 21
123.474108925
 31
0.0
  0
LINE
  5
22A
330
202
100
AcDbEntity
  8
TA-SMART_DN50_NP
  6
Continuous
 62
     7
100
AcDbLine
 10
308.4480865631
 20
125.6591083124
 30
0.0
 11
308.4480865631
 21
123.4741076999
 31
0.0
  0
LINE
  5
22B
330
202
100
AcDbEntity
  8
TA-SMART_DN50_NP
  6
Continuous
 62
     7
100
AcDbLine
 10
308.4480865631
 20
123.4741076999
 30
0.0
 11
308.4480865631
 21
122.3033596849
 31
0.0
  0
LINE
  5
22C
330
202
100
AcDbEntity
  8
TA-SMART_DN50_NP
  6
Continuous
 62
     7
100
AcDbLine
 10
308.4480865631
 20
122.3033596849
 30
0.0
 11
308.4480865631
 21
104.8364902286
 31
0.0
  0
LINE
  5
22D
330
202
100
AcDbEntity
  8
TA-SMART_DN50_NP
  6
Continuous
 62
     7
100
AcDbLine
 10
308.4480865631
 20
104.8364902286
 30
0.0
 11
308.4480865631
 21
102.0100489072
 31
0.0
  0
LINE
  5
22E
330
202
100
AcDbEntity
  8
TA-SMART_DN50_NP
  6
Continuous
 62
     7
100
AcDbLine
 10
308.4480865631
 20
102.0100489072
 30
0.0
 11
308.4480865631
 21
77.3081643637
 31
0.0
  0
LINE
  5
22F
330
202
100
AcDbEntity
  8
TA-SMART_DN50_NP
  6
Continuous
 62
     7
100
AcDbLine
 10
308.4480865631
 20
77.3081643637
 30
0.0
 11
308.4480865631
 21
74.4817286858
 31
0.0
  0
LINE
  5
230
330
202
100
AcDbEntity
  8
TA-SMART_DN50_NP
  6
Continuous
 62
     7
100
AcDbLine
 10
308.4480865631
 20
74.4817286858
 30
0.0
 11
308.4480865631
 21
57.0148580045
 31
0.0
  0
LINE
  5
231
330
202
100
AcDbEntity
  8
TA-SMART_DN50_NP
  6
Continuous
 62
     7
100
AcDbLine
 10
308.4480865631
 20
57.0148580045
 30
0.0
 11
308.4480865631
 21
55.8441076999
 31
0.0
  0
LINE
  5
232
330
202
100
AcDbEntity
  8
TA-SMART_DN50_NP
  6
Continuous
 62
     7
100
AcDbLine
 10
308.4480865631
 20
53.6591083124
 30
0.0
 11
308.4480865631
 21
55.844108925
 31
0.0
  0
LINE
  5
233
330
202
100
AcDbEntity
  8
TA-SMART_DN50_NP
  6
Continuous
 62
     7
100
AcDbLine
 10
308.4480865631
 20
123.4741076999
 30
0.0
 11
289.4490047073
 21
123.4741076999
 31
0.0
  0
LINE
  5
234
330
202
100
AcDbEntity
  8
TA-SMART_DN50_NP
  6
Continuous
 62
     7
100
AcDbLine
 10
289.4490047073
 20
123.474108925
 30
0.0
 11
308.4480865631
 21
123.474108925
 31
0.0
  0
LINE
  5
235
330
202
100
AcDbEntity
  8
TA-SMART_DN50_NP
  6
Continuous
 62
     7
100
AcDbLine
 10
308.4480865631
 20
104.8364902286
 30
0.0
 11
289.4490047073
 21
104.8364902286
 31
0.0
  0
LINE
  5
236
330
202
100
AcDbEntity
  8
TA-SMART_DN50_NP
  6
Continuous
 62
     7
100
AcDbLine
 10
289.4490047073
 20
122.3033596849
 30
0.0
 11
308.4480865631
 21
122.3033596849
 31
0.0
  0
LINE
  5
237
330
202
100
AcDbEntity
  8
TA-SMART_DN50_NP
  6
Continuous
 62
     7
100
AcDbLine
 10
308.4480865631
 20
77.3081643637
 30
0.0
 11
289.4490047073
 21
77.3081643637
 31
0.0
  0
LINE
  5
238
330
202
100
AcDbEntity
  8
TA-SMART_DN50_NP
  6
Continuous
 62
     7
100
AcDbLine
 10
289.4490047073
 20
102.0100489072
 30
0.0
 11
308.4480865631
 21
102.0100489072
 31
0.0
  0
LINE
  5
239
330
202
100
AcDbEntity
  8
TA-SMART_DN50_NP
  6
Continuous
 62
     7
100
AcDbLine
 10
308.4480865631
 20
57.0148580045
 30
0.0
 11
289.4490047073
 21
57.0148580045
 31
0.0
  0
LINE
  5
23A
330
202
100
AcDbEntity
  8
TA-SMART_DN50_NP
  6
Continuous
 62
     7
100
AcDbLine
 10
289.4490047073
 20
74.4817286858
 30
0.0
 11
308.4480865631
 21
74.4817286858
 31
0.0
  0
LINE
  5
23B
330
202
100
AcDbEntity
  8
TA-SMART_DN50_NP
  6
Continuous
 62
     7
100
AcDbLine
 10
289.4490047073
 20
55.8441076999
 30
0.0
 11
308.4480865631
 21
55.8441076999
 31
0.0
  0
LINE
  5
23C
330
202
100
AcDbEntity
  8
TA-SMART_DN50_NP
  6
Continuous
 62
     7
100
AcDbLine
 10
310.1980865631
 20
127.4091083124
 30
0.0
 11
310.1980865631
 21
97.1465978784
 31
0.0
  0
LINE
  5
23D
330
202
100
AcDbEntity
  8
TA-SMART_DN50_NP
  6
Continuous
 62
     7
100
AcDbLine
 10
321.9480865631
 20
127.4091083124
 30
0.0
 11
321.9480865631
 21
97.1465978784
 31
0.0
  0
LINE
  5
23E
330
202
100
AcDbEntity
  8
TA-SMART_DN50_NP
  6
Continuous
 62
     7
100
AcDbLine
 10
322.4480865631
 20
126.9091083124
 30
0.0
 11
322.4480865631
 21
94.0591083124
 31
0.0
  0
LINE
  5
23F
330
202
100
AcDbEntity
  8
TA-SMART_DN50_NP
  6
Continuous
 62
     7
100
AcDbLine
 10
322.9480865631
 20
127.4091083124
 30
0.0
 11
322.9480865631
 21
97.1465978784
 31
0.0
  0
LINE
  5
240
330
202
100
AcDbEntity
  8
TA-SMART_DN50_NP
  6
Continuous
 62
     7
100
AcDbLine
 10
334.6980865631
 20
127.4091083124
 30
0.0
 11
334.6980865631
 21
97.1465978784
 31
0.0
  0
LINE
  5
241
330
202
100
AcDbEntity
  8
TA-SMART_DN50_NP
  6
Continuous
 62
     7
100
AcDbLine
 10
310.1980865631
 20
51.9091083124
 30
0.0
 11
310.1980865631
 21
82.1716187465
 31
0.0
  0
LINE
  5
242
330
202
100
AcDbEntity
  8
TA-SMART_DN50_NP
  6
Continuous
 62
     7
100
AcDbLine
 10
321.9480865631
 20
82.1716187465
 30
0.0
 11
321.9480865631
 21
51.9091083124
 31
0.0
  0
LINE
  5
243
330
202
100
AcDbEntity
  8
TA-SMART_DN50_NP
  6
Continuous
 62
     7
100
AcDbLine
 10
321.9480865631
 20
82.1716187465
 30
0.0
 11
310.1980865631
 21
82.1716187465
 31
0.0
  0
LINE
  5
244
330
202
100
AcDbEntity
  8
TA-SMART_DN50_NP
  6
Continuous
 62
     7
100
AcDbLine
 10
322.4480865631
 20
85.2591083124
 30
0.0
 11
322.4480865631
 21
52.4091083124
 31
0.0
  0
LINE
  5
245
330
202
100
AcDbEntity
  8
TA-SMART_DN50_NP
  6
Continuous
 62
     7
100
AcDbLine
 10
322.9480865631
 20
82.1716187465
 30
0.0
 11
322.9480865631
 21
51.9091083124
 31
0.0
  0
LINE
  5
246
330
202
100
AcDbEntity
  8
TA-SMART_DN50_NP
  6
Continuous
 62
     7
100
AcDbLine
 10
334.6980865631
 20
51.9091083124
 30
0.0
 11
334.6980865631
 21
82.1716187465
 31
0.0
  0
SPLINE
  5
247
330
202
100
AcDbEntity
  8
TA-SMART_DN50_NP
  6
Continuous
 62
     7
100
AcDbSpline
210
0.0
220
0.0
230
1.0
 70
     8
 71
     3
 72
    18
 73
    14
 74
     0
 42
0.000000001
 43
0.0000000001
 40
0.0
 40
0.0
 40
0.0
 40
0.0
 40
0.1250000000000001
 40
0.1250000000000001
 40
0.2500000000000001
 40
0.2500000000000001
 40
0.5
 40
0.5
 40
0.7500000000000001
 40
0.7500000000000001
 40
0.875
 40
0.875
 40
1.0
 40
1.0
 40
1.0
 40
1.0
 10
334.698086563094
 20
97.14659787836804
 30
0.0
 10
334.8204775207019
 20
96.5295340936359
 30
0.0
 10
334.9294953950144
 20
95.9060808857962
 30
0.0
 10
335.1168716162103
 20
94.65906756279588
 30
0.0
 10
335.1953697230801
 20
94.03523897841738
 30
0.0
 10
335.3842784626041
 20
92.16276593359852
 30
0.0
 10
335.4479836173198
 20
90.91313164049183
 30
0.0
 10
335.4481892589134
 20
88.41116719629576
 30
0.0
 10
335.3846855958553
 20
87.15883695725653
 30
0.0
 10
335.1948687685747
 20
85.27833755334362
 30
0.0
 10
335.115619681938
 20
84.6498954907503
 30
0.0
 10
334.9281686177145
 20
83.40424042507433
 30
0.0
 10
334.8199165061937
 20
82.78585404011682
 30
0.0
 10
334.698086563094
 20
82.1716187464961
 30
0.0
  0
LINE
  5
248
330
202
100
AcDbEntity
  8
TA-SMART_DN50_NP
  6
Continuous
 62
     7
100
AcDbLine
 10
334.6980865631
 20
82.1716187465
 30
0.0
 11
322.9480865631
 21
82.1716187465
 31
0.0
  0
SPLINE
  5
249
330
202
100
AcDbEntity
  8
TA-SMART_DN50_NP
  6
Continuous
 62
     7
100
AcDbSpline
210
0.0
220
0.0
230
1.0
 70
     8
 71
     3
 72
    18
 73
    14
 74
     0
 42
0.000000001
 43
0.0000000001
 40
0.0
 40
0.0
 40
0.0
 40
0.0
 40
0.1250000000000001
 40
0.1250000000000001
 40
0.2500000000000002
 40
0.2500000000000002
 40
0.5000000000000001
 40
0.5000000000000001
 40
0.75
 40
0.75
 40
0.875
 40
0.875
 40
1.0
 40
1.0
 40
1.0
 40
1.0
 10
310.198086563094
 20
82.1716187464961
 30
0.0
 10
310.0762566199942
 20
82.78585404011682
 30
0.0
 10
309.9680045084734
 20
83.40424042507433
 30
0.0
 10
309.78055344425
 20
84.6498954907503
 30
0.0
 10
309.7013043576132
 20
85.27833755334362
 30
0.0
 10
309.5114875303327
 20
87.15883695725653
 30
0.0
 10
309.4479838672746
 20
88.41116719629576
 30
0.0
 10
309.4481895088681
 20
90.91313164049183
 30
0.0
 10
309.5118946635837
 20
92.16276593359852
 30
0.0
 10
309.7008034031078
 20
94.03523897841738
 30
0.0
 10
309.7793015099776
 20
94.65906756279588
 30
0.0
 10
309.9666777311735
 20
95.9060808857962
 30
0.0
 10
310.075695605486
 20
96.5295340936359
 30
0.0
 10
310.198086563094
 20
97.14659787836804
 30
0.0
  0
SPLINE
  5
24A
330
202
100
AcDbEntity
  8
TA-SMART_DN50_NP
  6
Continuous
 62
     7
100
AcDbSpline
210
0.0
220
0.0
230
1.0
 70
     8
 71
     3
 72
     8
 73
     4
 74
     0
 42
0.000000001
 43
0.0000000001
 40
0.0
 40
0.0
 40
0.0
 40
0.0
 40
0.9739335912312734
 40
0.9739335912312734
 40
0.9739335912312734
 40
0.9739335912312734
 10
321.948086563094
 20
82.1716187464961
 30
0.0
 10
322.1508932449029
 20
83.19411796614357
 30
0.0
 10
322.3164361560007
 20
84.23320535588509
 30
0.0
 10
322.438388538441
 20
85.26763976631734
 30
0.0
  0
SPLINE
  5
24B
330
202
100
AcDbEntity
  8
TA-SMART_DN50_NP
  6
Continuous
 62
     7
100
AcDbSpline
210
0.0
220
0.0
230
1.0
 70
     8
 71
     3
 72
    10
 73
     6
 74
     0
 42
0.000000001
 43
0.0000000001
 40
0.026349955387863
 40
0.026349955387863
 40
0.026349955387863
 40
0.026349955387863
 40
0.5
 40
0.5
 40
1.0
 40
1.0
 40
1.0
 40
1.0
 10
322.4578756157808
 20
85.26685630142956
 30
0.0
 10
322.5170864887937
 20
84.76456946447709
 30
0.0
 10
322.5863053976014
 20
84.26237091030976
 30
0.0
 10
322.7488082435236
 20
83.230213958431
 30
0.0
 10
322.8434718356104
 20
82.69905934293732
 30
0.0
 10
322.948086563094
 20
82.1716187464961
 30
0.0
  0
SPLINE
  5
24C
330
202
100
AcDbEntity
  8
TA-SMART_DN50_NP
  6
Continuous
 62
     7
100
AcDbSpline
210
0.0
220
0.0
230
1.0
 70
     8
 71
     3
 72
     8
 73
     4
 74
     0
 42
0.000000001
 43
0.0000000001
 40
0.0
 40
0.0
 40
0.0
 40
0.0
 40
0.9737436506940702
 40
0.9737436506940702
 40
0.9737436506940702
 40
0.9737436506940702
 10
321.948086563094
 20
97.14659787836804
 30
0.0
 10
322.1508536927092
 20
96.12429807072651
 30
0.0
 10
322.3163715848638
 20
95.08541656254637
 30
0.0
 10
322.4383171825007
 20
94.0511820780454
 30
0.0
  0
SPLINE
  5
24D
330
202
100
AcDbEntity
  8
TA-SMART_DN50_NP
  6
Continuous
 62
     7
100
AcDbSpline
210
0.0
220
0.0
230
1.0
 70
     8
 71
     3
 72
    10
 73
     6
 74
     0
 42
0.000000001
 43
0.0000000001
 40
0.0261384397118563
 40
0.0261384397118563
 40
0.0261384397118563
 40
0.0261384397118563
 40
0.5
 40
0.5
 40
1.0
 40
1.0
 40
1.0
 40
1.0
 10
322.4577962972037
 20
94.05068741176014
 30
0.0
 10
322.5170246692287
 20
94.55319863147005
 30
0.0
 10
322.5862700954931
 20
95.05562148884141
 30
0.0
 10
322.7488082435236
 20
96.08800266643314
 30
0.0
 10
322.8434718356104
 20
96.61915728192682
 30
0.0
 10
322.948086563094
 20
97.14659787836804
 30
0.0
  0
LINE
  5
24E
330
202
100
AcDbEntity
  8
TA-SMART_DN50_NP
  6
Continuous
 62
     7
100
AcDbLine
 10
334.6980865631
 20
97.1465978784
 30
0.0
 11
322.9480865631
 21
97.1465978784
 31
0.0
  0
LINE
  5
24F
330
202
100
AcDbEntity
  8
TA-SMART_DN50_NP
  6
Continuous
 62
     7
100
AcDbLine
 10
321.9480865631
 20
97.1465978784
 30
0.0
 11
310.1980865631
 21
97.1465978784
 31
0.0
  0
ARC
  5
250
330
202
100
AcDbEntity
  8
TA-SMART_DN50_NP
  6
Continuous
 62
     7
100
AcDbCircle
 10
322.4480865631
 20
89.6591083124
 30
0.0
 40
4.400000000000001
100
AcDbArc
 50
324.6047793467
 51
332.3266134165
  0
ARC
  5
251
330
202
100
AcDbEntity
  8
TA-SMART_DN50_NP
  6
Continuous
 62
     7
100
AcDbCircle
 10
322.4480865631
 20
89.6591083124
 30
0.0
 40
4.4
100
AcDbArc
 50
24.6047793467
 51
32.3266134165
  0
ARC
  5
252
330
202
100
AcDbEntity
  8
TA-SMART_DN50_NP
  6
Continuous
 62
     7
100
AcDbCircle
 10
322.4480865631
 20
89.6591083124
 30
0.0
 40
4.400000000000001
100
AcDbArc
 50
84.6047793467
 51
92.3266134165
  0
ARC
  5
253
330
202
100
AcDbEntity
  8
TA-SMART_DN50_NP
  6
Continuous
 62
     7
100
AcDbCircle
 10
322.4480865631
 20
89.6591083124
 30
0.0
 40
4.400000000000002
100
AcDbArc
 50
144.6047793467
 51
152.3266134165
  0
ARC
  5
254
330
202
100
AcDbEntity
  8
TA-SMART_DN50_NP
  6
Continuous
 62
     7
100
AcDbCircle
 10
322.4480865631
 20
89.6591083124
 30
0.0
 40
4.399999999999999
100
AcDbArc
 50
204.6047793467
 51
212.3266134165
  0
ARC
  5
255
330
202
100
AcDbEntity
  8
TA-SMART_DN50_NP
  6
Continuous
 62
     7
100
AcDbCircle
 10
322.4480865631
 20
89.6591083124
 30
0.0
 40
4.4
100
AcDbArc
 50
264.6047793467
 51
272.3266134165
  0
CIRCLE
  5
256
330
202
100
AcDbEntity
  8
TA-SMART_DN50_NP
  6
Continuous
 62
     7
100
AcDbCircle
 10
322.4480865631
 20
89.6591083124
 30
0.0
 40
3.750000000000006
  0
LINE
  5
257
330
202
100
AcDbEntity
  8
TA-SMART_DN50_NP
  6
Continuous
 62
     7
100
AcDbLine
 10
326.0348614639
 20
87.1105703373
 30
0.0
 11
322.6267085483
 21
85.2627354681
 31
0.0
  0
LINE
  5
258
330
202
100
AcDbEntity
  8
TA-SMART_DN50_NP
  6
Continuous
 62
     7
100
AcDbLine
 10
326.4485726425
 20
91.4910775066
 30
0.0
 11
326.3447681234
 21
87.6156130671
 31
0.0
  0
LINE
  5
259
330
202
100
AcDbEntity
  8
TA-SMART_DN50_NP
  6
Continuous
 62
     7
100
AcDbLine
 10
322.8617977417
 20
94.0396154818
 30
0.0
 11
326.1661461382
 21
92.0119859115
 31
0.0
  0
LINE
  5
25A
330
202
100
AcDbEntity
  8
TA-SMART_DN50_NP
  6
Continuous
 62
     7
100
AcDbLine
 10
318.8613116623
 20
92.2076462876
 30
0.0
 11
322.2694645779
 21
94.0554811568
 31
0.0
  0
LINE
  5
25B
330
202
100
AcDbEntity
  8
TA-SMART_DN50_NP
  6
Continuous
 62
     7
100
AcDbLine
 10
318.4476004837
 20
87.8271391182
 30
0.0
 11
318.5514050028
 21
91.7026035577
 31
0.0
  0
LINE
  5
25C
330
202
100
AcDbEntity
  8
TA-SMART_DN50_NP
  6
Continuous
 62
     7
100
AcDbLine
 10
322.0343753845
 20
85.2786011431
 30
0.0
 11
318.730026988
 21
87.3062307134
 31
0.0
  0
LINE
  5
25D
330
202
100
AcDbEntity
  8
TA-SMART_DN50_NP
  6
Continuous
 62
     7
100
AcDbLine
 10
356.2408283241
 20
55.8396709808
 30
0.0
 11
356.4480865631
 21
56.4091083124
 31
0.0
  0
LINE
  5
25E
330
202
100
AcDbEntity
  8
TA-SMART_DN50_NP
  6
Continuous
 62
     7
100
AcDbLine
 10
356.4480865631
 20
122.9091083124
 30
0.0
 11
356.2405985143
 21
123.4791770414
 31
0.0
  0
LINE
  5
25F
330
202
100
AcDbEntity
  8
TA-SMART_DN50_NP
  6
Continuous
 62
     7
100
AcDbLine
 10
288.6553447996
 20
123.4785456372
 30
0.0
 11
288.4480865631
 21
122.9091083124
 31
0.0
  0
LINE
  5
260
330
202
100
AcDbEntity
  8
TA-SMART_DN50_NP
  6
Continuous
 62
     7
100
AcDbLine
 10
288.4480865631
 20
56.4091083124
 30
0.0
 11
288.6555746143
 21
55.839039577
 31
0.0
  0
LINE
  5
261
330
202
100
AcDbEntity
  8
TA-SMART_DN50_NP
  6
Continuous
 62
     7
100
AcDbLine
 10
321.9480865631
 20
127.4091083124
 30
0.0
 11
310.1980865631
 21
127.4091083124
 31
0.0
  0
LINE
  5
262
330
202
100
AcDbEntity
  8
TA-SMART_DN50_NP
  6
Continuous
 62
     7
100
AcDbLine
 10
310.1980865631
 20
51.9091083124
 30
0.0
 11
321.9480865631
 21
51.9091083124
 31
0.0
  0
LINE
  5
263
330
202
100
AcDbEntity
  8
TA-SMART_DN50_NP
  6
Continuous
 62
     7
100
AcDbLine
 10
310.1980865631
 20
127.4091083124
 30
0.0
 11
308.4480865631
 21
125.6591083124
 31
0.0
  0
LINE
  5
264
330
202
100
AcDbEntity
  8
TA-SMART_DN50_NP
  6
Continuous
 62
     7
100
AcDbLine
 10
308.4480865631
 20
53.6591083124
 30
0.0
 11
310.1980865631
 21
51.9091083124
 31
0.0
  0
LINE
  5
265
330
202
100
AcDbEntity
  8
TA-SMART_DN50_NP
  6
Continuous
 62
     7
100
AcDbLine
 10
322.4480865631
 20
126.9091083124
 30
0.0
 11
321.9480865631
 21
127.4091083124
 31
0.0
  0
LINE
  5
266
330
202
100
AcDbEntity
  8
TA-SMART_DN50_NP
  6
Continuous
 62
     7
100
AcDbLine
 10
321.9480865631
 20
51.9091083124
 30
0.0
 11
322.4480865631
 21
52.4091083124
 31
0.0
  0
LINE
  5
267
330
202
100
AcDbEntity
  8
TA-SMART_DN50_NP
  6
Continuous
 62
     7
100
AcDbLine
 10
322.9480865631
 20
127.4091083124
 30
0.0
 11
322.4480865631
 21
126.9091083124
 31
0.0
  0
LINE
  5
268
330
202
100
AcDbEntity
  8
TA-SMART_DN50_NP
  6
Continuous
 62
     7
100
AcDbLine
 10
322.4480865631
 20
52.4091083124
 30
0.0
 11
322.9480865631
 21
51.9091083124
 31
0.0
  0
LINE
  5
269
330
202
100
AcDbEntity
  8
TA-SMART_DN50_NP
  6
Continuous
 62
     7
100
AcDbLine
 10
334.6980865631
 20
127.4091083124
 30
0.0
 11
322.9480865631
 21
127.4091083124
 31
0.0
  0
LINE
  5
26A
330
202
100
AcDbEntity
  8
TA-SMART_DN50_NP
  6
Continuous
 62
     7
100
AcDbLine
 10
322.9480865631
 20
51.9091083124
 30
0.0
 11
334.6980865631
 21
51.9091083124
 31
0.0
  0
LINE
  5
26B
330
202
100
AcDbEntity
  8
TA-SMART_DN50_NP
  6
Continuous
 62
     7
100
AcDbLine
 10
334.6980865631
 20
51.9091083124
 30
0.0
 11
336.4480865631
 21
53.6591083124
 31
0.0
  0
LINE
  5
26C
330
202
100
AcDbEntity
  8
TA-SMART_DN50_NP
  6
Continuous
 62
     7
100
AcDbLine
 10
336.4480865631
 20
125.6591083124
 30
0.0
 11
334.6980865631
 21
127.4091083124
 31
0.0
  0
ENDBLK
  5
26E
330
202
100
AcDbEntity
  8
0
100
AcDbBlockEnd
  0
ENDSEC
  0
SECTION
  2
ENTITIES
  0
INSERT
  5
70
330
1F
100
AcDbEntity
  8
Default
100
AcDbBlockReference
  2
SE
 10
0.0
 20
0.0
 30
0.0
  0
INSERT
  5
F8
330
1F
100
AcDbEntity
  8
Default
100
AcDbBlockReference
  2
SE1
 10
0.0
 20
0.0
 30
0.0
  0
INSERT
  5
149
330
1F
100
AcDbEntity
  8
Default
100
AcDbBlockReference
  2
SE2
 10
0.0
 20
0.0
 30
0.0
  0
INSERT
  5
1B2
330
1F
100
AcDbEntity
  8
Default
100
AcDbBlockReference
  2
SE3
 10
0.0
 20
0.0
 30
0.0
  0
INSERT
  5
203
330
1F
100
AcDbEntity
  8
Default
100
AcDbBlockReference
  2
SE4
 10
0.0
 20
0.0
 30
0.0
  0
ENDSEC
  0
SECTION
  2
OBJECTS
  0
DICTIONARY
  5
C
330
0
100
AcDbDictionary
281
     1
  3
ACAD_DETAILVIEWSTYLE
350
2AA
  3
ACAD_GROUP
350
D
  3
ACAD_LAYOUT
350
1A
  3
ACAD_MATERIAL
350
43
  3
ACAD_MLEADERSTYLE
350
6B
  3
ACAD_MLINESTYLE
350
17
  3
ACAD_PLOTSETTINGS
350
19
  3
ACAD_PLOTSTYLENAME
350
E
  3
ACAD_SCALELIST
350
47
  3
ACAD_SECTIONVIEWSTYLE
350
2AB
  3
ACAD_TABLESTYLE
350
69
  3
ACAD_VISUALSTYLE
350
2A
  3
ACDB_RECOMPOSE_DATA
350
2A7
  3
AcDbVariableDictionary
350
26F
  0
SUN
  5
6D
330
29
100
AcDbSun
 90
        1
290
     0
 63
     7
421
 16777215
 40
1.0
291
     1
 91
  2455826
 92
 54000000
292
     0
 70
     2
 71
   256
280
     1
  0
DICTIONARY
  5
2AA
102
{ACAD_REACTORS
330
C
102
}
330
C
100
AcDbDictionary
281
     1
  0
DICTIONARY
  5
D
102
{ACAD_REACTORS
330
C
102
}
330
C
100
AcDbDictionary
281
     1
  0
DICTIONARY
  5
1A
102
{ACAD_REACTORS
330
C
102
}
330
C
100
AcDbDictionary
281
     1
  3
Layout1
350
1E
  3
Model
350
22
  0
DICTIONARY
  5
43
102
{ACAD_REACTORS
330
C
102
}
330
C
100
AcDbDictionary
281
     1
  3
ByBlock
350
45
  3
ByLayer
350
44
  3
Global
350
46
  0
DICTIONARY
  5
6B
102
{ACAD_REACTORS
330
C
102
}
330
C
100
AcDbDictionary
281
     1
  3
Standard
350
6C
  0
DICTIONARY
  5
17
102
{ACAD_REACTORS
330
C
102
}
330
C
100
AcDbDictionary
281
     1
  3
Standard
350
18
  0
DICTIONARY
  5
19
102
{ACAD_REACTORS
330
C
102
}
330
C
100
AcDbDictionary
281
     1
  0
ACDBDICTIONARYWDFLT
  5
E
102
{ACAD_REACTORS
330
C
102
}
330
C
100
AcDbDictionary
281
     1
  3
Normal
350
F
100
AcDbDictionaryWithDefault
340
F
  0
DICTIONARY
  5
47
102
{ACAD_REACTORS
330
C
102
}
330
C
100
AcDbDictionary
281
     1
  3
A0
350
48
  3
A1
350
49
  3
A2
350
4A
  3
A3
350
4B
  3
A4
350
4C
  3
A5
350
4D
  3
A6
350
4E
  3
A7
350
4F
  3
A8
350
50
  3
A9
350
51
  3
B0
350
52
  3
B1
350
53
  3
B2
350
54
  3
B3
350
55
  3
B4
350
56
  3
B5
350
57
  3
B6
350
58
  3
B7
350
59
  3
B8
350
5A
  3
B9
350
5B
  3
C0
350
5C
  3
C1
350
5D
  3
C2
350
5E
  3
C3
350
5F
  3
C4
350
60
  3
C5
350
61
  3
C6
350
62
  3
C7
350
63
  3
C8
350
64
  3
C9
350
65
  3
D0
350
66
  3
D1
350
67
  3
D2
350
68
  0
DICTIONARY
  5
2AB
102
{ACAD_REACTORS
330
C
102
}
330
C
100
AcDbDictionary
281
     1
  0
DICTIONARY
  5
69
102
{ACAD_REACTORS
330
C
102
}
330
C
100
AcDbDictionary
281
     1
  3
Standard
350
6A
  0
DICTIONARY
  5
2A
102
{ACAD_REACTORS
330
C
102
}
330
C
100
AcDbDictionary
281
     1
  3
2dWireframe
350
2F
  3
Basic
350
32
  3
Brighten
350
36
  3
ColorChange
350
3A
  3
Conceptual
350
34
  3
Dim
350
35
  3
EdgeColorOff
350
3D
  3
Facepattern
350
39
  3
Flat
350
2B
  3
FlatWithEdges
350
2C
  3
Gouraud
350
2D
  3
GouraudWithEdges
350
2E
  3
Hidden
350
31
  3
JitterOff
350
3B
  3
Linepattern
350
38
  3
OverhangOff
350
3C
  3
Realistic
350
33
  3
Shaded
350
42
  3
Shaded with edges
350
41
  3
Shades of Gray
350
3E
  3
Sketchy
350
3F
  3
Thicken
350
37
  3
Wireframe
350
30
  3
X-Ray
350
40
  0
XRECORD
  5
2A7
102
{ACAD_REACTORS
330
C
102
}
330
C
100
AcDbXrecord
280
     1
 90
        1
330
6A
  0
DICTIONARY
  5
26F
102
{ACAD_REACTORS
330
C
102
}
330
C
100
AcDbDictionary
281
     1
  3
CANNOSCALE
350
270
  3
CENTEREXE
350
2AC
  3
CENTERLTYPEFILE
350
2AD
  3
CMLEADERSTYLE
350
2A9
  3
CTABLESTYLE
350
2A8
  3
XCLIPFRAME
350
271
  0
LAYOUT
  5
1E
102
{ACAD_REACTORS
330
1A
102
}
330
1A
100
AcDbPlotSettings
  1

  2
none_device
  4

  6

 40
0.0
 41
0.0
 42
0.0
 43
0.0
 44
0.0
 45
0.0
 46
0.0
 47
0.0
 48
0.0
 49
0.0
140
0.0
141
0.0
142
1.0
143
1.0
 70
   688
 72
     1
 73
     0
 74
     5
  7

 75
    16
 76
     0
 77
     2
 78
   300
147
1.0
148
0.0
149
0.0
100
AcDbLayout
  1
Layout1
 70
     1
 71
     1
 10
0.0
 20
0.0
 11
420.0
 21
297.0
 12
0.0
 22
0.0
 32
0.0
 14
0.0
 24
0.0
 34
0.0
 15
420.0
 25
297.0
 35
0.0
146
0.0
 13
0.0
 23
0.0
 33
0.0
 16
1.0
 26
0.0
 36
0.0
 17
0.0
 27
1.0
 37
0.0
 76
     0
330
1B
  0
LAYOUT
  5
22
102
{ACAD_REACTORS
330
1A
102
}
330
1A
100
AcDbPlotSettings
  1

  2
none_device
  4
Letter_(8.50_x_11.00_Inches)
  6

 40
6.35
 41
6.35
 42
6.35000508
 43
6.35000508
 44
215.9
 45
279.4
 46
0.0
 47
0.0
 48
0.0
 49
0.0
140
0.0
141
0.0
142
1.0
143
1.0
 70
  1712
 72
     1
 73
     0
 74
     0
  7

 75
     0
 76
     0
 77
     2
 78
   300
147
1.0
148
0.0
149
0.0
100
AcDbLayout
  1
Model
 70
     1
 71
     0
 10
0.0
 20
0.0
 11
420.0
 21
297.0
 12
0.0
 22
0.0
 32
0.0
 14
0.0
 24
0.0
 34
0.0
 15
420.0
 25
297.0
 35
0.0
146
0.0
 13
0.0
 23
0.0
 33
0.0
 16
1.0
 26
0.0
 36
0.0
 17
0.0
 27
1.0
 37
0.0
 76
     0
330
1F
331
29
  0
MATERIAL
  5
45
102
{ACAD_REACTORS
330
43
102
}
330
43
100
AcDbMaterial
  1
ByBlock
 72
     1
 94
      127
  0
MATERIAL
  5
44
102
{ACAD_REACTORS
330
43
102
}
330
43
100
AcDbMaterial
  1
ByLayer
 72
     1
 94
      127
  0
MATERIAL
  5
46
102
{ACAD_REACTORS
330
43
102
}
330
43
100
AcDbMaterial
  1
Global
 72
     1
 94
      127
  0
MLEADERSTYLE
  5
6C
102
{ACAD_REACTORS
330
6B
102
}
102
{ACAD_XDICTIONARY
360
2A5
102
}
330
6B
100
AcDbMLeaderStyle
170
     2
171
     1
172
     0
 90
        2
 40
0.0
 41
0.0
173
     1
 91
-1056964608
340
14
 92
       -2
290
     1
 42
2.0
291
     1
 43
8.0
  3
Standard
341
0
 44
4.0
300

342
11
174
     1
178
     6
175
     1
176
     0
 93
-1056964608
 45
4.0
292
     0
297
     0
 46
4.0
343
0
 94
-1056964608
 47
1.0
 49
1.0
140
1.0
293
     1
141
0.0
294
     1
177
     0
142
1.0
295
     0
296
     0
143
3.75
1001
ACAD_MLEADERVER
1070
     2
  0
MLINESTYLE
  5
18
102
{ACAD_REACTORS
330
17
102
}
330
17
100
AcDbMlineStyle
  2
Standard
 70
     0
  3

 62
   256
 51
90.0
 52
90.0
 71
     2
 49
0.5
 62
   256
  6
BYLAYER
 49
-0.5
 62
   256
  6
BYLAYER
  0
ACDBPLACEHOLDER
  5
F
102
{ACAD_REACTORS
330
E
102
}
330
E
  0
SCALE
  5
48
102
{ACAD_REACTORS
330
47
102
}
330
47
100
AcDbScale
 70
     0
300
1:1
140
1.0
141
1.0
290
     1
  0
SCALE
  5
49
102
{ACAD_REACTORS
330
47
102
}
330
47
100
AcDbScale
 70
     0
300
1:2
140
1.0
141
2.0
290
     0
  0
SCALE
  5
4A
102
{ACAD_REACTORS
330
47
102
}
330
47
100
AcDbScale
 70
     0
300
1:4
140
1.0
141
4.0
290
     0
  0
SCALE
  5
4B
102
{ACAD_REACTORS
330
47
102
}
330
47
100
AcDbScale
 70
     0
300
1:5
140
1.0
141
5.0
290
     0
  0
SCALE
  5
4C
102
{ACAD_REACTORS
330
47
102
}
330
47
100
AcDbScale
 70
     0
300
1:8
140
1.0
141
8.0
290
     0
  0
SCALE
  5
4D
102
{ACAD_REACTORS
330
47
102
}
330
47
100
AcDbScale
 70
     0
300
1:10
140
1.0
141
10.0
290
     0
  0
SCALE
  5
4E
102
{ACAD_REACTORS
330
47
102
}
330
47
100
AcDbScale
 70
     0
300
1:16
140
1.0
141
16.0
290
     0
  0
SCALE
  5
4F
102
{ACAD_REACTORS
330
47
102
}
330
47
100
AcDbScale
 70
     0
300
1:20
140
1.0
141
20.0
290
     0
  0
SCALE
  5
50
102
{ACAD_REACTORS
330
47
102
}
330
47
100
AcDbScale
 70
     0
300
1:30
140
1.0
141
30.0
290
     0
  0
SCALE
  5
51
102
{ACAD_REACTORS
330
47
102
}
330
47
100
AcDbScale
 70
     0
300
1:40
140
1.0
141
40.0
290
     0
  0
SCALE
  5
52
102
{ACAD_REACTORS
330
47
102
}
330
47
100
AcDbScale
 70
     0
300
1:50
140
1.0
141
50.0
290
     0
  0
SCALE
  5
53
102
{ACAD_REACTORS
330
47
102
}
330
47
100
AcDbScale
 70
     0
300
1:100
140
1.0
141
100.0
290
     0
  0
SCALE
  5
54
102
{ACAD_REACTORS
330
47
102
}
330
47
100
AcDbScale
 70
     0
300
2:1
140
2.0
141
1.0
290
     0
  0
SCALE
  5
55
102
{ACAD_REACTORS
330
47
102
}
330
47
100
AcDbScale
 70
     0
300
4:1
140
4.0
141
1.0
290
     0
  0
SCALE
  5
56
102
{ACAD_REACTORS
330
47
102
}
330
47
100
AcDbScale
 70
     0
300
8:1
140
8.0
141
1.0
290
     0
  0
SCALE
  5
57
102
{ACAD_REACTORS
330
47
102
}
330
47
100
AcDbScale
 70
     0
300
10:1
140
10.0
141
1.0
290
     0
  0
SCALE
  5
58
102
{ACAD_REACTORS
330
47
102
}
330
47
100
AcDbScale
 70
     0
300
100:1
140
100.0
141
1.0
290
     0
  0
SCALE
  5
59
102
{ACAD_REACTORS
330
47
102
}
330
47
100
AcDbScale
 70
     0
300
1/128" = 1'-0"
140
0.0078125
141
12.0
290
     0
  0
SCALE
  5
5A
102
{ACAD_REACTORS
330
47
102
}
330
47
100
AcDbScale
 70
     0
300
1/64" = 1'-0"
140
0.015625
141
12.0
290
     0
  0
SCALE
  5
5B
102
{ACAD_REACTORS
330
47
102
}
330
47
100
AcDbScale
 70
     0
300
1/32" = 1'-0"
140
0.03125
141
12.0
290
     0
  0
SCALE
  5
5C
102
{ACAD_REACTORS
330
47
102
}
330
47
100
AcDbScale
 70
     0
300
1/16" = 1'-0"
140
0.0625
141
12.0
290
     0
  0
SCALE
  5
5D
102
{ACAD_REACTORS
330
47
102
}
330
47
100
AcDbScale
 70
     0
300
3/32" = 1'-0"
140
0.09375
141
12.0
290
     0
  0
SCALE
  5
5E
102
{ACAD_REACTORS
330
47
102
}
330
47
100
AcDbScale
 70
     0
300
1/8" = 1'-0"
140
0.125
141
12.0
290
     0
  0
SCALE
  5
5F
102
{ACAD_REACTORS
330
47
102
}
330
47
100
AcDbScale
 70
     0
300
3/16" = 1'-0"
140
0.1875
141
12.0
290
     0
  0
SCALE
  5
60
102
{ACAD_REACTORS
330
47
102
}
330
47
100
AcDbScale
 70
     0
300
1/4" = 1'-0"
140
0.25
141
12.0
290
     0
  0
SCALE
  5
61
102
{ACAD_REACTORS
330
47
102
}
330
47
100
AcDbScale
 70
     0
300
3/8" = 1'-0"
140
0.375
141
12.0
290
     0
  0
SCALE
  5
62
102
{ACAD_REACTORS
330
47
102
}
330
47
100
AcDbScale
 70
     0
300
1/2" = 1'-0"
140
0.5
141
12.0
290
     0
  0
SCALE
  5
63
102
{ACAD_REACTORS
330
47
102
}
330
47
100
AcDbScale
 70
     0
300
3/4" = 1'-0"
140
0.75
141
12.0
290
     0
  0
SCALE
  5
64
102
{ACAD_REACTORS
330
47
102
}
330
47
100
AcDbScale
 70
     0
300
1" = 1'-0"
140
1.0
141
12.0
290
     0
  0
SCALE
  5
65
102
{ACAD_REACTORS
330
47
102
}
330
47
100
AcDbScale
 70
     0
300
1-1/2" = 1'-0"
140
1.5
141
12.0
290
     0
  0
SCALE
  5
66
102
{ACAD_REACTORS
330
47
102
}
330
47
100
AcDbScale
 70
     0
300
3" = 1'-0"
140
3.0
141
12.0
290
     0
  0
SCALE
  5
67
102
{ACAD_REACTORS
330
47
102
}
330
47
100
AcDbScale
 70
     0
300
6" = 1'-0"
140
6.0
141
12.0
290
     0
  0
SCALE
  5
68
102
{ACAD_REACTORS
330
47
102
}
330
47
100
AcDbScale
 70
     0
300
1'-0" = 1'-0"
140
12.0
141
12.0
290
     0
  0
TABLESTYLE
  5
6A
102
{ACAD_REACTORS
330
69
102
}
102
{ACAD_XDICTIONARY
360
2A2
102
}
330
69
100
AcDbTableStyle
  3
Standard
 70
     0
 71
     0
 40
0.06
 41
0.06
280
     0
281
     0
  7
Standard
140
4.5
170
     2
 62
     0
 63
   257
283
     0
 90
        4
 91
        0
  1

274
    -2
284
     1
 64
     0
275
    -2
285
     1
 65
     0
276
    -2
286
     1
 66
     0
277
    -2
287
     1
 67
     0
278
    -2
288
     1
 68
     0
279
    -2
289
     1
 69
     0
  7
Standard
140
6.0
170
     5
 62
     0
 63
   257
283
     0
 90
        4
 91
        0
  1

274
    -2
284
     1
 64
     0
275
    -2
285
     1
 65
     0
276
    -2
286
     1
 66
     0
277
    -2
287
     1
 67
     0
278
    -2
288
     1
 68
     0
279
    -2
289
     1
 69
     0
  7
Standard
140
4.5
170
     5
 62
     0
 63
   257
283
     0
 90
        4
 91
        0
  1

274
    -2
284
     1
 64
     0
275
    -2
285
     1
 65
     0
276
    -2
286
     1
 66
     0
277
    -2
287
     1
 67
     0
278
    -2
288
     1
 68
     0
279
    -2
289
     1
 69
     0
  0
VISUALSTYLE
  5
2F
102
{ACAD_REACTORS
330
2A
102
}
102
{ACAD_XDICTIONARY
360
27A
102
}
330
2A
100
AcDbVisualStyle
  2
2dWireframe
 70
     4
 71
     0
 72
     2
 73
     0
 90
        0
 40
0.6
 41
30.0
 62
     5
 63
     7
421
 16777215
 74
     1
 91
        4
 64
     7
 65
   257
 75
     1
175
     1
 42
1.0
 92
        0
 66
   257
 43
1.0
 76
     1
 77
     6
 78
     2
 67
     7
 79
     5
170
     0
171
     0
290
     0
174
     0
 93
        1
 44
0.0
173
     0
291
     0
 45
0.0
  0
VISUALSTYLE
  5
32
102
{ACAD_REACTORS
330
2A
102
}
102
{ACAD_XDICTIONARY
360
280
102
}
330
2A
100
AcDbVisualStyle
  2
Basic
 70
     7
 71
     1
 72
     0
 73
     1
 90
        0
 40
0.6
 41
30.0
 62
     5
 63
     7
421
 16777215
 74
     0
 91
        4
 64
     7
 65
   257
 75
     1
175
     1
 42
1.0
 92
        8
 66
     7
 43
1.0
 76
     1
 77
     6
 78
     2
 67
     7
 79
     5
170
     0
171
     0
290
     0
174
     0
 93
        1
 44
0.0
173
     0
291
     1
 45
0.0
  0
VISUALSTYLE
  5
36
102
{ACAD_REACTORS
330
2A
102
}
102
{ACAD_XDICTIONARY
360
288
102
}
330
2A
100
AcDbVisualStyle
  2
Brighten
 70
    12
 71
     2
 72
     2
 73
     0
 90
        0
 40
0.6
 41
30.0
 62
     5
 63
     7
421
 16777215
 74
     1
 91
        4
 64
     7
 65
   257
 75
     1
175
     1
 42
1.0
 92
        8
 66
     7
 43
1.0
 76
     1
 77
     6
 78
     2
 67
     7
 79
     5
170
     0
171
     0
290
     0
174
     0
 93
        1
 44
50.0
173
     0
291
     1
 45
0.0
  0
VISUALSTYLE
  5
3A
102
{ACAD_REACTORS
330
2A
102
}
102
{ACAD_XDICTIONARY
360
290
102
}
330
2A
100
AcDbVisualStyle
  2
ColorChange
 70
    16
 71
     2
 72
     2
 73
     3
 90
        0
 40
0.6
 41
30.0
 62
     5
 63
     8
421
  8421504
 74
     1
 91
        4
 64
     7
 65
   257
 75
     1
175
     1
 42
1.0
 92
        8
 66
     8
424
  8421504
 43
1.0
 76
     1
 77
     6
 78
     2
 67
     7
 79
     5
170
     0
171
     0
290
     0
174
     0
 93
        1
 44
0.0
173
     0
291
     1
 45
0.0
  0
VISUALSTYLE
  5
34
102
{ACAD_REACTORS
330
2A
102
}
102
{ACAD_XDICTIONARY
360
284
102
}
330
2A
100
AcDbVisualStyle
  2
Conceptual
 70
     9
 71
     3
 72
     2
 73
     0
 90
        0
 40
0.6
 41
30.0
 62
     5
 63
     7
421
 16777215
 74
     2
 91
        2
 64
     7
 65
   257
 75
     1
175
     1
 42
179.0
 92
        8
 66
     7
 43
1.0
 76
     1
 77
     6
 78
     2
 67
     7
 79
     3
170
     0
171
     0
290
     0
174
     0
 93
        1
 44
0.0
173
     0
291
     0
 45
0.0
  0
VISUALSTYLE
  5
35
102
{ACAD_REACTORS
330
2A
102
}
102
{ACAD_XDICTIONARY
360
286
102
}
330
2A
100
AcDbVisualStyle
  2
Dim
 70
    11
 71
     2
 72
     2
 73
     0
 90
        0
 40
0.6
 41
30.0
 62
     5
 63
     7
421
 16777215
 74
     1
 91
        4
 64
     7
 65
   257
 75
     1
175
     1
 42
1.0
 92
        8
 66
     7
 43
1.0
 76
     1
 77
     6
 78
     2
 67
     7
 79
     5
170
     0
171
     0
290
     0
174
     0
 93
        1
 44
-50.0
173
     0
291
     1
 45
0.0
  0
VISUALSTYLE
  5
3D
102
{ACAD_REACTORS
330
2A
102
}
102
{ACAD_XDICTIONARY
360
296
102
}
330
2A
100
AcDbVisualStyle
  2
EdgeColorOff
 70
    22
 71
     2
 72
     2
 73
     0
 90
        0
 40
0.6
 41
30.0
 62
     5
 63
     7
421
 16777215
 74
     1
 91
        4
 64
     7
 65
   257
 75
     1
175
     1
 42
1.0
 92
        8
 66
     7
 43
1.0
 76
     1
 77
     6
 78
     2
 67
     7
 79
     5
170
     0
171
     0
290
     0
174
     0
 93
        1
 44
0.0
173
     0
291
     1
 45
0.0
  0
VISUALSTYLE
  5
39
102
{ACAD_REACTORS
330
2A
102
}
102
{ACAD_XDICTIONARY
360
28E
102
}
330
2A
100
AcDbVisualStyle
  2
Facepattern
 70
    15
 71
     2
 72
     2
 73
     0
 90
        0
 40
0.6
 41
30.0
 62
     5
 63
     7
421
 16777215
 74
     1
 91
        4
 64
     7
 65
   257
 75
     1
175
     1
 42
1.0
 92
        8
 66
     7
 43
1.0
 76
     1
 77
     6
 78
     2
 67
     7
 79
     5
170
     0
171
     0
290
     0
174
     0
 93
        1
 44
0.0
173
     0
291
     1
 45
0.0
  0
VISUALSTYLE
  5
2B
102
{ACAD_REACTORS
330
2A
102
}
102
{ACAD_XDICTIONARY
360
272
102
}
330
2A
100
AcDbVisualStyle
  2
Flat
 70
     0
 71
     2
 72
     1
 73
     1
 90
        2
 40
0.6
 41
30.0
 62
     5
 63
     7
421
 16777215
 74
     0
 91
        0
 64
     7
 65
   257
 75
     1
175
     1
 42
1.0
 92
        8
 66
     7
 43
1.0
 76
     1
 77
     6
 78
     2
 67
     7
 79
     5
170
     0
171
     0
290
     0
174
     0
 93
       13
 44
0.0
173
     0
291
     1
 45
0.0
  0
VISUALSTYLE
  5
2C
102
{ACAD_REACTORS
330
2A
102
}
102
{ACAD_XDICTIONARY
360
274
102
}
330
2A
100
AcDbVisualStyle
  2
FlatWithEdges
 70
     1
 71
     2
 72
     1
 73
     1
 90
        2
 40
0.6
 41
30.0
 62
     5
 63
     7
421
 16777215
 74
     1
 91
        0
 64
     7
 65
   257
 75
     1
175
     1
 42
1.0
 92
        0
 66
   257
 43
1.0
 76
     1
 77
     6
 78
     2
 67
     7
 79
     5
170
     0
171
     0
290
     0
174
     0
 93
       13
 44
0.0
173
     0
291
     1
 45
0.0
  0
VISUALSTYLE
  5
2D
102
{ACAD_REACTORS
330
2A
102
}
102
{ACAD_XDICTIONARY
360
276
102
}
330
2A
100
AcDbVisualStyle
  2
Gouraud
 70
     2
 71
     2
 72
     2
 73
     1
 90
        2
 40
0.6
 41
30.0
 62
     5
 63
     7
421
 16777215
 74
     0
 91
        0
 64
     7
 65
   257
 75
     1
175
     1
 42
1.0
 92
        0
 66
     7
 43
1.0
 76
     1
 77
     6
 78
     2
 67
     7
 79
     5
170
     0
171
     0
290
     0
174
     0
 93
       13
 44
0.0
173
     0
291
     1
 45
0.0
  0
VISUALSTYLE
  5
2E
102
{ACAD_REACTORS
330
2A
102
}
102
{ACAD_XDICTIONARY
360
278
102
}
330
2A
100
AcDbVisualStyle
  2
GouraudWithEdges
 70
     3
 71
     2
 72
     2
 73
     1
 90
        2
 40
0.6
 41
30.0
 62
     5
 63
     7
421
 16777215
 74
     1
 91
        0
 64
     7
 65
   257
 75
     1
175
     1
 42
1.0
 92
        0
 66
   257
 43
1.0
 76
     1
 77
     6
 78
     2
 67
     7
 79
     5
170
     0
171
     0
290
     0
174
     0
 93
       13
 44
0.0
173
     0
291
     1
 45
0.0
  0
VISUALSTYLE
  5
31
102
{ACAD_REACTORS
330
2A
102
}
102
{ACAD_XDICTIONARY
360
27E
102
}
330
2A
100
AcDbVisualStyle
  2
Hidden
 70
     6
 71
     1
 72
     2
 73
     2
 90
        0
 40
0.6
 41
30.0
 62
     5
 63
     7
421
 16777215
 74
     2
 91
        2
 64
     7
 65
   257
 75
     2
175
     1
 42
40.0
 92
        0
 66
   257
 43
1.0
 76
     1
 77
     6
 78
     2
 67
     7
 79
     3
170
     0
171
     0
290
     0
174
     0
 93
        1
 44
0.0
173
     0
291
     0
 45
0.0
  0
VISUALSTYLE
  5
3B
102
{ACAD_REACTORS
330
2A
102
}
102
{ACAD_XDICTIONARY
360
292
102
}
330
2A
100
AcDbVisualStyle
  2
JitterOff
 70
    20
 71
     2
 72
     2
 73
     0
 90
        0
 40
0.6
 41
30.0
 62
     5
 63
     7
421
 16777215
 74
     1
 91
        4
 64
     7
 65
   257
 75
     1
175
     1
 42
1.0
 92
       10
 66
     7
 43
1.0
 76
     1
 77
     6
 78
     2
 67
     7
 79
     5
170
     0
171
     0
290
     0
174
     0
 93
        1
 44
0.0
173
     0
291
     1
 45
0.0
  0
VISUALSTYLE
  5
38
102
{ACAD_REACTORS
330
2A
102
}
102
{ACAD_XDICTIONARY
360
28C
102
}
330
2A
100
AcDbVisualStyle
  2
Linepattern
 70
    14
 71
     2
 72
     2
 73
     0
 90
        0
 40
0.6
 41
30.0
 62
     5
 63
     7
421
 16777215
 74
     1
 91
        4
 64
     7
 65
   257
 75
     7
175
     7
 42
1.0
 92
        8
 66
     7
 43
1.0
 76
     1
 77
     6
 78
     2
 67
     7
 79
     5
170
     0
171
     0
290
     0
174
     0
 93
        1
 44
0.0
173
     0
291
     1
 45
0.0
  0
VISUALSTYLE
  5
3C
102
{ACAD_REACTORS
330
2A
102
}
102
{ACAD_XDICTIONARY
360
294
102
}
330
2A
100
AcDbVisualStyle
  2
OverhangOff
 70
    21
 71
     2
 72
     2
 73
     0
 90
        0
 40
0.6
 41
30.0
 62
     5
 63
     7
421
 16777215
 74
     1
 91
        4
 64
     7
 65
   257
 75
     1
175
     1
 42
1.0
 92
        9
 66
     7
 43
1.0
 76
     1
 77
     6
 78
     2
 67
     7
 79
     5
170
     0
171
     0
290
     0
174
     0
 93
        1
 44
0.0
173
     0
291
     1
 45
0.0
  0
VISUALSTYLE
  5
33
102
{ACAD_REACTORS
330
2A
102
}
102
{ACAD_XDICTIONARY
360
282
102
}
330
2A
100
AcDbVisualStyle
  2
Realistic
 70
     8
 71
     2
 72
     3
 73
     0
 90
        2
 40
0.6
 41
30.0
 62
     5
 63
     7
421
 16777215
 74
     0
 91
        0
 64
     7
 65
   257
 75
     1
175
     1
 42
1.0
 92
        8
 66
   257
 43
1.0
 76
     1
 77
     6
 78
     2
 67
     7
 79
     3
170
     0
171
     0
290
     0
174
     0
 93
       13
 44
0.0
173
     0
291
     0
 45
0.0
  0
VISUALSTYLE
  5
42
102
{ACAD_REACTORS
330
2A
102
}
102
{ACAD_XDICTIONARY
360
2A0
102
}
330
2A
100
AcDbVisualStyle
  2
Shaded
 70
    27
 71
     2
 72
     2
 73
     1
 90
        2
 40
0.6
 41
30.0
 62
     5
 63
     7
421
 16777215
 74
     0
 91
        4
 64
     7
 65
   257
 75
     1
175
     1
 42
1.0
 92
        8
 66
   257
 43
1.0
 76
     1
 77
     6
 78
     2
 67
     8
425
  7895160
 79
     3
170
     0
171
     0
290
     0
174
     0
 93
        5
 44
0.0
173
     0
291
     0
 45
0.0
  0
VISUALSTYLE
  5
41
102
{ACAD_REACTORS
330
2A
102
}
102
{ACAD_XDICTIONARY
360
29E
102
}
330
2A
100
AcDbVisualStyle
  2
Shaded with edges
 70
    26
 71
     2
 72
     2
 73
     1
 90
        2
 40
0.6
 41
30.0
 62
     5
 63
     7
421
 16777215
 74
     1
 91
       10
 64
     7
 65
   257
 75
     2
175
     1
 42
1.0
 92
        8
 66
   257
 43
1.0
 76
     1
 77
     6
 78
     2
 67
     7
 79
     3
170
     0
171
     0
290
     0
174
     0
 93
        5
 44
0.0
173
     0
291
     0
 45
0.0
  0
VISUALSTYLE
  5
3E
102
{ACAD_REACTORS
330
2A
102
}
102
{ACAD_XDICTIONARY
360
298
102
}
330
2A
100
AcDbVisualStyle
  2
Shades of Gray
 70
    23
 71
     2
 72
     2
 73
     3
 90
        0
 40
0.6
 41
30.0
 62
     5
 63
     7
421
 16777215
 74
     2
 91
        2
 64
     7
 65
     7
 75
     1
175
     1
 42
40.0
 92
        8
 66
     7
 43
1.0
 76
     1
 77
     6
 78
     2
 67
     7
 79
     3
170
     0
171
     0
290
     0
174
     0
 93
        1
 44
0.0
173
     0
291
     0
 45
0.0
  0
VISUALSTYLE
  5
3F
102
{ACAD_REACTORS
330
2A
102
}
102
{ACAD_XDICTIONARY
360
29A
102
}
330
2A
100
AcDbVisualStyle
  2
Sketchy
 70
    24
 71
     1
 72
     2
 73
     2
 90
        0
 40
0.6
 41
30.0
 62
     5
 63
     7
421
 16777215
 74
     2
 91
        2
 64
     7
 65
     7
 75
     1
175
     1
 42
40.0
 92
       11
 66
     7
 43
1.0
 76
     1
 77
     6
 78
     2
 67
     7
 79
     6
170
     0
171
     0
290
     0
174
     0
 93
        1
 44
0.0
173
     0
291
     0
 45
0.0
  0
VISUALSTYLE
  5
37
102
{ACAD_REACTORS
330
2A
102
}
102
{ACAD_XDICTIONARY
360
28A
102
}
330
2A
100
AcDbVisualStyle
  2
Thicken
 70
    13
 71
     2
 72
     2
 73
     0
 90
        0
 40
0.6
 41
30.0
 62
     5
 63
     7
421
 16777215
 74
     1
 91
        4
 64
     7
 65
   257
 75
     1
175
     1
 42
1.0
 92
       12
 66
     7
 43
1.0
 76
     1
 77
     6
 78
     2
 67
     7
 79
     5
170
     0
171
     0
290
     0
174
     0
 93
        1
 44
0.0
173
     0
291
     1
 45
0.0
  0
VISUALSTYLE
  5
30
102
{ACAD_REACTORS
330
2A
102
}
102
{ACAD_XDICTIONARY
360
27C
102
}
330
2A
100
AcDbVisualStyle
  2
Wireframe
 70
     5
 71
     0
 72
     2
 73
     0
 90
        0
 40
0.6
 41
30.0
 62
     5
 63
     7
421
 16777215
 74
     1
 91
        4
 64
     7
 65
   257
 75
     1
175
     1
 42
1.0
 92
        0
 66
   257
 43
1.0
 76
     1
 77
     6
 78
     2
 67
     7
 79
     3
170
     0
171
     0
290
     0
174
     0
 93
        1
 44
0.0
173
     0
291
     0
 45
0.0
  0
VISUALSTYLE
  5
40
102
{ACAD_REACTORS
330
2A
102
}
102
{ACAD_XDICTIONARY
360
29C
102
}
330
2A
100
AcDbVisualStyle
  2
X-Ray
 70
    25
 71
     2
 72
     2
 73
     1
 90
        1
 40
0.5
 41
30.0
 62
     5
 63
     7
421
 16777215
 74
     1
 91
        0
 64
     7
 65
   257
 75
     1
175
     1
 42
1.0
 92
        8
 66
     7
 43
1.0
 76
     1
 77
     6
 78
     2
 67
     7
 79
     3
170
     0
171
     0
290
     0
174
     0
 93
       13
 44
0.0
173
     0
291
     0
 45
0.0
  0
DICTIONARYVAR
  5
270
102
{ACAD_REACTORS
330
26F
102
}
330
26F
100
DictionaryVariables
280
     0
  1
1:1
  0
DICTIONARYVAR
  5
2AC
102
{ACAD_REACTORS
330
26F
102
}
330
26F
100
DictionaryVariables
280
     0
  1
3.500000
  0
DICTIONARYVAR
  5
2AD
102
{ACAD_REACTORS
330
26F
102
}
330
26F
100
DictionaryVariables
280
     0
  1
acadiso.lin
  0
DICTIONARYVAR
  5
2A9
102
{ACAD_REACTORS
330
26F
102
}
330
26F
100
DictionaryVariables
280
     0
  1
Standard
  0
DICTIONARYVAR
  5
2A8
102
{ACAD_REACTORS
330
26F
102
}
330
26F
100
DictionaryVariables
280
     0
  1
Standard
  0
DICTIONARYVAR
  5
271
102
{ACAD_REACTORS
330
26F
102
}
330
26F
100
DictionaryVariables
280
     0
  1
2
  0
DICTIONARY
  5
2A5
330
6C
100
AcDbDictionary
280
     1
281
     1
  3
ACAD_XREC_ROUNDTRIP
360
2A6
  0
DICTIONARY
  5
2A2
330
6A
100
AcDbDictionary
280
     1
281
     1
  3
ACAD_ROUNDTRIP_2008_TABLESTYLE_CELLSTYLEMAP
360
2A3
  0
DICTIONARY
  5
27A
330
2F
100
AcDbDictionary
280
     1
281
     1
  3
ACAD_XREC_ROUNDTRIP
360
27B
  0
DICTIONARY
  5
280
330
32
100
AcDbDictionary
280
     1
281
     1
  3
ACAD_XREC_ROUNDTRIP
360
281
  0
DICTIONARY
  5
288
330
36
100
AcDbDictionary
280
     1
281
     1
  3
ACAD_XREC_ROUNDTRIP
360
289
  0
DICTIONARY
  5
290
330
3A
100
AcDbDictionary
280
     1
281
     1
  3
ACAD_XREC_ROUNDTRIP
360
291
  0
DICTIONARY
  5
284
330
34
100
AcDbDictionary
280
     1
281
     1
  3
ACAD_XREC_ROUNDTRIP
360
285
  0
DICTIONARY
  5
286
330
35
100
AcDbDictionary
280
     1
281
     1
  3
ACAD_XREC_ROUNDTRIP
360
287
  0
DICTIONARY
  5
296
330
3D
100
AcDbDictionary
280
     1
281
     1
  3
ACAD_XREC_ROUNDTRIP
360
297
  0
DICTIONARY
  5
28E
330
39
100
AcDbDictionary
280
     1
281
     1
  3
ACAD_XREC_ROUNDTRIP
360
28F
  0
DICTIONARY
  5
272
330
2B
100
AcDbDictionary
280
     1
281
     1
  3
ACAD_XREC_ROUNDTRIP
360
273
  0
DICTIONARY
  5
274
330
2C
100
AcDbDictionary
280
     1
281
     1
  3
ACAD_XREC_ROUNDTRIP
360
275
  0
DICTIONARY
  5
276
330
2D
100
AcDbDictionary
280
     1
281
     1
  3
ACAD_XREC_ROUNDTRIP
360
277
  0
DICTIONARY
  5
278
330
2E
100
AcDbDictionary
280
     1
281
     1
  3
ACAD_XREC_ROUNDTRIP
360
279
  0
DICTIONARY
  5
27E
330
31
100
AcDbDictionary
280
     1
281
     1
  3
ACAD_XREC_ROUNDTRIP
360
27F
  0
DICTIONARY
  5
292
330
3B
100
AcDbDictionary
280
     1
281
     1
  3
ACAD_XREC_ROUNDTRIP
360
293
  0
DICTIONARY
  5
28C
330
38
100
AcDbDictionary
280
     1
281
     1
  3
ACAD_XREC_ROUNDTRIP
360
28D
  0
DICTIONARY
  5
294
330
3C
100
AcDbDictionary
280
     1
281
     1
  3
ACAD_XREC_ROUNDTRIP
360
295
  0
DICTIONARY
  5
282
330
33
100
AcDbDictionary
280
     1
281
     1
  3
ACAD_XREC_ROUNDTRIP
360
283
  0
DICTIONARY
  5
2A0
330
42
100
AcDbDictionary
280
     1
281
     1
  3
ACAD_XREC_ROUNDTRIP
360
2A1
  0
DICTIONARY
  5
29E
330
41
100
AcDbDictionary
280
     1
281
     1
  3
ACAD_XREC_ROUNDTRIP
360
29F
  0
DICTIONARY
  5
298
330
3E
100
AcDbDictionary
280
     1
281
     1
  3
ACAD_XREC_ROUNDTRIP
360
299
  0
DICTIONARY
  5
29A
330
3F
100
AcDbDictionary
280
     1
281
     1
  3
ACAD_XREC_ROUNDTRIP
360
29B
  0
DICTIONARY
  5
28A
330
37
100
AcDbDictionary
280
     1
281
     1
  3
ACAD_XREC_ROUNDTRIP
360
28B
  0
DICTIONARY
  5
27C
330
30
100
AcDbDictionary
280
     1
281
     1
  3
ACAD_XREC_ROUNDTRIP
360
27D
  0
DICTIONARY
  5
29C
330
40
100
AcDbDictionary
280
     1
281
     1
  3
ACAD_XREC_ROUNDTRIP
360
29D
  0
XRECORD
  5
2A6
102
{ACAD_REACTORS
330
2A5
102
}
330
2A5
100
AcDbXrecord
280
     1
102
ACAD_ROUNDTRIP_2010_MLEADER_STYLE
  0
CELLSTYLEMAP
  5
2A3
102
{ACAD_REACTORS
330
2A2
102
}
330
2A2
100
AcDbCellStyleMap
 90
        3
300
CELLSTYLE
  1
TABLEFORMAT_BEGIN
 90
        5
170
     1
 91
        0
 92
    32768
 62
   257
 93
        1
300
CONTENTFORMAT
  1
CONTENTFORMAT_BEGIN
 90
        0
 91
        0
 92
        4
 93
        0
300

 40
0.0
140
1.0
 94
        5
 62
     0
340
11
144
6.0
309
CONTENTFORMAT_END
171
     1
301
MARGIN
  1
CELLMARGIN_BEGIN
 40
1.5
 40
1.5
 40
1.5
 40
1.5
 40
1.5
 40
1.5
309
CELLMARGIN_END
 94
        6
 95
        1
302
GRIDFORMAT
  1
GRIDFORMAT_BEGIN
 90
        0
 91
        1
 62
     0
 92
       -2
340
14
 93
        0
 40
0.045
309
GRIDFORMAT_END
 95
        2
302
GRIDFORMAT
  1
GRIDFORMAT_BEGIN
 90
        0
 91
        1
 62
     0
 92
       -2
340
14
 93
        0
 40
0.045
309
GRIDFORMAT_END
 95
        4
302
GRIDFORMAT
  1
GRIDFORMAT_BEGIN
 90
        0
 91
        1
 62
     0
 92
       -2
340
14
 93
        0
 40
0.045
309
GRIDFORMAT_END
 95
        8
302
GRIDFORMAT
  1
GRIDFORMAT_BEGIN
 90
        0
 91
        1
 62
     0
 92
       -2
340
14
 93
        0
 40
0.045
309
GRIDFORMAT_END
 95
       16
302
GRIDFORMAT
  1
GRIDFORMAT_BEGIN
 90
        0
 91
        1
 62
     0
 92
       -2
340
14
 93
        0
 40
0.045
309
GRIDFORMAT_END
 95
       32
302
GRIDFORMAT
  1
GRIDFORMAT_BEGIN
 90
        0
 91
        1
 62
     0
 92
       -2
340
14
 93
        0
 40
0.045
309
GRIDFORMAT_END
309
TABLEFORMAT_END
  1
CELLSTYLE_BEGIN
 90
        1
 91
        1
300
_TITLE
309
CELLSTYLE_END
300
CELLSTYLE
  1
TABLEFORMAT_BEGIN
 90
        5
170
     1
 91
        0
 92
        0
 62
   257
 93
        1
300
CONTENTFORMAT
  1
CONTENTFORMAT_BEGIN
 90
        0
 91
        0
 92
        4
 93
        0
300

 40
0.0
140
1.0
 94
        5
 62
     0
340
11
144
4.5
309
CONTENTFORMAT_END
171
     1
301
MARGIN
  1
CELLMARGIN_BEGIN
 40
1.5
 40
1.5
 40
1.5
 40
1.5
 40
1.5
 40
1.5
309
CELLMARGIN_END
 94
        6
 95
        1
302
GRIDFORMAT
  1
GRIDFORMAT_BEGIN
 90
        0
 91
        1
 62
     0
 92
       -2
340
14
 93
        0
 40
0.045
309
GRIDFORMAT_END
 95
        2
302
GRIDFORMAT
  1
GRIDFORMAT_BEGIN
 90
        0
 91
        1
 62
     0
 92
       -2
340
14
 93
        0
 40
0.045
309
GRIDFORMAT_END
 95
        4
302
GRIDFORMAT
  1
GRIDFORMAT_BEGIN
 90
        0
 91
        1
 62
     0
 92
       -2
340
14
 93
        0
 40
0.045
309
GRIDFORMAT_END
 95
        8
302
GRIDFORMAT
  1
GRIDFORMAT_BEGIN
 90
        0
 91
        1
 62
     0
 92
       -2
340
14
 93
        0
 40
0.045
309
GRIDFORMAT_END
 95
       16
302
GRIDFORMAT
  1
GRIDFORMAT_BEGIN
 90
        0
 91
        1
 62
     0
 92
       -2
340
14
 93
        0
 40
0.045
309
GRIDFORMAT_END
 95
       32
302
GRIDFORMAT
  1
GRIDFORMAT_BEGIN
 90
        0
 91
        1
 62
     0
 92
       -2
340
14
 93
        0
 40
0.045
309
GRIDFORMAT_END
309
TABLEFORMAT_END
  1
CELLSTYLE_BEGIN
 90
        2
 91
        1
300
_HEADER
309
CELLSTYLE_END
300
CELLSTYLE
  1
TABLEFORMAT_BEGIN
 90
        5
170
     1
 91
        0
 92
        0
 62
   257
 93
        1
300
CONTENTFORMAT
  1
CONTENTFORMAT_BEGIN
 90
        0
 91
        0
 92
        4
 93
        0
300

 40
0.0
140
1.0
 94
        2
 62
     0
340
11
144
4.5
309
CONTENTFORMAT_END
171
     1
301
MARGIN
  1
CELLMARGIN_BEGIN
 40
1.5
 40
1.5
 40
1.5
 40
1.5
 40
1.5
 40
1.5
309
CELLMARGIN_END
 94
        6
 95
        1
302
GRIDFORMAT
  1
GRIDFORMAT_BEGIN
 90
        0
 91
        1
 62
     0
 92
       -2
340
14
 93
        0
 40
0.045
309
GRIDFORMAT_END
 95
        2
302
GRIDFORMAT
  1
GRIDFORMAT_BEGIN
 90
        0
 91
        1
 62
     0
 92
       -2
340
14
 93
        0
 40
0.045
309
GRIDFORMAT_END
 95
        4
302
GRIDFORMAT
  1
GRIDFORMAT_BEGIN
 90
        0
 91
        1
 62
     0
 92
       -2
340
14
 93
        0
 40
0.045
309
GRIDFORMAT_END
 95
        8
302
GRIDFORMAT
  1
GRIDFORMAT_BEGIN
 90
        0
 91
        1
 62
     0
 92
       -2
340
14
 93
        0
 40
0.045
309
GRIDFORMAT_END
 95
       16
302
GRIDFORMAT
  1
GRIDFORMAT_BEGIN
 90
        0
 91
        1
 62
     0
 92
       -2
340
14
 93
        0
 40
0.045
309
GRIDFORMAT_END
 95
       32
302
GRIDFORMAT
  1
GRIDFORMAT_BEGIN
 90
        0
 91
        1
 62
     0
 92
       -2
340
14
 93
        0
 40
0.045
309
GRIDFORMAT_END
309
TABLEFORMAT_END
  1
CELLSTYLE_BEGIN
 90
        3
 91
        2
300
_DATA
309
CELLSTYLE_END
  0
XRECORD
  5
27B
102
{ACAD_REACTORS
330
27A
102
}
330
27A
100
AcDbXrecord
280
     1
102
RTVSPropertyOp0
 70
     1
102
RTVSPropertyOp1
 70
     1
102
RTVSPropertyOp2
 70
     1
102
RTVSPropertyOp3
 70
     1
102
RTVSPropertyOp4
 70
     1
102
RTVSPropertyOp5
 70
     1
102
RTVSPropertyOp6
 70
     1
102
RTVSPropertyOp7
 70
     1
102
RTVSPropertyOp8
 70
     1
102
RTVSPropertyOp9
 70
     1
102
RTVSPropertyOp10
 70
     1
102
RTVSPropertyOp11
 70
     1
102
RTVSPropertyOp12
 70
     1
102
RTVSPropertyOp13
 70
     1
102
RTVSPropertyOp14
 70
     1
102
RTVSPropertyOp15
 70
     1
102
RTVSPropertyOp16
 70
     1
102
RTVSPropertyOp17
 70
     1
102
RTVSPropertyOp18
 70
     1
102
RTVSPropertyOp19
 70
     1
102
RTVSPropertyOp20
 70
     1
102
RTVSPropertyOp21
 70
     1
102
RTVSPropertyOp22
 70
     1
102
RTVSPropertyOp23
 70
     1
102
RTVSPropertyOp24
 70
     1
102
RTVSPropertyOp25
 70
     1
102
RTVSPropertyOp26
 70
     1
102
RTVSPropertyOp27
 70
     1
102
RTVSPropertyOp28
 70
     1
102
RTVSPropertyOp29
 70
     1
102
RTVSPropertyOp30
 70
     1
102
RTVSPropertyOp31
 70
     1
102
RTVSPropertyOp32
 70
     1
102
RTVSPropertyOp33
 70
     1
102
RTVSPropertyOp34
 70
     1
102
RTVSPropertyOp35
 70
     1
102
RTVSPropertyOp36
 70
     1
102
RTVSPropertyOp37
 70
     1
102
RTVSPropertyOp38
 70
     1
102
RTVSPropertyOp39
 70
     1
102
RTVSPropertyOp40
 70
     1
102
RTVSPropertyOp41
 70
     1
102
RTVSPropertyOp42
 70
     1
102
RTVSPropertyOp43
 70
     1
102
RTVSPropertyOp44
 70
     1
102
RTVSPropertyOp45
 70
     1
102
RTVSPropertyOp46
 70
     1
102
RTVSPropertyOp47
 70
     1
102
RTVSPropertyOp48
 70
     1
102
RTVSPropertyOp49
 70
     1
102
RTVSPropertyOp50
 70
     1
102
RTVSPropertyOp51
 70
     0
102
RTVSPropertyOp52
 70
     0
102
RTVSPropertyOp53
 70
     1
102
RTVSPropertyOp54
 70
     1
102
RTVSPropertyOp55
 70
     1
102
RTVSPropertyOp56
 70
     1
102
RTVSPropertyOp57
 70
     1
102
RTVSPost2010Prop28
280
     1
102
RTVSPost2010PropOp28
 70
     1
102
RTVSPost2010Prop29
280
     1
102
RTVSPost2010PropOp29
 70
     1
102
RTVSPost2010Prop30
280
     0
102
RTVSPost2010PropOp30
 70
     1
102
RTVSPost2010Prop31
280
     0
102
RTVSPost2010PropOp31
 70
     1
102
RTVSPost2010Prop32
280
     0
102
RTVSPost2010PropOp32
 70
     1
102
RTVSPost2010Prop33
280
     0
102
RTVSPost2010PropOp33
 70
     1
102
RTVSPost2010Prop34
280
     0
102
RTVSPost2010PropOp34
 70
     1
102
RTVSPost2010Prop35
280
     0
102
RTVSPost2010PropOp35
 70
     1
102
RTVSPost2010Prop36
280
     0
102
RTVSPost2010PropOp36
 70
     1
102
RTVSPost2010Prop37
 90
       50
102
RTVSPost2010PropOp37
 70
     1
102
RTVSPost2010Prop38
140
0.0
102
RTVSPost2010PropOp38
 70
     1
102
RTVSPost2010Prop39
140
1.0
102
RTVSPost2010PropOp39
 70
     1
102
RTVSPost2010Prop40
 90
        0
102
RTVSPost2010PropOp40
 70
     1
102
RTVSPost2010Prop41ColorIndex
 90
       18
102
RTVSPost2010Prop41ColorRGB
 90
        0
102
RTVSPost2010PropOp41
 70
     1
102
RTVSPost2010Prop42
 90
       50
102
RTVSPost2010PropOp42
 70
     1
102
RTVSPost2010Prop43
 90
        3
102
RTVSPost2010PropOp43
 70
     1
102
RTVSPost2010Prop44ColorIndex
 90
        5
102
RTVSPost2010Prop44ColorRGB
 90
      255
102
RTVSPost2010PropOp44
 70
     1
102
RTVSPost2010Prop45
280
     0
102
RTVSPost2010PropOp45
 70
     1
102
RTVSPost2010Prop46
 90
       50
102
RTVSPost2010PropOp46
 70
     1
102
RTVSPost2010Prop47
 90
       50
102
RTVSPost2010PropOp47
 70
     1
102
RTVSPost2010Prop48
 90
       50
102
RTVSPost2010PropOp48
 70
     1
102
RTVSPost2010Prop49
280
     0
102
RTVSPost2010PropOp49
 70
     1
102
RTVSPost2010Prop50
 90
       50
102
RTVSPost2010PropOp50
 70
     1
102
RTVSPost2010Prop51ColorIndex
 90
      256
102
RTVSPost2010Prop51ColorRGB
 90
-16777216
102
RTVSPost2010PropOp51
 70
     0
102
RTVSPost2010Prop52
140
1.0
102
RTVSPost2010PropOp52
 70
     0
102
RTVSPost2010Prop53
 90
        2
102
RTVSPost2010PropOp53
 70
     1
102
RTVSPost2010Prop54
  1
strokes_ogs.tif
102
RTVSPost2010PropOp54
 70
     1
102
RTVSPost2010Prop55
280
     0
102
RTVSPost2010PropOp55
 70
     1
102
RTVSPost2010Prop56
140
1.0
102
RTVSPost2010PropOp56
 70
     1
102
RTVSPost2010Prop57
140
1.0
102
RTVSPost2010PropOp57
 70
     1
  0
XRECORD
  5
281
102
{ACAD_REACTORS
330
280
102
}
330
280
100
AcDbXrecord
280
     1
102
RTVSPropertyOp0
 70
     1
102
RTVSPropertyOp1
 70
     1
102
RTVSPropertyOp2
 70
     1
102
RTVSPropertyOp3
 70
     1
102
RTVSPropertyOp4
 70
     1
102
RTVSPropertyOp5
 70
     1
102
RTVSPropertyOp6
 70
     1
102
RTVSPropertyOp7
 70
     1
102
RTVSPropertyOp8
 70
     1
102
RTVSPropertyOp9
 70
     1
102
RTVSPropertyOp10
 70
     1
102
RTVSPropertyOp11
 70
     1
102
RTVSPropertyOp12
 70
     1
102
RTVSPropertyOp13
 70
     1
102
RTVSPropertyOp14
 70
     1
102
RTVSPropertyOp15
 70
     1
102
RTVSPropertyOp16
 70
     1
102
RTVSPropertyOp17
 70
     1
102
RTVSPropertyOp18
 70
     1
102
RTVSPropertyOp19
 70
     1
102
RTVSPropertyOp20
 70
     1
102
RTVSPropertyOp21
 70
     1
102
RTVSPropertyOp22
 70
     1
102
RTVSPropertyOp23
 70
     1
102
RTVSPropertyOp24
 70
     1
102
RTVSPropertyOp25
 70
     1
102
RTVSPropertyOp26
 70
     1
102
RTVSPropertyOp27
 70
     1
102
RTVSPropertyOp28
 70
     1
102
RTVSPropertyOp29
 70
     1
102
RTVSPropertyOp30
 70
     1
102
RTVSPropertyOp31
 70
     1
102
RTVSPropertyOp32
 70
     1
102
RTVSPropertyOp33
 70
     1
102
RTVSPropertyOp34
 70
     1
102
RTVSPropertyOp35
 70
     1
102
RTVSPropertyOp36
 70
     1
102
RTVSPropertyOp37
 70
     1
102
RTVSPropertyOp38
 70
     1
102
RTVSPropertyOp39
 70
     1
102
RTVSPropertyOp40
 70
     1
102
RTVSPropertyOp41
 70
     1
102
RTVSPropertyOp42
 70
     1
102
RTVSPropertyOp43
 70
     1
102
RTVSPropertyOp44
 70
     1
102
RTVSPropertyOp45
 70
     1
102
RTVSPropertyOp46
 70
     1
102
RTVSPropertyOp47
 70
     1
102
RTVSPropertyOp48
 70
     1
102
RTVSPropertyOp49
 70
     1
102
RTVSPropertyOp50
 70
     1
102
RTVSPropertyOp51
 70
     0
102
RTVSPropertyOp52
 70
     0
102
RTVSPropertyOp53
 70
     1
102
RTVSPropertyOp54
 70
     1
102
RTVSPropertyOp55
 70
     1
102
RTVSPropertyOp56
 70
     1
102
RTVSPropertyOp57
 70
     1
102
RTVSPost2010Prop28
280
     0
102
RTVSPost2010PropOp28
 70
     1
102
RTVSPost2010Prop29
280
     1
102
RTVSPost2010PropOp29
 70
     1
102
RTVSPost2010Prop30
280
     1
102
RTVSPost2010PropOp30
 70
     1
102
RTVSPost2010Prop31
280
     0
102
RTVSPost2010PropOp31
 70
     1
102
RTVSPost2010Prop32
280
     0
102
RTVSPost2010PropOp32
 70
     1
102
RTVSPost2010Prop33
280
     0
102
RTVSPost2010PropOp33
 70
     1
102
RTVSPost2010Prop34
280
     0
102
RTVSPost2010PropOp34
 70
     1
102
RTVSPost2010Prop35
280
     0
102
RTVSPost2010PropOp35
 70
     1
102
RTVSPost2010Prop36
280
     0
102
RTVSPost2010PropOp36
 70
     1
102
RTVSPost2010Prop37
 90
       50
102
RTVSPost2010PropOp37
 70
     1
102
RTVSPost2010Prop38
140
0.0
102
RTVSPost2010PropOp38
 70
     1
102
RTVSPost2010Prop39
140
1.0
102
RTVSPost2010PropOp39
 70
     1
102
RTVSPost2010Prop40
 90
        0
102
RTVSPost2010PropOp40
 70
     1
102
RTVSPost2010Prop41ColorIndex
 90
       18
102
RTVSPost2010Prop41ColorRGB
 90
        0
102
RTVSPost2010PropOp41
 70
     1
102
RTVSPost2010Prop42
 90
       50
102
RTVSPost2010PropOp42
 70
     1
102
RTVSPost2010Prop43
 90
        3
102
RTVSPost2010PropOp43
 70
     1
102
RTVSPost2010Prop44ColorIndex
 90
        5
102
RTVSPost2010Prop44ColorRGB
 90
      255
102
RTVSPost2010PropOp44
 70
     1
102
RTVSPost2010Prop45
280
     0
102
RTVSPost2010PropOp45
 70
     1
102
RTVSPost2010Prop46
 90
       50
102
RTVSPost2010PropOp46
 70
     1
102
RTVSPost2010Prop47
 90
       50
102
RTVSPost2010PropOp47
 70
     1
102
RTVSPost2010Prop48
 90
       50
102
RTVSPost2010PropOp48
 70
     1
102
RTVSPost2010Prop49
280
     0
102
RTVSPost2010PropOp49
 70
     1
102
RTVSPost2010Prop50
 90
       50
102
RTVSPost2010PropOp50
 70
     1
102
RTVSPost2010Prop51ColorIndex
 90
      256
102
RTVSPost2010Prop51ColorRGB
 90
-16777216
102
RTVSPost2010PropOp51
 70
     0
102
RTVSPost2010Prop52
140
1.0
102
RTVSPost2010PropOp52
 70
     0
102
RTVSPost2010Prop53
 90
        2
102
RTVSPost2010PropOp53
 70
     1
102
RTVSPost2010Prop54
  1
strokes_ogs.tif
102
RTVSPost2010PropOp54
 70
     1
102
RTVSPost2010Prop55
280
     0
102
RTVSPost2010PropOp55
 70
     1
102
RTVSPost2010Prop56
140
1.0
102
RTVSPost2010PropOp56
 70
     1
102
RTVSPost2010Prop57
140
1.0
102
RTVSPost2010PropOp57
 70
     1
  0
XRECORD
  5
289
102
{ACAD_REACTORS
330
288
102
}
330
288
100
AcDbXrecord
280
     1
102
RTVSPropertyOp0
 70
     1
102
RTVSPropertyOp1
 70
     1
102
RTVSPropertyOp2
 70
     1
102
RTVSPropertyOp3
 70
     1
102
RTVSPropertyOp4
 70
     1
102
RTVSPropertyOp5
 70
     1
102
RTVSPropertyOp6
 70
     1
102
RTVSPropertyOp7
 70
     1
102
RTVSPropertyOp8
 70
     1
102
RTVSPropertyOp9
 70
     1
102
RTVSPropertyOp10
 70
     1
102
RTVSPropertyOp11
 70
     1
102
RTVSPropertyOp12
 70
     1
102
RTVSPropertyOp13
 70
     1
102
RTVSPropertyOp14
 70
     1
102
RTVSPropertyOp15
 70
     1
102
RTVSPropertyOp16
 70
     1
102
RTVSPropertyOp17
 70
     1
102
RTVSPropertyOp18
 70
     1
102
RTVSPropertyOp19
 70
     1
102
RTVSPropertyOp20
 70
     1
102
RTVSPropertyOp21
 70
     1
102
RTVSPropertyOp22
 70
     1
102
RTVSPropertyOp23
 70
     1
102
RTVSPropertyOp24
 70
     1
102
RTVSPropertyOp25
 70
     1
102
RTVSPropertyOp26
 70
     1
102
RTVSPropertyOp27
 70
     1
102
RTVSPropertyOp28
 70
     1
102
RTVSPropertyOp29
 70
     1
102
RTVSPropertyOp30
 70
     1
102
RTVSPropertyOp31
 70
     1
102
RTVSPropertyOp32
 70
     1
102
RTVSPropertyOp33
 70
     1
102
RTVSPropertyOp34
 70
     1
102
RTVSPropertyOp35
 70
     1
102
RTVSPropertyOp36
 70
     1
102
RTVSPropertyOp37
 70
     1
102
RTVSPropertyOp38
 70
     1
102
RTVSPropertyOp39
 70
     1
102
RTVSPropertyOp40
 70
     1
102
RTVSPropertyOp41
 70
     1
102
RTVSPropertyOp42
 70
     1
102
RTVSPropertyOp43
 70
     1
102
RTVSPropertyOp44
 70
     1
102
RTVSPropertyOp45
 70
     1
102
RTVSPropertyOp46
 70
     1
102
RTVSPropertyOp47
 70
     1
102
RTVSPropertyOp48
 70
     1
102
RTVSPropertyOp49
 70
     1
102
RTVSPropertyOp50
 70
     1
102
RTVSPropertyOp51
 70
     0
102
RTVSPropertyOp52
 70
     0
102
RTVSPropertyOp53
 70
     1
102
RTVSPropertyOp54
 70
     1
102
RTVSPropertyOp55
 70
     1
102
RTVSPropertyOp56
 70
     1
102
RTVSPropertyOp57
 70
     1
102
RTVSPost2010Prop28
280
     0
102
RTVSPost2010PropOp28
 70
     1
102
RTVSPost2010Prop29
280
     1
102
RTVSPost2010PropOp29
 70
     1
102
RTVSPost2010Prop30
280
     1
102
RTVSPost2010PropOp30
 70
     1
102
RTVSPost2010Prop31
280
     0
102
RTVSPost2010PropOp31
 70
     1
102
RTVSPost2010Prop32
280
     0
102
RTVSPost2010PropOp32
 70
     1
102
RTVSPost2010Prop33
280
     0
102
RTVSPost2010PropOp33
 70
     1
102
RTVSPost2010Prop34
280
     0
102
RTVSPost2010PropOp34
 70
     1
102
RTVSPost2010Prop35
280
     0
102
RTVSPost2010PropOp35
 70
     1
102
RTVSPost2010Prop36
280
     0
102
RTVSPost2010PropOp36
 70
     1
102
RTVSPost2010Prop37
 90
       50
102
RTVSPost2010PropOp37
 70
     1
102
RTVSPost2010Prop38
140
0.0
102
RTVSPost2010PropOp38
 70
     1
102
RTVSPost2010Prop39
140
1.0
102
RTVSPost2010PropOp39
 70
     1
102
RTVSPost2010Prop40
 90
        0
102
RTVSPost2010PropOp40
 70
     1
102
RTVSPost2010Prop41ColorIndex
 90
       18
102
RTVSPost2010Prop41ColorRGB
 90
        0
102
RTVSPost2010PropOp41
 70
     1
102
RTVSPost2010Prop42
 90
       50
102
RTVSPost2010PropOp42
 70
     1
102
RTVSPost2010Prop43
 90
        3
102
RTVSPost2010PropOp43
 70
     1
102
RTVSPost2010Prop44ColorIndex
 90
        5
102
RTVSPost2010Prop44ColorRGB
 90
      255
102
RTVSPost2010PropOp44
 70
     1
102
RTVSPost2010Prop45
280
     0
102
RTVSPost2010PropOp45
 70
     1
102
RTVSPost2010Prop46
 90
       50
102
RTVSPost2010PropOp46
 70
     1
102
RTVSPost2010Prop47
 90
       50
102
RTVSPost2010PropOp47
 70
     1
102
RTVSPost2010Prop48
 90
       50
102
RTVSPost2010PropOp48
 70
     1
102
RTVSPost2010Prop49
280
     0
102
RTVSPost2010PropOp49
 70
     1
102
RTVSPost2010Prop50
 90
       50
102
RTVSPost2010PropOp50
 70
     1
102
RTVSPost2010Prop51ColorIndex
 90
      256
102
RTVSPost2010Prop51ColorRGB
 90
-16777216
102
RTVSPost2010PropOp51
 70
     0
102
RTVSPost2010Prop52
140
1.0
102
RTVSPost2010PropOp52
 70
     0
102
RTVSPost2010Prop53
 90
        2
102
RTVSPost2010PropOp53
 70
     1
102
RTVSPost2010Prop54
  1
strokes_ogs.tif
102
RTVSPost2010PropOp54
 70
     1
102
RTVSPost2010Prop55
280
     0
102
RTVSPost2010PropOp55
 70
     1
102
RTVSPost2010Prop56
140
1.0
102
RTVSPost2010PropOp56
 70
     1
102
RTVSPost2010Prop57
140
1.0
102
RTVSPost2010PropOp57
 70
     1
  0
XRECORD
  5
291
102
{ACAD_REACTORS
330
290
102
}
330
290
100
AcDbXrecord
280
     1
102
RTVSPropertyOp0
 70
     1
102
RTVSPropertyOp1
 70
     1
102
RTVSPropertyOp2
 70
     1
102
RTVSPropertyOp3
 70
     1
102
RTVSPropertyOp4
 70
     1
102
RTVSPropertyOp5
 70
     1
102
RTVSPropertyOp6
 70
     1
102
RTVSPropertyOp7
 70
     1
102
RTVSPropertyOp8
 70
     1
102
RTVSPropertyOp9
 70
     1
102
RTVSPropertyOp10
 70
     1
102
RTVSPropertyOp11
 70
     1
102
RTVSPropertyOp12
 70
     1
102
RTVSPropertyOp13
 70
     1
102
RTVSPropertyOp14
 70
     1
102
RTVSPropertyOp15
 70
     1
102
RTVSPropertyOp16
 70
     1
102
RTVSPropertyOp17
 70
     1
102
RTVSPropertyOp18
 70
     1
102
RTVSPropertyOp19
 70
     1
102
RTVSPropertyOp20
 70
     1
102
RTVSPropertyOp21
 70
     1
102
RTVSPropertyOp22
 70
     1
102
RTVSPropertyOp23
 70
     1
102
RTVSPropertyOp24
 70
     1
102
RTVSPropertyOp25
 70
     1
102
RTVSPropertyOp26
 70
     1
102
RTVSPropertyOp27
 70
     1
102
RTVSPropertyOp28
 70
     1
102
RTVSPropertyOp29
 70
     1
102
RTVSPropertyOp30
 70
     1
102
RTVSPropertyOp31
 70
     1
102
RTVSPropertyOp32
 70
     1
102
RTVSPropertyOp33
 70
     1
102
RTVSPropertyOp34
 70
     1
102
RTVSPropertyOp35
 70
     1
102
RTVSPropertyOp36
 70
     1
102
RTVSPropertyOp37
 70
     1
102
RTVSPropertyOp38
 70
     1
102
RTVSPropertyOp39
 70
     1
102
RTVSPropertyOp40
 70
     1
102
RTVSPropertyOp41
 70
     1
102
RTVSPropertyOp42
 70
     1
102
RTVSPropertyOp43
 70
     1
102
RTVSPropertyOp44
 70
     1
102
RTVSPropertyOp45
 70
     1
102
RTVSPropertyOp46
 70
     1
102
RTVSPropertyOp47
 70
     1
102
RTVSPropertyOp48
 70
     1
102
RTVSPropertyOp49
 70
     1
102
RTVSPropertyOp50
 70
     1
102
RTVSPropertyOp51
 70
     0
102
RTVSPropertyOp52
 70
     0
102
RTVSPropertyOp53
 70
     1
102
RTVSPropertyOp54
 70
     1
102
RTVSPropertyOp55
 70
     1
102
RTVSPropertyOp56
 70
     1
102
RTVSPropertyOp57
 70
     1
102
RTVSPost2010Prop28
280
     0
102
RTVSPost2010PropOp28
 70
     1
102
RTVSPost2010Prop29
280
     1
102
RTVSPost2010PropOp29
 70
     1
102
RTVSPost2010Prop30
280
     1
102
RTVSPost2010PropOp30
 70
     1
102
RTVSPost2010Prop31
280
     0
102
RTVSPost2010PropOp31
 70
     1
102
RTVSPost2010Prop32
280
     0
102
RTVSPost2010PropOp32
 70
     1
102
RTVSPost2010Prop33
280
     0
102
RTVSPost2010PropOp33
 70
     1
102
RTVSPost2010Prop34
280
     0
102
RTVSPost2010PropOp34
 70
     1
102
RTVSPost2010Prop35
280
     0
102
RTVSPost2010PropOp35
 70
     1
102
RTVSPost2010Prop36
280
     0
102
RTVSPost2010PropOp36
 70
     1
102
RTVSPost2010Prop37
 90
       50
102
RTVSPost2010PropOp37
 70
     1
102
RTVSPost2010Prop38
140
0.0
102
RTVSPost2010PropOp38
 70
     1
102
RTVSPost2010Prop39
140
1.0
102
RTVSPost2010PropOp39
 70
     1
102
RTVSPost2010Prop40
 90
        0
102
RTVSPost2010PropOp40
 70
     1
102
RTVSPost2010Prop41ColorIndex
 90
       18
102
RTVSPost2010Prop41ColorRGB
 90
        0
102
RTVSPost2010PropOp41
 70
     1
102
RTVSPost2010Prop42
 90
       50
102
RTVSPost2010PropOp42
 70
     1
102
RTVSPost2010Prop43
 90
        3
102
RTVSPost2010PropOp43
 70
     1
102
RTVSPost2010Prop44ColorIndex
 90
        5
102
RTVSPost2010Prop44ColorRGB
 90
      255
102
RTVSPost2010PropOp44
 70
     1
102
RTVSPost2010Prop45
280
     0
102
RTVSPost2010PropOp45
 70
     1
102
RTVSPost2010Prop46
 90
       50
102
RTVSPost2010PropOp46
 70
     1
102
RTVSPost2010Prop47
 90
       50
102
RTVSPost2010PropOp47
 70
     1
102
RTVSPost2010Prop48
 90
       50
102
RTVSPost2010PropOp48
 70
     1
102
RTVSPost2010Prop49
280
     0
102
RTVSPost2010PropOp49
 70
     1
102
RTVSPost2010Prop50
 90
       50
102
RTVSPost2010PropOp50
 70
     1
102
RTVSPost2010Prop51ColorIndex
 90
      256
102
RTVSPost2010Prop51ColorRGB
 90
-16777216
102
RTVSPost2010PropOp51
 70
     0
102
RTVSPost2010Prop52
140
1.0
102
RTVSPost2010PropOp52
 70
     0
102
RTVSPost2010Prop53
 90
        2
102
RTVSPost2010PropOp53
 70
     1
102
RTVSPost2010Prop54
  1
strokes_ogs.tif
102
RTVSPost2010PropOp54
 70
     1
102
RTVSPost2010Prop55
280
     0
102
RTVSPost2010PropOp55
 70
     1
102
RTVSPost2010Prop56
140
1.0
102
RTVSPost2010PropOp56
 70
     1
102
RTVSPost2010Prop57
140
1.0
102
RTVSPost2010PropOp57
 70
     1
  0
XRECORD
  5
285
102
{ACAD_REACTORS
330
284
102
}
330
284
100
AcDbXrecord
280
     1
102
RTVSPropertyOp0
 70
     1
102
RTVSPropertyOp1
 70
     1
102
RTVSPropertyOp2
 70
     1
102
RTVSPropertyOp3
 70
     1
102
RTVSPropertyOp4
 70
     1
102
RTVSPropertyOp5
 70
     1
102
RTVSPropertyOp6
 70
     1
102
RTVSPropertyOp7
 70
     1
102
RTVSPropertyOp8
 70
     1
102
RTVSPropertyOp9
 70
     1
102
RTVSPropertyOp10
 70
     1
102
RTVSPropertyOp11
 70
     1
102
RTVSPropertyOp12
 70
     1
102
RTVSPropertyOp13
 70
     1
102
RTVSPropertyOp14
 70
     1
102
RTVSPropertyOp15
 70
     1
102
RTVSPropertyOp16
 70
     1
102
RTVSPropertyOp17
 70
     1
102
RTVSPropertyOp18
 70
     1
102
RTVSPropertyOp19
 70
     1
102
RTVSPropertyOp20
 70
     1
102
RTVSPropertyOp21
 70
     1
102
RTVSPropertyOp22
 70
     1
102
RTVSPropertyOp23
 70
     1
102
RTVSPropertyOp24
 70
     1
102
RTVSPropertyOp25
 70
     1
102
RTVSPropertyOp26
 70
     1
102
RTVSPropertyOp27
 70
     1
102
RTVSPropertyOp28
 70
     1
102
RTVSPropertyOp29
 70
     1
102
RTVSPropertyOp30
 70
     1
102
RTVSPropertyOp31
 70
     1
102
RTVSPropertyOp32
 70
     1
102
RTVSPropertyOp33
 70
     1
102
RTVSPropertyOp34
 70
     1
102
RTVSPropertyOp35
 70
     1
102
RTVSPropertyOp36
 70
     1
102
RTVSPropertyOp37
 70
     1
102
RTVSPropertyOp38
 70
     1
102
RTVSPropertyOp39
 70
     1
102
RTVSPropertyOp40
 70
     1
102
RTVSPropertyOp41
 70
     1
102
RTVSPropertyOp42
 70
     1
102
RTVSPropertyOp43
 70
     1
102
RTVSPropertyOp44
 70
     1
102
RTVSPropertyOp45
 70
     1
102
RTVSPropertyOp46
 70
     1
102
RTVSPropertyOp47
 70
     1
102
RTVSPropertyOp48
 70
     1
102
RTVSPropertyOp49
 70
     1
102
RTVSPropertyOp50
 70
     1
102
RTVSPropertyOp51
 70
     0
102
RTVSPropertyOp52
 70
     0
102
RTVSPropertyOp53
 70
     1
102
RTVSPropertyOp54
 70
     1
102
RTVSPropertyOp55
 70
     1
102
RTVSPropertyOp56
 70
     1
102
RTVSPropertyOp57
 70
     1
102
RTVSPost2010Prop28
280
     0
102
RTVSPost2010PropOp28
 70
     1
102
RTVSPost2010Prop29
280
     1
102
RTVSPost2010PropOp29
 70
     1
102
RTVSPost2010Prop30
280
     1
102
RTVSPost2010PropOp30
 70
     1
102
RTVSPost2010Prop31
280
     0
102
RTVSPost2010PropOp31
 70
     1
102
RTVSPost2010Prop32
280
     0
102
RTVSPost2010PropOp32
 70
     1
102
RTVSPost2010Prop33
280
     0
102
RTVSPost2010PropOp33
 70
     1
102
RTVSPost2010Prop34
280
     0
102
RTVSPost2010PropOp34
 70
     1
102
RTVSPost2010Prop35
280
     0
102
RTVSPost2010PropOp35
 70
     1
102
RTVSPost2010Prop36
280
     0
102
RTVSPost2010PropOp36
 70
     1
102
RTVSPost2010Prop37
 90
       50
102
RTVSPost2010PropOp37
 70
     1
102
RTVSPost2010Prop38
140
0.0
102
RTVSPost2010PropOp38
 70
     1
102
RTVSPost2010Prop39
140
1.0
102
RTVSPost2010PropOp39
 70
     1
102
RTVSPost2010Prop40
 90
        0
102
RTVSPost2010PropOp40
 70
     1
102
RTVSPost2010Prop41ColorIndex
 90
       18
102
RTVSPost2010Prop41ColorRGB
 90
        0
102
RTVSPost2010PropOp41
 70
     1
102
RTVSPost2010Prop42
 90
       50
102
RTVSPost2010PropOp42
 70
     1
102
RTVSPost2010Prop43
 90
        3
102
RTVSPost2010PropOp43
 70
     1
102
RTVSPost2010Prop44ColorIndex
 90
        5
102
RTVSPost2010Prop44ColorRGB
 90
      255
102
RTVSPost2010PropOp44
 70
     1
102
RTVSPost2010Prop45
280
     0
102
RTVSPost2010PropOp45
 70
     1
102
RTVSPost2010Prop46
 90
       50
102
RTVSPost2010PropOp46
 70
     1
102
RTVSPost2010Prop47
 90
       50
102
RTVSPost2010PropOp47
 70
     1
102
RTVSPost2010Prop48
 90
       50
102
RTVSPost2010PropOp48
 70
     1
102
RTVSPost2010Prop49
280
     0
102
RTVSPost2010PropOp49
 70
     1
102
RTVSPost2010Prop50
 90
       50
102
RTVSPost2010PropOp50
 70
     1
102
RTVSPost2010Prop51ColorIndex
 90
      256
102
RTVSPost2010Prop51ColorRGB
 90
-16777216
102
RTVSPost2010PropOp51
 70
     0
102
RTVSPost2010Prop52
140
1.0
102
RTVSPost2010PropOp52
 70
     0
102
RTVSPost2010Prop53
 90
        2
102
RTVSPost2010PropOp53
 70
     1
102
RTVSPost2010Prop54
  1
strokes_ogs.tif
102
RTVSPost2010PropOp54
 70
     1
102
RTVSPost2010Prop55
280
     0
102
RTVSPost2010PropOp55
 70
     1
102
RTVSPost2010Prop56
140
1.0
102
RTVSPost2010PropOp56
 70
     1
102
RTVSPost2010Prop57
140
1.0
102
RTVSPost2010PropOp57
 70
     1
  0
XRECORD
  5
287
102
{ACAD_REACTORS
330
286
102
}
330
286
100
AcDbXrecord
280
     1
102
RTVSPropertyOp0
 70
     1
102
RTVSPropertyOp1
 70
     1
102
RTVSPropertyOp2
 70
     1
102
RTVSPropertyOp3
 70
     1
102
RTVSPropertyOp4
 70
     1
102
RTVSPropertyOp5
 70
     1
102
RTVSPropertyOp6
 70
     1
102
RTVSPropertyOp7
 70
     1
102
RTVSPropertyOp8
 70
     1
102
RTVSPropertyOp9
 70
     1
102
RTVSPropertyOp10
 70
     1
102
RTVSPropertyOp11
 70
     1
102
RTVSPropertyOp12
 70
     1
102
RTVSPropertyOp13
 70
     1
102
RTVSPropertyOp14
 70
     1
102
RTVSPropertyOp15
 70
     1
102
RTVSPropertyOp16
 70
     1
102
RTVSPropertyOp17
 70
     1
102
RTVSPropertyOp18
 70
     1
102
RTVSPropertyOp19
 70
     1
102
RTVSPropertyOp20
 70
     1
102
RTVSPropertyOp21
 70
     1
102
RTVSPropertyOp22
 70
     1
102
RTVSPropertyOp23
 70
     1
102
RTVSPropertyOp24
 70
     1
102
RTVSPropertyOp25
 70
     1
102
RTVSPropertyOp26
 70
     1
102
RTVSPropertyOp27
 70
     1
102
RTVSPropertyOp28
 70
     1
102
RTVSPropertyOp29
 70
     1
102
RTVSPropertyOp30
 70
     1
102
RTVSPropertyOp31
 70
     1
102
RTVSPropertyOp32
 70
     1
102
RTVSPropertyOp33
 70
     1
102
RTVSPropertyOp34
 70
     1
102
RTVSPropertyOp35
 70
     1
102
RTVSPropertyOp36
 70
     1
102
RTVSPropertyOp37
 70
     1
102
RTVSPropertyOp38
 70
     1
102
RTVSPropertyOp39
 70
     1
102
RTVSPropertyOp40
 70
     1
102
RTVSPropertyOp41
 70
     1
102
RTVSPropertyOp42
 70
     1
102
RTVSPropertyOp43
 70
     1
102
RTVSPropertyOp44
 70
     1
102
RTVSPropertyOp45
 70
     1
102
RTVSPropertyOp46
 70
     1
102
RTVSPropertyOp47
 70
     1
102
RTVSPropertyOp48
 70
     1
102
RTVSPropertyOp49
 70
     1
102
RTVSPropertyOp50
 70
     1
102
RTVSPropertyOp51
 70
     0
102
RTVSPropertyOp52
 70
     0
102
RTVSPropertyOp53
 70
     1
102
RTVSPropertyOp54
 70
     1
102
RTVSPropertyOp55
 70
     1
102
RTVSPropertyOp56
 70
     1
102
RTVSPropertyOp57
 70
     1
102
RTVSPost2010Prop28
280
     0
102
RTVSPost2010PropOp28
 70
     1
102
RTVSPost2010Prop29
280
     1
102
RTVSPost2010PropOp29
 70
     1
102
RTVSPost2010Prop30
280
     1
102
RTVSPost2010PropOp30
 70
     1
102
RTVSPost2010Prop31
280
     0
102
RTVSPost2010PropOp31
 70
     1
102
RTVSPost2010Prop32
280
     0
102
RTVSPost2010PropOp32
 70
     1
102
RTVSPost2010Prop33
280
     0
102
RTVSPost2010PropOp33
 70
     1
102
RTVSPost2010Prop34
280
     0
102
RTVSPost2010PropOp34
 70
     1
102
RTVSPost2010Prop35
280
     0
102
RTVSPost2010PropOp35
 70
     1
102
RTVSPost2010Prop36
280
     0
102
RTVSPost2010PropOp36
 70
     1
102
RTVSPost2010Prop37
 90
       50
102
RTVSPost2010PropOp37
 70
     1
102
RTVSPost2010Prop38
140
0.0
102
RTVSPost2010PropOp38
 70
     1
102
RTVSPost2010Prop39
140
1.0
102
RTVSPost2010PropOp39
 70
     1
102
RTVSPost2010Prop40
 90
        0
102
RTVSPost2010PropOp40
 70
     1
102
RTVSPost2010Prop41ColorIndex
 90
       18
102
RTVSPost2010Prop41ColorRGB
 90
        0
102
RTVSPost2010PropOp41
 70
     1
102
RTVSPost2010Prop42
 90
       50
102
RTVSPost2010PropOp42
 70
     1
102
RTVSPost2010Prop43
 90
        3
102
RTVSPost2010PropOp43
 70
     1
102
RTVSPost2010Prop44ColorIndex
 90
        5
102
RTVSPost2010Prop44ColorRGB
 90
      255
102
RTVSPost2010PropOp44
 70
     1
102
RTVSPost2010Prop45
280
     0
102
RTVSPost2010PropOp45
 70
     1
102
RTVSPost2010Prop46
 90
       50
102
RTVSPost2010PropOp46
 70
     1
102
RTVSPost2010Prop47
 90
       50
102
RTVSPost2010PropOp47
 70
     1
102
RTVSPost2010Prop48
 90
       50
102
RTVSPost2010PropOp48
 70
     1
102
RTVSPost2010Prop49
280
     0
102
RTVSPost2010PropOp49
 70
     1
102
RTVSPost2010Prop50
 90
       50
102
RTVSPost2010PropOp50
 70
     1
102
RTVSPost2010Prop51ColorIndex
 90
      256
102
RTVSPost2010Prop51ColorRGB
 90
-16777216
102
RTVSPost2010PropOp51
 70
     0
102
RTVSPost2010Prop52
140
1.0
102
RTVSPost2010PropOp52
 70
     0
102
RTVSPost2010Prop53
 90
        2
102
RTVSPost2010PropOp53
 70
     1
102
RTVSPost2010Prop54
  1
strokes_ogs.tif
102
RTVSPost2010PropOp54
 70
     1
102
RTVSPost2010Prop55
280
     0
102
RTVSPost2010PropOp55
 70
     1
102
RTVSPost2010Prop56
140
1.0
102
RTVSPost2010PropOp56
 70
     1
102
RTVSPost2010Prop57
140
1.0
102
RTVSPost2010PropOp57
 70
     1
  0
XRECORD
  5
297
102
{ACAD_REACTORS
330
296
102
}
330
296
100
AcDbXrecord
280
     1
102
RTVSPropertyOp0
 70
     0
102
RTVSPropertyOp1
 70
     0
102
RTVSPropertyOp2
 70
     0
102
RTVSPropertyOp3
 70
     0
102
RTVSPropertyOp4
 70
     0
102
RTVSPropertyOp5
 70
     0
102
RTVSPropertyOp6
 70
     0
102
RTVSPropertyOp7
 70
     0
102
RTVSPropertyOp8
 70
     0
102
RTVSPropertyOp9
 70
     0
102
RTVSPropertyOp10
 70
     0
102
RTVSPropertyOp11
 70
     0
102
RTVSPropertyOp12
 70
     0
102
RTVSPropertyOp13
 70
     0
102
RTVSPropertyOp14
 70
     2
102
RTVSPropertyOp15
 70
     0
102
RTVSPropertyOp16
 70
     0
102
RTVSPropertyOp17
 70
     0
102
RTVSPropertyOp18
 70
     0
102
RTVSPropertyOp19
 70
     0
102
RTVSPropertyOp20
 70
     0
102
RTVSPropertyOp21
 70
     0
102
RTVSPropertyOp22
 70
     0
102
RTVSPropertyOp23
 70
     0
102
RTVSPropertyOp24
 70
     0
102
RTVSPropertyOp25
 70
     0
102
RTVSPropertyOp26
 70
     0
102
RTVSPropertyOp27
 70
     0
102
RTVSPropertyOp28
 70
     0
102
RTVSPropertyOp29
 70
     0
102
RTVSPropertyOp30
 70
     0
102
RTVSPropertyOp31
 70
     0
102
RTVSPropertyOp32
 70
     0
102
RTVSPropertyOp33
 70
     0
102
RTVSPropertyOp34
 70
     0
102
RTVSPropertyOp35
 70
     0
102
RTVSPropertyOp36
 70
     0
102
RTVSPropertyOp37
 70
     0
102
RTVSPropertyOp38
 70
     0
102
RTVSPropertyOp39
 70
     0
102
RTVSPropertyOp40
 70
     0
102
RTVSPropertyOp41
 70
     0
102
RTVSPropertyOp42
 70
     0
102
RTVSPropertyOp43
 70
     0
102
RTVSPropertyOp44
 70
     0
102
RTVSPropertyOp45
 70
     0
102
RTVSPropertyOp46
 70
     0
102
RTVSPropertyOp47
 70
     0
102
RTVSPropertyOp48
 70
     0
102
RTVSPropertyOp49
 70
     0
102
RTVSPropertyOp50
 70
     0
102
RTVSPropertyOp51
 70
     0
102
RTVSPropertyOp52
 70
     0
102
RTVSPropertyOp53
 70
     0
102
RTVSPropertyOp54
 70
     0
102
RTVSPropertyOp55
 70
     0
102
RTVSPropertyOp56
 70
     0
102
RTVSPropertyOp57
 70
     0
102
RTVSPost2010Prop28
280
     0
102
RTVSPost2010PropOp28
 70
     0
102
RTVSPost2010Prop29
280
     1
102
RTVSPost2010PropOp29
 70
     0
102
RTVSPost2010Prop30
280
     1
102
RTVSPost2010PropOp30
 70
     0
102
RTVSPost2010Prop31
280
     0
102
RTVSPost2010PropOp31
 70
     0
102
RTVSPost2010Prop32
280
     0
102
RTVSPost2010PropOp32
 70
     0
102
RTVSPost2010Prop33
280
     0
102
RTVSPost2010PropOp33
 70
     0
102
RTVSPost2010Prop34
280
     0
102
RTVSPost2010PropOp34
 70
     0
102
RTVSPost2010Prop35
280
     0
102
RTVSPost2010PropOp35
 70
     0
102
RTVSPost2010Prop36
280
     0
102
RTVSPost2010PropOp36
 70
     0
102
RTVSPost2010Prop37
 90
       50
102
RTVSPost2010PropOp37
 70
     0
102
RTVSPost2010Prop38
140
0.0
102
RTVSPost2010PropOp38
 70
     0
102
RTVSPost2010Prop39
140
1.0
102
RTVSPost2010PropOp39
 70
     0
102
RTVSPost2010Prop40
 90
        0
102
RTVSPost2010PropOp40
 70
     0
102
RTVSPost2010Prop41ColorIndex
 90
       18
102
RTVSPost2010Prop41ColorRGB
 90
        0
102
RTVSPost2010PropOp41
 70
     0
102
RTVSPost2010Prop42
 90
       50
102
RTVSPost2010PropOp42
 70
     0
102
RTVSPost2010Prop43
 90
        3
102
RTVSPost2010PropOp43
 70
     0
102
RTVSPost2010Prop44ColorIndex
 90
        5
102
RTVSPost2010Prop44ColorRGB
 90
      255
102
RTVSPost2010PropOp44
 70
     0
102
RTVSPost2010Prop45
280
     0
102
RTVSPost2010PropOp45
 70
     0
102
RTVSPost2010Prop46
 90
       50
102
RTVSPost2010PropOp46
 70
     0
102
RTVSPost2010Prop47
 90
       50
102
RTVSPost2010PropOp47
 70
     0
102
RTVSPost2010Prop48
 90
       50
102
RTVSPost2010PropOp48
 70
     0
102
RTVSPost2010Prop49
280
     0
102
RTVSPost2010PropOp49
 70
     0
102
RTVSPost2010Prop50
 90
       50
102
RTVSPost2010PropOp50
 70
     0
102
RTVSPost2010Prop51ColorIndex
 90
      256
102
RTVSPost2010Prop51ColorRGB
 90
-16777216
102
RTVSPost2010PropOp51
 70
     0
102
RTVSPost2010Prop52
140
1.0
102
RTVSPost2010PropOp52
 70
     0
102
RTVSPost2010Prop53
 90
        2
102
RTVSPost2010PropOp53
 70
     0
102
RTVSPost2010Prop54
  1
strokes_ogs.tif
102
RTVSPost2010PropOp54
 70
     0
102
RTVSPost2010Prop55
280
     0
102
RTVSPost2010PropOp55
 70
     0
102
RTVSPost2010Prop56
140
1.0
102
RTVSPost2010PropOp56
 70
     0
102
RTVSPost2010Prop57
140
1.0
102
RTVSPost2010PropOp57
 70
     0
  0
XRECORD
  5
28F
102
{ACAD_REACTORS
330
28E
102
}
330
28E
100
AcDbXrecord
280
     1
102
RTVSPropertyOp0
 70
     1
102
RTVSPropertyOp1
 70
     1
102
RTVSPropertyOp2
 70
     1
102
RTVSPropertyOp3
 70
     1
102
RTVSPropertyOp4
 70
     1
102
RTVSPropertyOp5
 70
     1
102
RTVSPropertyOp6
 70
     1
102
RTVSPropertyOp7
 70
     1
102
RTVSPropertyOp8
 70
     1
102
RTVSPropertyOp9
 70
     1
102
RTVSPropertyOp10
 70
     1
102
RTVSPropertyOp11
 70
     1
102
RTVSPropertyOp12
 70
     1
102
RTVSPropertyOp13
 70
     1
102
RTVSPropertyOp14
 70
     1
102
RTVSPropertyOp15
 70
     1
102
RTVSPropertyOp16
 70
     1
102
RTVSPropertyOp17
 70
     1
102
RTVSPropertyOp18
 70
     1
102
RTVSPropertyOp19
 70
     1
102
RTVSPropertyOp20
 70
     1
102
RTVSPropertyOp21
 70
     1
102
RTVSPropertyOp22
 70
     1
102
RTVSPropertyOp23
 70
     1
102
RTVSPropertyOp24
 70
     1
102
RTVSPropertyOp25
 70
     1
102
RTVSPropertyOp26
 70
     1
102
RTVSPropertyOp27
 70
     1
102
RTVSPropertyOp28
 70
     1
102
RTVSPropertyOp29
 70
     1
102
RTVSPropertyOp30
 70
     1
102
RTVSPropertyOp31
 70
     1
102
RTVSPropertyOp32
 70
     1
102
RTVSPropertyOp33
 70
     1
102
RTVSPropertyOp34
 70
     1
102
RTVSPropertyOp35
 70
     1
102
RTVSPropertyOp36
 70
     1
102
RTVSPropertyOp37
 70
     1
102
RTVSPropertyOp38
 70
     1
102
RTVSPropertyOp39
 70
     1
102
RTVSPropertyOp40
 70
     1
102
RTVSPropertyOp41
 70
     1
102
RTVSPropertyOp42
 70
     1
102
RTVSPropertyOp43
 70
     1
102
RTVSPropertyOp44
 70
     1
102
RTVSPropertyOp45
 70
     1
102
RTVSPropertyOp46
 70
     1
102
RTVSPropertyOp47
 70
     1
102
RTVSPropertyOp48
 70
     1
102
RTVSPropertyOp49
 70
     1
102
RTVSPropertyOp50
 70
     1
102
RTVSPropertyOp51
 70
     0
102
RTVSPropertyOp52
 70
     0
102
RTVSPropertyOp53
 70
     1
102
RTVSPropertyOp54
 70
     1
102
RTVSPropertyOp55
 70
     1
102
RTVSPropertyOp56
 70
     1
102
RTVSPropertyOp57
 70
     1
102
RTVSPost2010Prop28
280
     0
102
RTVSPost2010PropOp28
 70
     1
102
RTVSPost2010Prop29
280
     1
102
RTVSPost2010PropOp29
 70
     1
102
RTVSPost2010Prop30
280
     1
102
RTVSPost2010PropOp30
 70
     1
102
RTVSPost2010Prop31
280
     0
102
RTVSPost2010PropOp31
 70
     1
102
RTVSPost2010Prop32
280
     0
102
RTVSPost2010PropOp32
 70
     1
102
RTVSPost2010Prop33
280
     0
102
RTVSPost2010PropOp33
 70
     1
102
RTVSPost2010Prop34
280
     0
102
RTVSPost2010PropOp34
 70
     1
102
RTVSPost2010Prop35
280
     0
102
RTVSPost2010PropOp35
 70
     1
102
RTVSPost2010Prop36
280
     0
102
RTVSPost2010PropOp36
 70
     1
102
RTVSPost2010Prop37
 90
       50
102
RTVSPost2010PropOp37
 70
     1
102
RTVSPost2010Prop38
140
0.0
102
RTVSPost2010PropOp38
 70
     1
102
RTVSPost2010Prop39
140
1.0
102
RTVSPost2010PropOp39
 70
     1
102
RTVSPost2010Prop40
 90
        0
102
RTVSPost2010PropOp40
 70
     1
102
RTVSPost2010Prop41ColorIndex
 90
       18
102
RTVSPost2010Prop41ColorRGB
 90
        0
102
RTVSPost2010PropOp41
 70
     1
102
RTVSPost2010Prop42
 90
       50
102
RTVSPost2010PropOp42
 70
     1
102
RTVSPost2010Prop43
 90
        3
102
RTVSPost2010PropOp43
 70
     1
102
RTVSPost2010Prop44ColorIndex
 90
        5
102
RTVSPost2010Prop44ColorRGB
 90
      255
102
RTVSPost2010PropOp44
 70
     1
102
RTVSPost2010Prop45
280
     0
102
RTVSPost2010PropOp45
 70
     1
102
RTVSPost2010Prop46
 90
       50
102
RTVSPost2010PropOp46
 70
     1
102
RTVSPost2010Prop47
 90
       50
102
RTVSPost2010PropOp47
 70
     1
102
RTVSPost2010Prop48
 90
       50
102
RTVSPost2010PropOp48
 70
     1
102
RTVSPost2010Prop49
280
     0
102
RTVSPost2010PropOp49
 70
     1
102
RTVSPost2010Prop50
 90
       50
102
RTVSPost2010PropOp50
 70
     1
102
RTVSPost2010Prop51ColorIndex
 90
      256
102
RTVSPost2010Prop51ColorRGB
 90
-16777216
102
RTVSPost2010PropOp51
 70
     0
102
RTVSPost2010Prop52
140
1.0
102
RTVSPost2010PropOp52
 70
     0
102
RTVSPost2010Prop53
 90
        2
102
RTVSPost2010PropOp53
 70
     1
102
RTVSPost2010Prop54
  1
strokes_ogs.tif
102
RTVSPost2010PropOp54
 70
     1
102
RTVSPost2010Prop55
280
     0
102
RTVSPost2010PropOp55
 70
     1
102
RTVSPost2010Prop56
140
1.0
102
RTVSPost2010PropOp56
 70
     1
102
RTVSPost2010Prop57
140
1.0
102
RTVSPost2010PropOp57
 70
     1
  0
XRECORD
  5
273
102
{ACAD_REACTORS
330
272
102
}
330
272
100
AcDbXrecord
280
     1
102
RTVSPropertyOp0
 70
     1
102
RTVSPropertyOp1
 70
     1
102
RTVSPropertyOp2
 70
     1
102
RTVSPropertyOp3
 70
     1
102
RTVSPropertyOp4
 70
     1
102
RTVSPropertyOp5
 70
     1
102
RTVSPropertyOp6
 70
     1
102
RTVSPropertyOp7
 70
     1
102
RTVSPropertyOp8
 70
     1
102
RTVSPropertyOp9
 70
     1
102
RTVSPropertyOp10
 70
     1
102
RTVSPropertyOp11
 70
     1
102
RTVSPropertyOp12
 70
     1
102
RTVSPropertyOp13
 70
     1
102
RTVSPropertyOp14
 70
     1
102
RTVSPropertyOp15
 70
     1
102
RTVSPropertyOp16
 70
     1
102
RTVSPropertyOp17
 70
     1
102
RTVSPropertyOp18
 70
     1
102
RTVSPropertyOp19
 70
     1
102
RTVSPropertyOp20
 70
     1
102
RTVSPropertyOp21
 70
     1
102
RTVSPropertyOp22
 70
     1
102
RTVSPropertyOp23
 70
     1
102
RTVSPropertyOp24
 70
     1
102
RTVSPropertyOp25
 70
     1
102
RTVSPropertyOp26
 70
     1
102
RTVSPropertyOp27
 70
     1
102
RTVSPropertyOp28
 70
     1
102
RTVSPropertyOp29
 70
     1
102
RTVSPropertyOp30
 70
     1
102
RTVSPropertyOp31
 70
     1
102
RTVSPropertyOp32
 70
     1
102
RTVSPropertyOp33
 70
     1
102
RTVSPropertyOp34
 70
     1
102
RTVSPropertyOp35
 70
     1
102
RTVSPropertyOp36
 70
     1
102
RTVSPropertyOp37
 70
     1
102
RTVSPropertyOp38
 70
     1
102
RTVSPropertyOp39
 70
     1
102
RTVSPropertyOp40
 70
     1
102
RTVSPropertyOp41
 70
     1
102
RTVSPropertyOp42
 70
     1
102
RTVSPropertyOp43
 70
     1
102
RTVSPropertyOp44
 70
     1
102
RTVSPropertyOp45
 70
     1
102
RTVSPropertyOp46
 70
     1
102
RTVSPropertyOp47
 70
     1
102
RTVSPropertyOp48
 70
     1
102
RTVSPropertyOp49
 70
     1
102
RTVSPropertyOp50
 70
     1
102
RTVSPropertyOp51
 70
     0
102
RTVSPropertyOp52
 70
     0
102
RTVSPropertyOp53
 70
     1
102
RTVSPropertyOp54
 70
     1
102
RTVSPropertyOp55
 70
     1
102
RTVSPropertyOp56
 70
     1
102
RTVSPropertyOp57
 70
     1
102
RTVSPost2010Prop28
280
     0
102
RTVSPost2010PropOp28
 70
     1
102
RTVSPost2010Prop29
280
     1
102
RTVSPost2010PropOp29
 70
     1
102
RTVSPost2010Prop30
280
     1
102
RTVSPost2010PropOp30
 70
     1
102
RTVSPost2010Prop31
280
     0
102
RTVSPost2010PropOp31
 70
     1
102
RTVSPost2010Prop32
280
     0
102
RTVSPost2010PropOp32
 70
     1
102
RTVSPost2010Prop33
280
     0
102
RTVSPost2010PropOp33
 70
     1
102
RTVSPost2010Prop34
280
     0
102
RTVSPost2010PropOp34
 70
     1
102
RTVSPost2010Prop35
280
     0
102
RTVSPost2010PropOp35
 70
     1
102
RTVSPost2010Prop36
280
     0
102
RTVSPost2010PropOp36
 70
     1
102
RTVSPost2010Prop37
 90
       50
102
RTVSPost2010PropOp37
 70
     1
102
RTVSPost2010Prop38
140
0.0
102
RTVSPost2010PropOp38
 70
     1
102
RTVSPost2010Prop39
140
1.0
102
RTVSPost2010PropOp39
 70
     1
102
RTVSPost2010Prop40
 90
        0
102
RTVSPost2010PropOp40
 70
     1
102
RTVSPost2010Prop41ColorIndex
 90
       18
102
RTVSPost2010Prop41ColorRGB
 90
        0
102
RTVSPost2010PropOp41
 70
     1
102
RTVSPost2010Prop42
 90
       50
102
RTVSPost2010PropOp42
 70
     1
102
RTVSPost2010Prop43
 90
        3
102
RTVSPost2010PropOp43
 70
     1
102
RTVSPost2010Prop44ColorIndex
 90
        5
102
RTVSPost2010Prop44ColorRGB
 90
      255
102
RTVSPost2010PropOp44
 70
     1
102
RTVSPost2010Prop45
280
     0
102
RTVSPost2010PropOp45
 70
     1
102
RTVSPost2010Prop46
 90
       50
102
RTVSPost2010PropOp46
 70
     1
102
RTVSPost2010Prop47
 90
       50
102
RTVSPost2010PropOp47
 70
     1
102
RTVSPost2010Prop48
 90
       50
102
RTVSPost2010PropOp48
 70
     1
102
RTVSPost2010Prop49
280
     0
102
RTVSPost2010PropOp49
 70
     1
102
RTVSPost2010Prop50
 90
       50
102
RTVSPost2010PropOp50
 70
     1
102
RTVSPost2010Prop51ColorIndex
 90
      256
102
RTVSPost2010Prop51ColorRGB
 90
-16777216
102
RTVSPost2010PropOp51
 70
     0
102
RTVSPost2010Prop52
140
1.0
102
RTVSPost2010PropOp52
 70
     0
102
RTVSPost2010Prop53
 90
        2
102
RTVSPost2010PropOp53
 70
     1
102
RTVSPost2010Prop54
  1
strokes_ogs.tif
102
RTVSPost2010PropOp54
 70
     1
102
RTVSPost2010Prop55
280
     0
102
RTVSPost2010PropOp55
 70
     1
102
RTVSPost2010Prop56
140
1.0
102
RTVSPost2010PropOp56
 70
     1
102
RTVSPost2010Prop57
140
1.0
102
RTVSPost2010PropOp57
 70
     1
  0
XRECORD
  5
275
102
{ACAD_REACTORS
330
274
102
}
330
274
100
AcDbXrecord
280
     1
102
RTVSPropertyOp0
 70
     1
102
RTVSPropertyOp1
 70
     1
102
RTVSPropertyOp2
 70
     1
102
RTVSPropertyOp3
 70
     1
102
RTVSPropertyOp4
 70
     1
102
RTVSPropertyOp5
 70
     1
102
RTVSPropertyOp6
 70
     1
102
RTVSPropertyOp7
 70
     1
102
RTVSPropertyOp8
 70
     1
102
RTVSPropertyOp9
 70
     1
102
RTVSPropertyOp10
 70
     1
102
RTVSPropertyOp11
 70
     1
102
RTVSPropertyOp12
 70
     1
102
RTVSPropertyOp13
 70
     1
102
RTVSPropertyOp14
 70
     1
102
RTVSPropertyOp15
 70
     1
102
RTVSPropertyOp16
 70
     1
102
RTVSPropertyOp17
 70
     1
102
RTVSPropertyOp18
 70
     1
102
RTVSPropertyOp19
 70
     1
102
RTVSPropertyOp20
 70
     1
102
RTVSPropertyOp21
 70
     1
102
RTVSPropertyOp22
 70
     1
102
RTVSPropertyOp23
 70
     1
102
RTVSPropertyOp24
 70
     1
102
RTVSPropertyOp25
 70
     1
102
RTVSPropertyOp26
 70
     1
102
RTVSPropertyOp27
 70
     1
102
RTVSPropertyOp28
 70
     1
102
RTVSPropertyOp29
 70
     1
102
RTVSPropertyOp30
 70
     1
102
RTVSPropertyOp31
 70
     1
102
RTVSPropertyOp32
 70
     1
102
RTVSPropertyOp33
 70
     1
102
RTVSPropertyOp34
 70
     1
102
RTVSPropertyOp35
 70
     1
102
RTVSPropertyOp36
 70
     1
102
RTVSPropertyOp37
 70
     1
102
RTVSPropertyOp38
 70
     1
102
RTVSPropertyOp39
 70
     1
102
RTVSPropertyOp40
 70
     1
102
RTVSPropertyOp41
 70
     1
102
RTVSPropertyOp42
 70
     1
102
RTVSPropertyOp43
 70
     1
102
RTVSPropertyOp44
 70
     1
102
RTVSPropertyOp45
 70
     1
102
RTVSPropertyOp46
 70
     1
102
RTVSPropertyOp47
 70
     1
102
RTVSPropertyOp48
 70
     1
102
RTVSPropertyOp49
 70
     1
102
RTVSPropertyOp50
 70
     1
102
RTVSPropertyOp51
 70
     0
102
RTVSPropertyOp52
 70
     0
102
RTVSPropertyOp53
 70
     1
102
RTVSPropertyOp54
 70
     1
102
RTVSPropertyOp55
 70
     1
102
RTVSPropertyOp56
 70
     1
102
RTVSPropertyOp57
 70
     1
102
RTVSPost2010Prop28
280
     0
102
RTVSPost2010PropOp28
 70
     1
102
RTVSPost2010Prop29
280
     1
102
RTVSPost2010PropOp29
 70
     1
102
RTVSPost2010Prop30
280
     1
102
RTVSPost2010PropOp30
 70
     1
102
RTVSPost2010Prop31
280
     0
102
RTVSPost2010PropOp31
 70
     1
102
RTVSPost2010Prop32
280
     0
102
RTVSPost2010PropOp32
 70
     1
102
RTVSPost2010Prop33
280
     0
102
RTVSPost2010PropOp33
 70
     1
102
RTVSPost2010Prop34
280
     0
102
RTVSPost2010PropOp34
 70
     1
102
RTVSPost2010Prop35
280
     0
102
RTVSPost2010PropOp35
 70
     1
102
RTVSPost2010Prop36
280
     0
102
RTVSPost2010PropOp36
 70
     1
102
RTVSPost2010Prop37
 90
       50
102
RTVSPost2010PropOp37
 70
     1
102
RTVSPost2010Prop38
140
0.0
102
RTVSPost2010PropOp38
 70
     1
102
RTVSPost2010Prop39
140
1.0
102
RTVSPost2010PropOp39
 70
     1
102
RTVSPost2010Prop40
 90
        0
102
RTVSPost2010PropOp40
 70
     1
102
RTVSPost2010Prop41ColorIndex
 90
       18
102
RTVSPost2010Prop41ColorRGB
 90
        0
102
RTVSPost2010PropOp41
 70
     1
102
RTVSPost2010Prop42
 90
       50
102
RTVSPost2010PropOp42
 70
     1
102
RTVSPost2010Prop43
 90
        3
102
RTVSPost2010PropOp43
 70
     1
102
RTVSPost2010Prop44ColorIndex
 90
        5
102
RTVSPost2010Prop44ColorRGB
 90
      255
102
RTVSPost2010PropOp44
 70
     1
102
RTVSPost2010Prop45
280
     0
102
RTVSPost2010PropOp45
 70
     1
102
RTVSPost2010Prop46
 90
       50
102
RTVSPost2010PropOp46
 70
     1
102
RTVSPost2010Prop47
 90
       50
102
RTVSPost2010PropOp47
 70
     1
102
RTVSPost2010Prop48
 90
       50
102
RTVSPost2010PropOp48
 70
     1
102
RTVSPost2010Prop49
280
     0
102
RTVSPost2010PropOp49
 70
     1
102
RTVSPost2010Prop50
 90
       50
102
RTVSPost2010PropOp50
 70
     1
102
RTVSPost2010Prop51ColorIndex
 90
      256
102
RTVSPost2010Prop51ColorRGB
 90
-16777216
102
RTVSPost2010PropOp51
 70
     0
102
RTVSPost2010Prop52
140
1.0
102
RTVSPost2010PropOp52
 70
     0
102
RTVSPost2010Prop53
 90
        2
102
RTVSPost2010PropOp53
 70
     1
102
RTVSPost2010Prop54
  1
strokes_ogs.tif
102
RTVSPost2010PropOp54
 70
     1
102
RTVSPost2010Prop55
280
     0
102
RTVSPost2010PropOp55
 70
     1
102
RTVSPost2010Prop56
140
1.0
102
RTVSPost2010PropOp56
 70
     1
102
RTVSPost2010Prop57
140
1.0
102
RTVSPost2010PropOp57
 70
     1
  0
XRECORD
  5
277
102
{ACAD_REACTORS
330
276
102
}
330
276
100
AcDbXrecord
280
     1
102
RTVSPropertyOp0
 70
     1
102
RTVSPropertyOp1
 70
     1
102
RTVSPropertyOp2
 70
     1
102
RTVSPropertyOp3
 70
     1
102
RTVSPropertyOp4
 70
     1
102
RTVSPropertyOp5
 70
     1
102
RTVSPropertyOp6
 70
     1
102
RTVSPropertyOp7
 70
     1
102
RTVSPropertyOp8
 70
     1
102
RTVSPropertyOp9
 70
     1
102
RTVSPropertyOp10
 70
     1
102
RTVSPropertyOp11
 70
     1
102
RTVSPropertyOp12
 70
     1
102
RTVSPropertyOp13
 70
     1
102
RTVSPropertyOp14
 70
     1
102
RTVSPropertyOp15
 70
     1
102
RTVSPropertyOp16
 70
     1
102
RTVSPropertyOp17
 70
     1
102
RTVSPropertyOp18
 70
     1
102
RTVSPropertyOp19
 70
     1
102
RTVSPropertyOp20
 70
     1
102
RTVSPropertyOp21
 70
     1
102
RTVSPropertyOp22
 70
     1
102
RTVSPropertyOp23
 70
     1
102
RTVSPropertyOp24
 70
     1
102
RTVSPropertyOp25
 70
     1
102
RTVSPropertyOp26
 70
     1
102
RTVSPropertyOp27
 70
     1
102
RTVSPropertyOp28
 70
     1
102
RTVSPropertyOp29
 70
     1
102
RTVSPropertyOp30
 70
     1
102
RTVSPropertyOp31
 70
     1
102
RTVSPropertyOp32
 70
     1
102
RTVSPropertyOp33
 70
     1
102
RTVSPropertyOp34
 70
     1
102
RTVSPropertyOp35
 70
     1
102
RTVSPropertyOp36
 70
     1
102
RTVSPropertyOp37
 70
     1
102
RTVSPropertyOp38
 70
     1
102
RTVSPropertyOp39
 70
     1
102
RTVSPropertyOp40
 70
     1
102
RTVSPropertyOp41
 70
     1
102
RTVSPropertyOp42
 70
     1
102
RTVSPropertyOp43
 70
     1
102
RTVSPropertyOp44
 70
     1
102
RTVSPropertyOp45
 70
     1
102
RTVSPropertyOp46
 70
     1
102
RTVSPropertyOp47
 70
     1
102
RTVSPropertyOp48
 70
     1
102
RTVSPropertyOp49
 70
     1
102
RTVSPropertyOp50
 70
     1
102
RTVSPropertyOp51
 70
     0
102
RTVSPropertyOp52
 70
     0
102
RTVSPropertyOp53
 70
     1
102
RTVSPropertyOp54
 70
     1
102
RTVSPropertyOp55
 70
     1
102
RTVSPropertyOp56
 70
     1
102
RTVSPropertyOp57
 70
     1
102
RTVSPost2010Prop28
280
     0
102
RTVSPost2010PropOp28
 70
     1
102
RTVSPost2010Prop29
280
     1
102
RTVSPost2010PropOp29
 70
     1
102
RTVSPost2010Prop30
280
     1
102
RTVSPost2010PropOp30
 70
     1
102
RTVSPost2010Prop31
280
     0
102
RTVSPost2010PropOp31
 70
     1
102
RTVSPost2010Prop32
280
     0
102
RTVSPost2010PropOp32
 70
     1
102
RTVSPost2010Prop33
280
     0
102
RTVSPost2010PropOp33
 70
     1
102
RTVSPost2010Prop34
280
     0
102
RTVSPost2010PropOp34
 70
     1
102
RTVSPost2010Prop35
280
     0
102
RTVSPost2010PropOp35
 70
     1
102
RTVSPost2010Prop36
280
     0
102
RTVSPost2010PropOp36
 70
     1
102
RTVSPost2010Prop37
 90
       50
102
RTVSPost2010PropOp37
 70
     1
102
RTVSPost2010Prop38
140
0.0
102
RTVSPost2010PropOp38
 70
     1
102
RTVSPost2010Prop39
140
1.0
102
RTVSPost2010PropOp39
 70
     1
102
RTVSPost2010Prop40
 90
        0
102
RTVSPost2010PropOp40
 70
     1
102
RTVSPost2010Prop41ColorIndex
 90
       18
102
RTVSPost2010Prop41ColorRGB
 90
        0
102
RTVSPost2010PropOp41
 70
     1
102
RTVSPost2010Prop42
 90
       50
102
RTVSPost2010PropOp42
 70
     1
102
RTVSPost2010Prop43
 90
        3
102
RTVSPost2010PropOp43
 70
     1
102
RTVSPost2010Prop44ColorIndex
 90
        5
102
RTVSPost2010Prop44ColorRGB
 90
      255
102
RTVSPost2010PropOp44
 70
     1
102
RTVSPost2010Prop45
280
     0
102
RTVSPost2010PropOp45
 70
     1
102
RTVSPost2010Prop46
 90
       50
102
RTVSPost2010PropOp46
 70
     1
102
RTVSPost2010Prop47
 90
       50
102
RTVSPost2010PropOp47
 70
     1
102
RTVSPost2010Prop48
 90
       50
102
RTVSPost2010PropOp48
 70
     1
102
RTVSPost2010Prop49
280
     0
102
RTVSPost2010PropOp49
 70
     1
102
RTVSPost2010Prop50
 90
       50
102
RTVSPost2010PropOp50
 70
     1
102
RTVSPost2010Prop51ColorIndex
 90
      256
102
RTVSPost2010Prop51ColorRGB
 90
-16777216
102
RTVSPost2010PropOp51
 70
     0
102
RTVSPost2010Prop52
140
1.0
102
RTVSPost2010PropOp52
 70
     0
102
RTVSPost2010Prop53
 90
        2
102
RTVSPost2010PropOp53
 70
     1
102
RTVSPost2010Prop54
  1
strokes_ogs.tif
102
RTVSPost2010PropOp54
 70
     1
102
RTVSPost2010Prop55
280
     0
102
RTVSPost2010PropOp55
 70
     1
102
RTVSPost2010Prop56
140
1.0
102
RTVSPost2010PropOp56
 70
     1
102
RTVSPost2010Prop57
140
1.0
102
RTVSPost2010PropOp57
 70
     1
  0
XRECORD
  5
279
102
{ACAD_REACTORS
330
278
102
}
330
278
100
AcDbXrecord
280
     1
102
RTVSPropertyOp0
 70
     1
102
RTVSPropertyOp1
 70
     1
102
RTVSPropertyOp2
 70
     1
102
RTVSPropertyOp3
 70
     1
102
RTVSPropertyOp4
 70
     1
102
RTVSPropertyOp5
 70
     1
102
RTVSPropertyOp6
 70
     1
102
RTVSPropertyOp7
 70
     1
102
RTVSPropertyOp8
 70
     1
102
RTVSPropertyOp9
 70
     1
102
RTVSPropertyOp10
 70
     1
102
RTVSPropertyOp11
 70
     1
102
RTVSPropertyOp12
 70
     1
102
RTVSPropertyOp13
 70
     1
102
RTVSPropertyOp14
 70
     1
102
RTVSPropertyOp15
 70
     1
102
RTVSPropertyOp16
 70
     1
102
RTVSPropertyOp17
 70
     1
102
RTVSPropertyOp18
 70
     1
102
RTVSPropertyOp19
 70
     1
102
RTVSPropertyOp20
 70
     1
102
RTVSPropertyOp21
 70
     1
102
RTVSPropertyOp22
 70
     1
102
RTVSPropertyOp23
 70
     1
102
RTVSPropertyOp24
 70
     1
102
RTVSPropertyOp25
 70
     1
102
RTVSPropertyOp26
 70
     1
102
RTVSPropertyOp27
 70
     1
102
RTVSPropertyOp28
 70
     1
102
RTVSPropertyOp29
 70
     1
102
RTVSPropertyOp30
 70
     1
102
RTVSPropertyOp31
 70
     1
102
RTVSPropertyOp32
 70
     1
102
RTVSPropertyOp33
 70
     1
102
RTVSPropertyOp34
 70
     1
102
RTVSPropertyOp35
 70
     1
102
RTVSPropertyOp36
 70
     1
102
RTVSPropertyOp37
 70
     1
102
RTVSPropertyOp38
 70
     1
102
RTVSPropertyOp39
 70
     1
102
RTVSPropertyOp40
 70
     1
102
RTVSPropertyOp41
 70
     1
102
RTVSPropertyOp42
 70
     1
102
RTVSPropertyOp43
 70
     1
102
RTVSPropertyOp44
 70
     1
102
RTVSPropertyOp45
 70
     1
102
RTVSPropertyOp46
 70
     1
102
RTVSPropertyOp47
 70
     1
102
RTVSPropertyOp48
 70
     1
102
RTVSPropertyOp49
 70
     1
102
RTVSPropertyOp50
 70
     1
102
RTVSPropertyOp51
 70
     0
102
RTVSPropertyOp52
 70
     0
102
RTVSPropertyOp53
 70
     1
102
RTVSPropertyOp54
 70
     1
102
RTVSPropertyOp55
 70
     1
102
RTVSPropertyOp56
 70
     1
102
RTVSPropertyOp57
 70
     1
102
RTVSPost2010Prop28
280
     0
102
RTVSPost2010PropOp28
 70
     1
102
RTVSPost2010Prop29
280
     1
102
RTVSPost2010PropOp29
 70
     1
102
RTVSPost2010Prop30
280
     1
102
RTVSPost2010PropOp30
 70
     1
102
RTVSPost2010Prop31
280
     0
102
RTVSPost2010PropOp31
 70
     1
102
RTVSPost2010Prop32
280
     0
102
RTVSPost2010PropOp32
 70
     1
102
RTVSPost2010Prop33
280
     0
102
RTVSPost2010PropOp33
 70
     1
102
RTVSPost2010Prop34
280
     0
102
RTVSPost2010PropOp34
 70
     1
102
RTVSPost2010Prop35
280
     0
102
RTVSPost2010PropOp35
 70
     1
102
RTVSPost2010Prop36
280
     0
102
RTVSPost2010PropOp36
 70
     1
102
RTVSPost2010Prop37
 90
       50
102
RTVSPost2010PropOp37
 70
     1
102
RTVSPost2010Prop38
140
0.0
102
RTVSPost2010PropOp38
 70
     1
102
RTVSPost2010Prop39
140
1.0
102
RTVSPost2010PropOp39
 70
     1
102
RTVSPost2010Prop40
 90
        0
102
RTVSPost2010PropOp40
 70
     1
102
RTVSPost2010Prop41ColorIndex
 90
       18
102
RTVSPost2010Prop41ColorRGB
 90
        0
102
RTVSPost2010PropOp41
 70
     1
102
RTVSPost2010Prop42
 90
       50
102
RTVSPost2010PropOp42
 70
     1
102
RTVSPost2010Prop43
 90
        3
102
RTVSPost2010PropOp43
 70
     1
102
RTVSPost2010Prop44ColorIndex
 90
        5
102
RTVSPost2010Prop44ColorRGB
 90
      255
102
RTVSPost2010PropOp44
 70
     1
102
RTVSPost2010Prop45
280
     0
102
RTVSPost2010PropOp45
 70
     1
102
RTVSPost2010Prop46
 90
       50
102
RTVSPost2010PropOp46
 70
     1
102
RTVSPost2010Prop47
 90
       50
102
RTVSPost2010PropOp47
 70
     1
102
RTVSPost2010Prop48
 90
       50
102
RTVSPost2010PropOp48
 70
     1
102
RTVSPost2010Prop49
280
     0
102
RTVSPost2010PropOp49
 70
     1
102
RTVSPost2010Prop50
 90
       50
102
RTVSPost2010PropOp50
 70
     1
102
RTVSPost2010Prop51ColorIndex
 90
      256
102
RTVSPost2010Prop51ColorRGB
 90
-16777216
102
RTVSPost2010PropOp51
 70
     0
102
RTVSPost2010Prop52
140
1.0
102
RTVSPost2010PropOp52
 70
     0
102
RTVSPost2010Prop53
 90
        2
102
RTVSPost2010PropOp53
 70
     1
102
RTVSPost2010Prop54
  1
strokes_ogs.tif
102
RTVSPost2010PropOp54
 70
     1
102
RTVSPost2010Prop55
280
     0
102
RTVSPost2010PropOp55
 70
     1
102
RTVSPost2010Prop56
140
1.0
102
RTVSPost2010PropOp56
 70
     1
102
RTVSPost2010Prop57
140
1.0
102
RTVSPost2010PropOp57
 70
     1
  0
XRECORD
  5
27F
102
{ACAD_REACTORS
330
27E
102
}
330
27E
100
AcDbXrecord
280
     1
102
RTVSPropertyOp0
 70
     1
102
RTVSPropertyOp1
 70
     1
102
RTVSPropertyOp2
 70
     1
102
RTVSPropertyOp3
 70
     1
102
RTVSPropertyOp4
 70
     1
102
RTVSPropertyOp5
 70
     1
102
RTVSPropertyOp6
 70
     1
102
RTVSPropertyOp7
 70
     1
102
RTVSPropertyOp8
 70
     1
102
RTVSPropertyOp9
 70
     1
102
RTVSPropertyOp10
 70
     1
102
RTVSPropertyOp11
 70
     1
102
RTVSPropertyOp12
 70
     1
102
RTVSPropertyOp13
 70
     1
102
RTVSPropertyOp14
 70
     1
102
RTVSPropertyOp15
 70
     1
102
RTVSPropertyOp16
 70
     1
102
RTVSPropertyOp17
 70
     1
102
RTVSPropertyOp18
 70
     1
102
RTVSPropertyOp19
 70
     1
102
RTVSPropertyOp20
 70
     1
102
RTVSPropertyOp21
 70
     1
102
RTVSPropertyOp22
 70
     1
102
RTVSPropertyOp23
 70
     1
102
RTVSPropertyOp24
 70
     1
102
RTVSPropertyOp25
 70
     1
102
RTVSPropertyOp26
 70
     1
102
RTVSPropertyOp27
 70
     1
102
RTVSPropertyOp28
 70
     1
102
RTVSPropertyOp29
 70
     1
102
RTVSPropertyOp30
 70
     1
102
RTVSPropertyOp31
 70
     1
102
RTVSPropertyOp32
 70
     1
102
RTVSPropertyOp33
 70
     1
102
RTVSPropertyOp34
 70
     1
102
RTVSPropertyOp35
 70
     1
102
RTVSPropertyOp36
 70
     1
102
RTVSPropertyOp37
 70
     1
102
RTVSPropertyOp38
 70
     1
102
RTVSPropertyOp39
 70
     1
102
RTVSPropertyOp40
 70
     1
102
RTVSPropertyOp41
 70
     1
102
RTVSPropertyOp42
 70
     1
102
RTVSPropertyOp43
 70
     1
102
RTVSPropertyOp44
 70
     1
102
RTVSPropertyOp45
 70
     1
102
RTVSPropertyOp46
 70
     1
102
RTVSPropertyOp47
 70
     1
102
RTVSPropertyOp48
 70
     1
102
RTVSPropertyOp49
 70
     1
102
RTVSPropertyOp50
 70
     1
102
RTVSPropertyOp51
 70
     0
102
RTVSPropertyOp52
 70
     0
102
RTVSPropertyOp53
 70
     1
102
RTVSPropertyOp54
 70
     1
102
RTVSPropertyOp55
 70
     1
102
RTVSPropertyOp56
 70
     1
102
RTVSPropertyOp57
 70
     1
102
RTVSPost2010Prop28
280
     0
102
RTVSPost2010PropOp28
 70
     1
102
RTVSPost2010Prop29
280
     1
102
RTVSPost2010PropOp29
 70
     1
102
RTVSPost2010Prop30
280
     1
102
RTVSPost2010PropOp30
 70
     1
102
RTVSPost2010Prop31
280
     0
102
RTVSPost2010PropOp31
 70
     1
102
RTVSPost2010Prop32
280
     0
102
RTVSPost2010PropOp32
 70
     1
102
RTVSPost2010Prop33
280
     0
102
RTVSPost2010PropOp33
 70
     1
102
RTVSPost2010Prop34
280
     0
102
RTVSPost2010PropOp34
 70
     1
102
RTVSPost2010Prop35
280
     0
102
RTVSPost2010PropOp35
 70
     1
102
RTVSPost2010Prop36
280
     0
102
RTVSPost2010PropOp36
 70
     1
102
RTVSPost2010Prop37
 90
       50
102
RTVSPost2010PropOp37
 70
     1
102
RTVSPost2010Prop38
140
0.0
102
RTVSPost2010PropOp38
 70
     1
102
RTVSPost2010Prop39
140
1.0
102
RTVSPost2010PropOp39
 70
     1
102
RTVSPost2010Prop40
 90
        0
102
RTVSPost2010PropOp40
 70
     1
102
RTVSPost2010Prop41ColorIndex
 90
       18
102
RTVSPost2010Prop41ColorRGB
 90
        0
102
RTVSPost2010PropOp41
 70
     1
102
RTVSPost2010Prop42
 90
       50
102
RTVSPost2010PropOp42
 70
     1
102
RTVSPost2010Prop43
 90
        3
102
RTVSPost2010PropOp43
 70
     1
102
RTVSPost2010Prop44ColorIndex
 90
        5
102
RTVSPost2010Prop44ColorRGB
 90
      255
102
RTVSPost2010PropOp44
 70
     1
102
RTVSPost2010Prop45
280
     0
102
RTVSPost2010PropOp45
 70
     1
102
RTVSPost2010Prop46
 90
       50
102
RTVSPost2010PropOp46
 70
     1
102
RTVSPost2010Prop47
 90
       50
102
RTVSPost2010PropOp47
 70
     1
102
RTVSPost2010Prop48
 90
       50
102
RTVSPost2010PropOp48
 70
     1
102
RTVSPost2010Prop49
280
     0
102
RTVSPost2010PropOp49
 70
     1
102
RTVSPost2010Prop50
 90
       50
102
RTVSPost2010PropOp50
 70
     1
102
RTVSPost2010Prop51ColorIndex
 90
      256
102
RTVSPost2010Prop51ColorRGB
 90
-16777216
102
RTVSPost2010PropOp51
 70
     0
102
RTVSPost2010Prop52
140
1.0
102
RTVSPost2010PropOp52
 70
     0
102
RTVSPost2010Prop53
 90
        2
102
RTVSPost2010PropOp53
 70
     1
102
RTVSPost2010Prop54
  1
strokes_ogs.tif
102
RTVSPost2010PropOp54
 70
     1
102
RTVSPost2010Prop55
280
     0
102
RTVSPost2010PropOp55
 70
     1
102
RTVSPost2010Prop56
140
1.0
102
RTVSPost2010PropOp56
 70
     1
102
RTVSPost2010Prop57
140
1.0
102
RTVSPost2010PropOp57
 70
     1
  0
XRECORD
  5
293
102
{ACAD_REACTORS
330
292
102
}
330
292
100
AcDbXrecord
280
     1
102
RTVSPropertyOp0
 70
     0
102
RTVSPropertyOp1
 70
     0
102
RTVSPropertyOp2
 70
     0
102
RTVSPropertyOp3
 70
     0
102
RTVSPropertyOp4
 70
     0
102
RTVSPropertyOp5
 70
     0
102
RTVSPropertyOp6
 70
     0
102
RTVSPropertyOp7
 70
     0
102
RTVSPropertyOp8
 70
     0
102
RTVSPropertyOp9
 70
     0
102
RTVSPropertyOp10
 70
     0
102
RTVSPropertyOp11
 70
     0
102
RTVSPropertyOp12
 70
     0
102
RTVSPropertyOp13
 70
     0
102
RTVSPropertyOp14
 70
     2
102
RTVSPropertyOp15
 70
     0
102
RTVSPropertyOp16
 70
     0
102
RTVSPropertyOp17
 70
     0
102
RTVSPropertyOp18
 70
     0
102
RTVSPropertyOp19
 70
     0
102
RTVSPropertyOp20
 70
     0
102
RTVSPropertyOp21
 70
     0
102
RTVSPropertyOp22
 70
     0
102
RTVSPropertyOp23
 70
     0
102
RTVSPropertyOp24
 70
     0
102
RTVSPropertyOp25
 70
     0
102
RTVSPropertyOp26
 70
     0
102
RTVSPropertyOp27
 70
     0
102
RTVSPropertyOp28
 70
     0
102
RTVSPropertyOp29
 70
     0
102
RTVSPropertyOp30
 70
     0
102
RTVSPropertyOp31
 70
     0
102
RTVSPropertyOp32
 70
     0
102
RTVSPropertyOp33
 70
     0
102
RTVSPropertyOp34
 70
     0
102
RTVSPropertyOp35
 70
     0
102
RTVSPropertyOp36
 70
     0
102
RTVSPropertyOp37
 70
     0
102
RTVSPropertyOp38
 70
     0
102
RTVSPropertyOp39
 70
     0
102
RTVSPropertyOp40
 70
     0
102
RTVSPropertyOp41
 70
     0
102
RTVSPropertyOp42
 70
     0
102
RTVSPropertyOp43
 70
     0
102
RTVSPropertyOp44
 70
     0
102
RTVSPropertyOp45
 70
     0
102
RTVSPropertyOp46
 70
     0
102
RTVSPropertyOp47
 70
     0
102
RTVSPropertyOp48
 70
     0
102
RTVSPropertyOp49
 70
     0
102
RTVSPropertyOp50
 70
     0
102
RTVSPropertyOp51
 70
     0
102
RTVSPropertyOp52
 70
     0
102
RTVSPropertyOp53
 70
     0
102
RTVSPropertyOp54
 70
     0
102
RTVSPropertyOp55
 70
     0
102
RTVSPropertyOp56
 70
     0
102
RTVSPropertyOp57
 70
     0
102
RTVSPost2010Prop28
280
     0
102
RTVSPost2010PropOp28
 70
     0
102
RTVSPost2010Prop29
280
     1
102
RTVSPost2010PropOp29
 70
     0
102
RTVSPost2010Prop30
280
     1
102
RTVSPost2010PropOp30
 70
     0
102
RTVSPost2010Prop31
280
     0
102
RTVSPost2010PropOp31
 70
     0
102
RTVSPost2010Prop32
280
     0
102
RTVSPost2010PropOp32
 70
     0
102
RTVSPost2010Prop33
280
     0
102
RTVSPost2010PropOp33
 70
     0
102
RTVSPost2010Prop34
280
     0
102
RTVSPost2010PropOp34
 70
     0
102
RTVSPost2010Prop35
280
     0
102
RTVSPost2010PropOp35
 70
     0
102
RTVSPost2010Prop36
280
     0
102
RTVSPost2010PropOp36
 70
     0
102
RTVSPost2010Prop37
 90
       50
102
RTVSPost2010PropOp37
 70
     0
102
RTVSPost2010Prop38
140
0.0
102
RTVSPost2010PropOp38
 70
     0
102
RTVSPost2010Prop39
140
1.0
102
RTVSPost2010PropOp39
 70
     0
102
RTVSPost2010Prop40
 90
        0
102
RTVSPost2010PropOp40
 70
     0
102
RTVSPost2010Prop41ColorIndex
 90
       18
102
RTVSPost2010Prop41ColorRGB
 90
        0
102
RTVSPost2010PropOp41
 70
     0
102
RTVSPost2010Prop42
 90
       50
102
RTVSPost2010PropOp42
 70
     0
102
RTVSPost2010Prop43
 90
        3
102
RTVSPost2010PropOp43
 70
     0
102
RTVSPost2010Prop44ColorIndex
 90
        5
102
RTVSPost2010Prop44ColorRGB
 90
      255
102
RTVSPost2010PropOp44
 70
     0
102
RTVSPost2010Prop45
280
     0
102
RTVSPost2010PropOp45
 70
     0
102
RTVSPost2010Prop46
 90
       50
102
RTVSPost2010PropOp46
 70
     0
102
RTVSPost2010Prop47
 90
       50
102
RTVSPost2010PropOp47
 70
     0
102
RTVSPost2010Prop48
 90
       50
102
RTVSPost2010PropOp48
 70
     0
102
RTVSPost2010Prop49
280
     0
102
RTVSPost2010PropOp49
 70
     0
102
RTVSPost2010Prop50
 90
       50
102
RTVSPost2010PropOp50
 70
     0
102
RTVSPost2010Prop51ColorIndex
 90
      256
102
RTVSPost2010Prop51ColorRGB
 90
-16777216
102
RTVSPost2010PropOp51
 70
     0
102
RTVSPost2010Prop52
140
1.0
102
RTVSPost2010PropOp52
 70
     0
102
RTVSPost2010Prop53
 90
        2
102
RTVSPost2010PropOp53
 70
     0
102
RTVSPost2010Prop54
  1
strokes_ogs.tif
102
RTVSPost2010PropOp54
 70
     0
102
RTVSPost2010Prop55
280
     0
102
RTVSPost2010PropOp55
 70
     0
102
RTVSPost2010Prop56
140
1.0
102
RTVSPost2010PropOp56
 70
     0
102
RTVSPost2010Prop57
140
1.0
102
RTVSPost2010PropOp57
 70
     0
  0
XRECORD
  5
28D
102
{ACAD_REACTORS
330
28C
102
}
330
28C
100
AcDbXrecord
280
     1
102
RTVSPropertyOp0
 70
     1
102
RTVSPropertyOp1
 70
     1
102
RTVSPropertyOp2
 70
     1
102
RTVSPropertyOp3
 70
     1
102
RTVSPropertyOp4
 70
     1
102
RTVSPropertyOp5
 70
     1
102
RTVSPropertyOp6
 70
     1
102
RTVSPropertyOp7
 70
     1
102
RTVSPropertyOp8
 70
     1
102
RTVSPropertyOp9
 70
     1
102
RTVSPropertyOp10
 70
     1
102
RTVSPropertyOp11
 70
     1
102
RTVSPropertyOp12
 70
     1
102
RTVSPropertyOp13
 70
     1
102
RTVSPropertyOp14
 70
     1
102
RTVSPropertyOp15
 70
     1
102
RTVSPropertyOp16
 70
     1
102
RTVSPropertyOp17
 70
     1
102
RTVSPropertyOp18
 70
     1
102
RTVSPropertyOp19
 70
     1
102
RTVSPropertyOp20
 70
     1
102
RTVSPropertyOp21
 70
     1
102
RTVSPropertyOp22
 70
     1
102
RTVSPropertyOp23
 70
     1
102
RTVSPropertyOp24
 70
     1
102
RTVSPropertyOp25
 70
     1
102
RTVSPropertyOp26
 70
     1
102
RTVSPropertyOp27
 70
     1
102
RTVSPropertyOp28
 70
     1
102
RTVSPropertyOp29
 70
     1
102
RTVSPropertyOp30
 70
     1
102
RTVSPropertyOp31
 70
     1
102
RTVSPropertyOp32
 70
     1
102
RTVSPropertyOp33
 70
     1
102
RTVSPropertyOp34
 70
     1
102
RTVSPropertyOp35
 70
     1
102
RTVSPropertyOp36
 70
     1
102
RTVSPropertyOp37
 70
     1
102
RTVSPropertyOp38
 70
     1
102
RTVSPropertyOp39
 70
     1
102
RTVSPropertyOp40
 70
     1
102
RTVSPropertyOp41
 70
     1
102
RTVSPropertyOp42
 70
     1
102
RTVSPropertyOp43
 70
     1
102
RTVSPropertyOp44
 70
     1
102
RTVSPropertyOp45
 70
     1
102
RTVSPropertyOp46
 70
     1
102
RTVSPropertyOp47
 70
     1
102
RTVSPropertyOp48
 70
     1
102
RTVSPropertyOp49
 70
     1
102
RTVSPropertyOp50
 70
     1
102
RTVSPropertyOp51
 70
     0
102
RTVSPropertyOp52
 70
     0
102
RTVSPropertyOp53
 70
     1
102
RTVSPropertyOp54
 70
     1
102
RTVSPropertyOp55
 70
     1
102
RTVSPropertyOp56
 70
     1
102
RTVSPropertyOp57
 70
     1
102
RTVSPost2010Prop28
280
     0
102
RTVSPost2010PropOp28
 70
     1
102
RTVSPost2010Prop29
280
     1
102
RTVSPost2010PropOp29
 70
     1
102
RTVSPost2010Prop30
280
     1
102
RTVSPost2010PropOp30
 70
     1
102
RTVSPost2010Prop31
280
     0
102
RTVSPost2010PropOp31
 70
     1
102
RTVSPost2010Prop32
280
     0
102
RTVSPost2010PropOp32
 70
     1
102
RTVSPost2010Prop33
280
     0
102
RTVSPost2010PropOp33
 70
     1
102
RTVSPost2010Prop34
280
     0
102
RTVSPost2010PropOp34
 70
     1
102
RTVSPost2010Prop35
280
     0
102
RTVSPost2010PropOp35
 70
     1
102
RTVSPost2010Prop36
280
     0
102
RTVSPost2010PropOp36
 70
     1
102
RTVSPost2010Prop37
 90
       50
102
RTVSPost2010PropOp37
 70
     1
102
RTVSPost2010Prop38
140
0.0
102
RTVSPost2010PropOp38
 70
     1
102
RTVSPost2010Prop39
140
1.0
102
RTVSPost2010PropOp39
 70
     1
102
RTVSPost2010Prop40
 90
        0
102
RTVSPost2010PropOp40
 70
     1
102
RTVSPost2010Prop41ColorIndex
 90
       18
102
RTVSPost2010Prop41ColorRGB
 90
        0
102
RTVSPost2010PropOp41
 70
     1
102
RTVSPost2010Prop42
 90
       50
102
RTVSPost2010PropOp42
 70
     1
102
RTVSPost2010Prop43
 90
        3
102
RTVSPost2010PropOp43
 70
     1
102
RTVSPost2010Prop44ColorIndex
 90
        5
102
RTVSPost2010Prop44ColorRGB
 90
      255
102
RTVSPost2010PropOp44
 70
     1
102
RTVSPost2010Prop45
280
     0
102
RTVSPost2010PropOp45
 70
     1
102
RTVSPost2010Prop46
 90
       50
102
RTVSPost2010PropOp46
 70
     1
102
RTVSPost2010Prop47
 90
       50
102
RTVSPost2010PropOp47
 70
     1
102
RTVSPost2010Prop48
 90
       50
102
RTVSPost2010PropOp48
 70
     1
102
RTVSPost2010Prop49
280
     0
102
RTVSPost2010PropOp49
 70
     1
102
RTVSPost2010Prop50
 90
       50
102
RTVSPost2010PropOp50
 70
     1
102
RTVSPost2010Prop51ColorIndex
 90
      256
102
RTVSPost2010Prop51ColorRGB
 90
-16777216
102
RTVSPost2010PropOp51
 70
     0
102
RTVSPost2010Prop52
140
1.0
102
RTVSPost2010PropOp52
 70
     0
102
RTVSPost2010Prop53
 90
        2
102
RTVSPost2010PropOp53
 70
     1
102
RTVSPost2010Prop54
  1
strokes_ogs.tif
102
RTVSPost2010PropOp54
 70
     1
102
RTVSPost2010Prop55
280
     0
102
RTVSPost2010PropOp55
 70
     1
102
RTVSPost2010Prop56
140
1.0
102
RTVSPost2010PropOp56
 70
     1
102
RTVSPost2010Prop57
140
1.0
102
RTVSPost2010PropOp57
 70
     1
  0
XRECORD
  5
295
102
{ACAD_REACTORS
330
294
102
}
330
294
100
AcDbXrecord
280
     1
102
RTVSPropertyOp0
 70
     0
102
RTVSPropertyOp1
 70
     0
102
RTVSPropertyOp2
 70
     0
102
RTVSPropertyOp3
 70
     0
102
RTVSPropertyOp4
 70
     0
102
RTVSPropertyOp5
 70
     0
102
RTVSPropertyOp6
 70
     0
102
RTVSPropertyOp7
 70
     0
102
RTVSPropertyOp8
 70
     0
102
RTVSPropertyOp9
 70
     0
102
RTVSPropertyOp10
 70
     0
102
RTVSPropertyOp11
 70
     0
102
RTVSPropertyOp12
 70
     0
102
RTVSPropertyOp13
 70
     0
102
RTVSPropertyOp14
 70
     2
102
RTVSPropertyOp15
 70
     0
102
RTVSPropertyOp16
 70
     0
102
RTVSPropertyOp17
 70
     0
102
RTVSPropertyOp18
 70
     0
102
RTVSPropertyOp19
 70
     0
102
RTVSPropertyOp20
 70
     0
102
RTVSPropertyOp21
 70
     0
102
RTVSPropertyOp22
 70
     0
102
RTVSPropertyOp23
 70
     0
102
RTVSPropertyOp24
 70
     0
102
RTVSPropertyOp25
 70
     0
102
RTVSPropertyOp26
 70
     0
102
RTVSPropertyOp27
 70
     0
102
RTVSPropertyOp28
 70
     0
102
RTVSPropertyOp29
 70
     0
102
RTVSPropertyOp30
 70
     0
102
RTVSPropertyOp31
 70
     0
102
RTVSPropertyOp32
 70
     0
102
RTVSPropertyOp33
 70
     0
102
RTVSPropertyOp34
 70
     0
102
RTVSPropertyOp35
 70
     0
102
RTVSPropertyOp36
 70
     0
102
RTVSPropertyOp37
 70
     0
102
RTVSPropertyOp38
 70
     0
102
RTVSPropertyOp39
 70
     0
102
RTVSPropertyOp40
 70
     0
102
RTVSPropertyOp41
 70
     0
102
RTVSPropertyOp42
 70
     0
102
RTVSPropertyOp43
 70
     0
102
RTVSPropertyOp44
 70
     0
102
RTVSPropertyOp45
 70
     0
102
RTVSPropertyOp46
 70
     0
102
RTVSPropertyOp47
 70
     0
102
RTVSPropertyOp48
 70
     0
102
RTVSPropertyOp49
 70
     0
102
RTVSPropertyOp50
 70
     0
102
RTVSPropertyOp51
 70
     0
102
RTVSPropertyOp52
 70
     0
102
RTVSPropertyOp53
 70
     0
102
RTVSPropertyOp54
 70
     0
102
RTVSPropertyOp55
 70
     0
102
RTVSPropertyOp56
 70
     0
102
RTVSPropertyOp57
 70
     0
102
RTVSPost2010Prop28
280
     0
102
RTVSPost2010PropOp28
 70
     0
102
RTVSPost2010Prop29
280
     1
102
RTVSPost2010PropOp29
 70
     0
102
RTVSPost2010Prop30
280
     1
102
RTVSPost2010PropOp30
 70
     0
102
RTVSPost2010Prop31
280
     0
102
RTVSPost2010PropOp31
 70
     0
102
RTVSPost2010Prop32
280
     0
102
RTVSPost2010PropOp32
 70
     0
102
RTVSPost2010Prop33
280
     0
102
RTVSPost2010PropOp33
 70
     0
102
RTVSPost2010Prop34
280
     0
102
RTVSPost2010PropOp34
 70
     0
102
RTVSPost2010Prop35
280
     0
102
RTVSPost2010PropOp35
 70
     0
102
RTVSPost2010Prop36
280
     0
102
RTVSPost2010PropOp36
 70
     0
102
RTVSPost2010Prop37
 90
       50
102
RTVSPost2010PropOp37
 70
     0
102
RTVSPost2010Prop38
140
0.0
102
RTVSPost2010PropOp38
 70
     0
102
RTVSPost2010Prop39
140
1.0
102
RTVSPost2010PropOp39
 70
     0
102
RTVSPost2010Prop40
 90
        0
102
RTVSPost2010PropOp40
 70
     0
102
RTVSPost2010Prop41ColorIndex
 90
       18
102
RTVSPost2010Prop41ColorRGB
 90
        0
102
RTVSPost2010PropOp41
 70
     0
102
RTVSPost2010Prop42
 90
       50
102
RTVSPost2010PropOp42
 70
     0
102
RTVSPost2010Prop43
 90
        3
102
RTVSPost2010PropOp43
 70
     0
102
RTVSPost2010Prop44ColorIndex
 90
        5
102
RTVSPost2010Prop44ColorRGB
 90
      255
102
RTVSPost2010PropOp44
 70
     0
102
RTVSPost2010Prop45
280
     0
102
RTVSPost2010PropOp45
 70
     0
102
RTVSPost2010Prop46
 90
       50
102
RTVSPost2010PropOp46
 70
     0
102
RTVSPost2010Prop47
 90
       50
102
RTVSPost2010PropOp47
 70
     0
102
RTVSPost2010Prop48
 90
       50
102
RTVSPost2010PropOp48
 70
     0
102
RTVSPost2010Prop49
280
     0
102
RTVSPost2010PropOp49
 70
     0
102
RTVSPost2010Prop50
 90
       50
102
RTVSPost2010PropOp50
 70
     0
102
RTVSPost2010Prop51ColorIndex
 90
      256
102
RTVSPost2010Prop51ColorRGB
 90
-16777216
102
RTVSPost2010PropOp51
 70
     0
102
RTVSPost2010Prop52
140
1.0
102
RTVSPost2010PropOp52
 70
     0
102
RTVSPost2010Prop53
 90
        2
102
RTVSPost2010PropOp53
 70
     0
102
RTVSPost2010Prop54
  1
strokes_ogs.tif
102
RTVSPost2010PropOp54
 70
     0
102
RTVSPost2010Prop55
280
     0
102
RTVSPost2010PropOp55
 70
     0
102
RTVSPost2010Prop56
140
1.0
102
RTVSPost2010PropOp56
 70
     0
102
RTVSPost2010Prop57
140
1.0
102
RTVSPost2010PropOp57
 70
     0
  0
XRECORD
  5
283
102
{ACAD_REACTORS
330
282
102
}
330
282
100
AcDbXrecord
280
     1
102
RTVSPropertyOp0
 70
     1
102
RTVSPropertyOp1
 70
     1
102
RTVSPropertyOp2
 70
     1
102
RTVSPropertyOp3
 70
     1
102
RTVSPropertyOp4
 70
     1
102
RTVSPropertyOp5
 70
     1
102
RTVSPropertyOp6
 70
     1
102
RTVSPropertyOp7
 70
     1
102
RTVSPropertyOp8
 70
     1
102
RTVSPropertyOp9
 70
     1
102
RTVSPropertyOp10
 70
     1
102
RTVSPropertyOp11
 70
     1
102
RTVSPropertyOp12
 70
     1
102
RTVSPropertyOp13
 70
     1
102
RTVSPropertyOp14
 70
     1
102
RTVSPropertyOp15
 70
     1
102
RTVSPropertyOp16
 70
     1
102
RTVSPropertyOp17
 70
     1
102
RTVSPropertyOp18
 70
     1
102
RTVSPropertyOp19
 70
     1
102
RTVSPropertyOp20
 70
     1
102
RTVSPropertyOp21
 70
     1
102
RTVSPropertyOp22
 70
     1
102
RTVSPropertyOp23
 70
     1
102
RTVSPropertyOp24
 70
     1
102
RTVSPropertyOp25
 70
     1
102
RTVSPropertyOp26
 70
     1
102
RTVSPropertyOp27
 70
     1
102
RTVSPropertyOp28
 70
     1
102
RTVSPropertyOp29
 70
     1
102
RTVSPropertyOp30
 70
     1
102
RTVSPropertyOp31
 70
     1
102
RTVSPropertyOp32
 70
     1
102
RTVSPropertyOp33
 70
     1
102
RTVSPropertyOp34
 70
     1
102
RTVSPropertyOp35
 70
     1
102
RTVSPropertyOp36
 70
     1
102
RTVSPropertyOp37
 70
     1
102
RTVSPropertyOp38
 70
     1
102
RTVSPropertyOp39
 70
     1
102
RTVSPropertyOp40
 70
     1
102
RTVSPropertyOp41
 70
     1
102
RTVSPropertyOp42
 70
     1
102
RTVSPropertyOp43
 70
     1
102
RTVSPropertyOp44
 70
     1
102
RTVSPropertyOp45
 70
     1
102
RTVSPropertyOp46
 70
     1
102
RTVSPropertyOp47
 70
     1
102
RTVSPropertyOp48
 70
     1
102
RTVSPropertyOp49
 70
     1
102
RTVSPropertyOp50
 70
     1
102
RTVSPropertyOp51
 70
     0
102
RTVSPropertyOp52
 70
     0
102
RTVSPropertyOp53
 70
     1
102
RTVSPropertyOp54
 70
     1
102
RTVSPropertyOp55
 70
     1
102
RTVSPropertyOp56
 70
     1
102
RTVSPropertyOp57
 70
     1
102
RTVSPost2010Prop28
280
     0
102
RTVSPost2010PropOp28
 70
     1
102
RTVSPost2010Prop29
280
     1
102
RTVSPost2010PropOp29
 70
     1
102
RTVSPost2010Prop30
280
     1
102
RTVSPost2010PropOp30
 70
     1
102
RTVSPost2010Prop31
280
     0
102
RTVSPost2010PropOp31
 70
     1
102
RTVSPost2010Prop32
280
     0
102
RTVSPost2010PropOp32
 70
     1
102
RTVSPost2010Prop33
280
     0
102
RTVSPost2010PropOp33
 70
     1
102
RTVSPost2010Prop34
280
     0
102
RTVSPost2010PropOp34
 70
     1
102
RTVSPost2010Prop35
280
     0
102
RTVSPost2010PropOp35
 70
     1
102
RTVSPost2010Prop36
280
     0
102
RTVSPost2010PropOp36
 70
     1
102
RTVSPost2010Prop37
 90
       50
102
RTVSPost2010PropOp37
 70
     1
102
RTVSPost2010Prop38
140
0.0
102
RTVSPost2010PropOp38
 70
     1
102
RTVSPost2010Prop39
140
1.0
102
RTVSPost2010PropOp39
 70
     1
102
RTVSPost2010Prop40
 90
        0
102
RTVSPost2010PropOp40
 70
     1
102
RTVSPost2010Prop41ColorIndex
 90
       18
102
RTVSPost2010Prop41ColorRGB
 90
        0
102
RTVSPost2010PropOp41
 70
     1
102
RTVSPost2010Prop42
 90
       50
102
RTVSPost2010PropOp42
 70
     1
102
RTVSPost2010Prop43
 90
        3
102
RTVSPost2010PropOp43
 70
     1
102
RTVSPost2010Prop44ColorIndex
 90
        5
102
RTVSPost2010Prop44ColorRGB
 90
      255
102
RTVSPost2010PropOp44
 70
     1
102
RTVSPost2010Prop45
280
     0
102
RTVSPost2010PropOp45
 70
     1
102
RTVSPost2010Prop46
 90
       50
102
RTVSPost2010PropOp46
 70
     1
102
RTVSPost2010Prop47
 90
       50
102
RTVSPost2010PropOp47
 70
     1
102
RTVSPost2010Prop48
 90
       50
102
RTVSPost2010PropOp48
 70
     1
102
RTVSPost2010Prop49
280
     0
102
RTVSPost2010PropOp49
 70
     1
102
RTVSPost2010Prop50
 90
       50
102
RTVSPost2010PropOp50
 70
     1
102
RTVSPost2010Prop51ColorIndex
 90
      256
102
RTVSPost2010Prop51ColorRGB
 90
-16777216
102
RTVSPost2010PropOp51
 70
     0
102
RTVSPost2010Prop52
140
1.0
102
RTVSPost2010PropOp52
 70
     0
102
RTVSPost2010Prop53
 90
        2
102
RTVSPost2010PropOp53
 70
     1
102
RTVSPost2010Prop54
  1
strokes_ogs.tif
102
RTVSPost2010PropOp54
 70
     1
102
RTVSPost2010Prop55
280
     0
102
RTVSPost2010PropOp55
 70
     1
102
RTVSPost2010Prop56
140
1.0
102
RTVSPost2010PropOp56
 70
     1
102
RTVSPost2010Prop57
140
1.0
102
RTVSPost2010PropOp57
 70
     1
  0
XRECORD
  5
2A1
102
{ACAD_REACTORS
330
2A0
102
}
330
2A0
100
AcDbXrecord
280
     1
102
RTVSPropertyOp0
 70
     1
102
RTVSPropertyOp1
 70
     1
102
RTVSPropertyOp2
 70
     1
102
RTVSPropertyOp3
 70
     1
102
RTVSPropertyOp4
 70
     1
102
RTVSPropertyOp5
 70
     1
102
RTVSPropertyOp6
 70
     1
102
RTVSPropertyOp7
 70
     1
102
RTVSPropertyOp8
 70
     1
102
RTVSPropertyOp9
 70
     1
102
RTVSPropertyOp10
 70
     1
102
RTVSPropertyOp11
 70
     1
102
RTVSPropertyOp12
 70
     1
102
RTVSPropertyOp13
 70
     1
102
RTVSPropertyOp14
 70
     1
102
RTVSPropertyOp15
 70
     1
102
RTVSPropertyOp16
 70
     1
102
RTVSPropertyOp17
 70
     1
102
RTVSPropertyOp18
 70
     1
102
RTVSPropertyOp19
 70
     1
102
RTVSPropertyOp20
 70
     1
102
RTVSPropertyOp21
 70
     1
102
RTVSPropertyOp22
 70
     1
102
RTVSPropertyOp23
 70
     1
102
RTVSPropertyOp24
 70
     1
102
RTVSPropertyOp25
 70
     1
102
RTVSPropertyOp26
 70
     1
102
RTVSPropertyOp27
 70
     1
102
RTVSPropertyOp28
 70
     1
102
RTVSPropertyOp29
 70
     1
102
RTVSPropertyOp30
 70
     1
102
RTVSPropertyOp31
 70
     1
102
RTVSPropertyOp32
 70
     1
102
RTVSPropertyOp33
 70
     1
102
RTVSPropertyOp34
 70
     1
102
RTVSPropertyOp35
 70
     1
102
RTVSPropertyOp36
 70
     1
102
RTVSPropertyOp37
 70
     1
102
RTVSPropertyOp38
 70
     1
102
RTVSPropertyOp39
 70
     1
102
RTVSPropertyOp40
 70
     1
102
RTVSPropertyOp41
 70
     1
102
RTVSPropertyOp42
 70
     1
102
RTVSPropertyOp43
 70
     1
102
RTVSPropertyOp44
 70
     1
102
RTVSPropertyOp45
 70
     1
102
RTVSPropertyOp46
 70
     1
102
RTVSPropertyOp47
 70
     1
102
RTVSPropertyOp48
 70
     1
102
RTVSPropertyOp49
 70
     1
102
RTVSPropertyOp50
 70
     1
102
RTVSPropertyOp51
 70
     0
102
RTVSPropertyOp52
 70
     0
102
RTVSPropertyOp53
 70
     1
102
RTVSPropertyOp54
 70
     1
102
RTVSPropertyOp55
 70
     1
102
RTVSPropertyOp56
 70
     1
102
RTVSPropertyOp57
 70
     1
102
RTVSPost2010Prop28
280
     0
102
RTVSPost2010PropOp28
 70
     1
102
RTVSPost2010Prop29
280
     1
102
RTVSPost2010PropOp29
 70
     1
102
RTVSPost2010Prop30
280
     1
102
RTVSPost2010PropOp30
 70
     1
102
RTVSPost2010Prop31
280
     0
102
RTVSPost2010PropOp31
 70
     1
102
RTVSPost2010Prop32
280
     0
102
RTVSPost2010PropOp32
 70
     1
102
RTVSPost2010Prop33
280
     0
102
RTVSPost2010PropOp33
 70
     1
102
RTVSPost2010Prop34
280
     0
102
RTVSPost2010PropOp34
 70
     1
102
RTVSPost2010Prop35
280
     0
102
RTVSPost2010PropOp35
 70
     1
102
RTVSPost2010Prop36
280
     0
102
RTVSPost2010PropOp36
 70
     1
102
RTVSPost2010Prop37
 90
       50
102
RTVSPost2010PropOp37
 70
     1
102
RTVSPost2010Prop38
140
0.0
102
RTVSPost2010PropOp38
 70
     1
102
RTVSPost2010Prop39
140
1.0
102
RTVSPost2010PropOp39
 70
     1
102
RTVSPost2010Prop40
 90
        0
102
RTVSPost2010PropOp40
 70
     1
102
RTVSPost2010Prop41ColorIndex
 90
       18
102
RTVSPost2010Prop41ColorRGB
 90
        0
102
RTVSPost2010PropOp41
 70
     1
102
RTVSPost2010Prop42
 90
       50
102
RTVSPost2010PropOp42
 70
     1
102
RTVSPost2010Prop43
 90
        3
102
RTVSPost2010PropOp43
 70
     1
102
RTVSPost2010Prop44ColorIndex
 90
        5
102
RTVSPost2010Prop44ColorRGB
 90
      255
102
RTVSPost2010PropOp44
 70
     1
102
RTVSPost2010Prop45
280
     0
102
RTVSPost2010PropOp45
 70
     1
102
RTVSPost2010Prop46
 90
       50
102
RTVSPost2010PropOp46
 70
     1
102
RTVSPost2010Prop47
 90
       50
102
RTVSPost2010PropOp47
 70
     1
102
RTVSPost2010Prop48
 90
       50
102
RTVSPost2010PropOp48
 70
     1
102
RTVSPost2010Prop49
280
     0
102
RTVSPost2010PropOp49
 70
     1
102
RTVSPost2010Prop50
 90
       50
102
RTVSPost2010PropOp50
 70
     1
102
RTVSPost2010Prop51ColorIndex
 90
      256
102
RTVSPost2010Prop51ColorRGB
 90
-16777216
102
RTVSPost2010PropOp51
 70
     0
102
RTVSPost2010Prop52
140
1.0
102
RTVSPost2010PropOp52
 70
     0
102
RTVSPost2010Prop53
 90
        2
102
RTVSPost2010PropOp53
 70
     1
102
RTVSPost2010Prop54
  1
strokes_ogs.tif
102
RTVSPost2010PropOp54
 70
     1
102
RTVSPost2010Prop55
280
     0
102
RTVSPost2010PropOp55
 70
     1
102
RTVSPost2010Prop56
140
1.0
102
RTVSPost2010PropOp56
 70
     1
102
RTVSPost2010Prop57
140
1.0
102
RTVSPost2010PropOp57
 70
     1
  0
XRECORD
  5
29F
102
{ACAD_REACTORS
330
29E
102
}
330
29E
100
AcDbXrecord
280
     1
102
RTVSPropertyOp0
 70
     1
102
RTVSPropertyOp1
 70
     1
102
RTVSPropertyOp2
 70
     1
102
RTVSPropertyOp3
 70
     1
102
RTVSPropertyOp4
 70
     1
102
RTVSPropertyOp5
 70
     1
102
RTVSPropertyOp6
 70
     1
102
RTVSPropertyOp7
 70
     1
102
RTVSPropertyOp8
 70
     1
102
RTVSPropertyOp9
 70
     1
102
RTVSPropertyOp10
 70
     1
102
RTVSPropertyOp11
 70
     1
102
RTVSPropertyOp12
 70
     1
102
RTVSPropertyOp13
 70
     1
102
RTVSPropertyOp14
 70
     1
102
RTVSPropertyOp15
 70
     1
102
RTVSPropertyOp16
 70
     1
102
RTVSPropertyOp17
 70
     1
102
RTVSPropertyOp18
 70
     1
102
RTVSPropertyOp19
 70
     1
102
RTVSPropertyOp20
 70
     1
102
RTVSPropertyOp21
 70
     1
102
RTVSPropertyOp22
 70
     1
102
RTVSPropertyOp23
 70
     1
102
RTVSPropertyOp24
 70
     1
102
RTVSPropertyOp25
 70
     1
102
RTVSPropertyOp26
 70
     1
102
RTVSPropertyOp27
 70
     1
102
RTVSPropertyOp28
 70
     1
102
RTVSPropertyOp29
 70
     1
102
RTVSPropertyOp30
 70
     1
102
RTVSPropertyOp31
 70
     1
102
RTVSPropertyOp32
 70
     1
102
RTVSPropertyOp33
 70
     1
102
RTVSPropertyOp34
 70
     1
102
RTVSPropertyOp35
 70
     1
102
RTVSPropertyOp36
 70
     1
102
RTVSPropertyOp37
 70
     1
102
RTVSPropertyOp38
 70
     1
102
RTVSPropertyOp39
 70
     1
102
RTVSPropertyOp40
 70
     1
102
RTVSPropertyOp41
 70
     1
102
RTVSPropertyOp42
 70
     1
102
RTVSPropertyOp43
 70
     1
102
RTVSPropertyOp44
 70
     1
102
RTVSPropertyOp45
 70
     1
102
RTVSPropertyOp46
 70
     1
102
RTVSPropertyOp47
 70
     1
102
RTVSPropertyOp48
 70
     1
102
RTVSPropertyOp49
 70
     1
102
RTVSPropertyOp50
 70
     1
102
RTVSPropertyOp51
 70
     0
102
RTVSPropertyOp52
 70
     0
102
RTVSPropertyOp53
 70
     1
102
RTVSPropertyOp54
 70
     1
102
RTVSPropertyOp55
 70
     1
102
RTVSPropertyOp56
 70
     1
102
RTVSPropertyOp57
 70
     1
102
RTVSPost2010Prop28
280
     0
102
RTVSPost2010PropOp28
 70
     1
102
RTVSPost2010Prop29
280
     1
102
RTVSPost2010PropOp29
 70
     1
102
RTVSPost2010Prop30
280
     1
102
RTVSPost2010PropOp30
 70
     1
102
RTVSPost2010Prop31
280
     0
102
RTVSPost2010PropOp31
 70
     1
102
RTVSPost2010Prop32
280
     0
102
RTVSPost2010PropOp32
 70
     1
102
RTVSPost2010Prop33
280
     0
102
RTVSPost2010PropOp33
 70
     1
102
RTVSPost2010Prop34
280
     0
102
RTVSPost2010PropOp34
 70
     1
102
RTVSPost2010Prop35
280
     0
102
RTVSPost2010PropOp35
 70
     1
102
RTVSPost2010Prop36
280
     0
102
RTVSPost2010PropOp36
 70
     1
102
RTVSPost2010Prop37
 90
       50
102
RTVSPost2010PropOp37
 70
     1
102
RTVSPost2010Prop38
140
0.0
102
RTVSPost2010PropOp38
 70
     1
102
RTVSPost2010Prop39
140
1.0
102
RTVSPost2010PropOp39
 70
     1
102
RTVSPost2010Prop40
 90
        0
102
RTVSPost2010PropOp40
 70
     1
102
RTVSPost2010Prop41ColorIndex
 90
       18
102
RTVSPost2010Prop41ColorRGB
 90
        0
102
RTVSPost2010PropOp41
 70
     1
102
RTVSPost2010Prop42
 90
       50
102
RTVSPost2010PropOp42
 70
     1
102
RTVSPost2010Prop43
 90
        3
102
RTVSPost2010PropOp43
 70
     1
102
RTVSPost2010Prop44ColorIndex
 90
        5
102
RTVSPost2010Prop44ColorRGB
 90
      255
102
RTVSPost2010PropOp44
 70
     1
102
RTVSPost2010Prop45
280
     0
102
RTVSPost2010PropOp45
 70
     1
102
RTVSPost2010Prop46
 90
       50
102
RTVSPost2010PropOp46
 70
     1
102
RTVSPost2010Prop47
 90
       50
102
RTVSPost2010PropOp47
 70
     1
102
RTVSPost2010Prop48
 90
       50
102
RTVSPost2010PropOp48
 70
     1
102
RTVSPost2010Prop49
280
     0
102
RTVSPost2010PropOp49
 70
     1
102
RTVSPost2010Prop50
 90
       50
102
RTVSPost2010PropOp50
 70
     1
102
RTVSPost2010Prop51ColorIndex
 90
      256
102
RTVSPost2010Prop51ColorRGB
 90
-16777216
102
RTVSPost2010PropOp51
 70
     0
102
RTVSPost2010Prop52
140
1.0
102
RTVSPost2010PropOp52
 70
     0
102
RTVSPost2010Prop53
 90
        2
102
RTVSPost2010PropOp53
 70
     1
102
RTVSPost2010Prop54
  1
strokes_ogs.tif
102
RTVSPost2010PropOp54
 70
     1
102
RTVSPost2010Prop55
280
     0
102
RTVSPost2010PropOp55
 70
     1
102
RTVSPost2010Prop56
140
1.0
102
RTVSPost2010PropOp56
 70
     1
102
RTVSPost2010Prop57
140
1.0
102
RTVSPost2010PropOp57
 70
     1
  0
XRECORD
  5
299
102
{ACAD_REACTORS
330
298
102
}
330
298
100
AcDbXrecord
280
     1
102
RTVSPropertyOp0
 70
     1
102
RTVSPropertyOp1
 70
     1
102
RTVSPropertyOp2
 70
     1
102
RTVSPropertyOp3
 70
     1
102
RTVSPropertyOp4
 70
     1
102
RTVSPropertyOp5
 70
     1
102
RTVSPropertyOp6
 70
     1
102
RTVSPropertyOp7
 70
     1
102
RTVSPropertyOp8
 70
     1
102
RTVSPropertyOp9
 70
     1
102
RTVSPropertyOp10
 70
     1
102
RTVSPropertyOp11
 70
     1
102
RTVSPropertyOp12
 70
     1
102
RTVSPropertyOp13
 70
     1
102
RTVSPropertyOp14
 70
     1
102
RTVSPropertyOp15
 70
     1
102
RTVSPropertyOp16
 70
     1
102
RTVSPropertyOp17
 70
     1
102
RTVSPropertyOp18
 70
     1
102
RTVSPropertyOp19
 70
     1
102
RTVSPropertyOp20
 70
     1
102
RTVSPropertyOp21
 70
     1
102
RTVSPropertyOp22
 70
     1
102
RTVSPropertyOp23
 70
     1
102
RTVSPropertyOp24
 70
     1
102
RTVSPropertyOp25
 70
     1
102
RTVSPropertyOp26
 70
     1
102
RTVSPropertyOp27
 70
     1
102
RTVSPropertyOp28
 70
     1
102
RTVSPropertyOp29
 70
     1
102
RTVSPropertyOp30
 70
     1
102
RTVSPropertyOp31
 70
     1
102
RTVSPropertyOp32
 70
     1
102
RTVSPropertyOp33
 70
     1
102
RTVSPropertyOp34
 70
     1
102
RTVSPropertyOp35
 70
     1
102
RTVSPropertyOp36
 70
     1
102
RTVSPropertyOp37
 70
     1
102
RTVSPropertyOp38
 70
     1
102
RTVSPropertyOp39
 70
     1
102
RTVSPropertyOp40
 70
     1
102
RTVSPropertyOp41
 70
     1
102
RTVSPropertyOp42
 70
     1
102
RTVSPropertyOp43
 70
     1
102
RTVSPropertyOp44
 70
     1
102
RTVSPropertyOp45
 70
     1
102
RTVSPropertyOp46
 70
     1
102
RTVSPropertyOp47
 70
     1
102
RTVSPropertyOp48
 70
     1
102
RTVSPropertyOp49
 70
     1
102
RTVSPropertyOp50
 70
     1
102
RTVSPropertyOp51
 70
     0
102
RTVSPropertyOp52
 70
     0
102
RTVSPropertyOp53
 70
     1
102
RTVSPropertyOp54
 70
     1
102
RTVSPropertyOp55
 70
     1
102
RTVSPropertyOp56
 70
     1
102
RTVSPropertyOp57
 70
     1
102
RTVSPost2010Prop28
280
     0
102
RTVSPost2010PropOp28
 70
     1
102
RTVSPost2010Prop29
280
     1
102
RTVSPost2010PropOp29
 70
     1
102
RTVSPost2010Prop30
280
     1
102
RTVSPost2010PropOp30
 70
     1
102
RTVSPost2010Prop31
280
     0
102
RTVSPost2010PropOp31
 70
     1
102
RTVSPost2010Prop32
280
     0
102
RTVSPost2010PropOp32
 70
     1
102
RTVSPost2010Prop33
280
     0
102
RTVSPost2010PropOp33
 70
     1
102
RTVSPost2010Prop34
280
     0
102
RTVSPost2010PropOp34
 70
     1
102
RTVSPost2010Prop35
280
     0
102
RTVSPost2010PropOp35
 70
     1
102
RTVSPost2010Prop36
280
     0
102
RTVSPost2010PropOp36
 70
     1
102
RTVSPost2010Prop37
 90
       50
102
RTVSPost2010PropOp37
 70
     1
102
RTVSPost2010Prop38
140
0.0
102
RTVSPost2010PropOp38
 70
     1
102
RTVSPost2010Prop39
140
1.0
102
RTVSPost2010PropOp39
 70
     1
102
RTVSPost2010Prop40
 90
        0
102
RTVSPost2010PropOp40
 70
     1
102
RTVSPost2010Prop41ColorIndex
 90
       18
102
RTVSPost2010Prop41ColorRGB
 90
        0
102
RTVSPost2010PropOp41
 70
     1
102
RTVSPost2010Prop42
 90
       50
102
RTVSPost2010PropOp42
 70
     1
102
RTVSPost2010Prop43
 90
        3
102
RTVSPost2010PropOp43
 70
     1
102
RTVSPost2010Prop44ColorIndex
 90
        5
102
RTVSPost2010Prop44ColorRGB
 90
      255
102
RTVSPost2010PropOp44
 70
     1
102
RTVSPost2010Prop45
280
     0
102
RTVSPost2010PropOp45
 70
     1
102
RTVSPost2010Prop46
 90
       50
102
RTVSPost2010PropOp46
 70
     1
102
RTVSPost2010Prop47
 90
       50
102
RTVSPost2010PropOp47
 70
     1
102
RTVSPost2010Prop48
 90
       50
102
RTVSPost2010PropOp48
 70
     1
102
RTVSPost2010Prop49
280
     0
102
RTVSPost2010PropOp49
 70
     1
102
RTVSPost2010Prop50
 90
       50
102
RTVSPost2010PropOp50
 70
     1
102
RTVSPost2010Prop51ColorIndex
 90
      256
102
RTVSPost2010Prop51ColorRGB
 90
-16777216
102
RTVSPost2010PropOp51
 70
     0
102
RTVSPost2010Prop52
140
1.0
102
RTVSPost2010PropOp52
 70
     0
102
RTVSPost2010Prop53
 90
        2
102
RTVSPost2010PropOp53
 70
     1
102
RTVSPost2010Prop54
  1
strokes_ogs.tif
102
RTVSPost2010PropOp54
 70
     1
102
RTVSPost2010Prop55
280
     0
102
RTVSPost2010PropOp55
 70
     1
102
RTVSPost2010Prop56
140
1.0
102
RTVSPost2010PropOp56
 70
     1
102
RTVSPost2010Prop57
140
1.0
102
RTVSPost2010PropOp57
 70
     1
  0
XRECORD
  5
29B
102
{ACAD_REACTORS
330
29A
102
}
330
29A
100
AcDbXrecord
280
     1
102
RTVSPropertyOp0
 70
     1
102
RTVSPropertyOp1
 70
     1
102
RTVSPropertyOp2
 70
     1
102
RTVSPropertyOp3
 70
     1
102
RTVSPropertyOp4
 70
     1
102
RTVSPropertyOp5
 70
     1
102
RTVSPropertyOp6
 70
     1
102
RTVSPropertyOp7
 70
     1
102
RTVSPropertyOp8
 70
     1
102
RTVSPropertyOp9
 70
     1
102
RTVSPropertyOp10
 70
     1
102
RTVSPropertyOp11
 70
     1
102
RTVSPropertyOp12
 70
     1
102
RTVSPropertyOp13
 70
     1
102
RTVSPropertyOp14
 70
     1
102
RTVSPropertyOp15
 70
     1
102
RTVSPropertyOp16
 70
     1
102
RTVSPropertyOp17
 70
     1
102
RTVSPropertyOp18
 70
     1
102
RTVSPropertyOp19
 70
     1
102
RTVSPropertyOp20
 70
     1
102
RTVSPropertyOp21
 70
     1
102
RTVSPropertyOp22
 70
     1
102
RTVSPropertyOp23
 70
     1
102
RTVSPropertyOp24
 70
     1
102
RTVSPropertyOp25
 70
     1
102
RTVSPropertyOp26
 70
     1
102
RTVSPropertyOp27
 70
     1
102
RTVSPropertyOp28
 70
     1
102
RTVSPropertyOp29
 70
     1
102
RTVSPropertyOp30
 70
     1
102
RTVSPropertyOp31
 70
     1
102
RTVSPropertyOp32
 70
     1
102
RTVSPropertyOp33
 70
     1
102
RTVSPropertyOp34
 70
     1
102
RTVSPropertyOp35
 70
     1
102
RTVSPropertyOp36
 70
     1
102
RTVSPropertyOp37
 70
     1
102
RTVSPropertyOp38
 70
     1
102
RTVSPropertyOp39
 70
     1
102
RTVSPropertyOp40
 70
     1
102
RTVSPropertyOp41
 70
     1
102
RTVSPropertyOp42
 70
     1
102
RTVSPropertyOp43
 70
     1
102
RTVSPropertyOp44
 70
     1
102
RTVSPropertyOp45
 70
     1
102
RTVSPropertyOp46
 70
     1
102
RTVSPropertyOp47
 70
     1
102
RTVSPropertyOp48
 70
     1
102
RTVSPropertyOp49
 70
     1
102
RTVSPropertyOp50
 70
     1
102
RTVSPropertyOp51
 70
     0
102
RTVSPropertyOp52
 70
     0
102
RTVSPropertyOp53
 70
     1
102
RTVSPropertyOp54
 70
     1
102
RTVSPropertyOp55
 70
     1
102
RTVSPropertyOp56
 70
     1
102
RTVSPropertyOp57
 70
     1
102
RTVSPost2010Prop28
280
     0
102
RTVSPost2010PropOp28
 70
     1
102
RTVSPost2010Prop29
280
     1
102
RTVSPost2010PropOp29
 70
     1
102
RTVSPost2010Prop30
280
     1
102
RTVSPost2010PropOp30
 70
     1
102
RTVSPost2010Prop31
280
     0
102
RTVSPost2010PropOp31
 70
     1
102
RTVSPost2010Prop32
280
     0
102
RTVSPost2010PropOp32
 70
     1
102
RTVSPost2010Prop33
280
     0
102
RTVSPost2010PropOp33
 70
     1
102
RTVSPost2010Prop34
280
     0
102
RTVSPost2010PropOp34
 70
     1
102
RTVSPost2010Prop35
280
     0
102
RTVSPost2010PropOp35
 70
     1
102
RTVSPost2010Prop36
280
     0
102
RTVSPost2010PropOp36
 70
     1
102
RTVSPost2010Prop37
 90
       50
102
RTVSPost2010PropOp37
 70
     1
102
RTVSPost2010Prop38
140
0.0
102
RTVSPost2010PropOp38
 70
     1
102
RTVSPost2010Prop39
140
1.0
102
RTVSPost2010PropOp39
 70
     1
102
RTVSPost2010Prop40
 90
        0
102
RTVSPost2010PropOp40
 70
     1
102
RTVSPost2010Prop41ColorIndex
 90
       18
102
RTVSPost2010Prop41ColorRGB
 90
        0
102
RTVSPost2010PropOp41
 70
     1
102
RTVSPost2010Prop42
 90
       50
102
RTVSPost2010PropOp42
 70
     1
102
RTVSPost2010Prop43
 90
        3
102
RTVSPost2010PropOp43
 70
     1
102
RTVSPost2010Prop44ColorIndex
 90
        5
102
RTVSPost2010Prop44ColorRGB
 90
      255
102
RTVSPost2010PropOp44
 70
     1
102
RTVSPost2010Prop45
280
     0
102
RTVSPost2010PropOp45
 70
     1
102
RTVSPost2010Prop46
 90
       50
102
RTVSPost2010PropOp46
 70
     1
102
RTVSPost2010Prop47
 90
       50
102
RTVSPost2010PropOp47
 70
     1
102
RTVSPost2010Prop48
 90
       50
102
RTVSPost2010PropOp48
 70
     1
102
RTVSPost2010Prop49
280
     0
102
RTVSPost2010PropOp49
 70
     1
102
RTVSPost2010Prop50
 90
       50
102
RTVSPost2010PropOp50
 70
     1
102
RTVSPost2010Prop51ColorIndex
 90
      256
102
RTVSPost2010Prop51ColorRGB
 90
-16777216
102
RTVSPost2010PropOp51
 70
     0
102
RTVSPost2010Prop52
140
1.0
102
RTVSPost2010PropOp52
 70
     0
102
RTVSPost2010Prop53
 90
        2
102
RTVSPost2010PropOp53
 70
     1
102
RTVSPost2010Prop54
  1
strokes_ogs.tif
102
RTVSPost2010PropOp54
 70
     1
102
RTVSPost2010Prop55
280
     0
102
RTVSPost2010PropOp55
 70
     1
102
RTVSPost2010Prop56
140
1.0
102
RTVSPost2010PropOp56
 70
     1
102
RTVSPost2010Prop57
140
1.0
102
RTVSPost2010PropOp57
 70
     1
  0
XRECORD
  5
28B
102
{ACAD_REACTORS
330
28A
102
}
330
28A
100
AcDbXrecord
280
     1
102
RTVSPropertyOp0
 70
     1
102
RTVSPropertyOp1
 70
     1
102
RTVSPropertyOp2
 70
     1
102
RTVSPropertyOp3
 70
     1
102
RTVSPropertyOp4
 70
     1
102
RTVSPropertyOp5
 70
     1
102
RTVSPropertyOp6
 70
     1
102
RTVSPropertyOp7
 70
     1
102
RTVSPropertyOp8
 70
     1
102
RTVSPropertyOp9
 70
     1
102
RTVSPropertyOp10
 70
     1
102
RTVSPropertyOp11
 70
     1
102
RTVSPropertyOp12
 70
     1
102
RTVSPropertyOp13
 70
     1
102
RTVSPropertyOp14
 70
     1
102
RTVSPropertyOp15
 70
     1
102
RTVSPropertyOp16
 70
     1
102
RTVSPropertyOp17
 70
     1
102
RTVSPropertyOp18
 70
     1
102
RTVSPropertyOp19
 70
     1
102
RTVSPropertyOp20
 70
     1
102
RTVSPropertyOp21
 70
     1
102
RTVSPropertyOp22
 70
     1
102
RTVSPropertyOp23
 70
     1
102
RTVSPropertyOp24
 70
     1
102
RTVSPropertyOp25
 70
     1
102
RTVSPropertyOp26
 70
     1
102
RTVSPropertyOp27
 70
     1
102
RTVSPropertyOp28
 70
     1
102
RTVSPropertyOp29
 70
     1
102
RTVSPropertyOp30
 70
     1
102
RTVSPropertyOp31
 70
     1
102
RTVSPropertyOp32
 70
     1
102
RTVSPropertyOp33
 70
     1
102
RTVSPropertyOp34
 70
     1
102
RTVSPropertyOp35
 70
     1
102
RTVSPropertyOp36
 70
     1
102
RTVSPropertyOp37
 70
     1
102
RTVSPropertyOp38
 70
     1
102
RTVSPropertyOp39
 70
     1
102
RTVSPropertyOp40
 70
     1
102
RTVSPropertyOp41
 70
     1
102
RTVSPropertyOp42
 70
     1
102
RTVSPropertyOp43
 70
     1
102
RTVSPropertyOp44
 70
     1
102
RTVSPropertyOp45
 70
     1
102
RTVSPropertyOp46
 70
     1
102
RTVSPropertyOp47
 70
     1
102
RTVSPropertyOp48
 70
     1
102
RTVSPropertyOp49
 70
     1
102
RTVSPropertyOp50
 70
     1
102
RTVSPropertyOp51
 70
     0
102
RTVSPropertyOp52
 70
     0
102
RTVSPropertyOp53
 70
     1
102
RTVSPropertyOp54
 70
     1
102
RTVSPropertyOp55
 70
     1
102
RTVSPropertyOp56
 70
     1
102
RTVSPropertyOp57
 70
     1
102
RTVSPost2010Prop28
280
     0
102
RTVSPost2010PropOp28
 70
     1
102
RTVSPost2010Prop29
280
     1
102
RTVSPost2010PropOp29
 70
     1
102
RTVSPost2010Prop30
280
     1
102
RTVSPost2010PropOp30
 70
     1
102
RTVSPost2010Prop31
280
     0
102
RTVSPost2010PropOp31
 70
     1
102
RTVSPost2010Prop32
280
     0
102
RTVSPost2010PropOp32
 70
     1
102
RTVSPost2010Prop33
280
     0
102
RTVSPost2010PropOp33
 70
     1
102
RTVSPost2010Prop34
280
     0
102
RTVSPost2010PropOp34
 70
     1
102
RTVSPost2010Prop35
280
     0
102
RTVSPost2010PropOp35
 70
     1
102
RTVSPost2010Prop36
280
     0
102
RTVSPost2010PropOp36
 70
     1
102
RTVSPost2010Prop37
 90
       50
102
RTVSPost2010PropOp37
 70
     1
102
RTVSPost2010Prop38
140
0.0
102
RTVSPost2010PropOp38
 70
     1
102
RTVSPost2010Prop39
140
1.0
102
RTVSPost2010PropOp39
 70
     1
102
RTVSPost2010Prop40
 90
        0
102
RTVSPost2010PropOp40
 70
     1
102
RTVSPost2010Prop41ColorIndex
 90
       18
102
RTVSPost2010Prop41ColorRGB
 90
        0
102
RTVSPost2010PropOp41
 70
     1
102
RTVSPost2010Prop42
 90
       50
102
RTVSPost2010PropOp42
 70
     1
102
RTVSPost2010Prop43
 90
        3
102
RTVSPost2010PropOp43
 70
     1
102
RTVSPost2010Prop44ColorIndex
 90
        5
102
RTVSPost2010Prop44ColorRGB
 90
      255
102
RTVSPost2010PropOp44
 70
     1
102
RTVSPost2010Prop45
280
     0
102
RTVSPost2010PropOp45
 70
     1
102
RTVSPost2010Prop46
 90
       50
102
RTVSPost2010PropOp46
 70
     1
102
RTVSPost2010Prop47
 90
       50
102
RTVSPost2010PropOp47
 70
     1
102
RTVSPost2010Prop48
 90
       50
102
RTVSPost2010PropOp48
 70
     1
102
RTVSPost2010Prop49
280
     0
102
RTVSPost2010PropOp49
 70
     1
102
RTVSPost2010Prop50
 90
       50
102
RTVSPost2010PropOp50
 70
     1
102
RTVSPost2010Prop51ColorIndex
 90
      256
102
RTVSPost2010Prop51ColorRGB
 90
-16777216
102
RTVSPost2010PropOp51
 70
     0
102
RTVSPost2010Prop52
140
1.0
102
RTVSPost2010PropOp52
 70
     0
102
RTVSPost2010Prop53
 90
        2
102
RTVSPost2010PropOp53
 70
     1
102
RTVSPost2010Prop54
  1
strokes_ogs.tif
102
RTVSPost2010PropOp54
 70
     1
102
RTVSPost2010Prop55
280
     0
102
RTVSPost2010PropOp55
 70
     1
102
RTVSPost2010Prop56
140
1.0
102
RTVSPost2010PropOp56
 70
     1
102
RTVSPost2010Prop57
140
1.0
102
RTVSPost2010PropOp57
 70
     1
  0
XRECORD
  5
27D
102
{ACAD_REACTORS
330
27C
102
}
330
27C
100
AcDbXrecord
280
     1
102
RTVSPropertyOp0
 70
     1
102
RTVSPropertyOp1
 70
     1
102
RTVSPropertyOp2
 70
     1
102
RTVSPropertyOp3
 70
     1
102
RTVSPropertyOp4
 70
     1
102
RTVSPropertyOp5
 70
     1
102
RTVSPropertyOp6
 70
     1
102
RTVSPropertyOp7
 70
     1
102
RTVSPropertyOp8
 70
     1
102
RTVSPropertyOp9
 70
     1
102
RTVSPropertyOp10
 70
     1
102
RTVSPropertyOp11
 70
     1
102
RTVSPropertyOp12
 70
     1
102
RTVSPropertyOp13
 70
     1
102
RTVSPropertyOp14
 70
     1
102
RTVSPropertyOp15
 70
     1
102
RTVSPropertyOp16
 70
     1
102
RTVSPropertyOp17
 70
     1
102
RTVSPropertyOp18
 70
     1
102
RTVSPropertyOp19
 70
     1
102
RTVSPropertyOp20
 70
     1
102
RTVSPropertyOp21
 70
     1
102
RTVSPropertyOp22
 70
     1
102
RTVSPropertyOp23
 70
     1
102
RTVSPropertyOp24
 70
     1
102
RTVSPropertyOp25
 70
     1
102
RTVSPropertyOp26
 70
     1
102
RTVSPropertyOp27
 70
     1
102
RTVSPropertyOp28
 70
     1
102
RTVSPropertyOp29
 70
     1
102
RTVSPropertyOp30
 70
     1
102
RTVSPropertyOp31
 70
     1
102
RTVSPropertyOp32
 70
     1
102
RTVSPropertyOp33
 70
     1
102
RTVSPropertyOp34
 70
     1
102
RTVSPropertyOp35
 70
     1
102
RTVSPropertyOp36
 70
     1
102
RTVSPropertyOp37
 70
     1
102
RTVSPropertyOp38
 70
     1
102
RTVSPropertyOp39
 70
     1
102
RTVSPropertyOp40
 70
     1
102
RTVSPropertyOp41
 70
     1
102
RTVSPropertyOp42
 70
     1
102
RTVSPropertyOp43
 70
     1
102
RTVSPropertyOp44
 70
     1
102
RTVSPropertyOp45
 70
     1
102
RTVSPropertyOp46
 70
     1
102
RTVSPropertyOp47
 70
     1
102
RTVSPropertyOp48
 70
     1
102
RTVSPropertyOp49
 70
     1
102
RTVSPropertyOp50
 70
     1
102
RTVSPropertyOp51
 70
     0
102
RTVSPropertyOp52
 70
     0
102
RTVSPropertyOp53
 70
     1
102
RTVSPropertyOp54
 70
     1
102
RTVSPropertyOp55
 70
     1
102
RTVSPropertyOp56
 70
     1
102
RTVSPropertyOp57
 70
     1
102
RTVSPost2010Prop28
280
     0
102
RTVSPost2010PropOp28
 70
     1
102
RTVSPost2010Prop29
280
     1
102
RTVSPost2010PropOp29
 70
     1
102
RTVSPost2010Prop30
280
     1
102
RTVSPost2010PropOp30
 70
     1
102
RTVSPost2010Prop31
280
     0
102
RTVSPost2010PropOp31
 70
     1
102
RTVSPost2010Prop32
280
     0
102
RTVSPost2010PropOp32
 70
     1
102
RTVSPost2010Prop33
280
     0
102
RTVSPost2010PropOp33
 70
     1
102
RTVSPost2010Prop34
280
     0
102
RTVSPost2010PropOp34
 70
     1
102
RTVSPost2010Prop35
280
     0
102
RTVSPost2010PropOp35
 70
     1
102
RTVSPost2010Prop36
280
     0
102
RTVSPost2010PropOp36
 70
     1
102
RTVSPost2010Prop37
 90
       50
102
RTVSPost2010PropOp37
 70
     1
102
RTVSPost2010Prop38
140
0.0
102
RTVSPost2010PropOp38
 70
     1
102
RTVSPost2010Prop39
140
1.0
102
RTVSPost2010PropOp39
 70
     1
102
RTVSPost2010Prop40
 90
        0
102
RTVSPost2010PropOp40
 70
     1
102
RTVSPost2010Prop41ColorIndex
 90
       18
102
RTVSPost2010Prop41ColorRGB
 90
        0
102
RTVSPost2010PropOp41
 70
     1
102
RTVSPost2010Prop42
 90
       50
102
RTVSPost2010PropOp42
 70
     1
102
RTVSPost2010Prop43
 90
        3
102
RTVSPost2010PropOp43
 70
     1
102
RTVSPost2010Prop44ColorIndex
 90
        5
102
RTVSPost2010Prop44ColorRGB
 90
      255
102
RTVSPost2010PropOp44
 70
     1
102
RTVSPost2010Prop45
280
     0
102
RTVSPost2010PropOp45
 70
     1
102
RTVSPost2010Prop46
 90
       50
102
RTVSPost2010PropOp46
 70
     1
102
RTVSPost2010Prop47
 90
       50
102
RTVSPost2010PropOp47
 70
     1
102
RTVSPost2010Prop48
 90
       50
102
RTVSPost2010PropOp48
 70
     1
102
RTVSPost2010Prop49
280
     0
102
RTVSPost2010PropOp49
 70
     1
102
RTVSPost2010Prop50
 90
       50
102
RTVSPost2010PropOp50
 70
     1
102
RTVSPost2010Prop51ColorIndex
 90
      256
102
RTVSPost2010Prop51ColorRGB
 90
-16777216
102
RTVSPost2010PropOp51
 70
     0
102
RTVSPost2010Prop52
140
1.0
102
RTVSPost2010PropOp52
 70
     0
102
RTVSPost2010Prop53
 90
        2
102
RTVSPost2010PropOp53
 70
     1
102
RTVSPost2010Prop54
  1
strokes_ogs.tif
102
RTVSPost2010PropOp54
 70
     1
102
RTVSPost2010Prop55
280
     0
102
RTVSPost2010PropOp55
 70
     1
102
RTVSPost2010Prop56
140
1.0
102
RTVSPost2010PropOp56
 70
     1
102
RTVSPost2010Prop57
140
1.0
102
RTVSPost2010PropOp57
 70
     1
  0
XRECORD
  5
29D
102
{ACAD_REACTORS
330
29C
102
}
330
29C
100
AcDbXrecord
280
     1
102
RTVSPropertyOp0
 70
     1
102
RTVSPropertyOp1
 70
     1
102
RTVSPropertyOp2
 70
     1
102
RTVSPropertyOp3
 70
     1
102
RTVSPropertyOp4
 70
     1
102
RTVSPropertyOp5
 70
     1
102
RTVSPropertyOp6
 70
     1
102
RTVSPropertyOp7
 70
     1
102
RTVSPropertyOp8
 70
     1
102
RTVSPropertyOp9
 70
     1
102
RTVSPropertyOp10
 70
     1
102
RTVSPropertyOp11
 70
     1
102
RTVSPropertyOp12
 70
     1
102
RTVSPropertyOp13
 70
     1
102
RTVSPropertyOp14
 70
     1
102
RTVSPropertyOp15
 70
     1
102
RTVSPropertyOp16
 70
     1
102
RTVSPropertyOp17
 70
     1
102
RTVSPropertyOp18
 70
     1
102
RTVSPropertyOp19
 70
     1
102
RTVSPropertyOp20
 70
     1
102
RTVSPropertyOp21
 70
     1
102
RTVSPropertyOp22
 70
     1
102
RTVSPropertyOp23
 70
     1
102
RTVSPropertyOp24
 70
     1
102
RTVSPropertyOp25
 70
     1
102
RTVSPropertyOp26
 70
     1
102
RTVSPropertyOp27
 70
     1
102
RTVSPropertyOp28
 70
     1
102
RTVSPropertyOp29
 70
     1
102
RTVSPropertyOp30
 70
     1
102
RTVSPropertyOp31
 70
     1
102
RTVSPropertyOp32
 70
     1
102
RTVSPropertyOp33
 70
     1
102
RTVSPropertyOp34
 70
     1
102
RTVSPropertyOp35
 70
     1
102
RTVSPropertyOp36
 70
     1
102
RTVSPropertyOp37
 70
     1
102
RTVSPropertyOp38
 70
     1
102
RTVSPropertyOp39
 70
     1
102
RTVSPropertyOp40
 70
     1
102
RTVSPropertyOp41
 70
     1
102
RTVSPropertyOp42
 70
     1
102
RTVSPropertyOp43
 70
     1
102
RTVSPropertyOp44
 70
     1
102
RTVSPropertyOp45
 70
     1
102
RTVSPropertyOp46
 70
     1
102
RTVSPropertyOp47
 70
     1
102
RTVSPropertyOp48
 70
     1
102
RTVSPropertyOp49
 70
     1
102
RTVSPropertyOp50
 70
     1
102
RTVSPropertyOp51
 70
     0
102
RTVSPropertyOp52
 70
     0
102
RTVSPropertyOp53
 70
     1
102
RTVSPropertyOp54
 70
     1
102
RTVSPropertyOp55
 70
     1
102
RTVSPropertyOp56
 70
     1
102
RTVSPropertyOp57
 70
     1
102
RTVSPost2010Prop28
280
     0
102
RTVSPost2010PropOp28
 70
     1
102
RTVSPost2010Prop29
280
     1
102
RTVSPost2010PropOp29
 70
     1
102
RTVSPost2010Prop30
280
     1
102
RTVSPost2010PropOp30
 70
     1
102
RTVSPost2010Prop31
280
     0
102
RTVSPost2010PropOp31
 70
     1
102
RTVSPost2010Prop32
280
     0
102
RTVSPost2010PropOp32
 70
     1
102
RTVSPost2010Prop33
280
     0
102
RTVSPost2010PropOp33
 70
     1
102
RTVSPost2010Prop34
280
     0
102
RTVSPost2010PropOp34
 70
     1
102
RTVSPost2010Prop35
280
     0
102
RTVSPost2010PropOp35
 70
     1
102
RTVSPost2010Prop36
280
     0
102
RTVSPost2010PropOp36
 70
     1
102
RTVSPost2010Prop37
 90
       50
102
RTVSPost2010PropOp37
 70
     1
102
RTVSPost2010Prop38
140
0.0
102
RTVSPost2010PropOp38
 70
     1
102
RTVSPost2010Prop39
140
1.0
102
RTVSPost2010PropOp39
 70
     1
102
RTVSPost2010Prop40
 90
        0
102
RTVSPost2010PropOp40
 70
     1
102
RTVSPost2010Prop41ColorIndex
 90
       18
102
RTVSPost2010Prop41ColorRGB
 90
        0
102
RTVSPost2010PropOp41
 70
     1
102
RTVSPost2010Prop42
 90
       50
102
RTVSPost2010PropOp42
 70
     1
102
RTVSPost2010Prop43
 90
        3
102
RTVSPost2010PropOp43
 70
     1
102
RTVSPost2010Prop44ColorIndex
 90
        5
102
RTVSPost2010Prop44ColorRGB
 90
      255
102
RTVSPost2010PropOp44
 70
     1
102
RTVSPost2010Prop45
280
     0
102
RTVSPost2010PropOp45
 70
     1
102
RTVSPost2010Prop46
 90
       50
102
RTVSPost2010PropOp46
 70
     1
102
RTVSPost2010Prop47
 90
       50
102
RTVSPost2010PropOp47
 70
     1
102
RTVSPost2010Prop48
 90
       50
102
RTVSPost2010PropOp48
 70
     1
102
RTVSPost2010Prop49
280
     0
102
RTVSPost2010PropOp49
 70
     1
102
RTVSPost2010Prop50
 90
       50
102
RTVSPost2010PropOp50
 70
     1
102
RTVSPost2010Prop51ColorIndex
 90
      256
102
RTVSPost2010Prop51ColorRGB
 90
-16777216
102
RTVSPost2010PropOp51
 70
     0
102
RTVSPost2010Prop52
140
1.0
102
RTVSPost2010PropOp52
 70
     0
102
RTVSPost2010Prop53
 90
        2
102
RTVSPost2010PropOp53
 70
     1
102
RTVSPost2010Prop54
  1
strokes_ogs.tif
102
RTVSPost2010PropOp54
 70
     1
102
RTVSPost2010Prop55
280
     0
102
RTVSPost2010PropOp55
 70
     1
102
RTVSPost2010Prop56
140
1.0
102
RTVSPost2010PropOp56
 70
     1
102
RTVSPost2010Prop57
140
1.0
102
RTVSPost2010PropOp57
 70
     1
  0
ENDSEC
  0
EOF
