  0
SECTION
  2
HEADER
  9
$ACADVER
  1
AC1021
  9
$ACADMAINTVER
 70
    25
  9
$DWGCODEPAGE
  3
ANSI_1252
  9
$INSBASE
 10
0.0
 20
0.0
 30
0.0
  9
$EXTMIN
 10
0.0
 20
0.0
 30
0.0
  9
$EXTMAX
 10
420.0
 20
297.0
 30
0.0
  9
$LIMMIN
 10
0.0
 20
0.0
  9
$LIMMAX
 10
420.0
 20
297.0
  9
$ORTHOMODE
 70
     0
  9
$REGENMODE
 70
     1
  9
$FILLMODE
 70
     1
  9
$QTEXTMODE
 70
     0
  9
$MIRRTEXT
 70
     1
  9
$LTSCALE
 40
1.0
  9
$ATTMODE
 70
     1
  9
$TEXTSIZE
 40
2.5
  9
$TRACEWID
 40
1.0
  9
$TEXTSTYLE
  7
Standard
  9
$CLAYER
  8
0
  9
$CELTYPE
  6
ByLayer
  9
$CECOLOR
 62
   256
  9
$CELTSCALE
 40
1.0
  9
$DISPSILH
 70
     0
  9
$DIMSCALE
 40
1.0
  9
$DIMASZ
 40
2.5
  9
$DIMEXO
 40
0.625
  9
$DIMDLI
 40
3.75
  9
$DIMRND
 40
0.0
  9
$DIMDLE
 40
0.0
  9
$DIMEXE
 40
1.25
  9
$DIMTP
 40
0.0
  9
$DIMTM
 40
0.0
  9
$DIMTXT
 40
2.5
  9
$DIMCEN
 40
2.5
  9
$DIMTSZ
 40
0.0
  9
$DIMTOL
 70
     0
  9
$DIMLIM
 70
     0
  9
$DIMTIH
 70
     0
  9
$DIMTOH
 70
     0
  9
$DIMSE1
 70
     0
  9
$DIMSE2
 70
     0
  9
$DIMTAD
 70
     1
  9
$DIMZIN
 70
     8
  9
$DIMBLK
  1

  9
$DIMASO
 70
     1
  9
$DIMSHO
 70
     1
  9
$DIMPOST
  1

  9
$DIMAPOST
  1

  9
$DIMALT
 70
     0
  9
$DIMALTD
 70
     3
  9
$DIMALTF
 40
0.0393700787
  9
$DIMLFAC
 40
1.0
  9
$DIMTOFL
 70
     1
  9
$DIMTVP
 40
0.0
  9
$DIMTIX
 70
     0
  9
$DIMSOXD
 70
     0
  9
$DIMSAH
 70
     0
  9
$DIMBLK1
  1

  9
$DIMBLK2
  1

  9
$DIMSTYLE
  2
ISO-25
  9
$DIMCLRD
 70
     0
  9
$DIMCLRE
 70
     0
  9
$DIMCLRT
 70
     0
  9
$DIMTFAC
 40
1.0
  9
$DIMGAP
 40
0.625
  9
$DIMJUST
 70
     0
  9
$DIMSD1
 70
     0
  9
$DIMSD2
 70
     0
  9
$DIMTOLJ
 70
     0
  9
$DIMTZIN
 70
     8
  9
$DIMALTZ
 70
     0
  9
$DIMALTTZ
 70
     0
  9
$DIMUPT
 70
     0
  9
$DIMDEC
 70
     2
  9
$DIMTDEC
 70
     2
  9
$DIMALTU
 70
     2
  9
$DIMALTTD
 70
     3
  9
$DIMTXSTY
  7
Standard
  9
$DIMAUNIT
 70
     0
  9
$DIMADEC
 70
     0
  9
$DIMALTRND
 40
0.0
  9
$DIMAZIN
 70
     0
  9
$DIMDSEP
 70
    44
  9
$DIMATFIT
 70
     3
  9
$DIMFRAC
 70
     0
  9
$DIMLDRBLK
  1

  9
$DIMLUNIT
 70
     2
  9
$DIMLWD
 70
    -2
  9
$DIMLWE
 70
    -2
  9
$DIMTMOVE
 70
     0
  9
$DIMFXL
 40
1.0
  9
$DIMFXLON
 70
     0
  9
$DIMJOGANG
 40
0.7853981634
  9
$DIMTFILL
 70
     0
  9
$DIMTFILLCLR
 70
     0
  9
$DIMARCSYM
 70
     0
  9
$DIMLTYPE
  6

  9
$DIMLTEX1
  6

  9
$DIMLTEX2
  6

  9
$LUNITS
 70
     2
  9
$LUPREC
 70
     4
  9
$SKETCHINC
 40
1.0
  9
$FILLETRAD
 40
10.0
  9
$AUNITS
 70
     0
  9
$AUPREC
 70
     0
  9
$MENU
  1
.
  9
$ELEVATION
 40
0.0
  9
$PELEVATION
 40
0.0
  9
$THICKNESS
 40
0.0
  9
$LIMCHECK
 70
     0
  9
$CHAMFERA
 40
0.0
  9
$CHAMFERB
 40
0.0
  9
$CHAMFERC
 40
0.0
  9
$CHAMFERD
 40
0.0
  9
$SKPOLY
 70
     0
  9
$TDCREATE
 40
2460277.42884691
  9
$TDUCREATE
 40
2460277.387180243
  9
$TDUPDATE
 40
2460277.42884721
  9
$TDUUPDATE
 40
2460277.387180544
  9
$TDINDWG
 40
0.0000000116
  9
$TDUSRTIMER
 40
0.0000000116
  9
$USRTIMER
 70
     1
  9
$ANGBASE
 50
0.0
  9
$ANGDIR
 70
     0
  9
$PDMODE
 70
     0
  9
$PDSIZE
 40
0.0
  9
$PLINEWID
 40
0.0
  9
$SPLFRAME
 70
     0
  9
$SPLINETYPE
 70
     6
  9
$SPLINESEGS
 70
     8
  9
$HANDSEED
  5
29D
  9
$SURFTAB1
 70
     6
  9
$SURFTAB2
 70
     6
  9
$SURFTYPE
 70
     6
  9
$SURFU
 70
     6
  9
$SURFV
 70
     6
  9
$UCSBASE
  2

  9
$UCSNAME
  2

  9
$UCSORG
 10
0.0
 20
0.0
 30
0.0
  9
$UCSXDIR
 10
1.0
 20
0.0
 30
0.0
  9
$UCSYDIR
 10
0.0
 20
1.0
 30
0.0
  9
$UCSORTHOREF
  2

  9
$UCSORTHOVIEW
 70
     0
  9
$UCSORGTOP
 10
0.0
 20
0.0
 30
0.0
  9
$UCSORGBOTTOM
 10
0.0
 20
0.0
 30
0.0
  9
$UCSORGLEFT
 10
0.0
 20
0.0
 30
0.0
  9
$UCSORGRIGHT
 10
0.0
 20
0.0
 30
0.0
  9
$UCSORGFRONT
 10
0.0
 20
0.0
 30
0.0
  9
$UCSORGBACK
 10
0.0
 20
0.0
 30
0.0
  9
$PUCSBASE
  2

  9
$PUCSNAME
  2

  9
$PUCSORG
 10
0.0
 20
0.0
 30
0.0
  9
$PUCSXDIR
 10
1.0
 20
0.0
 30
0.0
  9
$PUCSYDIR
 10
0.0
 20
1.0
 30
0.0
  9
$PUCSORTHOREF
  2

  9
$PUCSORTHOVIEW
 70
     0
  9
$PUCSORGTOP
 10
0.0
 20
0.0
 30
0.0
  9
$PUCSORGBOTTOM
 10
0.0
 20
0.0
 30
0.0
  9
$PUCSORGLEFT
 10
0.0
 20
0.0
 30
0.0
  9
$PUCSORGRIGHT
 10
0.0
 20
0.0
 30
0.0
  9
$PUCSORGFRONT
 10
0.0
 20
0.0
 30
0.0
  9
$PUCSORGBACK
 10
0.0
 20
0.0
 30
0.0
  9
$USERI1
 70
     0
  9
$USERI2
 70
     0
  9
$USERI3
 70
     0
  9
$USERI4
 70
     0
  9
$USERI5
 70
     0
  9
$USERR1
 40
0.0
  9
$USERR2
 40
0.0
  9
$USERR3
 40
0.0
  9
$USERR4
 40
0.0
  9
$USERR5
 40
0.0
  9
$WORLDVIEW
 70
     1
  9
$SHADEDGE
 70
     3
  9
$SHADEDIF
 70
    70
  9
$TILEMODE
 70
     1
  9
$MAXACTVP
 70
    64
  9
$PINSBASE
 10
0.0
 20
0.0
 30
0.0
  9
$PLIMCHECK
 70
     0
  9
$PEXTMIN
 10
0.0
 20
0.0
 30
0.0
  9
$PEXTMAX
 10
420.0
 20
297.0
 30
0.0
  9
$PLIMMIN
 10
0.0
 20
0.0
  9
$PLIMMAX
 10
420.0
 20
297.0
  9
$UNITMODE
 70
     0
  9
$VISRETAIN
 70
     1
  9
$PLINEGEN
 70
     0
  9
$PSLTSCALE
 70
     1
  9
$TREEDEPTH
 70
  3020
  9
$CMLSTYLE
  2
Standard
  9
$CMLJUST
 70
     0
  9
$CMLSCALE
 40
20.0
  9
$PROXYGRAPHICS
 70
     1
  9
$MEASUREMENT
 70
     1
  9
$CELWEIGHT
370
    -1
  9
$ENDCAPS
280
     0
  9
$JOINSTYLE
280
     0
  9
$LWDISPLAY
290
     0
  9
$INSUNITS
 70
     4
  9
$HYPERLINKBASE
  1

  9
$STYLESHEET
  1

  9
$XEDIT
290
     1
  9
$CEPSNTYPE
380
     0
  9
$PSTYLEMODE
290
     1
  9
$FINGERPRINTGUID
  2
{06b03b6f-cb50-4de3-b3b2-d241d4e0328e}
  9
$VERSIONGUID
  2
{FAEB1C32-E019-11D5-929B-00C0DF256EC4}
  9
$EXTNAMES
290
     1
  9
$PSVPSCALE
 40
0.0
  9
$OLESTARTUP
290
     0
  9
$SORTENTS
280
   127
  9
$INDEXCTL
280
     0
  9
$HIDETEXT
280
     1
  9
$XCLIPFRAME
290
     0
  9
$HALOGAP
280
     0
  9
$OBSCOLOR
 70
   257
  9
$OBSLTYPE
280
     0
  9
$INTERSECTIONDISPLAY
280
     0
  9
$INTERSECTIONCOLOR
 70
   257
  9
$DIMASSOC
280
     2
  9
$PROJECTNAME
  1

  9
$CAMERADISPLAY
290
     0
  9
$LENSLENGTH
 40
50.0
  9
$CAMERAHEIGHT
 40
0.0
  9
$STEPSPERSEC
 40
2.0
  9
$STEPSIZE
 40
6.0
  9
$3DDWFPREC
 40
2.0
  9
$PSOLWIDTH
 40
5.0
  9
$PSOLHEIGHT
 40
80.0
  9
$LOFTANG1
 40
1.5707963268
  9
$LOFTANG2
 40
1.5707963268
  9
$LOFTMAG1
 40
0.0
  9
$LOFTMAG2
 40
0.0
  9
$LOFTPARAM
 70
     7
  9
$LOFTNORMALS
280
     1
  9
$LATITUDE
 40
37.795
  9
$LONGITUDE
 40
-122.394
  9
$NORTHDIRECTION
 40
0.0
  9
$TIMEZONE
 70
 -8000
  9
$LIGHTGLYPHDISPLAY
280
     1
  9
$TILEMODELIGHTSYNCH
280
     1
  9
$CMATERIAL
347
44
  9
$SOLIDHIST
280
     0
  9
$SHOWHIST
280
     1
  9
$DWFFRAME
280
     2
  9
$DGNFRAME
280
     2
  9
$REALWORLDSCALE
290
     1
  9
$INTERFERECOLOR
 62
   256
  9
$CSHADOW
280
     0
  9
$SHADOWPLANELOCATION
 40
0.0
  0
ENDSEC
  0
SECTION
  2
CLASSES
  0
CLASS
  1
ACDBDICTIONARYWDFLT
  2
AcDbDictionaryWithDefault
  3
ObjectDBX Classes
 90
        0
 91
        3
280
     0
281
     0
  0
CLASS
  1
VISUALSTYLE
  2
AcDbVisualStyle
  3
ObjectDBX Classes
 90
     4095
 91
        3
280
     0
281
     0
  0
CLASS
  1
MATERIAL
  2
AcDbMaterial
  3
ObjectDBX Classes
 90
     1153
 91
        3
280
     0
281
     0
  0
CLASS
  1
SCALE
  2
AcDbScale
  3
ObjectDBX Classes
 90
     1153
 91
        3
280
     0
281
     0
  0
CLASS
  1
TABLESTYLE
  2
AcDbTableStyle
  3
ObjectDBX Classes
 90
     4095
 91
        3
280
     0
281
     0
  0
CLASS
  1
MLEADERSTYLE
  2
AcDbMLeaderStyle
  3
ACDB_MLEADERSTYLE_CLASS
 90
     4095
 91
        3
280
     0
281
     0
  0
CLASS
  1
SUN
  2
AcDbSun
  3
SCENEOE
 90
     1153
 91
        3
280
     0
281
     0
  0
CLASS
  1
DICTIONARYVAR
  2
AcDbDictionaryVar
  3
ObjectDBX Classes
 90
        0
 91
        3
280
     0
281
     0
  0
CLASS
  1
CELLSTYLEMAP
  2
AcDbCellStyleMap
  3
ObjectDBX Classes
 90
     1152
 91
        3
280
     0
281
     0
  0
ENDSEC
  0
SECTION
  2
TABLES
  0
TABLE
  2
VPORT
  5
8
330
0
100
AcDbSymbolTable
 70
     1
  0
VPORT
  5
29
330
8
100
AcDbSymbolTableRecord
100
AcDbViewportTableRecord
  2
*Active
 70
     0
 10
0.0
 20
0.0
 11
1.0
 21
1.0
 12
344.1869158879
 22
148.5
 13
0.0
 23
0.0
 14
10.0
 24
10.0
 15
10.0
 25
10.0
 16
0.0
 26
0.0
 36
1.0
 17
0.0
 27
0.0
 37
0.0
 40
297.0
 41
1.9729729729
 42
50.0
 43
0.0
 44
0.0
 50
0.0
 51
0.0
 71
     0
 72
   100
 73
     1
 74
     3
 75
     0
 76
     0
 77
     0
 78
     0
281
     0
 65
     1
110
0.0
120
0.0
130
0.0
111
1.0
121
0.0
131
0.0
112
0.0
122
1.0
132
0.0
 79
     0
146
0.0
348
2F
 60
     3
 61
     5
292
     1
282
     1
141
0.0
142
0.0
 63
   250
361
6D
  0
ENDTAB
  0
TABLE
  2
LTYPE
  5
5
330
0
100
AcDbSymbolTable
 70
     1
  0
LTYPE
  5
14
330
5
100
AcDbSymbolTableRecord
100
AcDbLinetypeTableRecord
  2
ByBlock
 70
     0
  3

 72
    65
 73
     0
 40
0.0
  0
LTYPE
  5
15
330
5
100
AcDbSymbolTableRecord
100
AcDbLinetypeTableRecord
  2
ByLayer
 70
     0
  3

 72
    65
 73
     0
 40
0.0
  0
LTYPE
  5
16
330
5
100
AcDbSymbolTableRecord
100
AcDbLinetypeTableRecord
  2
Continuous
 70
     0
  3
Solid line
 72
    65
 73
     0
 40
0.0
  0
ENDTAB
  0
TABLE
  2
LAYER
  5
2
330
0
100
AcDbSymbolTable
 70
     3
  0
LAYER
  5
10
330
2
100
AcDbSymbolTableRecord
100
AcDbLayerTableRecord
  2
0
 70
     0
 62
     7
  6
Continuous
370
    -3
390
F
347
46
  0
LAYER
  5
6E
330
2
100
AcDbSymbolTableRecord
100
AcDbLayerTableRecord
  2
Default
 70
     0
 62
     7
  6
Continuous
370
    -3
390
F
347
46
  0
LAYER
  5
71
330
2
100
AcDbSymbolTableRecord
100
AcDbLayerTableRecord
  2
TA-SMART_DN40_NP
 70
     0
 62
     7
  6
Continuous
370
    -3
390
F
347
46
  0
ENDTAB
  0
TABLE
  2
STYLE
  5
3
330
0
100
AcDbSymbolTable
 70
     1
  0
STYLE
  5
11
330
3
100
AcDbSymbolTableRecord
100
AcDbTextStyleTableRecord
  2
Standard
 70
     0
 40
0.0
 41
1.0
 50
0.0
 71
     0
 42
2.5
  3
txt
  4

  0
ENDTAB
  0
TABLE
  2
VIEW
  5
6
330
0
100
AcDbSymbolTable
 70
     0
  0
ENDTAB
  0
TABLE
  2
UCS
  5
7
330
0
100
AcDbSymbolTable
 70
     0
  0
ENDTAB
  0
TABLE
  2
APPID
  5
9
330
0
100
AcDbSymbolTable
 70
     2
  0
APPID
  5
12
330
9
100
AcDbSymbolTableRecord
100
AcDbRegAppTableRecord
  2
ACAD
 70
     0
  0
APPID
  5
293
330
9
100
AcDbSymbolTableRecord
100
AcDbRegAppTableRecord
  2
ACAD_MLEADERVER
 70
     0
  0
ENDTAB
  0
TABLE
  2
DIMSTYLE
  5
A
330
0
100
AcDbSymbolTable
 70
     1
100
AcDbDimStyleTable
  0
DIMSTYLE
105
27
330
A
100
AcDbSymbolTableRecord
100
AcDbDimStyleTableRecord
  2
ISO-25
 70
     0
 41
2.5
 42
0.625
 43
3.75
 44
1.25
 73
     0
 74
     0
 77
     1
 78
     8
140
2.5
141
2.5
143
0.0393700787
147
0.625
171
     3
172
     1
178
     0
271
     2
272
     2
274
     3
278
    44
283
     0
284
     8
340
11
  0
ENDTAB
  0
TABLE
  2
BLOCK_RECORD
  5
1
330
0
100
AcDbSymbolTable
 70
     5
  0
BLOCK_RECORD
  5
1F
330
1
100
AcDbSymbolTableRecord
100
AcDbBlockTableRecord
  2
*Model_Space
340
22
 70
     0
280
     1
281
     0
  0
BLOCK_RECORD
  5
1B
330
1
100
AcDbSymbolTableRecord
100
AcDbBlockTableRecord
  2
*Paper_Space
340
1E
 70
     0
280
     1
281
     0
  0
BLOCK_RECORD
  5
6F
330
1
100
AcDbSymbolTableRecord
100
AcDbBlockTableRecord
  2
SE
340
0
102
{BLKREFS
331
70
102
}
 70
     0
280
     1
281
     0
  0
BLOCK_RECORD
  5
B5
330
1
100
AcDbSymbolTableRecord
100
AcDbBlockTableRecord
  2
SE1
340
0
102
{BLKREFS
331
B6
102
}
 70
     0
280
     1
281
     0
  0
BLOCK_RECORD
  5
128
330
1
100
AcDbSymbolTableRecord
100
AcDbBlockTableRecord
  2
SE2
340
0
102
{BLKREFS
331
129
102
}
 70
     0
280
     1
281
     0
  0
BLOCK_RECORD
  5
18E
330
1
100
AcDbSymbolTableRecord
100
AcDbBlockTableRecord
  2
SE3
340
0
102
{BLKREFS
331
18F
102
}
 70
     0
280
     1
281
     0
  0
BLOCK_RECORD
  5
201
330
1
100
AcDbSymbolTableRecord
100
AcDbBlockTableRecord
  2
SE4
340
0
102
{BLKREFS
331
202
102
}
 70
     0
280
     1
281
     0
  0
ENDTAB
  0
ENDSEC
  0
SECTION
  2
BLOCKS
  0
BLOCK
  5
20
330
1F
100
AcDbEntity
  8
0
100
AcDbBlockBegin
  2
*Model_Space
 70
     0
 10
0.0
 20
0.0
 30
0.0
  3
*Model_Space
  1

  0
ENDBLK
  5
21
330
1F
100
AcDbEntity
  8
0
100
AcDbBlockEnd
  0
BLOCK
  5
1C
330
1B
100
AcDbEntity
 67
     1
  8
0
100
AcDbBlockBegin
  2
*Paper_Space
 70
     0
 10
0.0
 20
0.0
 30
0.0
  3
*Paper_Space
  1

  0
ENDBLK
  5
1D
330
1B
100
AcDbEntity
 67
     1
  8
0
100
AcDbBlockEnd
  0
BLOCK
  5
B3
330
6F
100
AcDbEntity
  8
0
100
AcDbBlockBegin
  2
SE
 70
     0
 10
0.0
 20
0.0
 30
0.0
  3
SE
  1

  0
CIRCLE
  5
72
330
6F
100
AcDbEntity
  8
TA-SMART_DN40_NP
  6
Continuous
 62
     7
100
AcDbCircle
 10
104.2198481364
 20
206.260618093
 30
0.0
 40
26.99999999999999
  0
ARC
  5
73
330
6F
100
AcDbEntity
  8
TA-SMART_DN40_NP
  6
Continuous
 62
     7
100
AcDbCircle
 10
104.2198481364
 20
206.260618093
 30
0.0
 40
28.99999999999999
100
AcDbArc
 50
289.627455308
 51
295.3725422251
  0
CIRCLE
  5
74
330
6F
100
AcDbEntity
  8
TA-SMART_DN40_NP
  6
Continuous
 62
     7
100
AcDbCircle
 10
104.2198481364
 20
206.260618093
 30
0.0
 40
30.24999999999998
  0
ARC
  5
75
330
6F
100
AcDbEntity
  8
TA-SMART_DN40_NP
  6
Continuous
 62
     7
100
AcDbCircle
 10
104.2198481364
 20
206.260618093
 30
0.0
 40
28.99999999999999
100
AcDbArc
 50
334.6274696858
 51
340.3725278474
  0
ARC
  5
76
330
6F
100
AcDbEntity
  8
TA-SMART_DN40_NP
  6
Continuous
 62
     7
100
AcDbCircle
 10
104.2198481364
 20
206.260618093
 30
0.0
 40
28.99999999999999
100
AcDbArc
 50
19.627455308
 51
25.3725422251
  0
ARC
  5
77
330
6F
100
AcDbEntity
  8
TA-SMART_DN40_NP
  6
Continuous
 62
     7
100
AcDbCircle
 10
104.2198481364
 20
206.260618093
 30
0.0
 40
28.99999999999999
100
AcDbArc
 50
64.6274696858
 51
70.3725278474
  0
ARC
  5
78
330
6F
100
AcDbEntity
  8
TA-SMART_DN40_NP
  6
Continuous
 62
     7
100
AcDbCircle
 10
104.2198481364
 20
206.260618093
 30
0.0
 40
28.99999999999999
100
AcDbArc
 50
109.627455308
 51
115.3725422251
  0
ARC
  5
79
330
6F
100
AcDbEntity
  8
TA-SMART_DN40_NP
  6
Continuous
 62
     7
100
AcDbCircle
 10
104.2198481364
 20
206.260618093
 30
0.0
 40
28.99999999999999
100
AcDbArc
 50
154.6274696858
 51
160.3725278474
  0
ARC
  5
7A
330
6F
100
AcDbEntity
  8
TA-SMART_DN40_NP
  6
Continuous
 62
     7
100
AcDbCircle
 10
104.2198481364
 20
206.260618093
 30
0.0
 40
28.99999999999999
100
AcDbArc
 50
199.627455308
 51
205.3725422251
  0
ARC
  5
7B
330
6F
100
AcDbEntity
  8
TA-SMART_DN40_NP
  6
Continuous
 62
     7
100
AcDbCircle
 10
104.2198481364
 20
206.260618093
 30
0.0
 40
28.99999999999999
100
AcDbArc
 50
244.6274696858
 51
250.3725278474
  0
LINE
  5
7C
330
6F
100
AcDbEntity
  8
TA-SMART_DN40_NP
  6
Continuous
 62
     7
100
AcDbLine
 10
94.4786625425
 20
233.5756195249
 30
0.0
 11
113.9610417607
 21
233.5756166611
 31
0.0
  0
LINE
  5
7D
330
6F
100
AcDbEntity
  8
TA-SMART_DN40_NP
  6
Continuous
 62
     7
100
AcDbLine
 10
116.6464059115
 20
232.4633023422
 30
0.0
 11
130.4225298022
 21
218.6871813153
 31
0.0
  0
LINE
  5
7E
330
6F
100
AcDbEntity
  8
TA-SMART_DN40_NP
  6
Continuous
 62
     7
100
AcDbLine
 10
131.5348495683
 20
216.0018036869
 30
0.0
 11
131.5348467044
 21
196.5194244687
 31
0.0
  0
LINE
  5
7F
330
6F
100
AcDbEntity
  8
TA-SMART_DN40_NP
  6
Continuous
 62
     7
100
AcDbLine
 10
130.4225323855
 20
193.8340603179
 30
0.0
 11
116.6464113586
 21
180.0579364271
 31
0.0
  0
LINE
  5
80
330
6F
100
AcDbEntity
  8
TA-SMART_DN40_NP
  6
Continuous
 62
     7
100
AcDbLine
 10
113.9610337302
 20
178.9456166611
 30
0.0
 11
94.4786545121
 21
178.9456195249
 31
0.0
  0
LINE
  5
81
330
6F
100
AcDbEntity
  8
TA-SMART_DN40_NP
  6
Continuous
 62
     7
100
AcDbLine
 10
91.7932903612
 20
180.0579338438
 30
0.0
 11
78.0171664705
 21
193.8340548707
 31
0.0
  0
LINE
  5
82
330
6F
100
AcDbEntity
  8
TA-SMART_DN40_NP
  6
Continuous
 62
     7
100
AcDbLine
 10
76.9048467044
 20
196.5194324991
 30
0.0
 11
76.9048495683
 21
216.0018117173
 31
0.0
  0
LINE
  5
83
330
6F
100
AcDbEntity
  8
TA-SMART_DN40_NP
  6
Continuous
 62
     7
100
AcDbLine
 10
78.0171638872
 20
218.6871758681
 30
0.0
 11
91.7932849141
 21
232.4632997589
 31
0.0
  0
CIRCLE
  5
84
330
6F
100
AcDbEntity
  8
TA-SMART_DN40_NP
  6
Continuous
 62
     7
100
AcDbCircle
 10
104.2198481364
 20
206.260618093
 30
0.0
 40
21.69
  0
LINE
  5
85
330
6F
100
AcDbEntity
  8
TA-SMART_DN40_NP
  6
Continuous
 62
     7
100
AcDbLine
 10
97.3051897934
 20
237.760618093
 30
0.0
 11
111.1345064793
 21
237.760618093
 31
0.0
  0
ARC
  5
86
330
6F
100
AcDbEntity
  8
TA-SMART_DN40_NP
  6
Continuous
 62
     7
100
AcDbCircle
 10
104.2198481364
 20
206.260618093
 30
0.0
 40
32.24999999999999
100
AcDbArc
 50
102.3807989171
 51
257.6192010829
  0
ARC
  5
87
330
6F
100
AcDbEntity
  8
TA-SMART_DN40_NP
  6
Continuous
 62
     7
100
AcDbCircle
 10
104.2198481364
 20
206.260618093
 30
0.0
 40
32.24999999999999
100
AcDbArc
 50
282.3807989171
 51
77.6192010829
  0
LINE
  5
88
330
6F
100
AcDbEntity
  8
TA-SMART_DN40_NP
  6
Continuous
 62
     7
100
AcDbLine
 10
111.1345064793
 20
174.760618093
 30
0.0
 11
97.3051897934
 21
174.760618093
 31
0.0
  0
LINE
  5
89
330
6F
100
AcDbEntity
  8
TA-SMART_DN40_NP
  6
Continuous
 62
     7
100
AcDbLine
 10
98.000845626
 20
244.760618093
 30
0.0
 11
99.1441572714
 21
244.760618093
 31
0.0
  0
LINE
  5
8A
330
6F
100
AcDbEntity
  8
TA-SMART_DN40_NP
  6
Continuous
 62
     7
100
AcDbLine
 10
106.4409079054
 20
244.760618093
 30
0.0
 11
107.8545140795
 21
244.760618093
 31
0.0
  0
LINE
  5
8B
330
6F
100
AcDbEntity
  8
TA-SMART_DN40_NP
  6
Continuous
 62
     7
100
AcDbLine
 10
112.6599104157
 20
244.760618093
 30
0.0
 11
112.9302049445
 21
244.760618093
 31
0.0
  0
LINE
  5
8C
330
6F
100
AcDbEntity
  8
TA-SMART_DN40_NP
  6
Continuous
 62
     7
100
AcDbLine
 10
98.000845626
 20
244.760618093
 30
0.0
 11
95.5094913282
 21
244.760618093
 31
0.0
  0
LINE
  5
8D
330
6F
100
AcDbEntity
  8
TA-SMART_DN40_NP
  6
Continuous
 62
     7
100
AcDbLine
 10
95.5094913282
 20
244.760618093
 30
0.0
 11
95.5094913282
 21
237.3120622506
 31
0.0
  0
LINE
  5
8E
330
6F
100
AcDbEntity
  8
TA-SMART_DN40_NP
  6
Continuous
 62
     7
100
AcDbLine
 10
98.000845626
 20
244.760618093
 30
0.0
 11
98.000845626
 21
237.760618093
 31
0.0
  0
LINE
  5
8F
330
6F
100
AcDbEntity
  8
TA-SMART_DN40_NP
  6
Continuous
 62
     7
100
AcDbLine
 10
106.4409079054
 20
244.760618093
 30
0.0
 11
99.1441572714
 21
244.760618093
 31
0.0
  0
LINE
  5
90
330
6F
100
AcDbEntity
  8
TA-SMART_DN40_NP
  6
Continuous
 62
     7
100
AcDbLine
 10
99.1441572714
 20
244.760618093
 30
0.0
 11
99.1441572714
 21
237.760618093
 31
0.0
  0
LINE
  5
91
330
6F
100
AcDbEntity
  8
TA-SMART_DN40_NP
  6
Continuous
 62
     7
100
AcDbLine
 10
106.4409079054
 20
244.760618093
 30
0.0
 11
106.4409079054
 21
237.760618093
 31
0.0
  0
LINE
  5
92
330
6F
100
AcDbEntity
  8
TA-SMART_DN40_NP
  6
Continuous
 62
     7
100
AcDbLine
 10
112.6599104157
 20
244.760618093
 30
0.0
 11
107.8545140795
 21
244.760618093
 31
0.0
  0
LINE
  5
93
330
6F
100
AcDbEntity
  8
TA-SMART_DN40_NP
  6
Continuous
 62
     7
100
AcDbLine
 10
107.8545140795
 20
244.760618093
 30
0.0
 11
107.8545140795
 21
237.760618093
 31
0.0
  0
LINE
  5
94
330
6F
100
AcDbEntity
  8
TA-SMART_DN40_NP
  6
Continuous
 62
     7
100
AcDbLine
 10
112.6599104157
 20
244.760618093
 30
0.0
 11
112.6599104157
 21
237.3866176548
 31
0.0
  0
LINE
  5
95
330
6F
100
AcDbEntity
  8
TA-SMART_DN40_NP
  6
Continuous
 62
     7
100
AcDbLine
 10
112.9302049445
 20
244.760618093
 30
0.0
 11
112.9302049445
 21
237.3120622506
 31
0.0
  0
LINE
  5
96
330
6F
100
AcDbEntity
  8
TA-SMART_DN40_NP
  6
Continuous
 62
     7
100
AcDbLine
 10
108.4026406344
 20
168.2969915496
 30
0.0
 11
108.1812544615
 21
168.2969915496
 31
0.0
  0
LINE
  5
97
330
6F
100
AcDbEntity
  8
TA-SMART_DN40_NP
  6
Continuous
 62
     7
100
AcDbLine
 10
105.1287955751
 20
168.2969915496
 30
0.0
 11
104.542104753
 21
168.2969915496
 31
0.0
  0
LINE
  5
98
330
6F
100
AcDbEntity
  8
TA-SMART_DN40_NP
  6
Continuous
 62
     7
100
AcDbLine
 10
100.9460030771
 20
168.2969915496
 30
0.0
 11
100.5806984279
 21
168.2969915496
 31
0.0
  0
SPLINE
  5
99
330
6F
100
AcDbEntity
  8
TA-SMART_DN40_NP
  6
Continuous
 62
     7
100
AcDbSpline
210
0.0
220
0.0
230
1.0
 70
     8
 71
     3
 72
    10
 73
     6
 74
     0
 42
0.000000001
 43
0.0000000001
 40
0.6433651692860022
 40
0.6433651692860022
 40
0.6433651692860022
 40
0.6433651692860022
 40
0.75
 40
0.75
 40
1.0
 40
1.0
 40
1.0
 40
1.0
 10
108.2094117496516
 20
173.3863732533599
 30
0.0
 10
108.2289761231807
 20
173.3750757430693
 30
0.0
 10
108.248466367218
 20
173.3597259259888
 30
0.0
 10
108.3131987583085
 20
173.295733373776
 30
0.0
 10
108.3580981045221
 20
173.2303013715174
 30
0.0
 10
108.4026406343639
 20
173.1495077773644
 30
0.0
  0
ARC
  5
9A
330
6F
100
AcDbEntity
  8
TA-SMART_DN40_NP
  6
Continuous
 62
     7
100
AcDbCircle
 10
106.6550250183
 20
168.7688185508
 30
0.0
 40
4.63894539879719
100
AcDbArc
 50
70.7916946031
 51
109.2083053969
  0
ARC
  5
9B
330
6F
100
AcDbEntity
  8
TA-SMART_DN40_NP
  6
Continuous
 62
     7
100
AcDbCircle
 10
102.7440539151
 20
167.022879899
 30
0.0
 40
6.385025918204065
100
AcDbArc
 50
73.6440215136
 51
106.3559784864
  0
SPLINE
  5
9C
330
6F
100
AcDbEntity
  8
TA-SMART_DN40_NP
  6
Continuous
 62
     7
100
AcDbSpline
210
0.0
220
0.0
230
1.0
 70
     8
 71
     3
 72
    12
 73
     8
 74
     0
 42
0.000000001
 43
0.0000000001
 40
0.0
 40
0.0
 40
0.0
 40
0.0
 40
0.5
 40
0.5
 40
0.75
 40
0.75
 40
1.0
 40
1.0
 40
1.0
 40
1.0
 10
100.5806984279343
 20
173.1495077773644
 30
0.0
 10
100.4917860480789
 20
173.3107817498741
 30
0.0
 10
100.4016018136163
 20
173.408922841885
 30
0.0
 10
100.2633716096596
 20
173.4095098571876
 30
0.0
 10
100.2172519577762
 20
173.385450567249
 30
0.0
 10
100.1264975144133
 20
173.295733373776
 30
0.0
 10
100.0815981681997
 20
173.2303013715174
 30
0.0
 10
100.0370556383579
 20
173.1495077773644
 30
0.0
  0
LINE
  5
9D
330
6F
100
AcDbEntity
  8
TA-SMART_DN40_NP
  6
Continuous
 62
     7
100
AcDbLine
 10
100.3583481364
 20
173.4604108973
 30
0.0
 11
108.0813481364
 21
173.4604108973
 31
0.0
  0
LINE
  5
9E
330
6F
100
AcDbEntity
  8
TA-SMART_DN40_NP
  6
Continuous
 62
     7
100
AcDbLine
 10
100.4698481364
 20
168.0604108973
 30
0.0
 11
107.9698481364
 21
168.0604108973
 31
0.0
  0
SPLINE
  5
9F
330
6F
100
AcDbEntity
  8
TA-SMART_DN40_NP
  6
Continuous
 62
     7
100
AcDbSpline
210
0.0
220
0.0
230
1.0
 70
     8
 71
     3
 72
     8
 73
     4
 74
     0
 42
0.000000001
 43
0.0000000001
 40
0.0
 40
0.0
 40
0.0
 40
0.0
 40
0.3555549253200849
 40
0.3555549253200849
 40
0.3555549253200849
 40
0.3555549253200849
 10
108.4026406343639
 20
168.296991549596
 30
0.0
 10
108.3382090105477
 20
168.2233152812539
 30
0.0
 10
108.2737773867315
 20
168.1715996980157
 30
0.0
 10
108.2093457629153
 20
168.1478682914044
 30
0.0
  0
ARC
  5
A0
330
6F
100
AcDbEntity
  8
TA-SMART_DN40_NP
  6
Continuous
 62
     7
100
AcDbCircle
 10
106.6550250183
 20
175.3261090104
 30
0.0
 40
7.192904044389016
100
AcDbArc
 50
257.7495451059
 51
282.2504548941
  0
ARC
  5
A1
330
6F
100
AcDbEntity
  8
TA-SMART_DN40_NP
  6
Continuous
 62
     7
100
AcDbCircle
 10
102.7440539151
 20
178.0846074407
 30
0.0
 40
9.951402496496733
100
AcDbArc
 50
259.5904456048
 51
280.4095543952
  0
SPLINE
  5
A2
330
6F
100
AcDbEntity
  8
TA-SMART_DN40_NP
  6
Continuous
 62
     7
100
AcDbSpline
210
0.0
220
0.0
230
1.0
 70
     8
 71
     3
 72
     9
 73
     5
 74
     0
 42
0.000000001
 43
0.0000000001
 40
0.0
 40
0.0
 40
0.0
 40
0.0
 40
0.5
 40
1.0
 40
1.0
 40
1.0
 40
1.0
 10
100.0370556383579
 20
168.296991549596
 30
0.0
 10
100.127662769954
 20
168.1933841135919
 30
0.0
 10
100.3088770331461
 20
168.0730257747606
 30
0.0
 10
100.4900912963383
 20
168.1933841135918
 30
0.0
 10
100.5806984279343
 20
168.296991549596
 30
0.0
  0
LINE
  5
A3
330
6F
100
AcDbEntity
  8
TA-SMART_DN40_NP
  6
Continuous
 62
     7
100
AcDbLine
 10
108.1812544615
 20
173.1495077774
 30
0.0
 11
108.4026406344
 21
173.1495077774
 31
0.0
  0
LINE
  5
A4
330
6F
100
AcDbEntity
  8
TA-SMART_DN40_NP
  6
Continuous
 62
     7
100
AcDbLine
 10
108.4026406344
 20
168.2969915496
 30
0.0
 11
108.4026406344
 21
173.1495077774
 31
0.0
  0
LINE
  5
A5
330
6F
100
AcDbEntity
  8
TA-SMART_DN40_NP
  6
Continuous
 62
     7
100
AcDbLine
 10
108.1812544615
 20
173.1495077774
 30
0.0
 11
108.1812544615
 21
168.2969915496
 31
0.0
  0
LINE
  5
A6
330
6F
100
AcDbEntity
  8
TA-SMART_DN40_NP
  6
Continuous
 62
     7
100
AcDbLine
 10
104.542104753
 20
173.1495077774
 30
0.0
 11
105.1287955751
 21
173.1495077774
 31
0.0
  0
LINE
  5
A7
330
6F
100
AcDbEntity
  8
TA-SMART_DN40_NP
  6
Continuous
 62
     7
100
AcDbLine
 10
105.1287955751
 20
168.2969915496
 30
0.0
 11
105.1287955751
 21
173.1495077774
 31
0.0
  0
LINE
  5
A8
330
6F
100
AcDbEntity
  8
TA-SMART_DN40_NP
  6
Continuous
 62
     7
100
AcDbLine
 10
104.542104753
 20
173.1495077774
 30
0.0
 11
104.542104753
 21
168.2969915496
 31
0.0
  0
LINE
  5
A9
330
6F
100
AcDbEntity
  8
TA-SMART_DN40_NP
  6
Continuous
 62
     7
100
AcDbLine
 10
100.5806984279
 20
173.1495077774
 30
0.0
 11
100.9460030771
 21
173.1495077774
 31
0.0
  0
LINE
  5
AA
330
6F
100
AcDbEntity
  8
TA-SMART_DN40_NP
  6
Continuous
 62
     7
100
AcDbLine
 10
100.9460030771
 20
168.2969915496
 30
0.0
 11
100.9460030771
 21
173.1495077774
 31
0.0
  0
LINE
  5
AB
330
6F
100
AcDbEntity
  8
TA-SMART_DN40_NP
  6
Continuous
 62
     7
100
AcDbLine
 10
100.5806984279
 20
173.1495077774
 30
0.0
 11
100.5806984279
 21
168.2969915496
 31
0.0
  0
LINE
  5
AC
330
6F
100
AcDbEntity
  8
TA-SMART_DN40_NP
  6
Continuous
 62
     7
100
AcDbLine
 10
100.0370556384
 20
168.2969915496
 30
0.0
 11
100.0370556384
 21
173.1495077774
 31
0.0
  0
LINE
  5
AD
330
6F
100
AcDbEntity
  8
TA-SMART_DN40_NP
  6
Continuous
 62
     7
100
AcDbLine
 10
108.2152258539
 20
173.3831165611
 30
0.0
 11
108.0813481364
 21
173.4604108973
 31
0.0
  0
LINE
  5
AE
330
6F
100
AcDbEntity
  8
TA-SMART_DN40_NP
  6
Continuous
 62
     7
100
AcDbLine
 10
100.3583481364
 20
173.4604108973
 30
0.0
 11
100.2244704188
 21
173.3831165611
 31
0.0
  0
LINE
  5
AF
330
6F
100
AcDbEntity
  8
TA-SMART_DN40_NP
  6
Continuous
 62
     7
100
AcDbLine
 10
100.3583481364
 20
174.760618093
 30
0.0
 11
100.3583481364
 21
173.4604108973
 31
0.0
  0
LINE
  5
B0
330
6F
100
AcDbEntity
  8
TA-SMART_DN40_NP
  6
Continuous
 62
     7
100
AcDbLine
 10
108.0813481364
 20
173.4604108973
 30
0.0
 11
108.0813481364
 21
174.760618093
 31
0.0
  0
LINE
  5
B1
330
6F
100
AcDbEntity
  8
TA-SMART_DN40_NP
  6
Continuous
 62
     7
100
AcDbLine
 10
100.2270782957
 20
168.1487718931
 30
0.0
 11
100.4698481364
 21
168.0604108973
 31
0.0
  0
LINE
  5
B2
330
6F
100
AcDbEntity
  8
TA-SMART_DN40_NP
  6
Continuous
 62
     7
100
AcDbLine
 10
107.9698481364
 20
168.0604108973
 30
0.0
 11
108.212617977
 21
168.1487718931
 31
0.0
  0
ENDBLK
  5
B4
330
6F
100
AcDbEntity
  8
0
100
AcDbBlockEnd
  0
BLOCK
  5
126
330
B5
100
AcDbEntity
  8
0
100
AcDbBlockBegin
  2
SE1
 70
     0
 10
0.0
 20
0.0
 30
0.0
  3
SE1
  1

  0
LINE
  5
B7
330
B5
100
AcDbEntity
  8
TA-SMART_DN40_NP
  6
Continuous
 62
     7
100
AcDbLine
 10
309.5496344033
 20
233.260618093
 30
0.0
 11
309.5496344033
 21
179.260618093
 31
0.0
  0
LINE
  5
B8
330
B5
100
AcDbEntity
  8
TA-SMART_DN40_NP
  6
Continuous
 62
     7
100
AcDbLine
 10
290.0496344033
 20
236.510618093
 30
0.0
 11
290.0496344033
 21
176.010618093
 31
0.0
  0
LINE
  5
B9
330
B5
100
AcDbEntity
  8
TA-SMART_DN40_NP
  6
Continuous
 62
     7
100
AcDbLine
 10
308.8216939348
 20
233.5756195249
 30
0.0
 11
308.8216939348
 21
232.4632997589
 31
0.0
  0
LINE
  5
BA
330
B5
100
AcDbEntity
  8
TA-SMART_DN40_NP
  6
Continuous
 62
     7
100
AcDbLine
 10
308.8216939348
 20
218.6871758681
 30
0.0
 11
308.8216939348
 21
216.0018117173
 31
0.0
  0
LINE
  5
BB
330
B5
100
AcDbEntity
  8
TA-SMART_DN40_NP
  6
Continuous
 62
     7
100
AcDbLine
 10
308.8216939348
 20
196.5194324991
 30
0.0
 11
308.8216939348
 21
193.8340548707
 31
0.0
  0
LINE
  5
BC
330
B5
100
AcDbEntity
  8
TA-SMART_DN40_NP
  6
Continuous
 62
     7
100
AcDbLine
 10
308.8216939348
 20
180.0579338438
 30
0.0
 11
308.8216939348
 21
178.9456195249
 31
0.0
  0
LINE
  5
BD
330
B5
100
AcDbEntity
  8
TA-SMART_DN40_NP
  6
Continuous
 62
     7
100
AcDbLine
 10
290.0496344033
 20
233.5756195249
 30
0.0
 11
308.8216939348
 21
233.5756195249
 31
0.0
  0
LINE
  5
BE
330
B5
100
AcDbEntity
  8
TA-SMART_DN40_NP
  6
Continuous
 62
     7
100
AcDbLine
 10
309.434983723
 20
233.5756180929
 30
0.0
 11
308.8216939348
 21
233.5756166611
 31
0.0
  0
LINE
  5
BF
330
B5
100
AcDbEntity
  8
TA-SMART_DN40_NP
  6
Continuous
 62
     7
100
AcDbLine
 10
290.0496344033
 20
178.9456166611
 30
0.0
 11
308.8216939348
 21
178.9456166611
 31
0.0
  0
LINE
  5
C0
330
B5
100
AcDbEntity
  8
TA-SMART_DN40_NP
  6
Continuous
 62
     7
100
AcDbLine
 10
308.8216939348
 20
178.9456166611
 30
0.0
 11
309.434983723
 21
178.9456180929
 31
0.0
  0
LINE
  5
C1
330
B5
100
AcDbEntity
  8
TA-SMART_DN40_NP
  6
Continuous
 62
     7
100
AcDbLine
 10
308.8216939348
 20
178.9456195249
 30
0.0
 11
290.0496344033
 21
178.9456195249
 31
0.0
  0
LINE
  5
C2
330
B5
100
AcDbEntity
  8
TA-SMART_DN40_NP
  6
Continuous
 62
     7
100
AcDbLine
 10
290.0496344033
 20
180.0579338438
 30
0.0
 11
308.8216939348
 21
180.0579338438
 31
0.0
  0
ARC
  5
C3
330
B5
100
AcDbEntity
  8
TA-SMART_DN40_NP
  6
Continuous
 62
     7
100
AcDbCircle
 10
270.4472991792
 20
186.9459943573
 30
0.0
 40
38.98768460030988
100
AcDbArc
 50
349.8239848674
 51
10.1760151326
  0
LINE
  5
C4
330
B5
100
AcDbEntity
  8
TA-SMART_DN40_NP
  6
Continuous
 62
     7
100
AcDbLine
 10
308.8216939348
 20
193.8340548707
 30
0.0
 11
290.0496344033
 21
193.8340548707
 31
0.0
  0
LINE
  5
C5
330
B5
100
AcDbEntity
  8
TA-SMART_DN40_NP
  6
Continuous
 62
     7
100
AcDbLine
 10
290.0496344033
 20
196.5194324991
 30
0.0
 11
308.8216939348
 21
196.5194324991
 31
0.0
  0
ARC
  5
C6
330
B5
100
AcDbEntity
  8
TA-SMART_DN40_NP
  6
Continuous
 62
     7
100
AcDbCircle
 10
231.5752459474
 20
206.2606221082
 30
0.0
 40
77.85823335817524
100
AcDbArc
 50
352.8126351528
 51
7.1873648472
  0
LINE
  5
C7
330
B5
100
AcDbEntity
  8
TA-SMART_DN40_NP
  6
Continuous
 62
     7
100
AcDbLine
 10
308.8216939348
 20
216.0018117173
 30
0.0
 11
290.0496344033
 21
216.0018117173
 31
0.0
  0
LINE
  5
C8
330
B5
100
AcDbEntity
  8
TA-SMART_DN40_NP
  6
Continuous
 62
     7
100
AcDbLine
 10
290.0496344033
 20
218.6871758681
 30
0.0
 11
308.8216939348
 21
218.6871758681
 31
0.0
  0
ARC
  5
C9
330
B5
100
AcDbEntity
  8
TA-SMART_DN40_NP
  6
Continuous
 62
     7
100
AcDbCircle
 10
270.4472830968
 20
225.5752378135
 30
0.0
 40
38.98770068272176
100
AcDbArc
 50
349.8239869717
 51
10.1760130283
  0
LINE
  5
CA
330
B5
100
AcDbEntity
  8
TA-SMART_DN40_NP
  6
Continuous
 62
     7
100
AcDbLine
 10
308.8216939348
 20
232.4632997589
 30
0.0
 11
290.0496344033
 21
232.4632997589
 31
0.0
  0
LINE
  5
CB
330
B5
100
AcDbEntity
  8
TA-SMART_DN40_NP
  6
Continuous
 62
     7
100
AcDbLine
 10
262.0496344033
 20
236.510618093
 30
0.0
 11
262.0496344033
 21
176.010618093
 31
0.0
  0
LINE
  5
CC
330
B5
100
AcDbEntity
  8
TA-SMART_DN40_NP
  6
Continuous
 62
     7
100
AcDbLine
 10
242.5496344033
 20
233.260618093
 30
0.0
 11
242.5496344033
 21
179.260618093
 31
0.0
  0
LINE
  5
CD
330
B5
100
AcDbEntity
  8
TA-SMART_DN40_NP
  6
Continuous
 62
     7
100
AcDbLine
 10
243.2775748718
 20
233.5756195249
 30
0.0
 11
243.2775748718
 21
232.4632997589
 31
0.0
  0
LINE
  5
CE
330
B5
100
AcDbEntity
  8
TA-SMART_DN40_NP
  6
Continuous
 62
     7
100
AcDbLine
 10
243.2775748718
 20
218.6871758681
 30
0.0
 11
243.2775748718
 21
216.0018117173
 31
0.0
  0
LINE
  5
CF
330
B5
100
AcDbEntity
  8
TA-SMART_DN40_NP
  6
Continuous
 62
     7
100
AcDbLine
 10
243.2775748718
 20
196.5194324991
 30
0.0
 11
243.2775748718
 21
193.8340548707
 31
0.0
  0
LINE
  5
D0
330
B5
100
AcDbEntity
  8
TA-SMART_DN40_NP
  6
Continuous
 62
     7
100
AcDbLine
 10
243.2775748718
 20
180.0579338438
 30
0.0
 11
243.2775748718
 21
178.9456195249
 31
0.0
  0
LINE
  5
D1
330
B5
100
AcDbEntity
  8
TA-SMART_DN40_NP
  6
Continuous
 62
     7
100
AcDbLine
 10
243.2775748718
 20
233.5756166611
 30
0.0
 11
242.6642850836
 21
233.5756180929
 31
0.0
  0
LINE
  5
D2
330
B5
100
AcDbEntity
  8
TA-SMART_DN40_NP
  6
Continuous
 62
     7
100
AcDbLine
 10
242.6642850836
 20
178.9456180929
 30
0.0
 11
243.2775748718
 21
178.9456166611
 31
0.0
  0
ARC
  5
D3
330
B5
100
AcDbEntity
  8
TA-SMART_DN40_NP
  6
Continuous
 62
     7
100
AcDbCircle
 10
281.6519696274
 20
186.9459943573
 30
0.0
 40
38.98768460030983
100
AcDbArc
 50
169.8239848674
 51
190.1760151326
  0
ARC
  5
D4
330
B5
100
AcDbEntity
  8
TA-SMART_DN40_NP
  6
Continuous
 62
     7
100
AcDbCircle
 10
320.5240228591
 20
206.2606221082
 30
0.0
 40
77.85823335817553
100
AcDbArc
 50
172.8126351528
 51
187.1873648472
  0
ARC
  5
D5
330
B5
100
AcDbEntity
  8
TA-SMART_DN40_NP
  6
Continuous
 62
     7
100
AcDbCircle
 10
281.6519857098
 20
225.5752378135
 30
0.0
 40
38.98770068272176
100
AcDbArc
 50
169.8239869717
 51
190.1760130283
  0
LINE
  5
D6
330
B5
100
AcDbEntity
  8
TA-SMART_DN40_NP
  6
Continuous
 62
     7
100
AcDbLine
 10
243.2775748718
 20
218.6871758681
 30
0.0
 11
262.0496344033
 21
218.6871758681
 31
0.0
  0
LINE
  5
D7
330
B5
100
AcDbEntity
  8
TA-SMART_DN40_NP
  6
Continuous
 62
     7
100
AcDbLine
 10
262.0496344033
 20
232.4632997589
 30
0.0
 11
243.2775748718
 21
232.4632997589
 31
0.0
  0
LINE
  5
D8
330
B5
100
AcDbEntity
  8
TA-SMART_DN40_NP
  6
Continuous
 62
     7
100
AcDbLine
 10
243.2775748718
 20
196.5194324991
 30
0.0
 11
262.0496344033
 21
196.5194324991
 31
0.0
  0
LINE
  5
D9
330
B5
100
AcDbEntity
  8
TA-SMART_DN40_NP
  6
Continuous
 62
     7
100
AcDbLine
 10
262.0496344033
 20
216.0018117173
 30
0.0
 11
243.2775748718
 21
216.0018117173
 31
0.0
  0
LINE
  5
DA
330
B5
100
AcDbEntity
  8
TA-SMART_DN40_NP
  6
Continuous
 62
     7
100
AcDbLine
 10
243.2775748718
 20
180.0579338438
 30
0.0
 11
262.0496344033
 21
180.0579338438
 31
0.0
  0
LINE
  5
DB
330
B5
100
AcDbEntity
  8
TA-SMART_DN40_NP
  6
Continuous
 62
     7
100
AcDbLine
 10
262.0496344033
 20
193.8340548707
 30
0.0
 11
243.2775748718
 21
193.8340548707
 31
0.0
  0
LINE
  5
DC
330
B5
100
AcDbEntity
  8
TA-SMART_DN40_NP
  6
Continuous
 62
     7
100
AcDbLine
 10
243.2775748718
 20
178.9456166611
 30
0.0
 11
262.0496344033
 21
178.9456166611
 31
0.0
  0
LINE
  5
DD
330
B5
100
AcDbEntity
  8
TA-SMART_DN40_NP
  6
Continuous
 62
     7
100
AcDbLine
 10
262.0496344033
 20
178.9456195249
 30
0.0
 11
243.2775748718
 21
178.9456195249
 31
0.0
  0
LINE
  5
DE
330
B5
100
AcDbEntity
  8
TA-SMART_DN40_NP
  6
Continuous
 62
     7
100
AcDbLine
 10
243.2775748718
 20
233.5756195249
 30
0.0
 11
262.0496344033
 21
233.5756195249
 31
0.0
  0
LINE
  5
DF
330
B5
100
AcDbEntity
  8
TA-SMART_DN40_NP
  6
Continuous
 62
     7
100
AcDbLine
 10
288.0496344033
 20
237.760618093
 30
0.0
 11
288.7996343729
 21
237.760618093
 31
0.0
  0
LINE
  5
E0
330
B5
100
AcDbEntity
  8
TA-SMART_DN40_NP
  6
Continuous
 62
     7
100
AcDbLine
 10
264.0496344033
 20
237.760618093
 30
0.0
 11
263.2996344337
 21
237.760618093
 31
0.0
  0
LINE
  5
E1
330
B5
100
AcDbEntity
  8
TA-SMART_DN40_NP
  6
Continuous
 62
     7
100
AcDbLine
 10
264.0496344033
 20
237.760618093
 30
0.0
 11
264.0496344033
 21
174.760618093
 31
0.0
  0
LINE
  5
E2
330
B5
100
AcDbEntity
  8
TA-SMART_DN40_NP
  6
Continuous
 62
     7
100
AcDbLine
 10
288.0496344033
 20
237.760618093
 30
0.0
 11
288.0496344033
 21
174.760618093
 31
0.0
  0
LINE
  5
E3
330
B5
100
AcDbEntity
  8
TA-SMART_DN40_NP
  6
Continuous
 62
     7
100
AcDbLine
 10
288.0496344033
 20
237.760618093
 30
0.0
 11
284.9237540779
 21
237.760618093
 31
0.0
  0
LINE
  5
E4
330
B5
100
AcDbEntity
  8
TA-SMART_DN40_NP
  6
Continuous
 62
     7
100
AcDbLine
 10
288.7996343729
 20
174.760618093
 30
0.0
 11
288.0496344033
 21
174.760618093
 31
0.0
  0
LINE
  5
E5
330
B5
100
AcDbEntity
  8
TA-SMART_DN40_NP
  6
Continuous
 62
     7
100
AcDbLine
 10
264.0496344033
 20
174.760618093
 30
0.0
 11
263.2996344337
 21
174.760618093
 31
0.0
  0
LINE
  5
E6
330
B5
100
AcDbEntity
  8
TA-SMART_DN40_NP
  6
Continuous
 62
     7
100
AcDbLine
 10
276.5496344033
 20
174.760618093
 30
0.0
 11
276.0496344033
 21
174.760618093
 31
0.0
  0
LINE
  5
E7
330
B5
100
AcDbEntity
  8
TA-SMART_DN40_NP
  6
Continuous
 62
     7
100
AcDbLine
 10
276.0496344033
 20
174.760618093
 30
0.0
 11
275.5496344033
 21
174.760618093
 31
0.0
  0
LINE
  5
E8
330
B5
100
AcDbEntity
  8
TA-SMART_DN40_NP
  6
Continuous
 62
     7
100
AcDbLine
 10
276.5496344033
 20
174.760618093
 30
0.0
 11
288.0496344033
 21
174.760618093
 31
0.0
  0
LINE
  5
E9
330
B5
100
AcDbEntity
  8
TA-SMART_DN40_NP
  6
Continuous
 62
     7
100
AcDbLine
 10
264.0496344033
 20
174.760618093
 30
0.0
 11
275.5496344033
 21
174.760618093
 31
0.0
  0
LINE
  5
EA
330
B5
100
AcDbEntity
  8
TA-SMART_DN40_NP
  6
Continuous
 62
     7
100
AcDbLine
 10
267.1755147286
 20
237.760618093
 30
0.0
 11
264.0496344033
 21
237.760618093
 31
0.0
  0
LINE
  5
EB
330
B5
100
AcDbEntity
  8
TA-SMART_DN40_NP
  6
Continuous
 62
     7
100
AcDbLine
 10
275.5496344033
 20
236.760618093
 30
0.0
 11
275.5496344033
 21
174.760618093
 31
0.0
  0
ARC
  5
EC
330
B5
100
AcDbEntity
  8
TA-SMART_DN40_NP
  6
Continuous
 62
     7
100
AcDbCircle
 10
276.6703433086
 20
271.2285025225
 30
0.0
 40
34.78866277894178
100
AcDbArc
 50
254.1613768674
 51
262.2132619834
  0
LINE
  5
ED
330
B5
100
AcDbEntity
  8
TA-SMART_DN40_NP
  6
Continuous
 62
     7
100
AcDbLine
 10
271.9569580174
 20
236.760618093
 30
0.0
 11
275.5496344033
 21
236.760618093
 31
0.0
  0
LINE
  5
EE
330
B5
100
AcDbEntity
  8
TA-SMART_DN40_NP
  6
Continuous
 62
     7
100
AcDbLine
 10
276.0496344033
 20
236.760618093
 30
0.0
 11
276.0496344033
 21
174.760618093
 31
0.0
  0
LINE
  5
EF
330
B5
100
AcDbEntity
  8
TA-SMART_DN40_NP
  6
Continuous
 62
     7
100
AcDbLine
 10
276.5496344033
 20
236.760618093
 30
0.0
 11
276.5496344033
 21
174.760618093
 31
0.0
  0
LINE
  5
F0
330
B5
100
AcDbEntity
  8
TA-SMART_DN40_NP
  6
Continuous
 62
     7
100
AcDbLine
 10
276.5496344033
 20
236.760618093
 30
0.0
 11
280.1423107892
 21
236.760618093
 31
0.0
  0
ARC
  5
F1
330
B5
100
AcDbEntity
  8
TA-SMART_DN40_NP
  6
Continuous
 62
     7
100
AcDbCircle
 10
275.428925498
 20
271.2285025225
 30
0.0
 40
34.78866277893969
100
AcDbArc
 50
277.7867380166
 51
285.8386231326
  0
LINE
  5
F2
330
B5
100
AcDbEntity
  8
TA-SMART_DN40_NP
  6
Continuous
 62
     7
100
AcDbLine
 10
276.5496344033
 20
236.760618093
 30
0.0
 11
276.0496344033
 21
236.760618093
 31
0.0
  0
LINE
  5
F3
330
B5
100
AcDbEntity
  8
TA-SMART_DN40_NP
  6
Continuous
 62
     7
100
AcDbLine
 10
276.0496344033
 20
236.760618093
 30
0.0
 11
275.5496344033
 21
236.760618093
 31
0.0
  0
LINE
  5
F4
330
B5
100
AcDbEntity
  8
TA-SMART_DN40_NP
  6
Continuous
 62
     7
100
AcDbLine
 10
267.5862194009
 20
244.760618093
 30
0.0
 11
268.0902560681
 21
244.760618093
 31
0.0
  0
LINE
  5
F5
330
B5
100
AcDbEntity
  8
TA-SMART_DN40_NP
  6
Continuous
 62
     7
100
AcDbLine
 10
273.7414210854
 20
244.760618093
 30
0.0
 11
275.2176582767
 21
244.760618093
 31
0.0
  0
LINE
  5
F6
330
B5
100
AcDbEntity
  8
TA-SMART_DN40_NP
  6
Continuous
 62
     7
100
AcDbLine
 10
282.2048360878
 20
244.760618093
 30
0.0
 11
283.1770366119
 21
244.760618093
 31
0.0
  0
LINE
  5
F7
330
B5
100
AcDbEntity
  8
TA-SMART_DN40_NP
  6
Continuous
 62
     7
100
AcDbLine
 10
267.5862194009
 20
244.760618093
 30
0.0
 11
267.5862194009
 21
237.6504930263
 31
0.0
  0
LINE
  5
F8
330
B5
100
AcDbEntity
  8
TA-SMART_DN40_NP
  6
Continuous
 62
     7
100
AcDbLine
 10
273.7414210854
 20
244.760618093
 30
0.0
 11
268.0902560681
 21
244.760618093
 31
0.0
  0
LINE
  5
F9
330
B5
100
AcDbEntity
  8
TA-SMART_DN40_NP
  6
Continuous
 62
     7
100
AcDbLine
 10
268.0902560681
 20
244.760618093
 30
0.0
 11
268.0902560681
 21
237.5153422103
 31
0.0
  0
LINE
  5
FA
330
B5
100
AcDbEntity
  8
TA-SMART_DN40_NP
  6
Continuous
 62
     7
100
AcDbLine
 10
273.7414210854
 20
244.760618093
 30
0.0
 11
273.7414210854
 21
236.760618093
 31
0.0
  0
LINE
  5
FB
330
B5
100
AcDbEntity
  8
TA-SMART_DN40_NP
  6
Continuous
 62
     7
100
AcDbLine
 10
282.2048360878
 20
244.760618093
 30
0.0
 11
275.2176582767
 21
244.760618093
 31
0.0
  0
LINE
  5
FC
330
B5
100
AcDbEntity
  8
TA-SMART_DN40_NP
  6
Continuous
 62
     7
100
AcDbLine
 10
275.2176582767
 20
244.760618093
 30
0.0
 11
275.2176582767
 21
236.760618093
 31
0.0
  0
LINE
  5
FD
330
B5
100
AcDbEntity
  8
TA-SMART_DN40_NP
  6
Continuous
 62
     7
100
AcDbLine
 10
282.2048360878
 20
244.760618093
 30
0.0
 11
282.2048360878
 21
237.1059179226
 31
0.0
  0
LINE
  5
FE
330
B5
100
AcDbEntity
  8
TA-SMART_DN40_NP
  6
Continuous
 62
     7
100
AcDbLine
 10
284.5130494057
 20
244.760618093
 30
0.0
 11
283.1770366119
 21
244.760618093
 31
0.0
  0
LINE
  5
FF
330
B5
100
AcDbEntity
  8
TA-SMART_DN40_NP
  6
Continuous
 62
     7
100
AcDbLine
 10
283.1770366119
 20
244.760618093
 30
0.0
 11
283.1770366119
 21
237.3166907294
 31
0.0
  0
LINE
  5
100
330
B5
100
AcDbEntity
  8
TA-SMART_DN40_NP
  6
Continuous
 62
     7
100
AcDbLine
 10
284.5130494057
 20
244.760618093
 30
0.0
 11
284.5130494057
 21
237.6505848047
 31
0.0
  0
LINE
  5
101
330
B5
100
AcDbEntity
  8
TA-SMART_DN40_NP
  6
Continuous
 62
     7
100
AcDbLine
 10
271.7445427023
 20
168.2969915496
 30
0.0
 11
271.6614513313
 21
168.2969915496
 31
0.0
  0
LINE
  5
102
330
B5
100
AcDbEntity
  8
TA-SMART_DN40_NP
  6
Continuous
 62
     7
100
AcDbLine
 10
278.9893518264
 20
168.2969915496
 30
0.0
 11
278.5228083559
 21
168.2969915496
 31
0.0
  0
LINE
  5
103
330
B5
100
AcDbEntity
  8
TA-SMART_DN40_NP
  6
Continuous
 62
     7
100
AcDbLine
 10
274.6842601254
 20
168.2969915496
 30
0.0
 11
274.1346252839
 21
168.2969915496
 31
0.0
  0
ARC
  5
104
330
B5
100
AcDbEntity
  8
TA-SMART_DN40_NP
  6
Continuous
 62
     7
100
AcDbCircle
 10
272.9395839931
 20
170.5102513339
 30
0.0
 40
2.897205250098302
100
AcDbArc
 50
65.639235057
 51
114.360764943
  0
ARC
  5
105
330
B5
100
AcDbEntity
  8
TA-SMART_DN40_NP
  6
Continuous
 62
     7
100
AcDbCircle
 10
272.3856841558
 20
172.2562599398
 30
0.0
 40
1.14995864416007
100
AcDbArc
 50
121.4412595543
 51
129.0346545441
  0
ARC
  5
106
330
B5
100
AcDbEntity
  8
TA-SMART_DN40_NP
  6
Continuous
 62
     7
100
AcDbCircle
 10
279.7135846508
 20
172.2562599398
 30
0.0
 40
1.149958644160083
100
AcDbArc
 50
50.9653454559
 51
129.0346545441
  0
ARC
  5
107
330
B5
100
AcDbEntity
  8
TA-SMART_DN40_NP
  6
Continuous
 62
     7
100
AcDbCircle
 10
276.6035342406
 20
166.1521685411
 30
0.0
 40
7.255781799146122
100
AcDbArc
 50
74.6617739718
 51
105.3382260282
  0
LINE
  5
108
330
B5
100
AcDbEntity
  8
TA-SMART_DN40_NP
  6
Continuous
 62
     7
100
AcDbLine
 10
279.9111344033
 20
173.4604108973
 30
0.0
 11
272.1881344033
 21
173.4604108973
 31
0.0
  0
LINE
  5
109
330
B5
100
AcDbEntity
  8
TA-SMART_DN40_NP
  6
Continuous
 62
     7
100
AcDbLine
 10
279.7996344033
 20
168.0604108973
 30
0.0
 11
272.2996344033
 21
168.0604108973
 31
0.0
  0
ARC
  5
10A
330
B5
100
AcDbEntity
  8
TA-SMART_DN40_NP
  6
Continuous
 62
     7
100
AcDbCircle
 10
272.9395839931
 20
172.5748073253
 30
0.0
 40
4.441602356986042
100
AcDbArc
 50
254.3918784664
 51
285.6081215336
  0
ARC
  5
10B
330
B5
100
AcDbEntity
  8
TA-SMART_DN40_NP
  6
Continuous
 62
     7
100
AcDbCircle
 10
272.3856841558
 20
169.8163072793
 30
0.0
 40
1.683102335145653
100
AcDbArc
 50
244.5136300324
 51
249.2549289239
  0
ARC
  5
10C
330
B5
100
AcDbEntity
  8
TA-SMART_DN40_NP
  6
Continuous
 62
     7
100
AcDbCircle
 10
279.7135846508
 20
169.8163072793
 30
0.0
 40
1.683102335145572
100
AcDbArc
 50
244.5136300324
 51
295.4863699676
  0
ARC
  5
10D
330
B5
100
AcDbEntity
  8
TA-SMART_DN40_NP
  6
Continuous
 62
     7
100
AcDbCircle
 10
276.6035342406
 20
179.4602581301
 30
0.0
 40
11.32705318588277
100
AcDbArc
 50
260.2446453888
 51
279.7553546112
  0
LINE
  5
10E
330
B5
100
AcDbEntity
  8
TA-SMART_DN40_NP
  6
Continuous
 62
     7
100
AcDbLine
 10
271.6614513313
 20
173.1495077774
 30
0.0
 11
271.7445427023
 21
173.1495077774
 31
0.0
  0
LINE
  5
10F
330
B5
100
AcDbEntity
  8
TA-SMART_DN40_NP
  6
Continuous
 62
     7
100
AcDbLine
 10
271.7445427023
 20
168.2969915496
 30
0.0
 11
271.7445427023
 21
173.1495077774
 31
0.0
  0
LINE
  5
110
330
B5
100
AcDbEntity
  8
TA-SMART_DN40_NP
  6
Continuous
 62
     7
100
AcDbLine
 10
271.6614513313
 20
173.1495077774
 30
0.0
 11
271.6614513313
 21
168.2969915496
 31
0.0
  0
LINE
  5
111
330
B5
100
AcDbEntity
  8
TA-SMART_DN40_NP
  6
Continuous
 62
     7
100
AcDbLine
 10
280.4378174752
 20
173.1495077774
 30
0.0
 11
280.4378174752
 21
168.2969915496
 31
0.0
  0
LINE
  5
112
330
B5
100
AcDbEntity
  8
TA-SMART_DN40_NP
  6
Continuous
 62
     7
100
AcDbLine
 10
278.5228083559
 20
173.1495077774
 30
0.0
 11
278.9893518264
 21
173.1495077774
 31
0.0
  0
LINE
  5
113
330
B5
100
AcDbEntity
  8
TA-SMART_DN40_NP
  6
Continuous
 62
     7
100
AcDbLine
 10
278.9893518264
 20
168.2969915496
 30
0.0
 11
278.9893518264
 21
173.1495077774
 31
0.0
  0
LINE
  5
114
330
B5
100
AcDbEntity
  8
TA-SMART_DN40_NP
  6
Continuous
 62
     7
100
AcDbLine
 10
278.5228083559
 20
173.1495077774
 30
0.0
 11
278.5228083559
 21
168.2969915496
 31
0.0
  0
LINE
  5
115
330
B5
100
AcDbEntity
  8
TA-SMART_DN40_NP
  6
Continuous
 62
     7
100
AcDbLine
 10
274.1346252839
 20
173.1495077774
 30
0.0
 11
274.6842601254
 21
173.1495077774
 31
0.0
  0
LINE
  5
116
330
B5
100
AcDbEntity
  8
TA-SMART_DN40_NP
  6
Continuous
 62
     7
100
AcDbLine
 10
274.1346252839
 20
173.1495077774
 30
0.0
 11
274.1346252839
 21
168.2969915496
 31
0.0
  0
LINE
  5
117
330
B5
100
AcDbEntity
  8
TA-SMART_DN40_NP
  6
Continuous
 62
     7
100
AcDbLine
 10
274.6842601254
 20
168.2969915496
 30
0.0
 11
274.6842601254
 21
173.1495077774
 31
0.0
  0
LINE
  5
118
330
B5
100
AcDbEntity
  8
TA-SMART_DN40_NP
  6
Continuous
 62
     7
100
AcDbLine
 10
309.4336691085
 20
178.9420060642
 30
0.0
 11
309.5496344033
 21
179.260618093
 31
0.0
  0
LINE
  5
119
330
B5
100
AcDbEntity
  8
TA-SMART_DN40_NP
  6
Continuous
 62
     7
100
AcDbLine
 10
309.5496344033
 20
233.260618093
 30
0.0
 11
309.4338631194
 21
233.5786970812
 31
0.0
  0
LINE
  5
11A
330
B5
100
AcDbEntity
  8
TA-SMART_DN40_NP
  6
Continuous
 62
     7
100
AcDbLine
 10
242.6655997042
 20
233.5792301387
 30
0.0
 11
242.5496344033
 21
233.260618093
 31
0.0
  0
LINE
  5
11B
330
B5
100
AcDbEntity
  8
TA-SMART_DN40_NP
  6
Continuous
 62
     7
100
AcDbLine
 10
242.5496344033
 20
179.260618093
 30
0.0
 11
242.6654056807
 21
178.9425391224
 31
0.0
  0
LINE
  5
11C
330
B5
100
AcDbEntity
  8
TA-SMART_DN40_NP
  6
Continuous
 62
     7
100
AcDbLine
 10
263.2996344033
 20
237.760618093
 30
0.0
 11
262.0496344033
 21
236.510618093
 31
0.0
  0
LINE
  5
11D
330
B5
100
AcDbEntity
  8
TA-SMART_DN40_NP
  6
Continuous
 62
     7
100
AcDbLine
 10
262.0496344033
 20
176.010618093
 30
0.0
 11
263.2996344033
 21
174.760618093
 31
0.0
  0
LINE
  5
11E
330
B5
100
AcDbEntity
  8
TA-SMART_DN40_NP
  6
Continuous
 62
     7
100
AcDbLine
 10
288.7996344033
 20
174.760618093
 30
0.0
 11
290.0496344033
 21
176.010618093
 31
0.0
  0
LINE
  5
11F
330
B5
100
AcDbEntity
  8
TA-SMART_DN40_NP
  6
Continuous
 62
     7
100
AcDbLine
 10
290.0496344033
 20
236.510618093
 30
0.0
 11
288.7996344033
 21
237.760618093
 31
0.0
  0
LINE
  5
120
330
B5
100
AcDbEntity
  8
TA-SMART_DN40_NP
  6
Continuous
 62
     7
100
AcDbLine
 10
280.3142863594
 20
173.2276510069
 30
0.0
 11
279.9111344033
 21
173.4604108973
 31
0.0
  0
LINE
  5
121
330
B5
100
AcDbEntity
  8
TA-SMART_DN40_NP
  6
Continuous
 62
     7
100
AcDbLine
 10
272.1881344033
 20
173.4604108973
 30
0.0
 11
271.7849824471
 21
173.2276510069
 31
0.0
  0
LINE
  5
122
330
B5
100
AcDbEntity
  8
TA-SMART_DN40_NP
  6
Continuous
 62
     7
100
AcDbLine
 10
272.1881344033
 20
174.760618093
 30
0.0
 11
272.1881344033
 21
173.4604108973
 31
0.0
  0
LINE
  5
123
330
B5
100
AcDbEntity
  8
TA-SMART_DN40_NP
  6
Continuous
 62
     7
100
AcDbLine
 10
279.9111344033
 20
173.4604108973
 30
0.0
 11
279.9111344033
 21
174.760618093
 31
0.0
  0
LINE
  5
124
330
B5
100
AcDbEntity
  8
TA-SMART_DN40_NP
  6
Continuous
 62
     7
100
AcDbLine
 10
271.7885010076
 20
168.2464482391
 30
0.0
 11
272.2996344033
 21
168.0604108973
 31
0.0
  0
LINE
  5
125
330
B5
100
AcDbEntity
  8
TA-SMART_DN40_NP
  6
Continuous
 62
     7
100
AcDbLine
 10
279.7996344033
 20
168.0604108973
 30
0.0
 11
280.3107677989
 21
168.2464482391
 31
0.0
  0
ENDBLK
  5
127
330
B5
100
AcDbEntity
  8
0
100
AcDbBlockEnd
  0
BLOCK
  5
18C
330
128
100
AcDbEntity
  8
0
100
AcDbBlockBegin
  2
SE2
 70
     0
 10
0.0
 20
0.0
 30
0.0
  3
SE2
  1

  0
LINE
  5
12A
330
128
100
AcDbEntity
  8
TA-SMART_DN40_NP
  6
Continuous
 62
     7
100
AcDbLine
 10
131.2198481364
 20
55.6562949424
 30
0.0
 11
77.2198481364
 21
55.6562949424
 31
0.0
  0
LINE
  5
12B
330
128
100
AcDbEntity
  8
TA-SMART_DN40_NP
  6
Continuous
 62
     7
100
AcDbLine
 10
134.4698481364
 20
75.1562949424
 30
0.0
 11
73.9698481364
 21
75.1562949424
 31
0.0
  0
LINE
  5
12C
330
128
100
AcDbEntity
  8
TA-SMART_DN40_NP
  6
Continuous
 62
     7
100
AcDbLine
 10
131.5348495683
 20
56.384235411
 30
0.0
 11
130.4225298022
 21
56.384235411
 31
0.0
  0
LINE
  5
12D
330
128
100
AcDbEntity
  8
TA-SMART_DN40_NP
  6
Continuous
 62
     7
100
AcDbLine
 10
116.6464059115
 20
56.384235411
 30
0.0
 11
113.9610417607
 21
56.384235411
 31
0.0
  0
LINE
  5
12E
330
128
100
AcDbEntity
  8
TA-SMART_DN40_NP
  6
Continuous
 62
     7
100
AcDbLine
 10
94.4786625425
 20
56.384235411
 30
0.0
 11
91.7932849141
 21
56.384235411
 31
0.0
  0
LINE
  5
12F
330
128
100
AcDbEntity
  8
TA-SMART_DN40_NP
  6
Continuous
 62
     7
100
AcDbLine
 10
78.0171638872
 20
56.384235411
 30
0.0
 11
76.9048495683
 21
56.384235411
 31
0.0
  0
LINE
  5
130
330
128
100
AcDbEntity
  8
TA-SMART_DN40_NP
  6
Continuous
 62
     7
100
AcDbLine
 10
94.4786625425
 20
75.1562949424
 30
0.0
 11
94.4786625425
 21
56.384235411
 31
0.0
  0
ARC
  5
131
330
128
100
AcDbEntity
  8
TA-SMART_DN40_NP
  6
Continuous
 62
     7
100
AcDbCircle
 10
104.2198521516
 20
133.6306833983
 30
0.0
 40
77.85823335817484
100
AcDbArc
 50
262.8126351528
 51
277.1873648472
  0
LINE
  5
132
330
128
100
AcDbEntity
  8
TA-SMART_DN40_NP
  6
Continuous
 62
     7
100
AcDbLine
 10
113.9610417607
 20
56.384235411
 30
0.0
 11
113.9610417607
 21
75.1562949424
 31
0.0
  0
LINE
  5
133
330
128
100
AcDbEntity
  8
TA-SMART_DN40_NP
  6
Continuous
 62
     7
100
AcDbLine
 10
116.6464059115
 20
75.1562949424
 30
0.0
 11
116.6464059115
 21
56.384235411
 31
0.0
  0
ARC
  5
134
330
128
100
AcDbEntity
  8
TA-SMART_DN40_NP
  6
Continuous
 62
     7
100
AcDbCircle
 10
123.5344678569
 20
94.7586462489
 30
0.0
 40
38.98770068272141
100
AcDbArc
 50
259.8239869717
 51
280.1760130283
  0
LINE
  5
135
330
128
100
AcDbEntity
  8
TA-SMART_DN40_NP
  6
Continuous
 62
     7
100
AcDbLine
 10
130.4225298022
 20
56.384235411
 30
0.0
 11
130.4225298022
 21
75.1562949424
 31
0.0
  0
LINE
  5
136
330
128
100
AcDbEntity
  8
TA-SMART_DN40_NP
  6
Continuous
 62
     7
100
AcDbLine
 10
131.5348495683
 20
75.1562949424
 30
0.0
 11
131.5348495683
 21
56.384235411
 31
0.0
  0
LINE
  5
137
330
128
100
AcDbEntity
  8
TA-SMART_DN40_NP
  6
Continuous
 62
     7
100
AcDbLine
 10
131.5348495683
 20
56.384235411
 30
0.0
 11
131.5348481365
 21
55.7709456227
 31
0.0
  0
LINE
  5
138
330
128
100
AcDbEntity
  8
TA-SMART_DN40_NP
  6
Continuous
 62
     7
100
AcDbLine
 10
76.9048467044
 20
75.1562949424
 30
0.0
 11
76.9048467044
 21
56.384235411
 31
0.0
  0
LINE
  5
139
330
128
100
AcDbEntity
  8
TA-SMART_DN40_NP
  6
Continuous
 62
     7
100
AcDbLine
 10
76.9048481365
 20
55.7709456227
 30
0.0
 11
76.9048495683
 21
56.384235411
 31
0.0
  0
LINE
  5
13A
330
128
100
AcDbEntity
  8
TA-SMART_DN40_NP
  6
Continuous
 62
     7
100
AcDbLine
 10
76.9048495683
 20
56.384235411
 30
0.0
 11
76.9048495683
 21
75.1562949424
 31
0.0
  0
LINE
  5
13B
330
128
100
AcDbEntity
  8
TA-SMART_DN40_NP
  6
Continuous
 62
     7
100
AcDbLine
 10
78.0171638872
 20
75.1562949424
 30
0.0
 11
78.0171638872
 21
56.384235411
 31
0.0
  0
ARC
  5
13C
330
128
100
AcDbEntity
  8
TA-SMART_DN40_NP
  6
Continuous
 62
     7
100
AcDbCircle
 10
84.9052244006
 20
94.7586301665
 30
0.0
 40
38.9876846003102
100
AcDbArc
 50
259.8239848674
 51
280.1760151326
  0
LINE
  5
13D
330
128
100
AcDbEntity
  8
TA-SMART_DN40_NP
  6
Continuous
 62
     7
100
AcDbLine
 10
91.7932849141
 20
56.384235411
 30
0.0
 11
91.7932849141
 21
75.1562949424
 31
0.0
  0
LINE
  5
13E
330
128
100
AcDbEntity
  8
TA-SMART_DN40_NP
  6
Continuous
 62
     7
100
AcDbLine
 10
134.4698481364
 20
103.1562949424
 30
0.0
 11
73.9698481364
 21
103.1562949424
 31
0.0
  0
LINE
  5
13F
330
128
100
AcDbEntity
  8
TA-SMART_DN40_NP
  6
Continuous
 62
     7
100
AcDbLine
 10
131.2198481364
 20
122.6562949424
 30
0.0
 11
77.2198481364
 21
122.6562949424
 31
0.0
  0
LINE
  5
140
330
128
100
AcDbEntity
  8
TA-SMART_DN40_NP
  6
Continuous
 62
     7
100
AcDbLine
 10
131.5348495683
 20
121.9283544739
 30
0.0
 11
130.4225298022
 21
121.9283544739
 31
0.0
  0
LINE
  5
141
330
128
100
AcDbEntity
  8
TA-SMART_DN40_NP
  6
Continuous
 62
     7
100
AcDbLine
 10
116.6464059115
 20
121.9283544739
 30
0.0
 11
113.9610417607
 21
121.9283544739
 31
0.0
  0
LINE
  5
142
330
128
100
AcDbEntity
  8
TA-SMART_DN40_NP
  6
Continuous
 62
     7
100
AcDbLine
 10
94.4786625425
 20
121.9283544739
 30
0.0
 11
91.7932849141
 21
121.9283544739
 31
0.0
  0
LINE
  5
143
330
128
100
AcDbEntity
  8
TA-SMART_DN40_NP
  6
Continuous
 62
     7
100
AcDbLine
 10
78.0171638872
 20
121.9283544739
 30
0.0
 11
76.9048495683
 21
121.9283544739
 31
0.0
  0
ARC
  5
144
330
128
100
AcDbEntity
  8
TA-SMART_DN40_NP
  6
Continuous
 62
     7
100
AcDbCircle
 10
104.2198521516
 20
44.6819064866
 30
0.0
 40
77.85823335817476
100
AcDbArc
 50
82.8126351528
 51
97.1873648472
  0
ARC
  5
145
330
128
100
AcDbEntity
  8
TA-SMART_DN40_NP
  6
Continuous
 62
     7
100
AcDbCircle
 10
123.5344678569
 20
83.5539436359
 30
0.0
 40
38.98770068272139
100
AcDbArc
 50
79.8239869717
 51
100.1760130283
  0
LINE
  5
146
330
128
100
AcDbEntity
  8
TA-SMART_DN40_NP
  6
Continuous
 62
     7
100
AcDbLine
 10
131.5348481365
 20
122.5416442621
 30
0.0
 11
131.5348495683
 21
121.9283544739
 31
0.0
  0
LINE
  5
147
330
128
100
AcDbEntity
  8
TA-SMART_DN40_NP
  6
Continuous
 62
     7
100
AcDbLine
 10
76.9048495683
 20
121.9283544739
 30
0.0
 11
76.9048481365
 21
122.5416442621
 31
0.0
  0
ARC
  5
148
330
128
100
AcDbEntity
  8
TA-SMART_DN40_NP
  6
Continuous
 62
     7
100
AcDbCircle
 10
84.9052244006
 20
83.5539597183
 30
0.0
 40
38.9876846003102
100
AcDbArc
 50
79.8239848674
 51
100.1760151326
  0
LINE
  5
149
330
128
100
AcDbEntity
  8
TA-SMART_DN40_NP
  6
Continuous
 62
     7
100
AcDbLine
 10
78.0171638872
 20
121.9283544739
 30
0.0
 11
78.0171638872
 21
103.1562949424
 31
0.0
  0
LINE
  5
14A
330
128
100
AcDbEntity
  8
TA-SMART_DN40_NP
  6
Continuous
 62
     7
100
AcDbLine
 10
91.7932849141
 20
103.1562949424
 30
0.0
 11
91.7932849141
 21
121.9283544739
 31
0.0
  0
LINE
  5
14B
330
128
100
AcDbEntity
  8
TA-SMART_DN40_NP
  6
Continuous
 62
     7
100
AcDbLine
 10
76.9048467044
 20
121.9283544739
 30
0.0
 11
76.9048467044
 21
103.1562949424
 31
0.0
  0
LINE
  5
14C
330
128
100
AcDbEntity
  8
TA-SMART_DN40_NP
  6
Continuous
 62
     7
100
AcDbLine
 10
76.9048495683
 20
103.1562949424
 30
0.0
 11
76.9048495683
 21
121.9283544739
 31
0.0
  0
LINE
  5
14D
330
128
100
AcDbEntity
  8
TA-SMART_DN40_NP
  6
Continuous
 62
     7
100
AcDbLine
 10
131.5348495683
 20
121.9283544739
 30
0.0
 11
131.5348495683
 21
103.1562949424
 31
0.0
  0
LINE
  5
14E
330
128
100
AcDbEntity
  8
TA-SMART_DN40_NP
  6
Continuous
 62
     7
100
AcDbLine
 10
116.6464059115
 20
121.9283544739
 30
0.0
 11
116.6464059115
 21
103.1562949424
 31
0.0
  0
LINE
  5
14F
330
128
100
AcDbEntity
  8
TA-SMART_DN40_NP
  6
Continuous
 62
     7
100
AcDbLine
 10
130.4225298022
 20
103.1562949424
 30
0.0
 11
130.4225298022
 21
121.9283544739
 31
0.0
  0
LINE
  5
150
330
128
100
AcDbEntity
  8
TA-SMART_DN40_NP
  6
Continuous
 62
     7
100
AcDbLine
 10
94.4786625425
 20
121.9283544739
 30
0.0
 11
94.4786625425
 21
103.1562949424
 31
0.0
  0
LINE
  5
151
330
128
100
AcDbEntity
  8
TA-SMART_DN40_NP
  6
Continuous
 62
     7
100
AcDbLine
 10
113.9610417607
 20
103.1562949424
 30
0.0
 11
113.9610417607
 21
121.9283544739
 31
0.0
  0
SPLINE
  5
152
330
128
100
AcDbEntity
  8
TA-SMART_DN40_NP
  6
Continuous
 62
     7
100
AcDbSpline
210
0.0
220
0.0
230
1.0
 70
     8
 71
     3
 72
    16
 73
    12
 74
     0
 42
0.000000001
 43
0.0000000001
 40
0.0
 40
0.0
 40
0.0
 40
0.0
 40
0.2499999999999999
 40
0.2499999999999999
 40
0.4999999999999998
 40
0.4999999999999998
 40
0.7499999999999998
 40
0.7499999999999998
 40
0.8749999999999999
 40
0.8749999999999999
 40
1.0
 40
1.0
 40
1.0
 40
1.0
 10
97.30518979339132
 20
77.15629494243362
 30
0.0
 10
98.44021137304469
 20
76.91293722351267
 30
0.0
 10
99.59817388315898
 20
76.72286084031859
 30
0.0
 10
101.9063807154489
 20
76.4702953881846
 30
0.0
 10
103.0617655404409
 20
76.406345800632
 30
0.0
 10
105.3751623784032
 20
76.40624414505895
 30
0.0
 10
106.5331744973351
 20
76.47009723145857
 30
0.0
 10
108.2721409824278
 20
76.66065072762244
 30
0.0
 10
108.8520360123117
 20
76.74002915680387
 30
0.0
 10
109.9997042033154
 20
76.92716634949831
 30
0.0
 10
110.5691440669724
 20
77.03507671231228
 30
0.0
 10
111.1345064793305
 20
77.15629494243362
 30
0.0
  0
LINE
  5
153
330
128
100
AcDbEntity
  8
TA-SMART_DN40_NP
  6
Continuous
 62
     7
100
AcDbLine
 10
111.1345064793
 20
77.1562949424
 30
0.0
 11
111.1345064793
 21
80.2821752678
 31
0.0
  0
SPLINE
  5
154
330
128
100
AcDbEntity
  8
TA-SMART_DN40_NP
  6
Continuous
 62
     7
100
AcDbSpline
210
0.0
220
0.0
230
1.0
 70
     8
 71
     3
 72
    16
 73
    12
 74
     0
 42
0.000000001
 43
0.0000000001
 40
0.0
 40
0.0
 40
0.0
 40
0.0
 40
0.1250000000000001
 40
0.1250000000000001
 40
0.2500000000000001
 40
0.2500000000000001
 40
0.5
 40
0.5
 40
0.75
 40
0.75
 40
1.0
 40
1.0
 40
1.0
 40
1.0
 10
111.1345064793305
 20
101.1562949424336
 30
0.0
 10
110.5691440669724
 20
101.2775131725549
 30
0.0
 10
109.9997042033154
 20
101.3854235353689
 30
0.0
 10
108.8520360123117
 20
101.5725607280633
 30
0.0
 10
108.2721409824278
 20
101.6519391572448
 30
0.0
 10
106.5331744973351
 20
101.8424926534086
 30
0.0
 10
105.3751623784032
 20
101.9063457398082
 30
0.0
 10
103.0617655404409
 20
101.9062440842352
 30
0.0
 10
101.9063807154489
 20
101.8422944966826
 30
0.0
 10
99.59817388315898
 20
101.5897290445486
 30
0.0
 10
98.44021137304469
 20
101.3996526613545
 30
0.0
 10
97.30518979339132
 20
101.1562949424336
 30
0.0
  0
LINE
  5
155
330
128
100
AcDbEntity
  8
TA-SMART_DN40_NP
  6
Continuous
 62
     7
100
AcDbLine
 10
97.3051897934
 20
101.1562949424
 30
0.0
 11
71.9698481364
 21
101.1562949424
 31
0.0
  0
LINE
  5
156
330
128
100
AcDbEntity
  8
TA-SMART_DN40_NP
  6
Continuous
 62
     7
100
AcDbLine
 10
97.3051897934
 20
77.1562949424
 30
0.0
 11
71.9698481364
 21
77.1562949424
 31
0.0
  0
LINE
  5
157
330
128
100
AcDbEntity
  8
TA-SMART_DN40_NP
  6
Continuous
 62
     7
100
AcDbLine
 10
97.3051897934
 20
77.1562949424
 30
0.0
 11
97.3051897934
 21
80.2821752678
 31
0.0
  0
LINE
  5
158
330
128
100
AcDbEntity
  8
TA-SMART_DN40_NP
  6
Continuous
 62
     7
100
AcDbLine
 10
114.6989940939
 20
89.6562949424
 30
0.0
 11
136.4698481364
 21
89.6562949424
 31
0.0
  0
LINE
  5
159
330
128
100
AcDbEntity
  8
TA-SMART_DN40_NP
  6
Continuous
 62
     7
100
AcDbLine
 10
111.1345064793
 20
101.1562949424
 30
0.0
 11
136.4698481364
 21
101.1562949424
 31
0.0
  0
LINE
  5
15A
330
128
100
AcDbEntity
  8
TA-SMART_DN40_NP
  6
Continuous
 62
     7
100
AcDbLine
 10
113.0409875186
 20
89.1562949424
 30
0.0
 11
135.9698481364
 21
89.1562949424
 31
0.0
  0
LINE
  5
15B
330
128
100
AcDbEntity
  8
TA-SMART_DN40_NP
  6
Continuous
 62
     7
100
AcDbLine
 10
114.6989940939
 20
88.6562949424
 30
0.0
 11
136.4698481364
 21
88.6562949424
 31
0.0
  0
LINE
  5
15C
330
128
100
AcDbEntity
  8
TA-SMART_DN40_NP
  6
Continuous
 62
     7
100
AcDbLine
 10
111.1345064793
 20
77.1562949424
 30
0.0
 11
136.4698481364
 21
77.1562949424
 31
0.0
  0
LINE
  5
15D
330
128
100
AcDbEntity
  8
TA-SMART_DN40_NP
  6
Continuous
 62
     7
100
AcDbLine
 10
111.1345064793
 20
98.0304146171
 30
0.0
 11
111.1345064793
 21
101.1562949424
 31
0.0
  0
LINE
  5
15E
330
128
100
AcDbEntity
  8
TA-SMART_DN40_NP
  6
Continuous
 62
     7
100
AcDbLine
 10
97.3051897934
 20
98.0304146171
 30
0.0
 11
97.3051897934
 21
101.1562949424
 31
0.0
  0
ARC
  5
15F
330
128
100
AcDbEntity
  8
TA-SMART_DN40_NP
  6
Continuous
 62
     7
100
AcDbCircle
 10
104.2198481364
 20
89.1562949424
 30
0.0
 40
11.25
100
AcDbArc
 50
52.0745022545
 51
127.9254977455
  0
ARC
  5
160
330
128
100
AcDbEntity
  8
TA-SMART_DN40_NP
  6
Continuous
 62
     7
100
AcDbCircle
 10
104.2198481364
 20
89.1562949424
 30
0.0
 40
11.25
100
AcDbArc
 50
232.0745022545
 51
307.9254977455
  0
LINE
  5
161
330
128
100
AcDbEntity
  8
TA-SMART_DN40_NP
  6
Continuous
 62
     7
100
AcDbLine
 10
71.9698481364
 20
89.6562949424
 30
0.0
 11
93.7407021788
 21
89.6562949424
 31
0.0
  0
ARC
  5
162
330
128
100
AcDbEntity
  8
TA-SMART_DN40_NP
  6
Continuous
 62
     7
100
AcDbCircle
 10
104.2198481364
 20
89.1562949424
 30
0.0
 40
11.25000000000001
100
AcDbArc
 50
127.9254977455
 51
158.6666511923
  0
LINE
  5
163
330
128
100
AcDbEntity
  8
TA-SMART_DN40_NP
  6
Continuous
 62
     7
100
AcDbLine
 10
93.7407021788
 20
93.2489713284
 30
0.0
 11
93.7407021788
 21
89.6562949424
 31
0.0
  0
LINE
  5
164
330
128
100
AcDbEntity
  8
TA-SMART_DN40_NP
  6
Continuous
 62
     7
100
AcDbLine
 10
72.4698481364
 20
89.1562949424
 30
0.0
 11
95.3987087542
 21
89.1562949424
 31
0.0
  0
LINE
  5
165
330
128
100
AcDbEntity
  8
TA-SMART_DN40_NP
  6
Continuous
 62
     7
100
AcDbLine
 10
71.9698481364
 20
88.6562949424
 30
0.0
 11
93.7407021788
 21
88.6562949424
 31
0.0
  0
LINE
  5
166
330
128
100
AcDbEntity
  8
TA-SMART_DN40_NP
  6
Continuous
 62
     7
100
AcDbLine
 10
114.6989940939
 20
85.0636185565
 30
0.0
 11
114.6989940939
 21
88.6562949424
 31
0.0
  0
LINE
  5
167
330
128
100
AcDbEntity
  8
TA-SMART_DN40_NP
  6
Continuous
 62
     7
100
AcDbLine
 10
114.6989940939
 20
89.6562949424
 30
0.0
 11
114.6989940939
 21
93.2489713284
 31
0.0
  0
LINE
  5
168
330
128
100
AcDbEntity
  8
TA-SMART_DN40_NP
  6
Continuous
 62
     7
100
AcDbLine
 10
93.7407021788
 20
88.6562949424
 30
0.0
 11
93.7407021788
 21
85.0636185565
 31
0.0
  0
ARC
  5
169
330
128
100
AcDbEntity
  8
TA-SMART_DN40_NP
  6
Continuous
 62
     7
100
AcDbCircle
 10
104.2198481364
 20
89.1562949424
 30
0.0
 40
11.24999999999996
100
AcDbArc
 50
307.9254977455
 51
338.6666511923
  0
ARC
  5
16A
330
128
100
AcDbEntity
  8
TA-SMART_DN40_NP
  6
Continuous
 62
     7
100
AcDbCircle
 10
104.2198481364
 20
89.1562949424
 30
0.0
 40
11.24999999999995
100
AcDbArc
 50
21.3333488077
 51
52.0745022545
  0
ARC
  5
16B
330
128
100
AcDbEntity
  8
TA-SMART_DN40_NP
  6
Continuous
 62
     7
100
AcDbCircle
 10
104.2198481364
 20
89.1562949424
 30
0.0
 40
11.24999999999994
100
AcDbArc
 50
201.3333488077
 51
232.0745022545
  0
LINE
  5
16C
330
128
100
AcDbEntity
  8
TA-SMART_DN40_NP
  6
Continuous
 62
     7
100
AcDbLine
 10
93.7407021788
 20
88.6562949424
 30
0.0
 11
95.3987087542
 21
89.1562949424
 31
0.0
  0
LINE
  5
16D
330
128
100
AcDbEntity
  8
TA-SMART_DN40_NP
  6
Continuous
 62
     7
100
AcDbLine
 10
95.3987087542
 20
89.1562949424
 30
0.0
 11
93.7407021788
 21
89.6562949424
 31
0.0
  0
LINE
  5
16E
330
128
100
AcDbEntity
  8
TA-SMART_DN40_NP
  6
Continuous
 62
     7
100
AcDbLine
 10
114.6989940939
 20
89.6562949424
 30
0.0
 11
113.0409875186
 21
89.1562949424
 31
0.0
  0
LINE
  5
16F
330
128
100
AcDbEntity
  8
TA-SMART_DN40_NP
  6
Continuous
 62
     7
100
AcDbLine
 10
113.0409875186
 20
89.1562949424
 30
0.0
 11
114.6989940939
 21
88.6562949424
 31
0.0
  0
ARC
  5
170
330
128
100
AcDbEntity
  8
TA-SMART_DN40_NP
  6
Continuous
 62
     7
100
AcDbCircle
 10
104.2198481364
 20
89.1562949424
 30
0.0
 40
8.750000000000004
100
AcDbArc
 50
104.7045882223
 51
114.5439038252
  0
ARC
  5
171
330
128
100
AcDbEntity
  8
TA-SMART_DN40_NP
  6
Continuous
 62
     7
100
AcDbCircle
 10
104.2198481364
 20
89.1562949424
 30
0.0
 40
8.75
100
AcDbArc
 50
164.7045882223
 51
174.5439038252
  0
ARC
  5
172
330
128
100
AcDbEntity
  8
TA-SMART_DN40_NP
  6
Continuous
 62
     7
100
AcDbCircle
 10
104.2198481364
 20
89.1562949424
 30
0.0
 40
8.749999999999993
100
AcDbArc
 50
224.7045882223
 51
234.5439038252
  0
ARC
  5
173
330
128
100
AcDbEntity
  8
TA-SMART_DN40_NP
  6
Continuous
 62
     7
100
AcDbCircle
 10
104.2198481364
 20
89.1562949424
 30
0.0
 40
8.749999999999998
100
AcDbArc
 50
284.7045882223
 51
294.5439038252
  0
ARC
  5
174
330
128
100
AcDbEntity
  8
TA-SMART_DN40_NP
  6
Continuous
 62
     7
100
AcDbCircle
 10
104.2198481364
 20
89.1562949424
 30
0.0
 40
8.750000000000002
100
AcDbArc
 50
344.7045882223
 51
354.5439038252
  0
ARC
  5
175
330
128
100
AcDbEntity
  8
TA-SMART_DN40_NP
  6
Continuous
 62
     7
100
AcDbCircle
 10
104.2198481364
 20
89.1562949424
 30
0.0
 40
8.749999999999996
100
AcDbArc
 50
44.7045882223
 51
54.5439038252
  0
LINE
  5
176
330
128
100
AcDbEntity
  8
TA-SMART_DN40_NP
  6
Continuous
 62
     7
100
AcDbLine
 10
101.9987883673
 20
97.6197099448
 30
0.0
 11
109.2955390014
 21
96.283697151
 31
0.0
  0
LINE
  5
177
330
128
100
AcDbEntity
  8
TA-SMART_DN40_NP
  6
Continuous
 62
     7
100
AcDbLine
 10
95.779785857
 20
91.4645082603
 30
0.0
 11
100.5851821932
 21
97.1156732776
 31
0.0
  0
LINE
  5
178
330
128
100
AcDbEntity
  8
TA-SMART_DN40_NP
  6
Continuous
 62
     7
100
AcDbLine
 10
98.000845626
 20
83.001093258
 30
0.0
 11
95.5094913282
 21
89.988271069
 31
0.0
  0
LINE
  5
179
330
128
100
AcDbEntity
  8
TA-SMART_DN40_NP
  6
Continuous
 62
     7
100
AcDbLine
 10
106.4409079054
 20
80.6928799401
 30
0.0
 11
99.1441572714
 21
82.0288927338
 31
0.0
  0
LINE
  5
17A
330
128
100
AcDbEntity
  8
TA-SMART_DN40_NP
  6
Continuous
 62
     7
100
AcDbLine
 10
112.6599104157
 20
86.8480816245
 30
0.0
 11
107.8545140795
 21
81.1969166073
 31
0.0
  0
LINE
  5
17B
330
128
100
AcDbEntity
  8
TA-SMART_DN40_NP
  6
Continuous
 62
     7
100
AcDbLine
 10
110.4388506467
 20
95.3114966269
 30
0.0
 11
112.9302049445
 21
88.3243188159
 31
0.0
  0
LINE
  5
17C
330
128
100
AcDbEntity
  8
TA-SMART_DN40_NP
  6
Continuous
 62
     7
100
AcDbLine
 10
76.9017691481
 20
55.7720662263
 30
0.0
 11
77.2198481364
 21
55.6562949424
 31
0.0
  0
LINE
  5
17D
330
128
100
AcDbEntity
  8
TA-SMART_DN40_NP
  6
Continuous
 62
     7
100
AcDbLine
 10
131.2198481364
 20
55.6562949424
 30
0.0
 11
131.5384601651
 21
55.7722602372
 31
0.0
  0
LINE
  5
17E
330
128
100
AcDbEntity
  8
TA-SMART_DN40_NP
  6
Continuous
 62
     7
100
AcDbLine
 10
131.5379271069
 20
122.540523665
 30
0.0
 11
131.2198481364
 21
122.6562949424
 31
0.0
  0
LINE
  5
17F
330
128
100
AcDbEntity
  8
TA-SMART_DN40_NP
  6
Continuous
 62
     7
100
AcDbLine
 10
77.2198481364
 20
122.6562949424
 30
0.0
 11
76.9012360906
 21
122.5403296415
 31
0.0
  0
LINE
  5
180
330
128
100
AcDbEntity
  8
TA-SMART_DN40_NP
  6
Continuous
 62
     7
100
AcDbLine
 10
136.4698481364
 20
101.1562949424
 30
0.0
 11
134.4698481364
 21
103.1562949424
 31
0.0
  0
LINE
  5
181
330
128
100
AcDbEntity
  8
TA-SMART_DN40_NP
  6
Continuous
 62
     7
100
AcDbLine
 10
73.9698481364
 20
103.1562949424
 30
0.0
 11
71.9698481364
 21
101.1562949424
 31
0.0
  0
LINE
  5
182
330
128
100
AcDbEntity
  8
TA-SMART_DN40_NP
  6
Continuous
 62
     7
100
AcDbLine
 10
71.9698481364
 20
77.1562949424
 30
0.0
 11
73.9698481364
 21
75.1562949424
 31
0.0
  0
LINE
  5
183
330
128
100
AcDbEntity
  8
TA-SMART_DN40_NP
  6
Continuous
 62
     7
100
AcDbLine
 10
134.4698481364
 20
75.1562949424
 30
0.0
 11
136.4698481364
 21
77.1562949424
 31
0.0
  0
LINE
  5
184
330
128
100
AcDbEntity
  8
TA-SMART_DN40_NP
  6
Continuous
 62
     7
100
AcDbLine
 10
71.9698481364
 20
101.1562949424
 30
0.0
 11
71.9698481364
 21
89.6562949424
 31
0.0
  0
LINE
  5
185
330
128
100
AcDbEntity
  8
TA-SMART_DN40_NP
  6
Continuous
 62
     7
100
AcDbLine
 10
136.4698481364
 20
89.6562949424
 30
0.0
 11
136.4698481364
 21
101.1562949424
 31
0.0
  0
LINE
  5
186
330
128
100
AcDbEntity
  8
TA-SMART_DN40_NP
  6
Continuous
 62
     7
100
AcDbLine
 10
71.9698481364
 20
89.6562949424
 30
0.0
 11
72.4698481364
 21
89.1562949424
 31
0.0
  0
LINE
  5
187
330
128
100
AcDbEntity
  8
TA-SMART_DN40_NP
  6
Continuous
 62
     7
100
AcDbLine
 10
135.9698481364
 20
89.1562949424
 30
0.0
 11
136.4698481364
 21
89.6562949424
 31
0.0
  0
LINE
  5
188
330
128
100
AcDbEntity
  8
TA-SMART_DN40_NP
  6
Continuous
 62
     7
100
AcDbLine
 10
72.4698481364
 20
89.1562949424
 30
0.0
 11
71.9698481364
 21
88.6562949424
 31
0.0
  0
LINE
  5
189
330
128
100
AcDbEntity
  8
TA-SMART_DN40_NP
  6
Continuous
 62
     7
100
AcDbLine
 10
136.4698481364
 20
88.6562949424
 30
0.0
 11
135.9698481364
 21
89.1562949424
 31
0.0
  0
LINE
  5
18A
330
128
100
AcDbEntity
  8
TA-SMART_DN40_NP
  6
Continuous
 62
     7
100
AcDbLine
 10
71.9698481364
 20
88.6562949424
 30
0.0
 11
71.9698481364
 21
77.1562949424
 31
0.0
  0
LINE
  5
18B
330
128
100
AcDbEntity
  8
TA-SMART_DN40_NP
  6
Continuous
 62
     7
100
AcDbLine
 10
136.4698481364
 20
77.1562949424
 30
0.0
 11
136.4698481364
 21
88.6562949424
 31
0.0
  0
ENDBLK
  5
18D
330
128
100
AcDbEntity
  8
0
100
AcDbBlockEnd
  0
BLOCK
  5
1FF
330
18E
100
AcDbEntity
  8
0
100
AcDbBlockBegin
  2
SE3
 70
     0
 10
0.0
 20
0.0
 30
0.0
  3
SE3
  1

  0
LINE
  5
190
330
18E
100
AcDbEntity
  8
TA-SMART_DN40_NP
  6
Continuous
 62
     7
100
AcDbLine
 10
262.0251748397
 20
55.6562949424
 30
0.0
 11
208.0251748397
 21
55.6562949424
 31
0.0
  0
LINE
  5
191
330
18E
100
AcDbEntity
  8
TA-SMART_DN40_NP
  6
Continuous
 62
     7
100
AcDbLine
 10
265.2751748397
 20
75.1562949424
 30
0.0
 11
204.7751748397
 21
75.1562949424
 31
0.0
  0
LINE
  5
192
330
18E
100
AcDbEntity
  8
TA-SMART_DN40_NP
  6
Continuous
 62
     7
100
AcDbLine
 10
262.3401762716
 20
56.384235411
 30
0.0
 11
261.2278565055
 21
56.384235411
 31
0.0
  0
LINE
  5
193
330
18E
100
AcDbEntity
  8
TA-SMART_DN40_NP
  6
Continuous
 62
     7
100
AcDbLine
 10
247.4517326148
 20
56.384235411
 30
0.0
 11
244.766368464
 21
56.384235411
 31
0.0
  0
LINE
  5
194
330
18E
100
AcDbEntity
  8
TA-SMART_DN40_NP
  6
Continuous
 62
     7
100
AcDbLine
 10
225.2839892458
 20
56.384235411
 30
0.0
 11
222.5986116174
 21
56.384235411
 31
0.0
  0
LINE
  5
195
330
18E
100
AcDbEntity
  8
TA-SMART_DN40_NP
  6
Continuous
 62
     7
100
AcDbLine
 10
208.8224905905
 20
56.384235411
 30
0.0
 11
207.7101762716
 21
56.384235411
 31
0.0
  0
LINE
  5
196
330
18E
100
AcDbEntity
  8
TA-SMART_DN40_NP
  6
Continuous
 62
     7
100
AcDbLine
 10
262.3401762716
 20
75.1562949424
 30
0.0
 11
262.3401762716
 21
56.384235411
 31
0.0
  0
LINE
  5
197
330
18E
100
AcDbEntity
  8
TA-SMART_DN40_NP
  6
Continuous
 62
     7
100
AcDbLine
 10
262.3401748395
 20
55.7709456227
 30
0.0
 11
262.3401734077
 21
56.384235411
 31
0.0
  0
LINE
  5
198
330
18E
100
AcDbEntity
  8
TA-SMART_DN40_NP
  6
Continuous
 62
     7
100
AcDbLine
 10
207.7101734077
 20
75.1562949424
 30
0.0
 11
207.7101734077
 21
56.384235411
 31
0.0
  0
LINE
  5
199
330
18E
100
AcDbEntity
  8
TA-SMART_DN40_NP
  6
Continuous
 62
     7
100
AcDbLine
 10
207.7101734077
 20
56.384235411
 30
0.0
 11
207.7101748395
 21
55.7709456227
 31
0.0
  0
LINE
  5
19A
330
18E
100
AcDbEntity
  8
TA-SMART_DN40_NP
  6
Continuous
 62
     7
100
AcDbLine
 10
207.7101762716
 20
56.384235411
 30
0.0
 11
207.7101762716
 21
75.1562949424
 31
0.0
  0
LINE
  5
19B
330
18E
100
AcDbEntity
  8
TA-SMART_DN40_NP
  6
Continuous
 62
     7
100
AcDbLine
 10
208.8224905905
 20
75.1562949424
 30
0.0
 11
208.8224905905
 21
56.384235411
 31
0.0
  0
ARC
  5
19C
330
18E
100
AcDbEntity
  8
TA-SMART_DN40_NP
  6
Continuous
 62
     7
100
AcDbCircle
 10
215.7105511039
 20
94.7586301665
 30
0.0
 40
38.98768460030985
100
AcDbArc
 50
259.8239848674
 51
280.1760151326
  0
LINE
  5
19D
330
18E
100
AcDbEntity
  8
TA-SMART_DN40_NP
  6
Continuous
 62
     7
100
AcDbLine
 10
222.5986116174
 20
56.384235411
 30
0.0
 11
222.5986116174
 21
75.1562949424
 31
0.0
  0
LINE
  5
19E
330
18E
100
AcDbEntity
  8
TA-SMART_DN40_NP
  6
Continuous
 62
     7
100
AcDbLine
 10
225.2839892458
 20
75.1562949424
 30
0.0
 11
225.2839892458
 21
56.384235411
 31
0.0
  0
ARC
  5
19F
330
18E
100
AcDbEntity
  8
TA-SMART_DN40_NP
  6
Continuous
 62
     7
100
AcDbCircle
 10
235.0251788549
 20
133.6306833983
 30
0.0
 40
77.85823335817524
100
AcDbArc
 50
262.8126351528
 51
277.1873648472
  0
LINE
  5
1A0
330
18E
100
AcDbEntity
  8
TA-SMART_DN40_NP
  6
Continuous
 62
     7
100
AcDbLine
 10
244.766368464
 20
56.384235411
 30
0.0
 11
244.766368464
 21
75.1562949424
 31
0.0
  0
LINE
  5
1A1
330
18E
100
AcDbEntity
  8
TA-SMART_DN40_NP
  6
Continuous
 62
     7
100
AcDbLine
 10
247.4517326148
 20
75.1562949424
 30
0.0
 11
247.4517326148
 21
56.384235411
 31
0.0
  0
ARC
  5
1A2
330
18E
100
AcDbEntity
  8
TA-SMART_DN40_NP
  6
Continuous
 62
     7
100
AcDbCircle
 10
254.3397945602
 20
94.7586462489
 30
0.0
 40
38.98770068272179
100
AcDbArc
 50
259.8239869717
 51
280.1760130283
  0
LINE
  5
1A3
330
18E
100
AcDbEntity
  8
TA-SMART_DN40_NP
  6
Continuous
 62
     7
100
AcDbLine
 10
261.2278565055
 20
56.384235411
 30
0.0
 11
261.2278565055
 21
75.1562949424
 31
0.0
  0
LINE
  5
1A4
330
18E
100
AcDbEntity
  8
TA-SMART_DN40_NP
  6
Continuous
 62
     7
100
AcDbLine
 10
265.2751748397
 20
103.1562949424
 30
0.0
 11
204.7751748397
 21
103.1562949424
 31
0.0
  0
LINE
  5
1A5
330
18E
100
AcDbEntity
  8
TA-SMART_DN40_NP
  6
Continuous
 62
     7
100
AcDbLine
 10
262.0251748397
 20
122.6562949424
 30
0.0
 11
208.0251748397
 21
122.6562949424
 31
0.0
  0
LINE
  5
1A6
330
18E
100
AcDbEntity
  8
TA-SMART_DN40_NP
  6
Continuous
 62
     7
100
AcDbLine
 10
262.3401762716
 20
121.9283544739
 30
0.0
 11
261.2278565055
 21
121.9283544739
 31
0.0
  0
LINE
  5
1A7
330
18E
100
AcDbEntity
  8
TA-SMART_DN40_NP
  6
Continuous
 62
     7
100
AcDbLine
 10
247.4517326148
 20
121.9283544739
 30
0.0
 11
244.766368464
 21
121.9283544739
 31
0.0
  0
LINE
  5
1A8
330
18E
100
AcDbEntity
  8
TA-SMART_DN40_NP
  6
Continuous
 62
     7
100
AcDbLine
 10
225.2839892458
 20
121.9283544739
 30
0.0
 11
222.5986116174
 21
121.9283544739
 31
0.0
  0
LINE
  5
1A9
330
18E
100
AcDbEntity
  8
TA-SMART_DN40_NP
  6
Continuous
 62
     7
100
AcDbLine
 10
208.8224905905
 20
121.9283544739
 30
0.0
 11
207.7101762716
 21
121.9283544739
 31
0.0
  0
LINE
  5
1AA
330
18E
100
AcDbEntity
  8
TA-SMART_DN40_NP
  6
Continuous
 62
     7
100
AcDbLine
 10
262.3401734077
 20
121.9283544739
 30
0.0
 11
262.3401748395
 21
122.5416442621
 31
0.0
  0
LINE
  5
1AB
330
18E
100
AcDbEntity
  8
TA-SMART_DN40_NP
  6
Continuous
 62
     7
100
AcDbLine
 10
207.7101748395
 20
122.5416442621
 30
0.0
 11
207.7101734077
 21
121.9283544739
 31
0.0
  0
ARC
  5
1AC
330
18E
100
AcDbEntity
  8
TA-SMART_DN40_NP
  6
Continuous
 62
     7
100
AcDbCircle
 10
215.7105511039
 20
83.5539597183
 30
0.0
 40
38.98768460030981
100
AcDbArc
 50
79.8239848674
 51
100.1760151326
  0
ARC
  5
1AD
330
18E
100
AcDbEntity
  8
TA-SMART_DN40_NP
  6
Continuous
 62
     7
100
AcDbCircle
 10
235.0251788549
 20
44.6819064866
 30
0.0
 40
77.85823335817553
100
AcDbArc
 50
82.8126351528
 51
97.1873648472
  0
ARC
  5
1AE
330
18E
100
AcDbEntity
  8
TA-SMART_DN40_NP
  6
Continuous
 62
     7
100
AcDbCircle
 10
254.3397945602
 20
83.5539436359
 30
0.0
 40
38.98770068272176
100
AcDbArc
 50
79.8239869717
 51
100.1760130283
  0
LINE
  5
1AF
330
18E
100
AcDbEntity
  8
TA-SMART_DN40_NP
  6
Continuous
 62
     7
100
AcDbLine
 10
247.4517326148
 20
121.9283544739
 30
0.0
 11
247.4517326148
 21
103.1562949424
 31
0.0
  0
LINE
  5
1B0
330
18E
100
AcDbEntity
  8
TA-SMART_DN40_NP
  6
Continuous
 62
     7
100
AcDbLine
 10
261.2278565055
 20
103.1562949424
 30
0.0
 11
261.2278565055
 21
121.9283544739
 31
0.0
  0
LINE
  5
1B1
330
18E
100
AcDbEntity
  8
TA-SMART_DN40_NP
  6
Continuous
 62
     7
100
AcDbLine
 10
225.2839892458
 20
121.9283544739
 30
0.0
 11
225.2839892458
 21
103.1562949424
 31
0.0
  0
LINE
  5
1B2
330
18E
100
AcDbEntity
  8
TA-SMART_DN40_NP
  6
Continuous
 62
     7
100
AcDbLine
 10
244.766368464
 20
103.1562949424
 30
0.0
 11
244.766368464
 21
121.9283544739
 31
0.0
  0
LINE
  5
1B3
330
18E
100
AcDbEntity
  8
TA-SMART_DN40_NP
  6
Continuous
 62
     7
100
AcDbLine
 10
208.8224905905
 20
121.9283544739
 30
0.0
 11
208.8224905905
 21
103.1562949424
 31
0.0
  0
LINE
  5
1B4
330
18E
100
AcDbEntity
  8
TA-SMART_DN40_NP
  6
Continuous
 62
     7
100
AcDbLine
 10
222.5986116174
 20
103.1562949424
 30
0.0
 11
222.5986116174
 21
121.9283544739
 31
0.0
  0
LINE
  5
1B5
330
18E
100
AcDbEntity
  8
TA-SMART_DN40_NP
  6
Continuous
 62
     7
100
AcDbLine
 10
207.7101734077
 20
121.9283544739
 30
0.0
 11
207.7101734077
 21
103.1562949424
 31
0.0
  0
LINE
  5
1B6
330
18E
100
AcDbEntity
  8
TA-SMART_DN40_NP
  6
Continuous
 62
     7
100
AcDbLine
 10
207.7101762716
 20
103.1562949424
 30
0.0
 11
207.7101762716
 21
121.9283544739
 31
0.0
  0
LINE
  5
1B7
330
18E
100
AcDbEntity
  8
TA-SMART_DN40_NP
  6
Continuous
 62
     7
100
AcDbLine
 10
262.3401762716
 20
121.9283544739
 30
0.0
 11
262.3401762716
 21
103.1562949424
 31
0.0
  0
LINE
  5
1B8
330
18E
100
AcDbEntity
  8
TA-SMART_DN40_NP
  6
Continuous
 62
     7
100
AcDbLine
 10
266.5251748397
 20
77.1562949424
 30
0.0
 11
266.5251748397
 21
76.4062949728
 31
0.0
  0
LINE
  5
1B9
330
18E
100
AcDbEntity
  8
TA-SMART_DN40_NP
  6
Continuous
 62
     7
100
AcDbLine
 10
266.5251748397
 20
101.1562949424
 30
0.0
 11
266.5251748397
 21
101.906294912
 31
0.0
  0
LINE
  5
1BA
330
18E
100
AcDbEntity
  8
TA-SMART_DN40_NP
  6
Continuous
 62
     7
100
AcDbLine
 10
266.5251748397
 20
101.1562949424
 30
0.0
 11
203.5251748397
 21
101.1562949424
 31
0.0
  0
LINE
  5
1BB
330
18E
100
AcDbEntity
  8
TA-SMART_DN40_NP
  6
Continuous
 62
     7
100
AcDbLine
 10
266.5251748397
 20
77.1562949424
 30
0.0
 11
203.5251748397
 21
77.1562949424
 31
0.0
  0
LINE
  5
1BC
330
18E
100
AcDbEntity
  8
TA-SMART_DN40_NP
  6
Continuous
 62
     7
100
AcDbLine
 10
266.5251748397
 20
77.1562949424
 30
0.0
 11
266.5251748397
 21
80.2821752678
 31
0.0
  0
LINE
  5
1BD
330
18E
100
AcDbEntity
  8
TA-SMART_DN40_NP
  6
Continuous
 62
     7
100
AcDbLine
 10
203.5251748397
 20
76.4062949728
 30
0.0
 11
203.5251748397
 21
77.1562949424
 31
0.0
  0
LINE
  5
1BE
330
18E
100
AcDbEntity
  8
TA-SMART_DN40_NP
  6
Continuous
 62
     7
100
AcDbLine
 10
203.5251748397
 20
101.1562949424
 30
0.0
 11
203.5251748397
 21
101.906294912
 31
0.0
  0
LINE
  5
1BF
330
18E
100
AcDbEntity
  8
TA-SMART_DN40_NP
  6
Continuous
 62
     7
100
AcDbLine
 10
203.5251748397
 20
88.6562949424
 30
0.0
 11
203.5251748397
 21
89.1562949424
 31
0.0
  0
LINE
  5
1C0
330
18E
100
AcDbEntity
  8
TA-SMART_DN40_NP
  6
Continuous
 62
     7
100
AcDbLine
 10
203.5251748397
 20
89.1562949424
 30
0.0
 11
203.5251748397
 21
89.6562949424
 31
0.0
  0
LINE
  5
1C1
330
18E
100
AcDbEntity
  8
TA-SMART_DN40_NP
  6
Continuous
 62
     7
100
AcDbLine
 10
203.5251748397
 20
88.6562949424
 30
0.0
 11
203.5251748397
 21
77.1562949424
 31
0.0
  0
LINE
  5
1C2
330
18E
100
AcDbEntity
  8
TA-SMART_DN40_NP
  6
Continuous
 62
     7
100
AcDbLine
 10
203.5251748397
 20
101.1562949424
 30
0.0
 11
203.5251748397
 21
89.6562949424
 31
0.0
  0
LINE
  5
1C3
330
18E
100
AcDbEntity
  8
TA-SMART_DN40_NP
  6
Continuous
 62
     7
100
AcDbLine
 10
266.5251748397
 20
98.0304146171
 30
0.0
 11
266.5251748397
 21
101.1562949424
 31
0.0
  0
LINE
  5
1C4
330
18E
100
AcDbEntity
  8
TA-SMART_DN40_NP
  6
Continuous
 62
     7
100
AcDbLine
 10
265.5251748397
 20
89.6562949424
 30
0.0
 11
203.5251748397
 21
89.6562949424
 31
0.0
  0
ARC
  5
1C5
330
18E
100
AcDbEntity
  8
TA-SMART_DN40_NP
  6
Continuous
 62
     7
100
AcDbCircle
 10
299.9930592691
 20
88.5355860371
 30
0.0
 40
34.78866277894186
100
AcDbArc
 50
164.1613768674
 51
172.2132619834
  0
LINE
  5
1C6
330
18E
100
AcDbEntity
  8
TA-SMART_DN40_NP
  6
Continuous
 62
     7
100
AcDbLine
 10
265.5251748397
 20
93.2489713284
 30
0.0
 11
265.5251748397
 21
89.6562949424
 31
0.0
  0
LINE
  5
1C7
330
18E
100
AcDbEntity
  8
TA-SMART_DN40_NP
  6
Continuous
 62
     7
100
AcDbLine
 10
265.5251748397
 20
89.1562949424
 30
0.0
 11
203.5251748397
 21
89.1562949424
 31
0.0
  0
LINE
  5
1C8
330
18E
100
AcDbEntity
  8
TA-SMART_DN40_NP
  6
Continuous
 62
     7
100
AcDbLine
 10
265.5251748397
 20
88.6562949424
 30
0.0
 11
203.5251748397
 21
88.6562949424
 31
0.0
  0
LINE
  5
1C9
330
18E
100
AcDbEntity
  8
TA-SMART_DN40_NP
  6
Continuous
 62
     7
100
AcDbLine
 10
265.5251748397
 20
88.6562949424
 30
0.0
 11
265.5251748397
 21
85.0636185565
 31
0.0
  0
ARC
  5
1CA
330
18E
100
AcDbEntity
  8
TA-SMART_DN40_NP
  6
Continuous
 62
     7
100
AcDbCircle
 10
299.9930592691
 20
89.7770038477
 30
0.0
 40
34.78866277893964
100
AcDbArc
 50
187.7867380166
 51
195.8386231326
  0
LINE
  5
1CB
330
18E
100
AcDbEntity
  8
TA-SMART_DN40_NP
  6
Continuous
 62
     7
100
AcDbLine
 10
265.5251748397
 20
88.6562949424
 30
0.0
 11
265.5251748397
 21
89.1562949424
 31
0.0
  0
LINE
  5
1CC
330
18E
100
AcDbEntity
  8
TA-SMART_DN40_NP
  6
Continuous
 62
     7
100
AcDbLine
 10
265.5251748397
 20
89.1562949424
 30
0.0
 11
265.5251748397
 21
89.6562949424
 31
0.0
  0
LINE
  5
1CD
330
18E
100
AcDbEntity
  8
TA-SMART_DN40_NP
  6
Continuous
 62
     7
100
AcDbLine
 10
273.5251748397
 20
97.6197099448
 30
0.0
 11
273.5251748397
 21
97.1156732776
 31
0.0
  0
LINE
  5
1CE
330
18E
100
AcDbEntity
  8
TA-SMART_DN40_NP
  6
Continuous
 62
     7
100
AcDbLine
 10
273.5251748397
 20
91.4645082603
 30
0.0
 11
273.5251748397
 21
89.988271069
 31
0.0
  0
LINE
  5
1CF
330
18E
100
AcDbEntity
  8
TA-SMART_DN40_NP
  6
Continuous
 62
     7
100
AcDbLine
 10
273.5251748397
 20
83.001093258
 30
0.0
 11
273.5251748397
 21
82.0288927338
 31
0.0
  0
LINE
  5
1D0
330
18E
100
AcDbEntity
  8
TA-SMART_DN40_NP
  6
Continuous
 62
     7
100
AcDbLine
 10
273.5251748397
 20
97.6197099448
 30
0.0
 11
266.415049773
 21
97.6197099448
 31
0.0
  0
LINE
  5
1D1
330
18E
100
AcDbEntity
  8
TA-SMART_DN40_NP
  6
Continuous
 62
     7
100
AcDbLine
 10
273.5251748397
 20
91.4645082603
 30
0.0
 11
273.5251748397
 21
97.1156732776
 31
0.0
  0
LINE
  5
1D2
330
18E
100
AcDbEntity
  8
TA-SMART_DN40_NP
  6
Continuous
 62
     7
100
AcDbLine
 10
273.5251748397
 20
97.1156732776
 30
0.0
 11
266.279898957
 21
97.1156732776
 31
0.0
  0
LINE
  5
1D3
330
18E
100
AcDbEntity
  8
TA-SMART_DN40_NP
  6
Continuous
 62
     7
100
AcDbLine
 10
273.5251748397
 20
91.4645082603
 30
0.0
 11
265.5251748397
 21
91.4645082603
 31
0.0
  0
LINE
  5
1D4
330
18E
100
AcDbEntity
  8
TA-SMART_DN40_NP
  6
Continuous
 62
     7
100
AcDbLine
 10
273.5251748397
 20
83.001093258
 30
0.0
 11
273.5251748397
 21
89.988271069
 31
0.0
  0
LINE
  5
1D5
330
18E
100
AcDbEntity
  8
TA-SMART_DN40_NP
  6
Continuous
 62
     7
100
AcDbLine
 10
273.5251748397
 20
89.988271069
 30
0.0
 11
265.5251748397
 21
89.988271069
 31
0.0
  0
LINE
  5
1D6
330
18E
100
AcDbEntity
  8
TA-SMART_DN40_NP
  6
Continuous
 62
     7
100
AcDbLine
 10
273.5251748397
 20
83.001093258
 30
0.0
 11
265.8704746693
 21
83.001093258
 31
0.0
  0
LINE
  5
1D7
330
18E
100
AcDbEntity
  8
TA-SMART_DN40_NP
  6
Continuous
 62
     7
100
AcDbLine
 10
273.5251748397
 20
80.6928799401
 30
0.0
 11
273.5251748397
 21
82.0288927338
 31
0.0
  0
LINE
  5
1D8
330
18E
100
AcDbEntity
  8
TA-SMART_DN40_NP
  6
Continuous
 62
     7
100
AcDbLine
 10
273.5251748397
 20
82.0288927338
 30
0.0
 11
266.0812474761
 21
82.0288927338
 31
0.0
  0
LINE
  5
1D9
330
18E
100
AcDbEntity
  8
TA-SMART_DN40_NP
  6
Continuous
 62
     7
100
AcDbLine
 10
273.5251748397
 20
80.6928799401
 30
0.0
 11
266.4151415514
 21
80.6928799401
 31
0.0
  0
LINE
  5
1DA
330
18E
100
AcDbEntity
  8
TA-SMART_DN40_NP
  6
Continuous
 62
     7
100
AcDbLine
 10
197.0615482963
 20
93.4613866434
 30
0.0
 11
197.0615482963
 21
93.5444780144
 31
0.0
  0
LINE
  5
1DB
330
18E
100
AcDbEntity
  8
TA-SMART_DN40_NP
  6
Continuous
 62
     7
100
AcDbLine
 10
197.0615482963
 20
86.2165775193
 30
0.0
 11
197.0615482963
 21
86.6831209899
 31
0.0
  0
LINE
  5
1DC
330
18E
100
AcDbEntity
  8
TA-SMART_DN40_NP
  6
Continuous
 62
     7
100
AcDbLine
 10
197.0615482963
 20
90.5216692203
 30
0.0
 11
197.0615482963
 21
91.0713040618
 31
0.0
  0
ARC
  5
1DD
330
18E
100
AcDbEntity
  8
TA-SMART_DN40_NP
  6
Continuous
 62
     7
100
AcDbCircle
 10
199.2748080805
 20
92.2663453526
 30
0.0
 40
2.897205250098302
100
AcDbArc
 50
335.639235057
 51
24.360764943
  0
ARC
  5
1DE
330
18E
100
AcDbEntity
  8
TA-SMART_DN40_NP
  6
Continuous
 62
     7
100
AcDbCircle
 10
201.0208166865
 20
92.82024519
 30
0.0
 40
1.14995864416007
100
AcDbArc
 50
31.4412595543
 51
39.0346545441
  0
ARC
  5
1DF
330
18E
100
AcDbEntity
  8
TA-SMART_DN40_NP
  6
Continuous
 62
     7
100
AcDbCircle
 10
201.0208166865
 20
85.4923446949
 30
0.0
 40
1.149958644160083
100
AcDbArc
 50
320.9653454559
 51
39.0346545441
  0
ARC
  5
1E0
330
18E
100
AcDbEntity
  8
TA-SMART_DN40_NP
  6
Continuous
 62
     7
100
AcDbCircle
 10
194.9167252878
 20
88.6023951051
 30
0.0
 40
7.255781799146122
100
AcDbArc
 50
344.6617739718
 51
15.3382260282
  0
LINE
  5
1E1
330
18E
100
AcDbEntity
  8
TA-SMART_DN40_NP
  6
Continuous
 62
     7
100
AcDbLine
 10
202.224967644
 20
85.2947949424
 30
0.0
 11
202.224967644
 21
93.0177949424
 31
0.0
  0
LINE
  5
1E2
330
18E
100
AcDbEntity
  8
TA-SMART_DN40_NP
  6
Continuous
 62
     7
100
AcDbLine
 10
196.824967644
 20
85.4062949424
 30
0.0
 11
196.824967644
 21
92.9062949424
 31
0.0
  0
ARC
  5
1E3
330
18E
100
AcDbEntity
  8
TA-SMART_DN40_NP
  6
Continuous
 62
     7
100
AcDbCircle
 10
201.339364072
 20
92.2663453526
 30
0.0
 40
4.441602356986045
100
AcDbArc
 50
164.3918784664
 51
195.6081215336
  0
ARC
  5
1E4
330
18E
100
AcDbEntity
  8
TA-SMART_DN40_NP
  6
Continuous
 62
     7
100
AcDbCircle
 10
198.580864026
 20
92.82024519
 30
0.0
 40
1.683102335145653
100
AcDbArc
 50
154.5136300324
 51
159.2549289239
  0
ARC
  5
1E5
330
18E
100
AcDbEntity
  8
TA-SMART_DN40_NP
  6
Continuous
 62
     7
100
AcDbCircle
 10
198.580864026
 20
85.4923446949
 30
0.0
 40
1.683102335145572
100
AcDbArc
 50
154.5136300324
 51
205.4863699676
  0
ARC
  5
1E6
330
18E
100
AcDbEntity
  8
TA-SMART_DN40_NP
  6
Continuous
 62
     7
100
AcDbCircle
 10
208.2248148767
 20
88.6023951051
 30
0.0
 40
11.32705318588277
100
AcDbArc
 50
170.2446453888
 51
189.7553546112
  0
LINE
  5
1E7
330
18E
100
AcDbEntity
  8
TA-SMART_DN40_NP
  6
Continuous
 62
     7
100
AcDbLine
 10
201.914064524
 20
93.5444780144
 30
0.0
 11
201.914064524
 21
93.4613866434
 31
0.0
  0
LINE
  5
1E8
330
18E
100
AcDbEntity
  8
TA-SMART_DN40_NP
  6
Continuous
 62
     7
100
AcDbLine
 10
197.0615482963
 20
93.4613866434
 30
0.0
 11
201.914064524
 21
93.4613866434
 31
0.0
  0
LINE
  5
1E9
330
18E
100
AcDbEntity
  8
TA-SMART_DN40_NP
  6
Continuous
 62
     7
100
AcDbLine
 10
201.914064524
 20
93.5444780144
 30
0.0
 11
197.0615482963
 21
93.5444780144
 31
0.0
  0
LINE
  5
1EA
330
18E
100
AcDbEntity
  8
TA-SMART_DN40_NP
  6
Continuous
 62
     7
100
AcDbLine
 10
201.914064524
 20
84.7681118705
 30
0.0
 11
197.0615482963
 21
84.7681118705
 31
0.0
  0
LINE
  5
1EB
330
18E
100
AcDbEntity
  8
TA-SMART_DN40_NP
  6
Continuous
 62
     7
100
AcDbLine
 10
201.914064524
 20
86.6831209899
 30
0.0
 11
201.914064524
 21
86.2165775193
 31
0.0
  0
LINE
  5
1EC
330
18E
100
AcDbEntity
  8
TA-SMART_DN40_NP
  6
Continuous
 62
     7
100
AcDbLine
 10
197.0615482963
 20
86.2165775193
 30
0.0
 11
201.914064524
 21
86.2165775193
 31
0.0
  0
LINE
  5
1ED
330
18E
100
AcDbEntity
  8
TA-SMART_DN40_NP
  6
Continuous
 62
     7
100
AcDbLine
 10
201.914064524
 20
86.6831209899
 30
0.0
 11
197.0615482963
 21
86.6831209899
 31
0.0
  0
LINE
  5
1EE
330
18E
100
AcDbEntity
  8
TA-SMART_DN40_NP
  6
Continuous
 62
     7
100
AcDbLine
 10
201.914064524
 20
91.0713040618
 30
0.0
 11
201.914064524
 21
90.5216692203
 31
0.0
  0
LINE
  5
1EF
330
18E
100
AcDbEntity
  8
TA-SMART_DN40_NP
  6
Continuous
 62
     7
100
AcDbLine
 10
201.914064524
 20
91.0713040618
 30
0.0
 11
197.0615482963
 21
91.0713040618
 31
0.0
  0
LINE
  5
1F0
330
18E
100
AcDbEntity
  8
TA-SMART_DN40_NP
  6
Continuous
 62
     7
100
AcDbLine
 10
197.0615482963
 20
90.5216692203
 30
0.0
 11
201.914064524
 21
90.5216692203
 31
0.0
  0
LINE
  5
1F1
330
18E
100
AcDbEntity
  8
TA-SMART_DN40_NP
  6
Continuous
 62
     7
100
AcDbLine
 10
207.7065628109
 20
55.7722602372
 30
0.0
 11
208.0251748397
 21
55.6562949424
 31
0.0
  0
LINE
  5
1F2
330
18E
100
AcDbEntity
  8
TA-SMART_DN40_NP
  6
Continuous
 62
     7
100
AcDbLine
 10
262.0251748397
 20
55.6562949424
 30
0.0
 11
262.3432538279
 21
55.7720662263
 31
0.0
  0
LINE
  5
1F3
330
18E
100
AcDbEntity
  8
TA-SMART_DN40_NP
  6
Continuous
 62
     7
100
AcDbLine
 10
262.3437868854
 20
122.5403296415
 30
0.0
 11
262.0251748397
 21
122.6562949424
 31
0.0
  0
LINE
  5
1F4
330
18E
100
AcDbEntity
  8
TA-SMART_DN40_NP
  6
Continuous
 62
     7
100
AcDbLine
 10
208.0251748397
 20
122.6562949424
 30
0.0
 11
207.7070958691
 21
122.540523665
 31
0.0
  0
LINE
  5
1F5
330
18E
100
AcDbEntity
  8
TA-SMART_DN40_NP
  6
Continuous
 62
     7
100
AcDbLine
 10
266.5251748397
 20
101.9062949424
 30
0.0
 11
265.2751748397
 21
103.1562949424
 31
0.0
  0
LINE
  5
1F6
330
18E
100
AcDbEntity
  8
TA-SMART_DN40_NP
  6
Continuous
 62
     7
100
AcDbLine
 10
204.7751748397
 20
103.1562949424
 30
0.0
 11
203.5251748397
 21
101.9062949424
 31
0.0
  0
LINE
  5
1F7
330
18E
100
AcDbEntity
  8
TA-SMART_DN40_NP
  6
Continuous
 62
     7
100
AcDbLine
 10
203.5251748397
 20
76.4062949424
 30
0.0
 11
204.7751748397
 21
75.1562949424
 31
0.0
  0
LINE
  5
1F8
330
18E
100
AcDbEntity
  8
TA-SMART_DN40_NP
  6
Continuous
 62
     7
100
AcDbLine
 10
265.2751748397
 20
75.1562949424
 30
0.0
 11
266.5251748397
 21
76.4062949424
 31
0.0
  0
LINE
  5
1F9
330
18E
100
AcDbEntity
  8
TA-SMART_DN40_NP
  6
Continuous
 62
     7
100
AcDbLine
 10
201.9922077536
 20
84.8916429863
 30
0.0
 11
202.224967644
 21
85.2947949424
 31
0.0
  0
LINE
  5
1FA
330
18E
100
AcDbEntity
  8
TA-SMART_DN40_NP
  6
Continuous
 62
     7
100
AcDbLine
 10
202.224967644
 20
93.0177949424
 30
0.0
 11
201.9922077536
 21
93.4209468986
 31
0.0
  0
LINE
  5
1FB
330
18E
100
AcDbEntity
  8
TA-SMART_DN40_NP
  6
Continuous
 62
     7
100
AcDbLine
 10
203.5251748397
 20
93.0177949424
 30
0.0
 11
202.224967644
 21
93.0177949424
 31
0.0
  0
LINE
  5
1FC
330
18E
100
AcDbEntity
  8
TA-SMART_DN40_NP
  6
Continuous
 62
     7
100
AcDbLine
 10
202.224967644
 20
85.2947949424
 30
0.0
 11
203.5251748397
 21
85.2947949424
 31
0.0
  0
LINE
  5
1FD
330
18E
100
AcDbEntity
  8
TA-SMART_DN40_NP
  6
Continuous
 62
     7
100
AcDbLine
 10
197.0110049857
 20
93.4174283381
 30
0.0
 11
196.824967644
 21
92.9062949424
 31
0.0
  0
LINE
  5
1FE
330
18E
100
AcDbEntity
  8
TA-SMART_DN40_NP
  6
Continuous
 62
     7
100
AcDbLine
 10
196.824967644
 20
85.4062949424
 30
0.0
 11
197.0110049857
 21
84.8951615468
 31
0.0
  0
ENDBLK
  5
200
330
18E
100
AcDbEntity
  8
0
100
AcDbBlockEnd
  0
BLOCK
  5
25C
330
201
100
AcDbEntity
  8
0
100
AcDbBlockBegin
  2
SE4
 70
     0
 10
0.0
 20
0.0
 30
0.0
  3
SE4
  1

  0
LINE
  5
203
330
201
100
AcDbEntity
  8
TA-SMART_DN40_NP
  6
Continuous
 62
     7
100
AcDbLine
 10
332.276131577
 20
55.6562949424
 30
0.0
 11
386.276131577
 21
55.6562949424
 31
0.0
  0
LINE
  5
204
330
201
100
AcDbEntity
  8
TA-SMART_DN40_NP
  6
Continuous
 62
     7
100
AcDbLine
 10
349.5349459831
 20
56.384235411
 30
0.0
 11
346.8495683547
 21
56.384235411
 31
0.0
  0
LINE
  5
205
330
201
100
AcDbEntity
  8
TA-SMART_DN40_NP
  6
Continuous
 62
     7
100
AcDbLine
 10
329.026131577
 20
75.1562949424
 30
0.0
 11
389.526131577
 21
75.1562949424
 31
0.0
  0
LINE
  5
206
330
201
100
AcDbEntity
  8
TA-SMART_DN40_NP
  6
Continuous
 62
     7
100
AcDbLine
 10
333.0734473278
 20
56.384235411
 30
0.0
 11
331.9611330089
 21
56.384235411
 31
0.0
  0
LINE
  5
207
330
201
100
AcDbEntity
  8
TA-SMART_DN40_NP
  6
Continuous
 62
     7
100
AcDbLine
 10
386.5911330089
 20
56.384235411
 30
0.0
 11
385.4788132429
 21
56.384235411
 31
0.0
  0
LINE
  5
208
330
201
100
AcDbEntity
  8
TA-SMART_DN40_NP
  6
Continuous
 62
     7
100
AcDbLine
 10
371.7026893521
 20
56.384235411
 30
0.0
 11
369.0173252013
 21
56.384235411
 31
0.0
  0
LINE
  5
209
330
201
100
AcDbEntity
  8
TA-SMART_DN40_NP
  6
Continuous
 62
     7
100
AcDbLine
 10
331.9611301451
 20
75.1562949424
 30
0.0
 11
331.9611301451
 21
56.384235411
 31
0.0
  0
LINE
  5
20A
330
201
100
AcDbEntity
  8
TA-SMART_DN40_NP
  6
Continuous
 62
     7
100
AcDbLine
 10
331.9611301451
 20
56.384235411
 30
0.0
 11
331.9611315769
 21
55.7709456227
 31
0.0
  0
LINE
  5
20B
330
201
100
AcDbEntity
  8
TA-SMART_DN40_NP
  6
Continuous
 62
     7
100
AcDbLine
 10
331.9611330089
 20
56.384235411
 30
0.0
 11
331.9611330089
 21
75.1562949424
 31
0.0
  0
LINE
  5
20C
330
201
100
AcDbEntity
  8
TA-SMART_DN40_NP
  6
Continuous
 62
     7
100
AcDbLine
 10
333.0734473278
 20
75.1562949424
 30
0.0
 11
333.0734473278
 21
56.384235411
 31
0.0
  0
ARC
  5
20D
330
201
100
AcDbEntity
  8
TA-SMART_DN40_NP
  6
Continuous
 62
     7
100
AcDbCircle
 10
339.9615078413
 20
94.7586301665
 30
0.0
 40
38.98768460030985
100
AcDbArc
 50
259.8239848674
 51
280.1760151326
  0
LINE
  5
20E
330
201
100
AcDbEntity
  8
TA-SMART_DN40_NP
  6
Continuous
 62
     7
100
AcDbLine
 10
346.8495683547
 20
56.384235411
 30
0.0
 11
346.8495683547
 21
75.1562949424
 31
0.0
  0
LINE
  5
20F
330
201
100
AcDbEntity
  8
TA-SMART_DN40_NP
  6
Continuous
 62
     7
100
AcDbLine
 10
349.5349459831
 20
75.1562949424
 30
0.0
 11
349.5349459831
 21
56.384235411
 31
0.0
  0
ARC
  5
210
330
201
100
AcDbEntity
  8
TA-SMART_DN40_NP
  6
Continuous
 62
     7
100
AcDbCircle
 10
359.2761355922
 20
133.6306833974
 30
0.0
 40
77.85823335730589
100
AcDbArc
 50
262.8126351527
 51
277.1873648473
  0
LINE
  5
211
330
201
100
AcDbEntity
  8
TA-SMART_DN40_NP
  6
Continuous
 62
     7
100
AcDbLine
 10
369.0173252013
 20
56.384235411
 30
0.0
 11
369.0173252013
 21
75.1562949424
 31
0.0
  0
LINE
  5
212
330
201
100
AcDbEntity
  8
TA-SMART_DN40_NP
  6
Continuous
 62
     7
100
AcDbLine
 10
371.7026893521
 20
75.1562949424
 30
0.0
 11
371.7026893521
 21
56.384235411
 31
0.0
  0
ARC
  5
213
330
201
100
AcDbEntity
  8
TA-SMART_DN40_NP
  6
Continuous
 62
     7
100
AcDbCircle
 10
378.5907512975
 20
94.7586462489
 30
0.0
 40
38.98770068272161
100
AcDbArc
 50
259.8239869717
 51
280.1760130283
  0
LINE
  5
214
330
201
100
AcDbEntity
  8
TA-SMART_DN40_NP
  6
Continuous
 62
     7
100
AcDbLine
 10
385.4788132429
 20
56.384235411
 30
0.0
 11
385.4788132429
 21
75.1562949424
 31
0.0
  0
LINE
  5
215
330
201
100
AcDbEntity
  8
TA-SMART_DN40_NP
  6
Continuous
 62
     7
100
AcDbLine
 10
386.5911330089
 20
75.1562949424
 30
0.0
 11
386.5911330089
 21
56.384235411
 31
0.0
  0
LINE
  5
216
330
201
100
AcDbEntity
  8
TA-SMART_DN40_NP
  6
Continuous
 62
     7
100
AcDbLine
 10
386.5911315769
 20
55.7709456227
 30
0.0
 11
386.5911301451
 21
56.384235411
 31
0.0
  0
LINE
  5
217
330
201
100
AcDbEntity
  8
TA-SMART_DN40_NP
  6
Continuous
 62
     7
100
AcDbLine
 10
329.026131577
 20
103.1562949424
 30
0.0
 11
389.526131577
 21
103.1562949424
 31
0.0
  0
LINE
  5
218
330
201
100
AcDbEntity
  8
TA-SMART_DN40_NP
  6
Continuous
 62
     7
100
AcDbLine
 10
349.5349459831
 20
121.9283544739
 30
0.0
 11
346.8495683547
 21
121.9283544739
 31
0.0
  0
LINE
  5
219
330
201
100
AcDbEntity
  8
TA-SMART_DN40_NP
  6
Continuous
 62
     7
100
AcDbLine
 10
332.276131577
 20
122.6562949424
 30
0.0
 11
386.276131577
 21
122.6562949424
 31
0.0
  0
LINE
  5
21A
330
201
100
AcDbEntity
  8
TA-SMART_DN40_NP
  6
Continuous
 62
     7
100
AcDbLine
 10
333.0734473278
 20
121.9283544739
 30
0.0
 11
331.9611330089
 21
121.9283544739
 31
0.0
  0
LINE
  5
21B
330
201
100
AcDbEntity
  8
TA-SMART_DN40_NP
  6
Continuous
 62
     7
100
AcDbLine
 10
386.5911330089
 20
121.9283544739
 30
0.0
 11
385.4788132429
 21
121.9283544739
 31
0.0
  0
LINE
  5
21C
330
201
100
AcDbEntity
  8
TA-SMART_DN40_NP
  6
Continuous
 62
     7
100
AcDbLine
 10
371.7026893521
 20
121.9283544739
 30
0.0
 11
369.0173252013
 21
121.9283544739
 31
0.0
  0
LINE
  5
21D
330
201
100
AcDbEntity
  8
TA-SMART_DN40_NP
  6
Continuous
 62
     7
100
AcDbLine
 10
331.9611315769
 20
122.5416442621
 30
0.0
 11
331.9611301451
 21
121.9283544739
 31
0.0
  0
ARC
  5
21E
330
201
100
AcDbEntity
  8
TA-SMART_DN40_NP
  6
Continuous
 62
     7
100
AcDbCircle
 10
339.9615078413
 20
83.5539597183
 30
0.0
 40
38.98768460030971
100
AcDbArc
 50
79.8239848674
 51
100.1760151326
  0
ARC
  5
21F
330
201
100
AcDbEntity
  8
TA-SMART_DN40_NP
  6
Continuous
 62
     7
100
AcDbCircle
 10
359.2761355922
 20
44.6819064875
 30
0.0
 40
77.85823335730602
100
AcDbArc
 50
82.8126351527
 51
97.1873648473
  0
ARC
  5
220
330
201
100
AcDbEntity
  8
TA-SMART_DN40_NP
  6
Continuous
 62
     7
100
AcDbCircle
 10
378.5907512975
 20
83.5539436359
 30
0.0
 40
38.98770068272161
100
AcDbArc
 50
79.8239869717
 51
100.1760130283
  0
LINE
  5
221
330
201
100
AcDbEntity
  8
TA-SMART_DN40_NP
  6
Continuous
 62
     7
100
AcDbLine
 10
386.5911301451
 20
121.9283544739
 30
0.0
 11
386.5911315769
 21
122.5416442621
 31
0.0
  0
LINE
  5
222
330
201
100
AcDbEntity
  8
TA-SMART_DN40_NP
  6
Continuous
 62
     7
100
AcDbLine
 10
386.5911330089
 20
121.9283544739
 30
0.0
 11
386.5911330089
 21
103.1562949424
 31
0.0
  0
LINE
  5
223
330
201
100
AcDbEntity
  8
TA-SMART_DN40_NP
  6
Continuous
 62
     7
100
AcDbLine
 10
371.7026893521
 20
121.9283544739
 30
0.0
 11
371.7026893521
 21
103.1562949424
 31
0.0
  0
LINE
  5
224
330
201
100
AcDbEntity
  8
TA-SMART_DN40_NP
  6
Continuous
 62
     7
100
AcDbLine
 10
385.4788132429
 20
103.1562949424
 30
0.0
 11
385.4788132429
 21
121.9283544739
 31
0.0
  0
LINE
  5
225
330
201
100
AcDbEntity
  8
TA-SMART_DN40_NP
  6
Continuous
 62
     7
100
AcDbLine
 10
349.5349459831
 20
121.9283544739
 30
0.0
 11
349.5349459831
 21
103.1562949424
 31
0.0
  0
LINE
  5
226
330
201
100
AcDbEntity
  8
TA-SMART_DN40_NP
  6
Continuous
 62
     7
100
AcDbLine
 10
369.0173252013
 20
103.1562949424
 30
0.0
 11
369.0173252013
 21
121.9283544739
 31
0.0
  0
LINE
  5
227
330
201
100
AcDbEntity
  8
TA-SMART_DN40_NP
  6
Continuous
 62
     7
100
AcDbLine
 10
333.0734473278
 20
121.9283544739
 30
0.0
 11
333.0734473278
 21
103.1562949424
 31
0.0
  0
LINE
  5
228
330
201
100
AcDbEntity
  8
TA-SMART_DN40_NP
  6
Continuous
 62
     7
100
AcDbLine
 10
346.8495683547
 20
103.1562949424
 30
0.0
 11
346.8495683547
 21
121.9283544739
 31
0.0
  0
LINE
  5
229
330
201
100
AcDbEntity
  8
TA-SMART_DN40_NP
  6
Continuous
 62
     7
100
AcDbLine
 10
331.9611301451
 20
121.9283544739
 30
0.0
 11
331.9611301451
 21
103.1562949424
 31
0.0
  0
LINE
  5
22A
330
201
100
AcDbEntity
  8
TA-SMART_DN40_NP
  6
Continuous
 62
     7
100
AcDbLine
 10
331.9611330089
 20
103.1562949424
 30
0.0
 11
331.9611330089
 21
121.9283544739
 31
0.0
  0
LINE
  5
22B
330
201
100
AcDbEntity
  8
TA-SMART_DN40_NP
  6
Continuous
 62
     7
100
AcDbLine
 10
391.526131577
 20
101.1562949424
 30
0.0
 11
366.19078992
 21
101.1562949424
 31
0.0
  0
LINE
  5
22C
330
201
100
AcDbEntity
  8
TA-SMART_DN40_NP
  6
Continuous
 62
     7
100
AcDbLine
 10
391.526131577
 20
77.1562949424
 30
0.0
 11
366.19078992
 21
77.1562949424
 31
0.0
  0
LINE
  5
22D
330
201
100
AcDbEntity
  8
TA-SMART_DN40_NP
  6
Continuous
 62
     7
100
AcDbLine
 10
352.361473234
 20
89.6562949424
 30
0.0
 11
327.026131577
 21
89.6562949424
 31
0.0
  0
LINE
  5
22E
330
201
100
AcDbEntity
  8
TA-SMART_DN40_NP
  6
Continuous
 62
     7
100
AcDbLine
 10
327.026131577
 20
101.1562949424
 30
0.0
 11
352.361473234
 21
101.1562949424
 31
0.0
  0
LINE
  5
22F
330
201
100
AcDbEntity
  8
TA-SMART_DN40_NP
  6
Continuous
 62
     7
100
AcDbLine
 10
352.361473234
 20
101.1562949424
 30
0.0
 11
352.361473234
 21
89.6562949424
 31
0.0
  0
LINE
  5
230
330
201
100
AcDbEntity
  8
TA-SMART_DN40_NP
  6
Continuous
 62
     7
100
AcDbLine
 10
355.2996381469
 20
89.1562949424
 30
0.0
 11
327.526131577
 21
89.1562949424
 31
0.0
  0
LINE
  5
231
330
201
100
AcDbEntity
  8
TA-SMART_DN40_NP
  6
Continuous
 62
     7
100
AcDbLine
 10
352.361473234
 20
88.6562949424
 30
0.0
 11
327.026131577
 21
88.6562949424
 31
0.0
  0
LINE
  5
232
330
201
100
AcDbEntity
  8
TA-SMART_DN40_NP
  6
Continuous
 62
     7
100
AcDbLine
 10
327.026131577
 20
77.1562949424
 30
0.0
 11
352.361473234
 21
77.1562949424
 31
0.0
  0
LINE
  5
233
330
201
100
AcDbEntity
  8
TA-SMART_DN40_NP
  6
Continuous
 62
     7
100
AcDbLine
 10
352.361473234
 20
88.6562949424
 30
0.0
 11
352.361473234
 21
77.1562949424
 31
0.0
  0
SPLINE
  5
234
330
201
100
AcDbEntity
  8
TA-SMART_DN40_NP
  6
Continuous
 62
     7
100
AcDbSpline
210
0.0
220
0.0
230
1.0
 70
     8
 71
     3
 72
    16
 73
    12
 74
     0
 42
0.000000001
 43
0.0000000001
 40
0.0
 40
0.0
 40
0.0
 40
0.0
 40
0.1250000000000001
 40
0.1250000000000001
 40
0.2500000000000001
 40
0.2500000000000001
 40
0.5
 40
0.5
 40
0.75
 40
0.75
 40
1.0
 40
1.0
 40
1.0
 40
1.0
 10
352.3614732340323
 20
77.15629494243362
 30
0.0
 10
352.9268356463904
 20
77.03507671231228
 30
0.0
 10
353.4962755100475
 20
76.92716634949831
 30
0.0
 10
354.6439437010512
 20
76.74002915680387
 30
0.0
 10
355.2238387309351
 20
76.66065072762244
 30
0.0
 10
356.9628052160278
 20
76.47009723145857
 30
0.0
 10
358.1208173349597
 20
76.40624414505895
 30
0.0
 10
360.4342141729219
 20
76.406345800632
 30
0.0
 10
361.5895989979139
 20
76.4702953881846
 30
0.0
 10
363.8978058302039
 20
76.72286084031859
 30
0.0
 10
365.0557683403181
 20
76.91293722351267
 30
0.0
 10
366.1907899199716
 20
77.15629494243362
 30
0.0
  0
SPLINE
  5
235
330
201
100
AcDbEntity
  8
TA-SMART_DN40_NP
  6
Continuous
 62
     7
100
AcDbSpline
210
0.0
220
0.0
230
1.0
 70
     8
 71
     3
 72
    16
 73
    12
 74
     0
 42
0.000000001
 43
0.0000000001
 40
0.0
 40
0.0
 40
0.0
 40
0.0
 40
0.25
 40
0.25
 40
0.5
 40
0.5
 40
0.7499999999999999
 40
0.7499999999999999
 40
0.875
 40
0.875
 40
1.0
 40
1.0
 40
1.0
 40
1.0
 10
366.1907899199716
 20
101.1562949424336
 30
0.0
 10
365.0557683403181
 20
101.3996526613545
 30
0.0
 10
363.8978058302039
 20
101.5897290445486
 30
0.0
 10
361.5895989979139
 20
101.8422944966826
 30
0.0
 10
360.4342141729219
 20
101.9062440842352
 30
0.0
 10
358.1208173349597
 20
101.9063457398082
 30
0.0
 10
356.9628052160278
 20
101.8424926534086
 30
0.0
 10
355.2238387309351
 20
101.6519391572448
 30
0.0
 10
354.6439437010512
 20
101.5725607280633
 30
0.0
 10
353.4962755100475
 20
101.3854235353689
 30
0.0
 10
352.9268356463904
 20
101.2775131725549
 30
0.0
 10
352.3614732340323
 20
101.1562949424336
 30
0.0
  0
SPLINE
  5
236
330
201
100
AcDbEntity
  8
TA-SMART_DN40_NP
  6
Continuous
 62
     7
100
AcDbSpline
210
0.0
220
0.0
230
1.0
 70
     8
 71
     3
 72
     8
 73
     4
 74
     0
 42
0.000000001
 43
0.0000000001
 40
0.0
 40
0.0
 40
0.0
 40
0.0
 40
1.0
 40
1.0
 40
1.0
 40
1.0
 10
352.3614732340324
 20
88.6562949424336
 30
0.0
 10
353.3303079318497
 20
88.8640208626265
 30
0.0
 10
354.317127653051
 20
89.03324150861744
 30
0.0
 10
355.2996381468554
 20
89.1562949424336
 30
0.0
  0
SPLINE
  5
237
330
201
100
AcDbEntity
  8
TA-SMART_DN40_NP
  6
Continuous
 62
     7
100
AcDbSpline
210
0.0
220
0.0
230
1.0
 70
     8
 71
     3
 72
    10
 73
     6
 74
     0
 42
0.000000001
 43
0.0000000001
 40
0.0
 40
0.0
 40
0.0
 40
0.0
 40
0.5
 40
0.5
 40
1.0
 40
1.0
 40
1.0
 40
1.0
 10
355.2996381468554
 20
89.1562949424336
 30
0.0
 10
354.8088663169165
 20
89.21776111432187
 30
0.0
 10
354.3181760153058
 20
89.29042291993972
 30
0.0
 10
353.3369550018187
 20
89.4576617139995
 30
0.0
 10
352.846802725716
 20
89.55223641161938
 30
0.0
 10
352.3614732340323
 20
89.6562949424336
 30
0.0
  0
SPLINE
  5
238
330
201
100
AcDbEntity
  8
TA-SMART_DN40_NP
  6
Continuous
 62
     7
100
AcDbSpline
210
0.0
220
0.0
230
1.0
 70
     8
 71
     3
 72
     8
 73
     4
 74
     0
 42
0.000000001
 43
0.0000000001
 40
0.0
 40
0.0
 40
0.0
 40
0.0
 40
1.0
 40
1.0
 40
1.0
 40
1.0
 10
366.1907899199715
 20
88.6562949424336
 30
0.0
 10
365.2219552221542
 20
88.8640208626265
 30
0.0
 10
364.2351355009528
 20
89.03324150861744
 30
0.0
 10
363.2526250071485
 20
89.1562949424336
 30
0.0
  0
SPLINE
  5
239
330
201
100
AcDbEntity
  8
TA-SMART_DN40_NP
  6
Continuous
 62
     7
100
AcDbSpline
210
0.0
220
0.0
230
1.0
 70
     8
 71
     3
 72
    10
 73
     6
 74
     0
 42
0.000000001
 43
0.0000000001
 40
0.0
 40
0.0
 40
0.0
 40
0.0
 40
0.5
 40
0.5
 40
1.0
 40
1.0
 40
1.0
 40
1.0
 10
363.2526250071485
 20
89.1562949424336
 30
0.0
 10
363.7433968370873
 20
89.21776111432187
 30
0.0
 10
364.2340871386981
 20
89.29042291993972
 30
0.0
 10
365.2153081521851
 20
89.4576617139995
 30
0.0
 10
365.7054604282879
 20
89.55223641161938
 30
0.0
 10
366.1907899199716
 20
89.6562949424336
 30
0.0
  0
LINE
  5
23A
330
201
100
AcDbEntity
  8
TA-SMART_DN40_NP
  6
Continuous
 62
     7
100
AcDbLine
 10
366.19078992
 20
88.6562949424
 30
0.0
 11
366.19078992
 21
77.1562949424
 31
0.0
  0
LINE
  5
23B
330
201
100
AcDbEntity
  8
TA-SMART_DN40_NP
  6
Continuous
 62
     7
100
AcDbLine
 10
366.19078992
 20
101.1562949424
 30
0.0
 11
366.19078992
 21
89.6562949424
 31
0.0
  0
LINE
  5
23C
330
201
100
AcDbEntity
  8
TA-SMART_DN40_NP
  6
Continuous
 62
     7
100
AcDbLine
 10
391.526131577
 20
89.6562949424
 30
0.0
 11
366.19078992
 21
89.6562949424
 31
0.0
  0
LINE
  5
23D
330
201
100
AcDbEntity
  8
TA-SMART_DN40_NP
  6
Continuous
 62
     7
100
AcDbLine
 10
391.026131577
 20
89.1562949424
 30
0.0
 11
363.2526250071
 21
89.1562949424
 31
0.0
  0
LINE
  5
23E
330
201
100
AcDbEntity
  8
TA-SMART_DN40_NP
  6
Continuous
 62
     7
100
AcDbLine
 10
391.526131577
 20
88.6562949424
 30
0.0
 11
366.19078992
 21
88.6562949424
 31
0.0
  0
ARC
  5
23F
330
201
100
AcDbEntity
  8
TA-SMART_DN40_NP
  6
Continuous
 62
     7
100
AcDbCircle
 10
359.276131577
 20
89.1562949424
 30
0.0
 40
4.4
100
AcDbArc
 50
78.0780543031
 51
85.7998883729
  0
ARC
  5
240
330
201
100
AcDbEntity
  8
TA-SMART_DN40_NP
  6
Continuous
 62
     7
100
AcDbCircle
 10
359.276131577
 20
89.1562949424
 30
0.0
 40
4.399999999999999
100
AcDbArc
 50
138.0780543031
 51
145.7998883729
  0
ARC
  5
241
330
201
100
AcDbEntity
  8
TA-SMART_DN40_NP
  6
Continuous
 62
     7
100
AcDbCircle
 10
359.276131577
 20
89.1562949424
 30
0.0
 40
4.4
100
AcDbArc
 50
198.0780543031
 51
205.7998883729
  0
ARC
  5
242
330
201
100
AcDbEntity
  8
TA-SMART_DN40_NP
  6
Continuous
 62
     7
100
AcDbCircle
 10
359.276131577
 20
89.1562949424
 30
0.0
 40
4.4
100
AcDbArc
 50
258.0780543031
 51
265.7998883729
  0
ARC
  5
243
330
201
100
AcDbEntity
  8
TA-SMART_DN40_NP
  6
Continuous
 62
     7
100
AcDbCircle
 10
359.276131577
 20
89.1562949424
 30
0.0
 40
4.399999999999999
100
AcDbArc
 50
318.0780543031
 51
325.7998883729
  0
ARC
  5
244
330
201
100
AcDbEntity
  8
TA-SMART_DN40_NP
  6
Continuous
 62
     7
100
AcDbCircle
 10
359.276131577
 20
89.1562949424
 30
0.0
 40
4.400000000000001
100
AcDbArc
 50
18.0780543031
 51
25.7998883729
  0
CIRCLE
  5
245
330
201
100
AcDbEntity
  8
TA-SMART_DN40_NP
  6
Continuous
 62
     7
100
AcDbCircle
 10
359.276131577
 20
89.1562949424
 30
0.0
 40
3.750000000000006
  0
LINE
  5
246
330
201
100
AcDbEntity
  8
TA-SMART_DN40_NP
  6
Continuous
 62
     7
100
AcDbLine
 10
360.1850790157
 20
93.4613866434
 30
0.0
 11
363.2375379021
 21
91.0713040618
 31
0.0
  0
LINE
  5
247
330
201
100
AcDbEntity
  8
TA-SMART_DN40_NP
  6
Continuous
 62
     7
100
AcDbLine
 10
356.0022865177
 20
92.0960123655
 30
0.0
 11
359.5983881937
 21
93.5444780144
 31
0.0
  0
LINE
  5
248
330
201
100
AcDbEntity
  8
TA-SMART_DN40_NP
  6
Continuous
 62
     7
100
AcDbLine
 10
355.093339079
 20
87.7909206646
 30
0.0
 11
355.6369818686
 21
91.629468895
 31
0.0
  0
LINE
  5
249
330
201
100
AcDbEntity
  8
TA-SMART_DN40_NP
  6
Continuous
 62
     7
100
AcDbLine
 10
358.3671841383
 20
84.8512032415
 30
0.0
 11
355.3147252519
 21
87.241285823
 31
0.0
  0
LINE
  5
24A
330
201
100
AcDbEntity
  8
TA-SMART_DN40_NP
  6
Continuous
 62
     7
100
AcDbLine
 10
362.5499766363
 20
86.2165775193
 30
0.0
 11
358.9538749603
 21
84.7681118705
 31
0.0
  0
LINE
  5
24B
330
201
100
AcDbEntity
  8
TA-SMART_DN40_NP
  6
Continuous
 62
     7
100
AcDbLine
 10
363.458924075
 20
90.5216692203
 30
0.0
 11
362.9152812854
 21
86.6831209899
 31
0.0
  0
LINE
  5
24C
330
201
100
AcDbEntity
  8
TA-SMART_DN40_NP
  6
Continuous
 62
     7
100
AcDbLine
 10
331.9575195482
 20
55.7722602372
 30
0.0
 11
332.276131577
 21
55.6562949424
 31
0.0
  0
LINE
  5
24D
330
201
100
AcDbEntity
  8
TA-SMART_DN40_NP
  6
Continuous
 62
     7
100
AcDbLine
 10
386.276131577
 20
55.6562949424
 30
0.0
 11
386.5942105652
 21
55.7720662263
 31
0.0
  0
LINE
  5
24E
330
201
100
AcDbEntity
  8
TA-SMART_DN40_NP
  6
Continuous
 62
     7
100
AcDbLine
 10
386.5947436227
 20
122.5403296415
 30
0.0
 11
386.276131577
 21
122.6562949424
 31
0.0
  0
LINE
  5
24F
330
201
100
AcDbEntity
  8
TA-SMART_DN40_NP
  6
Continuous
 62
     7
100
AcDbLine
 10
332.276131577
 20
122.6562949424
 30
0.0
 11
331.9580526065
 21
122.540523665
 31
0.0
  0
LINE
  5
250
330
201
100
AcDbEntity
  8
TA-SMART_DN40_NP
  6
Continuous
 62
     7
100
AcDbLine
 10
391.526131577
 20
101.1562949424
 30
0.0
 11
389.526131577
 21
103.1562949424
 31
0.0
  0
LINE
  5
251
330
201
100
AcDbEntity
  8
TA-SMART_DN40_NP
  6
Continuous
 62
     7
100
AcDbLine
 10
329.026131577
 20
103.1562949424
 30
0.0
 11
327.026131577
 21
101.1562949424
 31
0.0
  0
LINE
  5
252
330
201
100
AcDbEntity
  8
TA-SMART_DN40_NP
  6
Continuous
 62
     7
100
AcDbLine
 10
327.026131577
 20
77.1562949424
 30
0.0
 11
329.026131577
 21
75.1562949424
 31
0.0
  0
LINE
  5
253
330
201
100
AcDbEntity
  8
TA-SMART_DN40_NP
  6
Continuous
 62
     7
100
AcDbLine
 10
389.526131577
 20
75.1562949424
 30
0.0
 11
391.526131577
 21
77.1562949424
 31
0.0
  0
LINE
  5
254
330
201
100
AcDbEntity
  8
TA-SMART_DN40_NP
  6
Continuous
 62
     7
100
AcDbLine
 10
391.526131577
 20
89.6562949424
 30
0.0
 11
391.526131577
 21
101.1562949424
 31
0.0
  0
LINE
  5
255
330
201
100
AcDbEntity
  8
TA-SMART_DN40_NP
  6
Continuous
 62
     7
100
AcDbLine
 10
327.026131577
 20
101.1562949424
 30
0.0
 11
327.026131577
 21
89.6562949424
 31
0.0
  0
LINE
  5
256
330
201
100
AcDbEntity
  8
TA-SMART_DN40_NP
  6
Continuous
 62
     7
100
AcDbLine
 10
391.026131577
 20
89.1562949424
 30
0.0
 11
391.526131577
 21
89.6562949424
 31
0.0
  0
LINE
  5
257
330
201
100
AcDbEntity
  8
TA-SMART_DN40_NP
  6
Continuous
 62
     7
100
AcDbLine
 10
327.026131577
 20
89.6562949424
 30
0.0
 11
327.526131577
 21
89.1562949424
 31
0.0
  0
LINE
  5
258
330
201
100
AcDbEntity
  8
TA-SMART_DN40_NP
  6
Continuous
 62
     7
100
AcDbLine
 10
391.526131577
 20
88.6562949424
 30
0.0
 11
391.026131577
 21
89.1562949424
 31
0.0
  0
LINE
  5
259
330
201
100
AcDbEntity
  8
TA-SMART_DN40_NP
  6
Continuous
 62
     7
100
AcDbLine
 10
327.526131577
 20
89.1562949424
 30
0.0
 11
327.026131577
 21
88.6562949424
 31
0.0
  0
LINE
  5
25A
330
201
100
AcDbEntity
  8
TA-SMART_DN40_NP
  6
Continuous
 62
     7
100
AcDbLine
 10
391.526131577
 20
77.1562949424
 30
0.0
 11
391.526131577
 21
88.6562949424
 31
0.0
  0
LINE
  5
25B
330
201
100
AcDbEntity
  8
TA-SMART_DN40_NP
  6
Continuous
 62
     7
100
AcDbLine
 10
327.026131577
 20
88.6562949424
 30
0.0
 11
327.026131577
 21
77.1562949424
 31
0.0
  0
ENDBLK
  5
25D
330
201
100
AcDbEntity
  8
0
100
AcDbBlockEnd
  0
ENDSEC
  0
SECTION
  2
ENTITIES
  0
INSERT
  5
70
330
1F
100
AcDbEntity
  8
Default
100
AcDbBlockReference
  2
SE
 10
0.0
 20
0.0
 30
0.0
  0
INSERT
  5
B6
330
1F
100
AcDbEntity
  8
Default
100
AcDbBlockReference
  2
SE1
 10
0.0
 20
0.0
 30
0.0
  0
INSERT
  5
129
330
1F
100
AcDbEntity
  8
Default
100
AcDbBlockReference
  2
SE2
 10
0.0
 20
0.0
 30
0.0
  0
INSERT
  5
18F
330
1F
100
AcDbEntity
  8
Default
100
AcDbBlockReference
  2
SE3
 10
0.0
 20
0.0
 30
0.0
  0
INSERT
  5
202
330
1F
100
AcDbEntity
  8
Default
100
AcDbBlockReference
  2
SE4
 10
0.0
 20
0.0
 30
0.0
  0
ENDSEC
  0
SECTION
  2
OBJECTS
  0
DICTIONARY
  5
C
330
0
100
AcDbDictionary
281
     1
  3
ACAD_DETAILVIEWSTYLE
350
299
  3
ACAD_GROUP
350
D
  3
ACAD_LAYOUT
350
1A
  3
ACAD_MATERIAL
350
43
  3
ACAD_MLEADERSTYLE
350
6B
  3
ACAD_MLINESTYLE
350
17
  3
ACAD_PLOTSETTINGS
350
19
  3
ACAD_PLOTSTYLENAME
350
E
  3
ACAD_SCALELIST
350
47
  3
ACAD_SECTIONVIEWSTYLE
350
29A
  3
ACAD_TABLESTYLE
350
69
  3
ACAD_VISUALSTYLE
350
2A
  3
ACDB_RECOMPOSE_DATA
350
296
  3
AcDbVariableDictionary
350
25E
  0
SUN
  5
6D
330
29
100
AcDbSun
 90
        1
290
     0
 63
     7
421
 16777215
 40
1.0
291
     1
 91
  2455826
 92
 54000000
292
     0
 70
     2
 71
   256
280
     1
  0
DICTIONARY
  5
299
102
{ACAD_REACTORS
330
C
102
}
330
C
100
AcDbDictionary
281
     1
  0
DICTIONARY
  5
D
102
{ACAD_REACTORS
330
C
102
}
330
C
100
AcDbDictionary
281
     1
  0
DICTIONARY
  5
1A
102
{ACAD_REACTORS
330
C
102
}
330
C
100
AcDbDictionary
281
     1
  3
Layout1
350
1E
  3
Model
350
22
  0
DICTIONARY
  5
43
102
{ACAD_REACTORS
330
C
102
}
330
C
100
AcDbDictionary
281
     1
  3
ByBlock
350
45
  3
ByLayer
350
44
  3
Global
350
46
  0
DICTIONARY
  5
6B
102
{ACAD_REACTORS
330
C
102
}
330
C
100
AcDbDictionary
281
     1
  3
Standard
350
6C
  0
DICTIONARY
  5
17
102
{ACAD_REACTORS
330
C
102
}
330
C
100
AcDbDictionary
281
     1
  3
Standard
350
18
  0
DICTIONARY
  5
19
102
{ACAD_REACTORS
330
C
102
}
330
C
100
AcDbDictionary
281
     1
  0
ACDBDICTIONARYWDFLT
  5
E
102
{ACAD_REACTORS
330
C
102
}
330
C
100
AcDbDictionary
281
     1
  3
Normal
350
F
100
AcDbDictionaryWithDefault
340
F
  0
DICTIONARY
  5
47
102
{ACAD_REACTORS
330
C
102
}
330
C
100
AcDbDictionary
281
     1
  3
A0
350
48
  3
A1
350
49
  3
A2
350
4A
  3
A3
350
4B
  3
A4
350
4C
  3
A5
350
4D
  3
A6
350
4E
  3
A7
350
4F
  3
A8
350
50
  3
A9
350
51
  3
B0
350
52
  3
B1
350
53
  3
B2
350
54
  3
B3
350
55
  3
B4
350
56
  3
B5
350
57
  3
B6
350
58
  3
B7
350
59
  3
B8
350
5A
  3
B9
350
5B
  3
C0
350
5C
  3
C1
350
5D
  3
C2
350
5E
  3
C3
350
5F
  3
C4
350
60
  3
C5
350
61
  3
C6
350
62
  3
C7
350
63
  3
C8
350
64
  3
C9
350
65
  3
D0
350
66
  3
D1
350
67
  3
D2
350
68
  0
DICTIONARY
  5
29A
102
{ACAD_REACTORS
330
C
102
}
330
C
100
AcDbDictionary
281
     1
  0
DICTIONARY
  5
69
102
{ACAD_REACTORS
330
C
102
}
330
C
100
AcDbDictionary
281
     1
  3
Standard
350
6A
  0
DICTIONARY
  5
2A
102
{ACAD_REACTORS
330
C
102
}
330
C
100
AcDbDictionary
281
     1
  3
2dWireframe
350
2F
  3
Basic
350
32
  3
Brighten
350
36
  3
ColorChange
350
3A
  3
Conceptual
350
34
  3
Dim
350
35
  3
EdgeColorOff
350
3D
  3
Facepattern
350
39
  3
Flat
350
2B
  3
FlatWithEdges
350
2C
  3
Gouraud
350
2D
  3
GouraudWithEdges
350
2E
  3
Hidden
350
31
  3
JitterOff
350
3B
  3
Linepattern
350
38
  3
OverhangOff
350
3C
  3
Realistic
350
33
  3
Shaded
350
42
  3
Shaded with edges
350
41
  3
Shades of Gray
350
3E
  3
Sketchy
350
3F
  3
Thicken
350
37
  3
Wireframe
350
30
  3
X-Ray
350
40
  0
XRECORD
  5
296
102
{ACAD_REACTORS
330
C
102
}
330
C
100
AcDbXrecord
280
     1
 90
        1
330
6A
  0
DICTIONARY
  5
25E
102
{ACAD_REACTORS
330
C
102
}
330
C
100
AcDbDictionary
281
     1
  3
CANNOSCALE
350
25F
  3
CENTEREXE
350
29B
  3
CENTERLTYPEFILE
350
29C
  3
CMLEADERSTYLE
350
298
  3
CTABLESTYLE
350
297
  3
XCLIPFRAME
350
260
  0
LAYOUT
  5
1E
102
{ACAD_REACTORS
330
1A
102
}
330
1A
100
AcDbPlotSettings
  1

  2
none_device
  4

  6

 40
0.0
 41
0.0
 42
0.0
 43
0.0
 44
0.0
 45
0.0
 46
0.0
 47
0.0
 48
0.0
 49
0.0
140
0.0
141
0.0
142
1.0
143
1.0
 70
   688
 72
     1
 73
     0
 74
     5
  7

 75
    16
 76
     0
 77
     2
 78
   300
147
1.0
148
0.0
149
0.0
100
AcDbLayout
  1
Layout1
 70
     1
 71
     1
 10
0.0
 20
0.0
 11
420.0
 21
297.0
 12
0.0
 22
0.0
 32
0.0
 14
0.0
 24
0.0
 34
0.0
 15
420.0
 25
297.0
 35
0.0
146
0.0
 13
0.0
 23
0.0
 33
0.0
 16
1.0
 26
0.0
 36
0.0
 17
0.0
 27
1.0
 37
0.0
 76
     0
330
1B
  0
LAYOUT
  5
22
102
{ACAD_REACTORS
330
1A
102
}
330
1A
100
AcDbPlotSettings
  1

  2
none_device
  4
Letter_(8.50_x_11.00_Inches)
  6

 40
6.35
 41
6.35
 42
6.35000508
 43
6.35000508
 44
215.9
 45
279.4
 46
0.0
 47
0.0
 48
0.0
 49
0.0
140
0.0
141
0.0
142
1.0
143
1.0
 70
  1712
 72
     1
 73
     0
 74
     0
  7

 75
     0
 76
     0
 77
     2
 78
   300
147
1.0
148
0.0
149
0.0
100
AcDbLayout
  1
Model
 70
     1
 71
     0
 10
0.0
 20
0.0
 11
420.0
 21
297.0
 12
0.0
 22
0.0
 32
0.0
 14
0.0
 24
0.0
 34
0.0
 15
420.0
 25
297.0
 35
0.0
146
0.0
 13
0.0
 23
0.0
 33
0.0
 16
1.0
 26
0.0
 36
0.0
 17
0.0
 27
1.0
 37
0.0
 76
     0
330
1F
331
29
  0
MATERIAL
  5
45
102
{ACAD_REACTORS
330
43
102
}
330
43
100
AcDbMaterial
  1
ByBlock
 72
     1
 94
      127
  0
MATERIAL
  5
44
102
{ACAD_REACTORS
330
43
102
}
330
43
100
AcDbMaterial
  1
ByLayer
 72
     1
 94
      127
  0
MATERIAL
  5
46
102
{ACAD_REACTORS
330
43
102
}
330
43
100
AcDbMaterial
  1
Global
 72
     1
 94
      127
  0
MLEADERSTYLE
  5
6C
102
{ACAD_REACTORS
330
6B
102
}
102
{ACAD_XDICTIONARY
360
294
102
}
330
6B
100
AcDbMLeaderStyle
170
     2
171
     1
172
     0
 90
        2
 40
0.0
 41
0.0
173
     1
 91
-1056964608
340
14
 92
       -2
290
     1
 42
2.0
291
     1
 43
8.0
  3
Standard
341
0
 44
4.0
300

342
11
174
     1
178
     6
175
     1
176
     0
 93
-1056964608
 45
4.0
292
     0
297
     0
 46
4.0
343
0
 94
-1056964608
 47
1.0
 49
1.0
140
1.0
293
     1
141
0.0
294
     1
177
     0
142
1.0
295
     0
296
     0
143
3.75
1001
ACAD_MLEADERVER
1070
     2
  0
MLINESTYLE
  5
18
102
{ACAD_REACTORS
330
17
102
}
330
17
100
AcDbMlineStyle
  2
Standard
 70
     0
  3

 62
   256
 51
90.0
 52
90.0
 71
     2
 49
0.5
 62
   256
  6
BYLAYER
 49
-0.5
 62
   256
  6
BYLAYER
  0
ACDBPLACEHOLDER
  5
F
102
{ACAD_REACTORS
330
E
102
}
330
E
  0
SCALE
  5
48
102
{ACAD_REACTORS
330
47
102
}
330
47
100
AcDbScale
 70
     0
300
1:1
140
1.0
141
1.0
290
     1
  0
SCALE
  5
49
102
{ACAD_REACTORS
330
47
102
}
330
47
100
AcDbScale
 70
     0
300
1:2
140
1.0
141
2.0
290
     0
  0
SCALE
  5
4A
102
{ACAD_REACTORS
330
47
102
}
330
47
100
AcDbScale
 70
     0
300
1:4
140
1.0
141
4.0
290
     0
  0
SCALE
  5
4B
102
{ACAD_REACTORS
330
47
102
}
330
47
100
AcDbScale
 70
     0
300
1:5
140
1.0
141
5.0
290
     0
  0
SCALE
  5
4C
102
{ACAD_REACTORS
330
47
102
}
330
47
100
AcDbScale
 70
     0
300
1:8
140
1.0
141
8.0
290
     0
  0
SCALE
  5
4D
102
{ACAD_REACTORS
330
47
102
}
330
47
100
AcDbScale
 70
     0
300
1:10
140
1.0
141
10.0
290
     0
  0
SCALE
  5
4E
102
{ACAD_REACTORS
330
47
102
}
330
47
100
AcDbScale
 70
     0
300
1:16
140
1.0
141
16.0
290
     0
  0
SCALE
  5
4F
102
{ACAD_REACTORS
330
47
102
}
330
47
100
AcDbScale
 70
     0
300
1:20
140
1.0
141
20.0
290
     0
  0
SCALE
  5
50
102
{ACAD_REACTORS
330
47
102
}
330
47
100
AcDbScale
 70
     0
300
1:30
140
1.0
141
30.0
290
     0
  0
SCALE
  5
51
102
{ACAD_REACTORS
330
47
102
}
330
47
100
AcDbScale
 70
     0
300
1:40
140
1.0
141
40.0
290
     0
  0
SCALE
  5
52
102
{ACAD_REACTORS
330
47
102
}
330
47
100
AcDbScale
 70
     0
300
1:50
140
1.0
141
50.0
290
     0
  0
SCALE
  5
53
102
{ACAD_REACTORS
330
47
102
}
330
47
100
AcDbScale
 70
     0
300
1:100
140
1.0
141
100.0
290
     0
  0
SCALE
  5
54
102
{ACAD_REACTORS
330
47
102
}
330
47
100
AcDbScale
 70
     0
300
2:1
140
2.0
141
1.0
290
     0
  0
SCALE
  5
55
102
{ACAD_REACTORS
330
47
102
}
330
47
100
AcDbScale
 70
     0
300
4:1
140
4.0
141
1.0
290
     0
  0
SCALE
  5
56
102
{ACAD_REACTORS
330
47
102
}
330
47
100
AcDbScale
 70
     0
300
8:1
140
8.0
141
1.0
290
     0
  0
SCALE
  5
57
102
{ACAD_REACTORS
330
47
102
}
330
47
100
AcDbScale
 70
     0
300
10:1
140
10.0
141
1.0
290
     0
  0
SCALE
  5
58
102
{ACAD_REACTORS
330
47
102
}
330
47
100
AcDbScale
 70
     0
300
100:1
140
100.0
141
1.0
290
     0
  0
SCALE
  5
59
102
{ACAD_REACTORS
330
47
102
}
330
47
100
AcDbScale
 70
     0
300
1/128" = 1'-0"
140
0.0078125
141
12.0
290
     0
  0
SCALE
  5
5A
102
{ACAD_REACTORS
330
47
102
}
330
47
100
AcDbScale
 70
     0
300
1/64" = 1'-0"
140
0.015625
141
12.0
290
     0
  0
SCALE
  5
5B
102
{ACAD_REACTORS
330
47
102
}
330
47
100
AcDbScale
 70
     0
300
1/32" = 1'-0"
140
0.03125
141
12.0
290
     0
  0
SCALE
  5
5C
102
{ACAD_REACTORS
330
47
102
}
330
47
100
AcDbScale
 70
     0
300
1/16" = 1'-0"
140
0.0625
141
12.0
290
     0
  0
SCALE
  5
5D
102
{ACAD_REACTORS
330
47
102
}
330
47
100
AcDbScale
 70
     0
300
3/32" = 1'-0"
140
0.09375
141
12.0
290
     0
  0
SCALE
  5
5E
102
{ACAD_REACTORS
330
47
102
}
330
47
100
AcDbScale
 70
     0
300
1/8" = 1'-0"
140
0.125
141
12.0
290
     0
  0
SCALE
  5
5F
102
{ACAD_REACTORS
330
47
102
}
330
47
100
AcDbScale
 70
     0
300
3/16" = 1'-0"
140
0.1875
141
12.0
290
     0
  0
SCALE
  5
60
102
{ACAD_REACTORS
330
47
102
}
330
47
100
AcDbScale
 70
     0
300
1/4" = 1'-0"
140
0.25
141
12.0
290
     0
  0
SCALE
  5
61
102
{ACAD_REACTORS
330
47
102
}
330
47
100
AcDbScale
 70
     0
300
3/8" = 1'-0"
140
0.375
141
12.0
290
     0
  0
SCALE
  5
62
102
{ACAD_REACTORS
330
47
102
}
330
47
100
AcDbScale
 70
     0
300
1/2" = 1'-0"
140
0.5
141
12.0
290
     0
  0
SCALE
  5
63
102
{ACAD_REACTORS
330
47
102
}
330
47
100
AcDbScale
 70
     0
300
3/4" = 1'-0"
140
0.75
141
12.0
290
     0
  0
SCALE
  5
64
102
{ACAD_REACTORS
330
47
102
}
330
47
100
AcDbScale
 70
     0
300
1" = 1'-0"
140
1.0
141
12.0
290
     0
  0
SCALE
  5
65
102
{ACAD_REACTORS
330
47
102
}
330
47
100
AcDbScale
 70
     0
300
1-1/2" = 1'-0"
140
1.5
141
12.0
290
     0
  0
SCALE
  5
66
102
{ACAD_REACTORS
330
47
102
}
330
47
100
AcDbScale
 70
     0
300
3" = 1'-0"
140
3.0
141
12.0
290
     0
  0
SCALE
  5
67
102
{ACAD_REACTORS
330
47
102
}
330
47
100
AcDbScale
 70
     0
300
6" = 1'-0"
140
6.0
141
12.0
290
     0
  0
SCALE
  5
68
102
{ACAD_REACTORS
330
47
102
}
330
47
100
AcDbScale
 70
     0
300
1'-0" = 1'-0"
140
12.0
141
12.0
290
     0
  0
TABLESTYLE
  5
6A
102
{ACAD_REACTORS
330
69
102
}
102
{ACAD_XDICTIONARY
360
291
102
}
330
69
100
AcDbTableStyle
  3
Standard
 70
     0
 71
     0
 40
0.06
 41
0.06
280
     0
281
     0
  7
Standard
140
4.5
170
     2
 62
     0
 63
   257
283
     0
 90
        4
 91
        0
  1

274
    -2
284
     1
 64
     0
275
    -2
285
     1
 65
     0
276
    -2
286
     1
 66
     0
277
    -2
287
     1
 67
     0
278
    -2
288
     1
 68
     0
279
    -2
289
     1
 69
     0
  7
Standard
140
6.0
170
     5
 62
     0
 63
   257
283
     0
 90
        4
 91
        0
  1

274
    -2
284
     1
 64
     0
275
    -2
285
     1
 65
     0
276
    -2
286
     1
 66
     0
277
    -2
287
     1
 67
     0
278
    -2
288
     1
 68
     0
279
    -2
289
     1
 69
     0
  7
Standard
140
4.5
170
     5
 62
     0
 63
   257
283
     0
 90
        4
 91
        0
  1

274
    -2
284
     1
 64
     0
275
    -2
285
     1
 65
     0
276
    -2
286
     1
 66
     0
277
    -2
287
     1
 67
     0
278
    -2
288
     1
 68
     0
279
    -2
289
     1
 69
     0
  0
VISUALSTYLE
  5
2F
102
{ACAD_REACTORS
330
2A
102
}
102
{ACAD_XDICTIONARY
360
269
102
}
330
2A
100
AcDbVisualStyle
  2
2dWireframe
 70
     4
 71
     0
 72
     2
 73
     0
 90
        0
 40
0.6
 41
30.0
 62
     5
 63
     7
421
 16777215
 74
     1
 91
        4
 64
     7
 65
   257
 75
     1
175
     1
 42
1.0
 92
        0
 66
   257
 43
1.0
 76
     1
 77
     6
 78
     2
 67
     7
 79
     5
170
     0
171
     0
290
     0
174
     0
 93
        1
 44
0.0
173
     0
291
     0
 45
0.0
  0
VISUALSTYLE
  5
32
102
{ACAD_REACTORS
330
2A
102
}
102
{ACAD_XDICTIONARY
360
26F
102
}
330
2A
100
AcDbVisualStyle
  2
Basic
 70
     7
 71
     1
 72
     0
 73
     1
 90
        0
 40
0.6
 41
30.0
 62
     5
 63
     7
421
 16777215
 74
     0
 91
        4
 64
     7
 65
   257
 75
     1
175
     1
 42
1.0
 92
        8
 66
     7
 43
1.0
 76
     1
 77
     6
 78
     2
 67
     7
 79
     5
170
     0
171
     0
290
     0
174
     0
 93
        1
 44
0.0
173
     0
291
     1
 45
0.0
  0
VISUALSTYLE
  5
36
102
{ACAD_REACTORS
330
2A
102
}
102
{ACAD_XDICTIONARY
360
277
102
}
330
2A
100
AcDbVisualStyle
  2
Brighten
 70
    12
 71
     2
 72
     2
 73
     0
 90
        0
 40
0.6
 41
30.0
 62
     5
 63
     7
421
 16777215
 74
     1
 91
        4
 64
     7
 65
   257
 75
     1
175
     1
 42
1.0
 92
        8
 66
     7
 43
1.0
 76
     1
 77
     6
 78
     2
 67
     7
 79
     5
170
     0
171
     0
290
     0
174
     0
 93
        1
 44
50.0
173
     0
291
     1
 45
0.0
  0
VISUALSTYLE
  5
3A
102
{ACAD_REACTORS
330
2A
102
}
102
{ACAD_XDICTIONARY
360
27F
102
}
330
2A
100
AcDbVisualStyle
  2
ColorChange
 70
    16
 71
     2
 72
     2
 73
     3
 90
        0
 40
0.6
 41
30.0
 62
     5
 63
     8
421
  8421504
 74
     1
 91
        4
 64
     7
 65
   257
 75
     1
175
     1
 42
1.0
 92
        8
 66
     8
424
  8421504
 43
1.0
 76
     1
 77
     6
 78
     2
 67
     7
 79
     5
170
     0
171
     0
290
     0
174
     0
 93
        1
 44
0.0
173
     0
291
     1
 45
0.0
  0
VISUALSTYLE
  5
34
102
{ACAD_REACTORS
330
2A
102
}
102
{ACAD_XDICTIONARY
360
273
102
}
330
2A
100
AcDbVisualStyle
  2
Conceptual
 70
     9
 71
     3
 72
     2
 73
     0
 90
        0
 40
0.6
 41
30.0
 62
     5
 63
     7
421
 16777215
 74
     2
 91
        2
 64
     7
 65
   257
 75
     1
175
     1
 42
179.0
 92
        8
 66
     7
 43
1.0
 76
     1
 77
     6
 78
     2
 67
     7
 79
     3
170
     0
171
     0
290
     0
174
     0
 93
        1
 44
0.0
173
     0
291
     0
 45
0.0
  0
VISUALSTYLE
  5
35
102
{ACAD_REACTORS
330
2A
102
}
102
{ACAD_XDICTIONARY
360
275
102
}
330
2A
100
AcDbVisualStyle
  2
Dim
 70
    11
 71
     2
 72
     2
 73
     0
 90
        0
 40
0.6
 41
30.0
 62
     5
 63
     7
421
 16777215
 74
     1
 91
        4
 64
     7
 65
   257
 75
     1
175
     1
 42
1.0
 92
        8
 66
     7
 43
1.0
 76
     1
 77
     6
 78
     2
 67
     7
 79
     5
170
     0
171
     0
290
     0
174
     0
 93
        1
 44
-50.0
173
     0
291
     1
 45
0.0
  0
VISUALSTYLE
  5
3D
102
{ACAD_REACTORS
330
2A
102
}
102
{ACAD_XDICTIONARY
360
285
102
}
330
2A
100
AcDbVisualStyle
  2
EdgeColorOff
 70
    22
 71
     2
 72
     2
 73
     0
 90
        0
 40
0.6
 41
30.0
 62
     5
 63
     7
421
 16777215
 74
     1
 91
        4
 64
     7
 65
   257
 75
     1
175
     1
 42
1.0
 92
        8
 66
     7
 43
1.0
 76
     1
 77
     6
 78
     2
 67
     7
 79
     5
170
     0
171
     0
290
     0
174
     0
 93
        1
 44
0.0
173
     0
291
     1
 45
0.0
  0
VISUALSTYLE
  5
39
102
{ACAD_REACTORS
330
2A
102
}
102
{ACAD_XDICTIONARY
360
27D
102
}
330
2A
100
AcDbVisualStyle
  2
Facepattern
 70
    15
 71
     2
 72
     2
 73
     0
 90
        0
 40
0.6
 41
30.0
 62
     5
 63
     7
421
 16777215
 74
     1
 91
        4
 64
     7
 65
   257
 75
     1
175
     1
 42
1.0
 92
        8
 66
     7
 43
1.0
 76
     1
 77
     6
 78
     2
 67
     7
 79
     5
170
     0
171
     0
290
     0
174
     0
 93
        1
 44
0.0
173
     0
291
     1
 45
0.0
  0
VISUALSTYLE
  5
2B
102
{ACAD_REACTORS
330
2A
102
}
102
{ACAD_XDICTIONARY
360
261
102
}
330
2A
100
AcDbVisualStyle
  2
Flat
 70
     0
 71
     2
 72
     1
 73
     1
 90
        2
 40
0.6
 41
30.0
 62
     5
 63
     7
421
 16777215
 74
     0
 91
        0
 64
     7
 65
   257
 75
     1
175
     1
 42
1.0
 92
        8
 66
     7
 43
1.0
 76
     1
 77
     6
 78
     2
 67
     7
 79
     5
170
     0
171
     0
290
     0
174
     0
 93
       13
 44
0.0
173
     0
291
     1
 45
0.0
  0
VISUALSTYLE
  5
2C
102
{ACAD_REACTORS
330
2A
102
}
102
{ACAD_XDICTIONARY
360
263
102
}
330
2A
100
AcDbVisualStyle
  2
FlatWithEdges
 70
     1
 71
     2
 72
     1
 73
     1
 90
        2
 40
0.6
 41
30.0
 62
     5
 63
     7
421
 16777215
 74
     1
 91
        0
 64
     7
 65
   257
 75
     1
175
     1
 42
1.0
 92
        0
 66
   257
 43
1.0
 76
     1
 77
     6
 78
     2
 67
     7
 79
     5
170
     0
171
     0
290
     0
174
     0
 93
       13
 44
0.0
173
     0
291
     1
 45
0.0
  0
VISUALSTYLE
  5
2D
102
{ACAD_REACTORS
330
2A
102
}
102
{ACAD_XDICTIONARY
360
265
102
}
330
2A
100
AcDbVisualStyle
  2
Gouraud
 70
     2
 71
     2
 72
     2
 73
     1
 90
        2
 40
0.6
 41
30.0
 62
     5
 63
     7
421
 16777215
 74
     0
 91
        0
 64
     7
 65
   257
 75
     1
175
     1
 42
1.0
 92
        0
 66
     7
 43
1.0
 76
     1
 77
     6
 78
     2
 67
     7
 79
     5
170
     0
171
     0
290
     0
174
     0
 93
       13
 44
0.0
173
     0
291
     1
 45
0.0
  0
VISUALSTYLE
  5
2E
102
{ACAD_REACTORS
330
2A
102
}
102
{ACAD_XDICTIONARY
360
267
102
}
330
2A
100
AcDbVisualStyle
  2
GouraudWithEdges
 70
     3
 71
     2
 72
     2
 73
     1
 90
        2
 40
0.6
 41
30.0
 62
     5
 63
     7
421
 16777215
 74
     1
 91
        0
 64
     7
 65
   257
 75
     1
175
     1
 42
1.0
 92
        0
 66
   257
 43
1.0
 76
     1
 77
     6
 78
     2
 67
     7
 79
     5
170
     0
171
     0
290
     0
174
     0
 93
       13
 44
0.0
173
     0
291
     1
 45
0.0
  0
VISUALSTYLE
  5
31
102
{ACAD_REACTORS
330
2A
102
}
102
{ACAD_XDICTIONARY
360
26D
102
}
330
2A
100
AcDbVisualStyle
  2
Hidden
 70
     6
 71
     1
 72
     2
 73
     2
 90
        0
 40
0.6
 41
30.0
 62
     5
 63
     7
421
 16777215
 74
     2
 91
        2
 64
     7
 65
   257
 75
     2
175
     1
 42
40.0
 92
        0
 66
   257
 43
1.0
 76
     1
 77
     6
 78
     2
 67
     7
 79
     3
170
     0
171
     0
290
     0
174
     0
 93
        1
 44
0.0
173
     0
291
     0
 45
0.0
  0
VISUALSTYLE
  5
3B
102
{ACAD_REACTORS
330
2A
102
}
102
{ACAD_XDICTIONARY
360
281
102
}
330
2A
100
AcDbVisualStyle
  2
JitterOff
 70
    20
 71
     2
 72
     2
 73
     0
 90
        0
 40
0.6
 41
30.0
 62
     5
 63
     7
421
 16777215
 74
     1
 91
        4
 64
     7
 65
   257
 75
     1
175
     1
 42
1.0
 92
       10
 66
     7
 43
1.0
 76
     1
 77
     6
 78
     2
 67
     7
 79
     5
170
     0
171
     0
290
     0
174
     0
 93
        1
 44
0.0
173
     0
291
     1
 45
0.0
  0
VISUALSTYLE
  5
38
102
{ACAD_REACTORS
330
2A
102
}
102
{ACAD_XDICTIONARY
360
27B
102
}
330
2A
100
AcDbVisualStyle
  2
Linepattern
 70
    14
 71
     2
 72
     2
 73
     0
 90
        0
 40
0.6
 41
30.0
 62
     5
 63
     7
421
 16777215
 74
     1
 91
        4
 64
     7
 65
   257
 75
     7
175
     7
 42
1.0
 92
        8
 66
     7
 43
1.0
 76
     1
 77
     6
 78
     2
 67
     7
 79
     5
170
     0
171
     0
290
     0
174
     0
 93
        1
 44
0.0
173
     0
291
     1
 45
0.0
  0
VISUALSTYLE
  5
3C
102
{ACAD_REACTORS
330
2A
102
}
102
{ACAD_XDICTIONARY
360
283
102
}
330
2A
100
AcDbVisualStyle
  2
OverhangOff
 70
    21
 71
     2
 72
     2
 73
     0
 90
        0
 40
0.6
 41
30.0
 62
     5
 63
     7
421
 16777215
 74
     1
 91
        4
 64
     7
 65
   257
 75
     1
175
     1
 42
1.0
 92
        9
 66
     7
 43
1.0
 76
     1
 77
     6
 78
     2
 67
     7
 79
     5
170
     0
171
     0
290
     0
174
     0
 93
        1
 44
0.0
173
     0
291
     1
 45
0.0
  0
VISUALSTYLE
  5
33
102
{ACAD_REACTORS
330
2A
102
}
102
{ACAD_XDICTIONARY
360
271
102
}
330
2A
100
AcDbVisualStyle
  2
Realistic
 70
     8
 71
     2
 72
     3
 73
     0
 90
        2
 40
0.6
 41
30.0
 62
     5
 63
     7
421
 16777215
 74
     0
 91
        0
 64
     7
 65
   257
 75
     1
175
     1
 42
1.0
 92
        8
 66
   257
 43
1.0
 76
     1
 77
     6
 78
     2
 67
     7
 79
     3
170
     0
171
     0
290
     0
174
     0
 93
       13
 44
0.0
173
     0
291
     0
 45
0.0
  0
VISUALSTYLE
  5
42
102
{ACAD_REACTORS
330
2A
102
}
102
{ACAD_XDICTIONARY
360
28F
102
}
330
2A
100
AcDbVisualStyle
  2
Shaded
 70
    27
 71
     2
 72
     2
 73
     1
 90
        2
 40
0.6
 41
30.0
 62
     5
 63
     7
421
 16777215
 74
     0
 91
        4
 64
     7
 65
   257
 75
     1
175
     1
 42
1.0
 92
        8
 66
   257
 43
1.0
 76
     1
 77
     6
 78
     2
 67
     8
425
  7895160
 79
     3
170
     0
171
     0
290
     0
174
     0
 93
        5
 44
0.0
173
     0
291
     0
 45
0.0
  0
VISUALSTYLE
  5
41
102
{ACAD_REACTORS
330
2A
102
}
102
{ACAD_XDICTIONARY
360
28D
102
}
330
2A
100
AcDbVisualStyle
  2
Shaded with edges
 70
    26
 71
     2
 72
     2
 73
     1
 90
        2
 40
0.6
 41
30.0
 62
     5
 63
     7
421
 16777215
 74
     1
 91
       10
 64
     7
 65
   257
 75
     2
175
     1
 42
1.0
 92
        8
 66
   257
 43
1.0
 76
     1
 77
     6
 78
     2
 67
     7
 79
     3
170
     0
171
     0
290
     0
174
     0
 93
        5
 44
0.0
173
     0
291
     0
 45
0.0
  0
VISUALSTYLE
  5
3E
102
{ACAD_REACTORS
330
2A
102
}
102
{ACAD_XDICTIONARY
360
287
102
}
330
2A
100
AcDbVisualStyle
  2
Shades of Gray
 70
    23
 71
     2
 72
     2
 73
     3
 90
        0
 40
0.6
 41
30.0
 62
     5
 63
     7
421
 16777215
 74
     2
 91
        2
 64
     7
 65
     7
 75
     1
175
     1
 42
40.0
 92
        8
 66
     7
 43
1.0
 76
     1
 77
     6
 78
     2
 67
     7
 79
     3
170
     0
171
     0
290
     0
174
     0
 93
        1
 44
0.0
173
     0
291
     0
 45
0.0
  0
VISUALSTYLE
  5
3F
102
{ACAD_REACTORS
330
2A
102
}
102
{ACAD_XDICTIONARY
360
289
102
}
330
2A
100
AcDbVisualStyle
  2
Sketchy
 70
    24
 71
     1
 72
     2
 73
     2
 90
        0
 40
0.6
 41
30.0
 62
     5
 63
     7
421
 16777215
 74
     2
 91
        2
 64
     7
 65
     7
 75
     1
175
     1
 42
40.0
 92
       11
 66
     7
 43
1.0
 76
     1
 77
     6
 78
     2
 67
     7
 79
     6
170
     0
171
     0
290
     0
174
     0
 93
        1
 44
0.0
173
     0
291
     0
 45
0.0
  0
VISUALSTYLE
  5
37
102
{ACAD_REACTORS
330
2A
102
}
102
{ACAD_XDICTIONARY
360
279
102
}
330
2A
100
AcDbVisualStyle
  2
Thicken
 70
    13
 71
     2
 72
     2
 73
     0
 90
        0
 40
0.6
 41
30.0
 62
     5
 63
     7
421
 16777215
 74
     1
 91
        4
 64
     7
 65
   257
 75
     1
175
     1
 42
1.0
 92
       12
 66
     7
 43
1.0
 76
     1
 77
     6
 78
     2
 67
     7
 79
     5
170
     0
171
     0
290
     0
174
     0
 93
        1
 44
0.0
173
     0
291
     1
 45
0.0
  0
VISUALSTYLE
  5
30
102
{ACAD_REACTORS
330
2A
102
}
102
{ACAD_XDICTIONARY
360
26B
102
}
330
2A
100
AcDbVisualStyle
  2
Wireframe
 70
     5
 71
     0
 72
     2
 73
     0
 90
        0
 40
0.6
 41
30.0
 62
     5
 63
     7
421
 16777215
 74
     1
 91
        4
 64
     7
 65
   257
 75
     1
175
     1
 42
1.0
 92
        0
 66
   257
 43
1.0
 76
     1
 77
     6
 78
     2
 67
     7
 79
     3
170
     0
171
     0
290
     0
174
     0
 93
        1
 44
0.0
173
     0
291
     0
 45
0.0
  0
VISUALSTYLE
  5
40
102
{ACAD_REACTORS
330
2A
102
}
102
{ACAD_XDICTIONARY
360
28B
102
}
330
2A
100
AcDbVisualStyle
  2
X-Ray
 70
    25
 71
     2
 72
     2
 73
     1
 90
        1
 40
0.5
 41
30.0
 62
     5
 63
     7
421
 16777215
 74
     1
 91
        0
 64
     7
 65
   257
 75
     1
175
     1
 42
1.0
 92
        8
 66
     7
 43
1.0
 76
     1
 77
     6
 78
     2
 67
     7
 79
     3
170
     0
171
     0
290
     0
174
     0
 93
       13
 44
0.0
173
     0
291
     0
 45
0.0
  0
DICTIONARYVAR
  5
25F
102
{ACAD_REACTORS
330
25E
102
}
330
25E
100
DictionaryVariables
280
     0
  1
1:1
  0
DICTIONARYVAR
  5
29B
102
{ACAD_REACTORS
330
25E
102
}
330
25E
100
DictionaryVariables
280
     0
  1
3.500000
  0
DICTIONARYVAR
  5
29C
102
{ACAD_REACTORS
330
25E
102
}
330
25E
100
DictionaryVariables
280
     0
  1
acadiso.lin
  0
DICTIONARYVAR
  5
298
102
{ACAD_REACTORS
330
25E
102
}
330
25E
100
DictionaryVariables
280
     0
  1
Standard
  0
DICTIONARYVAR
  5
297
102
{ACAD_REACTORS
330
25E
102
}
330
25E
100
DictionaryVariables
280
     0
  1
Standard
  0
DICTIONARYVAR
  5
260
102
{ACAD_REACTORS
330
25E
102
}
330
25E
100
DictionaryVariables
280
     0
  1
2
  0
DICTIONARY
  5
294
330
6C
100
AcDbDictionary
280
     1
281
     1
  3
ACAD_XREC_ROUNDTRIP
360
295
  0
DICTIONARY
  5
291
330
6A
100
AcDbDictionary
280
     1
281
     1
  3
ACAD_ROUNDTRIP_2008_TABLESTYLE_CELLSTYLEMAP
360
292
  0
DICTIONARY
  5
269
330
2F
100
AcDbDictionary
280
     1
281
     1
  3
ACAD_XREC_ROUNDTRIP
360
26A
  0
DICTIONARY
  5
26F
330
32
100
AcDbDictionary
280
     1
281
     1
  3
ACAD_XREC_ROUNDTRIP
360
270
  0
DICTIONARY
  5
277
330
36
100
AcDbDictionary
280
     1
281
     1
  3
ACAD_XREC_ROUNDTRIP
360
278
  0
DICTIONARY
  5
27F
330
3A
100
AcDbDictionary
280
     1
281
     1
  3
ACAD_XREC_ROUNDTRIP
360
280
  0
DICTIONARY
  5
273
330
34
100
AcDbDictionary
280
     1
281
     1
  3
ACAD_XREC_ROUNDTRIP
360
274
  0
DICTIONARY
  5
275
330
35
100
AcDbDictionary
280
     1
281
     1
  3
ACAD_XREC_ROUNDTRIP
360
276
  0
DICTIONARY
  5
285
330
3D
100
AcDbDictionary
280
     1
281
     1
  3
ACAD_XREC_ROUNDTRIP
360
286
  0
DICTIONARY
  5
27D
330
39
100
AcDbDictionary
280
     1
281
     1
  3
ACAD_XREC_ROUNDTRIP
360
27E
  0
DICTIONARY
  5
261
330
2B
100
AcDbDictionary
280
     1
281
     1
  3
ACAD_XREC_ROUNDTRIP
360
262
  0
DICTIONARY
  5
263
330
2C
100
AcDbDictionary
280
     1
281
     1
  3
ACAD_XREC_ROUNDTRIP
360
264
  0
DICTIONARY
  5
265
330
2D
100
AcDbDictionary
280
     1
281
     1
  3
ACAD_XREC_ROUNDTRIP
360
266
  0
DICTIONARY
  5
267
330
2E
100
AcDbDictionary
280
     1
281
     1
  3
ACAD_XREC_ROUNDTRIP
360
268
  0
DICTIONARY
  5
26D
330
31
100
AcDbDictionary
280
     1
281
     1
  3
ACAD_XREC_ROUNDTRIP
360
26E
  0
DICTIONARY
  5
281
330
3B
100
AcDbDictionary
280
     1
281
     1
  3
ACAD_XREC_ROUNDTRIP
360
282
  0
DICTIONARY
  5
27B
330
38
100
AcDbDictionary
280
     1
281
     1
  3
ACAD_XREC_ROUNDTRIP
360
27C
  0
DICTIONARY
  5
283
330
3C
100
AcDbDictionary
280
     1
281
     1
  3
ACAD_XREC_ROUNDTRIP
360
284
  0
DICTIONARY
  5
271
330
33
100
AcDbDictionary
280
     1
281
     1
  3
ACAD_XREC_ROUNDTRIP
360
272
  0
DICTIONARY
  5
28F
330
42
100
AcDbDictionary
280
     1
281
     1
  3
ACAD_XREC_ROUNDTRIP
360
290
  0
DICTIONARY
  5
28D
330
41
100
AcDbDictionary
280
     1
281
     1
  3
ACAD_XREC_ROUNDTRIP
360
28E
  0
DICTIONARY
  5
287
330
3E
100
AcDbDictionary
280
     1
281
     1
  3
ACAD_XREC_ROUNDTRIP
360
288
  0
DICTIONARY
  5
289
330
3F
100
AcDbDictionary
280
     1
281
     1
  3
ACAD_XREC_ROUNDTRIP
360
28A
  0
DICTIONARY
  5
279
330
37
100
AcDbDictionary
280
     1
281
     1
  3
ACAD_XREC_ROUNDTRIP
360
27A
  0
DICTIONARY
  5
26B
330
30
100
AcDbDictionary
280
     1
281
     1
  3
ACAD_XREC_ROUNDTRIP
360
26C
  0
DICTIONARY
  5
28B
330
40
100
AcDbDictionary
280
     1
281
     1
  3
ACAD_XREC_ROUNDTRIP
360
28C
  0
XRECORD
  5
295
102
{ACAD_REACTORS
330
294
102
}
330
294
100
AcDbXrecord
280
     1
102
ACAD_ROUNDTRIP_2010_MLEADER_STYLE
  0
CELLSTYLEMAP
  5
292
102
{ACAD_REACTORS
330
291
102
}
330
291
100
AcDbCellStyleMap
 90
        3
300
CELLSTYLE
  1
TABLEFORMAT_BEGIN
 90
        5
170
     1
 91
        0
 92
    32768
 62
   257
 93
        1
300
CONTENTFORMAT
  1
CONTENTFORMAT_BEGIN
 90
        0
 91
        0
 92
        4
 93
        0
300

 40
0.0
140
1.0
 94
        5
 62
     0
340
11
144
6.0
309
CONTENTFORMAT_END
171
     1
301
MARGIN
  1
CELLMARGIN_BEGIN
 40
1.5
 40
1.5
 40
1.5
 40
1.5
 40
1.5
 40
1.5
309
CELLMARGIN_END
 94
        6
 95
        1
302
GRIDFORMAT
  1
GRIDFORMAT_BEGIN
 90
        0
 91
        1
 62
     0
 92
       -2
340
14
 93
        0
 40
0.045
309
GRIDFORMAT_END
 95
        2
302
GRIDFORMAT
  1
GRIDFORMAT_BEGIN
 90
        0
 91
        1
 62
     0
 92
       -2
340
14
 93
        0
 40
0.045
309
GRIDFORMAT_END
 95
        4
302
GRIDFORMAT
  1
GRIDFORMAT_BEGIN
 90
        0
 91
        1
 62
     0
 92
       -2
340
14
 93
        0
 40
0.045
309
GRIDFORMAT_END
 95
        8
302
GRIDFORMAT
  1
GRIDFORMAT_BEGIN
 90
        0
 91
        1
 62
     0
 92
       -2
340
14
 93
        0
 40
0.045
309
GRIDFORMAT_END
 95
       16
302
GRIDFORMAT
  1
GRIDFORMAT_BEGIN
 90
        0
 91
        1
 62
     0
 92
       -2
340
14
 93
        0
 40
0.045
309
GRIDFORMAT_END
 95
       32
302
GRIDFORMAT
  1
GRIDFORMAT_BEGIN
 90
        0
 91
        1
 62
     0
 92
       -2
340
14
 93
        0
 40
0.045
309
GRIDFORMAT_END
309
TABLEFORMAT_END
  1
CELLSTYLE_BEGIN
 90
        1
 91
        1
300
_TITLE
309
CELLSTYLE_END
300
CELLSTYLE
  1
TABLEFORMAT_BEGIN
 90
        5
170
     1
 91
        0
 92
        0
 62
   257
 93
        1
300
CONTENTFORMAT
  1
CONTENTFORMAT_BEGIN
 90
        0
 91
        0
 92
        4
 93
        0
300

 40
0.0
140
1.0
 94
        5
 62
     0
340
11
144
4.5
309
CONTENTFORMAT_END
171
     1
301
MARGIN
  1
CELLMARGIN_BEGIN
 40
1.5
 40
1.5
 40
1.5
 40
1.5
 40
1.5
 40
1.5
309
CELLMARGIN_END
 94
        6
 95
        1
302
GRIDFORMAT
  1
GRIDFORMAT_BEGIN
 90
        0
 91
        1
 62
     0
 92
       -2
340
14
 93
        0
 40
0.045
309
GRIDFORMAT_END
 95
        2
302
GRIDFORMAT
  1
GRIDFORMAT_BEGIN
 90
        0
 91
        1
 62
     0
 92
       -2
340
14
 93
        0
 40
0.045
309
GRIDFORMAT_END
 95
        4
302
GRIDFORMAT
  1
GRIDFORMAT_BEGIN
 90
        0
 91
        1
 62
     0
 92
       -2
340
14
 93
        0
 40
0.045
309
GRIDFORMAT_END
 95
        8
302
GRIDFORMAT
  1
GRIDFORMAT_BEGIN
 90
        0
 91
        1
 62
     0
 92
       -2
340
14
 93
        0
 40
0.045
309
GRIDFORMAT_END
 95
       16
302
GRIDFORMAT
  1
GRIDFORMAT_BEGIN
 90
        0
 91
        1
 62
     0
 92
       -2
340
14
 93
        0
 40
0.045
309
GRIDFORMAT_END
 95
       32
302
GRIDFORMAT
  1
GRIDFORMAT_BEGIN
 90
        0
 91
        1
 62
     0
 92
       -2
340
14
 93
        0
 40
0.045
309
GRIDFORMAT_END
309
TABLEFORMAT_END
  1
CELLSTYLE_BEGIN
 90
        2
 91
        1
300
_HEADER
309
CELLSTYLE_END
300
CELLSTYLE
  1
TABLEFORMAT_BEGIN
 90
        5
170
     1
 91
        0
 92
        0
 62
   257
 93
        1
300
CONTENTFORMAT
  1
CONTENTFORMAT_BEGIN
 90
        0
 91
        0
 92
        4
 93
        0
300

 40
0.0
140
1.0
 94
        2
 62
     0
340
11
144
4.5
309
CONTENTFORMAT_END
171
     1
301
MARGIN
  1
CELLMARGIN_BEGIN
 40
1.5
 40
1.5
 40
1.5
 40
1.5
 40
1.5
 40
1.5
309
CELLMARGIN_END
 94
        6
 95
        1
302
GRIDFORMAT
  1
GRIDFORMAT_BEGIN
 90
        0
 91
        1
 62
     0
 92
       -2
340
14
 93
        0
 40
0.045
309
GRIDFORMAT_END
 95
        2
302
GRIDFORMAT
  1
GRIDFORMAT_BEGIN
 90
        0
 91
        1
 62
     0
 92
       -2
340
14
 93
        0
 40
0.045
309
GRIDFORMAT_END
 95
        4
302
GRIDFORMAT
  1
GRIDFORMAT_BEGIN
 90
        0
 91
        1
 62
     0
 92
       -2
340
14
 93
        0
 40
0.045
309
GRIDFORMAT_END
 95
        8
302
GRIDFORMAT
  1
GRIDFORMAT_BEGIN
 90
        0
 91
        1
 62
     0
 92
       -2
340
14
 93
        0
 40
0.045
309
GRIDFORMAT_END
 95
       16
302
GRIDFORMAT
  1
GRIDFORMAT_BEGIN
 90
        0
 91
        1
 62
     0
 92
       -2
340
14
 93
        0
 40
0.045
309
GRIDFORMAT_END
 95
       32
302
GRIDFORMAT
  1
GRIDFORMAT_BEGIN
 90
        0
 91
        1
 62
     0
 92
       -2
340
14
 93
        0
 40
0.045
309
GRIDFORMAT_END
309
TABLEFORMAT_END
  1
CELLSTYLE_BEGIN
 90
        3
 91
        2
300
_DATA
309
CELLSTYLE_END
  0
XRECORD
  5
26A
102
{ACAD_REACTORS
330
269
102
}
330
269
100
AcDbXrecord
280
     1
102
RTVSPropertyOp0
 70
     1
102
RTVSPropertyOp1
 70
     1
102
RTVSPropertyOp2
 70
     1
102
RTVSPropertyOp3
 70
     1
102
RTVSPropertyOp4
 70
     1
102
RTVSPropertyOp5
 70
     1
102
RTVSPropertyOp6
 70
     1
102
RTVSPropertyOp7
 70
     1
102
RTVSPropertyOp8
 70
     1
102
RTVSPropertyOp9
 70
     1
102
RTVSPropertyOp10
 70
     1
102
RTVSPropertyOp11
 70
     1
102
RTVSPropertyOp12
 70
     1
102
RTVSPropertyOp13
 70
     1
102
RTVSPropertyOp14
 70
     1
102
RTVSPropertyOp15
 70
     1
102
RTVSPropertyOp16
 70
     1
102
RTVSPropertyOp17
 70
     1
102
RTVSPropertyOp18
 70
     1
102
RTVSPropertyOp19
 70
     1
102
RTVSPropertyOp20
 70
     1
102
RTVSPropertyOp21
 70
     1
102
RTVSPropertyOp22
 70
     1
102
RTVSPropertyOp23
 70
     1
102
RTVSPropertyOp24
 70
     1
102
RTVSPropertyOp25
 70
     1
102
RTVSPropertyOp26
 70
     1
102
RTVSPropertyOp27
 70
     1
102
RTVSPropertyOp28
 70
     1
102
RTVSPropertyOp29
 70
     1
102
RTVSPropertyOp30
 70
     1
102
RTVSPropertyOp31
 70
     1
102
RTVSPropertyOp32
 70
     1
102
RTVSPropertyOp33
 70
     1
102
RTVSPropertyOp34
 70
     1
102
RTVSPropertyOp35
 70
     1
102
RTVSPropertyOp36
 70
     1
102
RTVSPropertyOp37
 70
     1
102
RTVSPropertyOp38
 70
     1
102
RTVSPropertyOp39
 70
     1
102
RTVSPropertyOp40
 70
     1
102
RTVSPropertyOp41
 70
     1
102
RTVSPropertyOp42
 70
     1
102
RTVSPropertyOp43
 70
     1
102
RTVSPropertyOp44
 70
     1
102
RTVSPropertyOp45
 70
     1
102
RTVSPropertyOp46
 70
     1
102
RTVSPropertyOp47
 70
     1
102
RTVSPropertyOp48
 70
     1
102
RTVSPropertyOp49
 70
     1
102
RTVSPropertyOp50
 70
     1
102
RTVSPropertyOp51
 70
     0
102
RTVSPropertyOp52
 70
     0
102
RTVSPropertyOp53
 70
     1
102
RTVSPropertyOp54
 70
     1
102
RTVSPropertyOp55
 70
     1
102
RTVSPropertyOp56
 70
     1
102
RTVSPropertyOp57
 70
     1
102
RTVSPost2010Prop28
280
     1
102
RTVSPost2010PropOp28
 70
     1
102
RTVSPost2010Prop29
280
     1
102
RTVSPost2010PropOp29
 70
     1
102
RTVSPost2010Prop30
280
     0
102
RTVSPost2010PropOp30
 70
     1
102
RTVSPost2010Prop31
280
     0
102
RTVSPost2010PropOp31
 70
     1
102
RTVSPost2010Prop32
280
     0
102
RTVSPost2010PropOp32
 70
     1
102
RTVSPost2010Prop33
280
     0
102
RTVSPost2010PropOp33
 70
     1
102
RTVSPost2010Prop34
280
     0
102
RTVSPost2010PropOp34
 70
     1
102
RTVSPost2010Prop35
280
     0
102
RTVSPost2010PropOp35
 70
     1
102
RTVSPost2010Prop36
280
     0
102
RTVSPost2010PropOp36
 70
     1
102
RTVSPost2010Prop37
 90
       50
102
RTVSPost2010PropOp37
 70
     1
102
RTVSPost2010Prop38
140
0.0
102
RTVSPost2010PropOp38
 70
     1
102
RTVSPost2010Prop39
140
1.0
102
RTVSPost2010PropOp39
 70
     1
102
RTVSPost2010Prop40
 90
        0
102
RTVSPost2010PropOp40
 70
     1
102
RTVSPost2010Prop41ColorIndex
 90
       18
102
RTVSPost2010Prop41ColorRGB
 90
        0
102
RTVSPost2010PropOp41
 70
     1
102
RTVSPost2010Prop42
 90
       50
102
RTVSPost2010PropOp42
 70
     1
102
RTVSPost2010Prop43
 90
        3
102
RTVSPost2010PropOp43
 70
     1
102
RTVSPost2010Prop44ColorIndex
 90
        5
102
RTVSPost2010Prop44ColorRGB
 90
      255
102
RTVSPost2010PropOp44
 70
     1
102
RTVSPost2010Prop45
280
     0
102
RTVSPost2010PropOp45
 70
     1
102
RTVSPost2010Prop46
 90
       50
102
RTVSPost2010PropOp46
 70
     1
102
RTVSPost2010Prop47
 90
       50
102
RTVSPost2010PropOp47
 70
     1
102
RTVSPost2010Prop48
 90
       50
102
RTVSPost2010PropOp48
 70
     1
102
RTVSPost2010Prop49
280
     0
102
RTVSPost2010PropOp49
 70
     1
102
RTVSPost2010Prop50
 90
       50
102
RTVSPost2010PropOp50
 70
     1
102
RTVSPost2010Prop51ColorIndex
 90
      256
102
RTVSPost2010Prop51ColorRGB
 90
-16777216
102
RTVSPost2010PropOp51
 70
     0
102
RTVSPost2010Prop52
140
1.0
102
RTVSPost2010PropOp52
 70
     0
102
RTVSPost2010Prop53
 90
        2
102
RTVSPost2010PropOp53
 70
     1
102
RTVSPost2010Prop54
  1
strokes_ogs.tif
102
RTVSPost2010PropOp54
 70
     1
102
RTVSPost2010Prop55
280
     0
102
RTVSPost2010PropOp55
 70
     1
102
RTVSPost2010Prop56
140
1.0
102
RTVSPost2010PropOp56
 70
     1
102
RTVSPost2010Prop57
140
1.0
102
RTVSPost2010PropOp57
 70
     1
  0
XRECORD
  5
270
102
{ACAD_REACTORS
330
26F
102
}
330
26F
100
AcDbXrecord
280
     1
102
RTVSPropertyOp0
 70
     1
102
RTVSPropertyOp1
 70
     1
102
RTVSPropertyOp2
 70
     1
102
RTVSPropertyOp3
 70
     1
102
RTVSPropertyOp4
 70
     1
102
RTVSPropertyOp5
 70
     1
102
RTVSPropertyOp6
 70
     1
102
RTVSPropertyOp7
 70
     1
102
RTVSPropertyOp8
 70
     1
102
RTVSPropertyOp9
 70
     1
102
RTVSPropertyOp10
 70
     1
102
RTVSPropertyOp11
 70
     1
102
RTVSPropertyOp12
 70
     1
102
RTVSPropertyOp13
 70
     1
102
RTVSPropertyOp14
 70
     1
102
RTVSPropertyOp15
 70
     1
102
RTVSPropertyOp16
 70
     1
102
RTVSPropertyOp17
 70
     1
102
RTVSPropertyOp18
 70
     1
102
RTVSPropertyOp19
 70
     1
102
RTVSPropertyOp20
 70
     1
102
RTVSPropertyOp21
 70
     1
102
RTVSPropertyOp22
 70
     1
102
RTVSPropertyOp23
 70
     1
102
RTVSPropertyOp24
 70
     1
102
RTVSPropertyOp25
 70
     1
102
RTVSPropertyOp26
 70
     1
102
RTVSPropertyOp27
 70
     1
102
RTVSPropertyOp28
 70
     1
102
RTVSPropertyOp29
 70
     1
102
RTVSPropertyOp30
 70
     1
102
RTVSPropertyOp31
 70
     1
102
RTVSPropertyOp32
 70
     1
102
RTVSPropertyOp33
 70
     1
102
RTVSPropertyOp34
 70
     1
102
RTVSPropertyOp35
 70
     1
102
RTVSPropertyOp36
 70
     1
102
RTVSPropertyOp37
 70
     1
102
RTVSPropertyOp38
 70
     1
102
RTVSPropertyOp39
 70
     1
102
RTVSPropertyOp40
 70
     1
102
RTVSPropertyOp41
 70
     1
102
RTVSPropertyOp42
 70
     1
102
RTVSPropertyOp43
 70
     1
102
RTVSPropertyOp44
 70
     1
102
RTVSPropertyOp45
 70
     1
102
RTVSPropertyOp46
 70
     1
102
RTVSPropertyOp47
 70
     1
102
RTVSPropertyOp48
 70
     1
102
RTVSPropertyOp49
 70
     1
102
RTVSPropertyOp50
 70
     1
102
RTVSPropertyOp51
 70
     0
102
RTVSPropertyOp52
 70
     0
102
RTVSPropertyOp53
 70
     1
102
RTVSPropertyOp54
 70
     1
102
RTVSPropertyOp55
 70
     1
102
RTVSPropertyOp56
 70
     1
102
RTVSPropertyOp57
 70
     1
102
RTVSPost2010Prop28
280
     0
102
RTVSPost2010PropOp28
 70
     1
102
RTVSPost2010Prop29
280
     1
102
RTVSPost2010PropOp29
 70
     1
102
RTVSPost2010Prop30
280
     1
102
RTVSPost2010PropOp30
 70
     1
102
RTVSPost2010Prop31
280
     0
102
RTVSPost2010PropOp31
 70
     1
102
RTVSPost2010Prop32
280
     0
102
RTVSPost2010PropOp32
 70
     1
102
RTVSPost2010Prop33
280
     0
102
RTVSPost2010PropOp33
 70
     1
102
RTVSPost2010Prop34
280
     0
102
RTVSPost2010PropOp34
 70
     1
102
RTVSPost2010Prop35
280
     0
102
RTVSPost2010PropOp35
 70
     1
102
RTVSPost2010Prop36
280
     0
102
RTVSPost2010PropOp36
 70
     1
102
RTVSPost2010Prop37
 90
       50
102
RTVSPost2010PropOp37
 70
     1
102
RTVSPost2010Prop38
140
0.0
102
RTVSPost2010PropOp38
 70
     1
102
RTVSPost2010Prop39
140
1.0
102
RTVSPost2010PropOp39
 70
     1
102
RTVSPost2010Prop40
 90
        0
102
RTVSPost2010PropOp40
 70
     1
102
RTVSPost2010Prop41ColorIndex
 90
       18
102
RTVSPost2010Prop41ColorRGB
 90
        0
102
RTVSPost2010PropOp41
 70
     1
102
RTVSPost2010Prop42
 90
       50
102
RTVSPost2010PropOp42
 70
     1
102
RTVSPost2010Prop43
 90
        3
102
RTVSPost2010PropOp43
 70
     1
102
RTVSPost2010Prop44ColorIndex
 90
        5
102
RTVSPost2010Prop44ColorRGB
 90
      255
102
RTVSPost2010PropOp44
 70
     1
102
RTVSPost2010Prop45
280
     0
102
RTVSPost2010PropOp45
 70
     1
102
RTVSPost2010Prop46
 90
       50
102
RTVSPost2010PropOp46
 70
     1
102
RTVSPost2010Prop47
 90
       50
102
RTVSPost2010PropOp47
 70
     1
102
RTVSPost2010Prop48
 90
       50
102
RTVSPost2010PropOp48
 70
     1
102
RTVSPost2010Prop49
280
     0
102
RTVSPost2010PropOp49
 70
     1
102
RTVSPost2010Prop50
 90
       50
102
RTVSPost2010PropOp50
 70
     1
102
RTVSPost2010Prop51ColorIndex
 90
      256
102
RTVSPost2010Prop51ColorRGB
 90
-16777216
102
RTVSPost2010PropOp51
 70
     0
102
RTVSPost2010Prop52
140
1.0
102
RTVSPost2010PropOp52
 70
     0
102
RTVSPost2010Prop53
 90
        2
102
RTVSPost2010PropOp53
 70
     1
102
RTVSPost2010Prop54
  1
strokes_ogs.tif
102
RTVSPost2010PropOp54
 70
     1
102
RTVSPost2010Prop55
280
     0
102
RTVSPost2010PropOp55
 70
     1
102
RTVSPost2010Prop56
140
1.0
102
RTVSPost2010PropOp56
 70
     1
102
RTVSPost2010Prop57
140
1.0
102
RTVSPost2010PropOp57
 70
     1
  0
XRECORD
  5
278
102
{ACAD_REACTORS
330
277
102
}
330
277
100
AcDbXrecord
280
     1
102
RTVSPropertyOp0
 70
     1
102
RTVSPropertyOp1
 70
     1
102
RTVSPropertyOp2
 70
     1
102
RTVSPropertyOp3
 70
     1
102
RTVSPropertyOp4
 70
     1
102
RTVSPropertyOp5
 70
     1
102
RTVSPropertyOp6
 70
     1
102
RTVSPropertyOp7
 70
     1
102
RTVSPropertyOp8
 70
     1
102
RTVSPropertyOp9
 70
     1
102
RTVSPropertyOp10
 70
     1
102
RTVSPropertyOp11
 70
     1
102
RTVSPropertyOp12
 70
     1
102
RTVSPropertyOp13
 70
     1
102
RTVSPropertyOp14
 70
     1
102
RTVSPropertyOp15
 70
     1
102
RTVSPropertyOp16
 70
     1
102
RTVSPropertyOp17
 70
     1
102
RTVSPropertyOp18
 70
     1
102
RTVSPropertyOp19
 70
     1
102
RTVSPropertyOp20
 70
     1
102
RTVSPropertyOp21
 70
     1
102
RTVSPropertyOp22
 70
     1
102
RTVSPropertyOp23
 70
     1
102
RTVSPropertyOp24
 70
     1
102
RTVSPropertyOp25
 70
     1
102
RTVSPropertyOp26
 70
     1
102
RTVSPropertyOp27
 70
     1
102
RTVSPropertyOp28
 70
     1
102
RTVSPropertyOp29
 70
     1
102
RTVSPropertyOp30
 70
     1
102
RTVSPropertyOp31
 70
     1
102
RTVSPropertyOp32
 70
     1
102
RTVSPropertyOp33
 70
     1
102
RTVSPropertyOp34
 70
     1
102
RTVSPropertyOp35
 70
     1
102
RTVSPropertyOp36
 70
     1
102
RTVSPropertyOp37
 70
     1
102
RTVSPropertyOp38
 70
     1
102
RTVSPropertyOp39
 70
     1
102
RTVSPropertyOp40
 70
     1
102
RTVSPropertyOp41
 70
     1
102
RTVSPropertyOp42
 70
     1
102
RTVSPropertyOp43
 70
     1
102
RTVSPropertyOp44
 70
     1
102
RTVSPropertyOp45
 70
     1
102
RTVSPropertyOp46
 70
     1
102
RTVSPropertyOp47
 70
     1
102
RTVSPropertyOp48
 70
     1
102
RTVSPropertyOp49
 70
     1
102
RTVSPropertyOp50
 70
     1
102
RTVSPropertyOp51
 70
     0
102
RTVSPropertyOp52
 70
     0
102
RTVSPropertyOp53
 70
     1
102
RTVSPropertyOp54
 70
     1
102
RTVSPropertyOp55
 70
     1
102
RTVSPropertyOp56
 70
     1
102
RTVSPropertyOp57
 70
     1
102
RTVSPost2010Prop28
280
     0
102
RTVSPost2010PropOp28
 70
     1
102
RTVSPost2010Prop29
280
     1
102
RTVSPost2010PropOp29
 70
     1
102
RTVSPost2010Prop30
280
     1
102
RTVSPost2010PropOp30
 70
     1
102
RTVSPost2010Prop31
280
     0
102
RTVSPost2010PropOp31
 70
     1
102
RTVSPost2010Prop32
280
     0
102
RTVSPost2010PropOp32
 70
     1
102
RTVSPost2010Prop33
280
     0
102
RTVSPost2010PropOp33
 70
     1
102
RTVSPost2010Prop34
280
     0
102
RTVSPost2010PropOp34
 70
     1
102
RTVSPost2010Prop35
280
     0
102
RTVSPost2010PropOp35
 70
     1
102
RTVSPost2010Prop36
280
     0
102
RTVSPost2010PropOp36
 70
     1
102
RTVSPost2010Prop37
 90
       50
102
RTVSPost2010PropOp37
 70
     1
102
RTVSPost2010Prop38
140
0.0
102
RTVSPost2010PropOp38
 70
     1
102
RTVSPost2010Prop39
140
1.0
102
RTVSPost2010PropOp39
 70
     1
102
RTVSPost2010Prop40
 90
        0
102
RTVSPost2010PropOp40
 70
     1
102
RTVSPost2010Prop41ColorIndex
 90
       18
102
RTVSPost2010Prop41ColorRGB
 90
        0
102
RTVSPost2010PropOp41
 70
     1
102
RTVSPost2010Prop42
 90
       50
102
RTVSPost2010PropOp42
 70
     1
102
RTVSPost2010Prop43
 90
        3
102
RTVSPost2010PropOp43
 70
     1
102
RTVSPost2010Prop44ColorIndex
 90
        5
102
RTVSPost2010Prop44ColorRGB
 90
      255
102
RTVSPost2010PropOp44
 70
     1
102
RTVSPost2010Prop45
280
     0
102
RTVSPost2010PropOp45
 70
     1
102
RTVSPost2010Prop46
 90
       50
102
RTVSPost2010PropOp46
 70
     1
102
RTVSPost2010Prop47
 90
       50
102
RTVSPost2010PropOp47
 70
     1
102
RTVSPost2010Prop48
 90
       50
102
RTVSPost2010PropOp48
 70
     1
102
RTVSPost2010Prop49
280
     0
102
RTVSPost2010PropOp49
 70
     1
102
RTVSPost2010Prop50
 90
       50
102
RTVSPost2010PropOp50
 70
     1
102
RTVSPost2010Prop51ColorIndex
 90
      256
102
RTVSPost2010Prop51ColorRGB
 90
-16777216
102
RTVSPost2010PropOp51
 70
     0
102
RTVSPost2010Prop52
140
1.0
102
RTVSPost2010PropOp52
 70
     0
102
RTVSPost2010Prop53
 90
        2
102
RTVSPost2010PropOp53
 70
     1
102
RTVSPost2010Prop54
  1
strokes_ogs.tif
102
RTVSPost2010PropOp54
 70
     1
102
RTVSPost2010Prop55
280
     0
102
RTVSPost2010PropOp55
 70
     1
102
RTVSPost2010Prop56
140
1.0
102
RTVSPost2010PropOp56
 70
     1
102
RTVSPost2010Prop57
140
1.0
102
RTVSPost2010PropOp57
 70
     1
  0
XRECORD
  5
280
102
{ACAD_REACTORS
330
27F
102
}
330
27F
100
AcDbXrecord
280
     1
102
RTVSPropertyOp0
 70
     1
102
RTVSPropertyOp1
 70
     1
102
RTVSPropertyOp2
 70
     1
102
RTVSPropertyOp3
 70
     1
102
RTVSPropertyOp4
 70
     1
102
RTVSPropertyOp5
 70
     1
102
RTVSPropertyOp6
 70
     1
102
RTVSPropertyOp7
 70
     1
102
RTVSPropertyOp8
 70
     1
102
RTVSPropertyOp9
 70
     1
102
RTVSPropertyOp10
 70
     1
102
RTVSPropertyOp11
 70
     1
102
RTVSPropertyOp12
 70
     1
102
RTVSPropertyOp13
 70
     1
102
RTVSPropertyOp14
 70
     1
102
RTVSPropertyOp15
 70
     1
102
RTVSPropertyOp16
 70
     1
102
RTVSPropertyOp17
 70
     1
102
RTVSPropertyOp18
 70
     1
102
RTVSPropertyOp19
 70
     1
102
RTVSPropertyOp20
 70
     1
102
RTVSPropertyOp21
 70
     1
102
RTVSPropertyOp22
 70
     1
102
RTVSPropertyOp23
 70
     1
102
RTVSPropertyOp24
 70
     1
102
RTVSPropertyOp25
 70
     1
102
RTVSPropertyOp26
 70
     1
102
RTVSPropertyOp27
 70
     1
102
RTVSPropertyOp28
 70
     1
102
RTVSPropertyOp29
 70
     1
102
RTVSPropertyOp30
 70
     1
102
RTVSPropertyOp31
 70
     1
102
RTVSPropertyOp32
 70
     1
102
RTVSPropertyOp33
 70
     1
102
RTVSPropertyOp34
 70
     1
102
RTVSPropertyOp35
 70
     1
102
RTVSPropertyOp36
 70
     1
102
RTVSPropertyOp37
 70
     1
102
RTVSPropertyOp38
 70
     1
102
RTVSPropertyOp39
 70
     1
102
RTVSPropertyOp40
 70
     1
102
RTVSPropertyOp41
 70
     1
102
RTVSPropertyOp42
 70
     1
102
RTVSPropertyOp43
 70
     1
102
RTVSPropertyOp44
 70
     1
102
RTVSPropertyOp45
 70
     1
102
RTVSPropertyOp46
 70
     1
102
RTVSPropertyOp47
 70
     1
102
RTVSPropertyOp48
 70
     1
102
RTVSPropertyOp49
 70
     1
102
RTVSPropertyOp50
 70
     1
102
RTVSPropertyOp51
 70
     0
102
RTVSPropertyOp52
 70
     0
102
RTVSPropertyOp53
 70
     1
102
RTVSPropertyOp54
 70
     1
102
RTVSPropertyOp55
 70
     1
102
RTVSPropertyOp56
 70
     1
102
RTVSPropertyOp57
 70
     1
102
RTVSPost2010Prop28
280
     0
102
RTVSPost2010PropOp28
 70
     1
102
RTVSPost2010Prop29
280
     1
102
RTVSPost2010PropOp29
 70
     1
102
RTVSPost2010Prop30
280
     1
102
RTVSPost2010PropOp30
 70
     1
102
RTVSPost2010Prop31
280
     0
102
RTVSPost2010PropOp31
 70
     1
102
RTVSPost2010Prop32
280
     0
102
RTVSPost2010PropOp32
 70
     1
102
RTVSPost2010Prop33
280
     0
102
RTVSPost2010PropOp33
 70
     1
102
RTVSPost2010Prop34
280
     0
102
RTVSPost2010PropOp34
 70
     1
102
RTVSPost2010Prop35
280
     0
102
RTVSPost2010PropOp35
 70
     1
102
RTVSPost2010Prop36
280
     0
102
RTVSPost2010PropOp36
 70
     1
102
RTVSPost2010Prop37
 90
       50
102
RTVSPost2010PropOp37
 70
     1
102
RTVSPost2010Prop38
140
0.0
102
RTVSPost2010PropOp38
 70
     1
102
RTVSPost2010Prop39
140
1.0
102
RTVSPost2010PropOp39
 70
     1
102
RTVSPost2010Prop40
 90
        0
102
RTVSPost2010PropOp40
 70
     1
102
RTVSPost2010Prop41ColorIndex
 90
       18
102
RTVSPost2010Prop41ColorRGB
 90
        0
102
RTVSPost2010PropOp41
 70
     1
102
RTVSPost2010Prop42
 90
       50
102
RTVSPost2010PropOp42
 70
     1
102
RTVSPost2010Prop43
 90
        3
102
RTVSPost2010PropOp43
 70
     1
102
RTVSPost2010Prop44ColorIndex
 90
        5
102
RTVSPost2010Prop44ColorRGB
 90
      255
102
RTVSPost2010PropOp44
 70
     1
102
RTVSPost2010Prop45
280
     0
102
RTVSPost2010PropOp45
 70
     1
102
RTVSPost2010Prop46
 90
       50
102
RTVSPost2010PropOp46
 70
     1
102
RTVSPost2010Prop47
 90
       50
102
RTVSPost2010PropOp47
 70
     1
102
RTVSPost2010Prop48
 90
       50
102
RTVSPost2010PropOp48
 70
     1
102
RTVSPost2010Prop49
280
     0
102
RTVSPost2010PropOp49
 70
     1
102
RTVSPost2010Prop50
 90
       50
102
RTVSPost2010PropOp50
 70
     1
102
RTVSPost2010Prop51ColorIndex
 90
      256
102
RTVSPost2010Prop51ColorRGB
 90
-16777216
102
RTVSPost2010PropOp51
 70
     0
102
RTVSPost2010Prop52
140
1.0
102
RTVSPost2010PropOp52
 70
     0
102
RTVSPost2010Prop53
 90
        2
102
RTVSPost2010PropOp53
 70
     1
102
RTVSPost2010Prop54
  1
strokes_ogs.tif
102
RTVSPost2010PropOp54
 70
     1
102
RTVSPost2010Prop55
280
     0
102
RTVSPost2010PropOp55
 70
     1
102
RTVSPost2010Prop56
140
1.0
102
RTVSPost2010PropOp56
 70
     1
102
RTVSPost2010Prop57
140
1.0
102
RTVSPost2010PropOp57
 70
     1
  0
XRECORD
  5
274
102
{ACAD_REACTORS
330
273
102
}
330
273
100
AcDbXrecord
280
     1
102
RTVSPropertyOp0
 70
     1
102
RTVSPropertyOp1
 70
     1
102
RTVSPropertyOp2
 70
     1
102
RTVSPropertyOp3
 70
     1
102
RTVSPropertyOp4
 70
     1
102
RTVSPropertyOp5
 70
     1
102
RTVSPropertyOp6
 70
     1
102
RTVSPropertyOp7
 70
     1
102
RTVSPropertyOp8
 70
     1
102
RTVSPropertyOp9
 70
     1
102
RTVSPropertyOp10
 70
     1
102
RTVSPropertyOp11
 70
     1
102
RTVSPropertyOp12
 70
     1
102
RTVSPropertyOp13
 70
     1
102
RTVSPropertyOp14
 70
     1
102
RTVSPropertyOp15
 70
     1
102
RTVSPropertyOp16
 70
     1
102
RTVSPropertyOp17
 70
     1
102
RTVSPropertyOp18
 70
     1
102
RTVSPropertyOp19
 70
     1
102
RTVSPropertyOp20
 70
     1
102
RTVSPropertyOp21
 70
     1
102
RTVSPropertyOp22
 70
     1
102
RTVSPropertyOp23
 70
     1
102
RTVSPropertyOp24
 70
     1
102
RTVSPropertyOp25
 70
     1
102
RTVSPropertyOp26
 70
     1
102
RTVSPropertyOp27
 70
     1
102
RTVSPropertyOp28
 70
     1
102
RTVSPropertyOp29
 70
     1
102
RTVSPropertyOp30
 70
     1
102
RTVSPropertyOp31
 70
     1
102
RTVSPropertyOp32
 70
     1
102
RTVSPropertyOp33
 70
     1
102
RTVSPropertyOp34
 70
     1
102
RTVSPropertyOp35
 70
     1
102
RTVSPropertyOp36
 70
     1
102
RTVSPropertyOp37
 70
     1
102
RTVSPropertyOp38
 70
     1
102
RTVSPropertyOp39
 70
     1
102
RTVSPropertyOp40
 70
     1
102
RTVSPropertyOp41
 70
     1
102
RTVSPropertyOp42
 70
     1
102
RTVSPropertyOp43
 70
     1
102
RTVSPropertyOp44
 70
     1
102
RTVSPropertyOp45
 70
     1
102
RTVSPropertyOp46
 70
     1
102
RTVSPropertyOp47
 70
     1
102
RTVSPropertyOp48
 70
     1
102
RTVSPropertyOp49
 70
     1
102
RTVSPropertyOp50
 70
     1
102
RTVSPropertyOp51
 70
     0
102
RTVSPropertyOp52
 70
     0
102
RTVSPropertyOp53
 70
     1
102
RTVSPropertyOp54
 70
     1
102
RTVSPropertyOp55
 70
     1
102
RTVSPropertyOp56
 70
     1
102
RTVSPropertyOp57
 70
     1
102
RTVSPost2010Prop28
280
     0
102
RTVSPost2010PropOp28
 70
     1
102
RTVSPost2010Prop29
280
     1
102
RTVSPost2010PropOp29
 70
     1
102
RTVSPost2010Prop30
280
     1
102
RTVSPost2010PropOp30
 70
     1
102
RTVSPost2010Prop31
280
     0
102
RTVSPost2010PropOp31
 70
     1
102
RTVSPost2010Prop32
280
     0
102
RTVSPost2010PropOp32
 70
     1
102
RTVSPost2010Prop33
280
     0
102
RTVSPost2010PropOp33
 70
     1
102
RTVSPost2010Prop34
280
     0
102
RTVSPost2010PropOp34
 70
     1
102
RTVSPost2010Prop35
280
     0
102
RTVSPost2010PropOp35
 70
     1
102
RTVSPost2010Prop36
280
     0
102
RTVSPost2010PropOp36
 70
     1
102
RTVSPost2010Prop37
 90
       50
102
RTVSPost2010PropOp37
 70
     1
102
RTVSPost2010Prop38
140
0.0
102
RTVSPost2010PropOp38
 70
     1
102
RTVSPost2010Prop39
140
1.0
102
RTVSPost2010PropOp39
 70
     1
102
RTVSPost2010Prop40
 90
        0
102
RTVSPost2010PropOp40
 70
     1
102
RTVSPost2010Prop41ColorIndex
 90
       18
102
RTVSPost2010Prop41ColorRGB
 90
        0
102
RTVSPost2010PropOp41
 70
     1
102
RTVSPost2010Prop42
 90
       50
102
RTVSPost2010PropOp42
 70
     1
102
RTVSPost2010Prop43
 90
        3
102
RTVSPost2010PropOp43
 70
     1
102
RTVSPost2010Prop44ColorIndex
 90
        5
102
RTVSPost2010Prop44ColorRGB
 90
      255
102
RTVSPost2010PropOp44
 70
     1
102
RTVSPost2010Prop45
280
     0
102
RTVSPost2010PropOp45
 70
     1
102
RTVSPost2010Prop46
 90
       50
102
RTVSPost2010PropOp46
 70
     1
102
RTVSPost2010Prop47
 90
       50
102
RTVSPost2010PropOp47
 70
     1
102
RTVSPost2010Prop48
 90
       50
102
RTVSPost2010PropOp48
 70
     1
102
RTVSPost2010Prop49
280
     0
102
RTVSPost2010PropOp49
 70
     1
102
RTVSPost2010Prop50
 90
       50
102
RTVSPost2010PropOp50
 70
     1
102
RTVSPost2010Prop51ColorIndex
 90
      256
102
RTVSPost2010Prop51ColorRGB
 90
-16777216
102
RTVSPost2010PropOp51
 70
     0
102
RTVSPost2010Prop52
140
1.0
102
RTVSPost2010PropOp52
 70
     0
102
RTVSPost2010Prop53
 90
        2
102
RTVSPost2010PropOp53
 70
     1
102
RTVSPost2010Prop54
  1
strokes_ogs.tif
102
RTVSPost2010PropOp54
 70
     1
102
RTVSPost2010Prop55
280
     0
102
RTVSPost2010PropOp55
 70
     1
102
RTVSPost2010Prop56
140
1.0
102
RTVSPost2010PropOp56
 70
     1
102
RTVSPost2010Prop57
140
1.0
102
RTVSPost2010PropOp57
 70
     1
  0
XRECORD
  5
276
102
{ACAD_REACTORS
330
275
102
}
330
275
100
AcDbXrecord
280
     1
102
RTVSPropertyOp0
 70
     1
102
RTVSPropertyOp1
 70
     1
102
RTVSPropertyOp2
 70
     1
102
RTVSPropertyOp3
 70
     1
102
RTVSPropertyOp4
 70
     1
102
RTVSPropertyOp5
 70
     1
102
RTVSPropertyOp6
 70
     1
102
RTVSPropertyOp7
 70
     1
102
RTVSPropertyOp8
 70
     1
102
RTVSPropertyOp9
 70
     1
102
RTVSPropertyOp10
 70
     1
102
RTVSPropertyOp11
 70
     1
102
RTVSPropertyOp12
 70
     1
102
RTVSPropertyOp13
 70
     1
102
RTVSPropertyOp14
 70
     1
102
RTVSPropertyOp15
 70
     1
102
RTVSPropertyOp16
 70
     1
102
RTVSPropertyOp17
 70
     1
102
RTVSPropertyOp18
 70
     1
102
RTVSPropertyOp19
 70
     1
102
RTVSPropertyOp20
 70
     1
102
RTVSPropertyOp21
 70
     1
102
RTVSPropertyOp22
 70
     1
102
RTVSPropertyOp23
 70
     1
102
RTVSPropertyOp24
 70
     1
102
RTVSPropertyOp25
 70
     1
102
RTVSPropertyOp26
 70
     1
102
RTVSPropertyOp27
 70
     1
102
RTVSPropertyOp28
 70
     1
102
RTVSPropertyOp29
 70
     1
102
RTVSPropertyOp30
 70
     1
102
RTVSPropertyOp31
 70
     1
102
RTVSPropertyOp32
 70
     1
102
RTVSPropertyOp33
 70
     1
102
RTVSPropertyOp34
 70
     1
102
RTVSPropertyOp35
 70
     1
102
RTVSPropertyOp36
 70
     1
102
RTVSPropertyOp37
 70
     1
102
RTVSPropertyOp38
 70
     1
102
RTVSPropertyOp39
 70
     1
102
RTVSPropertyOp40
 70
     1
102
RTVSPropertyOp41
 70
     1
102
RTVSPropertyOp42
 70
     1
102
RTVSPropertyOp43
 70
     1
102
RTVSPropertyOp44
 70
     1
102
RTVSPropertyOp45
 70
     1
102
RTVSPropertyOp46
 70
     1
102
RTVSPropertyOp47
 70
     1
102
RTVSPropertyOp48
 70
     1
102
RTVSPropertyOp49
 70
     1
102
RTVSPropertyOp50
 70
     1
102
RTVSPropertyOp51
 70
     0
102
RTVSPropertyOp52
 70
     0
102
RTVSPropertyOp53
 70
     1
102
RTVSPropertyOp54
 70
     1
102
RTVSPropertyOp55
 70
     1
102
RTVSPropertyOp56
 70
     1
102
RTVSPropertyOp57
 70
     1
102
RTVSPost2010Prop28
280
     0
102
RTVSPost2010PropOp28
 70
     1
102
RTVSPost2010Prop29
280
     1
102
RTVSPost2010PropOp29
 70
     1
102
RTVSPost2010Prop30
280
     1
102
RTVSPost2010PropOp30
 70
     1
102
RTVSPost2010Prop31
280
     0
102
RTVSPost2010PropOp31
 70
     1
102
RTVSPost2010Prop32
280
     0
102
RTVSPost2010PropOp32
 70
     1
102
RTVSPost2010Prop33
280
     0
102
RTVSPost2010PropOp33
 70
     1
102
RTVSPost2010Prop34
280
     0
102
RTVSPost2010PropOp34
 70
     1
102
RTVSPost2010Prop35
280
     0
102
RTVSPost2010PropOp35
 70
     1
102
RTVSPost2010Prop36
280
     0
102
RTVSPost2010PropOp36
 70
     1
102
RTVSPost2010Prop37
 90
       50
102
RTVSPost2010PropOp37
 70
     1
102
RTVSPost2010Prop38
140
0.0
102
RTVSPost2010PropOp38
 70
     1
102
RTVSPost2010Prop39
140
1.0
102
RTVSPost2010PropOp39
 70
     1
102
RTVSPost2010Prop40
 90
        0
102
RTVSPost2010PropOp40
 70
     1
102
RTVSPost2010Prop41ColorIndex
 90
       18
102
RTVSPost2010Prop41ColorRGB
 90
        0
102
RTVSPost2010PropOp41
 70
     1
102
RTVSPost2010Prop42
 90
       50
102
RTVSPost2010PropOp42
 70
     1
102
RTVSPost2010Prop43
 90
        3
102
RTVSPost2010PropOp43
 70
     1
102
RTVSPost2010Prop44ColorIndex
 90
        5
102
RTVSPost2010Prop44ColorRGB
 90
      255
102
RTVSPost2010PropOp44
 70
     1
102
RTVSPost2010Prop45
280
     0
102
RTVSPost2010PropOp45
 70
     1
102
RTVSPost2010Prop46
 90
       50
102
RTVSPost2010PropOp46
 70
     1
102
RTVSPost2010Prop47
 90
       50
102
RTVSPost2010PropOp47
 70
     1
102
RTVSPost2010Prop48
 90
       50
102
RTVSPost2010PropOp48
 70
     1
102
RTVSPost2010Prop49
280
     0
102
RTVSPost2010PropOp49
 70
     1
102
RTVSPost2010Prop50
 90
       50
102
RTVSPost2010PropOp50
 70
     1
102
RTVSPost2010Prop51ColorIndex
 90
      256
102
RTVSPost2010Prop51ColorRGB
 90
-16777216
102
RTVSPost2010PropOp51
 70
     0
102
RTVSPost2010Prop52
140
1.0
102
RTVSPost2010PropOp52
 70
     0
102
RTVSPost2010Prop53
 90
        2
102
RTVSPost2010PropOp53
 70
     1
102
RTVSPost2010Prop54
  1
strokes_ogs.tif
102
RTVSPost2010PropOp54
 70
     1
102
RTVSPost2010Prop55
280
     0
102
RTVSPost2010PropOp55
 70
     1
102
RTVSPost2010Prop56
140
1.0
102
RTVSPost2010PropOp56
 70
     1
102
RTVSPost2010Prop57
140
1.0
102
RTVSPost2010PropOp57
 70
     1
  0
XRECORD
  5
286
102
{ACAD_REACTORS
330
285
102
}
330
285
100
AcDbXrecord
280
     1
102
RTVSPropertyOp0
 70
     0
102
RTVSPropertyOp1
 70
     0
102
RTVSPropertyOp2
 70
     0
102
RTVSPropertyOp3
 70
     0
102
RTVSPropertyOp4
 70
     0
102
RTVSPropertyOp5
 70
     0
102
RTVSPropertyOp6
 70
     0
102
RTVSPropertyOp7
 70
     0
102
RTVSPropertyOp8
 70
     0
102
RTVSPropertyOp9
 70
     0
102
RTVSPropertyOp10
 70
     0
102
RTVSPropertyOp11
 70
     0
102
RTVSPropertyOp12
 70
     0
102
RTVSPropertyOp13
 70
     0
102
RTVSPropertyOp14
 70
     2
102
RTVSPropertyOp15
 70
     0
102
RTVSPropertyOp16
 70
     0
102
RTVSPropertyOp17
 70
     0
102
RTVSPropertyOp18
 70
     0
102
RTVSPropertyOp19
 70
     0
102
RTVSPropertyOp20
 70
     0
102
RTVSPropertyOp21
 70
     0
102
RTVSPropertyOp22
 70
     0
102
RTVSPropertyOp23
 70
     0
102
RTVSPropertyOp24
 70
     0
102
RTVSPropertyOp25
 70
     0
102
RTVSPropertyOp26
 70
     0
102
RTVSPropertyOp27
 70
     0
102
RTVSPropertyOp28
 70
     0
102
RTVSPropertyOp29
 70
     0
102
RTVSPropertyOp30
 70
     0
102
RTVSPropertyOp31
 70
     0
102
RTVSPropertyOp32
 70
     0
102
RTVSPropertyOp33
 70
     0
102
RTVSPropertyOp34
 70
     0
102
RTVSPropertyOp35
 70
     0
102
RTVSPropertyOp36
 70
     0
102
RTVSPropertyOp37
 70
     0
102
RTVSPropertyOp38
 70
     0
102
RTVSPropertyOp39
 70
     0
102
RTVSPropertyOp40
 70
     0
102
RTVSPropertyOp41
 70
     0
102
RTVSPropertyOp42
 70
     0
102
RTVSPropertyOp43
 70
     0
102
RTVSPropertyOp44
 70
     0
102
RTVSPropertyOp45
 70
     0
102
RTVSPropertyOp46
 70
     0
102
RTVSPropertyOp47
 70
     0
102
RTVSPropertyOp48
 70
     0
102
RTVSPropertyOp49
 70
     0
102
RTVSPropertyOp50
 70
     0
102
RTVSPropertyOp51
 70
     0
102
RTVSPropertyOp52
 70
     0
102
RTVSPropertyOp53
 70
     0
102
RTVSPropertyOp54
 70
     0
102
RTVSPropertyOp55
 70
     0
102
RTVSPropertyOp56
 70
     0
102
RTVSPropertyOp57
 70
     0
102
RTVSPost2010Prop28
280
     0
102
RTVSPost2010PropOp28
 70
     0
102
RTVSPost2010Prop29
280
     1
102
RTVSPost2010PropOp29
 70
     0
102
RTVSPost2010Prop30
280
     1
102
RTVSPost2010PropOp30
 70
     0
102
RTVSPost2010Prop31
280
     0
102
RTVSPost2010PropOp31
 70
     0
102
RTVSPost2010Prop32
280
     0
102
RTVSPost2010PropOp32
 70
     0
102
RTVSPost2010Prop33
280
     0
102
RTVSPost2010PropOp33
 70
     0
102
RTVSPost2010Prop34
280
     0
102
RTVSPost2010PropOp34
 70
     0
102
RTVSPost2010Prop35
280
     0
102
RTVSPost2010PropOp35
 70
     0
102
RTVSPost2010Prop36
280
     0
102
RTVSPost2010PropOp36
 70
     0
102
RTVSPost2010Prop37
 90
       50
102
RTVSPost2010PropOp37
 70
     0
102
RTVSPost2010Prop38
140
0.0
102
RTVSPost2010PropOp38
 70
     0
102
RTVSPost2010Prop39
140
1.0
102
RTVSPost2010PropOp39
 70
     0
102
RTVSPost2010Prop40
 90
        0
102
RTVSPost2010PropOp40
 70
     0
102
RTVSPost2010Prop41ColorIndex
 90
       18
102
RTVSPost2010Prop41ColorRGB
 90
        0
102
RTVSPost2010PropOp41
 70
     0
102
RTVSPost2010Prop42
 90
       50
102
RTVSPost2010PropOp42
 70
     0
102
RTVSPost2010Prop43
 90
        3
102
RTVSPost2010PropOp43
 70
     0
102
RTVSPost2010Prop44ColorIndex
 90
        5
102
RTVSPost2010Prop44ColorRGB
 90
      255
102
RTVSPost2010PropOp44
 70
     0
102
RTVSPost2010Prop45
280
     0
102
RTVSPost2010PropOp45
 70
     0
102
RTVSPost2010Prop46
 90
       50
102
RTVSPost2010PropOp46
 70
     0
102
RTVSPost2010Prop47
 90
       50
102
RTVSPost2010PropOp47
 70
     0
102
RTVSPost2010Prop48
 90
       50
102
RTVSPost2010PropOp48
 70
     0
102
RTVSPost2010Prop49
280
     0
102
RTVSPost2010PropOp49
 70
     0
102
RTVSPost2010Prop50
 90
       50
102
RTVSPost2010PropOp50
 70
     0
102
RTVSPost2010Prop51ColorIndex
 90
      256
102
RTVSPost2010Prop51ColorRGB
 90
-16777216
102
RTVSPost2010PropOp51
 70
     0
102
RTVSPost2010Prop52
140
1.0
102
RTVSPost2010PropOp52
 70
     0
102
RTVSPost2010Prop53
 90
        2
102
RTVSPost2010PropOp53
 70
     0
102
RTVSPost2010Prop54
  1
strokes_ogs.tif
102
RTVSPost2010PropOp54
 70
     0
102
RTVSPost2010Prop55
280
     0
102
RTVSPost2010PropOp55
 70
     0
102
RTVSPost2010Prop56
140
1.0
102
RTVSPost2010PropOp56
 70
     0
102
RTVSPost2010Prop57
140
1.0
102
RTVSPost2010PropOp57
 70
     0
  0
XRECORD
  5
27E
102
{ACAD_REACTORS
330
27D
102
}
330
27D
100
AcDbXrecord
280
     1
102
RTVSPropertyOp0
 70
     1
102
RTVSPropertyOp1
 70
     1
102
RTVSPropertyOp2
 70
     1
102
RTVSPropertyOp3
 70
     1
102
RTVSPropertyOp4
 70
     1
102
RTVSPropertyOp5
 70
     1
102
RTVSPropertyOp6
 70
     1
102
RTVSPropertyOp7
 70
     1
102
RTVSPropertyOp8
 70
     1
102
RTVSPropertyOp9
 70
     1
102
RTVSPropertyOp10
 70
     1
102
RTVSPropertyOp11
 70
     1
102
RTVSPropertyOp12
 70
     1
102
RTVSPropertyOp13
 70
     1
102
RTVSPropertyOp14
 70
     1
102
RTVSPropertyOp15
 70
     1
102
RTVSPropertyOp16
 70
     1
102
RTVSPropertyOp17
 70
     1
102
RTVSPropertyOp18
 70
     1
102
RTVSPropertyOp19
 70
     1
102
RTVSPropertyOp20
 70
     1
102
RTVSPropertyOp21
 70
     1
102
RTVSPropertyOp22
 70
     1
102
RTVSPropertyOp23
 70
     1
102
RTVSPropertyOp24
 70
     1
102
RTVSPropertyOp25
 70
     1
102
RTVSPropertyOp26
 70
     1
102
RTVSPropertyOp27
 70
     1
102
RTVSPropertyOp28
 70
     1
102
RTVSPropertyOp29
 70
     1
102
RTVSPropertyOp30
 70
     1
102
RTVSPropertyOp31
 70
     1
102
RTVSPropertyOp32
 70
     1
102
RTVSPropertyOp33
 70
     1
102
RTVSPropertyOp34
 70
     1
102
RTVSPropertyOp35
 70
     1
102
RTVSPropertyOp36
 70
     1
102
RTVSPropertyOp37
 70
     1
102
RTVSPropertyOp38
 70
     1
102
RTVSPropertyOp39
 70
     1
102
RTVSPropertyOp40
 70
     1
102
RTVSPropertyOp41
 70
     1
102
RTVSPropertyOp42
 70
     1
102
RTVSPropertyOp43
 70
     1
102
RTVSPropertyOp44
 70
     1
102
RTVSPropertyOp45
 70
     1
102
RTVSPropertyOp46
 70
     1
102
RTVSPropertyOp47
 70
     1
102
RTVSPropertyOp48
 70
     1
102
RTVSPropertyOp49
 70
     1
102
RTVSPropertyOp50
 70
     1
102
RTVSPropertyOp51
 70
     0
102
RTVSPropertyOp52
 70
     0
102
RTVSPropertyOp53
 70
     1
102
RTVSPropertyOp54
 70
     1
102
RTVSPropertyOp55
 70
     1
102
RTVSPropertyOp56
 70
     1
102
RTVSPropertyOp57
 70
     1
102
RTVSPost2010Prop28
280
     0
102
RTVSPost2010PropOp28
 70
     1
102
RTVSPost2010Prop29
280
     1
102
RTVSPost2010PropOp29
 70
     1
102
RTVSPost2010Prop30
280
     1
102
RTVSPost2010PropOp30
 70
     1
102
RTVSPost2010Prop31
280
     0
102
RTVSPost2010PropOp31
 70
     1
102
RTVSPost2010Prop32
280
     0
102
RTVSPost2010PropOp32
 70
     1
102
RTVSPost2010Prop33
280
     0
102
RTVSPost2010PropOp33
 70
     1
102
RTVSPost2010Prop34
280
     0
102
RTVSPost2010PropOp34
 70
     1
102
RTVSPost2010Prop35
280
     0
102
RTVSPost2010PropOp35
 70
     1
102
RTVSPost2010Prop36
280
     0
102
RTVSPost2010PropOp36
 70
     1
102
RTVSPost2010Prop37
 90
       50
102
RTVSPost2010PropOp37
 70
     1
102
RTVSPost2010Prop38
140
0.0
102
RTVSPost2010PropOp38
 70
     1
102
RTVSPost2010Prop39
140
1.0
102
RTVSPost2010PropOp39
 70
     1
102
RTVSPost2010Prop40
 90
        0
102
RTVSPost2010PropOp40
 70
     1
102
RTVSPost2010Prop41ColorIndex
 90
       18
102
RTVSPost2010Prop41ColorRGB
 90
        0
102
RTVSPost2010PropOp41
 70
     1
102
RTVSPost2010Prop42
 90
       50
102
RTVSPost2010PropOp42
 70
     1
102
RTVSPost2010Prop43
 90
        3
102
RTVSPost2010PropOp43
 70
     1
102
RTVSPost2010Prop44ColorIndex
 90
        5
102
RTVSPost2010Prop44ColorRGB
 90
      255
102
RTVSPost2010PropOp44
 70
     1
102
RTVSPost2010Prop45
280
     0
102
RTVSPost2010PropOp45
 70
     1
102
RTVSPost2010Prop46
 90
       50
102
RTVSPost2010PropOp46
 70
     1
102
RTVSPost2010Prop47
 90
       50
102
RTVSPost2010PropOp47
 70
     1
102
RTVSPost2010Prop48
 90
       50
102
RTVSPost2010PropOp48
 70
     1
102
RTVSPost2010Prop49
280
     0
102
RTVSPost2010PropOp49
 70
     1
102
RTVSPost2010Prop50
 90
       50
102
RTVSPost2010PropOp50
 70
     1
102
RTVSPost2010Prop51ColorIndex
 90
      256
102
RTVSPost2010Prop51ColorRGB
 90
-16777216
102
RTVSPost2010PropOp51
 70
     0
102
RTVSPost2010Prop52
140
1.0
102
RTVSPost2010PropOp52
 70
     0
102
RTVSPost2010Prop53
 90
        2
102
RTVSPost2010PropOp53
 70
     1
102
RTVSPost2010Prop54
  1
strokes_ogs.tif
102
RTVSPost2010PropOp54
 70
     1
102
RTVSPost2010Prop55
280
     0
102
RTVSPost2010PropOp55
 70
     1
102
RTVSPost2010Prop56
140
1.0
102
RTVSPost2010PropOp56
 70
     1
102
RTVSPost2010Prop57
140
1.0
102
RTVSPost2010PropOp57
 70
     1
  0
XRECORD
  5
262
102
{ACAD_REACTORS
330
261
102
}
330
261
100
AcDbXrecord
280
     1
102
RTVSPropertyOp0
 70
     1
102
RTVSPropertyOp1
 70
     1
102
RTVSPropertyOp2
 70
     1
102
RTVSPropertyOp3
 70
     1
102
RTVSPropertyOp4
 70
     1
102
RTVSPropertyOp5
 70
     1
102
RTVSPropertyOp6
 70
     1
102
RTVSPropertyOp7
 70
     1
102
RTVSPropertyOp8
 70
     1
102
RTVSPropertyOp9
 70
     1
102
RTVSPropertyOp10
 70
     1
102
RTVSPropertyOp11
 70
     1
102
RTVSPropertyOp12
 70
     1
102
RTVSPropertyOp13
 70
     1
102
RTVSPropertyOp14
 70
     1
102
RTVSPropertyOp15
 70
     1
102
RTVSPropertyOp16
 70
     1
102
RTVSPropertyOp17
 70
     1
102
RTVSPropertyOp18
 70
     1
102
RTVSPropertyOp19
 70
     1
102
RTVSPropertyOp20
 70
     1
102
RTVSPropertyOp21
 70
     1
102
RTVSPropertyOp22
 70
     1
102
RTVSPropertyOp23
 70
     1
102
RTVSPropertyOp24
 70
     1
102
RTVSPropertyOp25
 70
     1
102
RTVSPropertyOp26
 70
     1
102
RTVSPropertyOp27
 70
     1
102
RTVSPropertyOp28
 70
     1
102
RTVSPropertyOp29
 70
     1
102
RTVSPropertyOp30
 70
     1
102
RTVSPropertyOp31
 70
     1
102
RTVSPropertyOp32
 70
     1
102
RTVSPropertyOp33
 70
     1
102
RTVSPropertyOp34
 70
     1
102
RTVSPropertyOp35
 70
     1
102
RTVSPropertyOp36
 70
     1
102
RTVSPropertyOp37
 70
     1
102
RTVSPropertyOp38
 70
     1
102
RTVSPropertyOp39
 70
     1
102
RTVSPropertyOp40
 70
     1
102
RTVSPropertyOp41
 70
     1
102
RTVSPropertyOp42
 70
     1
102
RTVSPropertyOp43
 70
     1
102
RTVSPropertyOp44
 70
     1
102
RTVSPropertyOp45
 70
     1
102
RTVSPropertyOp46
 70
     1
102
RTVSPropertyOp47
 70
     1
102
RTVSPropertyOp48
 70
     1
102
RTVSPropertyOp49
 70
     1
102
RTVSPropertyOp50
 70
     1
102
RTVSPropertyOp51
 70
     0
102
RTVSPropertyOp52
 70
     0
102
RTVSPropertyOp53
 70
     1
102
RTVSPropertyOp54
 70
     1
102
RTVSPropertyOp55
 70
     1
102
RTVSPropertyOp56
 70
     1
102
RTVSPropertyOp57
 70
     1
102
RTVSPost2010Prop28
280
     0
102
RTVSPost2010PropOp28
 70
     1
102
RTVSPost2010Prop29
280
     1
102
RTVSPost2010PropOp29
 70
     1
102
RTVSPost2010Prop30
280
     1
102
RTVSPost2010PropOp30
 70
     1
102
RTVSPost2010Prop31
280
     0
102
RTVSPost2010PropOp31
 70
     1
102
RTVSPost2010Prop32
280
     0
102
RTVSPost2010PropOp32
 70
     1
102
RTVSPost2010Prop33
280
     0
102
RTVSPost2010PropOp33
 70
     1
102
RTVSPost2010Prop34
280
     0
102
RTVSPost2010PropOp34
 70
     1
102
RTVSPost2010Prop35
280
     0
102
RTVSPost2010PropOp35
 70
     1
102
RTVSPost2010Prop36
280
     0
102
RTVSPost2010PropOp36
 70
     1
102
RTVSPost2010Prop37
 90
       50
102
RTVSPost2010PropOp37
 70
     1
102
RTVSPost2010Prop38
140
0.0
102
RTVSPost2010PropOp38
 70
     1
102
RTVSPost2010Prop39
140
1.0
102
RTVSPost2010PropOp39
 70
     1
102
RTVSPost2010Prop40
 90
        0
102
RTVSPost2010PropOp40
 70
     1
102
RTVSPost2010Prop41ColorIndex
 90
       18
102
RTVSPost2010Prop41ColorRGB
 90
        0
102
RTVSPost2010PropOp41
 70
     1
102
RTVSPost2010Prop42
 90
       50
102
RTVSPost2010PropOp42
 70
     1
102
RTVSPost2010Prop43
 90
        3
102
RTVSPost2010PropOp43
 70
     1
102
RTVSPost2010Prop44ColorIndex
 90
        5
102
RTVSPost2010Prop44ColorRGB
 90
      255
102
RTVSPost2010PropOp44
 70
     1
102
RTVSPost2010Prop45
280
     0
102
RTVSPost2010PropOp45
 70
     1
102
RTVSPost2010Prop46
 90
       50
102
RTVSPost2010PropOp46
 70
     1
102
RTVSPost2010Prop47
 90
       50
102
RTVSPost2010PropOp47
 70
     1
102
RTVSPost2010Prop48
 90
       50
102
RTVSPost2010PropOp48
 70
     1
102
RTVSPost2010Prop49
280
     0
102
RTVSPost2010PropOp49
 70
     1
102
RTVSPost2010Prop50
 90
       50
102
RTVSPost2010PropOp50
 70
     1
102
RTVSPost2010Prop51ColorIndex
 90
      256
102
RTVSPost2010Prop51ColorRGB
 90
-16777216
102
RTVSPost2010PropOp51
 70
     0
102
RTVSPost2010Prop52
140
1.0
102
RTVSPost2010PropOp52
 70
     0
102
RTVSPost2010Prop53
 90
        2
102
RTVSPost2010PropOp53
 70
     1
102
RTVSPost2010Prop54
  1
strokes_ogs.tif
102
RTVSPost2010PropOp54
 70
     1
102
RTVSPost2010Prop55
280
     0
102
RTVSPost2010PropOp55
 70
     1
102
RTVSPost2010Prop56
140
1.0
102
RTVSPost2010PropOp56
 70
     1
102
RTVSPost2010Prop57
140
1.0
102
RTVSPost2010PropOp57
 70
     1
  0
XRECORD
  5
264
102
{ACAD_REACTORS
330
263
102
}
330
263
100
AcDbXrecord
280
     1
102
RTVSPropertyOp0
 70
     1
102
RTVSPropertyOp1
 70
     1
102
RTVSPropertyOp2
 70
     1
102
RTVSPropertyOp3
 70
     1
102
RTVSPropertyOp4
 70
     1
102
RTVSPropertyOp5
 70
     1
102
RTVSPropertyOp6
 70
     1
102
RTVSPropertyOp7
 70
     1
102
RTVSPropertyOp8
 70
     1
102
RTVSPropertyOp9
 70
     1
102
RTVSPropertyOp10
 70
     1
102
RTVSPropertyOp11
 70
     1
102
RTVSPropertyOp12
 70
     1
102
RTVSPropertyOp13
 70
     1
102
RTVSPropertyOp14
 70
     1
102
RTVSPropertyOp15
 70
     1
102
RTVSPropertyOp16
 70
     1
102
RTVSPropertyOp17
 70
     1
102
RTVSPropertyOp18
 70
     1
102
RTVSPropertyOp19
 70
     1
102
RTVSPropertyOp20
 70
     1
102
RTVSPropertyOp21
 70
     1
102
RTVSPropertyOp22
 70
     1
102
RTVSPropertyOp23
 70
     1
102
RTVSPropertyOp24
 70
     1
102
RTVSPropertyOp25
 70
     1
102
RTVSPropertyOp26
 70
     1
102
RTVSPropertyOp27
 70
     1
102
RTVSPropertyOp28
 70
     1
102
RTVSPropertyOp29
 70
     1
102
RTVSPropertyOp30
 70
     1
102
RTVSPropertyOp31
 70
     1
102
RTVSPropertyOp32
 70
     1
102
RTVSPropertyOp33
 70
     1
102
RTVSPropertyOp34
 70
     1
102
RTVSPropertyOp35
 70
     1
102
RTVSPropertyOp36
 70
     1
102
RTVSPropertyOp37
 70
     1
102
RTVSPropertyOp38
 70
     1
102
RTVSPropertyOp39
 70
     1
102
RTVSPropertyOp40
 70
     1
102
RTVSPropertyOp41
 70
     1
102
RTVSPropertyOp42
 70
     1
102
RTVSPropertyOp43
 70
     1
102
RTVSPropertyOp44
 70
     1
102
RTVSPropertyOp45
 70
     1
102
RTVSPropertyOp46
 70
     1
102
RTVSPropertyOp47
 70
     1
102
RTVSPropertyOp48
 70
     1
102
RTVSPropertyOp49
 70
     1
102
RTVSPropertyOp50
 70
     1
102
RTVSPropertyOp51
 70
     0
102
RTVSPropertyOp52
 70
     0
102
RTVSPropertyOp53
 70
     1
102
RTVSPropertyOp54
 70
     1
102
RTVSPropertyOp55
 70
     1
102
RTVSPropertyOp56
 70
     1
102
RTVSPropertyOp57
 70
     1
102
RTVSPost2010Prop28
280
     0
102
RTVSPost2010PropOp28
 70
     1
102
RTVSPost2010Prop29
280
     1
102
RTVSPost2010PropOp29
 70
     1
102
RTVSPost2010Prop30
280
     1
102
RTVSPost2010PropOp30
 70
     1
102
RTVSPost2010Prop31
280
     0
102
RTVSPost2010PropOp31
 70
     1
102
RTVSPost2010Prop32
280
     0
102
RTVSPost2010PropOp32
 70
     1
102
RTVSPost2010Prop33
280
     0
102
RTVSPost2010PropOp33
 70
     1
102
RTVSPost2010Prop34
280
     0
102
RTVSPost2010PropOp34
 70
     1
102
RTVSPost2010Prop35
280
     0
102
RTVSPost2010PropOp35
 70
     1
102
RTVSPost2010Prop36
280
     0
102
RTVSPost2010PropOp36
 70
     1
102
RTVSPost2010Prop37
 90
       50
102
RTVSPost2010PropOp37
 70
     1
102
RTVSPost2010Prop38
140
0.0
102
RTVSPost2010PropOp38
 70
     1
102
RTVSPost2010Prop39
140
1.0
102
RTVSPost2010PropOp39
 70
     1
102
RTVSPost2010Prop40
 90
        0
102
RTVSPost2010PropOp40
 70
     1
102
RTVSPost2010Prop41ColorIndex
 90
       18
102
RTVSPost2010Prop41ColorRGB
 90
        0
102
RTVSPost2010PropOp41
 70
     1
102
RTVSPost2010Prop42
 90
       50
102
RTVSPost2010PropOp42
 70
     1
102
RTVSPost2010Prop43
 90
        3
102
RTVSPost2010PropOp43
 70
     1
102
RTVSPost2010Prop44ColorIndex
 90
        5
102
RTVSPost2010Prop44ColorRGB
 90
      255
102
RTVSPost2010PropOp44
 70
     1
102
RTVSPost2010Prop45
280
     0
102
RTVSPost2010PropOp45
 70
     1
102
RTVSPost2010Prop46
 90
       50
102
RTVSPost2010PropOp46
 70
     1
102
RTVSPost2010Prop47
 90
       50
102
RTVSPost2010PropOp47
 70
     1
102
RTVSPost2010Prop48
 90
       50
102
RTVSPost2010PropOp48
 70
     1
102
RTVSPost2010Prop49
280
     0
102
RTVSPost2010PropOp49
 70
     1
102
RTVSPost2010Prop50
 90
       50
102
RTVSPost2010PropOp50
 70
     1
102
RTVSPost2010Prop51ColorIndex
 90
      256
102
RTVSPost2010Prop51ColorRGB
 90
-16777216
102
RTVSPost2010PropOp51
 70
     0
102
RTVSPost2010Prop52
140
1.0
102
RTVSPost2010PropOp52
 70
     0
102
RTVSPost2010Prop53
 90
        2
102
RTVSPost2010PropOp53
 70
     1
102
RTVSPost2010Prop54
  1
strokes_ogs.tif
102
RTVSPost2010PropOp54
 70
     1
102
RTVSPost2010Prop55
280
     0
102
RTVSPost2010PropOp55
 70
     1
102
RTVSPost2010Prop56
140
1.0
102
RTVSPost2010PropOp56
 70
     1
102
RTVSPost2010Prop57
140
1.0
102
RTVSPost2010PropOp57
 70
     1
  0
XRECORD
  5
266
102
{ACAD_REACTORS
330
265
102
}
330
265
100
AcDbXrecord
280
     1
102
RTVSPropertyOp0
 70
     1
102
RTVSPropertyOp1
 70
     1
102
RTVSPropertyOp2
 70
     1
102
RTVSPropertyOp3
 70
     1
102
RTVSPropertyOp4
 70
     1
102
RTVSPropertyOp5
 70
     1
102
RTVSPropertyOp6
 70
     1
102
RTVSPropertyOp7
 70
     1
102
RTVSPropertyOp8
 70
     1
102
RTVSPropertyOp9
 70
     1
102
RTVSPropertyOp10
 70
     1
102
RTVSPropertyOp11
 70
     1
102
RTVSPropertyOp12
 70
     1
102
RTVSPropertyOp13
 70
     1
102
RTVSPropertyOp14
 70
     1
102
RTVSPropertyOp15
 70
     1
102
RTVSPropertyOp16
 70
     1
102
RTVSPropertyOp17
 70
     1
102
RTVSPropertyOp18
 70
     1
102
RTVSPropertyOp19
 70
     1
102
RTVSPropertyOp20
 70
     1
102
RTVSPropertyOp21
 70
     1
102
RTVSPropertyOp22
 70
     1
102
RTVSPropertyOp23
 70
     1
102
RTVSPropertyOp24
 70
     1
102
RTVSPropertyOp25
 70
     1
102
RTVSPropertyOp26
 70
     1
102
RTVSPropertyOp27
 70
     1
102
RTVSPropertyOp28
 70
     1
102
RTVSPropertyOp29
 70
     1
102
RTVSPropertyOp30
 70
     1
102
RTVSPropertyOp31
 70
     1
102
RTVSPropertyOp32
 70
     1
102
RTVSPropertyOp33
 70
     1
102
RTVSPropertyOp34
 70
     1
102
RTVSPropertyOp35
 70
     1
102
RTVSPropertyOp36
 70
     1
102
RTVSPropertyOp37
 70
     1
102
RTVSPropertyOp38
 70
     1
102
RTVSPropertyOp39
 70
     1
102
RTVSPropertyOp40
 70
     1
102
RTVSPropertyOp41
 70
     1
102
RTVSPropertyOp42
 70
     1
102
RTVSPropertyOp43
 70
     1
102
RTVSPropertyOp44
 70
     1
102
RTVSPropertyOp45
 70
     1
102
RTVSPropertyOp46
 70
     1
102
RTVSPropertyOp47
 70
     1
102
RTVSPropertyOp48
 70
     1
102
RTVSPropertyOp49
 70
     1
102
RTVSPropertyOp50
 70
     1
102
RTVSPropertyOp51
 70
     0
102
RTVSPropertyOp52
 70
     0
102
RTVSPropertyOp53
 70
     1
102
RTVSPropertyOp54
 70
     1
102
RTVSPropertyOp55
 70
     1
102
RTVSPropertyOp56
 70
     1
102
RTVSPropertyOp57
 70
     1
102
RTVSPost2010Prop28
280
     0
102
RTVSPost2010PropOp28
 70
     1
102
RTVSPost2010Prop29
280
     1
102
RTVSPost2010PropOp29
 70
     1
102
RTVSPost2010Prop30
280
     1
102
RTVSPost2010PropOp30
 70
     1
102
RTVSPost2010Prop31
280
     0
102
RTVSPost2010PropOp31
 70
     1
102
RTVSPost2010Prop32
280
     0
102
RTVSPost2010PropOp32
 70
     1
102
RTVSPost2010Prop33
280
     0
102
RTVSPost2010PropOp33
 70
     1
102
RTVSPost2010Prop34
280
     0
102
RTVSPost2010PropOp34
 70
     1
102
RTVSPost2010Prop35
280
     0
102
RTVSPost2010PropOp35
 70
     1
102
RTVSPost2010Prop36
280
     0
102
RTVSPost2010PropOp36
 70
     1
102
RTVSPost2010Prop37
 90
       50
102
RTVSPost2010PropOp37
 70
     1
102
RTVSPost2010Prop38
140
0.0
102
RTVSPost2010PropOp38
 70
     1
102
RTVSPost2010Prop39
140
1.0
102
RTVSPost2010PropOp39
 70
     1
102
RTVSPost2010Prop40
 90
        0
102
RTVSPost2010PropOp40
 70
     1
102
RTVSPost2010Prop41ColorIndex
 90
       18
102
RTVSPost2010Prop41ColorRGB
 90
        0
102
RTVSPost2010PropOp41
 70
     1
102
RTVSPost2010Prop42
 90
       50
102
RTVSPost2010PropOp42
 70
     1
102
RTVSPost2010Prop43
 90
        3
102
RTVSPost2010PropOp43
 70
     1
102
RTVSPost2010Prop44ColorIndex
 90
        5
102
RTVSPost2010Prop44ColorRGB
 90
      255
102
RTVSPost2010PropOp44
 70
     1
102
RTVSPost2010Prop45
280
     0
102
RTVSPost2010PropOp45
 70
     1
102
RTVSPost2010Prop46
 90
       50
102
RTVSPost2010PropOp46
 70
     1
102
RTVSPost2010Prop47
 90
       50
102
RTVSPost2010PropOp47
 70
     1
102
RTVSPost2010Prop48
 90
       50
102
RTVSPost2010PropOp48
 70
     1
102
RTVSPost2010Prop49
280
     0
102
RTVSPost2010PropOp49
 70
     1
102
RTVSPost2010Prop50
 90
       50
102
RTVSPost2010PropOp50
 70
     1
102
RTVSPost2010Prop51ColorIndex
 90
      256
102
RTVSPost2010Prop51ColorRGB
 90
-16777216
102
RTVSPost2010PropOp51
 70
     0
102
RTVSPost2010Prop52
140
1.0
102
RTVSPost2010PropOp52
 70
     0
102
RTVSPost2010Prop53
 90
        2
102
RTVSPost2010PropOp53
 70
     1
102
RTVSPost2010Prop54
  1
strokes_ogs.tif
102
RTVSPost2010PropOp54
 70
     1
102
RTVSPost2010Prop55
280
     0
102
RTVSPost2010PropOp55
 70
     1
102
RTVSPost2010Prop56
140
1.0
102
RTVSPost2010PropOp56
 70
     1
102
RTVSPost2010Prop57
140
1.0
102
RTVSPost2010PropOp57
 70
     1
  0
XRECORD
  5
268
102
{ACAD_REACTORS
330
267
102
}
330
267
100
AcDbXrecord
280
     1
102
RTVSPropertyOp0
 70
     1
102
RTVSPropertyOp1
 70
     1
102
RTVSPropertyOp2
 70
     1
102
RTVSPropertyOp3
 70
     1
102
RTVSPropertyOp4
 70
     1
102
RTVSPropertyOp5
 70
     1
102
RTVSPropertyOp6
 70
     1
102
RTVSPropertyOp7
 70
     1
102
RTVSPropertyOp8
 70
     1
102
RTVSPropertyOp9
 70
     1
102
RTVSPropertyOp10
 70
     1
102
RTVSPropertyOp11
 70
     1
102
RTVSPropertyOp12
 70
     1
102
RTVSPropertyOp13
 70
     1
102
RTVSPropertyOp14
 70
     1
102
RTVSPropertyOp15
 70
     1
102
RTVSPropertyOp16
 70
     1
102
RTVSPropertyOp17
 70
     1
102
RTVSPropertyOp18
 70
     1
102
RTVSPropertyOp19
 70
     1
102
RTVSPropertyOp20
 70
     1
102
RTVSPropertyOp21
 70
     1
102
RTVSPropertyOp22
 70
     1
102
RTVSPropertyOp23
 70
     1
102
RTVSPropertyOp24
 70
     1
102
RTVSPropertyOp25
 70
     1
102
RTVSPropertyOp26
 70
     1
102
RTVSPropertyOp27
 70
     1
102
RTVSPropertyOp28
 70
     1
102
RTVSPropertyOp29
 70
     1
102
RTVSPropertyOp30
 70
     1
102
RTVSPropertyOp31
 70
     1
102
RTVSPropertyOp32
 70
     1
102
RTVSPropertyOp33
 70
     1
102
RTVSPropertyOp34
 70
     1
102
RTVSPropertyOp35
 70
     1
102
RTVSPropertyOp36
 70
     1
102
RTVSPropertyOp37
 70
     1
102
RTVSPropertyOp38
 70
     1
102
RTVSPropertyOp39
 70
     1
102
RTVSPropertyOp40
 70
     1
102
RTVSPropertyOp41
 70
     1
102
RTVSPropertyOp42
 70
     1
102
RTVSPropertyOp43
 70
     1
102
RTVSPropertyOp44
 70
     1
102
RTVSPropertyOp45
 70
     1
102
RTVSPropertyOp46
 70
     1
102
RTVSPropertyOp47
 70
     1
102
RTVSPropertyOp48
 70
     1
102
RTVSPropertyOp49
 70
     1
102
RTVSPropertyOp50
 70
     1
102
RTVSPropertyOp51
 70
     0
102
RTVSPropertyOp52
 70
     0
102
RTVSPropertyOp53
 70
     1
102
RTVSPropertyOp54
 70
     1
102
RTVSPropertyOp55
 70
     1
102
RTVSPropertyOp56
 70
     1
102
RTVSPropertyOp57
 70
     1
102
RTVSPost2010Prop28
280
     0
102
RTVSPost2010PropOp28
 70
     1
102
RTVSPost2010Prop29
280
     1
102
RTVSPost2010PropOp29
 70
     1
102
RTVSPost2010Prop30
280
     1
102
RTVSPost2010PropOp30
 70
     1
102
RTVSPost2010Prop31
280
     0
102
RTVSPost2010PropOp31
 70
     1
102
RTVSPost2010Prop32
280
     0
102
RTVSPost2010PropOp32
 70
     1
102
RTVSPost2010Prop33
280
     0
102
RTVSPost2010PropOp33
 70
     1
102
RTVSPost2010Prop34
280
     0
102
RTVSPost2010PropOp34
 70
     1
102
RTVSPost2010Prop35
280
     0
102
RTVSPost2010PropOp35
 70
     1
102
RTVSPost2010Prop36
280
     0
102
RTVSPost2010PropOp36
 70
     1
102
RTVSPost2010Prop37
 90
       50
102
RTVSPost2010PropOp37
 70
     1
102
RTVSPost2010Prop38
140
0.0
102
RTVSPost2010PropOp38
 70
     1
102
RTVSPost2010Prop39
140
1.0
102
RTVSPost2010PropOp39
 70
     1
102
RTVSPost2010Prop40
 90
        0
102
RTVSPost2010PropOp40
 70
     1
102
RTVSPost2010Prop41ColorIndex
 90
       18
102
RTVSPost2010Prop41ColorRGB
 90
        0
102
RTVSPost2010PropOp41
 70
     1
102
RTVSPost2010Prop42
 90
       50
102
RTVSPost2010PropOp42
 70
     1
102
RTVSPost2010Prop43
 90
        3
102
RTVSPost2010PropOp43
 70
     1
102
RTVSPost2010Prop44ColorIndex
 90
        5
102
RTVSPost2010Prop44ColorRGB
 90
      255
102
RTVSPost2010PropOp44
 70
     1
102
RTVSPost2010Prop45
280
     0
102
RTVSPost2010PropOp45
 70
     1
102
RTVSPost2010Prop46
 90
       50
102
RTVSPost2010PropOp46
 70
     1
102
RTVSPost2010Prop47
 90
       50
102
RTVSPost2010PropOp47
 70
     1
102
RTVSPost2010Prop48
 90
       50
102
RTVSPost2010PropOp48
 70
     1
102
RTVSPost2010Prop49
280
     0
102
RTVSPost2010PropOp49
 70
     1
102
RTVSPost2010Prop50
 90
       50
102
RTVSPost2010PropOp50
 70
     1
102
RTVSPost2010Prop51ColorIndex
 90
      256
102
RTVSPost2010Prop51ColorRGB
 90
-16777216
102
RTVSPost2010PropOp51
 70
     0
102
RTVSPost2010Prop52
140
1.0
102
RTVSPost2010PropOp52
 70
     0
102
RTVSPost2010Prop53
 90
        2
102
RTVSPost2010PropOp53
 70
     1
102
RTVSPost2010Prop54
  1
strokes_ogs.tif
102
RTVSPost2010PropOp54
 70
     1
102
RTVSPost2010Prop55
280
     0
102
RTVSPost2010PropOp55
 70
     1
102
RTVSPost2010Prop56
140
1.0
102
RTVSPost2010PropOp56
 70
     1
102
RTVSPost2010Prop57
140
1.0
102
RTVSPost2010PropOp57
 70
     1
  0
XRECORD
  5
26E
102
{ACAD_REACTORS
330
26D
102
}
330
26D
100
AcDbXrecord
280
     1
102
RTVSPropertyOp0
 70
     1
102
RTVSPropertyOp1
 70
     1
102
RTVSPropertyOp2
 70
     1
102
RTVSPropertyOp3
 70
     1
102
RTVSPropertyOp4
 70
     1
102
RTVSPropertyOp5
 70
     1
102
RTVSPropertyOp6
 70
     1
102
RTVSPropertyOp7
 70
     1
102
RTVSPropertyOp8
 70
     1
102
RTVSPropertyOp9
 70
     1
102
RTVSPropertyOp10
 70
     1
102
RTVSPropertyOp11
 70
     1
102
RTVSPropertyOp12
 70
     1
102
RTVSPropertyOp13
 70
     1
102
RTVSPropertyOp14
 70
     1
102
RTVSPropertyOp15
 70
     1
102
RTVSPropertyOp16
 70
     1
102
RTVSPropertyOp17
 70
     1
102
RTVSPropertyOp18
 70
     1
102
RTVSPropertyOp19
 70
     1
102
RTVSPropertyOp20
 70
     1
102
RTVSPropertyOp21
 70
     1
102
RTVSPropertyOp22
 70
     1
102
RTVSPropertyOp23
 70
     1
102
RTVSPropertyOp24
 70
     1
102
RTVSPropertyOp25
 70
     1
102
RTVSPropertyOp26
 70
     1
102
RTVSPropertyOp27
 70
     1
102
RTVSPropertyOp28
 70
     1
102
RTVSPropertyOp29
 70
     1
102
RTVSPropertyOp30
 70
     1
102
RTVSPropertyOp31
 70
     1
102
RTVSPropertyOp32
 70
     1
102
RTVSPropertyOp33
 70
     1
102
RTVSPropertyOp34
 70
     1
102
RTVSPropertyOp35
 70
     1
102
RTVSPropertyOp36
 70
     1
102
RTVSPropertyOp37
 70
     1
102
RTVSPropertyOp38
 70
     1
102
RTVSPropertyOp39
 70
     1
102
RTVSPropertyOp40
 70
     1
102
RTVSPropertyOp41
 70
     1
102
RTVSPropertyOp42
 70
     1
102
RTVSPropertyOp43
 70
     1
102
RTVSPropertyOp44
 70
     1
102
RTVSPropertyOp45
 70
     1
102
RTVSPropertyOp46
 70
     1
102
RTVSPropertyOp47
 70
     1
102
RTVSPropertyOp48
 70
     1
102
RTVSPropertyOp49
 70
     1
102
RTVSPropertyOp50
 70
     1
102
RTVSPropertyOp51
 70
     0
102
RTVSPropertyOp52
 70
     0
102
RTVSPropertyOp53
 70
     1
102
RTVSPropertyOp54
 70
     1
102
RTVSPropertyOp55
 70
     1
102
RTVSPropertyOp56
 70
     1
102
RTVSPropertyOp57
 70
     1
102
RTVSPost2010Prop28
280
     0
102
RTVSPost2010PropOp28
 70
     1
102
RTVSPost2010Prop29
280
     1
102
RTVSPost2010PropOp29
 70
     1
102
RTVSPost2010Prop30
280
     1
102
RTVSPost2010PropOp30
 70
     1
102
RTVSPost2010Prop31
280
     0
102
RTVSPost2010PropOp31
 70
     1
102
RTVSPost2010Prop32
280
     0
102
RTVSPost2010PropOp32
 70
     1
102
RTVSPost2010Prop33
280
     0
102
RTVSPost2010PropOp33
 70
     1
102
RTVSPost2010Prop34
280
     0
102
RTVSPost2010PropOp34
 70
     1
102
RTVSPost2010Prop35
280
     0
102
RTVSPost2010PropOp35
 70
     1
102
RTVSPost2010Prop36
280
     0
102
RTVSPost2010PropOp36
 70
     1
102
RTVSPost2010Prop37
 90
       50
102
RTVSPost2010PropOp37
 70
     1
102
RTVSPost2010Prop38
140
0.0
102
RTVSPost2010PropOp38
 70
     1
102
RTVSPost2010Prop39
140
1.0
102
RTVSPost2010PropOp39
 70
     1
102
RTVSPost2010Prop40
 90
        0
102
RTVSPost2010PropOp40
 70
     1
102
RTVSPost2010Prop41ColorIndex
 90
       18
102
RTVSPost2010Prop41ColorRGB
 90
        0
102
RTVSPost2010PropOp41
 70
     1
102
RTVSPost2010Prop42
 90
       50
102
RTVSPost2010PropOp42
 70
     1
102
RTVSPost2010Prop43
 90
        3
102
RTVSPost2010PropOp43
 70
     1
102
RTVSPost2010Prop44ColorIndex
 90
        5
102
RTVSPost2010Prop44ColorRGB
 90
      255
102
RTVSPost2010PropOp44
 70
     1
102
RTVSPost2010Prop45
280
     0
102
RTVSPost2010PropOp45
 70
     1
102
RTVSPost2010Prop46
 90
       50
102
RTVSPost2010PropOp46
 70
     1
102
RTVSPost2010Prop47
 90
       50
102
RTVSPost2010PropOp47
 70
     1
102
RTVSPost2010Prop48
 90
       50
102
RTVSPost2010PropOp48
 70
     1
102
RTVSPost2010Prop49
280
     0
102
RTVSPost2010PropOp49
 70
     1
102
RTVSPost2010Prop50
 90
       50
102
RTVSPost2010PropOp50
 70
     1
102
RTVSPost2010Prop51ColorIndex
 90
      256
102
RTVSPost2010Prop51ColorRGB
 90
-16777216
102
RTVSPost2010PropOp51
 70
     0
102
RTVSPost2010Prop52
140
1.0
102
RTVSPost2010PropOp52
 70
     0
102
RTVSPost2010Prop53
 90
        2
102
RTVSPost2010PropOp53
 70
     1
102
RTVSPost2010Prop54
  1
strokes_ogs.tif
102
RTVSPost2010PropOp54
 70
     1
102
RTVSPost2010Prop55
280
     0
102
RTVSPost2010PropOp55
 70
     1
102
RTVSPost2010Prop56
140
1.0
102
RTVSPost2010PropOp56
 70
     1
102
RTVSPost2010Prop57
140
1.0
102
RTVSPost2010PropOp57
 70
     1
  0
XRECORD
  5
282
102
{ACAD_REACTORS
330
281
102
}
330
281
100
AcDbXrecord
280
     1
102
RTVSPropertyOp0
 70
     0
102
RTVSPropertyOp1
 70
     0
102
RTVSPropertyOp2
 70
     0
102
RTVSPropertyOp3
 70
     0
102
RTVSPropertyOp4
 70
     0
102
RTVSPropertyOp5
 70
     0
102
RTVSPropertyOp6
 70
     0
102
RTVSPropertyOp7
 70
     0
102
RTVSPropertyOp8
 70
     0
102
RTVSPropertyOp9
 70
     0
102
RTVSPropertyOp10
 70
     0
102
RTVSPropertyOp11
 70
     0
102
RTVSPropertyOp12
 70
     0
102
RTVSPropertyOp13
 70
     0
102
RTVSPropertyOp14
 70
     2
102
RTVSPropertyOp15
 70
     0
102
RTVSPropertyOp16
 70
     0
102
RTVSPropertyOp17
 70
     0
102
RTVSPropertyOp18
 70
     0
102
RTVSPropertyOp19
 70
     0
102
RTVSPropertyOp20
 70
     0
102
RTVSPropertyOp21
 70
     0
102
RTVSPropertyOp22
 70
     0
102
RTVSPropertyOp23
 70
     0
102
RTVSPropertyOp24
 70
     0
102
RTVSPropertyOp25
 70
     0
102
RTVSPropertyOp26
 70
     0
102
RTVSPropertyOp27
 70
     0
102
RTVSPropertyOp28
 70
     0
102
RTVSPropertyOp29
 70
     0
102
RTVSPropertyOp30
 70
     0
102
RTVSPropertyOp31
 70
     0
102
RTVSPropertyOp32
 70
     0
102
RTVSPropertyOp33
 70
     0
102
RTVSPropertyOp34
 70
     0
102
RTVSPropertyOp35
 70
     0
102
RTVSPropertyOp36
 70
     0
102
RTVSPropertyOp37
 70
     0
102
RTVSPropertyOp38
 70
     0
102
RTVSPropertyOp39
 70
     0
102
RTVSPropertyOp40
 70
     0
102
RTVSPropertyOp41
 70
     0
102
RTVSPropertyOp42
 70
     0
102
RTVSPropertyOp43
 70
     0
102
RTVSPropertyOp44
 70
     0
102
RTVSPropertyOp45
 70
     0
102
RTVSPropertyOp46
 70
     0
102
RTVSPropertyOp47
 70
     0
102
RTVSPropertyOp48
 70
     0
102
RTVSPropertyOp49
 70
     0
102
RTVSPropertyOp50
 70
     0
102
RTVSPropertyOp51
 70
     0
102
RTVSPropertyOp52
 70
     0
102
RTVSPropertyOp53
 70
     0
102
RTVSPropertyOp54
 70
     0
102
RTVSPropertyOp55
 70
     0
102
RTVSPropertyOp56
 70
     0
102
RTVSPropertyOp57
 70
     0
102
RTVSPost2010Prop28
280
     0
102
RTVSPost2010PropOp28
 70
     0
102
RTVSPost2010Prop29
280
     1
102
RTVSPost2010PropOp29
 70
     0
102
RTVSPost2010Prop30
280
     1
102
RTVSPost2010PropOp30
 70
     0
102
RTVSPost2010Prop31
280
     0
102
RTVSPost2010PropOp31
 70
     0
102
RTVSPost2010Prop32
280
     0
102
RTVSPost2010PropOp32
 70
     0
102
RTVSPost2010Prop33
280
     0
102
RTVSPost2010PropOp33
 70
     0
102
RTVSPost2010Prop34
280
     0
102
RTVSPost2010PropOp34
 70
     0
102
RTVSPost2010Prop35
280
     0
102
RTVSPost2010PropOp35
 70
     0
102
RTVSPost2010Prop36
280
     0
102
RTVSPost2010PropOp36
 70
     0
102
RTVSPost2010Prop37
 90
       50
102
RTVSPost2010PropOp37
 70
     0
102
RTVSPost2010Prop38
140
0.0
102
RTVSPost2010PropOp38
 70
     0
102
RTVSPost2010Prop39
140
1.0
102
RTVSPost2010PropOp39
 70
     0
102
RTVSPost2010Prop40
 90
        0
102
RTVSPost2010PropOp40
 70
     0
102
RTVSPost2010Prop41ColorIndex
 90
       18
102
RTVSPost2010Prop41ColorRGB
 90
        0
102
RTVSPost2010PropOp41
 70
     0
102
RTVSPost2010Prop42
 90
       50
102
RTVSPost2010PropOp42
 70
     0
102
RTVSPost2010Prop43
 90
        3
102
RTVSPost2010PropOp43
 70
     0
102
RTVSPost2010Prop44ColorIndex
 90
        5
102
RTVSPost2010Prop44ColorRGB
 90
      255
102
RTVSPost2010PropOp44
 70
     0
102
RTVSPost2010Prop45
280
     0
102
RTVSPost2010PropOp45
 70
     0
102
RTVSPost2010Prop46
 90
       50
102
RTVSPost2010PropOp46
 70
     0
102
RTVSPost2010Prop47
 90
       50
102
RTVSPost2010PropOp47
 70
     0
102
RTVSPost2010Prop48
 90
       50
102
RTVSPost2010PropOp48
 70
     0
102
RTVSPost2010Prop49
280
     0
102
RTVSPost2010PropOp49
 70
     0
102
RTVSPost2010Prop50
 90
       50
102
RTVSPost2010PropOp50
 70
     0
102
RTVSPost2010Prop51ColorIndex
 90
      256
102
RTVSPost2010Prop51ColorRGB
 90
-16777216
102
RTVSPost2010PropOp51
 70
     0
102
RTVSPost2010Prop52
140
1.0
102
RTVSPost2010PropOp52
 70
     0
102
RTVSPost2010Prop53
 90
        2
102
RTVSPost2010PropOp53
 70
     0
102
RTVSPost2010Prop54
  1
strokes_ogs.tif
102
RTVSPost2010PropOp54
 70
     0
102
RTVSPost2010Prop55
280
     0
102
RTVSPost2010PropOp55
 70
     0
102
RTVSPost2010Prop56
140
1.0
102
RTVSPost2010PropOp56
 70
     0
102
RTVSPost2010Prop57
140
1.0
102
RTVSPost2010PropOp57
 70
     0
  0
XRECORD
  5
27C
102
{ACAD_REACTORS
330
27B
102
}
330
27B
100
AcDbXrecord
280
     1
102
RTVSPropertyOp0
 70
     1
102
RTVSPropertyOp1
 70
     1
102
RTVSPropertyOp2
 70
     1
102
RTVSPropertyOp3
 70
     1
102
RTVSPropertyOp4
 70
     1
102
RTVSPropertyOp5
 70
     1
102
RTVSPropertyOp6
 70
     1
102
RTVSPropertyOp7
 70
     1
102
RTVSPropertyOp8
 70
     1
102
RTVSPropertyOp9
 70
     1
102
RTVSPropertyOp10
 70
     1
102
RTVSPropertyOp11
 70
     1
102
RTVSPropertyOp12
 70
     1
102
RTVSPropertyOp13
 70
     1
102
RTVSPropertyOp14
 70
     1
102
RTVSPropertyOp15
 70
     1
102
RTVSPropertyOp16
 70
     1
102
RTVSPropertyOp17
 70
     1
102
RTVSPropertyOp18
 70
     1
102
RTVSPropertyOp19
 70
     1
102
RTVSPropertyOp20
 70
     1
102
RTVSPropertyOp21
 70
     1
102
RTVSPropertyOp22
 70
     1
102
RTVSPropertyOp23
 70
     1
102
RTVSPropertyOp24
 70
     1
102
RTVSPropertyOp25
 70
     1
102
RTVSPropertyOp26
 70
     1
102
RTVSPropertyOp27
 70
     1
102
RTVSPropertyOp28
 70
     1
102
RTVSPropertyOp29
 70
     1
102
RTVSPropertyOp30
 70
     1
102
RTVSPropertyOp31
 70
     1
102
RTVSPropertyOp32
 70
     1
102
RTVSPropertyOp33
 70
     1
102
RTVSPropertyOp34
 70
     1
102
RTVSPropertyOp35
 70
     1
102
RTVSPropertyOp36
 70
     1
102
RTVSPropertyOp37
 70
     1
102
RTVSPropertyOp38
 70
     1
102
RTVSPropertyOp39
 70
     1
102
RTVSPropertyOp40
 70
     1
102
RTVSPropertyOp41
 70
     1
102
RTVSPropertyOp42
 70
     1
102
RTVSPropertyOp43
 70
     1
102
RTVSPropertyOp44
 70
     1
102
RTVSPropertyOp45
 70
     1
102
RTVSPropertyOp46
 70
     1
102
RTVSPropertyOp47
 70
     1
102
RTVSPropertyOp48
 70
     1
102
RTVSPropertyOp49
 70
     1
102
RTVSPropertyOp50
 70
     1
102
RTVSPropertyOp51
 70
     0
102
RTVSPropertyOp52
 70
     0
102
RTVSPropertyOp53
 70
     1
102
RTVSPropertyOp54
 70
     1
102
RTVSPropertyOp55
 70
     1
102
RTVSPropertyOp56
 70
     1
102
RTVSPropertyOp57
 70
     1
102
RTVSPost2010Prop28
280
     0
102
RTVSPost2010PropOp28
 70
     1
102
RTVSPost2010Prop29
280
     1
102
RTVSPost2010PropOp29
 70
     1
102
RTVSPost2010Prop30
280
     1
102
RTVSPost2010PropOp30
 70
     1
102
RTVSPost2010Prop31
280
     0
102
RTVSPost2010PropOp31
 70
     1
102
RTVSPost2010Prop32
280
     0
102
RTVSPost2010PropOp32
 70
     1
102
RTVSPost2010Prop33
280
     0
102
RTVSPost2010PropOp33
 70
     1
102
RTVSPost2010Prop34
280
     0
102
RTVSPost2010PropOp34
 70
     1
102
RTVSPost2010Prop35
280
     0
102
RTVSPost2010PropOp35
 70
     1
102
RTVSPost2010Prop36
280
     0
102
RTVSPost2010PropOp36
 70
     1
102
RTVSPost2010Prop37
 90
       50
102
RTVSPost2010PropOp37
 70
     1
102
RTVSPost2010Prop38
140
0.0
102
RTVSPost2010PropOp38
 70
     1
102
RTVSPost2010Prop39
140
1.0
102
RTVSPost2010PropOp39
 70
     1
102
RTVSPost2010Prop40
 90
        0
102
RTVSPost2010PropOp40
 70
     1
102
RTVSPost2010Prop41ColorIndex
 90
       18
102
RTVSPost2010Prop41ColorRGB
 90
        0
102
RTVSPost2010PropOp41
 70
     1
102
RTVSPost2010Prop42
 90
       50
102
RTVSPost2010PropOp42
 70
     1
102
RTVSPost2010Prop43
 90
        3
102
RTVSPost2010PropOp43
 70
     1
102
RTVSPost2010Prop44ColorIndex
 90
        5
102
RTVSPost2010Prop44ColorRGB
 90
      255
102
RTVSPost2010PropOp44
 70
     1
102
RTVSPost2010Prop45
280
     0
102
RTVSPost2010PropOp45
 70
     1
102
RTVSPost2010Prop46
 90
       50
102
RTVSPost2010PropOp46
 70
     1
102
RTVSPost2010Prop47
 90
       50
102
RTVSPost2010PropOp47
 70
     1
102
RTVSPost2010Prop48
 90
       50
102
RTVSPost2010PropOp48
 70
     1
102
RTVSPost2010Prop49
280
     0
102
RTVSPost2010PropOp49
 70
     1
102
RTVSPost2010Prop50
 90
       50
102
RTVSPost2010PropOp50
 70
     1
102
RTVSPost2010Prop51ColorIndex
 90
      256
102
RTVSPost2010Prop51ColorRGB
 90
-16777216
102
RTVSPost2010PropOp51
 70
     0
102
RTVSPost2010Prop52
140
1.0
102
RTVSPost2010PropOp52
 70
     0
102
RTVSPost2010Prop53
 90
        2
102
RTVSPost2010PropOp53
 70
     1
102
RTVSPost2010Prop54
  1
strokes_ogs.tif
102
RTVSPost2010PropOp54
 70
     1
102
RTVSPost2010Prop55
280
     0
102
RTVSPost2010PropOp55
 70
     1
102
RTVSPost2010Prop56
140
1.0
102
RTVSPost2010PropOp56
 70
     1
102
RTVSPost2010Prop57
140
1.0
102
RTVSPost2010PropOp57
 70
     1
  0
XRECORD
  5
284
102
{ACAD_REACTORS
330
283
102
}
330
283
100
AcDbXrecord
280
     1
102
RTVSPropertyOp0
 70
     0
102
RTVSPropertyOp1
 70
     0
102
RTVSPropertyOp2
 70
     0
102
RTVSPropertyOp3
 70
     0
102
RTVSPropertyOp4
 70
     0
102
RTVSPropertyOp5
 70
     0
102
RTVSPropertyOp6
 70
     0
102
RTVSPropertyOp7
 70
     0
102
RTVSPropertyOp8
 70
     0
102
RTVSPropertyOp9
 70
     0
102
RTVSPropertyOp10
 70
     0
102
RTVSPropertyOp11
 70
     0
102
RTVSPropertyOp12
 70
     0
102
RTVSPropertyOp13
 70
     0
102
RTVSPropertyOp14
 70
     2
102
RTVSPropertyOp15
 70
     0
102
RTVSPropertyOp16
 70
     0
102
RTVSPropertyOp17
 70
     0
102
RTVSPropertyOp18
 70
     0
102
RTVSPropertyOp19
 70
     0
102
RTVSPropertyOp20
 70
     0
102
RTVSPropertyOp21
 70
     0
102
RTVSPropertyOp22
 70
     0
102
RTVSPropertyOp23
 70
     0
102
RTVSPropertyOp24
 70
     0
102
RTVSPropertyOp25
 70
     0
102
RTVSPropertyOp26
 70
     0
102
RTVSPropertyOp27
 70
     0
102
RTVSPropertyOp28
 70
     0
102
RTVSPropertyOp29
 70
     0
102
RTVSPropertyOp30
 70
     0
102
RTVSPropertyOp31
 70
     0
102
RTVSPropertyOp32
 70
     0
102
RTVSPropertyOp33
 70
     0
102
RTVSPropertyOp34
 70
     0
102
RTVSPropertyOp35
 70
     0
102
RTVSPropertyOp36
 70
     0
102
RTVSPropertyOp37
 70
     0
102
RTVSPropertyOp38
 70
     0
102
RTVSPropertyOp39
 70
     0
102
RTVSPropertyOp40
 70
     0
102
RTVSPropertyOp41
 70
     0
102
RTVSPropertyOp42
 70
     0
102
RTVSPropertyOp43
 70
     0
102
RTVSPropertyOp44
 70
     0
102
RTVSPropertyOp45
 70
     0
102
RTVSPropertyOp46
 70
     0
102
RTVSPropertyOp47
 70
     0
102
RTVSPropertyOp48
 70
     0
102
RTVSPropertyOp49
 70
     0
102
RTVSPropertyOp50
 70
     0
102
RTVSPropertyOp51
 70
     0
102
RTVSPropertyOp52
 70
     0
102
RTVSPropertyOp53
 70
     0
102
RTVSPropertyOp54
 70
     0
102
RTVSPropertyOp55
 70
     0
102
RTVSPropertyOp56
 70
     0
102
RTVSPropertyOp57
 70
     0
102
RTVSPost2010Prop28
280
     0
102
RTVSPost2010PropOp28
 70
     0
102
RTVSPost2010Prop29
280
     1
102
RTVSPost2010PropOp29
 70
     0
102
RTVSPost2010Prop30
280
     1
102
RTVSPost2010PropOp30
 70
     0
102
RTVSPost2010Prop31
280
     0
102
RTVSPost2010PropOp31
 70
     0
102
RTVSPost2010Prop32
280
     0
102
RTVSPost2010PropOp32
 70
     0
102
RTVSPost2010Prop33
280
     0
102
RTVSPost2010PropOp33
 70
     0
102
RTVSPost2010Prop34
280
     0
102
RTVSPost2010PropOp34
 70
     0
102
RTVSPost2010Prop35
280
     0
102
RTVSPost2010PropOp35
 70
     0
102
RTVSPost2010Prop36
280
     0
102
RTVSPost2010PropOp36
 70
     0
102
RTVSPost2010Prop37
 90
       50
102
RTVSPost2010PropOp37
 70
     0
102
RTVSPost2010Prop38
140
0.0
102
RTVSPost2010PropOp38
 70
     0
102
RTVSPost2010Prop39
140
1.0
102
RTVSPost2010PropOp39
 70
     0
102
RTVSPost2010Prop40
 90
        0
102
RTVSPost2010PropOp40
 70
     0
102
RTVSPost2010Prop41ColorIndex
 90
       18
102
RTVSPost2010Prop41ColorRGB
 90
        0
102
RTVSPost2010PropOp41
 70
     0
102
RTVSPost2010Prop42
 90
       50
102
RTVSPost2010PropOp42
 70
     0
102
RTVSPost2010Prop43
 90
        3
102
RTVSPost2010PropOp43
 70
     0
102
RTVSPost2010Prop44ColorIndex
 90
        5
102
RTVSPost2010Prop44ColorRGB
 90
      255
102
RTVSPost2010PropOp44
 70
     0
102
RTVSPost2010Prop45
280
     0
102
RTVSPost2010PropOp45
 70
     0
102
RTVSPost2010Prop46
 90
       50
102
RTVSPost2010PropOp46
 70
     0
102
RTVSPost2010Prop47
 90
       50
102
RTVSPost2010PropOp47
 70
     0
102
RTVSPost2010Prop48
 90
       50
102
RTVSPost2010PropOp48
 70
     0
102
RTVSPost2010Prop49
280
     0
102
RTVSPost2010PropOp49
 70
     0
102
RTVSPost2010Prop50
 90
       50
102
RTVSPost2010PropOp50
 70
     0
102
RTVSPost2010Prop51ColorIndex
 90
      256
102
RTVSPost2010Prop51ColorRGB
 90
-16777216
102
RTVSPost2010PropOp51
 70
     0
102
RTVSPost2010Prop52
140
1.0
102
RTVSPost2010PropOp52
 70
     0
102
RTVSPost2010Prop53
 90
        2
102
RTVSPost2010PropOp53
 70
     0
102
RTVSPost2010Prop54
  1
strokes_ogs.tif
102
RTVSPost2010PropOp54
 70
     0
102
RTVSPost2010Prop55
280
     0
102
RTVSPost2010PropOp55
 70
     0
102
RTVSPost2010Prop56
140
1.0
102
RTVSPost2010PropOp56
 70
     0
102
RTVSPost2010Prop57
140
1.0
102
RTVSPost2010PropOp57
 70
     0
  0
XRECORD
  5
272
102
{ACAD_REACTORS
330
271
102
}
330
271
100
AcDbXrecord
280
     1
102
RTVSPropertyOp0
 70
     1
102
RTVSPropertyOp1
 70
     1
102
RTVSPropertyOp2
 70
     1
102
RTVSPropertyOp3
 70
     1
102
RTVSPropertyOp4
 70
     1
102
RTVSPropertyOp5
 70
     1
102
RTVSPropertyOp6
 70
     1
102
RTVSPropertyOp7
 70
     1
102
RTVSPropertyOp8
 70
     1
102
RTVSPropertyOp9
 70
     1
102
RTVSPropertyOp10
 70
     1
102
RTVSPropertyOp11
 70
     1
102
RTVSPropertyOp12
 70
     1
102
RTVSPropertyOp13
 70
     1
102
RTVSPropertyOp14
 70
     1
102
RTVSPropertyOp15
 70
     1
102
RTVSPropertyOp16
 70
     1
102
RTVSPropertyOp17
 70
     1
102
RTVSPropertyOp18
 70
     1
102
RTVSPropertyOp19
 70
     1
102
RTVSPropertyOp20
 70
     1
102
RTVSPropertyOp21
 70
     1
102
RTVSPropertyOp22
 70
     1
102
RTVSPropertyOp23
 70
     1
102
RTVSPropertyOp24
 70
     1
102
RTVSPropertyOp25
 70
     1
102
RTVSPropertyOp26
 70
     1
102
RTVSPropertyOp27
 70
     1
102
RTVSPropertyOp28
 70
     1
102
RTVSPropertyOp29
 70
     1
102
RTVSPropertyOp30
 70
     1
102
RTVSPropertyOp31
 70
     1
102
RTVSPropertyOp32
 70
     1
102
RTVSPropertyOp33
 70
     1
102
RTVSPropertyOp34
 70
     1
102
RTVSPropertyOp35
 70
     1
102
RTVSPropertyOp36
 70
     1
102
RTVSPropertyOp37
 70
     1
102
RTVSPropertyOp38
 70
     1
102
RTVSPropertyOp39
 70
     1
102
RTVSPropertyOp40
 70
     1
102
RTVSPropertyOp41
 70
     1
102
RTVSPropertyOp42
 70
     1
102
RTVSPropertyOp43
 70
     1
102
RTVSPropertyOp44
 70
     1
102
RTVSPropertyOp45
 70
     1
102
RTVSPropertyOp46
 70
     1
102
RTVSPropertyOp47
 70
     1
102
RTVSPropertyOp48
 70
     1
102
RTVSPropertyOp49
 70
     1
102
RTVSPropertyOp50
 70
     1
102
RTVSPropertyOp51
 70
     0
102
RTVSPropertyOp52
 70
     0
102
RTVSPropertyOp53
 70
     1
102
RTVSPropertyOp54
 70
     1
102
RTVSPropertyOp55
 70
     1
102
RTVSPropertyOp56
 70
     1
102
RTVSPropertyOp57
 70
     1
102
RTVSPost2010Prop28
280
     0
102
RTVSPost2010PropOp28
 70
     1
102
RTVSPost2010Prop29
280
     1
102
RTVSPost2010PropOp29
 70
     1
102
RTVSPost2010Prop30
280
     1
102
RTVSPost2010PropOp30
 70
     1
102
RTVSPost2010Prop31
280
     0
102
RTVSPost2010PropOp31
 70
     1
102
RTVSPost2010Prop32
280
     0
102
RTVSPost2010PropOp32
 70
     1
102
RTVSPost2010Prop33
280
     0
102
RTVSPost2010PropOp33
 70
     1
102
RTVSPost2010Prop34
280
     0
102
RTVSPost2010PropOp34
 70
     1
102
RTVSPost2010Prop35
280
     0
102
RTVSPost2010PropOp35
 70
     1
102
RTVSPost2010Prop36
280
     0
102
RTVSPost2010PropOp36
 70
     1
102
RTVSPost2010Prop37
 90
       50
102
RTVSPost2010PropOp37
 70
     1
102
RTVSPost2010Prop38
140
0.0
102
RTVSPost2010PropOp38
 70
     1
102
RTVSPost2010Prop39
140
1.0
102
RTVSPost2010PropOp39
 70
     1
102
RTVSPost2010Prop40
 90
        0
102
RTVSPost2010PropOp40
 70
     1
102
RTVSPost2010Prop41ColorIndex
 90
       18
102
RTVSPost2010Prop41ColorRGB
 90
        0
102
RTVSPost2010PropOp41
 70
     1
102
RTVSPost2010Prop42
 90
       50
102
RTVSPost2010PropOp42
 70
     1
102
RTVSPost2010Prop43
 90
        3
102
RTVSPost2010PropOp43
 70
     1
102
RTVSPost2010Prop44ColorIndex
 90
        5
102
RTVSPost2010Prop44ColorRGB
 90
      255
102
RTVSPost2010PropOp44
 70
     1
102
RTVSPost2010Prop45
280
     0
102
RTVSPost2010PropOp45
 70
     1
102
RTVSPost2010Prop46
 90
       50
102
RTVSPost2010PropOp46
 70
     1
102
RTVSPost2010Prop47
 90
       50
102
RTVSPost2010PropOp47
 70
     1
102
RTVSPost2010Prop48
 90
       50
102
RTVSPost2010PropOp48
 70
     1
102
RTVSPost2010Prop49
280
     0
102
RTVSPost2010PropOp49
 70
     1
102
RTVSPost2010Prop50
 90
       50
102
RTVSPost2010PropOp50
 70
     1
102
RTVSPost2010Prop51ColorIndex
 90
      256
102
RTVSPost2010Prop51ColorRGB
 90
-16777216
102
RTVSPost2010PropOp51
 70
     0
102
RTVSPost2010Prop52
140
1.0
102
RTVSPost2010PropOp52
 70
     0
102
RTVSPost2010Prop53
 90
        2
102
RTVSPost2010PropOp53
 70
     1
102
RTVSPost2010Prop54
  1
strokes_ogs.tif
102
RTVSPost2010PropOp54
 70
     1
102
RTVSPost2010Prop55
280
     0
102
RTVSPost2010PropOp55
 70
     1
102
RTVSPost2010Prop56
140
1.0
102
RTVSPost2010PropOp56
 70
     1
102
RTVSPost2010Prop57
140
1.0
102
RTVSPost2010PropOp57
 70
     1
  0
XRECORD
  5
290
102
{ACAD_REACTORS
330
28F
102
}
330
28F
100
AcDbXrecord
280
     1
102
RTVSPropertyOp0
 70
     1
102
RTVSPropertyOp1
 70
     1
102
RTVSPropertyOp2
 70
     1
102
RTVSPropertyOp3
 70
     1
102
RTVSPropertyOp4
 70
     1
102
RTVSPropertyOp5
 70
     1
102
RTVSPropertyOp6
 70
     1
102
RTVSPropertyOp7
 70
     1
102
RTVSPropertyOp8
 70
     1
102
RTVSPropertyOp9
 70
     1
102
RTVSPropertyOp10
 70
     1
102
RTVSPropertyOp11
 70
     1
102
RTVSPropertyOp12
 70
     1
102
RTVSPropertyOp13
 70
     1
102
RTVSPropertyOp14
 70
     1
102
RTVSPropertyOp15
 70
     1
102
RTVSPropertyOp16
 70
     1
102
RTVSPropertyOp17
 70
     1
102
RTVSPropertyOp18
 70
     1
102
RTVSPropertyOp19
 70
     1
102
RTVSPropertyOp20
 70
     1
102
RTVSPropertyOp21
 70
     1
102
RTVSPropertyOp22
 70
     1
102
RTVSPropertyOp23
 70
     1
102
RTVSPropertyOp24
 70
     1
102
RTVSPropertyOp25
 70
     1
102
RTVSPropertyOp26
 70
     1
102
RTVSPropertyOp27
 70
     1
102
RTVSPropertyOp28
 70
     1
102
RTVSPropertyOp29
 70
     1
102
RTVSPropertyOp30
 70
     1
102
RTVSPropertyOp31
 70
     1
102
RTVSPropertyOp32
 70
     1
102
RTVSPropertyOp33
 70
     1
102
RTVSPropertyOp34
 70
     1
102
RTVSPropertyOp35
 70
     1
102
RTVSPropertyOp36
 70
     1
102
RTVSPropertyOp37
 70
     1
102
RTVSPropertyOp38
 70
     1
102
RTVSPropertyOp39
 70
     1
102
RTVSPropertyOp40
 70
     1
102
RTVSPropertyOp41
 70
     1
102
RTVSPropertyOp42
 70
     1
102
RTVSPropertyOp43
 70
     1
102
RTVSPropertyOp44
 70
     1
102
RTVSPropertyOp45
 70
     1
102
RTVSPropertyOp46
 70
     1
102
RTVSPropertyOp47
 70
     1
102
RTVSPropertyOp48
 70
     1
102
RTVSPropertyOp49
 70
     1
102
RTVSPropertyOp50
 70
     1
102
RTVSPropertyOp51
 70
     0
102
RTVSPropertyOp52
 70
     0
102
RTVSPropertyOp53
 70
     1
102
RTVSPropertyOp54
 70
     1
102
RTVSPropertyOp55
 70
     1
102
RTVSPropertyOp56
 70
     1
102
RTVSPropertyOp57
 70
     1
102
RTVSPost2010Prop28
280
     0
102
RTVSPost2010PropOp28
 70
     1
102
RTVSPost2010Prop29
280
     1
102
RTVSPost2010PropOp29
 70
     1
102
RTVSPost2010Prop30
280
     1
102
RTVSPost2010PropOp30
 70
     1
102
RTVSPost2010Prop31
280
     0
102
RTVSPost2010PropOp31
 70
     1
102
RTVSPost2010Prop32
280
     0
102
RTVSPost2010PropOp32
 70
     1
102
RTVSPost2010Prop33
280
     0
102
RTVSPost2010PropOp33
 70
     1
102
RTVSPost2010Prop34
280
     0
102
RTVSPost2010PropOp34
 70
     1
102
RTVSPost2010Prop35
280
     0
102
RTVSPost2010PropOp35
 70
     1
102
RTVSPost2010Prop36
280
     0
102
RTVSPost2010PropOp36
 70
     1
102
RTVSPost2010Prop37
 90
       50
102
RTVSPost2010PropOp37
 70
     1
102
RTVSPost2010Prop38
140
0.0
102
RTVSPost2010PropOp38
 70
     1
102
RTVSPost2010Prop39
140
1.0
102
RTVSPost2010PropOp39
 70
     1
102
RTVSPost2010Prop40
 90
        0
102
RTVSPost2010PropOp40
 70
     1
102
RTVSPost2010Prop41ColorIndex
 90
       18
102
RTVSPost2010Prop41ColorRGB
 90
        0
102
RTVSPost2010PropOp41
 70
     1
102
RTVSPost2010Prop42
 90
       50
102
RTVSPost2010PropOp42
 70
     1
102
RTVSPost2010Prop43
 90
        3
102
RTVSPost2010PropOp43
 70
     1
102
RTVSPost2010Prop44ColorIndex
 90
        5
102
RTVSPost2010Prop44ColorRGB
 90
      255
102
RTVSPost2010PropOp44
 70
     1
102
RTVSPost2010Prop45
280
     0
102
RTVSPost2010PropOp45
 70
     1
102
RTVSPost2010Prop46
 90
       50
102
RTVSPost2010PropOp46
 70
     1
102
RTVSPost2010Prop47
 90
       50
102
RTVSPost2010PropOp47
 70
     1
102
RTVSPost2010Prop48
 90
       50
102
RTVSPost2010PropOp48
 70
     1
102
RTVSPost2010Prop49
280
     0
102
RTVSPost2010PropOp49
 70
     1
102
RTVSPost2010Prop50
 90
       50
102
RTVSPost2010PropOp50
 70
     1
102
RTVSPost2010Prop51ColorIndex
 90
      256
102
RTVSPost2010Prop51ColorRGB
 90
-16777216
102
RTVSPost2010PropOp51
 70
     0
102
RTVSPost2010Prop52
140
1.0
102
RTVSPost2010PropOp52
 70
     0
102
RTVSPost2010Prop53
 90
        2
102
RTVSPost2010PropOp53
 70
     1
102
RTVSPost2010Prop54
  1
strokes_ogs.tif
102
RTVSPost2010PropOp54
 70
     1
102
RTVSPost2010Prop55
280
     0
102
RTVSPost2010PropOp55
 70
     1
102
RTVSPost2010Prop56
140
1.0
102
RTVSPost2010PropOp56
 70
     1
102
RTVSPost2010Prop57
140
1.0
102
RTVSPost2010PropOp57
 70
     1
  0
XRECORD
  5
28E
102
{ACAD_REACTORS
330
28D
102
}
330
28D
100
AcDbXrecord
280
     1
102
RTVSPropertyOp0
 70
     1
102
RTVSPropertyOp1
 70
     1
102
RTVSPropertyOp2
 70
     1
102
RTVSPropertyOp3
 70
     1
102
RTVSPropertyOp4
 70
     1
102
RTVSPropertyOp5
 70
     1
102
RTVSPropertyOp6
 70
     1
102
RTVSPropertyOp7
 70
     1
102
RTVSPropertyOp8
 70
     1
102
RTVSPropertyOp9
 70
     1
102
RTVSPropertyOp10
 70
     1
102
RTVSPropertyOp11
 70
     1
102
RTVSPropertyOp12
 70
     1
102
RTVSPropertyOp13
 70
     1
102
RTVSPropertyOp14
 70
     1
102
RTVSPropertyOp15
 70
     1
102
RTVSPropertyOp16
 70
     1
102
RTVSPropertyOp17
 70
     1
102
RTVSPropertyOp18
 70
     1
102
RTVSPropertyOp19
 70
     1
102
RTVSPropertyOp20
 70
     1
102
RTVSPropertyOp21
 70
     1
102
RTVSPropertyOp22
 70
     1
102
RTVSPropertyOp23
 70
     1
102
RTVSPropertyOp24
 70
     1
102
RTVSPropertyOp25
 70
     1
102
RTVSPropertyOp26
 70
     1
102
RTVSPropertyOp27
 70
     1
102
RTVSPropertyOp28
 70
     1
102
RTVSPropertyOp29
 70
     1
102
RTVSPropertyOp30
 70
     1
102
RTVSPropertyOp31
 70
     1
102
RTVSPropertyOp32
 70
     1
102
RTVSPropertyOp33
 70
     1
102
RTVSPropertyOp34
 70
     1
102
RTVSPropertyOp35
 70
     1
102
RTVSPropertyOp36
 70
     1
102
RTVSPropertyOp37
 70
     1
102
RTVSPropertyOp38
 70
     1
102
RTVSPropertyOp39
 70
     1
102
RTVSPropertyOp40
 70
     1
102
RTVSPropertyOp41
 70
     1
102
RTVSPropertyOp42
 70
     1
102
RTVSPropertyOp43
 70
     1
102
RTVSPropertyOp44
 70
     1
102
RTVSPropertyOp45
 70
     1
102
RTVSPropertyOp46
 70
     1
102
RTVSPropertyOp47
 70
     1
102
RTVSPropertyOp48
 70
     1
102
RTVSPropertyOp49
 70
     1
102
RTVSPropertyOp50
 70
     1
102
RTVSPropertyOp51
 70
     0
102
RTVSPropertyOp52
 70
     0
102
RTVSPropertyOp53
 70
     1
102
RTVSPropertyOp54
 70
     1
102
RTVSPropertyOp55
 70
     1
102
RTVSPropertyOp56
 70
     1
102
RTVSPropertyOp57
 70
     1
102
RTVSPost2010Prop28
280
     0
102
RTVSPost2010PropOp28
 70
     1
102
RTVSPost2010Prop29
280
     1
102
RTVSPost2010PropOp29
 70
     1
102
RTVSPost2010Prop30
280
     1
102
RTVSPost2010PropOp30
 70
     1
102
RTVSPost2010Prop31
280
     0
102
RTVSPost2010PropOp31
 70
     1
102
RTVSPost2010Prop32
280
     0
102
RTVSPost2010PropOp32
 70
     1
102
RTVSPost2010Prop33
280
     0
102
RTVSPost2010PropOp33
 70
     1
102
RTVSPost2010Prop34
280
     0
102
RTVSPost2010PropOp34
 70
     1
102
RTVSPost2010Prop35
280
     0
102
RTVSPost2010PropOp35
 70
     1
102
RTVSPost2010Prop36
280
     0
102
RTVSPost2010PropOp36
 70
     1
102
RTVSPost2010Prop37
 90
       50
102
RTVSPost2010PropOp37
 70
     1
102
RTVSPost2010Prop38
140
0.0
102
RTVSPost2010PropOp38
 70
     1
102
RTVSPost2010Prop39
140
1.0
102
RTVSPost2010PropOp39
 70
     1
102
RTVSPost2010Prop40
 90
        0
102
RTVSPost2010PropOp40
 70
     1
102
RTVSPost2010Prop41ColorIndex
 90
       18
102
RTVSPost2010Prop41ColorRGB
 90
        0
102
RTVSPost2010PropOp41
 70
     1
102
RTVSPost2010Prop42
 90
       50
102
RTVSPost2010PropOp42
 70
     1
102
RTVSPost2010Prop43
 90
        3
102
RTVSPost2010PropOp43
 70
     1
102
RTVSPost2010Prop44ColorIndex
 90
        5
102
RTVSPost2010Prop44ColorRGB
 90
      255
102
RTVSPost2010PropOp44
 70
     1
102
RTVSPost2010Prop45
280
     0
102
RTVSPost2010PropOp45
 70
     1
102
RTVSPost2010Prop46
 90
       50
102
RTVSPost2010PropOp46
 70
     1
102
RTVSPost2010Prop47
 90
       50
102
RTVSPost2010PropOp47
 70
     1
102
RTVSPost2010Prop48
 90
       50
102
RTVSPost2010PropOp48
 70
     1
102
RTVSPost2010Prop49
280
     0
102
RTVSPost2010PropOp49
 70
     1
102
RTVSPost2010Prop50
 90
       50
102
RTVSPost2010PropOp50
 70
     1
102
RTVSPost2010Prop51ColorIndex
 90
      256
102
RTVSPost2010Prop51ColorRGB
 90
-16777216
102
RTVSPost2010PropOp51
 70
     0
102
RTVSPost2010Prop52
140
1.0
102
RTVSPost2010PropOp52
 70
     0
102
RTVSPost2010Prop53
 90
        2
102
RTVSPost2010PropOp53
 70
     1
102
RTVSPost2010Prop54
  1
strokes_ogs.tif
102
RTVSPost2010PropOp54
 70
     1
102
RTVSPost2010Prop55
280
     0
102
RTVSPost2010PropOp55
 70
     1
102
RTVSPost2010Prop56
140
1.0
102
RTVSPost2010PropOp56
 70
     1
102
RTVSPost2010Prop57
140
1.0
102
RTVSPost2010PropOp57
 70
     1
  0
XRECORD
  5
288
102
{ACAD_REACTORS
330
287
102
}
330
287
100
AcDbXrecord
280
     1
102
RTVSPropertyOp0
 70
     1
102
RTVSPropertyOp1
 70
     1
102
RTVSPropertyOp2
 70
     1
102
RTVSPropertyOp3
 70
     1
102
RTVSPropertyOp4
 70
     1
102
RTVSPropertyOp5
 70
     1
102
RTVSPropertyOp6
 70
     1
102
RTVSPropertyOp7
 70
     1
102
RTVSPropertyOp8
 70
     1
102
RTVSPropertyOp9
 70
     1
102
RTVSPropertyOp10
 70
     1
102
RTVSPropertyOp11
 70
     1
102
RTVSPropertyOp12
 70
     1
102
RTVSPropertyOp13
 70
     1
102
RTVSPropertyOp14
 70
     1
102
RTVSPropertyOp15
 70
     1
102
RTVSPropertyOp16
 70
     1
102
RTVSPropertyOp17
 70
     1
102
RTVSPropertyOp18
 70
     1
102
RTVSPropertyOp19
 70
     1
102
RTVSPropertyOp20
 70
     1
102
RTVSPropertyOp21
 70
     1
102
RTVSPropertyOp22
 70
     1
102
RTVSPropertyOp23
 70
     1
102
RTVSPropertyOp24
 70
     1
102
RTVSPropertyOp25
 70
     1
102
RTVSPropertyOp26
 70
     1
102
RTVSPropertyOp27
 70
     1
102
RTVSPropertyOp28
 70
     1
102
RTVSPropertyOp29
 70
     1
102
RTVSPropertyOp30
 70
     1
102
RTVSPropertyOp31
 70
     1
102
RTVSPropertyOp32
 70
     1
102
RTVSPropertyOp33
 70
     1
102
RTVSPropertyOp34
 70
     1
102
RTVSPropertyOp35
 70
     1
102
RTVSPropertyOp36
 70
     1
102
RTVSPropertyOp37
 70
     1
102
RTVSPropertyOp38
 70
     1
102
RTVSPropertyOp39
 70
     1
102
RTVSPropertyOp40
 70
     1
102
RTVSPropertyOp41
 70
     1
102
RTVSPropertyOp42
 70
     1
102
RTVSPropertyOp43
 70
     1
102
RTVSPropertyOp44
 70
     1
102
RTVSPropertyOp45
 70
     1
102
RTVSPropertyOp46
 70
     1
102
RTVSPropertyOp47
 70
     1
102
RTVSPropertyOp48
 70
     1
102
RTVSPropertyOp49
 70
     1
102
RTVSPropertyOp50
 70
     1
102
RTVSPropertyOp51
 70
     0
102
RTVSPropertyOp52
 70
     0
102
RTVSPropertyOp53
 70
     1
102
RTVSPropertyOp54
 70
     1
102
RTVSPropertyOp55
 70
     1
102
RTVSPropertyOp56
 70
     1
102
RTVSPropertyOp57
 70
     1
102
RTVSPost2010Prop28
280
     0
102
RTVSPost2010PropOp28
 70
     1
102
RTVSPost2010Prop29
280
     1
102
RTVSPost2010PropOp29
 70
     1
102
RTVSPost2010Prop30
280
     1
102
RTVSPost2010PropOp30
 70
     1
102
RTVSPost2010Prop31
280
     0
102
RTVSPost2010PropOp31
 70
     1
102
RTVSPost2010Prop32
280
     0
102
RTVSPost2010PropOp32
 70
     1
102
RTVSPost2010Prop33
280
     0
102
RTVSPost2010PropOp33
 70
     1
102
RTVSPost2010Prop34
280
     0
102
RTVSPost2010PropOp34
 70
     1
102
RTVSPost2010Prop35
280
     0
102
RTVSPost2010PropOp35
 70
     1
102
RTVSPost2010Prop36
280
     0
102
RTVSPost2010PropOp36
 70
     1
102
RTVSPost2010Prop37
 90
       50
102
RTVSPost2010PropOp37
 70
     1
102
RTVSPost2010Prop38
140
0.0
102
RTVSPost2010PropOp38
 70
     1
102
RTVSPost2010Prop39
140
1.0
102
RTVSPost2010PropOp39
 70
     1
102
RTVSPost2010Prop40
 90
        0
102
RTVSPost2010PropOp40
 70
     1
102
RTVSPost2010Prop41ColorIndex
 90
       18
102
RTVSPost2010Prop41ColorRGB
 90
        0
102
RTVSPost2010PropOp41
 70
     1
102
RTVSPost2010Prop42
 90
       50
102
RTVSPost2010PropOp42
 70
     1
102
RTVSPost2010Prop43
 90
        3
102
RTVSPost2010PropOp43
 70
     1
102
RTVSPost2010Prop44ColorIndex
 90
        5
102
RTVSPost2010Prop44ColorRGB
 90
      255
102
RTVSPost2010PropOp44
 70
     1
102
RTVSPost2010Prop45
280
     0
102
RTVSPost2010PropOp45
 70
     1
102
RTVSPost2010Prop46
 90
       50
102
RTVSPost2010PropOp46
 70
     1
102
RTVSPost2010Prop47
 90
       50
102
RTVSPost2010PropOp47
 70
     1
102
RTVSPost2010Prop48
 90
       50
102
RTVSPost2010PropOp48
 70
     1
102
RTVSPost2010Prop49
280
     0
102
RTVSPost2010PropOp49
 70
     1
102
RTVSPost2010Prop50
 90
       50
102
RTVSPost2010PropOp50
 70
     1
102
RTVSPost2010Prop51ColorIndex
 90
      256
102
RTVSPost2010Prop51ColorRGB
 90
-16777216
102
RTVSPost2010PropOp51
 70
     0
102
RTVSPost2010Prop52
140
1.0
102
RTVSPost2010PropOp52
 70
     0
102
RTVSPost2010Prop53
 90
        2
102
RTVSPost2010PropOp53
 70
     1
102
RTVSPost2010Prop54
  1
strokes_ogs.tif
102
RTVSPost2010PropOp54
 70
     1
102
RTVSPost2010Prop55
280
     0
102
RTVSPost2010PropOp55
 70
     1
102
RTVSPost2010Prop56
140
1.0
102
RTVSPost2010PropOp56
 70
     1
102
RTVSPost2010Prop57
140
1.0
102
RTVSPost2010PropOp57
 70
     1
  0
XRECORD
  5
28A
102
{ACAD_REACTORS
330
289
102
}
330
289
100
AcDbXrecord
280
     1
102
RTVSPropertyOp0
 70
     1
102
RTVSPropertyOp1
 70
     1
102
RTVSPropertyOp2
 70
     1
102
RTVSPropertyOp3
 70
     1
102
RTVSPropertyOp4
 70
     1
102
RTVSPropertyOp5
 70
     1
102
RTVSPropertyOp6
 70
     1
102
RTVSPropertyOp7
 70
     1
102
RTVSPropertyOp8
 70
     1
102
RTVSPropertyOp9
 70
     1
102
RTVSPropertyOp10
 70
     1
102
RTVSPropertyOp11
 70
     1
102
RTVSPropertyOp12
 70
     1
102
RTVSPropertyOp13
 70
     1
102
RTVSPropertyOp14
 70
     1
102
RTVSPropertyOp15
 70
     1
102
RTVSPropertyOp16
 70
     1
102
RTVSPropertyOp17
 70
     1
102
RTVSPropertyOp18
 70
     1
102
RTVSPropertyOp19
 70
     1
102
RTVSPropertyOp20
 70
     1
102
RTVSPropertyOp21
 70
     1
102
RTVSPropertyOp22
 70
     1
102
RTVSPropertyOp23
 70
     1
102
RTVSPropertyOp24
 70
     1
102
RTVSPropertyOp25
 70
     1
102
RTVSPropertyOp26
 70
     1
102
RTVSPropertyOp27
 70
     1
102
RTVSPropertyOp28
 70
     1
102
RTVSPropertyOp29
 70
     1
102
RTVSPropertyOp30
 70
     1
102
RTVSPropertyOp31
 70
     1
102
RTVSPropertyOp32
 70
     1
102
RTVSPropertyOp33
 70
     1
102
RTVSPropertyOp34
 70
     1
102
RTVSPropertyOp35
 70
     1
102
RTVSPropertyOp36
 70
     1
102
RTVSPropertyOp37
 70
     1
102
RTVSPropertyOp38
 70
     1
102
RTVSPropertyOp39
 70
     1
102
RTVSPropertyOp40
 70
     1
102
RTVSPropertyOp41
 70
     1
102
RTVSPropertyOp42
 70
     1
102
RTVSPropertyOp43
 70
     1
102
RTVSPropertyOp44
 70
     1
102
RTVSPropertyOp45
 70
     1
102
RTVSPropertyOp46
 70
     1
102
RTVSPropertyOp47
 70
     1
102
RTVSPropertyOp48
 70
     1
102
RTVSPropertyOp49
 70
     1
102
RTVSPropertyOp50
 70
     1
102
RTVSPropertyOp51
 70
     0
102
RTVSPropertyOp52
 70
     0
102
RTVSPropertyOp53
 70
     1
102
RTVSPropertyOp54
 70
     1
102
RTVSPropertyOp55
 70
     1
102
RTVSPropertyOp56
 70
     1
102
RTVSPropertyOp57
 70
     1
102
RTVSPost2010Prop28
280
     0
102
RTVSPost2010PropOp28
 70
     1
102
RTVSPost2010Prop29
280
     1
102
RTVSPost2010PropOp29
 70
     1
102
RTVSPost2010Prop30
280
     1
102
RTVSPost2010PropOp30
 70
     1
102
RTVSPost2010Prop31
280
     0
102
RTVSPost2010PropOp31
 70
     1
102
RTVSPost2010Prop32
280
     0
102
RTVSPost2010PropOp32
 70
     1
102
RTVSPost2010Prop33
280
     0
102
RTVSPost2010PropOp33
 70
     1
102
RTVSPost2010Prop34
280
     0
102
RTVSPost2010PropOp34
 70
     1
102
RTVSPost2010Prop35
280
     0
102
RTVSPost2010PropOp35
 70
     1
102
RTVSPost2010Prop36
280
     0
102
RTVSPost2010PropOp36
 70
     1
102
RTVSPost2010Prop37
 90
       50
102
RTVSPost2010PropOp37
 70
     1
102
RTVSPost2010Prop38
140
0.0
102
RTVSPost2010PropOp38
 70
     1
102
RTVSPost2010Prop39
140
1.0
102
RTVSPost2010PropOp39
 70
     1
102
RTVSPost2010Prop40
 90
        0
102
RTVSPost2010PropOp40
 70
     1
102
RTVSPost2010Prop41ColorIndex
 90
       18
102
RTVSPost2010Prop41ColorRGB
 90
        0
102
RTVSPost2010PropOp41
 70
     1
102
RTVSPost2010Prop42
 90
       50
102
RTVSPost2010PropOp42
 70
     1
102
RTVSPost2010Prop43
 90
        3
102
RTVSPost2010PropOp43
 70
     1
102
RTVSPost2010Prop44ColorIndex
 90
        5
102
RTVSPost2010Prop44ColorRGB
 90
      255
102
RTVSPost2010PropOp44
 70
     1
102
RTVSPost2010Prop45
280
     0
102
RTVSPost2010PropOp45
 70
     1
102
RTVSPost2010Prop46
 90
       50
102
RTVSPost2010PropOp46
 70
     1
102
RTVSPost2010Prop47
 90
       50
102
RTVSPost2010PropOp47
 70
     1
102
RTVSPost2010Prop48
 90
       50
102
RTVSPost2010PropOp48
 70
     1
102
RTVSPost2010Prop49
280
     0
102
RTVSPost2010PropOp49
 70
     1
102
RTVSPost2010Prop50
 90
       50
102
RTVSPost2010PropOp50
 70
     1
102
RTVSPost2010Prop51ColorIndex
 90
      256
102
RTVSPost2010Prop51ColorRGB
 90
-16777216
102
RTVSPost2010PropOp51
 70
     0
102
RTVSPost2010Prop52
140
1.0
102
RTVSPost2010PropOp52
 70
     0
102
RTVSPost2010Prop53
 90
        2
102
RTVSPost2010PropOp53
 70
     1
102
RTVSPost2010Prop54
  1
strokes_ogs.tif
102
RTVSPost2010PropOp54
 70
     1
102
RTVSPost2010Prop55
280
     0
102
RTVSPost2010PropOp55
 70
     1
102
RTVSPost2010Prop56
140
1.0
102
RTVSPost2010PropOp56
 70
     1
102
RTVSPost2010Prop57
140
1.0
102
RTVSPost2010PropOp57
 70
     1
  0
XRECORD
  5
27A
102
{ACAD_REACTORS
330
279
102
}
330
279
100
AcDbXrecord
280
     1
102
RTVSPropertyOp0
 70
     1
102
RTVSPropertyOp1
 70
     1
102
RTVSPropertyOp2
 70
     1
102
RTVSPropertyOp3
 70
     1
102
RTVSPropertyOp4
 70
     1
102
RTVSPropertyOp5
 70
     1
102
RTVSPropertyOp6
 70
     1
102
RTVSPropertyOp7
 70
     1
102
RTVSPropertyOp8
 70
     1
102
RTVSPropertyOp9
 70
     1
102
RTVSPropertyOp10
 70
     1
102
RTVSPropertyOp11
 70
     1
102
RTVSPropertyOp12
 70
     1
102
RTVSPropertyOp13
 70
     1
102
RTVSPropertyOp14
 70
     1
102
RTVSPropertyOp15
 70
     1
102
RTVSPropertyOp16
 70
     1
102
RTVSPropertyOp17
 70
     1
102
RTVSPropertyOp18
 70
     1
102
RTVSPropertyOp19
 70
     1
102
RTVSPropertyOp20
 70
     1
102
RTVSPropertyOp21
 70
     1
102
RTVSPropertyOp22
 70
     1
102
RTVSPropertyOp23
 70
     1
102
RTVSPropertyOp24
 70
     1
102
RTVSPropertyOp25
 70
     1
102
RTVSPropertyOp26
 70
     1
102
RTVSPropertyOp27
 70
     1
102
RTVSPropertyOp28
 70
     1
102
RTVSPropertyOp29
 70
     1
102
RTVSPropertyOp30
 70
     1
102
RTVSPropertyOp31
 70
     1
102
RTVSPropertyOp32
 70
     1
102
RTVSPropertyOp33
 70
     1
102
RTVSPropertyOp34
 70
     1
102
RTVSPropertyOp35
 70
     1
102
RTVSPropertyOp36
 70
     1
102
RTVSPropertyOp37
 70
     1
102
RTVSPropertyOp38
 70
     1
102
RTVSPropertyOp39
 70
     1
102
RTVSPropertyOp40
 70
     1
102
RTVSPropertyOp41
 70
     1
102
RTVSPropertyOp42
 70
     1
102
RTVSPropertyOp43
 70
     1
102
RTVSPropertyOp44
 70
     1
102
RTVSPropertyOp45
 70
     1
102
RTVSPropertyOp46
 70
     1
102
RTVSPropertyOp47
 70
     1
102
RTVSPropertyOp48
 70
     1
102
RTVSPropertyOp49
 70
     1
102
RTVSPropertyOp50
 70
     1
102
RTVSPropertyOp51
 70
     0
102
RTVSPropertyOp52
 70
     0
102
RTVSPropertyOp53
 70
     1
102
RTVSPropertyOp54
 70
     1
102
RTVSPropertyOp55
 70
     1
102
RTVSPropertyOp56
 70
     1
102
RTVSPropertyOp57
 70
     1
102
RTVSPost2010Prop28
280
     0
102
RTVSPost2010PropOp28
 70
     1
102
RTVSPost2010Prop29
280
     1
102
RTVSPost2010PropOp29
 70
     1
102
RTVSPost2010Prop30
280
     1
102
RTVSPost2010PropOp30
 70
     1
102
RTVSPost2010Prop31
280
     0
102
RTVSPost2010PropOp31
 70
     1
102
RTVSPost2010Prop32
280
     0
102
RTVSPost2010PropOp32
 70
     1
102
RTVSPost2010Prop33
280
     0
102
RTVSPost2010PropOp33
 70
     1
102
RTVSPost2010Prop34
280
     0
102
RTVSPost2010PropOp34
 70
     1
102
RTVSPost2010Prop35
280
     0
102
RTVSPost2010PropOp35
 70
     1
102
RTVSPost2010Prop36
280
     0
102
RTVSPost2010PropOp36
 70
     1
102
RTVSPost2010Prop37
 90
       50
102
RTVSPost2010PropOp37
 70
     1
102
RTVSPost2010Prop38
140
0.0
102
RTVSPost2010PropOp38
 70
     1
102
RTVSPost2010Prop39
140
1.0
102
RTVSPost2010PropOp39
 70
     1
102
RTVSPost2010Prop40
 90
        0
102
RTVSPost2010PropOp40
 70
     1
102
RTVSPost2010Prop41ColorIndex
 90
       18
102
RTVSPost2010Prop41ColorRGB
 90
        0
102
RTVSPost2010PropOp41
 70
     1
102
RTVSPost2010Prop42
 90
       50
102
RTVSPost2010PropOp42
 70
     1
102
RTVSPost2010Prop43
 90
        3
102
RTVSPost2010PropOp43
 70
     1
102
RTVSPost2010Prop44ColorIndex
 90
        5
102
RTVSPost2010Prop44ColorRGB
 90
      255
102
RTVSPost2010PropOp44
 70
     1
102
RTVSPost2010Prop45
280
     0
102
RTVSPost2010PropOp45
 70
     1
102
RTVSPost2010Prop46
 90
       50
102
RTVSPost2010PropOp46
 70
     1
102
RTVSPost2010Prop47
 90
       50
102
RTVSPost2010PropOp47
 70
     1
102
RTVSPost2010Prop48
 90
       50
102
RTVSPost2010PropOp48
 70
     1
102
RTVSPost2010Prop49
280
     0
102
RTVSPost2010PropOp49
 70
     1
102
RTVSPost2010Prop50
 90
       50
102
RTVSPost2010PropOp50
 70
     1
102
RTVSPost2010Prop51ColorIndex
 90
      256
102
RTVSPost2010Prop51ColorRGB
 90
-16777216
102
RTVSPost2010PropOp51
 70
     0
102
RTVSPost2010Prop52
140
1.0
102
RTVSPost2010PropOp52
 70
     0
102
RTVSPost2010Prop53
 90
        2
102
RTVSPost2010PropOp53
 70
     1
102
RTVSPost2010Prop54
  1
strokes_ogs.tif
102
RTVSPost2010PropOp54
 70
     1
102
RTVSPost2010Prop55
280
     0
102
RTVSPost2010PropOp55
 70
     1
102
RTVSPost2010Prop56
140
1.0
102
RTVSPost2010PropOp56
 70
     1
102
RTVSPost2010Prop57
140
1.0
102
RTVSPost2010PropOp57
 70
     1
  0
XRECORD
  5
26C
102
{ACAD_REACTORS
330
26B
102
}
330
26B
100
AcDbXrecord
280
     1
102
RTVSPropertyOp0
 70
     1
102
RTVSPropertyOp1
 70
     1
102
RTVSPropertyOp2
 70
     1
102
RTVSPropertyOp3
 70
     1
102
RTVSPropertyOp4
 70
     1
102
RTVSPropertyOp5
 70
     1
102
RTVSPropertyOp6
 70
     1
102
RTVSPropertyOp7
 70
     1
102
RTVSPropertyOp8
 70
     1
102
RTVSPropertyOp9
 70
     1
102
RTVSPropertyOp10
 70
     1
102
RTVSPropertyOp11
 70
     1
102
RTVSPropertyOp12
 70
     1
102
RTVSPropertyOp13
 70
     1
102
RTVSPropertyOp14
 70
     1
102
RTVSPropertyOp15
 70
     1
102
RTVSPropertyOp16
 70
     1
102
RTVSPropertyOp17
 70
     1
102
RTVSPropertyOp18
 70
     1
102
RTVSPropertyOp19
 70
     1
102
RTVSPropertyOp20
 70
     1
102
RTVSPropertyOp21
 70
     1
102
RTVSPropertyOp22
 70
     1
102
RTVSPropertyOp23
 70
     1
102
RTVSPropertyOp24
 70
     1
102
RTVSPropertyOp25
 70
     1
102
RTVSPropertyOp26
 70
     1
102
RTVSPropertyOp27
 70
     1
102
RTVSPropertyOp28
 70
     1
102
RTVSPropertyOp29
 70
     1
102
RTVSPropertyOp30
 70
     1
102
RTVSPropertyOp31
 70
     1
102
RTVSPropertyOp32
 70
     1
102
RTVSPropertyOp33
 70
     1
102
RTVSPropertyOp34
 70
     1
102
RTVSPropertyOp35
 70
     1
102
RTVSPropertyOp36
 70
     1
102
RTVSPropertyOp37
 70
     1
102
RTVSPropertyOp38
 70
     1
102
RTVSPropertyOp39
 70
     1
102
RTVSPropertyOp40
 70
     1
102
RTVSPropertyOp41
 70
     1
102
RTVSPropertyOp42
 70
     1
102
RTVSPropertyOp43
 70
     1
102
RTVSPropertyOp44
 70
     1
102
RTVSPropertyOp45
 70
     1
102
RTVSPropertyOp46
 70
     1
102
RTVSPropertyOp47
 70
     1
102
RTVSPropertyOp48
 70
     1
102
RTVSPropertyOp49
 70
     1
102
RTVSPropertyOp50
 70
     1
102
RTVSPropertyOp51
 70
     0
102
RTVSPropertyOp52
 70
     0
102
RTVSPropertyOp53
 70
     1
102
RTVSPropertyOp54
 70
     1
102
RTVSPropertyOp55
 70
     1
102
RTVSPropertyOp56
 70
     1
102
RTVSPropertyOp57
 70
     1
102
RTVSPost2010Prop28
280
     0
102
RTVSPost2010PropOp28
 70
     1
102
RTVSPost2010Prop29
280
     1
102
RTVSPost2010PropOp29
 70
     1
102
RTVSPost2010Prop30
280
     1
102
RTVSPost2010PropOp30
 70
     1
102
RTVSPost2010Prop31
280
     0
102
RTVSPost2010PropOp31
 70
     1
102
RTVSPost2010Prop32
280
     0
102
RTVSPost2010PropOp32
 70
     1
102
RTVSPost2010Prop33
280
     0
102
RTVSPost2010PropOp33
 70
     1
102
RTVSPost2010Prop34
280
     0
102
RTVSPost2010PropOp34
 70
     1
102
RTVSPost2010Prop35
280
     0
102
RTVSPost2010PropOp35
 70
     1
102
RTVSPost2010Prop36
280
     0
102
RTVSPost2010PropOp36
 70
     1
102
RTVSPost2010Prop37
 90
       50
102
RTVSPost2010PropOp37
 70
     1
102
RTVSPost2010Prop38
140
0.0
102
RTVSPost2010PropOp38
 70
     1
102
RTVSPost2010Prop39
140
1.0
102
RTVSPost2010PropOp39
 70
     1
102
RTVSPost2010Prop40
 90
        0
102
RTVSPost2010PropOp40
 70
     1
102
RTVSPost2010Prop41ColorIndex
 90
       18
102
RTVSPost2010Prop41ColorRGB
 90
        0
102
RTVSPost2010PropOp41
 70
     1
102
RTVSPost2010Prop42
 90
       50
102
RTVSPost2010PropOp42
 70
     1
102
RTVSPost2010Prop43
 90
        3
102
RTVSPost2010PropOp43
 70
     1
102
RTVSPost2010Prop44ColorIndex
 90
        5
102
RTVSPost2010Prop44ColorRGB
 90
      255
102
RTVSPost2010PropOp44
 70
     1
102
RTVSPost2010Prop45
280
     0
102
RTVSPost2010PropOp45
 70
     1
102
RTVSPost2010Prop46
 90
       50
102
RTVSPost2010PropOp46
 70
     1
102
RTVSPost2010Prop47
 90
       50
102
RTVSPost2010PropOp47
 70
     1
102
RTVSPost2010Prop48
 90
       50
102
RTVSPost2010PropOp48
 70
     1
102
RTVSPost2010Prop49
280
     0
102
RTVSPost2010PropOp49
 70
     1
102
RTVSPost2010Prop50
 90
       50
102
RTVSPost2010PropOp50
 70
     1
102
RTVSPost2010Prop51ColorIndex
 90
      256
102
RTVSPost2010Prop51ColorRGB
 90
-16777216
102
RTVSPost2010PropOp51
 70
     0
102
RTVSPost2010Prop52
140
1.0
102
RTVSPost2010PropOp52
 70
     0
102
RTVSPost2010Prop53
 90
        2
102
RTVSPost2010PropOp53
 70
     1
102
RTVSPost2010Prop54
  1
strokes_ogs.tif
102
RTVSPost2010PropOp54
 70
     1
102
RTVSPost2010Prop55
280
     0
102
RTVSPost2010PropOp55
 70
     1
102
RTVSPost2010Prop56
140
1.0
102
RTVSPost2010PropOp56
 70
     1
102
RTVSPost2010Prop57
140
1.0
102
RTVSPost2010PropOp57
 70
     1
  0
XRECORD
  5
28C
102
{ACAD_REACTORS
330
28B
102
}
330
28B
100
AcDbXrecord
280
     1
102
RTVSPropertyOp0
 70
     1
102
RTVSPropertyOp1
 70
     1
102
RTVSPropertyOp2
 70
     1
102
RTVSPropertyOp3
 70
     1
102
RTVSPropertyOp4
 70
     1
102
RTVSPropertyOp5
 70
     1
102
RTVSPropertyOp6
 70
     1
102
RTVSPropertyOp7
 70
     1
102
RTVSPropertyOp8
 70
     1
102
RTVSPropertyOp9
 70
     1
102
RTVSPropertyOp10
 70
     1
102
RTVSPropertyOp11
 70
     1
102
RTVSPropertyOp12
 70
     1
102
RTVSPropertyOp13
 70
     1
102
RTVSPropertyOp14
 70
     1
102
RTVSPropertyOp15
 70
     1
102
RTVSPropertyOp16
 70
     1
102
RTVSPropertyOp17
 70
     1
102
RTVSPropertyOp18
 70
     1
102
RTVSPropertyOp19
 70
     1
102
RTVSPropertyOp20
 70
     1
102
RTVSPropertyOp21
 70
     1
102
RTVSPropertyOp22
 70
     1
102
RTVSPropertyOp23
 70
     1
102
RTVSPropertyOp24
 70
     1
102
RTVSPropertyOp25
 70
     1
102
RTVSPropertyOp26
 70
     1
102
RTVSPropertyOp27
 70
     1
102
RTVSPropertyOp28
 70
     1
102
RTVSPropertyOp29
 70
     1
102
RTVSPropertyOp30
 70
     1
102
RTVSPropertyOp31
 70
     1
102
RTVSPropertyOp32
 70
     1
102
RTVSPropertyOp33
 70
     1
102
RTVSPropertyOp34
 70
     1
102
RTVSPropertyOp35
 70
     1
102
RTVSPropertyOp36
 70
     1
102
RTVSPropertyOp37
 70
     1
102
RTVSPropertyOp38
 70
     1
102
RTVSPropertyOp39
 70
     1
102
RTVSPropertyOp40
 70
     1
102
RTVSPropertyOp41
 70
     1
102
RTVSPropertyOp42
 70
     1
102
RTVSPropertyOp43
 70
     1
102
RTVSPropertyOp44
 70
     1
102
RTVSPropertyOp45
 70
     1
102
RTVSPropertyOp46
 70
     1
102
RTVSPropertyOp47
 70
     1
102
RTVSPropertyOp48
 70
     1
102
RTVSPropertyOp49
 70
     1
102
RTVSPropertyOp50
 70
     1
102
RTVSPropertyOp51
 70
     0
102
RTVSPropertyOp52
 70
     0
102
RTVSPropertyOp53
 70
     1
102
RTVSPropertyOp54
 70
     1
102
RTVSPropertyOp55
 70
     1
102
RTVSPropertyOp56
 70
     1
102
RTVSPropertyOp57
 70
     1
102
RTVSPost2010Prop28
280
     0
102
RTVSPost2010PropOp28
 70
     1
102
RTVSPost2010Prop29
280
     1
102
RTVSPost2010PropOp29
 70
     1
102
RTVSPost2010Prop30
280
     1
102
RTVSPost2010PropOp30
 70
     1
102
RTVSPost2010Prop31
280
     0
102
RTVSPost2010PropOp31
 70
     1
102
RTVSPost2010Prop32
280
     0
102
RTVSPost2010PropOp32
 70
     1
102
RTVSPost2010Prop33
280
     0
102
RTVSPost2010PropOp33
 70
     1
102
RTVSPost2010Prop34
280
     0
102
RTVSPost2010PropOp34
 70
     1
102
RTVSPost2010Prop35
280
     0
102
RTVSPost2010PropOp35
 70
     1
102
RTVSPost2010Prop36
280
     0
102
RTVSPost2010PropOp36
 70
     1
102
RTVSPost2010Prop37
 90
       50
102
RTVSPost2010PropOp37
 70
     1
102
RTVSPost2010Prop38
140
0.0
102
RTVSPost2010PropOp38
 70
     1
102
RTVSPost2010Prop39
140
1.0
102
RTVSPost2010PropOp39
 70
     1
102
RTVSPost2010Prop40
 90
        0
102
RTVSPost2010PropOp40
 70
     1
102
RTVSPost2010Prop41ColorIndex
 90
       18
102
RTVSPost2010Prop41ColorRGB
 90
        0
102
RTVSPost2010PropOp41
 70
     1
102
RTVSPost2010Prop42
 90
       50
102
RTVSPost2010PropOp42
 70
     1
102
RTVSPost2010Prop43
 90
        3
102
RTVSPost2010PropOp43
 70
     1
102
RTVSPost2010Prop44ColorIndex
 90
        5
102
RTVSPost2010Prop44ColorRGB
 90
      255
102
RTVSPost2010PropOp44
 70
     1
102
RTVSPost2010Prop45
280
     0
102
RTVSPost2010PropOp45
 70
     1
102
RTVSPost2010Prop46
 90
       50
102
RTVSPost2010PropOp46
 70
     1
102
RTVSPost2010Prop47
 90
       50
102
RTVSPost2010PropOp47
 70
     1
102
RTVSPost2010Prop48
 90
       50
102
RTVSPost2010PropOp48
 70
     1
102
RTVSPost2010Prop49
280
     0
102
RTVSPost2010PropOp49
 70
     1
102
RTVSPost2010Prop50
 90
       50
102
RTVSPost2010PropOp50
 70
     1
102
RTVSPost2010Prop51ColorIndex
 90
      256
102
RTVSPost2010Prop51ColorRGB
 90
-16777216
102
RTVSPost2010PropOp51
 70
     0
102
RTVSPost2010Prop52
140
1.0
102
RTVSPost2010PropOp52
 70
     0
102
RTVSPost2010Prop53
 90
        2
102
RTVSPost2010PropOp53
 70
     1
102
RTVSPost2010Prop54
  1
strokes_ogs.tif
102
RTVSPost2010PropOp54
 70
     1
102
RTVSPost2010Prop55
280
     0
102
RTVSPost2010PropOp55
 70
     1
102
RTVSPost2010Prop56
140
1.0
102
RTVSPost2010PropOp56
 70
     1
102
RTVSPost2010Prop57
140
1.0
102
RTVSPost2010PropOp57
 70
     1
  0
ENDSEC
  0
EOF
