  0
SECTION
  2
HEADER
  9
$ACADVER
  1
AC1021
  9
$ACADMAINTVER
 70
    25
  9
$DWGCODEPAGE
  3
ANSI_1252
  9
$INSBASE
 10
0.0
 20
0.0
 30
0.0
  9
$EXTMIN
 10
0.0
 20
0.0
 30
0.0
  9
$EXTMAX
 10
420.0
 20
297.0
 30
0.0
  9
$LIMMIN
 10
0.0
 20
0.0
  9
$LIMMAX
 10
420.0
 20
297.0
  9
$ORTHOMODE
 70
     0
  9
$REGENMODE
 70
     1
  9
$FILLMODE
 70
     1
  9
$QTEXTMODE
 70
     0
  9
$MIRRTEXT
 70
     1
  9
$LTSCALE
 40
1.0
  9
$ATTMODE
 70
     1
  9
$TEXTSIZE
 40
2.5
  9
$TRACEWID
 40
1.0
  9
$TEXTSTYLE
  7
Standard
  9
$CLAYER
  8
0
  9
$CELTYPE
  6
ByLayer
  9
$CECOLOR
 62
   256
  9
$CELTSCALE
 40
1.0
  9
$DISPSILH
 70
     0
  9
$DIMSCALE
 40
1.0
  9
$DIMASZ
 40
2.5
  9
$DIMEXO
 40
0.625
  9
$DIMDLI
 40
3.75
  9
$DIMRND
 40
0.0
  9
$DIMDLE
 40
0.0
  9
$DIMEXE
 40
1.25
  9
$DIMTP
 40
0.0
  9
$DIMTM
 40
0.0
  9
$DIMTXT
 40
2.5
  9
$DIMCEN
 40
2.5
  9
$DIMTSZ
 40
0.0
  9
$DIMTOL
 70
     0
  9
$DIMLIM
 70
     0
  9
$DIMTIH
 70
     0
  9
$DIMTOH
 70
     0
  9
$DIMSE1
 70
     0
  9
$DIMSE2
 70
     0
  9
$DIMTAD
 70
     1
  9
$DIMZIN
 70
     8
  9
$DIMBLK
  1

  9
$DIMASO
 70
     1
  9
$DIMSHO
 70
     1
  9
$DIMPOST
  1

  9
$DIMAPOST
  1

  9
$DIMALT
 70
     0
  9
$DIMALTD
 70
     3
  9
$DIMALTF
 40
0.0393700787
  9
$DIMLFAC
 40
1.0
  9
$DIMTOFL
 70
     1
  9
$DIMTVP
 40
0.0
  9
$DIMTIX
 70
     0
  9
$DIMSOXD
 70
     0
  9
$DIMSAH
 70
     0
  9
$DIMBLK1
  1

  9
$DIMBLK2
  1

  9
$DIMSTYLE
  2
ISO-25
  9
$DIMCLRD
 70
     0
  9
$DIMCLRE
 70
     0
  9
$DIMCLRT
 70
     0
  9
$DIMTFAC
 40
1.0
  9
$DIMGAP
 40
0.625
  9
$DIMJUST
 70
     0
  9
$DIMSD1
 70
     0
  9
$DIMSD2
 70
     0
  9
$DIMTOLJ
 70
     0
  9
$DIMTZIN
 70
     8
  9
$DIMALTZ
 70
     0
  9
$DIMALTTZ
 70
     0
  9
$DIMUPT
 70
     0
  9
$DIMDEC
 70
     2
  9
$DIMTDEC
 70
     2
  9
$DIMALTU
 70
     2
  9
$DIMALTTD
 70
     3
  9
$DIMTXSTY
  7
Standard
  9
$DIMAUNIT
 70
     0
  9
$DIMADEC
 70
     0
  9
$DIMALTRND
 40
0.0
  9
$DIMAZIN
 70
     0
  9
$DIMDSEP
 70
    44
  9
$DIMATFIT
 70
     3
  9
$DIMFRAC
 70
     0
  9
$DIMLDRBLK
  1

  9
$DIMLUNIT
 70
     2
  9
$DIMLWD
 70
    -2
  9
$DIMLWE
 70
    -2
  9
$DIMTMOVE
 70
     0
  9
$DIMFXL
 40
1.0
  9
$DIMFXLON
 70
     0
  9
$DIMJOGANG
 40
0.7853981634
  9
$DIMTFILL
 70
     0
  9
$DIMTFILLCLR
 70
     0
  9
$DIMARCSYM
 70
     0
  9
$DIMLTYPE
  6

  9
$DIMLTEX1
  6

  9
$DIMLTEX2
  6

  9
$LUNITS
 70
     2
  9
$LUPREC
 70
     4
  9
$SKETCHINC
 40
1.0
  9
$FILLETRAD
 40
10.0
  9
$AUNITS
 70
     0
  9
$AUPREC
 70
     0
  9
$MENU
  1
.
  9
$ELEVATION
 40
0.0
  9
$PELEVATION
 40
0.0
  9
$THICKNESS
 40
0.0
  9
$LIMCHECK
 70
     0
  9
$CHAMFERA
 40
0.0
  9
$CHAMFERB
 40
0.0
  9
$CHAMFERC
 40
0.0
  9
$CHAMFERD
 40
0.0
  9
$SKPOLY
 70
     0
  9
$TDCREATE
 40
2460277.369682303
  9
$TDUCREATE
 40
2460277.328015637
  9
$TDUPDATE
 40
2460277.369682824
  9
$TDUUPDATE
 40
2460277.328016157
  9
$TDINDWG
 40
0.0000000116
  9
$TDUSRTIMER
 40
0.0000000116
  9
$USRTIMER
 70
     1
  9
$ANGBASE
 50
0.0
  9
$ANGDIR
 70
     0
  9
$PDMODE
 70
     0
  9
$PDSIZE
 40
0.0
  9
$PLINEWID
 40
0.0
  9
$SPLFRAME
 70
     0
  9
$SPLINETYPE
 70
     6
  9
$SPLINESEGS
 70
     8
  9
$HANDSEED
  5
251
  9
$SURFTAB1
 70
     6
  9
$SURFTAB2
 70
     6
  9
$SURFTYPE
 70
     6
  9
$SURFU
 70
     6
  9
$SURFV
 70
     6
  9
$UCSBASE
  2

  9
$UCSNAME
  2

  9
$UCSORG
 10
0.0
 20
0.0
 30
0.0
  9
$UCSXDIR
 10
1.0
 20
0.0
 30
0.0
  9
$UCSYDIR
 10
0.0
 20
1.0
 30
0.0
  9
$UCSORTHOREF
  2

  9
$UCSORTHOVIEW
 70
     0
  9
$UCSORGTOP
 10
0.0
 20
0.0
 30
0.0
  9
$UCSORGBOTTOM
 10
0.0
 20
0.0
 30
0.0
  9
$UCSORGLEFT
 10
0.0
 20
0.0
 30
0.0
  9
$UCSORGRIGHT
 10
0.0
 20
0.0
 30
0.0
  9
$UCSORGFRONT
 10
0.0
 20
0.0
 30
0.0
  9
$UCSORGBACK
 10
0.0
 20
0.0
 30
0.0
  9
$PUCSBASE
  2

  9
$PUCSNAME
  2

  9
$PUCSORG
 10
0.0
 20
0.0
 30
0.0
  9
$PUCSXDIR
 10
1.0
 20
0.0
 30
0.0
  9
$PUCSYDIR
 10
0.0
 20
1.0
 30
0.0
  9
$PUCSORTHOREF
  2

  9
$PUCSORTHOVIEW
 70
     0
  9
$PUCSORGTOP
 10
0.0
 20
0.0
 30
0.0
  9
$PUCSORGBOTTOM
 10
0.0
 20
0.0
 30
0.0
  9
$PUCSORGLEFT
 10
0.0
 20
0.0
 30
0.0
  9
$PUCSORGRIGHT
 10
0.0
 20
0.0
 30
0.0
  9
$PUCSORGFRONT
 10
0.0
 20
0.0
 30
0.0
  9
$PUCSORGBACK
 10
0.0
 20
0.0
 30
0.0
  9
$USERI1
 70
     0
  9
$USERI2
 70
     0
  9
$USERI3
 70
     0
  9
$USERI4
 70
     0
  9
$USERI5
 70
     0
  9
$USERR1
 40
0.0
  9
$USERR2
 40
0.0
  9
$USERR3
 40
0.0
  9
$USERR4
 40
0.0
  9
$USERR5
 40
0.0
  9
$WORLDVIEW
 70
     1
  9
$SHADEDGE
 70
     3
  9
$SHADEDIF
 70
    70
  9
$TILEMODE
 70
     1
  9
$MAXACTVP
 70
    64
  9
$PINSBASE
 10
0.0
 20
0.0
 30
0.0
  9
$PLIMCHECK
 70
     0
  9
$PEXTMIN
 10
0.0
 20
0.0
 30
0.0
  9
$PEXTMAX
 10
420.0
 20
297.0
 30
0.0
  9
$PLIMMIN
 10
0.0
 20
0.0
  9
$PLIMMAX
 10
420.0
 20
297.0
  9
$UNITMODE
 70
     0
  9
$VISRETAIN
 70
     1
  9
$PLINEGEN
 70
     0
  9
$PSLTSCALE
 70
     1
  9
$TREEDEPTH
 70
  3020
  9
$CMLSTYLE
  2
Standard
  9
$CMLJUST
 70
     0
  9
$CMLSCALE
 40
20.0
  9
$PROXYGRAPHICS
 70
     1
  9
$MEASUREMENT
 70
     1
  9
$CELWEIGHT
370
    -1
  9
$ENDCAPS
280
     0
  9
$JOINSTYLE
280
     0
  9
$LWDISPLAY
290
     0
  9
$INSUNITS
 70
     4
  9
$HYPERLINKBASE
  1

  9
$STYLESHEET
  1

  9
$XEDIT
290
     1
  9
$CEPSNTYPE
380
     0
  9
$PSTYLEMODE
290
     1
  9
$FINGERPRINTGUID
  2
{3d8e60c4-acb9-49b9-ac2e-cad8d14746e3}
  9
$VERSIONGUID
  2
{FAEB1C32-E019-11D5-929B-00C0DF256EC4}
  9
$EXTNAMES
290
     1
  9
$PSVPSCALE
 40
0.0
  9
$OLESTARTUP
290
     0
  9
$SORTENTS
280
   127
  9
$INDEXCTL
280
     0
  9
$HIDETEXT
280
     1
  9
$XCLIPFRAME
290
     0
  9
$HALOGAP
280
     0
  9
$OBSCOLOR
 70
   257
  9
$OBSLTYPE
280
     0
  9
$INTERSECTIONDISPLAY
280
     0
  9
$INTERSECTIONCOLOR
 70
   257
  9
$DIMASSOC
280
     2
  9
$PROJECTNAME
  1

  9
$CAMERADISPLAY
290
     0
  9
$LENSLENGTH
 40
50.0
  9
$CAMERAHEIGHT
 40
0.0
  9
$STEPSPERSEC
 40
2.0
  9
$STEPSIZE
 40
6.0
  9
$3DDWFPREC
 40
2.0
  9
$PSOLWIDTH
 40
5.0
  9
$PSOLHEIGHT
 40
80.0
  9
$LOFTANG1
 40
1.5707963268
  9
$LOFTANG2
 40
1.5707963268
  9
$LOFTMAG1
 40
0.0
  9
$LOFTMAG2
 40
0.0
  9
$LOFTPARAM
 70
     7
  9
$LOFTNORMALS
280
     1
  9
$LATITUDE
 40
37.795
  9
$LONGITUDE
 40
-122.394
  9
$NORTHDIRECTION
 40
0.0
  9
$TIMEZONE
 70
 -8000
  9
$LIGHTGLYPHDISPLAY
280
     1
  9
$TILEMODELIGHTSYNCH
280
     1
  9
$CMATERIAL
347
44
  9
$SOLIDHIST
280
     0
  9
$SHOWHIST
280
     1
  9
$DWFFRAME
280
     2
  9
$DGNFRAME
280
     2
  9
$REALWORLDSCALE
290
     1
  9
$INTERFERECOLOR
 62
   256
  9
$CSHADOW
280
     0
  9
$SHADOWPLANELOCATION
 40
0.0
  0
ENDSEC
  0
SECTION
  2
CLASSES
  0
CLASS
  1
ACDBDICTIONARYWDFLT
  2
AcDbDictionaryWithDefault
  3
ObjectDBX Classes
 90
        0
 91
        3
280
     0
281
     0
  0
CLASS
  1
VISUALSTYLE
  2
AcDbVisualStyle
  3
ObjectDBX Classes
 90
     4095
 91
        3
280
     0
281
     0
  0
CLASS
  1
MATERIAL
  2
AcDbMaterial
  3
ObjectDBX Classes
 90
     1153
 91
        3
280
     0
281
     0
  0
CLASS
  1
SCALE
  2
AcDbScale
  3
ObjectDBX Classes
 90
     1153
 91
        3
280
     0
281
     0
  0
CLASS
  1
TABLESTYLE
  2
AcDbTableStyle
  3
ObjectDBX Classes
 90
     4095
 91
        3
280
     0
281
     0
  0
CLASS
  1
MLEADERSTYLE
  2
AcDbMLeaderStyle
  3
ACDB_MLEADERSTYLE_CLASS
 90
     4095
 91
        3
280
     0
281
     0
  0
CLASS
  1
SUN
  2
AcDbSun
  3
SCENEOE
 90
     1153
 91
        3
280
     0
281
     0
  0
CLASS
  1
DICTIONARYVAR
  2
AcDbDictionaryVar
  3
ObjectDBX Classes
 90
        0
 91
        3
280
     0
281
     0
  0
CLASS
  1
CELLSTYLEMAP
  2
AcDbCellStyleMap
  3
ObjectDBX Classes
 90
     1152
 91
        3
280
     0
281
     0
  0
ENDSEC
  0
SECTION
  2
TABLES
  0
TABLE
  2
VPORT
  5
8
330
0
100
AcDbSymbolTable
 70
     1
  0
VPORT
  5
29
330
8
100
AcDbSymbolTableRecord
100
AcDbViewportTableRecord
  2
*Active
 70
     0
 10
0.0
 20
0.0
 11
1.0
 21
1.0
 12
344.1869158879
 22
148.5
 13
0.0
 23
0.0
 14
10.0
 24
10.0
 15
10.0
 25
10.0
 16
0.0
 26
0.0
 36
1.0
 17
0.0
 27
0.0
 37
0.0
 40
297.0
 41
1.9729729729
 42
50.0
 43
0.0
 44
0.0
 50
0.0
 51
0.0
 71
     0
 72
   100
 73
     1
 74
     3
 75
     0
 76
     0
 77
     0
 78
     0
281
     0
 65
     1
110
0.0
120
0.0
130
0.0
111
1.0
121
0.0
131
0.0
112
0.0
122
1.0
132
0.0
 79
     0
146
0.0
348
2F
 60
     3
 61
     5
292
     1
282
     1
141
0.0
142
0.0
 63
   250
361
6D
  0
ENDTAB
  0
TABLE
  2
LTYPE
  5
5
330
0
100
AcDbSymbolTable
 70
     1
  0
LTYPE
  5
14
330
5
100
AcDbSymbolTableRecord
100
AcDbLinetypeTableRecord
  2
ByBlock
 70
     0
  3

 72
    65
 73
     0
 40
0.0
  0
LTYPE
  5
15
330
5
100
AcDbSymbolTableRecord
100
AcDbLinetypeTableRecord
  2
ByLayer
 70
     0
  3

 72
    65
 73
     0
 40
0.0
  0
LTYPE
  5
16
330
5
100
AcDbSymbolTableRecord
100
AcDbLinetypeTableRecord
  2
Continuous
 70
     0
  3
Solid line
 72
    65
 73
     0
 40
0.0
  0
ENDTAB
  0
TABLE
  2
LAYER
  5
2
330
0
100
AcDbSymbolTable
 70
     3
  0
LAYER
  5
10
330
2
100
AcDbSymbolTableRecord
100
AcDbLayerTableRecord
  2
0
 70
     0
 62
     7
  6
Continuous
370
    -3
390
F
347
46
  0
LAYER
  5
6E
330
2
100
AcDbSymbolTableRecord
100
AcDbLayerTableRecord
  2
Default
 70
     0
 62
     7
  6
Continuous
370
    -3
390
F
347
46
  0
LAYER
  5
71
330
2
100
AcDbSymbolTableRecord
100
AcDbLayerTableRecord
  2
TA-SMART_DN32_NP
 70
     0
 62
     7
  6
Continuous
370
    -3
390
F
347
46
  0
ENDTAB
  0
TABLE
  2
STYLE
  5
3
330
0
100
AcDbSymbolTable
 70
     1
  0
STYLE
  5
11
330
3
100
AcDbSymbolTableRecord
100
AcDbTextStyleTableRecord
  2
Standard
 70
     0
 40
0.0
 41
1.0
 50
0.0
 71
     0
 42
2.5
  3
txt
  4

  0
ENDTAB
  0
TABLE
  2
VIEW
  5
6
330
0
100
AcDbSymbolTable
 70
     0
  0
ENDTAB
  0
TABLE
  2
UCS
  5
7
330
0
100
AcDbSymbolTable
 70
     0
  0
ENDTAB
  0
TABLE
  2
APPID
  5
9
330
0
100
AcDbSymbolTable
 70
     2
  0
APPID
  5
12
330
9
100
AcDbSymbolTableRecord
100
AcDbRegAppTableRecord
  2
ACAD
 70
     0
  0
APPID
  5
247
330
9
100
AcDbSymbolTableRecord
100
AcDbRegAppTableRecord
  2
ACAD_MLEADERVER
 70
     0
  0
ENDTAB
  0
TABLE
  2
DIMSTYLE
  5
A
330
0
100
AcDbSymbolTable
 70
     1
100
AcDbDimStyleTable
  0
DIMSTYLE
105
27
330
A
100
AcDbSymbolTableRecord
100
AcDbDimStyleTableRecord
  2
ISO-25
 70
     0
 41
2.5
 42
0.625
 43
3.75
 44
1.25
 73
     0
 74
     0
 77
     1
 78
     8
140
2.5
141
2.5
143
0.0393700787
147
0.625
171
     3
172
     1
178
     0
271
     2
272
     2
274
     3
278
    44
283
     0
284
     8
340
11
  0
ENDTAB
  0
TABLE
  2
BLOCK_RECORD
  5
1
330
0
100
AcDbSymbolTable
 70
     5
  0
BLOCK_RECORD
  5
1F
330
1
100
AcDbSymbolTableRecord
100
AcDbBlockTableRecord
  2
*Model_Space
340
22
 70
     0
280
     1
281
     0
  0
BLOCK_RECORD
  5
1B
330
1
100
AcDbSymbolTableRecord
100
AcDbBlockTableRecord
  2
*Paper_Space
340
1E
 70
     0
280
     1
281
     0
  0
BLOCK_RECORD
  5
6F
330
1
100
AcDbSymbolTableRecord
100
AcDbBlockTableRecord
  2
SE
340
0
102
{BLKREFS
331
70
102
}
 70
     0
280
     1
281
     0
  0
BLOCK_RECORD
  5
D9
330
1
100
AcDbSymbolTableRecord
100
AcDbBlockTableRecord
  2
SE1
340
0
102
{BLKREFS
331
DA
102
}
 70
     0
280
     1
281
     0
  0
BLOCK_RECORD
  5
11A
330
1
100
AcDbSymbolTableRecord
100
AcDbBlockTableRecord
  2
SE2
340
0
102
{BLKREFS
331
11B
102
}
 70
     0
280
     1
281
     0
  0
BLOCK_RECORD
  5
17A
330
1
100
AcDbSymbolTableRecord
100
AcDbBlockTableRecord
  2
SE3
340
0
102
{BLKREFS
331
17B
102
}
 70
     0
280
     1
281
     0
  0
BLOCK_RECORD
  5
1BB
330
1
100
AcDbSymbolTableRecord
100
AcDbBlockTableRecord
  2
SE4
340
0
102
{BLKREFS
331
1BC
102
}
 70
     0
280
     1
281
     0
  0
ENDTAB
  0
ENDSEC
  0
SECTION
  2
BLOCKS
  0
BLOCK
  5
20
330
1F
100
AcDbEntity
  8
0
100
AcDbBlockBegin
  2
*Model_Space
 70
     0
 10
0.0
 20
0.0
 30
0.0
  3
*Model_Space
  1

  0
ENDBLK
  5
21
330
1F
100
AcDbEntity
  8
0
100
AcDbBlockEnd
  0
BLOCK
  5
1C
330
1B
100
AcDbEntity
 67
     1
  8
0
100
AcDbBlockBegin
  2
*Paper_Space
 70
     0
 10
0.0
 20
0.0
 30
0.0
  3
*Paper_Space
  1

  0
ENDBLK
  5
1D
330
1B
100
AcDbEntity
 67
     1
  8
0
100
AcDbBlockEnd
  0
BLOCK
  5
D7
330
6F
100
AcDbEntity
  8
0
100
AcDbBlockBegin
  2
SE
 70
     0
 10
0.0
 20
0.0
 30
0.0
  3
SE
  1

  0
LINE
  5
72
330
6F
100
AcDbEntity
  8
TA-SMART_DN32_NP
  6
Continuous
 62
     7
100
AcDbLine
 10
71.2198481364
 20
182.760618093
 30
0.0
 11
71.2198481364
 21
229.760618093
 31
0.0
  0
LINE
  5
73
330
6F
100
AcDbEntity
  8
TA-SMART_DN32_NP
  6
Continuous
 62
     7
100
AcDbLine
 10
90.2198481364
 20
178.510618093
 30
0.0
 11
90.2198481364
 21
234.010618093
 31
0.0
  0
LINE
  5
74
330
6F
100
AcDbEntity
  8
TA-SMART_DN32_NP
  6
Continuous
 62
     7
100
AcDbLine
 10
72.3117588392
 20
182.415618093
 30
0.0
 11
72.3117588392
 21
184.3256518009
 31
0.0
  0
LINE
  5
75
330
6F
100
AcDbEntity
  8
TA-SMART_DN32_NP
  6
Continuous
 62
     7
100
AcDbLine
 10
72.3117588392
 20
204.3505843851
 30
0.0
 11
72.3117588392
 21
208.1706518009
 31
0.0
  0
LINE
  5
76
330
6F
100
AcDbEntity
  8
TA-SMART_DN32_NP
  6
Continuous
 62
     7
100
AcDbLine
 10
72.3117588392
 20
228.1955843851
 30
0.0
 11
72.3117588392
 21
230.105618093
 31
0.0
  0
LINE
  5
77
330
6F
100
AcDbEntity
  8
TA-SMART_DN32_NP
  6
Continuous
 62
     7
100
AcDbLine
 10
72.3117588392
 20
230.105618093
 30
0.0
 11
71.3454207736
 21
230.105618093
 31
0.0
  0
LINE
  5
78
330
6F
100
AcDbEntity
  8
TA-SMART_DN32_NP
  6
Continuous
 62
     7
100
AcDbLine
 10
90.2198481364
 20
230.105618093
 30
0.0
 11
72.3117588392
 21
230.105618093
 31
0.0
  0
ARC
  5
79
330
6F
100
AcDbEntity
  8
TA-SMART_DN32_NP
  6
Continuous
 62
     7
100
AcDbCircle
 10
124.0486224969
 20
218.183118093
 30
0.0
 40
52.69679821764417
100
AcDbArc
 50
169.0471331516
 51
190.9528668484
  0
LINE
  5
7A
330
6F
100
AcDbEntity
  8
TA-SMART_DN32_NP
  6
Continuous
 62
     7
100
AcDbLine
 10
72.3117588392
 20
228.1955843851
 30
0.0
 11
90.2198481364
 21
228.1955843851
 31
0.0
  0
LINE
  5
7B
330
6F
100
AcDbEntity
  8
TA-SMART_DN32_NP
  6
Continuous
 62
     7
100
AcDbLine
 10
90.2198481364
 20
208.1706518009
 30
0.0
 11
72.3117588392
 21
208.1706518009
 31
0.0
  0
ARC
  5
7C
330
6F
100
AcDbEntity
  8
TA-SMART_DN32_NP
  6
Continuous
 62
     7
100
AcDbCircle
 10
124.0486224969
 20
194.338118093
 30
0.0
 40
52.69679821764369
100
AcDbArc
 50
169.0471331516
 51
190.9528668484
  0
LINE
  5
7D
330
6F
100
AcDbEntity
  8
TA-SMART_DN32_NP
  6
Continuous
 62
     7
100
AcDbLine
 10
72.3117588392
 20
204.3505843851
 30
0.0
 11
90.2198481364
 21
204.3505843851
 31
0.0
  0
LINE
  5
7E
330
6F
100
AcDbEntity
  8
TA-SMART_DN32_NP
  6
Continuous
 62
     7
100
AcDbLine
 10
90.2198481364
 20
184.3256518009
 30
0.0
 11
72.3117588392
 21
184.3256518009
 31
0.0
  0
LINE
  5
7F
330
6F
100
AcDbEntity
  8
TA-SMART_DN32_NP
  6
Continuous
 62
     7
100
AcDbLine
 10
72.3117588392
 20
182.415618093
 30
0.0
 11
71.3454207736
 21
182.415618093
 31
0.0
  0
LINE
  5
80
330
6F
100
AcDbEntity
  8
TA-SMART_DN32_NP
  6
Continuous
 62
     7
100
AcDbLine
 10
72.3117588392
 20
182.415618093
 30
0.0
 11
90.2198481364
 21
182.415618093
 31
0.0
  0
LINE
  5
81
330
6F
100
AcDbEntity
  8
TA-SMART_DN32_NP
  6
Continuous
 62
     7
100
AcDbLine
 10
118.2198481364
 20
178.510618093
 30
0.0
 11
118.2198481364
 21
234.010618093
 31
0.0
  0
LINE
  5
82
330
6F
100
AcDbEntity
  8
TA-SMART_DN32_NP
  6
Continuous
 62
     7
100
AcDbLine
 10
137.2198481364
 20
182.760618093
 30
0.0
 11
137.2198481364
 21
229.760618093
 31
0.0
  0
LINE
  5
83
330
6F
100
AcDbEntity
  8
TA-SMART_DN32_NP
  6
Continuous
 62
     7
100
AcDbLine
 10
136.1279374336
 20
182.415618093
 30
0.0
 11
136.1279374336
 21
184.3256518009
 31
0.0
  0
LINE
  5
84
330
6F
100
AcDbEntity
  8
TA-SMART_DN32_NP
  6
Continuous
 62
     7
100
AcDbLine
 10
136.1279374336
 20
204.3505843851
 30
0.0
 11
136.1279374336
 21
208.1706518009
 31
0.0
  0
LINE
  5
85
330
6F
100
AcDbEntity
  8
TA-SMART_DN32_NP
  6
Continuous
 62
     7
100
AcDbLine
 10
136.1279374336
 20
228.1955843851
 30
0.0
 11
136.1279374336
 21
230.105618093
 31
0.0
  0
LINE
  5
86
330
6F
100
AcDbEntity
  8
TA-SMART_DN32_NP
  6
Continuous
 62
     7
100
AcDbLine
 10
136.1279374336
 20
230.105618093
 30
0.0
 11
137.0942754991
 21
230.105618093
 31
0.0
  0
ARC
  5
87
330
6F
100
AcDbEntity
  8
TA-SMART_DN32_NP
  6
Continuous
 62
     7
100
AcDbCircle
 10
84.3910737758
 20
218.183118093
 30
0.0
 40
52.69679821764434
100
AcDbArc
 50
349.0471331516
 51
10.9528668484
  0
ARC
  5
88
330
6F
100
AcDbEntity
  8
TA-SMART_DN32_NP
  6
Continuous
 62
     7
100
AcDbCircle
 10
84.3910737758
 20
194.338118093
 30
0.0
 40
52.69679821764396
100
AcDbArc
 50
349.0471331516
 51
10.9528668484
  0
LINE
  5
89
330
6F
100
AcDbEntity
  8
TA-SMART_DN32_NP
  6
Continuous
 62
     7
100
AcDbLine
 10
136.1279374336
 20
182.415618093
 30
0.0
 11
137.0942754991
 21
182.415618093
 31
0.0
  0
LINE
  5
8A
330
6F
100
AcDbEntity
  8
TA-SMART_DN32_NP
  6
Continuous
 62
     7
100
AcDbLine
 10
118.2198481364
 20
182.415618093
 30
0.0
 11
136.1279374336
 21
182.415618093
 31
0.0
  0
LINE
  5
8B
330
6F
100
AcDbEntity
  8
TA-SMART_DN32_NP
  6
Continuous
 62
     7
100
AcDbLine
 10
118.2198481364
 20
204.3505843851
 30
0.0
 11
136.1279374336
 21
204.3505843851
 31
0.0
  0
LINE
  5
8C
330
6F
100
AcDbEntity
  8
TA-SMART_DN32_NP
  6
Continuous
 62
     7
100
AcDbLine
 10
136.1279374336
 20
184.3256518009
 30
0.0
 11
118.2198481364
 21
184.3256518009
 31
0.0
  0
LINE
  5
8D
330
6F
100
AcDbEntity
  8
TA-SMART_DN32_NP
  6
Continuous
 62
     7
100
AcDbLine
 10
118.2198481364
 20
228.1955843851
 30
0.0
 11
136.1279374336
 21
228.1955843851
 31
0.0
  0
LINE
  5
8E
330
6F
100
AcDbEntity
  8
TA-SMART_DN32_NP
  6
Continuous
 62
     7
100
AcDbLine
 10
136.1279374336
 20
208.1706518009
 30
0.0
 11
118.2198481364
 21
208.1706518009
 31
0.0
  0
LINE
  5
8F
330
6F
100
AcDbEntity
  8
TA-SMART_DN32_NP
  6
Continuous
 62
     7
100
AcDbLine
 10
136.1279374336
 20
230.105618093
 30
0.0
 11
118.2198481364
 21
230.105618093
 31
0.0
  0
LINE
  5
90
330
6F
100
AcDbEntity
  8
TA-SMART_DN32_NP
  6
Continuous
 62
     7
100
AcDbLine
 10
116.2198481364
 20
234.760618093
 30
0.0
 11
111.5512872857
 21
234.760618093
 31
0.0
  0
LINE
  5
91
330
6F
100
AcDbEntity
  8
TA-SMART_DN32_NP
  6
Continuous
 62
     7
100
AcDbLine
 10
92.2198481364
 20
234.760618093
 30
0.0
 11
90.9698491672
 21
234.760618093
 31
0.0
  0
LINE
  5
92
330
6F
100
AcDbEntity
  8
TA-SMART_DN32_NP
  6
Continuous
 62
     7
100
AcDbLine
 10
116.2198481364
 20
234.760618093
 30
0.0
 11
117.4698471055
 21
234.760618093
 31
0.0
  0
LINE
  5
93
330
6F
100
AcDbEntity
  8
TA-SMART_DN32_NP
  6
Continuous
 62
     7
100
AcDbLine
 10
116.2198481364
 20
177.760618093
 30
0.0
 11
116.2198481364
 21
234.760618093
 31
0.0
  0
LINE
  5
94
330
6F
100
AcDbEntity
  8
TA-SMART_DN32_NP
  6
Continuous
 62
     7
100
AcDbLine
 10
104.7198481364
 20
177.760618093
 30
0.0
 11
104.7198481364
 21
233.8060351347
 31
0.0
  0
LINE
  5
95
330
6F
100
AcDbEntity
  8
TA-SMART_DN32_NP
  6
Continuous
 62
     7
100
AcDbLine
 10
104.7198481364
 20
177.760618093
 30
0.0
 11
116.2198481364
 21
177.760618093
 31
0.0
  0
LINE
  5
96
330
6F
100
AcDbEntity
  8
TA-SMART_DN32_NP
  6
Continuous
 62
     7
100
AcDbLine
 10
104.2198481364
 20
177.760618093
 30
0.0
 11
104.2198481364
 21
233.760618093
 31
0.0
  0
LINE
  5
97
330
6F
100
AcDbEntity
  8
TA-SMART_DN32_NP
  6
Continuous
 62
     7
100
AcDbLine
 10
103.7198481364
 20
177.760618093
 30
0.0
 11
103.7198481364
 21
233.8060351347
 31
0.0
  0
LINE
  5
98
330
6F
100
AcDbEntity
  8
TA-SMART_DN32_NP
  6
Continuous
 62
     7
100
AcDbLine
 10
92.2198481364
 20
177.760618093
 30
0.0
 11
92.2198481364
 21
234.760618093
 31
0.0
  0
LINE
  5
99
330
6F
100
AcDbEntity
  8
TA-SMART_DN32_NP
  6
Continuous
 62
     7
100
AcDbLine
 10
92.2198481364
 20
177.760618093
 30
0.0
 11
90.9698491672
 21
177.760618093
 31
0.0
  0
LINE
  5
9A
330
6F
100
AcDbEntity
  8
TA-SMART_DN32_NP
  6
Continuous
 62
     7
100
AcDbLine
 10
92.2198481364
 20
177.760618093
 30
0.0
 11
103.7198481364
 21
177.760618093
 31
0.0
  0
LINE
  5
9B
330
6F
100
AcDbEntity
  8
TA-SMART_DN32_NP
  6
Continuous
 62
     7
100
AcDbLine
 10
103.7198481364
 20
177.760618093
 30
0.0
 11
104.2198481364
 21
177.760618093
 31
0.0
  0
LINE
  5
9C
330
6F
100
AcDbEntity
  8
TA-SMART_DN32_NP
  6
Continuous
 62
     7
100
AcDbLine
 10
104.2198481364
 20
177.760618093
 30
0.0
 11
104.7198481364
 21
177.760618093
 31
0.0
  0
LINE
  5
9D
330
6F
100
AcDbEntity
  8
TA-SMART_DN32_NP
  6
Continuous
 62
     7
100
AcDbLine
 10
116.2198481364
 20
177.760618093
 30
0.0
 11
117.4698471055
 21
177.760618093
 31
0.0
  0
LINE
  5
9E
330
6F
100
AcDbEntity
  8
TA-SMART_DN32_NP
  6
Continuous
 62
     7
100
AcDbLine
 10
96.8884089871
 20
234.760618093
 30
0.0
 11
92.2198481364
 21
234.760618093
 31
0.0
  0
LINE
  5
9F
330
6F
100
AcDbEntity
  8
TA-SMART_DN32_NP
  6
Continuous
 62
     7
100
AcDbLine
 10
103.7612270525
 20
233.760618093
 30
0.0
 11
104.2198481364
 21
233.760618093
 31
0.0
  0
LINE
  5
A0
330
6F
100
AcDbEntity
  8
TA-SMART_DN32_NP
  6
Continuous
 62
     7
100
AcDbLine
 10
104.2198481364
 20
233.760618093
 30
0.0
 11
104.6784692202
 21
233.760618093
 31
0.0
  0
ARC
  5
A1
330
6F
100
AcDbEntity
  8
TA-SMART_DN32_NP
  6
Continuous
 62
     7
100
AcDbCircle
 10
104.3487649457
 20
263.2286237173
 30
0.0
 40
29.42930945941596
100
AcDbArc
 50
255.3152263762
 51
268.7754717033
  0
LINE
  5
A2
330
6F
100
AcDbEntity
  8
TA-SMART_DN32_NP
  6
Continuous
 62
     7
100
AcDbLine
 10
103.7198481364
 20
233.8060351347
 30
0.0
 11
103.7612270525
 21
233.760618093
 31
0.0
  0
LINE
  5
A3
330
6F
100
AcDbEntity
  8
TA-SMART_DN32_NP
  6
Continuous
 62
     7
100
AcDbLine
 10
104.6784692202
 20
233.760618093
 30
0.0
 11
104.7198481364
 21
233.8060351347
 31
0.0
  0
ARC
  5
A4
330
6F
100
AcDbEntity
  8
TA-SMART_DN32_NP
  6
Continuous
 62
     7
100
AcDbCircle
 10
104.0908995361
 20
263.2288512281
 30
0.0
 40
29.42953759756737
100
AcDbArc
 50
271.22458071
 51
284.6847212105
  0
LINE
  5
A5
330
6F
100
AcDbEntity
  8
TA-SMART_DN32_NP
  6
Continuous
 62
     7
100
AcDbLine
 10
98.3484084375
 20
242.760618093
 30
0.0
 11
99.5434064366
 21
242.760618093
 31
0.0
  0
LINE
  5
A6
330
6F
100
AcDbEntity
  8
TA-SMART_DN32_NP
  6
Continuous
 62
     7
100
AcDbLine
 10
106.9025374833
 20
242.760618093
 30
0.0
 11
108.2863165663
 21
242.760618093
 31
0.0
  0
LINE
  5
A7
330
6F
100
AcDbEntity
  8
TA-SMART_DN32_NP
  6
Continuous
 62
     7
100
AcDbLine
 10
112.7739771821
 20
242.760618093
 30
0.0
 11
112.9627582661
 21
242.760618093
 31
0.0
  0
LINE
  5
A8
330
6F
100
AcDbEntity
  8
TA-SMART_DN32_NP
  6
Continuous
 62
     7
100
AcDbLine
 10
112.9627582661
 20
242.760618093
 30
0.0
 11
112.9627582661
 21
234.760618093
 31
0.0
  0
LINE
  5
A9
330
6F
100
AcDbEntity
  8
TA-SMART_DN32_NP
  6
Continuous
 62
     7
100
AcDbLine
 10
98.3484084375
 20
242.760618093
 30
0.0
 11
95.4769380066
 21
242.760618093
 31
0.0
  0
LINE
  5
AA
330
6F
100
AcDbEntity
  8
TA-SMART_DN32_NP
  6
Continuous
 62
     7
100
AcDbLine
 10
95.4769380066
 20
242.760618093
 30
0.0
 11
95.4769380066
 21
234.760618093
 31
0.0
  0
LINE
  5
AB
330
6F
100
AcDbEntity
  8
TA-SMART_DN32_NP
  6
Continuous
 62
     7
100
AcDbLine
 10
98.3484084375
 20
242.760618093
 30
0.0
 11
98.3484084375
 21
234.4256689302
 31
0.0
  0
LINE
  5
AC
330
6F
100
AcDbEntity
  8
TA-SMART_DN32_NP
  6
Continuous
 62
     7
100
AcDbLine
 10
106.9025374833
 20
242.760618093
 30
0.0
 11
99.5434064366
 21
242.760618093
 31
0.0
  0
LINE
  5
AD
330
6F
100
AcDbEntity
  8
TA-SMART_DN32_NP
  6
Continuous
 62
     7
100
AcDbLine
 10
99.5434064366
 20
242.760618093
 30
0.0
 11
99.5434064366
 21
234.1985303225
 31
0.0
  0
LINE
  5
AE
330
6F
100
AcDbEntity
  8
TA-SMART_DN32_NP
  6
Continuous
 62
     7
100
AcDbLine
 10
106.9025374833
 20
242.760618093
 30
0.0
 11
106.9025374833
 21
233.9353885182
 31
0.0
  0
LINE
  5
AF
330
6F
100
AcDbEntity
  8
TA-SMART_DN32_NP
  6
Continuous
 62
     7
100
AcDbLine
 10
112.7739771821
 20
242.760618093
 30
0.0
 11
108.2863165663
 21
242.760618093
 31
0.0
  0
LINE
  5
B0
330
6F
100
AcDbEntity
  8
TA-SMART_DN32_NP
  6
Continuous
 62
     7
100
AcDbLine
 10
108.2863165663
 20
242.760618093
 30
0.0
 11
108.2863165663
 21
234.1007652059
 31
0.0
  0
LINE
  5
B1
330
6F
100
AcDbEntity
  8
TA-SMART_DN32_NP
  6
Continuous
 62
     7
100
AcDbLine
 10
112.7739771821
 20
242.760618093
 30
0.0
 11
112.7739771821
 21
234.760618093
 31
0.0
  0
LINE
  5
B2
330
6F
100
AcDbEntity
  8
TA-SMART_DN32_NP
  6
Continuous
 62
     7
100
AcDbLine
 10
99.9117107771
 20
171.3507425037
 30
0.0
 11
99.8306015881
 21
171.3507425037
 31
0.0
  0
LINE
  5
B3
330
6F
100
AcDbEntity
  8
TA-SMART_DN32_NP
  6
Continuous
 62
     7
100
AcDbLine
 10
107.1484904859
 20
171.3507425037
 30
0.0
 11
106.6807157609
 21
171.3507425037
 31
0.0
  0
LINE
  5
B4
330
6F
100
AcDbEntity
  8
TA-SMART_DN32_NP
  6
Continuous
 62
     7
100
AcDbLine
 10
102.8403531266
 20
171.3507425037
 30
0.0
 11
102.2914692127
 21
171.3507425037
 31
0.0
  0
ARC
  5
B5
330
6F
100
AcDbEntity
  8
TA-SMART_DN32_NP
  6
Continuous
 62
     7
100
AcDbCircle
 10
101.1015899949
 20
173.5877903039
 30
0.0
 40
2.873410456015193
100
AcDbArc
 50
65.5373491631
 51
114.4626508369
  0
ARC
  5
B6
330
6F
100
AcDbEntity
  8
TA-SMART_DN32_NP
  6
Continuous
 62
     7
100
AcDbCircle
 10
100.5609036875
 20
175.2929532665
 30
0.0
 40
1.167046355479428
100
AcDbArc
 50
121.5446117479
 51
128.7386943694
  0
ARC
  5
B7
330
6F
100
AcDbEntity
  8
TA-SMART_DN32_NP
  6
Continuous
 62
     7
100
AcDbCircle
 10
107.8787925853
 20
175.2929532665
 30
0.0
 40
1.167046355479409
100
AcDbArc
 50
51.2613056306
 51
128.7386943694
  0
ARC
  5
B8
330
6F
100
AcDbEntity
  8
TA-SMART_DN32_NP
  6
Continuous
 62
     7
100
AcDbCircle
 10
104.7605344438
 20
169.1991892443
 30
0.0
 40
7.262512352676926
100
AcDbArc
 50
74.6689166947
 51
105.3310833053
  0
LINE
  5
B9
330
6F
100
AcDbEntity
  8
TA-SMART_DN32_NP
  6
Continuous
 62
     7
100
AcDbLine
 10
100.3583481364
 20
176.5141618515
 30
0.0
 11
108.0813481364
 21
176.5141618515
 31
0.0
  0
LINE
  5
BA
330
6F
100
AcDbEntity
  8
TA-SMART_DN32_NP
  6
Continuous
 62
     7
100
AcDbLine
 10
100.4698481364
 20
171.1141618515
 30
0.0
 11
107.9698481364
 21
171.1141618515
 31
0.0
  0
ARC
  5
BB
330
6F
100
AcDbEntity
  8
TA-SMART_DN32_NP
  6
Continuous
 62
     7
100
AcDbCircle
 10
101.1015899949
 20
175.5909754288
 30
0.0
 40
4.404019506274219
100
AcDbArc
 50
254.3250052347
 51
285.6749947653
  0
ARC
  5
BC
330
6F
100
AcDbEntity
  8
TA-SMART_DN32_NP
  6
Continuous
 62
     7
100
AcDbCircle
 10
100.5609036875
 20
172.8970078497
 30
0.0
 40
1.710051951337245
100
AcDbArc
 50
244.7186044963
 51
249.2101969141
  0
ARC
  5
BD
330
6F
100
AcDbEntity
  8
TA-SMART_DN32_NP
  6
Continuous
 62
     7
100
AcDbCircle
 10
107.8787925853
 20
172.8970078497
 30
0.0
 40
1.710051951337132
100
AcDbArc
 50
244.7186044963
 51
295.2813955037
  0
ARC
  5
BE
330
6F
100
AcDbEntity
  8
TA-SMART_DN32_NP
  6
Continuous
 62
     7
100
AcDbCircle
 10
104.7605344438
 20
182.5246423145
 30
0.0
 40
11.33768641616771
100
AcDbArc
 50
260.2492321476
 51
279.7507678524
  0
LINE
  5
BF
330
6F
100
AcDbEntity
  8
TA-SMART_DN32_NP
  6
Continuous
 62
     7
100
AcDbLine
 10
99.8306015881
 20
176.2032587315
 30
0.0
 11
99.9117107771
 21
176.2032587315
 31
0.0
  0
LINE
  5
C0
330
6F
100
AcDbEntity
  8
TA-SMART_DN32_NP
  6
Continuous
 62
     7
100
AcDbLine
 10
99.9117107771
 20
171.3507425037
 30
0.0
 11
99.9117107771
 21
176.2032587315
 31
0.0
  0
LINE
  5
C1
330
6F
100
AcDbEntity
  8
TA-SMART_DN32_NP
  6
Continuous
 62
     7
100
AcDbLine
 10
99.8306015881
 20
176.2032587315
 30
0.0
 11
99.8306015881
 21
171.3507425037
 31
0.0
  0
LINE
  5
C2
330
6F
100
AcDbEntity
  8
TA-SMART_DN32_NP
  6
Continuous
 62
     7
100
AcDbLine
 10
108.6090946846
 20
176.2032587315
 30
0.0
 11
108.6090946846
 21
171.3507425037
 31
0.0
  0
LINE
  5
C3
330
6F
100
AcDbEntity
  8
TA-SMART_DN32_NP
  6
Continuous
 62
     7
100
AcDbLine
 10
106.6807157609
 20
176.2032587315
 30
0.0
 11
107.1484904859
 21
176.2032587315
 31
0.0
  0
LINE
  5
C4
330
6F
100
AcDbEntity
  8
TA-SMART_DN32_NP
  6
Continuous
 62
     7
100
AcDbLine
 10
107.1484904859
 20
171.3507425037
 30
0.0
 11
107.1484904859
 21
176.2032587315
 31
0.0
  0
LINE
  5
C5
330
6F
100
AcDbEntity
  8
TA-SMART_DN32_NP
  6
Continuous
 62
     7
100
AcDbLine
 10
106.6807157609
 20
176.2032587315
 30
0.0
 11
106.6807157609
 21
171.3507425037
 31
0.0
  0
LINE
  5
C6
330
6F
100
AcDbEntity
  8
TA-SMART_DN32_NP
  6
Continuous
 62
     7
100
AcDbLine
 10
102.2914692127
 20
176.2032587315
 30
0.0
 11
102.8403531266
 21
176.2032587315
 31
0.0
  0
LINE
  5
C7
330
6F
100
AcDbEntity
  8
TA-SMART_DN32_NP
  6
Continuous
 62
     7
100
AcDbLine
 10
102.2914692127
 20
176.2032587315
 30
0.0
 11
102.2914692127
 21
171.3507425037
 31
0.0
  0
LINE
  5
C8
330
6F
100
AcDbEntity
  8
TA-SMART_DN32_NP
  6
Continuous
 62
     7
100
AcDbLine
 10
102.8403531266
 20
171.3507425037
 30
0.0
 11
102.8403531266
 21
176.2032587315
 31
0.0
  0
LINE
  5
C9
330
6F
100
AcDbEntity
  8
TA-SMART_DN32_NP
  6
Continuous
 62
     7
100
AcDbLine
 10
71.3454178672
 20
230.105618093
 30
0.0
 11
71.2198481364
 21
229.760618093
 31
0.0
  0
LINE
  5
CA
330
6F
100
AcDbEntity
  8
TA-SMART_DN32_NP
  6
Continuous
 62
     7
100
AcDbLine
 10
71.2198481364
 20
182.760618093
 30
0.0
 11
71.3454178672
 21
182.415618093
 31
0.0
  0
LINE
  5
CB
330
6F
100
AcDbEntity
  8
TA-SMART_DN32_NP
  6
Continuous
 62
     7
100
AcDbLine
 10
137.0942784055
 20
182.415618093
 30
0.0
 11
137.2198481364
 21
182.760618093
 31
0.0
  0
LINE
  5
CC
330
6F
100
AcDbEntity
  8
TA-SMART_DN32_NP
  6
Continuous
 62
     7
100
AcDbLine
 10
137.2198481364
 20
229.760618093
 30
0.0
 11
137.0942784055
 21
230.105618093
 31
0.0
  0
LINE
  5
CD
330
6F
100
AcDbEntity
  8
TA-SMART_DN32_NP
  6
Continuous
 62
     7
100
AcDbLine
 10
117.4698481364
 20
177.760618093
 30
0.0
 11
118.2198481364
 21
178.510618093
 31
0.0
  0
LINE
  5
CE
330
6F
100
AcDbEntity
  8
TA-SMART_DN32_NP
  6
Continuous
 62
     7
100
AcDbLine
 10
118.2198481364
 20
234.010618093
 30
0.0
 11
117.4698481364
 21
234.760618093
 31
0.0
  0
LINE
  5
CF
330
6F
100
AcDbEntity
  8
TA-SMART_DN32_NP
  6
Continuous
 62
     7
100
AcDbLine
 10
90.9698481364
 20
234.760618093
 30
0.0
 11
90.2198481364
 21
234.010618093
 31
0.0
  0
LINE
  5
D0
330
6F
100
AcDbEntity
  8
TA-SMART_DN32_NP
  6
Continuous
 62
     7
100
AcDbLine
 10
90.2198481364
 20
178.510618093
 30
0.0
 11
90.9698481364
 21
177.760618093
 31
0.0
  0
LINE
  5
D1
330
6F
100
AcDbEntity
  8
TA-SMART_DN32_NP
  6
Continuous
 62
     7
100
AcDbLine
 10
108.4901825975
 20
176.2781211653
 30
0.0
 11
108.0813481364
 21
176.5141618515
 31
0.0
  0
LINE
  5
D2
330
6F
100
AcDbEntity
  8
TA-SMART_DN32_NP
  6
Continuous
 62
     7
100
AcDbLine
 10
100.3583481364
 20
176.5141618515
 30
0.0
 11
99.9495136752
 21
176.2781211653
 31
0.0
  0
LINE
  5
D3
330
6F
100
AcDbEntity
  8
TA-SMART_DN32_NP
  6
Continuous
 62
     7
100
AcDbLine
 10
100.3583481364
 20
177.760618093
 30
0.0
 11
100.3583481364
 21
176.5141618515
 31
0.0
  0
LINE
  5
D4
330
6F
100
AcDbEntity
  8
TA-SMART_DN32_NP
  6
Continuous
 62
     7
100
AcDbLine
 10
108.0813481364
 20
176.5141618515
 30
0.0
 11
108.0813481364
 21
177.760618093
 31
0.0
  0
LINE
  5
D5
330
6F
100
AcDbEntity
  8
TA-SMART_DN32_NP
  6
Continuous
 62
     7
100
AcDbLine
 10
99.952948074
 20
171.3022980883
 30
0.0
 11
100.4698481364
 21
171.1141618515
 31
0.0
  0
LINE
  5
D6
330
6F
100
AcDbEntity
  8
TA-SMART_DN32_NP
  6
Continuous
 62
     7
100
AcDbLine
 10
107.9698481364
 20
171.1141618515
 30
0.0
 11
108.4867481987
 21
171.3022980883
 31
0.0
  0
ENDBLK
  5
D8
330
6F
100
AcDbEntity
  8
0
100
AcDbBlockEnd
  0
BLOCK
  5
118
330
D9
100
AcDbEntity
  8
0
100
AcDbBlockBegin
  2
SE1
 70
     0
 10
0.0
 20
0.0
 30
0.0
  3
SE1
  1

  0
CIRCLE
  5
DB
330
D9
100
AcDbEntity
  8
TA-SMART_DN32_NP
  6
Continuous
 62
     7
100
AcDbCircle
 10
276.0496344033
 20
206.260618093
 30
0.0
 40
23.5
  0
ARC
  5
DC
330
D9
100
AcDbEntity
  8
TA-SMART_DN32_NP
  6
Continuous
 62
     7
100
AcDbCircle
 10
276.0496344033
 20
206.260618093
 30
0.0
 40
26.5
100
AcDbArc
 50
115.8667227349
 51
124.1332772651
  0
CIRCLE
  5
DD
330
D9
100
AcDbEntity
  8
TA-SMART_DN32_NP
  6
Continuous
 62
     7
100
AcDbCircle
 10
276.0496344033
 20
206.260618093
 30
0.0
 40
27.75
  0
ARC
  5
DE
330
D9
100
AcDbEntity
  8
TA-SMART_DN32_NP
  6
Continuous
 62
     7
100
AcDbCircle
 10
276.0496344033
 20
206.260618093
 30
0.0
 40
26.5
100
AcDbArc
 50
175.8667227349
 51
184.1332772651
  0
ARC
  5
DF
330
D9
100
AcDbEntity
  8
TA-SMART_DN32_NP
  6
Continuous
 62
     7
100
AcDbCircle
 10
276.0496344033
 20
206.260618093
 30
0.0
 40
26.5
100
AcDbArc
 50
235.8667227349
 51
244.1332772651
  0
ARC
  5
E0
330
D9
100
AcDbEntity
  8
TA-SMART_DN32_NP
  6
Continuous
 62
     7
100
AcDbCircle
 10
276.0496344033
 20
206.260618093
 30
0.0
 40
26.5
100
AcDbArc
 50
295.8667227349
 51
304.1332772651
  0
ARC
  5
E1
330
D9
100
AcDbEntity
  8
TA-SMART_DN32_NP
  6
Continuous
 62
     7
100
AcDbCircle
 10
276.0496344033
 20
206.260618093
 30
0.0
 40
26.5
100
AcDbArc
 50
355.8667227349
 51
4.1332772651
  0
ARC
  5
E2
330
D9
100
AcDbEntity
  8
TA-SMART_DN32_NP
  6
Continuous
 62
     7
100
AcDbCircle
 10
276.0496344033
 20
206.260618093
 30
0.0
 40
26.5
100
AcDbArc
 50
55.8667227349
 51
64.1332772651
  0
LINE
  5
E3
330
D9
100
AcDbEntity
  8
TA-SMART_DN32_NP
  6
Continuous
 62
     7
100
AcDbLine
 10
287.6110346213
 20
230.105618093
 30
0.0
 11
264.4882341853
 21
230.105618093
 31
0.0
  0
LINE
  5
E4
330
D9
100
AcDbEntity
  8
TA-SMART_DN32_NP
  6
Continuous
 62
     7
100
AcDbLine
 10
302.4807102655
 20
208.1706518009
 30
0.0
 11
290.9193100475
 21
228.1955843851
 31
0.0
  0
LINE
  5
E5
330
D9
100
AcDbEntity
  8
TA-SMART_DN32_NP
  6
Continuous
 62
     7
100
AcDbLine
 10
290.9193100475
 20
184.3256518009
 30
0.0
 11
302.4807102655
 21
204.3505843851
 31
0.0
  0
LINE
  5
E6
330
D9
100
AcDbEntity
  8
TA-SMART_DN32_NP
  6
Continuous
 62
     7
100
AcDbLine
 10
264.4882341853
 20
182.415618093
 30
0.0
 11
287.6110346213
 21
182.415618093
 31
0.0
  0
LINE
  5
E7
330
D9
100
AcDbEntity
  8
TA-SMART_DN32_NP
  6
Continuous
 62
     7
100
AcDbLine
 10
249.6185585411
 20
204.3505843851
 30
0.0
 11
261.179958759
 21
184.3256518009
 31
0.0
  0
LINE
  5
E8
330
D9
100
AcDbEntity
  8
TA-SMART_DN32_NP
  6
Continuous
 62
     7
100
AcDbLine
 10
261.179958759
 20
228.1955843851
 30
0.0
 11
249.6185585411
 21
208.1706518009
 31
0.0
  0
CIRCLE
  5
E9
330
D9
100
AcDbEntity
  8
TA-SMART_DN32_NP
  6
Continuous
 62
     7
100
AcDbCircle
 10
276.0496344033
 20
206.260618093
 30
0.0
 40
18.68
  0
LINE
  5
EA
330
D9
100
AcDbEntity
  8
TA-SMART_DN32_NP
  6
Continuous
 62
     7
100
AcDbLine
 10
284.5826584862
 20
234.760618093
 30
0.0
 11
267.5166103203
 21
234.760618093
 31
0.0
  0
ARC
  5
EB
330
D9
100
AcDbEntity
  8
TA-SMART_DN32_NP
  6
Continuous
 62
     7
100
AcDbCircle
 10
276.0496344033
 20
206.260618093
 30
0.0
 40
29.75
100
AcDbArc
 50
106.6679289987
 51
253.3320710013
  0
ARC
  5
EC
330
D9
100
AcDbEntity
  8
TA-SMART_DN32_NP
  6
Continuous
 62
     7
100
AcDbCircle
 10
276.0496344033
 20
206.260618093
 30
0.0
 40
29.75
100
AcDbArc
 50
286.6679289987
 51
73.3320710013
  0
LINE
  5
ED
330
D9
100
AcDbEntity
  8
TA-SMART_DN32_NP
  6
Continuous
 62
     7
100
AcDbLine
 10
267.5166103203
 20
177.760618093
 30
0.0
 11
284.5826584862
 21
177.760618093
 31
0.0
  0
LINE
  5
EE
330
D9
100
AcDbEntity
  8
TA-SMART_DN32_NP
  6
Continuous
 62
     7
100
AcDbLine
 10
267.7210284054
 20
242.760618093
 30
0.0
 11
268.3019680122
 21
242.760618093
 31
0.0
  0
LINE
  5
EF
330
D9
100
AcDbEntity
  8
TA-SMART_DN32_NP
  6
Continuous
 62
     7
100
AcDbLine
 10
274.2086085292
 20
242.760618093
 30
0.0
 11
275.6974661718
 21
242.760618093
 31
0.0
  0
LINE
  5
F0
330
D9
100
AcDbEntity
  8
TA-SMART_DN32_NP
  6
Continuous
 62
     7
100
AcDbLine
 10
282.5372145271
 20
242.760618093
 30
0.0
 11
283.4451325629
 21
242.760618093
 31
0.0
  0
LINE
  5
F1
330
D9
100
AcDbEntity
  8
TA-SMART_DN32_NP
  6
Continuous
 62
     7
100
AcDbLine
 10
267.7210284054
 20
242.760618093
 30
0.0
 11
267.7210284054
 21
234.760618093
 31
0.0
  0
LINE
  5
F2
330
D9
100
AcDbEntity
  8
TA-SMART_DN32_NP
  6
Continuous
 62
     7
100
AcDbLine
 10
274.2086085292
 20
242.760618093
 30
0.0
 11
268.3019680122
 21
242.760618093
 31
0.0
  0
LINE
  5
F3
330
D9
100
AcDbEntity
  8
TA-SMART_DN32_NP
  6
Continuous
 62
     7
100
AcDbLine
 10
268.3019680122
 20
242.760618093
 30
0.0
 11
268.3019680122
 21
234.760618093
 31
0.0
  0
LINE
  5
F4
330
D9
100
AcDbEntity
  8
TA-SMART_DN32_NP
  6
Continuous
 62
     7
100
AcDbLine
 10
274.2086085292
 20
242.760618093
 30
0.0
 11
274.2086085292
 21
234.760618093
 31
0.0
  0
LINE
  5
F5
330
D9
100
AcDbEntity
  8
TA-SMART_DN32_NP
  6
Continuous
 62
     7
100
AcDbLine
 10
282.5372145271
 20
242.760618093
 30
0.0
 11
275.6974661718
 21
242.760618093
 31
0.0
  0
LINE
  5
F6
330
D9
100
AcDbEntity
  8
TA-SMART_DN32_NP
  6
Continuous
 62
     7
100
AcDbLine
 10
275.6974661718
 20
242.760618093
 30
0.0
 11
275.6974661718
 21
234.760618093
 31
0.0
  0
LINE
  5
F7
330
D9
100
AcDbEntity
  8
TA-SMART_DN32_NP
  6
Continuous
 62
     7
100
AcDbLine
 10
282.5372145271
 20
242.760618093
 30
0.0
 11
282.5372145271
 21
234.760618093
 31
0.0
  0
LINE
  5
F8
330
D9
100
AcDbEntity
  8
TA-SMART_DN32_NP
  6
Continuous
 62
     7
100
AcDbLine
 10
284.3782404012
 20
242.760618093
 30
0.0
 11
283.4451325629
 21
242.760618093
 31
0.0
  0
LINE
  5
F9
330
D9
100
AcDbEntity
  8
TA-SMART_DN32_NP
  6
Continuous
 62
     7
100
AcDbLine
 10
283.4451325629
 20
242.760618093
 30
0.0
 11
283.4451325629
 21
234.760618093
 31
0.0
  0
LINE
  5
FA
330
D9
100
AcDbEntity
  8
TA-SMART_DN32_NP
  6
Continuous
 62
     7
100
AcDbLine
 10
284.3782404012
 20
242.760618093
 30
0.0
 11
284.3782404012
 21
234.760618093
 31
0.0
  0
LINE
  5
FB
330
D9
100
AcDbEntity
  8
TA-SMART_DN32_NP
  6
Continuous
 62
     7
100
AcDbLine
 10
276.944035037
 20
171.3507425037
 30
0.0
 11
276.3570668981
 21
171.3507425037
 31
0.0
  0
LINE
  5
FC
330
D9
100
AcDbEntity
  8
TA-SMART_DN32_NP
  6
Continuous
 62
     7
100
AcDbLine
 10
272.765878324
 20
171.3507425037
 30
0.0
 11
272.4021516365
 21
171.3507425037
 31
0.0
  0
LINE
  5
FD
330
D9
100
AcDbEntity
  8
TA-SMART_DN32_NP
  6
Continuous
 62
     7
100
AcDbLine
 10
280.2277911163
 20
171.3507425037
 30
0.0
 11
280.0045496649
 21
171.3507425037
 31
0.0
  0
ARC
  5
FE
330
D9
100
AcDbEntity
  8
TA-SMART_DN32_NP
  6
Continuous
 62
     7
100
AcDbCircle
 10
278.4742923509
 20
171.7987814891
 30
0.0
 40
4.662736023659921
100
AcDbArc
 50
70.8411257066
 51
109.1588742934
  0
ARC
  5
FF
330
D9
100
AcDbEntity
  8
TA-SMART_DN32_NP
  6
Continuous
 62
     7
100
AcDbCircle
 10
274.561472611
 20
170.0936884805
 30
0.0
 40
6.367967296963654
100
AcDbArc
 50
73.6220103409
 51
106.3779896591
  0
SPLINE
  5
100
330
D9
100
AcDbEntity
  8
TA-SMART_DN32_NP
  6
Continuous
 62
     7
100
AcDbSpline
210
0.0
220
0.0
230
1.0
 70
     8
 71
     3
 72
    12
 73
     8
 74
     0
 42
0.000000001
 43
0.0000000001
 40
0.0
 40
0.0
 40
0.0
 40
0.0
 40
0.5
 40
0.5
 40
0.75
 40
0.75
 40
1.0
 40
1.0
 40
1.0
 40
1.0
 10
272.402151636453
 20
176.2032587315127
 30
0.0
 10
272.3153603014377
 20
176.3645327040225
 30
0.0
 10
272.2273274524794
 20
176.4626737960334
 30
0.0
 10
272.0923947922543
 20
176.463260811336
 30
0.0
 10
272.0473753454247
 20
176.4392015213974
 30
0.0
 10
271.958785890156
 20
176.3494843279244
 30
0.0
 10
271.9149576380552
 20
176.2840523256658
 30
0.0
 10
271.871477690311
 20
176.2032587315128
 30
0.0
  0
SPLINE
  5
101
330
D9
100
AcDbEntity
  8
TA-SMART_DN32_NP
  6
Continuous
 62
     7
100
AcDbSpline
210
0.0
220
0.0
230
1.0
 70
     8
 71
     3
 72
    10
 73
     6
 74
     0
 42
0.000000001
 43
0.0000000001
 40
0.6398863264939852
 40
0.6398863264939852
 40
0.6398863264939852
 40
0.6398863264939852
 40
0.75
 40
0.75
 40
1.0
 40
1.0
 40
1.0
 40
1.0
 10
280.03730244514
 20
176.4412169655036
 30
0.0
 10
280.0570279515937
 20
176.4298242111225
 30
0.0
 10
280.0766783680692
 20
176.4141011041608
 30
0.0
 10
280.1404829164106
 20
176.3494843279244
 30
0.0
 10
280.1843111685114
 20
176.2840523256658
 30
0.0
 10
280.2277911162557
 20
176.2032587315128
 30
0.0
  0
LINE
  5
102
330
D9
100
AcDbEntity
  8
TA-SMART_DN32_NP
  6
Continuous
 62
     7
100
AcDbLine
 10
279.9111344033
 20
176.5141618515
 30
0.0
 11
272.1881344033
 21
176.5141618515
 31
0.0
  0
LINE
  5
103
330
D9
100
AcDbEntity
  8
TA-SMART_DN32_NP
  6
Continuous
 62
     7
100
AcDbLine
 10
279.7996344033
 20
171.1141618515
 30
0.0
 11
272.2996344033
 21
171.1141618515
 31
0.0
  0
ARC
  5
104
330
D9
100
AcDbEntity
  8
TA-SMART_DN32_NP
  6
Continuous
 62
     7
100
AcDbCircle
 10
278.4742923509
 20
178.4174428153
 30
0.0
 40
7.230486895069949
100
AcDbArc
 50
257.7815460096
 51
282.2184539904
  0
ARC
  5
105
330
D9
100
AcDbEntity
  8
TA-SMART_DN32_NP
  6
Continuous
 62
     7
100
AcDbCircle
 10
274.561472611
 20
181.1114087786
 30
0.0
 40
9.924452880305907
100
AcDbArc
 50
259.5762826792
 51
280.4237173208
  0
SPLINE
  5
106
330
D9
100
AcDbEntity
  8
TA-SMART_DN32_NP
  6
Continuous
 62
     7
100
AcDbSpline
210
0.0
220
0.0
230
1.0
 70
     8
 71
     3
 72
     9
 73
     5
 74
     0
 42
0.000000001
 43
0.0000000001
 40
0.0
 40
0.0
 40
0.0
 40
0.0
 40
0.5
 40
1.0
 40
1.0
 40
1.0
 40
1.0
 10
271.871477690311
 20
171.3507425037444
 30
0.0
 10
271.9599233480013
 20
171.2471350677402
 30
0.0
 10
272.136814663382
 20
171.126776728909
 30
0.0
 10
272.3137059787627
 20
171.2471350677402
 30
0.0
 10
272.402151636453
 20
171.3507425037444
 30
0.0
  0
SPLINE
  5
107
330
D9
100
AcDbEntity
  8
TA-SMART_DN32_NP
  6
Continuous
 62
     7
100
AcDbSpline
210
0.0
220
0.0
230
1.0
 70
     8
 71
     3
 72
     8
 73
     4
 74
     0
 42
0.000000001
 43
0.0000000001
 40
0.0
 40
0.0
 40
0.0
 40
0.0
 40
0.3590690112119596
 40
0.3590690112119596
 40
0.3590690112119596
 40
0.3590690112119596
 10
280.2277911162557
 20
171.3507425037444
 30
0.0
 10
280.1642749265499
 20
171.2763380645439
 30
0.0
 10
280.1007587368442
 20
171.2243305473667
 30
0.0
 10
280.0372425471385
 20
171.2009238121391
 30
0.0
  0
LINE
  5
108
330
D9
100
AcDbEntity
  8
TA-SMART_DN32_NP
  6
Continuous
 62
     7
100
AcDbLine
 10
276.3570668981
 20
176.2032587315
 30
0.0
 11
276.944035037
 21
176.2032587315
 31
0.0
  0
LINE
  5
109
330
D9
100
AcDbEntity
  8
TA-SMART_DN32_NP
  6
Continuous
 62
     7
100
AcDbLine
 10
276.944035037
 20
171.3507425037
 30
0.0
 11
276.944035037
 21
176.2032587315
 31
0.0
  0
LINE
  5
10A
330
D9
100
AcDbEntity
  8
TA-SMART_DN32_NP
  6
Continuous
 62
     7
100
AcDbLine
 10
276.3570668981
 20
176.2032587315
 30
0.0
 11
276.3570668981
 21
171.3507425037
 31
0.0
  0
LINE
  5
10B
330
D9
100
AcDbEntity
  8
TA-SMART_DN32_NP
  6
Continuous
 62
     7
100
AcDbLine
 10
272.4021516365
 20
176.2032587315
 30
0.0
 11
272.765878324
 21
176.2032587315
 31
0.0
  0
LINE
  5
10C
330
D9
100
AcDbEntity
  8
TA-SMART_DN32_NP
  6
Continuous
 62
     7
100
AcDbLine
 10
272.765878324
 20
171.3507425037
 30
0.0
 11
272.765878324
 21
176.2032587315
 31
0.0
  0
LINE
  5
10D
330
D9
100
AcDbEntity
  8
TA-SMART_DN32_NP
  6
Continuous
 62
     7
100
AcDbLine
 10
272.4021516365
 20
176.2032587315
 30
0.0
 11
272.4021516365
 21
171.3507425037
 31
0.0
  0
LINE
  5
10E
330
D9
100
AcDbEntity
  8
TA-SMART_DN32_NP
  6
Continuous
 62
     7
100
AcDbLine
 10
271.8714776903
 20
171.3507425037
 30
0.0
 11
271.8714776903
 21
176.2032587315
 31
0.0
  0
LINE
  5
10F
330
D9
100
AcDbEntity
  8
TA-SMART_DN32_NP
  6
Continuous
 62
     7
100
AcDbLine
 10
280.0045496649
 20
176.2032587315
 30
0.0
 11
280.2277911163
 21
176.2032587315
 31
0.0
  0
LINE
  5
110
330
D9
100
AcDbEntity
  8
TA-SMART_DN32_NP
  6
Continuous
 62
     7
100
AcDbLine
 10
280.0045496649
 20
176.2032587315
 30
0.0
 11
280.0045496649
 21
171.3507425037
 31
0.0
  0
LINE
  5
111
330
D9
100
AcDbEntity
  8
TA-SMART_DN32_NP
  6
Continuous
 62
     7
100
AcDbLine
 10
280.2277911163
 20
171.3507425037
 30
0.0
 11
280.2277911163
 21
176.2032587315
 31
0.0
  0
LINE
  5
112
330
D9
100
AcDbEntity
  8
TA-SMART_DN32_NP
  6
Continuous
 62
     7
100
AcDbLine
 10
280.0430826406
 20
176.4379815011
 30
0.0
 11
279.9111344033
 21
176.5141618515
 31
0.0
  0
LINE
  5
113
330
D9
100
AcDbEntity
  8
TA-SMART_DN32_NP
  6
Continuous
 62
     7
100
AcDbLine
 10
272.1881344033
 20
176.5141618515
 30
0.0
 11
272.056186166
 21
176.4379815011
 31
0.0
  0
LINE
  5
114
330
D9
100
AcDbEntity
  8
TA-SMART_DN32_NP
  6
Continuous
 62
     7
100
AcDbLine
 10
272.1881344033
 20
177.760618093
 30
0.0
 11
272.1881344033
 21
176.5141618515
 31
0.0
  0
LINE
  5
115
330
D9
100
AcDbEntity
  8
TA-SMART_DN32_NP
  6
Continuous
 62
     7
100
AcDbLine
 10
279.9111344033
 20
176.5141618515
 30
0.0
 11
279.9111344033
 21
177.760618093
 31
0.0
  0
LINE
  5
116
330
D9
100
AcDbEntity
  8
TA-SMART_DN32_NP
  6
Continuous
 62
     7
100
AcDbLine
 10
272.0587333083
 20
171.2018426794
 30
0.0
 11
272.2996344033
 21
171.1141618515
 31
0.0
  0
LINE
  5
117
330
D9
100
AcDbEntity
  8
TA-SMART_DN32_NP
  6
Continuous
 62
     7
100
AcDbLine
 10
279.7996344033
 20
171.1141618515
 30
0.0
 11
280.0405354982
 21
171.2018426794
 31
0.0
  0
ENDBLK
  5
119
330
D9
100
AcDbEntity
  8
0
100
AcDbBlockEnd
  0
BLOCK
  5
178
330
11A
100
AcDbEntity
  8
0
100
AcDbBlockBegin
  2
SE2
 70
     0
 10
0.0
 20
0.0
 30
0.0
  3
SE2
  1

  0
LINE
  5
11C
330
11A
100
AcDbEntity
  8
TA-SMART_DN32_NP
  6
Continuous
 62
     7
100
AcDbLine
 10
71.2198481364
 20
65.9375849875
 30
0.0
 11
71.2198481364
 21
112.9375849875
 31
0.0
  0
LINE
  5
11D
330
11A
100
AcDbEntity
  8
TA-SMART_DN32_NP
  6
Continuous
 62
     7
100
AcDbLine
 10
72.3117588392
 20
100.9989852055
 30
0.0
 11
72.3117588392
 21
104.3072606318
 31
0.0
  0
LINE
  5
11E
330
11A
100
AcDbEntity
  8
TA-SMART_DN32_NP
  6
Continuous
 62
     7
100
AcDbLine
 10
90.2198481364
 20
61.6875849875
 30
0.0
 11
90.2198481364
 21
117.1875849875
 31
0.0
  0
LINE
  5
11F
330
11A
100
AcDbEntity
  8
TA-SMART_DN32_NP
  6
Continuous
 62
     7
100
AcDbLine
 10
72.3117588392
 20
115.8686608497
 30
0.0
 11
72.3117588392
 21
115.9375849875
 31
0.0
  0
LINE
  5
120
330
11A
100
AcDbEntity
  8
TA-SMART_DN32_NP
  6
Continuous
 62
     7
100
AcDbLine
 10
72.3117588392
 20
63.0065091253
 30
0.0
 11
72.3117588392
 21
62.9375849875
 31
0.0
  0
LINE
  5
121
330
11A
100
AcDbEntity
  8
TA-SMART_DN32_NP
  6
Continuous
 62
     7
100
AcDbLine
 10
72.3117588392
 20
74.5679093433
 30
0.0
 11
72.3117588392
 21
77.8761847695
 31
0.0
  0
SPLINE
  5
122
330
11A
100
AcDbEntity
  8
TA-SMART_DN32_NP
  6
Continuous
 62
     7
100
AcDbSpline
210
0.0
220
0.0
230
1.0
 70
     8
 71
     3
 72
    10
 73
     6
 74
     0
 42
0.000000001
 43
0.0000000001
 40
0.0
 40
0.0
 40
0.0
 40
0.0
 40
0.5
 40
0.5
 40
1.0
 40
1.0
 40
1.0
 40
1.0
 10
72.31175883915954
 20
77.87618476954972
 30
0.0
 10
71.69997350807999
 20
81.72891526080858
 30
0.0
 10
71.34427272571986
 20
85.60291311605607
 30
0.0
 10
71.34656882145707
 20
93.31128598960882
 30
0.0
 10
71.70181789177803
 20
97.15786975785154
 30
0.0
 10
72.31175883915954
 20
100.9989852054831
 30
0.0
  0
LINE
  5
123
330
11A
100
AcDbEntity
  8
TA-SMART_DN32_NP
  6
Continuous
 62
     7
100
AcDbLine
 10
72.3117588392
 20
100.9989852055
 30
0.0
 11
90.2198481364
 21
100.9989852055
 31
0.0
  0
LINE
  5
124
330
11A
100
AcDbEntity
  8
TA-SMART_DN32_NP
  6
Continuous
 62
     7
100
AcDbLine
 10
90.2198481364
 20
77.8761847695
 30
0.0
 11
72.3117588392
 21
77.8761847695
 31
0.0
  0
ARC
  5
125
330
11A
100
AcDbEntity
  8
TA-SMART_DN32_NP
  6
Continuous
 62
     7
100
AcDbCircle
 10
89.2702313984
 20
68.7872092343
 30
0.0
 40
17.91664827175206
100
AcDbArc
 50
161.177098085
 51
198.822901915
  0
LINE
  5
126
330
11A
100
AcDbEntity
  8
TA-SMART_DN32_NP
  6
Continuous
 62
     7
100
AcDbLine
 10
72.3117588392
 20
74.5679093433
 30
0.0
 11
90.2198481364
 21
74.5679093433
 31
0.0
  0
LINE
  5
127
330
11A
100
AcDbEntity
  8
TA-SMART_DN32_NP
  6
Continuous
 62
     7
100
AcDbLine
 10
90.2198481364
 20
63.0065091253
 30
0.0
 11
72.3117588392
 21
63.0065091253
 31
0.0
  0
ARC
  5
128
330
11A
100
AcDbEntity
  8
TA-SMART_DN32_NP
  6
Continuous
 62
     7
100
AcDbCircle
 10
89.2702313984
 20
110.0879607408
 30
0.0
 40
17.91664827175229
100
AcDbArc
 50
161.177098085
 51
198.822901915
  0
LINE
  5
129
330
11A
100
AcDbEntity
  8
TA-SMART_DN32_NP
  6
Continuous
 62
     7
100
AcDbLine
 10
72.3117588392
 20
115.8686608497
 30
0.0
 11
90.2198481364
 21
115.8686608497
 31
0.0
  0
LINE
  5
12A
330
11A
100
AcDbEntity
  8
TA-SMART_DN32_NP
  6
Continuous
 62
     7
100
AcDbLine
 10
90.2198481364
 20
104.3072606318
 30
0.0
 11
72.3117588392
 21
104.3072606318
 31
0.0
  0
LINE
  5
12B
330
11A
100
AcDbEntity
  8
TA-SMART_DN32_NP
  6
Continuous
 62
     7
100
AcDbLine
 10
118.2198481364
 20
61.6875849875
 30
0.0
 11
118.2198481364
 21
117.1875849875
 31
0.0
  0
LINE
  5
12C
330
11A
100
AcDbEntity
  8
TA-SMART_DN32_NP
  6
Continuous
 62
     7
100
AcDbLine
 10
136.1279374336
 20
100.9989852055
 30
0.0
 11
136.1279374336
 21
104.3072606318
 31
0.0
  0
LINE
  5
12D
330
11A
100
AcDbEntity
  8
TA-SMART_DN32_NP
  6
Continuous
 62
     7
100
AcDbLine
 10
137.2198481364
 20
65.9375849875
 30
0.0
 11
137.2198481364
 21
112.9375849875
 31
0.0
  0
LINE
  5
12E
330
11A
100
AcDbEntity
  8
TA-SMART_DN32_NP
  6
Continuous
 62
     7
100
AcDbLine
 10
136.1279374336
 20
115.8686608497
 30
0.0
 11
136.1279374336
 21
115.9375849875
 31
0.0
  0
LINE
  5
12F
330
11A
100
AcDbEntity
  8
TA-SMART_DN32_NP
  6
Continuous
 62
     7
100
AcDbLine
 10
136.1279374336
 20
63.0065091253
 30
0.0
 11
136.1279374336
 21
62.9375849875
 31
0.0
  0
LINE
  5
130
330
11A
100
AcDbEntity
  8
TA-SMART_DN32_NP
  6
Continuous
 62
     7
100
AcDbLine
 10
136.1279374336
 20
74.5679093433
 30
0.0
 11
136.1279374336
 21
77.8761847695
 31
0.0
  0
SPLINE
  5
131
330
11A
100
AcDbEntity
  8
TA-SMART_DN32_NP
  6
Continuous
 62
     7
100
AcDbSpline
210
0.0
220
0.0
230
1.0
 70
     8
 71
     3
 72
    10
 73
     6
 74
     0
 42
0.000000001
 43
0.0000000001
 40
0.0
 40
0.0
 40
0.0
 40
0.0
 40
0.5
 40
0.5
 40
1.0
 40
1.0
 40
1.0
 40
1.0
 10
136.1279374335623
 20
100.9989852054831
 30
0.0
 10
136.7378783809438
 20
97.15786975785154
 30
0.0
 10
137.0931274512648
 20
93.31128598960882
 30
0.0
 10
137.095423547002
 20
85.60291311605607
 30
0.0
 10
136.7397227646419
 20
81.72891526080858
 30
0.0
 10
136.1279374335623
 20
77.87618476954972
 30
0.0
  0
ARC
  5
132
330
11A
100
AcDbEntity
  8
TA-SMART_DN32_NP
  6
Continuous
 62
     7
100
AcDbCircle
 10
119.1694648743
 20
68.7872092343
 30
0.0
 40
17.91664827175211
100
AcDbArc
 50
341.177098085
 51
18.822901915
  0
ARC
  5
133
330
11A
100
AcDbEntity
  8
TA-SMART_DN32_NP
  6
Continuous
 62
     7
100
AcDbCircle
 10
119.1694648743
 20
110.0879607408
 30
0.0
 40
17.9166482717521
100
AcDbArc
 50
341.177098085
 51
18.822901915
  0
LINE
  5
134
330
11A
100
AcDbEntity
  8
TA-SMART_DN32_NP
  6
Continuous
 62
     7
100
AcDbLine
 10
118.2198481364
 20
115.8686608497
 30
0.0
 11
136.1279374336
 21
115.8686608497
 31
0.0
  0
LINE
  5
135
330
11A
100
AcDbEntity
  8
TA-SMART_DN32_NP
  6
Continuous
 62
     7
100
AcDbLine
 10
136.1279374336
 20
104.3072606318
 30
0.0
 11
118.2198481364
 21
104.3072606318
 31
0.0
  0
LINE
  5
136
330
11A
100
AcDbEntity
  8
TA-SMART_DN32_NP
  6
Continuous
 62
     7
100
AcDbLine
 10
118.2198481364
 20
74.5679093433
 30
0.0
 11
136.1279374336
 21
74.5679093433
 31
0.0
  0
LINE
  5
137
330
11A
100
AcDbEntity
  8
TA-SMART_DN32_NP
  6
Continuous
 62
     7
100
AcDbLine
 10
136.1279374336
 20
63.0065091253
 30
0.0
 11
118.2198481364
 21
63.0065091253
 31
0.0
  0
LINE
  5
138
330
11A
100
AcDbEntity
  8
TA-SMART_DN32_NP
  6
Continuous
 62
     7
100
AcDbLine
 10
118.2198481364
 20
100.9989852055
 30
0.0
 11
136.1279374336
 21
100.9989852055
 31
0.0
  0
LINE
  5
139
330
11A
100
AcDbEntity
  8
TA-SMART_DN32_NP
  6
Continuous
 62
     7
100
AcDbLine
 10
136.1279374336
 20
77.8761847695
 30
0.0
 11
118.2198481364
 21
77.8761847695
 31
0.0
  0
LINE
  5
13A
330
11A
100
AcDbEntity
  8
TA-SMART_DN32_NP
  6
Continuous
 62
     7
100
AcDbLine
 10
116.2198481364
 20
80.9045609046
 30
0.0
 11
111.5512872857
 21
80.9045609046
 31
0.0
  0
SPLINE
  5
13B
330
11A
100
AcDbEntity
  8
TA-SMART_DN32_NP
  6
Continuous
 62
     7
100
AcDbSpline
210
0.0
220
0.0
230
1.0
 70
     8
 71
     3
 72
    14
 73
    10
 74
     0
 42
0.000000001
 43
0.0000000001
 40
0.0
 40
0.0
 40
0.0
 40
0.0
 40
0.4999999999999999
 40
0.4999999999999999
 40
0.6249999999999999
 40
0.6249999999999999
 40
0.7499999999999998
 40
0.7499999999999998
 40
1.0
 40
1.0
 40
1.0
 40
1.0
 10
92.21984813636092
 20
80.9045609045784
 30
0.0
 10
91.42390012444716
 20
83.6795974126532
 30
0.0
 10
90.97063318672149
 20
86.51494229508499
 30
0.0
 10
90.9696531623416
 20
90.1586638720439
 30
0.0
 10
90.99763345444984
 20
90.88729871850579
 30
0.0
 10
91.10718799280329
 20
92.32970683837821
 30
0.0
 10
91.18873765923844
 20
93.04580087050877
 30
0.0
 10
91.50851139722411
 20
95.17974396319296
 30
0.0
 10
91.82191778882802
 20
96.58324302952467
 30
0.0
 10
92.21984813636092
 20
97.97060907045443
 30
0.0
  0
SPLINE
  5
13C
330
11A
100
AcDbEntity
  8
TA-SMART_DN32_NP
  6
Continuous
 62
     7
100
AcDbSpline
210
0.0
220
0.0
230
1.0
 70
     8
 71
     3
 72
    14
 73
    10
 74
     0
 42
0.000000001
 43
0.0000000001
 40
0.0
 40
0.0
 40
0.0
 40
0.0
 40
0.25
 40
0.25
 40
0.375
 40
0.375
 40
0.5
 40
0.5
 40
1.0
 40
1.0
 40
1.0
 40
1.0
 10
116.2198481363609
 20
97.97060907045443
 30
0.0
 10
116.6177784838938
 20
96.58324302952467
 30
0.0
 10
116.9311848754977
 20
95.17974396319296
 30
0.0
 10
117.2509586134834
 20
93.04580087050877
 30
0.0
 10
117.3325082799186
 20
92.32970683837821
 30
0.0
 10
117.442062818272
 20
90.88729871850579
 30
0.0
 10
117.4700431103803
 20
90.1586638720439
 30
0.0
 10
117.4690630860004
 20
86.51494229508499
 30
0.0
 10
117.0157961482747
 20
83.67959741265321
 30
0.0
 10
116.2198481363609
 20
80.9045609045784
 30
0.0
  0
LINE
  5
13D
330
11A
100
AcDbEntity
  8
TA-SMART_DN32_NP
  6
Continuous
 62
     7
100
AcDbLine
 10
116.2198481364
 20
119.1875849875
 30
0.0
 11
116.2198481364
 21
97.9706090705
 31
0.0
  0
LINE
  5
13E
330
11A
100
AcDbEntity
  8
TA-SMART_DN32_NP
  6
Continuous
 62
     7
100
AcDbLine
 10
92.2198481364
 20
119.1875849875
 30
0.0
 11
92.2198481364
 21
97.9706090705
 31
0.0
  0
LINE
  5
13F
330
11A
100
AcDbEntity
  8
TA-SMART_DN32_NP
  6
Continuous
 62
     7
100
AcDbLine
 10
116.2198481364
 20
97.9706090705
 30
0.0
 11
111.5512872857
 21
97.9706090705
 31
0.0
  0
LINE
  5
140
330
11A
100
AcDbEntity
  8
TA-SMART_DN32_NP
  6
Continuous
 62
     7
100
AcDbLine
 10
116.2198481364
 20
59.6875849875
 30
0.0
 11
116.2198481364
 21
80.9045609046
 31
0.0
  0
LINE
  5
141
330
11A
100
AcDbEntity
  8
TA-SMART_DN32_NP
  6
Continuous
 62
     7
100
AcDbLine
 10
104.7198481364
 20
78.198701591
 30
0.0
 11
104.7198481364
 21
59.6875849875
 31
0.0
  0
LINE
  5
142
330
11A
100
AcDbEntity
  8
TA-SMART_DN32_NP
  6
Continuous
 62
     7
100
AcDbLine
 10
104.2198481364
 20
79.4720192735
 30
0.0
 11
104.2198481364
 21
60.1875849875
 31
0.0
  0
LINE
  5
143
330
11A
100
AcDbEntity
  8
TA-SMART_DN32_NP
  6
Continuous
 62
     7
100
AcDbLine
 10
103.7198481364
 20
78.198701591
 30
0.0
 11
103.7198481364
 21
59.6875849875
 31
0.0
  0
LINE
  5
144
330
11A
100
AcDbEntity
  8
TA-SMART_DN32_NP
  6
Continuous
 62
     7
100
AcDbLine
 10
92.2198481364
 20
59.6875849875
 30
0.0
 11
92.2198481364
 21
80.9045609046
 31
0.0
  0
LINE
  5
145
330
11A
100
AcDbEntity
  8
TA-SMART_DN32_NP
  6
Continuous
 62
     7
100
AcDbLine
 10
96.8884089871
 20
80.9045609046
 30
0.0
 11
92.2198481364
 21
80.9045609046
 31
0.0
  0
LINE
  5
146
330
11A
100
AcDbEntity
  8
TA-SMART_DN32_NP
  6
Continuous
 62
     7
100
AcDbLine
 10
96.8884089871
 20
97.9706090705
 30
0.0
 11
92.2198481364
 21
97.9706090705
 31
0.0
  0
ARC
  5
147
330
11A
100
AcDbEntity
  8
TA-SMART_DN32_NP
  6
Continuous
 62
     7
100
AcDbCircle
 10
104.2198481364
 20
89.4375849875
 30
0.0
 40
11.24999999999987
100
AcDbArc
 50
310.6686496247
 51
49.3313503753
  0
ARC
  5
148
330
11A
100
AcDbEntity
  8
TA-SMART_DN32_NP
  6
Continuous
 62
     7
100
AcDbCircle
 10
104.2198481364
 20
89.4375849875
 30
0.0
 40
11.24999999999987
100
AcDbArc
 50
130.6686496247
 51
229.3313503753
  0
LINE
  5
149
330
11A
100
AcDbEntity
  8
TA-SMART_DN32_NP
  6
Continuous
 62
     7
100
AcDbLine
 10
104.7198481364
 20
119.1875849875
 30
0.0
 11
104.7198481364
 21
100.676468384
 31
0.0
  0
ARC
  5
14A
330
11A
100
AcDbEntity
  8
TA-SMART_DN32_NP
  6
Continuous
 62
     7
100
AcDbCircle
 10
104.2198481364
 20
89.4375849875
 30
0.0
 40
11.24999999999866
100
AcDbArc
 50
49.3313503753
 51
87.4526818174
  0
LINE
  5
14B
330
11A
100
AcDbEntity
  8
TA-SMART_DN32_NP
  6
Continuous
 62
     7
100
AcDbLine
 10
104.2198481364
 20
118.6875849875
 30
0.0
 11
104.2198481364
 21
99.4031507015
 31
0.0
  0
LINE
  5
14C
330
11A
100
AcDbEntity
  8
TA-SMART_DN32_NP
  6
Continuous
 62
     7
100
AcDbLine
 10
104.6784692202
 20
100.6782329538
 30
0.0
 11
104.2198481364
 21
99.4031507015
 31
0.0
  0
LINE
  5
14D
330
11A
100
AcDbEntity
  8
TA-SMART_DN32_NP
  6
Continuous
 62
     7
100
AcDbLine
 10
103.7198481364
 20
119.1875849875
 30
0.0
 11
103.7198481364
 21
100.676468384
 31
0.0
  0
SPLINE
  5
14E
330
11A
100
AcDbEntity
  8
TA-SMART_DN32_NP
  6
Continuous
 62
     7
100
AcDbSpline
210
0.0
220
0.0
230
1.0
 70
     8
 71
     3
 72
     8
 73
     4
 74
     0
 42
0.000000001
 43
0.0000000001
 40
0.0
 40
0.0
 40
0.0
 40
0.0
 40
1.0
 40
1.0
 40
1.0
 40
1.0
 10
103.7612270525495
 20
78.19693702125204
 30
0.0
 10
103.9210267756351
 20
78.61928183951302
 30
0.0
 10
104.0743583080678
 20
79.0449910846831
 30
0.0
 10
104.2198481363609
 20
79.47201927351905
 30
0.0
  0
SPLINE
  5
14F
330
11A
100
AcDbEntity
  8
TA-SMART_DN32_NP
  6
Continuous
 62
     7
100
AcDbSpline
210
0.0
220
0.0
230
1.0
 70
     8
 71
     3
 72
     8
 73
     4
 74
     0
 42
0.000000001
 43
0.0000000001
 40
0.0
 40
0.0
 40
0.0
 40
0.0
 40
1.0
 40
1.0
 40
1.0
 40
1.0
 10
104.2198481363609
 20
79.47201927351905
 30
0.0
 10
104.3653379646541
 20
79.0449910846831
 30
0.0
 10
104.5186694970868
 20
78.61928183951302
 30
0.0
 10
104.6784692201723
 20
78.19693702125204
 30
0.0
  0
ARC
  5
150
330
11A
100
AcDbEntity
  8
TA-SMART_DN32_NP
  6
Continuous
 62
     7
100
AcDbCircle
 10
104.2198481364
 20
89.4375849875
 30
0.0
 40
11.24999999999871
100
AcDbArc
 50
229.3313503753
 51
267.4526818174
  0
LINE
  5
151
330
11A
100
AcDbEntity
  8
TA-SMART_DN32_NP
  6
Continuous
 62
     7
100
AcDbLine
 10
103.7198481364
 20
78.198701591
 30
0.0
 11
103.7612270525
 21
78.1969370213
 31
0.0
  0
LINE
  5
152
330
11A
100
AcDbEntity
  8
TA-SMART_DN32_NP
  6
Continuous
 62
     7
100
AcDbLine
 10
104.6784692202
 20
78.1969370213
 30
0.0
 11
104.7198481364
 21
78.198701591
 31
0.0
  0
ARC
  5
153
330
11A
100
AcDbEntity
  8
TA-SMART_DN32_NP
  6
Continuous
 62
     7
100
AcDbCircle
 10
104.2198481364
 20
89.4375849875
 30
0.0
 40
11.24999999999865
100
AcDbArc
 50
272.5473181826
 51
310.6686496247
  0
ARC
  5
154
330
11A
100
AcDbEntity
  8
TA-SMART_DN32_NP
  6
Continuous
 62
     7
100
AcDbCircle
 10
104.2198481364
 20
89.4375849875
 30
0.0
 40
11.24999999999864
100
AcDbArc
 50
92.5473181826
 51
130.6686496247
  0
LINE
  5
155
330
11A
100
AcDbEntity
  8
TA-SMART_DN32_NP
  6
Continuous
 62
     7
100
AcDbLine
 10
103.7612270525
 20
100.6782329538
 30
0.0
 11
103.7198481364
 21
100.676468384
 31
0.0
  0
LINE
  5
156
330
11A
100
AcDbEntity
  8
TA-SMART_DN32_NP
  6
Continuous
 62
     7
100
AcDbLine
 10
104.7198481364
 20
100.676468384
 30
0.0
 11
104.6784692202
 21
100.6782329538
 31
0.0
  0
LINE
  5
157
330
11A
100
AcDbEntity
  8
TA-SMART_DN32_NP
  6
Continuous
 62
     7
100
AcDbLine
 10
104.2198481364
 20
99.4031507015
 30
0.0
 11
103.7612270525
 21
100.6782329538
 31
0.0
  0
ARC
  5
158
330
11A
100
AcDbEntity
  8
TA-SMART_DN32_NP
  6
Continuous
 62
     7
100
AcDbCircle
 10
104.2198481364
 20
89.4375849875
 30
0.0
 40
8.749999999999998
100
AcDbArc
 50
47.8540324056
 51
57.6933480084
  0
ARC
  5
159
330
11A
100
AcDbEntity
  8
TA-SMART_DN32_NP
  6
Continuous
 62
     7
100
AcDbCircle
 10
104.2198481364
 20
89.4375849875
 30
0.0
 40
8.749999999999998
100
AcDbArc
 50
107.8540324056
 51
117.6933480084
  0
ARC
  5
15A
330
11A
100
AcDbEntity
  8
TA-SMART_DN32_NP
  6
Continuous
 62
     7
100
AcDbCircle
 10
104.2198481364
 20
89.4375849875
 30
0.0
 40
8.749999999999998
100
AcDbArc
 50
167.8540324056
 51
177.6933480084
  0
ARC
  5
15B
330
11A
100
AcDbEntity
  8
TA-SMART_DN32_NP
  6
Continuous
 62
     7
100
AcDbCircle
 10
104.2198481364
 20
89.4375849875
 30
0.0
 40
8.749999999999995
100
AcDbArc
 50
227.8540324056
 51
237.6933480084
  0
ARC
  5
15C
330
11A
100
AcDbEntity
  8
TA-SMART_DN32_NP
  6
Continuous
 62
     7
100
AcDbCircle
 10
104.2198481364
 20
89.4375849875
 30
0.0
 40
8.750000000000004
100
AcDbArc
 50
287.8540324056
 51
297.6933480084
  0
ARC
  5
15D
330
11A
100
AcDbEntity
  8
TA-SMART_DN32_NP
  6
Continuous
 62
     7
100
AcDbCircle
 10
104.2198481364
 20
89.4375849875
 30
0.0
 40
8.750000000000002
100
AcDbArc
 50
347.8540324056
 51
357.6933480084
  0
LINE
  5
15E
330
11A
100
AcDbEntity
  8
TA-SMART_DN32_NP
  6
Continuous
 62
     7
100
AcDbLine
 10
110.0912878352
 20
95.9251651113
 30
0.0
 11
112.9627582661
 21
89.085416756
 31
0.0
  0
LINE
  5
15F
330
11A
100
AcDbEntity
  8
TA-SMART_DN32_NP
  6
Continuous
 62
     7
100
AcDbLine
 10
101.5371587894
 20
97.7661909854
 30
0.0
 11
108.8962898361
 21
96.8330831471
 31
0.0
  0
LINE
  5
160
330
11A
100
AcDbEntity
  8
TA-SMART_DN32_NP
  6
Continuous
 62
     7
100
AcDbLine
 10
95.6657190906
 20
91.2786108616
 30
0.0
 11
100.1533797064
 21
97.1852513786
 31
0.0
  0
LINE
  5
161
330
11A
100
AcDbEntity
  8
TA-SMART_DN32_NP
  6
Continuous
 62
     7
100
AcDbLine
 10
98.3484084375
 20
82.9500048637
 30
0.0
 11
95.4769380066
 21
89.789753219
 31
0.0
  0
LINE
  5
162
330
11A
100
AcDbEntity
  8
TA-SMART_DN32_NP
  6
Continuous
 62
     7
100
AcDbLine
 10
106.9025374833
 20
81.1089789896
 30
0.0
 11
99.5434064366
 21
82.0420868279
 31
0.0
  0
LINE
  5
163
330
11A
100
AcDbEntity
  8
TA-SMART_DN32_NP
  6
Continuous
 62
     7
100
AcDbLine
 10
112.7739771821
 20
87.5965591135
 30
0.0
 11
108.2863165663
 21
81.6899185964
 31
0.0
  0
LINE
  5
164
330
11A
100
AcDbEntity
  8
TA-SMART_DN32_NP
  6
Continuous
 62
     7
100
AcDbLine
 10
72.3117588392
 20
115.9375849875
 30
0.0
 11
71.2198481364
 21
112.9375849875
 31
0.0
  0
LINE
  5
165
330
11A
100
AcDbEntity
  8
TA-SMART_DN32_NP
  6
Continuous
 62
     7
100
AcDbLine
 10
71.2198481364
 20
65.9375849875
 30
0.0
 11
72.3117588392
 21
62.9375849875
 31
0.0
  0
LINE
  5
166
330
11A
100
AcDbEntity
  8
TA-SMART_DN32_NP
  6
Continuous
 62
     7
100
AcDbLine
 10
90.2198481364
 20
115.9375849875
 30
0.0
 11
72.3117588392
 21
115.9375849875
 31
0.0
  0
LINE
  5
167
330
11A
100
AcDbEntity
  8
TA-SMART_DN32_NP
  6
Continuous
 62
     7
100
AcDbLine
 10
72.3117588392
 20
62.9375849875
 30
0.0
 11
90.2198481364
 21
62.9375849875
 31
0.0
  0
LINE
  5
168
330
11A
100
AcDbEntity
  8
TA-SMART_DN32_NP
  6
Continuous
 62
     7
100
AcDbLine
 10
136.1279374336
 20
62.9375849875
 30
0.0
 11
137.2198481364
 21
65.9375849875
 31
0.0
  0
LINE
  5
169
330
11A
100
AcDbEntity
  8
TA-SMART_DN32_NP
  6
Continuous
 62
     7
100
AcDbLine
 10
137.2198481364
 20
112.9375849875
 30
0.0
 11
136.1279374336
 21
115.9375849875
 31
0.0
  0
LINE
  5
16A
330
11A
100
AcDbEntity
  8
TA-SMART_DN32_NP
  6
Continuous
 62
     7
100
AcDbLine
 10
118.2198481364
 20
62.9375849875
 30
0.0
 11
136.1279374336
 21
62.9375849875
 31
0.0
  0
LINE
  5
16B
330
11A
100
AcDbEntity
  8
TA-SMART_DN32_NP
  6
Continuous
 62
     7
100
AcDbLine
 10
136.1279374336
 20
115.9375849875
 30
0.0
 11
118.2198481364
 21
115.9375849875
 31
0.0
  0
LINE
  5
16C
330
11A
100
AcDbEntity
  8
TA-SMART_DN32_NP
  6
Continuous
 62
     7
100
AcDbLine
 10
116.2198481364
 20
119.1875849875
 30
0.0
 11
104.7198481364
 21
119.1875849875
 31
0.0
  0
LINE
  5
16D
330
11A
100
AcDbEntity
  8
TA-SMART_DN32_NP
  6
Continuous
 62
     7
100
AcDbLine
 10
104.7198481364
 20
59.6875849875
 30
0.0
 11
116.2198481364
 21
59.6875849875
 31
0.0
  0
LINE
  5
16E
330
11A
100
AcDbEntity
  8
TA-SMART_DN32_NP
  6
Continuous
 62
     7
100
AcDbLine
 10
116.2198481364
 20
59.6875849875
 30
0.0
 11
118.2198481364
 21
61.6875849875
 31
0.0
  0
LINE
  5
16F
330
11A
100
AcDbEntity
  8
TA-SMART_DN32_NP
  6
Continuous
 62
     7
100
AcDbLine
 10
118.2198481364
 20
117.1875849875
 30
0.0
 11
116.2198481364
 21
119.1875849875
 31
0.0
  0
LINE
  5
170
330
11A
100
AcDbEntity
  8
TA-SMART_DN32_NP
  6
Continuous
 62
     7
100
AcDbLine
 10
104.7198481364
 20
119.1875849875
 30
0.0
 11
104.2198481364
 21
118.6875849875
 31
0.0
  0
LINE
  5
171
330
11A
100
AcDbEntity
  8
TA-SMART_DN32_NP
  6
Continuous
 62
     7
100
AcDbLine
 10
104.2198481364
 20
60.1875849875
 30
0.0
 11
104.7198481364
 21
59.6875849875
 31
0.0
  0
LINE
  5
172
330
11A
100
AcDbEntity
  8
TA-SMART_DN32_NP
  6
Continuous
 62
     7
100
AcDbLine
 10
104.2198481364
 20
118.6875849875
 30
0.0
 11
103.7198481364
 21
119.1875849875
 31
0.0
  0
LINE
  5
173
330
11A
100
AcDbEntity
  8
TA-SMART_DN32_NP
  6
Continuous
 62
     7
100
AcDbLine
 10
103.7198481364
 20
59.6875849875
 30
0.0
 11
104.2198481364
 21
60.1875849875
 31
0.0
  0
LINE
  5
174
330
11A
100
AcDbEntity
  8
TA-SMART_DN32_NP
  6
Continuous
 62
     7
100
AcDbLine
 10
92.2198481364
 20
119.1875849875
 30
0.0
 11
90.2198481364
 21
117.1875849875
 31
0.0
  0
LINE
  5
175
330
11A
100
AcDbEntity
  8
TA-SMART_DN32_NP
  6
Continuous
 62
     7
100
AcDbLine
 10
90.2198481364
 20
61.6875849875
 30
0.0
 11
92.2198481364
 21
59.6875849875
 31
0.0
  0
LINE
  5
176
330
11A
100
AcDbEntity
  8
TA-SMART_DN32_NP
  6
Continuous
 62
     7
100
AcDbLine
 10
103.7198481364
 20
119.1875849875
 30
0.0
 11
92.2198481364
 21
119.1875849875
 31
0.0
  0
LINE
  5
177
330
11A
100
AcDbEntity
  8
TA-SMART_DN32_NP
  6
Continuous
 62
     7
100
AcDbLine
 10
92.2198481364
 20
59.6875849875
 30
0.0
 11
103.7198481364
 21
59.6875849875
 31
0.0
  0
ENDBLK
  5
179
330
11A
100
AcDbEntity
  8
0
100
AcDbBlockEnd
  0
BLOCK
  5
1B9
330
17A
100
AcDbEntity
  8
0
100
AcDbBlockBegin
  2
SE3
 70
     0
 10
0.0
 20
0.0
 30
0.0
  3
SE3
  1

  0
CIRCLE
  5
17C
330
17A
100
AcDbEntity
  8
TA-SMART_DN32_NP
  6
Continuous
 62
     7
100
AcDbCircle
 10
209.7798318236
 20
89.4375849875
 30
0.0
 40
23.5
  0
ARC
  5
17D
330
17A
100
AcDbEntity
  8
TA-SMART_DN32_NP
  6
Continuous
 62
     7
100
AcDbCircle
 10
209.7798318236
 20
89.4375849875
 30
0.0
 40
26.5
100
AcDbArc
 50
25.8667227349
 51
34.1332772651
  0
CIRCLE
  5
17E
330
17A
100
AcDbEntity
  8
TA-SMART_DN32_NP
  6
Continuous
 62
     7
100
AcDbCircle
 10
209.7798318236
 20
89.4375849875
 30
0.0
 40
27.75
  0
ARC
  5
17F
330
17A
100
AcDbEntity
  8
TA-SMART_DN32_NP
  6
Continuous
 62
     7
100
AcDbCircle
 10
209.7798318236
 20
89.4375849875
 30
0.0
 40
26.5
100
AcDbArc
 50
85.8667227349
 51
94.1332772651
  0
ARC
  5
180
330
17A
100
AcDbEntity
  8
TA-SMART_DN32_NP
  6
Continuous
 62
     7
100
AcDbCircle
 10
209.7798318236
 20
89.4375849875
 30
0.0
 40
26.5
100
AcDbArc
 50
145.8667227349
 51
154.1332772651
  0
ARC
  5
181
330
17A
100
AcDbEntity
  8
TA-SMART_DN32_NP
  6
Continuous
 62
     7
100
AcDbCircle
 10
209.7798318236
 20
89.4375849875
 30
0.0
 40
26.5
100
AcDbArc
 50
205.8667227349
 51
214.1332772651
  0
ARC
  5
182
330
17A
100
AcDbEntity
  8
TA-SMART_DN32_NP
  6
Continuous
 62
     7
100
AcDbCircle
 10
209.7798318236
 20
89.4375849875
 30
0.0
 40
26.5
100
AcDbArc
 50
265.8667227349
 51
274.1332772651
  0
ARC
  5
183
330
17A
100
AcDbEntity
  8
TA-SMART_DN32_NP
  6
Continuous
 62
     7
100
AcDbCircle
 10
209.7798318236
 20
89.4375849875
 30
0.0
 40
26.5
100
AcDbArc
 50
325.8667227349
 51
334.1332772651
  0
LINE
  5
184
330
17A
100
AcDbEntity
  8
TA-SMART_DN32_NP
  6
Continuous
 62
     7
100
AcDbLine
 10
233.6248318236
 20
77.8761847695
 30
0.0
 11
233.6248318236
 21
100.9989852055
 31
0.0
  0
LINE
  5
185
330
17A
100
AcDbEntity
  8
TA-SMART_DN32_NP
  6
Continuous
 62
     7
100
AcDbLine
 10
211.6898655315
 20
63.0065091253
 30
0.0
 11
231.7147981157
 21
74.5679093433
 31
0.0
  0
LINE
  5
186
330
17A
100
AcDbEntity
  8
TA-SMART_DN32_NP
  6
Continuous
 62
     7
100
AcDbLine
 10
187.8448655315
 20
74.5679093433
 30
0.0
 11
207.8697981157
 21
63.0065091253
 31
0.0
  0
LINE
  5
187
330
17A
100
AcDbEntity
  8
TA-SMART_DN32_NP
  6
Continuous
 62
     7
100
AcDbLine
 10
185.9348318236
 20
100.9989852055
 30
0.0
 11
185.9348318236
 21
77.8761847695
 31
0.0
  0
LINE
  5
188
330
17A
100
AcDbEntity
  8
TA-SMART_DN32_NP
  6
Continuous
 62
     7
100
AcDbLine
 10
207.8697981157
 20
115.8686608497
 30
0.0
 11
187.8448655315
 21
104.3072606318
 31
0.0
  0
LINE
  5
189
330
17A
100
AcDbEntity
  8
TA-SMART_DN32_NP
  6
Continuous
 62
     7
100
AcDbLine
 10
231.7147981157
 20
104.3072606318
 30
0.0
 11
211.6898655315
 21
115.8686608497
 31
0.0
  0
CIRCLE
  5
18A
330
17A
100
AcDbEntity
  8
TA-SMART_DN32_NP
  6
Continuous
 62
     7
100
AcDbCircle
 10
209.7798318236
 20
89.4375849875
 30
0.0
 40
18.68
  0
LINE
  5
18B
330
17A
100
AcDbEntity
  8
TA-SMART_DN32_NP
  6
Continuous
 62
     7
100
AcDbLine
 10
238.2798318236
 20
80.9045609046
 30
0.0
 11
238.2798318236
 21
97.9706090705
 31
0.0
  0
ARC
  5
18C
330
17A
100
AcDbEntity
  8
TA-SMART_DN32_NP
  6
Continuous
 62
     7
100
AcDbCircle
 10
209.7798318236
 20
89.4375849875
 30
0.0
 40
29.75
100
AcDbArc
 50
16.6679289987
 51
163.3320710013
  0
ARC
  5
18D
330
17A
100
AcDbEntity
  8
TA-SMART_DN32_NP
  6
Continuous
 62
     7
100
AcDbCircle
 10
209.7798318236
 20
89.4375849875
 30
0.0
 40
29.75
100
AcDbArc
 50
196.6679289987
 51
343.3320710013
  0
LINE
  5
18E
330
17A
100
AcDbEntity
  8
TA-SMART_DN32_NP
  6
Continuous
 62
     7
100
AcDbLine
 10
181.2798318236
 20
97.9706090705
 30
0.0
 11
181.2798318236
 21
80.9045609046
 31
0.0
  0
LINE
  5
18F
330
17A
100
AcDbEntity
  8
TA-SMART_DN32_NP
  6
Continuous
 62
     7
100
AcDbLine
 10
246.2798318236
 20
97.7661909854
 30
0.0
 11
246.2798318236
 21
97.1852513786
 31
0.0
  0
LINE
  5
190
330
17A
100
AcDbEntity
  8
TA-SMART_DN32_NP
  6
Continuous
 62
     7
100
AcDbLine
 10
246.2798318236
 20
91.2786108616
 30
0.0
 11
246.2798318236
 21
89.789753219
 31
0.0
  0
LINE
  5
191
330
17A
100
AcDbEntity
  8
TA-SMART_DN32_NP
  6
Continuous
 62
     7
100
AcDbLine
 10
246.2798318236
 20
82.9500048637
 30
0.0
 11
246.2798318236
 21
82.0420868279
 31
0.0
  0
LINE
  5
192
330
17A
100
AcDbEntity
  8
TA-SMART_DN32_NP
  6
Continuous
 62
     7
100
AcDbLine
 10
246.2798318236
 20
97.7661909854
 30
0.0
 11
238.2798318236
 21
97.7661909854
 31
0.0
  0
LINE
  5
193
330
17A
100
AcDbEntity
  8
TA-SMART_DN32_NP
  6
Continuous
 62
     7
100
AcDbLine
 10
246.2798318236
 20
91.2786108616
 30
0.0
 11
246.2798318236
 21
97.1852513786
 31
0.0
  0
LINE
  5
194
330
17A
100
AcDbEntity
  8
TA-SMART_DN32_NP
  6
Continuous
 62
     7
100
AcDbLine
 10
246.2798318236
 20
97.1852513786
 30
0.0
 11
238.2798318236
 21
97.1852513786
 31
0.0
  0
LINE
  5
195
330
17A
100
AcDbEntity
  8
TA-SMART_DN32_NP
  6
Continuous
 62
     7
100
AcDbLine
 10
246.2798318236
 20
91.2786108616
 30
0.0
 11
238.2798318236
 21
91.2786108616
 31
0.0
  0
LINE
  5
196
330
17A
100
AcDbEntity
  8
TA-SMART_DN32_NP
  6
Continuous
 62
     7
100
AcDbLine
 10
246.2798318236
 20
82.9500048637
 30
0.0
 11
246.2798318236
 21
89.789753219
 31
0.0
  0
LINE
  5
197
330
17A
100
AcDbEntity
  8
TA-SMART_DN32_NP
  6
Continuous
 62
     7
100
AcDbLine
 10
246.2798318236
 20
89.789753219
 30
0.0
 11
238.2798318236
 21
89.789753219
 31
0.0
  0
LINE
  5
198
330
17A
100
AcDbEntity
  8
TA-SMART_DN32_NP
  6
Continuous
 62
     7
100
AcDbLine
 10
246.2798318236
 20
82.9500048637
 30
0.0
 11
238.2798318236
 21
82.9500048637
 31
0.0
  0
LINE
  5
199
330
17A
100
AcDbEntity
  8
TA-SMART_DN32_NP
  6
Continuous
 62
     7
100
AcDbLine
 10
246.2798318236
 20
81.1089789896
 30
0.0
 11
246.2798318236
 21
82.0420868279
 31
0.0
  0
LINE
  5
19A
330
17A
100
AcDbEntity
  8
TA-SMART_DN32_NP
  6
Continuous
 62
     7
100
AcDbLine
 10
246.2798318236
 20
82.0420868279
 30
0.0
 11
238.2798318236
 21
82.0420868279
 31
0.0
  0
LINE
  5
19B
330
17A
100
AcDbEntity
  8
TA-SMART_DN32_NP
  6
Continuous
 62
     7
100
AcDbLine
 10
246.2798318236
 20
81.1089789896
 30
0.0
 11
238.2798318236
 21
81.1089789896
 31
0.0
  0
LINE
  5
19C
330
17A
100
AcDbEntity
  8
TA-SMART_DN32_NP
  6
Continuous
 62
     7
100
AcDbLine
 10
174.8699562344
 20
88.5431843538
 30
0.0
 11
174.8699562344
 21
89.1301524927
 31
0.0
  0
LINE
  5
19D
330
17A
100
AcDbEntity
  8
TA-SMART_DN32_NP
  6
Continuous
 62
     7
100
AcDbLine
 10
174.8699562344
 20
92.7213410668
 30
0.0
 11
174.8699562344
 21
93.0850677543
 31
0.0
  0
LINE
  5
19E
330
17A
100
AcDbEntity
  8
TA-SMART_DN32_NP
  6
Continuous
 62
     7
100
AcDbLine
 10
174.8699562344
 20
85.2594282745
 30
0.0
 11
174.8699562344
 21
85.4826697259
 31
0.0
  0
ARC
  5
19F
330
17A
100
AcDbEntity
  8
TA-SMART_DN32_NP
  6
Continuous
 62
     7
100
AcDbCircle
 10
175.3179952197
 20
87.0129270399
 30
0.0
 40
4.662736023659921
100
AcDbArc
 50
340.8411257066
 51
19.1588742934
  0
ARC
  5
1A0
330
17A
100
AcDbEntity
  8
TA-SMART_DN32_NP
  6
Continuous
 62
     7
100
AcDbCircle
 10
173.6129022112
 20
90.9257467798
 30
0.0
 40
6.367967296963654
100
AcDbArc
 50
343.6220103409
 51
16.3779896591
  0
SPLINE
  5
1A1
330
17A
100
AcDbEntity
  8
TA-SMART_DN32_NP
  6
Continuous
 62
     7
100
AcDbSpline
210
0.0
220
0.0
230
1.0
 70
     8
 71
     3
 72
    12
 73
     8
 74
     0
 42
0.000000001
 43
0.0000000001
 40
0.0
 40
0.0
 40
0.0
 40
0.0
 40
0.5
 40
0.5
 40
0.75
 40
0.75
 40
1.0
 40
1.0
 40
1.0
 40
1.0
 10
179.7224724621217
 20
93.08506775434671
 30
0.0
 10
179.8837464346314
 20
93.17185908936202
 30
0.0
 10
179.9818875266423
 20
93.25989193832037
 30
0.0
 10
179.9824745419449
 20
93.39482459854543
 30
0.0
 10
179.9584152520063
 20
93.43984404537501
 30
0.0
 10
179.8686980585333
 20
93.5284335006437
 30
0.0
 10
179.8032660562747
 20
93.57226175274454
 30
0.0
 10
179.7224724621217
 20
93.61574170048875
 30
0.0
  0
SPLINE
  5
1A2
330
17A
100
AcDbEntity
  8
TA-SMART_DN32_NP
  6
Continuous
 62
     7
100
AcDbSpline
210
0.0
220
0.0
230
1.0
 70
     8
 71
     3
 72
    10
 73
     6
 74
     0
 42
0.000000001
 43
0.0000000001
 40
0.6398863264939852
 40
0.6398863264939852
 40
0.6398863264939852
 40
0.6398863264939852
 40
0.75
 40
0.75
 40
1.0
 40
1.0
 40
1.0
 40
1.0
 10
179.9604306961125
 20
85.44991694565978
 30
0.0
 10
179.9490379417314
 20
85.43019143920607
 30
0.0
 10
179.9333148347697
 20
85.41054102273054
 30
0.0
 10
179.8686980585333
 20
85.34673647438915
 30
0.0
 10
179.8032660562747
 20
85.3029082222883
 30
0.0
 10
179.7224724621217
 20
85.25942827454408
 30
0.0
  0
LINE
  5
1A3
330
17A
100
AcDbEntity
  8
TA-SMART_DN32_NP
  6
Continuous
 62
     7
100
AcDbLine
 10
180.0333755821
 20
85.5760849875
 30
0.0
 11
180.0333755821
 21
93.2990849875
 31
0.0
  0
LINE
  5
1A4
330
17A
100
AcDbEntity
  8
TA-SMART_DN32_NP
  6
Continuous
 62
     7
100
AcDbLine
 10
174.6333755821
 20
85.6875849875
 30
0.0
 11
174.6333755821
 21
93.1875849875
 31
0.0
  0
ARC
  5
1A5
330
17A
100
AcDbEntity
  8
TA-SMART_DN32_NP
  6
Continuous
 62
     7
100
AcDbCircle
 10
181.9366565459
 20
87.0129270399
 30
0.0
 40
7.230486895069949
100
AcDbArc
 50
167.7815460096
 51
192.2184539904
  0
ARC
  5
1A6
330
17A
100
AcDbEntity
  8
TA-SMART_DN32_NP
  6
Continuous
 62
     7
100
AcDbCircle
 10
184.6306225092
 20
90.9257467798
 30
0.0
 40
9.924452880305907
100
AcDbArc
 50
169.5762826792
 51
190.4237173208
  0
SPLINE
  5
1A7
330
17A
100
AcDbEntity
  8
TA-SMART_DN32_NP
  6
Continuous
 62
     7
100
AcDbSpline
210
0.0
220
0.0
230
1.0
 70
     8
 71
     3
 72
     9
 73
     5
 74
     0
 42
0.000000001
 43
0.0000000001
 40
0.0
 40
0.0
 40
0.0
 40
0.0
 40
0.5
 40
1.0
 40
1.0
 40
1.0
 40
1.0
 10
174.8699562343533
 20
93.61574170048875
 30
0.0
 10
174.7663487983491
 20
93.52729604279841
 30
0.0
 10
174.6459904595179
 20
93.35040472741773
 30
0.0
 10
174.7663487983491
 20
93.17351341203704
 30
0.0
 10
174.8699562343533
 20
93.08506775434671
 30
0.0
  0
SPLINE
  5
1A8
330
17A
100
AcDbEntity
  8
TA-SMART_DN32_NP
  6
Continuous
 62
     7
100
AcDbSpline
210
0.0
220
0.0
230
1.0
 70
     8
 71
     3
 72
     8
 73
     4
 74
     0
 42
0.000000001
 43
0.0000000001
 40
0.0
 40
0.0
 40
0.0
 40
0.0
 40
0.3590690112119596
 40
0.3590690112119596
 40
0.3590690112119596
 40
0.3590690112119596
 10
174.8699562343533
 20
85.25942827454408
 30
0.0
 10
174.7955517951528
 20
85.3229444642498
 30
0.0
 10
174.7435442779757
 20
85.38646065395552
 30
0.0
 10
174.720137542748
 20
85.44997684366126
 30
0.0
  0
LINE
  5
1A9
330
17A
100
AcDbEntity
  8
TA-SMART_DN32_NP
  6
Continuous
 62
     7
100
AcDbLine
 10
179.7224724621
 20
89.1301524927
 30
0.0
 11
179.7224724621
 21
88.5431843538
 31
0.0
  0
LINE
  5
1AA
330
17A
100
AcDbEntity
  8
TA-SMART_DN32_NP
  6
Continuous
 62
     7
100
AcDbLine
 10
174.8699562344
 20
88.5431843538
 30
0.0
 11
179.7224724621
 21
88.5431843538
 31
0.0
  0
LINE
  5
1AB
330
17A
100
AcDbEntity
  8
TA-SMART_DN32_NP
  6
Continuous
 62
     7
100
AcDbLine
 10
179.7224724621
 20
89.1301524927
 30
0.0
 11
174.8699562344
 21
89.1301524927
 31
0.0
  0
LINE
  5
1AC
330
17A
100
AcDbEntity
  8
TA-SMART_DN32_NP
  6
Continuous
 62
     7
100
AcDbLine
 10
179.7224724621
 20
93.0850677543
 30
0.0
 11
179.7224724621
 21
92.7213410668
 31
0.0
  0
LINE
  5
1AD
330
17A
100
AcDbEntity
  8
TA-SMART_DN32_NP
  6
Continuous
 62
     7
100
AcDbLine
 10
174.8699562344
 20
92.7213410668
 30
0.0
 11
179.7224724621
 21
92.7213410668
 31
0.0
  0
LINE
  5
1AE
330
17A
100
AcDbEntity
  8
TA-SMART_DN32_NP
  6
Continuous
 62
     7
100
AcDbLine
 10
179.7224724621
 20
93.0850677543
 30
0.0
 11
174.8699562344
 21
93.0850677543
 31
0.0
  0
LINE
  5
1AF
330
17A
100
AcDbEntity
  8
TA-SMART_DN32_NP
  6
Continuous
 62
     7
100
AcDbLine
 10
174.8699562344
 20
93.6157417005
 30
0.0
 11
179.7224724621
 21
93.6157417005
 31
0.0
  0
LINE
  5
1B0
330
17A
100
AcDbEntity
  8
TA-SMART_DN32_NP
  6
Continuous
 62
     7
100
AcDbLine
 10
179.7224724621
 20
85.4826697259
 30
0.0
 11
179.7224724621
 21
85.2594282745
 31
0.0
  0
LINE
  5
1B1
330
17A
100
AcDbEntity
  8
TA-SMART_DN32_NP
  6
Continuous
 62
     7
100
AcDbLine
 10
179.7224724621
 20
85.4826697259
 30
0.0
 11
174.8699562344
 21
85.4826697259
 31
0.0
  0
LINE
  5
1B2
330
17A
100
AcDbEntity
  8
TA-SMART_DN32_NP
  6
Continuous
 62
     7
100
AcDbLine
 10
174.8699562344
 20
85.2594282745
 30
0.0
 11
179.7224724621
 21
85.2594282745
 31
0.0
  0
LINE
  5
1B3
330
17A
100
AcDbEntity
  8
TA-SMART_DN32_NP
  6
Continuous
 62
     7
100
AcDbLine
 10
179.9571952318
 20
85.4441367502
 30
0.0
 11
180.0333755821
 21
85.5760849875
 31
0.0
  0
LINE
  5
1B4
330
17A
100
AcDbEntity
  8
TA-SMART_DN32_NP
  6
Continuous
 62
     7
100
AcDbLine
 10
180.0333755821
 20
93.2990849875
 30
0.0
 11
179.9571952318
 21
93.4310332248
 31
0.0
  0
LINE
  5
1B5
330
17A
100
AcDbEntity
  8
TA-SMART_DN32_NP
  6
Continuous
 62
     7
100
AcDbLine
 10
181.2798318236
 20
93.2990849875
 30
0.0
 11
180.0333755821
 21
93.2990849875
 31
0.0
  0
LINE
  5
1B6
330
17A
100
AcDbEntity
  8
TA-SMART_DN32_NP
  6
Continuous
 62
     7
100
AcDbLine
 10
180.0333755821
 20
85.5760849875
 30
0.0
 11
181.2798318236
 21
85.5760849875
 31
0.0
  0
LINE
  5
1B7
330
17A
100
AcDbEntity
  8
TA-SMART_DN32_NP
  6
Continuous
 62
     7
100
AcDbLine
 10
174.72105641
 20
93.4284860825
 30
0.0
 11
174.6333755821
 21
93.1875849875
 31
0.0
  0
LINE
  5
1B8
330
17A
100
AcDbEntity
  8
TA-SMART_DN32_NP
  6
Continuous
 62
     7
100
AcDbLine
 10
174.6333755821
 20
85.6875849875
 30
0.0
 11
174.72105641
 21
85.4466838926
 31
0.0
  0
ENDBLK
  5
1BA
330
17A
100
AcDbEntity
  8
0
100
AcDbBlockEnd
  0
BLOCK
  5
210
330
1BB
100
AcDbEntity
  8
0
100
AcDbBlockBegin
  2
SE4
 70
     0
 10
0.0
 20
0.0
 30
0.0
  3
SE4
  1

  0
LINE
  5
1BD
330
1BB
100
AcDbEntity
  8
TA-SMART_DN32_NP
  6
Continuous
 62
     7
100
AcDbLine
 10
340.9566089546
 20
65.9375849875
 30
0.0
 11
340.9566089546
 21
112.9375849875
 31
0.0
  0
LINE
  5
1BE
330
1BB
100
AcDbEntity
  8
TA-SMART_DN32_NP
  6
Continuous
 62
     7
100
AcDbLine
 10
321.9566089546
 20
61.6875849875
 30
0.0
 11
321.9566089546
 21
117.1875849875
 31
0.0
  0
LINE
  5
1BF
330
1BB
100
AcDbEntity
  8
TA-SMART_DN32_NP
  6
Continuous
 62
     7
100
AcDbLine
 10
339.8646982518
 20
115.8686608497
 30
0.0
 11
339.8646982518
 21
115.9375849875
 31
0.0
  0
LINE
  5
1C0
330
1BB
100
AcDbEntity
  8
TA-SMART_DN32_NP
  6
Continuous
 62
     7
100
AcDbLine
 10
339.8646982518
 20
104.3072606318
 30
0.0
 11
339.8646982518
 21
100.9989852055
 31
0.0
  0
LINE
  5
1C1
330
1BB
100
AcDbEntity
  8
TA-SMART_DN32_NP
  6
Continuous
 62
     7
100
AcDbLine
 10
339.8646982518
 20
77.8761847695
 30
0.0
 11
339.8646982518
 21
74.5679093433
 31
0.0
  0
LINE
  5
1C2
330
1BB
100
AcDbEntity
  8
TA-SMART_DN32_NP
  6
Continuous
 62
     7
100
AcDbLine
 10
339.8646982518
 20
63.0065091253
 30
0.0
 11
339.8646982518
 21
62.9375849875
 31
0.0
  0
ARC
  5
1C3
330
1BB
100
AcDbEntity
  8
TA-SMART_DN32_NP
  6
Continuous
 62
     7
100
AcDbCircle
 10
322.9062256925
 20
68.7872092343
 30
0.0
 40
17.91664827175203
100
AcDbArc
 50
341.177098085
 51
18.822901915
  0
LINE
  5
1C4
330
1BB
100
AcDbEntity
  8
TA-SMART_DN32_NP
  6
Continuous
 62
     7
100
AcDbLine
 10
339.8646982518
 20
63.0065091253
 30
0.0
 11
321.9566089546
 21
63.0065091253
 31
0.0
  0
LINE
  5
1C5
330
1BB
100
AcDbEntity
  8
TA-SMART_DN32_NP
  6
Continuous
 62
     7
100
AcDbLine
 10
321.9566089546
 20
74.5679093433
 30
0.0
 11
339.8646982518
 21
74.5679093433
 31
0.0
  0
SPLINE
  5
1C6
330
1BB
100
AcDbEntity
  8
TA-SMART_DN32_NP
  6
Continuous
 62
     7
100
AcDbSpline
210
0.0
220
0.0
230
1.0
 70
     8
 71
     3
 72
    10
 73
     6
 74
     0
 42
0.000000001
 43
0.0000000001
 40
0.0
 40
0.0
 40
0.0
 40
0.0
 40
0.5
 40
0.5
 40
1.0
 40
1.0
 40
1.0
 40
1.0
 10
339.8646982518088
 20
100.9989852054832
 30
0.0
 10
340.4746391991903
 20
97.1578697578516
 30
0.0
 10
340.8298882695113
 20
93.31128598960886
 30
0.0
 10
340.8321843652485
 20
85.60291311605611
 30
0.0
 10
340.4764835828884
 20
81.7289152608086
 30
0.0
 10
339.8646982518088
 20
77.87618476954972
 30
0.0
  0
LINE
  5
1C7
330
1BB
100
AcDbEntity
  8
TA-SMART_DN32_NP
  6
Continuous
 62
     7
100
AcDbLine
 10
339.8646982518
 20
77.8761847695
 30
0.0
 11
321.9566089546
 21
77.8761847695
 31
0.0
  0
LINE
  5
1C8
330
1BB
100
AcDbEntity
  8
TA-SMART_DN32_NP
  6
Continuous
 62
     7
100
AcDbLine
 10
321.9566089546
 20
100.9989852055
 30
0.0
 11
339.8646982518
 21
100.9989852055
 31
0.0
  0
ARC
  5
1C9
330
1BB
100
AcDbEntity
  8
TA-SMART_DN32_NP
  6
Continuous
 62
     7
100
AcDbCircle
 10
322.9062256925
 20
110.0879607408
 30
0.0
 40
17.91664827175207
100
AcDbArc
 50
341.177098085
 51
18.822901915
  0
LINE
  5
1CA
330
1BB
100
AcDbEntity
  8
TA-SMART_DN32_NP
  6
Continuous
 62
     7
100
AcDbLine
 10
339.8646982518
 20
104.3072606318
 30
0.0
 11
321.9566089546
 21
104.3072606318
 31
0.0
  0
LINE
  5
1CB
330
1BB
100
AcDbEntity
  8
TA-SMART_DN32_NP
  6
Continuous
 62
     7
100
AcDbLine
 10
321.9566089546
 20
115.8686608497
 30
0.0
 11
339.8646982518
 21
115.8686608497
 31
0.0
  0
LINE
  5
1CC
330
1BB
100
AcDbEntity
  8
TA-SMART_DN32_NP
  6
Continuous
 62
     7
100
AcDbLine
 10
293.9566089546
 20
61.6875849875
 30
0.0
 11
293.9566089546
 21
117.1875849875
 31
0.0
  0
LINE
  5
1CD
330
1BB
100
AcDbEntity
  8
TA-SMART_DN32_NP
  6
Continuous
 62
     7
100
AcDbLine
 10
274.9566089546
 20
65.9375849875
 30
0.0
 11
274.9566089546
 21
112.9375849875
 31
0.0
  0
LINE
  5
1CE
330
1BB
100
AcDbEntity
  8
TA-SMART_DN32_NP
  6
Continuous
 62
     7
100
AcDbLine
 10
276.0485196574
 20
115.8686608497
 30
0.0
 11
276.0485196574
 21
115.9375849875
 31
0.0
  0
LINE
  5
1CF
330
1BB
100
AcDbEntity
  8
TA-SMART_DN32_NP
  6
Continuous
 62
     7
100
AcDbLine
 10
276.0485196574
 20
104.3072606318
 30
0.0
 11
276.0485196574
 21
100.9989852055
 31
0.0
  0
LINE
  5
1D0
330
1BB
100
AcDbEntity
  8
TA-SMART_DN32_NP
  6
Continuous
 62
     7
100
AcDbLine
 10
276.0485196574
 20
77.8761847695
 30
0.0
 11
276.0485196574
 21
74.5679093433
 31
0.0
  0
LINE
  5
1D1
330
1BB
100
AcDbEntity
  8
TA-SMART_DN32_NP
  6
Continuous
 62
     7
100
AcDbLine
 10
276.0485196574
 20
63.0065091253
 30
0.0
 11
276.0485196574
 21
62.9375849875
 31
0.0
  0
ARC
  5
1D2
330
1BB
100
AcDbEntity
  8
TA-SMART_DN32_NP
  6
Continuous
 62
     7
100
AcDbCircle
 10
293.0069922167
 20
68.7872092343
 30
0.0
 40
17.91664827175211
100
AcDbArc
 50
161.177098085
 51
198.822901915
  0
SPLINE
  5
1D3
330
1BB
100
AcDbEntity
  8
TA-SMART_DN32_NP
  6
Continuous
 62
     7
100
AcDbSpline
210
0.0
220
0.0
230
1.0
 70
     8
 71
     3
 72
    10
 73
     6
 74
     0
 42
0.000000001
 43
0.0000000001
 40
0.0
 40
0.0
 40
0.0
 40
0.0
 40
0.5
 40
0.5
 40
1.0
 40
1.0
 40
1.0
 40
1.0
 10
276.048519657406
 20
77.87618476954972
 30
0.0
 10
275.4367343263265
 20
81.7289152608086
 30
0.0
 10
275.0810335439663
 20
85.60291311605611
 30
0.0
 10
275.0833296397035
 20
93.31128598960886
 30
0.0
 10
275.4385787100245
 20
97.1578697578516
 30
0.0
 10
276.048519657406
 20
100.9989852054832
 30
0.0
  0
ARC
  5
1D4
330
1BB
100
AcDbEntity
  8
TA-SMART_DN32_NP
  6
Continuous
 62
     7
100
AcDbCircle
 10
293.0069922167
 20
110.0879607408
 30
0.0
 40
17.91664827175188
100
AcDbArc
 50
161.177098085
 51
198.822901915
  0
LINE
  5
1D5
330
1BB
100
AcDbEntity
  8
TA-SMART_DN32_NP
  6
Continuous
 62
     7
100
AcDbLine
 10
293.9566089546
 20
104.3072606318
 30
0.0
 11
276.0485196574
 21
104.3072606318
 31
0.0
  0
LINE
  5
1D6
330
1BB
100
AcDbEntity
  8
TA-SMART_DN32_NP
  6
Continuous
 62
     7
100
AcDbLine
 10
276.0485196574
 20
115.8686608497
 30
0.0
 11
293.9566089546
 21
115.8686608497
 31
0.0
  0
LINE
  5
1D7
330
1BB
100
AcDbEntity
  8
TA-SMART_DN32_NP
  6
Continuous
 62
     7
100
AcDbLine
 10
293.9566089546
 20
77.8761847695
 30
0.0
 11
276.0485196574
 21
77.8761847695
 31
0.0
  0
LINE
  5
1D8
330
1BB
100
AcDbEntity
  8
TA-SMART_DN32_NP
  6
Continuous
 62
     7
100
AcDbLine
 10
276.0485196574
 20
100.9989852055
 30
0.0
 11
293.9566089546
 21
100.9989852055
 31
0.0
  0
LINE
  5
1D9
330
1BB
100
AcDbEntity
  8
TA-SMART_DN32_NP
  6
Continuous
 62
     7
100
AcDbLine
 10
293.9566089546
 20
63.0065091253
 30
0.0
 11
276.0485196574
 21
63.0065091253
 31
0.0
  0
LINE
  5
1DA
330
1BB
100
AcDbEntity
  8
TA-SMART_DN32_NP
  6
Continuous
 62
     7
100
AcDbLine
 10
276.0485196574
 20
74.5679093433
 30
0.0
 11
293.9566089546
 21
74.5679093433
 31
0.0
  0
LINE
  5
1DB
330
1BB
100
AcDbEntity
  8
TA-SMART_DN32_NP
  6
Continuous
 62
     7
100
AcDbLine
 10
295.9566089546
 20
119.1875849875
 30
0.0
 11
295.9566089546
 21
97.9706090705
 31
0.0
  0
LINE
  5
1DC
330
1BB
100
AcDbEntity
  8
TA-SMART_DN32_NP
  6
Continuous
 62
     7
100
AcDbLine
 10
319.9566089546
 20
119.1875849875
 30
0.0
 11
319.9566089546
 21
97.9706090705
 31
0.0
  0
LINE
  5
1DD
330
1BB
100
AcDbEntity
  8
TA-SMART_DN32_NP
  6
Continuous
 62
     7
100
AcDbLine
 10
295.9566089546
 20
59.6875849875
 30
0.0
 11
295.9566089546
 21
80.9045609046
 31
0.0
  0
LINE
  5
1DE
330
1BB
100
AcDbEntity
  8
TA-SMART_DN32_NP
  6
Continuous
 62
     7
100
AcDbLine
 10
307.4566089546
 20
80.9045609046
 30
0.0
 11
307.4566089546
 21
59.6875849875
 31
0.0
  0
LINE
  5
1DF
330
1BB
100
AcDbEntity
  8
TA-SMART_DN32_NP
  6
Continuous
 62
     7
100
AcDbLine
 10
307.4566089546
 20
80.9045609046
 30
0.0
 11
295.9566089546
 21
80.9045609046
 31
0.0
  0
LINE
  5
1E0
330
1BB
100
AcDbEntity
  8
TA-SMART_DN32_NP
  6
Continuous
 62
     7
100
AcDbLine
 10
307.9566089546
 20
82.856361697
 30
0.0
 11
307.9566089546
 21
60.1875849875
 31
0.0
  0
LINE
  5
1E1
330
1BB
100
AcDbEntity
  8
TA-SMART_DN32_NP
  6
Continuous
 62
     7
100
AcDbLine
 10
308.4566089546
 20
80.9045609046
 30
0.0
 11
308.4566089546
 21
59.6875849875
 31
0.0
  0
LINE
  5
1E2
330
1BB
100
AcDbEntity
  8
TA-SMART_DN32_NP
  6
Continuous
 62
     7
100
AcDbLine
 10
319.9566089546
 20
59.6875849875
 30
0.0
 11
319.9566089546
 21
80.9045609046
 31
0.0
  0
SPLINE
  5
1E3
330
1BB
100
AcDbEntity
  8
TA-SMART_DN32_NP
  6
Continuous
 62
     7
100
AcDbSpline
210
0.0
220
0.0
230
1.0
 70
     8
 71
     3
 72
    14
 73
    10
 74
     0
 42
0.000000001
 43
0.0000000001
 40
0.0
 40
0.0
 40
0.0
 40
0.0
 40
0.2500000000000002
 40
0.2500000000000002
 40
0.3750000000000001
 40
0.3750000000000001
 40
0.5000000000000001
 40
0.5000000000000001
 40
1.0
 40
1.0
 40
1.0
 40
1.0
 10
319.9566089546074
 20
97.97060907045443
 30
0.0
 10
320.3545393021403
 20
96.58324302952467
 30
0.0
 10
320.6679456937442
 20
95.17974396319296
 30
0.0
 10
320.9877194317299
 20
93.04580087050877
 30
0.0
 10
321.0692690981651
 20
92.32970683837821
 30
0.0
 10
321.1788236365185
 20
90.88729871850578
 30
0.0
 10
321.2068039286267
 20
90.1586638720439
 30
0.0
 10
321.2058239042469
 20
86.51494229508498
 30
0.0
 10
320.7525569665212
 20
83.6795974126532
 30
0.0
 10
319.9566089546074
 20
80.9045609045784
 30
0.0
  0
LINE
  5
1E4
330
1BB
100
AcDbEntity
  8
TA-SMART_DN32_NP
  6
Continuous
 62
     7
100
AcDbLine
 10
319.9566089546
 20
80.9045609046
 30
0.0
 11
308.4566089546
 21
80.9045609046
 31
0.0
  0
LINE
  5
1E5
330
1BB
100
AcDbEntity
  8
TA-SMART_DN32_NP
  6
Continuous
 62
     7
100
AcDbLine
 10
308.4566089546
 20
80.9045609046
 30
0.0
 11
307.9566089546
 21
82.856361697
 31
0.0
  0
LINE
  5
1E6
330
1BB
100
AcDbEntity
  8
TA-SMART_DN32_NP
  6
Continuous
 62
     7
100
AcDbLine
 10
307.9566089546
 20
82.856361697
 30
0.0
 11
307.4566089546
 21
80.9045609046
 31
0.0
  0
SPLINE
  5
1E7
330
1BB
100
AcDbEntity
  8
TA-SMART_DN32_NP
  6
Continuous
 62
     7
100
AcDbSpline
210
0.0
220
0.0
230
1.0
 70
     8
 71
     3
 72
    14
 73
    10
 74
     0
 42
0.000000001
 43
0.0000000001
 40
0.0
 40
0.0
 40
0.0
 40
0.0
 40
0.5
 40
0.5
 40
0.625
 40
0.625
 40
0.75
 40
0.75
 40
1.0
 40
1.0
 40
1.0
 40
1.0
 10
295.9566089546074
 20
80.9045609045784
 30
0.0
 10
295.1606609426937
 20
83.6795974126532
 30
0.0
 10
294.707394004968
 20
86.51494229508498
 30
0.0
 10
294.7064139805881
 20
90.1586638720439
 30
0.0
 10
294.7343942726963
 20
90.88729871850578
 30
0.0
 10
294.8439488110498
 20
92.32970683837821
 30
0.0
 10
294.925498477485
 20
93.04580087050877
 30
0.0
 10
295.2452722154706
 20
95.17974396319296
 30
0.0
 10
295.5586786070745
 20
96.58324302952467
 30
0.0
 10
295.9566089546074
 20
97.97060907045443
 30
0.0
  0
LINE
  5
1E8
330
1BB
100
AcDbEntity
  8
TA-SMART_DN32_NP
  6
Continuous
 62
     7
100
AcDbLine
 10
319.9566089546
 20
97.9706090705
 30
0.0
 11
308.4566089546
 21
97.9706090705
 31
0.0
  0
LINE
  5
1E9
330
1BB
100
AcDbEntity
  8
TA-SMART_DN32_NP
  6
Continuous
 62
     7
100
AcDbLine
 10
308.4566089546
 20
97.9706090705
 30
0.0
 11
307.9566089546
 21
96.0188082781
 31
0.0
  0
LINE
  5
1EA
330
1BB
100
AcDbEntity
  8
TA-SMART_DN32_NP
  6
Continuous
 62
     7
100
AcDbLine
 10
307.9566089546
 20
96.0188082781
 30
0.0
 11
307.4566089546
 21
97.9706090705
 31
0.0
  0
LINE
  5
1EB
330
1BB
100
AcDbEntity
  8
TA-SMART_DN32_NP
  6
Continuous
 62
     7
100
AcDbLine
 10
307.4566089546
 20
97.9706090705
 30
0.0
 11
295.9566089546
 21
97.9706090705
 31
0.0
  0
LINE
  5
1EC
330
1BB
100
AcDbEntity
  8
TA-SMART_DN32_NP
  6
Continuous
 62
     7
100
AcDbLine
 10
307.4566089546
 20
119.1875849875
 30
0.0
 11
307.4566089546
 21
97.9706090705
 31
0.0
  0
LINE
  5
1ED
330
1BB
100
AcDbEntity
  8
TA-SMART_DN32_NP
  6
Continuous
 62
     7
100
AcDbLine
 10
307.9566089546
 20
118.6875849875
 30
0.0
 11
307.9566089546
 21
96.0188082781
 31
0.0
  0
LINE
  5
1EE
330
1BB
100
AcDbEntity
  8
TA-SMART_DN32_NP
  6
Continuous
 62
     7
100
AcDbLine
 10
308.4566089546
 20
119.1875849875
 30
0.0
 11
308.4566089546
 21
97.9706090705
 31
0.0
  0
ARC
  5
1EF
330
1BB
100
AcDbEntity
  8
TA-SMART_DN32_NP
  6
Continuous
 62
     7
100
AcDbCircle
 10
307.9566089546
 20
89.4375849875
 30
0.0
 40
4.4
100
AcDbArc
 50
348.2715867716
 51
355.9934208414
  0
ARC
  5
1F0
330
1BB
100
AcDbEntity
  8
TA-SMART_DN32_NP
  6
Continuous
 62
     7
100
AcDbCircle
 10
307.9566089546
 20
89.4375849875
 30
0.0
 40
4.4
100
AcDbArc
 50
48.2715867716
 51
55.9934208414
  0
ARC
  5
1F1
330
1BB
100
AcDbEntity
  8
TA-SMART_DN32_NP
  6
Continuous
 62
     7
100
AcDbCircle
 10
307.9566089546
 20
89.4375849875
 30
0.0
 40
4.400000000000002
100
AcDbArc
 50
108.2715867716
 51
115.9934208414
  0
ARC
  5
1F2
330
1BB
100
AcDbEntity
  8
TA-SMART_DN32_NP
  6
Continuous
 62
     7
100
AcDbCircle
 10
307.9566089546
 20
89.4375849875
 30
0.0
 40
4.400000000000001
100
AcDbArc
 50
168.2715867716
 51
175.9934208414
  0
ARC
  5
1F3
330
1BB
100
AcDbEntity
  8
TA-SMART_DN32_NP
  6
Continuous
 62
     7
100
AcDbCircle
 10
307.9566089546
 20
89.4375849875
 30
0.0
 40
4.399999999999999
100
AcDbArc
 50
228.2715867716
 51
235.9934208414
  0
ARC
  5
1F4
330
1BB
100
AcDbEntity
  8
TA-SMART_DN32_NP
  6
Continuous
 62
     7
100
AcDbCircle
 10
307.9566089546
 20
89.4375849875
 30
0.0
 40
4.4
100
AcDbArc
 50
288.2715867716
 51
295.9934208414
  0
CIRCLE
  5
1F5
330
1BB
100
AcDbEntity
  8
TA-SMART_DN32_NP
  6
Continuous
 62
     7
100
AcDbCircle
 10
307.9566089546
 20
89.4375849875
 30
0.0
 40
3.750000000000006
  0
LINE
  5
1F6
330
1BB
100
AcDbEntity
  8
TA-SMART_DN32_NP
  6
Continuous
 62
     7
100
AcDbLine
 10
312.2647463139
 20
88.5431843538
 30
0.0
 11
309.8849878783
 21
85.4826697259
 31
0.0
  0
LINE
  5
1F7
330
1BB
100
AcDbEntity
  8
TA-SMART_DN32_NP
  6
Continuous
 62
     7
100
AcDbLine
 10
310.8852513042
 20
92.7213410668
 30
0.0
 11
312.3458555028
 21
89.1301524927
 31
0.0
  0
LINE
  5
1F8
330
1BB
100
AcDbEntity
  8
TA-SMART_DN32_NP
  6
Continuous
 62
     7
100
AcDbLine
 10
306.5771139449
 20
93.6157417005
 30
0.0
 11
310.4174765792
 21
93.0850677543
 31
0.0
  0
LINE
  5
1F9
330
1BB
100
AcDbEntity
  8
TA-SMART_DN32_NP
  6
Continuous
 62
     7
100
AcDbLine
 10
303.6484715953
 20
90.3319856212
 30
0.0
 11
306.028230031
 21
93.3925002492
 31
0.0
  0
LINE
  5
1FA
330
1BB
100
AcDbEntity
  8
TA-SMART_DN32_NP
  6
Continuous
 62
     7
100
AcDbLine
 10
305.027966605
 20
86.1538289082
 30
0.0
 11
303.5673624064
 21
89.7450174823
 31
0.0
  0
LINE
  5
1FB
330
1BB
100
AcDbEntity
  8
TA-SMART_DN32_NP
  6
Continuous
 62
     7
100
AcDbLine
 10
309.3361039643
 20
85.2594282745
 30
0.0
 11
305.49574133
 21
85.7901022207
 31
0.0
  0
LINE
  5
1FC
330
1BB
100
AcDbEntity
  8
TA-SMART_DN32_NP
  6
Continuous
 62
     7
100
AcDbLine
 10
339.8646982518
 20
62.9375849875
 30
0.0
 11
340.9566089546
 21
65.9375849875
 31
0.0
  0
LINE
  5
1FD
330
1BB
100
AcDbEntity
  8
TA-SMART_DN32_NP
  6
Continuous
 62
     7
100
AcDbLine
 10
340.9566089546
 20
112.9375849875
 30
0.0
 11
339.8646982518
 21
115.9375849875
 31
0.0
  0
LINE
  5
1FE
330
1BB
100
AcDbEntity
  8
TA-SMART_DN32_NP
  6
Continuous
 62
     7
100
AcDbLine
 10
339.8646982518
 20
115.9375849875
 30
0.0
 11
321.9566089546
 21
115.9375849875
 31
0.0
  0
LINE
  5
1FF
330
1BB
100
AcDbEntity
  8
TA-SMART_DN32_NP
  6
Continuous
 62
     7
100
AcDbLine
 10
321.9566089546
 20
62.9375849875
 30
0.0
 11
339.8646982518
 21
62.9375849875
 31
0.0
  0
LINE
  5
200
330
1BB
100
AcDbEntity
  8
TA-SMART_DN32_NP
  6
Continuous
 62
     7
100
AcDbLine
 10
276.0485196574
 20
115.9375849875
 30
0.0
 11
274.9566089546
 21
112.9375849875
 31
0.0
  0
LINE
  5
201
330
1BB
100
AcDbEntity
  8
TA-SMART_DN32_NP
  6
Continuous
 62
     7
100
AcDbLine
 10
274.9566089546
 20
65.9375849875
 30
0.0
 11
276.0485196574
 21
62.9375849875
 31
0.0
  0
LINE
  5
202
330
1BB
100
AcDbEntity
  8
TA-SMART_DN32_NP
  6
Continuous
 62
     7
100
AcDbLine
 10
276.0485196574
 20
62.9375849875
 30
0.0
 11
293.9566089546
 21
62.9375849875
 31
0.0
  0
LINE
  5
203
330
1BB
100
AcDbEntity
  8
TA-SMART_DN32_NP
  6
Continuous
 62
     7
100
AcDbLine
 10
293.9566089546
 20
115.9375849875
 30
0.0
 11
276.0485196574
 21
115.9375849875
 31
0.0
  0
LINE
  5
204
330
1BB
100
AcDbEntity
  8
TA-SMART_DN32_NP
  6
Continuous
 62
     7
100
AcDbLine
 10
307.4566089546
 20
119.1875849875
 30
0.0
 11
295.9566089546
 21
119.1875849875
 31
0.0
  0
LINE
  5
205
330
1BB
100
AcDbEntity
  8
TA-SMART_DN32_NP
  6
Continuous
 62
     7
100
AcDbLine
 10
295.9566089546
 20
59.6875849875
 30
0.0
 11
307.4566089546
 21
59.6875849875
 31
0.0
  0
LINE
  5
206
330
1BB
100
AcDbEntity
  8
TA-SMART_DN32_NP
  6
Continuous
 62
     7
100
AcDbLine
 10
295.9566089546
 20
119.1875849875
 30
0.0
 11
293.9566089546
 21
117.1875849875
 31
0.0
  0
LINE
  5
207
330
1BB
100
AcDbEntity
  8
TA-SMART_DN32_NP
  6
Continuous
 62
     7
100
AcDbLine
 10
293.9566089546
 20
61.6875849875
 30
0.0
 11
295.9566089546
 21
59.6875849875
 31
0.0
  0
LINE
  5
208
330
1BB
100
AcDbEntity
  8
TA-SMART_DN32_NP
  6
Continuous
 62
     7
100
AcDbLine
 10
307.9566089546
 20
118.6875849875
 30
0.0
 11
307.4566089546
 21
119.1875849875
 31
0.0
  0
LINE
  5
209
330
1BB
100
AcDbEntity
  8
TA-SMART_DN32_NP
  6
Continuous
 62
     7
100
AcDbLine
 10
307.4566089546
 20
59.6875849875
 30
0.0
 11
307.9566089546
 21
60.1875849875
 31
0.0
  0
LINE
  5
20A
330
1BB
100
AcDbEntity
  8
TA-SMART_DN32_NP
  6
Continuous
 62
     7
100
AcDbLine
 10
308.4566089546
 20
119.1875849875
 30
0.0
 11
307.9566089546
 21
118.6875849875
 31
0.0
  0
LINE
  5
20B
330
1BB
100
AcDbEntity
  8
TA-SMART_DN32_NP
  6
Continuous
 62
     7
100
AcDbLine
 10
307.9566089546
 20
60.1875849875
 30
0.0
 11
308.4566089546
 21
59.6875849875
 31
0.0
  0
LINE
  5
20C
330
1BB
100
AcDbEntity
  8
TA-SMART_DN32_NP
  6
Continuous
 62
     7
100
AcDbLine
 10
319.9566089546
 20
59.6875849875
 30
0.0
 11
321.9566089546
 21
61.6875849875
 31
0.0
  0
LINE
  5
20D
330
1BB
100
AcDbEntity
  8
TA-SMART_DN32_NP
  6
Continuous
 62
     7
100
AcDbLine
 10
321.9566089546
 20
117.1875849875
 30
0.0
 11
319.9566089546
 21
119.1875849875
 31
0.0
  0
LINE
  5
20E
330
1BB
100
AcDbEntity
  8
TA-SMART_DN32_NP
  6
Continuous
 62
     7
100
AcDbLine
 10
319.9566089546
 20
119.1875849875
 30
0.0
 11
308.4566089546
 21
119.1875849875
 31
0.0
  0
LINE
  5
20F
330
1BB
100
AcDbEntity
  8
TA-SMART_DN32_NP
  6
Continuous
 62
     7
100
AcDbLine
 10
308.4566089546
 20
59.6875849875
 30
0.0
 11
319.9566089546
 21
59.6875849875
 31
0.0
  0
ENDBLK
  5
211
330
1BB
100
AcDbEntity
  8
0
100
AcDbBlockEnd
  0
ENDSEC
  0
SECTION
  2
ENTITIES
  0
INSERT
  5
70
330
1F
100
AcDbEntity
  8
Default
100
AcDbBlockReference
  2
SE
 10
0.0
 20
0.0
 30
0.0
  0
INSERT
  5
DA
330
1F
100
AcDbEntity
  8
Default
100
AcDbBlockReference
  2
SE1
 10
0.0
 20
0.0
 30
0.0
  0
INSERT
  5
11B
330
1F
100
AcDbEntity
  8
Default
100
AcDbBlockReference
  2
SE2
 10
0.0
 20
0.0
 30
0.0
  0
INSERT
  5
17B
330
1F
100
AcDbEntity
  8
Default
100
AcDbBlockReference
  2
SE3
 10
0.0
 20
0.0
 30
0.0
  0
INSERT
  5
1BC
330
1F
100
AcDbEntity
  8
Default
100
AcDbBlockReference
  2
SE4
 10
0.0
 20
0.0
 30
0.0
  0
ENDSEC
  0
SECTION
  2
OBJECTS
  0
DICTIONARY
  5
C
330
0
100
AcDbDictionary
281
     1
  3
ACAD_DETAILVIEWSTYLE
350
24D
  3
ACAD_GROUP
350
D
  3
ACAD_LAYOUT
350
1A
  3
ACAD_MATERIAL
350
43
  3
ACAD_MLEADERSTYLE
350
6B
  3
ACAD_MLINESTYLE
350
17
  3
ACAD_PLOTSETTINGS
350
19
  3
ACAD_PLOTSTYLENAME
350
E
  3
ACAD_SCALELIST
350
47
  3
ACAD_SECTIONVIEWSTYLE
350
24E
  3
ACAD_TABLESTYLE
350
69
  3
ACAD_VISUALSTYLE
350
2A
  3
ACDB_RECOMPOSE_DATA
350
24A
  3
AcDbVariableDictionary
350
212
  0
SUN
  5
6D
330
29
100
AcDbSun
 90
        1
290
     0
 63
     7
421
 16777215
 40
1.0
291
     1
 91
  2455826
 92
 54000000
292
     0
 70
     2
 71
   256
280
     1
  0
DICTIONARY
  5
24D
102
{ACAD_REACTORS
330
C
102
}
330
C
100
AcDbDictionary
281
     1
  0
DICTIONARY
  5
D
102
{ACAD_REACTORS
330
C
102
}
330
C
100
AcDbDictionary
281
     1
  0
DICTIONARY
  5
1A
102
{ACAD_REACTORS
330
C
102
}
330
C
100
AcDbDictionary
281
     1
  3
Layout1
350
1E
  3
Model
350
22
  0
DICTIONARY
  5
43
102
{ACAD_REACTORS
330
C
102
}
330
C
100
AcDbDictionary
281
     1
  3
ByBlock
350
45
  3
ByLayer
350
44
  3
Global
350
46
  0
DICTIONARY
  5
6B
102
{ACAD_REACTORS
330
C
102
}
330
C
100
AcDbDictionary
281
     1
  3
Standard
350
6C
  0
DICTIONARY
  5
17
102
{ACAD_REACTORS
330
C
102
}
330
C
100
AcDbDictionary
281
     1
  3
Standard
350
18
  0
DICTIONARY
  5
19
102
{ACAD_REACTORS
330
C
102
}
330
C
100
AcDbDictionary
281
     1
  0
ACDBDICTIONARYWDFLT
  5
E
102
{ACAD_REACTORS
330
C
102
}
330
C
100
AcDbDictionary
281
     1
  3
Normal
350
F
100
AcDbDictionaryWithDefault
340
F
  0
DICTIONARY
  5
47
102
{ACAD_REACTORS
330
C
102
}
330
C
100
AcDbDictionary
281
     1
  3
A0
350
48
  3
A1
350
49
  3
A2
350
4A
  3
A3
350
4B
  3
A4
350
4C
  3
A5
350
4D
  3
A6
350
4E
  3
A7
350
4F
  3
A8
350
50
  3
A9
350
51
  3
B0
350
52
  3
B1
350
53
  3
B2
350
54
  3
B3
350
55
  3
B4
350
56
  3
B5
350
57
  3
B6
350
58
  3
B7
350
59
  3
B8
350
5A
  3
B9
350
5B
  3
C0
350
5C
  3
C1
350
5D
  3
C2
350
5E
  3
C3
350
5F
  3
C4
350
60
  3
C5
350
61
  3
C6
350
62
  3
C7
350
63
  3
C8
350
64
  3
C9
350
65
  3
D0
350
66
  3
D1
350
67
  3
D2
350
68
  0
DICTIONARY
  5
24E
102
{ACAD_REACTORS
330
C
102
}
330
C
100
AcDbDictionary
281
     1
  0
DICTIONARY
  5
69
102
{ACAD_REACTORS
330
C
102
}
330
C
100
AcDbDictionary
281
     1
  3
Standard
350
6A
  0
DICTIONARY
  5
2A
102
{ACAD_REACTORS
330
C
102
}
330
C
100
AcDbDictionary
281
     1
  3
2dWireframe
350
2F
  3
Basic
350
32
  3
Brighten
350
36
  3
ColorChange
350
3A
  3
Conceptual
350
34
  3
Dim
350
35
  3
EdgeColorOff
350
3D
  3
Facepattern
350
39
  3
Flat
350
2B
  3
FlatWithEdges
350
2C
  3
Gouraud
350
2D
  3
GouraudWithEdges
350
2E
  3
Hidden
350
31
  3
JitterOff
350
3B
  3
Linepattern
350
38
  3
OverhangOff
350
3C
  3
Realistic
350
33
  3
Shaded
350
42
  3
Shaded with edges
350
41
  3
Shades of Gray
350
3E
  3
Sketchy
350
3F
  3
Thicken
350
37
  3
Wireframe
350
30
  3
X-Ray
350
40
  0
XRECORD
  5
24A
102
{ACAD_REACTORS
330
C
102
}
330
C
100
AcDbXrecord
280
     1
 90
        1
330
6A
  0
DICTIONARY
  5
212
102
{ACAD_REACTORS
330
C
102
}
330
C
100
AcDbDictionary
281
     1
  3
CANNOSCALE
350
213
  3
CENTEREXE
350
24F
  3
CENTERLTYPEFILE
350
250
  3
CMLEADERSTYLE
350
24C
  3
CTABLESTYLE
350
24B
  3
XCLIPFRAME
350
214
  0
LAYOUT
  5
1E
102
{ACAD_REACTORS
330
1A
102
}
330
1A
100
AcDbPlotSettings
  1

  2
none_device
  4

  6

 40
0.0
 41
0.0
 42
0.0
 43
0.0
 44
0.0
 45
0.0
 46
0.0
 47
0.0
 48
0.0
 49
0.0
140
0.0
141
0.0
142
1.0
143
1.0
 70
   688
 72
     1
 73
     0
 74
     5
  7

 75
    16
 76
     0
 77
     2
 78
   300
147
1.0
148
0.0
149
0.0
100
AcDbLayout
  1
Layout1
 70
     1
 71
     1
 10
0.0
 20
0.0
 11
420.0
 21
297.0
 12
0.0
 22
0.0
 32
0.0
 14
0.0
 24
0.0
 34
0.0
 15
420.0
 25
297.0
 35
0.0
146
0.0
 13
0.0
 23
0.0
 33
0.0
 16
1.0
 26
0.0
 36
0.0
 17
0.0
 27
1.0
 37
0.0
 76
     0
330
1B
  0
LAYOUT
  5
22
102
{ACAD_REACTORS
330
1A
102
}
330
1A
100
AcDbPlotSettings
  1

  2
none_device
  4
Letter_(8.50_x_11.00_Inches)
  6

 40
6.35
 41
6.35
 42
6.35000508
 43
6.35000508
 44
215.9
 45
279.4
 46
0.0
 47
0.0
 48
0.0
 49
0.0
140
0.0
141
0.0
142
1.0
143
1.0
 70
  1712
 72
     1
 73
     0
 74
     0
  7

 75
     0
 76
     0
 77
     2
 78
   300
147
1.0
148
0.0
149
0.0
100
AcDbLayout
  1
Model
 70
     1
 71
     0
 10
0.0
 20
0.0
 11
420.0
 21
297.0
 12
0.0
 22
0.0
 32
0.0
 14
0.0
 24
0.0
 34
0.0
 15
420.0
 25
297.0
 35
0.0
146
0.0
 13
0.0
 23
0.0
 33
0.0
 16
1.0
 26
0.0
 36
0.0
 17
0.0
 27
1.0
 37
0.0
 76
     0
330
1F
331
29
  0
MATERIAL
  5
45
102
{ACAD_REACTORS
330
43
102
}
330
43
100
AcDbMaterial
  1
ByBlock
 72
     1
 94
      127
  0
MATERIAL
  5
44
102
{ACAD_REACTORS
330
43
102
}
330
43
100
AcDbMaterial
  1
ByLayer
 72
     1
 94
      127
  0
MATERIAL
  5
46
102
{ACAD_REACTORS
330
43
102
}
330
43
100
AcDbMaterial
  1
Global
 72
     1
 94
      127
  0
MLEADERSTYLE
  5
6C
102
{ACAD_REACTORS
330
6B
102
}
102
{ACAD_XDICTIONARY
360
248
102
}
330
6B
100
AcDbMLeaderStyle
170
     2
171
     1
172
     0
 90
        2
 40
0.0
 41
0.0
173
     1
 91
-1056964608
340
14
 92
       -2
290
     1
 42
2.0
291
     1
 43
8.0
  3
Standard
341
0
 44
4.0
300

342
11
174
     1
178
     6
175
     1
176
     0
 93
-1056964608
 45
4.0
292
     0
297
     0
 46
4.0
343
0
 94
-1056964608
 47
1.0
 49
1.0
140
1.0
293
     1
141
0.0
294
     1
177
     0
142
1.0
295
     0
296
     0
143
3.75
1001
ACAD_MLEADERVER
1070
     2
  0
MLINESTYLE
  5
18
102
{ACAD_REACTORS
330
17
102
}
330
17
100
AcDbMlineStyle
  2
Standard
 70
     0
  3

 62
   256
 51
90.0
 52
90.0
 71
     2
 49
0.5
 62
   256
  6
BYLAYER
 49
-0.5
 62
   256
  6
BYLAYER
  0
ACDBPLACEHOLDER
  5
F
102
{ACAD_REACTORS
330
E
102
}
330
E
  0
SCALE
  5
48
102
{ACAD_REACTORS
330
47
102
}
330
47
100
AcDbScale
 70
     0
300
1:1
140
1.0
141
1.0
290
     1
  0
SCALE
  5
49
102
{ACAD_REACTORS
330
47
102
}
330
47
100
AcDbScale
 70
     0
300
1:2
140
1.0
141
2.0
290
     0
  0
SCALE
  5
4A
102
{ACAD_REACTORS
330
47
102
}
330
47
100
AcDbScale
 70
     0
300
1:4
140
1.0
141
4.0
290
     0
  0
SCALE
  5
4B
102
{ACAD_REACTORS
330
47
102
}
330
47
100
AcDbScale
 70
     0
300
1:5
140
1.0
141
5.0
290
     0
  0
SCALE
  5
4C
102
{ACAD_REACTORS
330
47
102
}
330
47
100
AcDbScale
 70
     0
300
1:8
140
1.0
141
8.0
290
     0
  0
SCALE
  5
4D
102
{ACAD_REACTORS
330
47
102
}
330
47
100
AcDbScale
 70
     0
300
1:10
140
1.0
141
10.0
290
     0
  0
SCALE
  5
4E
102
{ACAD_REACTORS
330
47
102
}
330
47
100
AcDbScale
 70
     0
300
1:16
140
1.0
141
16.0
290
     0
  0
SCALE
  5
4F
102
{ACAD_REACTORS
330
47
102
}
330
47
100
AcDbScale
 70
     0
300
1:20
140
1.0
141
20.0
290
     0
  0
SCALE
  5
50
102
{ACAD_REACTORS
330
47
102
}
330
47
100
AcDbScale
 70
     0
300
1:30
140
1.0
141
30.0
290
     0
  0
SCALE
  5
51
102
{ACAD_REACTORS
330
47
102
}
330
47
100
AcDbScale
 70
     0
300
1:40
140
1.0
141
40.0
290
     0
  0
SCALE
  5
52
102
{ACAD_REACTORS
330
47
102
}
330
47
100
AcDbScale
 70
     0
300
1:50
140
1.0
141
50.0
290
     0
  0
SCALE
  5
53
102
{ACAD_REACTORS
330
47
102
}
330
47
100
AcDbScale
 70
     0
300
1:100
140
1.0
141
100.0
290
     0
  0
SCALE
  5
54
102
{ACAD_REACTORS
330
47
102
}
330
47
100
AcDbScale
 70
     0
300
2:1
140
2.0
141
1.0
290
     0
  0
SCALE
  5
55
102
{ACAD_REACTORS
330
47
102
}
330
47
100
AcDbScale
 70
     0
300
4:1
140
4.0
141
1.0
290
     0
  0
SCALE
  5
56
102
{ACAD_REACTORS
330
47
102
}
330
47
100
AcDbScale
 70
     0
300
8:1
140
8.0
141
1.0
290
     0
  0
SCALE
  5
57
102
{ACAD_REACTORS
330
47
102
}
330
47
100
AcDbScale
 70
     0
300
10:1
140
10.0
141
1.0
290
     0
  0
SCALE
  5
58
102
{ACAD_REACTORS
330
47
102
}
330
47
100
AcDbScale
 70
     0
300
100:1
140
100.0
141
1.0
290
     0
  0
SCALE
  5
59
102
{ACAD_REACTORS
330
47
102
}
330
47
100
AcDbScale
 70
     0
300
1/128" = 1'-0"
140
0.0078125
141
12.0
290
     0
  0
SCALE
  5
5A
102
{ACAD_REACTORS
330
47
102
}
330
47
100
AcDbScale
 70
     0
300
1/64" = 1'-0"
140
0.015625
141
12.0
290
     0
  0
SCALE
  5
5B
102
{ACAD_REACTORS
330
47
102
}
330
47
100
AcDbScale
 70
     0
300
1/32" = 1'-0"
140
0.03125
141
12.0
290
     0
  0
SCALE
  5
5C
102
{ACAD_REACTORS
330
47
102
}
330
47
100
AcDbScale
 70
     0
300
1/16" = 1'-0"
140
0.0625
141
12.0
290
     0
  0
SCALE
  5
5D
102
{ACAD_REACTORS
330
47
102
}
330
47
100
AcDbScale
 70
     0
300
3/32" = 1'-0"
140
0.09375
141
12.0
290
     0
  0
SCALE
  5
5E
102
{ACAD_REACTORS
330
47
102
}
330
47
100
AcDbScale
 70
     0
300
1/8" = 1'-0"
140
0.125
141
12.0
290
     0
  0
SCALE
  5
5F
102
{ACAD_REACTORS
330
47
102
}
330
47
100
AcDbScale
 70
     0
300
3/16" = 1'-0"
140
0.1875
141
12.0
290
     0
  0
SCALE
  5
60
102
{ACAD_REACTORS
330
47
102
}
330
47
100
AcDbScale
 70
     0
300
1/4" = 1'-0"
140
0.25
141
12.0
290
     0
  0
SCALE
  5
61
102
{ACAD_REACTORS
330
47
102
}
330
47
100
AcDbScale
 70
     0
300
3/8" = 1'-0"
140
0.375
141
12.0
290
     0
  0
SCALE
  5
62
102
{ACAD_REACTORS
330
47
102
}
330
47
100
AcDbScale
 70
     0
300
1/2" = 1'-0"
140
0.5
141
12.0
290
     0
  0
SCALE
  5
63
102
{ACAD_REACTORS
330
47
102
}
330
47
100
AcDbScale
 70
     0
300
3/4" = 1'-0"
140
0.75
141
12.0
290
     0
  0
SCALE
  5
64
102
{ACAD_REACTORS
330
47
102
}
330
47
100
AcDbScale
 70
     0
300
1" = 1'-0"
140
1.0
141
12.0
290
     0
  0
SCALE
  5
65
102
{ACAD_REACTORS
330
47
102
}
330
47
100
AcDbScale
 70
     0
300
1-1/2" = 1'-0"
140
1.5
141
12.0
290
     0
  0
SCALE
  5
66
102
{ACAD_REACTORS
330
47
102
}
330
47
100
AcDbScale
 70
     0
300
3" = 1'-0"
140
3.0
141
12.0
290
     0
  0
SCALE
  5
67
102
{ACAD_REACTORS
330
47
102
}
330
47
100
AcDbScale
 70
     0
300
6" = 1'-0"
140
6.0
141
12.0
290
     0
  0
SCALE
  5
68
102
{ACAD_REACTORS
330
47
102
}
330
47
100
AcDbScale
 70
     0
300
1'-0" = 1'-0"
140
12.0
141
12.0
290
     0
  0
TABLESTYLE
  5
6A
102
{ACAD_REACTORS
330
69
102
}
102
{ACAD_XDICTIONARY
360
245
102
}
330
69
100
AcDbTableStyle
  3
Standard
 70
     0
 71
     0
 40
0.06
 41
0.06
280
     0
281
     0
  7
Standard
140
4.5
170
     2
 62
     0
 63
   257
283
     0
 90
        4
 91
        0
  1

274
    -2
284
     1
 64
     0
275
    -2
285
     1
 65
     0
276
    -2
286
     1
 66
     0
277
    -2
287
     1
 67
     0
278
    -2
288
     1
 68
     0
279
    -2
289
     1
 69
     0
  7
Standard
140
6.0
170
     5
 62
     0
 63
   257
283
     0
 90
        4
 91
        0
  1

274
    -2
284
     1
 64
     0
275
    -2
285
     1
 65
     0
276
    -2
286
     1
 66
     0
277
    -2
287
     1
 67
     0
278
    -2
288
     1
 68
     0
279
    -2
289
     1
 69
     0
  7
Standard
140
4.5
170
     5
 62
     0
 63
   257
283
     0
 90
        4
 91
        0
  1

274
    -2
284
     1
 64
     0
275
    -2
285
     1
 65
     0
276
    -2
286
     1
 66
     0
277
    -2
287
     1
 67
     0
278
    -2
288
     1
 68
     0
279
    -2
289
     1
 69
     0
  0
VISUALSTYLE
  5
2F
102
{ACAD_REACTORS
330
2A
102
}
102
{ACAD_XDICTIONARY
360
21D
102
}
330
2A
100
AcDbVisualStyle
  2
2dWireframe
 70
     4
 71
     0
 72
     2
 73
     0
 90
        0
 40
0.6
 41
30.0
 62
     5
 63
     7
421
 16777215
 74
     1
 91
        4
 64
     7
 65
   257
 75
     1
175
     1
 42
1.0
 92
        0
 66
   257
 43
1.0
 76
     1
 77
     6
 78
     2
 67
     7
 79
     5
170
     0
171
     0
290
     0
174
     0
 93
        1
 44
0.0
173
     0
291
     0
 45
0.0
  0
VISUALSTYLE
  5
32
102
{ACAD_REACTORS
330
2A
102
}
102
{ACAD_XDICTIONARY
360
223
102
}
330
2A
100
AcDbVisualStyle
  2
Basic
 70
     7
 71
     1
 72
     0
 73
     1
 90
        0
 40
0.6
 41
30.0
 62
     5
 63
     7
421
 16777215
 74
     0
 91
        4
 64
     7
 65
   257
 75
     1
175
     1
 42
1.0
 92
        8
 66
     7
 43
1.0
 76
     1
 77
     6
 78
     2
 67
     7
 79
     5
170
     0
171
     0
290
     0
174
     0
 93
        1
 44
0.0
173
     0
291
     1
 45
0.0
  0
VISUALSTYLE
  5
36
102
{ACAD_REACTORS
330
2A
102
}
102
{ACAD_XDICTIONARY
360
22B
102
}
330
2A
100
AcDbVisualStyle
  2
Brighten
 70
    12
 71
     2
 72
     2
 73
     0
 90
        0
 40
0.6
 41
30.0
 62
     5
 63
     7
421
 16777215
 74
     1
 91
        4
 64
     7
 65
   257
 75
     1
175
     1
 42
1.0
 92
        8
 66
     7
 43
1.0
 76
     1
 77
     6
 78
     2
 67
     7
 79
     5
170
     0
171
     0
290
     0
174
     0
 93
        1
 44
50.0
173
     0
291
     1
 45
0.0
  0
VISUALSTYLE
  5
3A
102
{ACAD_REACTORS
330
2A
102
}
102
{ACAD_XDICTIONARY
360
233
102
}
330
2A
100
AcDbVisualStyle
  2
ColorChange
 70
    16
 71
     2
 72
     2
 73
     3
 90
        0
 40
0.6
 41
30.0
 62
     5
 63
     8
421
  8421504
 74
     1
 91
        4
 64
     7
 65
   257
 75
     1
175
     1
 42
1.0
 92
        8
 66
     8
424
  8421504
 43
1.0
 76
     1
 77
     6
 78
     2
 67
     7
 79
     5
170
     0
171
     0
290
     0
174
     0
 93
        1
 44
0.0
173
     0
291
     1
 45
0.0
  0
VISUALSTYLE
  5
34
102
{ACAD_REACTORS
330
2A
102
}
102
{ACAD_XDICTIONARY
360
227
102
}
330
2A
100
AcDbVisualStyle
  2
Conceptual
 70
     9
 71
     3
 72
     2
 73
     0
 90
        0
 40
0.6
 41
30.0
 62
     5
 63
     7
421
 16777215
 74
     2
 91
        2
 64
     7
 65
   257
 75
     1
175
     1
 42
179.0
 92
        8
 66
     7
 43
1.0
 76
     1
 77
     6
 78
     2
 67
     7
 79
     3
170
     0
171
     0
290
     0
174
     0
 93
        1
 44
0.0
173
     0
291
     0
 45
0.0
  0
VISUALSTYLE
  5
35
102
{ACAD_REACTORS
330
2A
102
}
102
{ACAD_XDICTIONARY
360
229
102
}
330
2A
100
AcDbVisualStyle
  2
Dim
 70
    11
 71
     2
 72
     2
 73
     0
 90
        0
 40
0.6
 41
30.0
 62
     5
 63
     7
421
 16777215
 74
     1
 91
        4
 64
     7
 65
   257
 75
     1
175
     1
 42
1.0
 92
        8
 66
     7
 43
1.0
 76
     1
 77
     6
 78
     2
 67
     7
 79
     5
170
     0
171
     0
290
     0
174
     0
 93
        1
 44
-50.0
173
     0
291
     1
 45
0.0
  0
VISUALSTYLE
  5
3D
102
{ACAD_REACTORS
330
2A
102
}
102
{ACAD_XDICTIONARY
360
239
102
}
330
2A
100
AcDbVisualStyle
  2
EdgeColorOff
 70
    22
 71
     2
 72
     2
 73
     0
 90
        0
 40
0.6
 41
30.0
 62
     5
 63
     7
421
 16777215
 74
     1
 91
        4
 64
     7
 65
   257
 75
     1
175
     1
 42
1.0
 92
        8
 66
     7
 43
1.0
 76
     1
 77
     6
 78
     2
 67
     7
 79
     5
170
     0
171
     0
290
     0
174
     0
 93
        1
 44
0.0
173
     0
291
     1
 45
0.0
  0
VISUALSTYLE
  5
39
102
{ACAD_REACTORS
330
2A
102
}
102
{ACAD_XDICTIONARY
360
231
102
}
330
2A
100
AcDbVisualStyle
  2
Facepattern
 70
    15
 71
     2
 72
     2
 73
     0
 90
        0
 40
0.6
 41
30.0
 62
     5
 63
     7
421
 16777215
 74
     1
 91
        4
 64
     7
 65
   257
 75
     1
175
     1
 42
1.0
 92
        8
 66
     7
 43
1.0
 76
     1
 77
     6
 78
     2
 67
     7
 79
     5
170
     0
171
     0
290
     0
174
     0
 93
        1
 44
0.0
173
     0
291
     1
 45
0.0
  0
VISUALSTYLE
  5
2B
102
{ACAD_REACTORS
330
2A
102
}
102
{ACAD_XDICTIONARY
360
215
102
}
330
2A
100
AcDbVisualStyle
  2
Flat
 70
     0
 71
     2
 72
     1
 73
     1
 90
        2
 40
0.6
 41
30.0
 62
     5
 63
     7
421
 16777215
 74
     0
 91
        0
 64
     7
 65
   257
 75
     1
175
     1
 42
1.0
 92
        8
 66
     7
 43
1.0
 76
     1
 77
     6
 78
     2
 67
     7
 79
     5
170
     0
171
     0
290
     0
174
     0
 93
       13
 44
0.0
173
     0
291
     1
 45
0.0
  0
VISUALSTYLE
  5
2C
102
{ACAD_REACTORS
330
2A
102
}
102
{ACAD_XDICTIONARY
360
217
102
}
330
2A
100
AcDbVisualStyle
  2
FlatWithEdges
 70
     1
 71
     2
 72
     1
 73
     1
 90
        2
 40
0.6
 41
30.0
 62
     5
 63
     7
421
 16777215
 74
     1
 91
        0
 64
     7
 65
   257
 75
     1
175
     1
 42
1.0
 92
        0
 66
   257
 43
1.0
 76
     1
 77
     6
 78
     2
 67
     7
 79
     5
170
     0
171
     0
290
     0
174
     0
 93
       13
 44
0.0
173
     0
291
     1
 45
0.0
  0
VISUALSTYLE
  5
2D
102
{ACAD_REACTORS
330
2A
102
}
102
{ACAD_XDICTIONARY
360
219
102
}
330
2A
100
AcDbVisualStyle
  2
Gouraud
 70
     2
 71
     2
 72
     2
 73
     1
 90
        2
 40
0.6
 41
30.0
 62
     5
 63
     7
421
 16777215
 74
     0
 91
        0
 64
     7
 65
   257
 75
     1
175
     1
 42
1.0
 92
        0
 66
     7
 43
1.0
 76
     1
 77
     6
 78
     2
 67
     7
 79
     5
170
     0
171
     0
290
     0
174
     0
 93
       13
 44
0.0
173
     0
291
     1
 45
0.0
  0
VISUALSTYLE
  5
2E
102
{ACAD_REACTORS
330
2A
102
}
102
{ACAD_XDICTIONARY
360
21B
102
}
330
2A
100
AcDbVisualStyle
  2
GouraudWithEdges
 70
     3
 71
     2
 72
     2
 73
     1
 90
        2
 40
0.6
 41
30.0
 62
     5
 63
     7
421
 16777215
 74
     1
 91
        0
 64
     7
 65
   257
 75
     1
175
     1
 42
1.0
 92
        0
 66
   257
 43
1.0
 76
     1
 77
     6
 78
     2
 67
     7
 79
     5
170
     0
171
     0
290
     0
174
     0
 93
       13
 44
0.0
173
     0
291
     1
 45
0.0
  0
VISUALSTYLE
  5
31
102
{ACAD_REACTORS
330
2A
102
}
102
{ACAD_XDICTIONARY
360
221
102
}
330
2A
100
AcDbVisualStyle
  2
Hidden
 70
     6
 71
     1
 72
     2
 73
     2
 90
        0
 40
0.6
 41
30.0
 62
     5
 63
     7
421
 16777215
 74
     2
 91
        2
 64
     7
 65
   257
 75
     2
175
     1
 42
40.0
 92
        0
 66
   257
 43
1.0
 76
     1
 77
     6
 78
     2
 67
     7
 79
     3
170
     0
171
     0
290
     0
174
     0
 93
        1
 44
0.0
173
     0
291
     0
 45
0.0
  0
VISUALSTYLE
  5
3B
102
{ACAD_REACTORS
330
2A
102
}
102
{ACAD_XDICTIONARY
360
235
102
}
330
2A
100
AcDbVisualStyle
  2
JitterOff
 70
    20
 71
     2
 72
     2
 73
     0
 90
        0
 40
0.6
 41
30.0
 62
     5
 63
     7
421
 16777215
 74
     1
 91
        4
 64
     7
 65
   257
 75
     1
175
     1
 42
1.0
 92
       10
 66
     7
 43
1.0
 76
     1
 77
     6
 78
     2
 67
     7
 79
     5
170
     0
171
     0
290
     0
174
     0
 93
        1
 44
0.0
173
     0
291
     1
 45
0.0
  0
VISUALSTYLE
  5
38
102
{ACAD_REACTORS
330
2A
102
}
102
{ACAD_XDICTIONARY
360
22F
102
}
330
2A
100
AcDbVisualStyle
  2
Linepattern
 70
    14
 71
     2
 72
     2
 73
     0
 90
        0
 40
0.6
 41
30.0
 62
     5
 63
     7
421
 16777215
 74
     1
 91
        4
 64
     7
 65
   257
 75
     7
175
     7
 42
1.0
 92
        8
 66
     7
 43
1.0
 76
     1
 77
     6
 78
     2
 67
     7
 79
     5
170
     0
171
     0
290
     0
174
     0
 93
        1
 44
0.0
173
     0
291
     1
 45
0.0
  0
VISUALSTYLE
  5
3C
102
{ACAD_REACTORS
330
2A
102
}
102
{ACAD_XDICTIONARY
360
237
102
}
330
2A
100
AcDbVisualStyle
  2
OverhangOff
 70
    21
 71
     2
 72
     2
 73
     0
 90
        0
 40
0.6
 41
30.0
 62
     5
 63
     7
421
 16777215
 74
     1
 91
        4
 64
     7
 65
   257
 75
     1
175
     1
 42
1.0
 92
        9
 66
     7
 43
1.0
 76
     1
 77
     6
 78
     2
 67
     7
 79
     5
170
     0
171
     0
290
     0
174
     0
 93
        1
 44
0.0
173
     0
291
     1
 45
0.0
  0
VISUALSTYLE
  5
33
102
{ACAD_REACTORS
330
2A
102
}
102
{ACAD_XDICTIONARY
360
225
102
}
330
2A
100
AcDbVisualStyle
  2
Realistic
 70
     8
 71
     2
 72
     3
 73
     0
 90
        2
 40
0.6
 41
30.0
 62
     5
 63
     7
421
 16777215
 74
     0
 91
        0
 64
     7
 65
   257
 75
     1
175
     1
 42
1.0
 92
        8
 66
   257
 43
1.0
 76
     1
 77
     6
 78
     2
 67
     7
 79
     3
170
     0
171
     0
290
     0
174
     0
 93
       13
 44
0.0
173
     0
291
     0
 45
0.0
  0
VISUALSTYLE
  5
42
102
{ACAD_REACTORS
330
2A
102
}
102
{ACAD_XDICTIONARY
360
243
102
}
330
2A
100
AcDbVisualStyle
  2
Shaded
 70
    27
 71
     2
 72
     2
 73
     1
 90
        2
 40
0.6
 41
30.0
 62
     5
 63
     7
421
 16777215
 74
     0
 91
        4
 64
     7
 65
   257
 75
     1
175
     1
 42
1.0
 92
        8
 66
   257
 43
1.0
 76
     1
 77
     6
 78
     2
 67
     8
425
  7895160
 79
     3
170
     0
171
     0
290
     0
174
     0
 93
        5
 44
0.0
173
     0
291
     0
 45
0.0
  0
VISUALSTYLE
  5
41
102
{ACAD_REACTORS
330
2A
102
}
102
{ACAD_XDICTIONARY
360
241
102
}
330
2A
100
AcDbVisualStyle
  2
Shaded with edges
 70
    26
 71
     2
 72
     2
 73
     1
 90
        2
 40
0.6
 41
30.0
 62
     5
 63
     7
421
 16777215
 74
     1
 91
       10
 64
     7
 65
   257
 75
     2
175
     1
 42
1.0
 92
        8
 66
   257
 43
1.0
 76
     1
 77
     6
 78
     2
 67
     7
 79
     3
170
     0
171
     0
290
     0
174
     0
 93
        5
 44
0.0
173
     0
291
     0
 45
0.0
  0
VISUALSTYLE
  5
3E
102
{ACAD_REACTORS
330
2A
102
}
102
{ACAD_XDICTIONARY
360
23B
102
}
330
2A
100
AcDbVisualStyle
  2
Shades of Gray
 70
    23
 71
     2
 72
     2
 73
     3
 90
        0
 40
0.6
 41
30.0
 62
     5
 63
     7
421
 16777215
 74
     2
 91
        2
 64
     7
 65
     7
 75
     1
175
     1
 42
40.0
 92
        8
 66
     7
 43
1.0
 76
     1
 77
     6
 78
     2
 67
     7
 79
     3
170
     0
171
     0
290
     0
174
     0
 93
        1
 44
0.0
173
     0
291
     0
 45
0.0
  0
VISUALSTYLE
  5
3F
102
{ACAD_REACTORS
330
2A
102
}
102
{ACAD_XDICTIONARY
360
23D
102
}
330
2A
100
AcDbVisualStyle
  2
Sketchy
 70
    24
 71
     1
 72
     2
 73
     2
 90
        0
 40
0.6
 41
30.0
 62
     5
 63
     7
421
 16777215
 74
     2
 91
        2
 64
     7
 65
     7
 75
     1
175
     1
 42
40.0
 92
       11
 66
     7
 43
1.0
 76
     1
 77
     6
 78
     2
 67
     7
 79
     6
170
     0
171
     0
290
     0
174
     0
 93
        1
 44
0.0
173
     0
291
     0
 45
0.0
  0
VISUALSTYLE
  5
37
102
{ACAD_REACTORS
330
2A
102
}
102
{ACAD_XDICTIONARY
360
22D
102
}
330
2A
100
AcDbVisualStyle
  2
Thicken
 70
    13
 71
     2
 72
     2
 73
     0
 90
        0
 40
0.6
 41
30.0
 62
     5
 63
     7
421
 16777215
 74
     1
 91
        4
 64
     7
 65
   257
 75
     1
175
     1
 42
1.0
 92
       12
 66
     7
 43
1.0
 76
     1
 77
     6
 78
     2
 67
     7
 79
     5
170
     0
171
     0
290
     0
174
     0
 93
        1
 44
0.0
173
     0
291
     1
 45
0.0
  0
VISUALSTYLE
  5
30
102
{ACAD_REACTORS
330
2A
102
}
102
{ACAD_XDICTIONARY
360
21F
102
}
330
2A
100
AcDbVisualStyle
  2
Wireframe
 70
     5
 71
     0
 72
     2
 73
     0
 90
        0
 40
0.6
 41
30.0
 62
     5
 63
     7
421
 16777215
 74
     1
 91
        4
 64
     7
 65
   257
 75
     1
175
     1
 42
1.0
 92
        0
 66
   257
 43
1.0
 76
     1
 77
     6
 78
     2
 67
     7
 79
     3
170
     0
171
     0
290
     0
174
     0
 93
        1
 44
0.0
173
     0
291
     0
 45
0.0
  0
VISUALSTYLE
  5
40
102
{ACAD_REACTORS
330
2A
102
}
102
{ACAD_XDICTIONARY
360
23F
102
}
330
2A
100
AcDbVisualStyle
  2
X-Ray
 70
    25
 71
     2
 72
     2
 73
     1
 90
        1
 40
0.5
 41
30.0
 62
     5
 63
     7
421
 16777215
 74
     1
 91
        0
 64
     7
 65
   257
 75
     1
175
     1
 42
1.0
 92
        8
 66
     7
 43
1.0
 76
     1
 77
     6
 78
     2
 67
     7
 79
     3
170
     0
171
     0
290
     0
174
     0
 93
       13
 44
0.0
173
     0
291
     0
 45
0.0
  0
DICTIONARYVAR
  5
213
102
{ACAD_REACTORS
330
212
102
}
330
212
100
DictionaryVariables
280
     0
  1
1:1
  0
DICTIONARYVAR
  5
24F
102
{ACAD_REACTORS
330
212
102
}
330
212
100
DictionaryVariables
280
     0
  1
3.500000
  0
DICTIONARYVAR
  5
250
102
{ACAD_REACTORS
330
212
102
}
330
212
100
DictionaryVariables
280
     0
  1
acadiso.lin
  0
DICTIONARYVAR
  5
24C
102
{ACAD_REACTORS
330
212
102
}
330
212
100
DictionaryVariables
280
     0
  1
Standard
  0
DICTIONARYVAR
  5
24B
102
{ACAD_REACTORS
330
212
102
}
330
212
100
DictionaryVariables
280
     0
  1
Standard
  0
DICTIONARYVAR
  5
214
102
{ACAD_REACTORS
330
212
102
}
330
212
100
DictionaryVariables
280
     0
  1
2
  0
DICTIONARY
  5
248
330
6C
100
AcDbDictionary
280
     1
281
     1
  3
ACAD_XREC_ROUNDTRIP
360
249
  0
DICTIONARY
  5
245
330
6A
100
AcDbDictionary
280
     1
281
     1
  3
ACAD_ROUNDTRIP_2008_TABLESTYLE_CELLSTYLEMAP
360
246
  0
DICTIONARY
  5
21D
330
2F
100
AcDbDictionary
280
     1
281
     1
  3
ACAD_XREC_ROUNDTRIP
360
21E
  0
DICTIONARY
  5
223
330
32
100
AcDbDictionary
280
     1
281
     1
  3
ACAD_XREC_ROUNDTRIP
360
224
  0
DICTIONARY
  5
22B
330
36
100
AcDbDictionary
280
     1
281
     1
  3
ACAD_XREC_ROUNDTRIP
360
22C
  0
DICTIONARY
  5
233
330
3A
100
AcDbDictionary
280
     1
281
     1
  3
ACAD_XREC_ROUNDTRIP
360
234
  0
DICTIONARY
  5
227
330
34
100
AcDbDictionary
280
     1
281
     1
  3
ACAD_XREC_ROUNDTRIP
360
228
  0
DICTIONARY
  5
229
330
35
100
AcDbDictionary
280
     1
281
     1
  3
ACAD_XREC_ROUNDTRIP
360
22A
  0
DICTIONARY
  5
239
330
3D
100
AcDbDictionary
280
     1
281
     1
  3
ACAD_XREC_ROUNDTRIP
360
23A
  0
DICTIONARY
  5
231
330
39
100
AcDbDictionary
280
     1
281
     1
  3
ACAD_XREC_ROUNDTRIP
360
232
  0
DICTIONARY
  5
215
330
2B
100
AcDbDictionary
280
     1
281
     1
  3
ACAD_XREC_ROUNDTRIP
360
216
  0
DICTIONARY
  5
217
330
2C
100
AcDbDictionary
280
     1
281
     1
  3
ACAD_XREC_ROUNDTRIP
360
218
  0
DICTIONARY
  5
219
330
2D
100
AcDbDictionary
280
     1
281
     1
  3
ACAD_XREC_ROUNDTRIP
360
21A
  0
DICTIONARY
  5
21B
330
2E
100
AcDbDictionary
280
     1
281
     1
  3
ACAD_XREC_ROUNDTRIP
360
21C
  0
DICTIONARY
  5
221
330
31
100
AcDbDictionary
280
     1
281
     1
  3
ACAD_XREC_ROUNDTRIP
360
222
  0
DICTIONARY
  5
235
330
3B
100
AcDbDictionary
280
     1
281
     1
  3
ACAD_XREC_ROUNDTRIP
360
236
  0
DICTIONARY
  5
22F
330
38
100
AcDbDictionary
280
     1
281
     1
  3
ACAD_XREC_ROUNDTRIP
360
230
  0
DICTIONARY
  5
237
330
3C
100
AcDbDictionary
280
     1
281
     1
  3
ACAD_XREC_ROUNDTRIP
360
238
  0
DICTIONARY
  5
225
330
33
100
AcDbDictionary
280
     1
281
     1
  3
ACAD_XREC_ROUNDTRIP
360
226
  0
DICTIONARY
  5
243
330
42
100
AcDbDictionary
280
     1
281
     1
  3
ACAD_XREC_ROUNDTRIP
360
244
  0
DICTIONARY
  5
241
330
41
100
AcDbDictionary
280
     1
281
     1
  3
ACAD_XREC_ROUNDTRIP
360
242
  0
DICTIONARY
  5
23B
330
3E
100
AcDbDictionary
280
     1
281
     1
  3
ACAD_XREC_ROUNDTRIP
360
23C
  0
DICTIONARY
  5
23D
330
3F
100
AcDbDictionary
280
     1
281
     1
  3
ACAD_XREC_ROUNDTRIP
360
23E
  0
DICTIONARY
  5
22D
330
37
100
AcDbDictionary
280
     1
281
     1
  3
ACAD_XREC_ROUNDTRIP
360
22E
  0
DICTIONARY
  5
21F
330
30
100
AcDbDictionary
280
     1
281
     1
  3
ACAD_XREC_ROUNDTRIP
360
220
  0
DICTIONARY
  5
23F
330
40
100
AcDbDictionary
280
     1
281
     1
  3
ACAD_XREC_ROUNDTRIP
360
240
  0
XRECORD
  5
249
102
{ACAD_REACTORS
330
248
102
}
330
248
100
AcDbXrecord
280
     1
102
ACAD_ROUNDTRIP_2010_MLEADER_STYLE
  0
CELLSTYLEMAP
  5
246
102
{ACAD_REACTORS
330
245
102
}
330
245
100
AcDbCellStyleMap
 90
        3
300
CELLSTYLE
  1
TABLEFORMAT_BEGIN
 90
        5
170
     1
 91
        0
 92
    32768
 62
   257
 93
        1
300
CONTENTFORMAT
  1
CONTENTFORMAT_BEGIN
 90
        0
 91
        0
 92
        4
 93
        0
300

 40
0.0
140
1.0
 94
        5
 62
     0
340
11
144
6.0
309
CONTENTFORMAT_END
171
     1
301
MARGIN
  1
CELLMARGIN_BEGIN
 40
1.5
 40
1.5
 40
1.5
 40
1.5
 40
1.5
 40
1.5
309
CELLMARGIN_END
 94
        6
 95
        1
302
GRIDFORMAT
  1
GRIDFORMAT_BEGIN
 90
        0
 91
        1
 62
     0
 92
       -2
340
14
 93
        0
 40
0.045
309
GRIDFORMAT_END
 95
        2
302
GRIDFORMAT
  1
GRIDFORMAT_BEGIN
 90
        0
 91
        1
 62
     0
 92
       -2
340
14
 93
        0
 40
0.045
309
GRIDFORMAT_END
 95
        4
302
GRIDFORMAT
  1
GRIDFORMAT_BEGIN
 90
        0
 91
        1
 62
     0
 92
       -2
340
14
 93
        0
 40
0.045
309
GRIDFORMAT_END
 95
        8
302
GRIDFORMAT
  1
GRIDFORMAT_BEGIN
 90
        0
 91
        1
 62
     0
 92
       -2
340
14
 93
        0
 40
0.045
309
GRIDFORMAT_END
 95
       16
302
GRIDFORMAT
  1
GRIDFORMAT_BEGIN
 90
        0
 91
        1
 62
     0
 92
       -2
340
14
 93
        0
 40
0.045
309
GRIDFORMAT_END
 95
       32
302
GRIDFORMAT
  1
GRIDFORMAT_BEGIN
 90
        0
 91
        1
 62
     0
 92
       -2
340
14
 93
        0
 40
0.045
309
GRIDFORMAT_END
309
TABLEFORMAT_END
  1
CELLSTYLE_BEGIN
 90
        1
 91
        1
300
_TITLE
309
CELLSTYLE_END
300
CELLSTYLE
  1
TABLEFORMAT_BEGIN
 90
        5
170
     1
 91
        0
 92
        0
 62
   257
 93
        1
300
CONTENTFORMAT
  1
CONTENTFORMAT_BEGIN
 90
        0
 91
        0
 92
        4
 93
        0
300

 40
0.0
140
1.0
 94
        5
 62
     0
340
11
144
4.5
309
CONTENTFORMAT_END
171
     1
301
MARGIN
  1
CELLMARGIN_BEGIN
 40
1.5
 40
1.5
 40
1.5
 40
1.5
 40
1.5
 40
1.5
309
CELLMARGIN_END
 94
        6
 95
        1
302
GRIDFORMAT
  1
GRIDFORMAT_BEGIN
 90
        0
 91
        1
 62
     0
 92
       -2
340
14
 93
        0
 40
0.045
309
GRIDFORMAT_END
 95
        2
302
GRIDFORMAT
  1
GRIDFORMAT_BEGIN
 90
        0
 91
        1
 62
     0
 92
       -2
340
14
 93
        0
 40
0.045
309
GRIDFORMAT_END
 95
        4
302
GRIDFORMAT
  1
GRIDFORMAT_BEGIN
 90
        0
 91
        1
 62
     0
 92
       -2
340
14
 93
        0
 40
0.045
309
GRIDFORMAT_END
 95
        8
302
GRIDFORMAT
  1
GRIDFORMAT_BEGIN
 90
        0
 91
        1
 62
     0
 92
       -2
340
14
 93
        0
 40
0.045
309
GRIDFORMAT_END
 95
       16
302
GRIDFORMAT
  1
GRIDFORMAT_BEGIN
 90
        0
 91
        1
 62
     0
 92
       -2
340
14
 93
        0
 40
0.045
309
GRIDFORMAT_END
 95
       32
302
GRIDFORMAT
  1
GRIDFORMAT_BEGIN
 90
        0
 91
        1
 62
     0
 92
       -2
340
14
 93
        0
 40
0.045
309
GRIDFORMAT_END
309
TABLEFORMAT_END
  1
CELLSTYLE_BEGIN
 90
        2
 91
        1
300
_HEADER
309
CELLSTYLE_END
300
CELLSTYLE
  1
TABLEFORMAT_BEGIN
 90
        5
170
     1
 91
        0
 92
        0
 62
   257
 93
        1
300
CONTENTFORMAT
  1
CONTENTFORMAT_BEGIN
 90
        0
 91
        0
 92
        4
 93
        0
300

 40
0.0
140
1.0
 94
        2
 62
     0
340
11
144
4.5
309
CONTENTFORMAT_END
171
     1
301
MARGIN
  1
CELLMARGIN_BEGIN
 40
1.5
 40
1.5
 40
1.5
 40
1.5
 40
1.5
 40
1.5
309
CELLMARGIN_END
 94
        6
 95
        1
302
GRIDFORMAT
  1
GRIDFORMAT_BEGIN
 90
        0
 91
        1
 62
     0
 92
       -2
340
14
 93
        0
 40
0.045
309
GRIDFORMAT_END
 95
        2
302
GRIDFORMAT
  1
GRIDFORMAT_BEGIN
 90
        0
 91
        1
 62
     0
 92
       -2
340
14
 93
        0
 40
0.045
309
GRIDFORMAT_END
 95
        4
302
GRIDFORMAT
  1
GRIDFORMAT_BEGIN
 90
        0
 91
        1
 62
     0
 92
       -2
340
14
 93
        0
 40
0.045
309
GRIDFORMAT_END
 95
        8
302
GRIDFORMAT
  1
GRIDFORMAT_BEGIN
 90
        0
 91
        1
 62
     0
 92
       -2
340
14
 93
        0
 40
0.045
309
GRIDFORMAT_END
 95
       16
302
GRIDFORMAT
  1
GRIDFORMAT_BEGIN
 90
        0
 91
        1
 62
     0
 92
       -2
340
14
 93
        0
 40
0.045
309
GRIDFORMAT_END
 95
       32
302
GRIDFORMAT
  1
GRIDFORMAT_BEGIN
 90
        0
 91
        1
 62
     0
 92
       -2
340
14
 93
        0
 40
0.045
309
GRIDFORMAT_END
309
TABLEFORMAT_END
  1
CELLSTYLE_BEGIN
 90
        3
 91
        2
300
_DATA
309
CELLSTYLE_END
  0
XRECORD
  5
21E
102
{ACAD_REACTORS
330
21D
102
}
330
21D
100
AcDbXrecord
280
     1
102
RTVSPropertyOp0
 70
     1
102
RTVSPropertyOp1
 70
     1
102
RTVSPropertyOp2
 70
     1
102
RTVSPropertyOp3
 70
     1
102
RTVSPropertyOp4
 70
     1
102
RTVSPropertyOp5
 70
     1
102
RTVSPropertyOp6
 70
     1
102
RTVSPropertyOp7
 70
     1
102
RTVSPropertyOp8
 70
     1
102
RTVSPropertyOp9
 70
     1
102
RTVSPropertyOp10
 70
     1
102
RTVSPropertyOp11
 70
     1
102
RTVSPropertyOp12
 70
     1
102
RTVSPropertyOp13
 70
     1
102
RTVSPropertyOp14
 70
     1
102
RTVSPropertyOp15
 70
     1
102
RTVSPropertyOp16
 70
     1
102
RTVSPropertyOp17
 70
     1
102
RTVSPropertyOp18
 70
     1
102
RTVSPropertyOp19
 70
     1
102
RTVSPropertyOp20
 70
     1
102
RTVSPropertyOp21
 70
     1
102
RTVSPropertyOp22
 70
     1
102
RTVSPropertyOp23
 70
     1
102
RTVSPropertyOp24
 70
     1
102
RTVSPropertyOp25
 70
     1
102
RTVSPropertyOp26
 70
     1
102
RTVSPropertyOp27
 70
     1
102
RTVSPropertyOp28
 70
     1
102
RTVSPropertyOp29
 70
     1
102
RTVSPropertyOp30
 70
     1
102
RTVSPropertyOp31
 70
     1
102
RTVSPropertyOp32
 70
     1
102
RTVSPropertyOp33
 70
     1
102
RTVSPropertyOp34
 70
     1
102
RTVSPropertyOp35
 70
     1
102
RTVSPropertyOp36
 70
     1
102
RTVSPropertyOp37
 70
     1
102
RTVSPropertyOp38
 70
     1
102
RTVSPropertyOp39
 70
     1
102
RTVSPropertyOp40
 70
     1
102
RTVSPropertyOp41
 70
     1
102
RTVSPropertyOp42
 70
     1
102
RTVSPropertyOp43
 70
     1
102
RTVSPropertyOp44
 70
     1
102
RTVSPropertyOp45
 70
     1
102
RTVSPropertyOp46
 70
     1
102
RTVSPropertyOp47
 70
     1
102
RTVSPropertyOp48
 70
     1
102
RTVSPropertyOp49
 70
     1
102
RTVSPropertyOp50
 70
     1
102
RTVSPropertyOp51
 70
     0
102
RTVSPropertyOp52
 70
     0
102
RTVSPropertyOp53
 70
     1
102
RTVSPropertyOp54
 70
     1
102
RTVSPropertyOp55
 70
     1
102
RTVSPropertyOp56
 70
     1
102
RTVSPropertyOp57
 70
     1
102
RTVSPost2010Prop28
280
     1
102
RTVSPost2010PropOp28
 70
     1
102
RTVSPost2010Prop29
280
     1
102
RTVSPost2010PropOp29
 70
     1
102
RTVSPost2010Prop30
280
     0
102
RTVSPost2010PropOp30
 70
     1
102
RTVSPost2010Prop31
280
     0
102
RTVSPost2010PropOp31
 70
     1
102
RTVSPost2010Prop32
280
     0
102
RTVSPost2010PropOp32
 70
     1
102
RTVSPost2010Prop33
280
     0
102
RTVSPost2010PropOp33
 70
     1
102
RTVSPost2010Prop34
280
     0
102
RTVSPost2010PropOp34
 70
     1
102
RTVSPost2010Prop35
280
     0
102
RTVSPost2010PropOp35
 70
     1
102
RTVSPost2010Prop36
280
     0
102
RTVSPost2010PropOp36
 70
     1
102
RTVSPost2010Prop37
 90
       50
102
RTVSPost2010PropOp37
 70
     1
102
RTVSPost2010Prop38
140
0.0
102
RTVSPost2010PropOp38
 70
     1
102
RTVSPost2010Prop39
140
1.0
102
RTVSPost2010PropOp39
 70
     1
102
RTVSPost2010Prop40
 90
        0
102
RTVSPost2010PropOp40
 70
     1
102
RTVSPost2010Prop41ColorIndex
 90
       18
102
RTVSPost2010Prop41ColorRGB
 90
        0
102
RTVSPost2010PropOp41
 70
     1
102
RTVSPost2010Prop42
 90
       50
102
RTVSPost2010PropOp42
 70
     1
102
RTVSPost2010Prop43
 90
        3
102
RTVSPost2010PropOp43
 70
     1
102
RTVSPost2010Prop44ColorIndex
 90
        5
102
RTVSPost2010Prop44ColorRGB
 90
      255
102
RTVSPost2010PropOp44
 70
     1
102
RTVSPost2010Prop45
280
     0
102
RTVSPost2010PropOp45
 70
     1
102
RTVSPost2010Prop46
 90
       50
102
RTVSPost2010PropOp46
 70
     1
102
RTVSPost2010Prop47
 90
       50
102
RTVSPost2010PropOp47
 70
     1
102
RTVSPost2010Prop48
 90
       50
102
RTVSPost2010PropOp48
 70
     1
102
RTVSPost2010Prop49
280
     0
102
RTVSPost2010PropOp49
 70
     1
102
RTVSPost2010Prop50
 90
       50
102
RTVSPost2010PropOp50
 70
     1
102
RTVSPost2010Prop51ColorIndex
 90
      256
102
RTVSPost2010Prop51ColorRGB
 90
-16777216
102
RTVSPost2010PropOp51
 70
     0
102
RTVSPost2010Prop52
140
1.0
102
RTVSPost2010PropOp52
 70
     0
102
RTVSPost2010Prop53
 90
        2
102
RTVSPost2010PropOp53
 70
     1
102
RTVSPost2010Prop54
  1
strokes_ogs.tif
102
RTVSPost2010PropOp54
 70
     1
102
RTVSPost2010Prop55
280
     0
102
RTVSPost2010PropOp55
 70
     1
102
RTVSPost2010Prop56
140
1.0
102
RTVSPost2010PropOp56
 70
     1
102
RTVSPost2010Prop57
140
1.0
102
RTVSPost2010PropOp57
 70
     1
  0
XRECORD
  5
224
102
{ACAD_REACTORS
330
223
102
}
330
223
100
AcDbXrecord
280
     1
102
RTVSPropertyOp0
 70
     1
102
RTVSPropertyOp1
 70
     1
102
RTVSPropertyOp2
 70
     1
102
RTVSPropertyOp3
 70
     1
102
RTVSPropertyOp4
 70
     1
102
RTVSPropertyOp5
 70
     1
102
RTVSPropertyOp6
 70
     1
102
RTVSPropertyOp7
 70
     1
102
RTVSPropertyOp8
 70
     1
102
RTVSPropertyOp9
 70
     1
102
RTVSPropertyOp10
 70
     1
102
RTVSPropertyOp11
 70
     1
102
RTVSPropertyOp12
 70
     1
102
RTVSPropertyOp13
 70
     1
102
RTVSPropertyOp14
 70
     1
102
RTVSPropertyOp15
 70
     1
102
RTVSPropertyOp16
 70
     1
102
RTVSPropertyOp17
 70
     1
102
RTVSPropertyOp18
 70
     1
102
RTVSPropertyOp19
 70
     1
102
RTVSPropertyOp20
 70
     1
102
RTVSPropertyOp21
 70
     1
102
RTVSPropertyOp22
 70
     1
102
RTVSPropertyOp23
 70
     1
102
RTVSPropertyOp24
 70
     1
102
RTVSPropertyOp25
 70
     1
102
RTVSPropertyOp26
 70
     1
102
RTVSPropertyOp27
 70
     1
102
RTVSPropertyOp28
 70
     1
102
RTVSPropertyOp29
 70
     1
102
RTVSPropertyOp30
 70
     1
102
RTVSPropertyOp31
 70
     1
102
RTVSPropertyOp32
 70
     1
102
RTVSPropertyOp33
 70
     1
102
RTVSPropertyOp34
 70
     1
102
RTVSPropertyOp35
 70
     1
102
RTVSPropertyOp36
 70
     1
102
RTVSPropertyOp37
 70
     1
102
RTVSPropertyOp38
 70
     1
102
RTVSPropertyOp39
 70
     1
102
RTVSPropertyOp40
 70
     1
102
RTVSPropertyOp41
 70
     1
102
RTVSPropertyOp42
 70
     1
102
RTVSPropertyOp43
 70
     1
102
RTVSPropertyOp44
 70
     1
102
RTVSPropertyOp45
 70
     1
102
RTVSPropertyOp46
 70
     1
102
RTVSPropertyOp47
 70
     1
102
RTVSPropertyOp48
 70
     1
102
RTVSPropertyOp49
 70
     1
102
RTVSPropertyOp50
 70
     1
102
RTVSPropertyOp51
 70
     0
102
RTVSPropertyOp52
 70
     0
102
RTVSPropertyOp53
 70
     1
102
RTVSPropertyOp54
 70
     1
102
RTVSPropertyOp55
 70
     1
102
RTVSPropertyOp56
 70
     1
102
RTVSPropertyOp57
 70
     1
102
RTVSPost2010Prop28
280
     0
102
RTVSPost2010PropOp28
 70
     1
102
RTVSPost2010Prop29
280
     1
102
RTVSPost2010PropOp29
 70
     1
102
RTVSPost2010Prop30
280
     1
102
RTVSPost2010PropOp30
 70
     1
102
RTVSPost2010Prop31
280
     0
102
RTVSPost2010PropOp31
 70
     1
102
RTVSPost2010Prop32
280
     0
102
RTVSPost2010PropOp32
 70
     1
102
RTVSPost2010Prop33
280
     0
102
RTVSPost2010PropOp33
 70
     1
102
RTVSPost2010Prop34
280
     0
102
RTVSPost2010PropOp34
 70
     1
102
RTVSPost2010Prop35
280
     0
102
RTVSPost2010PropOp35
 70
     1
102
RTVSPost2010Prop36
280
     0
102
RTVSPost2010PropOp36
 70
     1
102
RTVSPost2010Prop37
 90
       50
102
RTVSPost2010PropOp37
 70
     1
102
RTVSPost2010Prop38
140
0.0
102
RTVSPost2010PropOp38
 70
     1
102
RTVSPost2010Prop39
140
1.0
102
RTVSPost2010PropOp39
 70
     1
102
RTVSPost2010Prop40
 90
        0
102
RTVSPost2010PropOp40
 70
     1
102
RTVSPost2010Prop41ColorIndex
 90
       18
102
RTVSPost2010Prop41ColorRGB
 90
        0
102
RTVSPost2010PropOp41
 70
     1
102
RTVSPost2010Prop42
 90
       50
102
RTVSPost2010PropOp42
 70
     1
102
RTVSPost2010Prop43
 90
        3
102
RTVSPost2010PropOp43
 70
     1
102
RTVSPost2010Prop44ColorIndex
 90
        5
102
RTVSPost2010Prop44ColorRGB
 90
      255
102
RTVSPost2010PropOp44
 70
     1
102
RTVSPost2010Prop45
280
     0
102
RTVSPost2010PropOp45
 70
     1
102
RTVSPost2010Prop46
 90
       50
102
RTVSPost2010PropOp46
 70
     1
102
RTVSPost2010Prop47
 90
       50
102
RTVSPost2010PropOp47
 70
     1
102
RTVSPost2010Prop48
 90
       50
102
RTVSPost2010PropOp48
 70
     1
102
RTVSPost2010Prop49
280
     0
102
RTVSPost2010PropOp49
 70
     1
102
RTVSPost2010Prop50
 90
       50
102
RTVSPost2010PropOp50
 70
     1
102
RTVSPost2010Prop51ColorIndex
 90
      256
102
RTVSPost2010Prop51ColorRGB
 90
-16777216
102
RTVSPost2010PropOp51
 70
     0
102
RTVSPost2010Prop52
140
1.0
102
RTVSPost2010PropOp52
 70
     0
102
RTVSPost2010Prop53
 90
        2
102
RTVSPost2010PropOp53
 70
     1
102
RTVSPost2010Prop54
  1
strokes_ogs.tif
102
RTVSPost2010PropOp54
 70
     1
102
RTVSPost2010Prop55
280
     0
102
RTVSPost2010PropOp55
 70
     1
102
RTVSPost2010Prop56
140
1.0
102
RTVSPost2010PropOp56
 70
     1
102
RTVSPost2010Prop57
140
1.0
102
RTVSPost2010PropOp57
 70
     1
  0
XRECORD
  5
22C
102
{ACAD_REACTORS
330
22B
102
}
330
22B
100
AcDbXrecord
280
     1
102
RTVSPropertyOp0
 70
     1
102
RTVSPropertyOp1
 70
     1
102
RTVSPropertyOp2
 70
     1
102
RTVSPropertyOp3
 70
     1
102
RTVSPropertyOp4
 70
     1
102
RTVSPropertyOp5
 70
     1
102
RTVSPropertyOp6
 70
     1
102
RTVSPropertyOp7
 70
     1
102
RTVSPropertyOp8
 70
     1
102
RTVSPropertyOp9
 70
     1
102
RTVSPropertyOp10
 70
     1
102
RTVSPropertyOp11
 70
     1
102
RTVSPropertyOp12
 70
     1
102
RTVSPropertyOp13
 70
     1
102
RTVSPropertyOp14
 70
     1
102
RTVSPropertyOp15
 70
     1
102
RTVSPropertyOp16
 70
     1
102
RTVSPropertyOp17
 70
     1
102
RTVSPropertyOp18
 70
     1
102
RTVSPropertyOp19
 70
     1
102
RTVSPropertyOp20
 70
     1
102
RTVSPropertyOp21
 70
     1
102
RTVSPropertyOp22
 70
     1
102
RTVSPropertyOp23
 70
     1
102
RTVSPropertyOp24
 70
     1
102
RTVSPropertyOp25
 70
     1
102
RTVSPropertyOp26
 70
     1
102
RTVSPropertyOp27
 70
     1
102
RTVSPropertyOp28
 70
     1
102
RTVSPropertyOp29
 70
     1
102
RTVSPropertyOp30
 70
     1
102
RTVSPropertyOp31
 70
     1
102
RTVSPropertyOp32
 70
     1
102
RTVSPropertyOp33
 70
     1
102
RTVSPropertyOp34
 70
     1
102
RTVSPropertyOp35
 70
     1
102
RTVSPropertyOp36
 70
     1
102
RTVSPropertyOp37
 70
     1
102
RTVSPropertyOp38
 70
     1
102
RTVSPropertyOp39
 70
     1
102
RTVSPropertyOp40
 70
     1
102
RTVSPropertyOp41
 70
     1
102
RTVSPropertyOp42
 70
     1
102
RTVSPropertyOp43
 70
     1
102
RTVSPropertyOp44
 70
     1
102
RTVSPropertyOp45
 70
     1
102
RTVSPropertyOp46
 70
     1
102
RTVSPropertyOp47
 70
     1
102
RTVSPropertyOp48
 70
     1
102
RTVSPropertyOp49
 70
     1
102
RTVSPropertyOp50
 70
     1
102
RTVSPropertyOp51
 70
     0
102
RTVSPropertyOp52
 70
     0
102
RTVSPropertyOp53
 70
     1
102
RTVSPropertyOp54
 70
     1
102
RTVSPropertyOp55
 70
     1
102
RTVSPropertyOp56
 70
     1
102
RTVSPropertyOp57
 70
     1
102
RTVSPost2010Prop28
280
     0
102
RTVSPost2010PropOp28
 70
     1
102
RTVSPost2010Prop29
280
     1
102
RTVSPost2010PropOp29
 70
     1
102
RTVSPost2010Prop30
280
     1
102
RTVSPost2010PropOp30
 70
     1
102
RTVSPost2010Prop31
280
     0
102
RTVSPost2010PropOp31
 70
     1
102
RTVSPost2010Prop32
280
     0
102
RTVSPost2010PropOp32
 70
     1
102
RTVSPost2010Prop33
280
     0
102
RTVSPost2010PropOp33
 70
     1
102
RTVSPost2010Prop34
280
     0
102
RTVSPost2010PropOp34
 70
     1
102
RTVSPost2010Prop35
280
     0
102
RTVSPost2010PropOp35
 70
     1
102
RTVSPost2010Prop36
280
     0
102
RTVSPost2010PropOp36
 70
     1
102
RTVSPost2010Prop37
 90
       50
102
RTVSPost2010PropOp37
 70
     1
102
RTVSPost2010Prop38
140
0.0
102
RTVSPost2010PropOp38
 70
     1
102
RTVSPost2010Prop39
140
1.0
102
RTVSPost2010PropOp39
 70
     1
102
RTVSPost2010Prop40
 90
        0
102
RTVSPost2010PropOp40
 70
     1
102
RTVSPost2010Prop41ColorIndex
 90
       18
102
RTVSPost2010Prop41ColorRGB
 90
        0
102
RTVSPost2010PropOp41
 70
     1
102
RTVSPost2010Prop42
 90
       50
102
RTVSPost2010PropOp42
 70
     1
102
RTVSPost2010Prop43
 90
        3
102
RTVSPost2010PropOp43
 70
     1
102
RTVSPost2010Prop44ColorIndex
 90
        5
102
RTVSPost2010Prop44ColorRGB
 90
      255
102
RTVSPost2010PropOp44
 70
     1
102
RTVSPost2010Prop45
280
     0
102
RTVSPost2010PropOp45
 70
     1
102
RTVSPost2010Prop46
 90
       50
102
RTVSPost2010PropOp46
 70
     1
102
RTVSPost2010Prop47
 90
       50
102
RTVSPost2010PropOp47
 70
     1
102
RTVSPost2010Prop48
 90
       50
102
RTVSPost2010PropOp48
 70
     1
102
RTVSPost2010Prop49
280
     0
102
RTVSPost2010PropOp49
 70
     1
102
RTVSPost2010Prop50
 90
       50
102
RTVSPost2010PropOp50
 70
     1
102
RTVSPost2010Prop51ColorIndex
 90
      256
102
RTVSPost2010Prop51ColorRGB
 90
-16777216
102
RTVSPost2010PropOp51
 70
     0
102
RTVSPost2010Prop52
140
1.0
102
RTVSPost2010PropOp52
 70
     0
102
RTVSPost2010Prop53
 90
        2
102
RTVSPost2010PropOp53
 70
     1
102
RTVSPost2010Prop54
  1
strokes_ogs.tif
102
RTVSPost2010PropOp54
 70
     1
102
RTVSPost2010Prop55
280
     0
102
RTVSPost2010PropOp55
 70
     1
102
RTVSPost2010Prop56
140
1.0
102
RTVSPost2010PropOp56
 70
     1
102
RTVSPost2010Prop57
140
1.0
102
RTVSPost2010PropOp57
 70
     1
  0
XRECORD
  5
234
102
{ACAD_REACTORS
330
233
102
}
330
233
100
AcDbXrecord
280
     1
102
RTVSPropertyOp0
 70
     1
102
RTVSPropertyOp1
 70
     1
102
RTVSPropertyOp2
 70
     1
102
RTVSPropertyOp3
 70
     1
102
RTVSPropertyOp4
 70
     1
102
RTVSPropertyOp5
 70
     1
102
RTVSPropertyOp6
 70
     1
102
RTVSPropertyOp7
 70
     1
102
RTVSPropertyOp8
 70
     1
102
RTVSPropertyOp9
 70
     1
102
RTVSPropertyOp10
 70
     1
102
RTVSPropertyOp11
 70
     1
102
RTVSPropertyOp12
 70
     1
102
RTVSPropertyOp13
 70
     1
102
RTVSPropertyOp14
 70
     1
102
RTVSPropertyOp15
 70
     1
102
RTVSPropertyOp16
 70
     1
102
RTVSPropertyOp17
 70
     1
102
RTVSPropertyOp18
 70
     1
102
RTVSPropertyOp19
 70
     1
102
RTVSPropertyOp20
 70
     1
102
RTVSPropertyOp21
 70
     1
102
RTVSPropertyOp22
 70
     1
102
RTVSPropertyOp23
 70
     1
102
RTVSPropertyOp24
 70
     1
102
RTVSPropertyOp25
 70
     1
102
RTVSPropertyOp26
 70
     1
102
RTVSPropertyOp27
 70
     1
102
RTVSPropertyOp28
 70
     1
102
RTVSPropertyOp29
 70
     1
102
RTVSPropertyOp30
 70
     1
102
RTVSPropertyOp31
 70
     1
102
RTVSPropertyOp32
 70
     1
102
RTVSPropertyOp33
 70
     1
102
RTVSPropertyOp34
 70
     1
102
RTVSPropertyOp35
 70
     1
102
RTVSPropertyOp36
 70
     1
102
RTVSPropertyOp37
 70
     1
102
RTVSPropertyOp38
 70
     1
102
RTVSPropertyOp39
 70
     1
102
RTVSPropertyOp40
 70
     1
102
RTVSPropertyOp41
 70
     1
102
RTVSPropertyOp42
 70
     1
102
RTVSPropertyOp43
 70
     1
102
RTVSPropertyOp44
 70
     1
102
RTVSPropertyOp45
 70
     1
102
RTVSPropertyOp46
 70
     1
102
RTVSPropertyOp47
 70
     1
102
RTVSPropertyOp48
 70
     1
102
RTVSPropertyOp49
 70
     1
102
RTVSPropertyOp50
 70
     1
102
RTVSPropertyOp51
 70
     0
102
RTVSPropertyOp52
 70
     0
102
RTVSPropertyOp53
 70
     1
102
RTVSPropertyOp54
 70
     1
102
RTVSPropertyOp55
 70
     1
102
RTVSPropertyOp56
 70
     1
102
RTVSPropertyOp57
 70
     1
102
RTVSPost2010Prop28
280
     0
102
RTVSPost2010PropOp28
 70
     1
102
RTVSPost2010Prop29
280
     1
102
RTVSPost2010PropOp29
 70
     1
102
RTVSPost2010Prop30
280
     1
102
RTVSPost2010PropOp30
 70
     1
102
RTVSPost2010Prop31
280
     0
102
RTVSPost2010PropOp31
 70
     1
102
RTVSPost2010Prop32
280
     0
102
RTVSPost2010PropOp32
 70
     1
102
RTVSPost2010Prop33
280
     0
102
RTVSPost2010PropOp33
 70
     1
102
RTVSPost2010Prop34
280
     0
102
RTVSPost2010PropOp34
 70
     1
102
RTVSPost2010Prop35
280
     0
102
RTVSPost2010PropOp35
 70
     1
102
RTVSPost2010Prop36
280
     0
102
RTVSPost2010PropOp36
 70
     1
102
RTVSPost2010Prop37
 90
       50
102
RTVSPost2010PropOp37
 70
     1
102
RTVSPost2010Prop38
140
0.0
102
RTVSPost2010PropOp38
 70
     1
102
RTVSPost2010Prop39
140
1.0
102
RTVSPost2010PropOp39
 70
     1
102
RTVSPost2010Prop40
 90
        0
102
RTVSPost2010PropOp40
 70
     1
102
RTVSPost2010Prop41ColorIndex
 90
       18
102
RTVSPost2010Prop41ColorRGB
 90
        0
102
RTVSPost2010PropOp41
 70
     1
102
RTVSPost2010Prop42
 90
       50
102
RTVSPost2010PropOp42
 70
     1
102
RTVSPost2010Prop43
 90
        3
102
RTVSPost2010PropOp43
 70
     1
102
RTVSPost2010Prop44ColorIndex
 90
        5
102
RTVSPost2010Prop44ColorRGB
 90
      255
102
RTVSPost2010PropOp44
 70
     1
102
RTVSPost2010Prop45
280
     0
102
RTVSPost2010PropOp45
 70
     1
102
RTVSPost2010Prop46
 90
       50
102
RTVSPost2010PropOp46
 70
     1
102
RTVSPost2010Prop47
 90
       50
102
RTVSPost2010PropOp47
 70
     1
102
RTVSPost2010Prop48
 90
       50
102
RTVSPost2010PropOp48
 70
     1
102
RTVSPost2010Prop49
280
     0
102
RTVSPost2010PropOp49
 70
     1
102
RTVSPost2010Prop50
 90
       50
102
RTVSPost2010PropOp50
 70
     1
102
RTVSPost2010Prop51ColorIndex
 90
      256
102
RTVSPost2010Prop51ColorRGB
 90
-16777216
102
RTVSPost2010PropOp51
 70
     0
102
RTVSPost2010Prop52
140
1.0
102
RTVSPost2010PropOp52
 70
     0
102
RTVSPost2010Prop53
 90
        2
102
RTVSPost2010PropOp53
 70
     1
102
RTVSPost2010Prop54
  1
strokes_ogs.tif
102
RTVSPost2010PropOp54
 70
     1
102
RTVSPost2010Prop55
280
     0
102
RTVSPost2010PropOp55
 70
     1
102
RTVSPost2010Prop56
140
1.0
102
RTVSPost2010PropOp56
 70
     1
102
RTVSPost2010Prop57
140
1.0
102
RTVSPost2010PropOp57
 70
     1
  0
XRECORD
  5
228
102
{ACAD_REACTORS
330
227
102
}
330
227
100
AcDbXrecord
280
     1
102
RTVSPropertyOp0
 70
     1
102
RTVSPropertyOp1
 70
     1
102
RTVSPropertyOp2
 70
     1
102
RTVSPropertyOp3
 70
     1
102
RTVSPropertyOp4
 70
     1
102
RTVSPropertyOp5
 70
     1
102
RTVSPropertyOp6
 70
     1
102
RTVSPropertyOp7
 70
     1
102
RTVSPropertyOp8
 70
     1
102
RTVSPropertyOp9
 70
     1
102
RTVSPropertyOp10
 70
     1
102
RTVSPropertyOp11
 70
     1
102
RTVSPropertyOp12
 70
     1
102
RTVSPropertyOp13
 70
     1
102
RTVSPropertyOp14
 70
     1
102
RTVSPropertyOp15
 70
     1
102
RTVSPropertyOp16
 70
     1
102
RTVSPropertyOp17
 70
     1
102
RTVSPropertyOp18
 70
     1
102
RTVSPropertyOp19
 70
     1
102
RTVSPropertyOp20
 70
     1
102
RTVSPropertyOp21
 70
     1
102
RTVSPropertyOp22
 70
     1
102
RTVSPropertyOp23
 70
     1
102
RTVSPropertyOp24
 70
     1
102
RTVSPropertyOp25
 70
     1
102
RTVSPropertyOp26
 70
     1
102
RTVSPropertyOp27
 70
     1
102
RTVSPropertyOp28
 70
     1
102
RTVSPropertyOp29
 70
     1
102
RTVSPropertyOp30
 70
     1
102
RTVSPropertyOp31
 70
     1
102
RTVSPropertyOp32
 70
     1
102
RTVSPropertyOp33
 70
     1
102
RTVSPropertyOp34
 70
     1
102
RTVSPropertyOp35
 70
     1
102
RTVSPropertyOp36
 70
     1
102
RTVSPropertyOp37
 70
     1
102
RTVSPropertyOp38
 70
     1
102
RTVSPropertyOp39
 70
     1
102
RTVSPropertyOp40
 70
     1
102
RTVSPropertyOp41
 70
     1
102
RTVSPropertyOp42
 70
     1
102
RTVSPropertyOp43
 70
     1
102
RTVSPropertyOp44
 70
     1
102
RTVSPropertyOp45
 70
     1
102
RTVSPropertyOp46
 70
     1
102
RTVSPropertyOp47
 70
     1
102
RTVSPropertyOp48
 70
     1
102
RTVSPropertyOp49
 70
     1
102
RTVSPropertyOp50
 70
     1
102
RTVSPropertyOp51
 70
     0
102
RTVSPropertyOp52
 70
     0
102
RTVSPropertyOp53
 70
     1
102
RTVSPropertyOp54
 70
     1
102
RTVSPropertyOp55
 70
     1
102
RTVSPropertyOp56
 70
     1
102
RTVSPropertyOp57
 70
     1
102
RTVSPost2010Prop28
280
     0
102
RTVSPost2010PropOp28
 70
     1
102
RTVSPost2010Prop29
280
     1
102
RTVSPost2010PropOp29
 70
     1
102
RTVSPost2010Prop30
280
     1
102
RTVSPost2010PropOp30
 70
     1
102
RTVSPost2010Prop31
280
     0
102
RTVSPost2010PropOp31
 70
     1
102
RTVSPost2010Prop32
280
     0
102
RTVSPost2010PropOp32
 70
     1
102
RTVSPost2010Prop33
280
     0
102
RTVSPost2010PropOp33
 70
     1
102
RTVSPost2010Prop34
280
     0
102
RTVSPost2010PropOp34
 70
     1
102
RTVSPost2010Prop35
280
     0
102
RTVSPost2010PropOp35
 70
     1
102
RTVSPost2010Prop36
280
     0
102
RTVSPost2010PropOp36
 70
     1
102
RTVSPost2010Prop37
 90
       50
102
RTVSPost2010PropOp37
 70
     1
102
RTVSPost2010Prop38
140
0.0
102
RTVSPost2010PropOp38
 70
     1
102
RTVSPost2010Prop39
140
1.0
102
RTVSPost2010PropOp39
 70
     1
102
RTVSPost2010Prop40
 90
        0
102
RTVSPost2010PropOp40
 70
     1
102
RTVSPost2010Prop41ColorIndex
 90
       18
102
RTVSPost2010Prop41ColorRGB
 90
        0
102
RTVSPost2010PropOp41
 70
     1
102
RTVSPost2010Prop42
 90
       50
102
RTVSPost2010PropOp42
 70
     1
102
RTVSPost2010Prop43
 90
        3
102
RTVSPost2010PropOp43
 70
     1
102
RTVSPost2010Prop44ColorIndex
 90
        5
102
RTVSPost2010Prop44ColorRGB
 90
      255
102
RTVSPost2010PropOp44
 70
     1
102
RTVSPost2010Prop45
280
     0
102
RTVSPost2010PropOp45
 70
     1
102
RTVSPost2010Prop46
 90
       50
102
RTVSPost2010PropOp46
 70
     1
102
RTVSPost2010Prop47
 90
       50
102
RTVSPost2010PropOp47
 70
     1
102
RTVSPost2010Prop48
 90
       50
102
RTVSPost2010PropOp48
 70
     1
102
RTVSPost2010Prop49
280
     0
102
RTVSPost2010PropOp49
 70
     1
102
RTVSPost2010Prop50
 90
       50
102
RTVSPost2010PropOp50
 70
     1
102
RTVSPost2010Prop51ColorIndex
 90
      256
102
RTVSPost2010Prop51ColorRGB
 90
-16777216
102
RTVSPost2010PropOp51
 70
     0
102
RTVSPost2010Prop52
140
1.0
102
RTVSPost2010PropOp52
 70
     0
102
RTVSPost2010Prop53
 90
        2
102
RTVSPost2010PropOp53
 70
     1
102
RTVSPost2010Prop54
  1
strokes_ogs.tif
102
RTVSPost2010PropOp54
 70
     1
102
RTVSPost2010Prop55
280
     0
102
RTVSPost2010PropOp55
 70
     1
102
RTVSPost2010Prop56
140
1.0
102
RTVSPost2010PropOp56
 70
     1
102
RTVSPost2010Prop57
140
1.0
102
RTVSPost2010PropOp57
 70
     1
  0
XRECORD
  5
22A
102
{ACAD_REACTORS
330
229
102
}
330
229
100
AcDbXrecord
280
     1
102
RTVSPropertyOp0
 70
     1
102
RTVSPropertyOp1
 70
     1
102
RTVSPropertyOp2
 70
     1
102
RTVSPropertyOp3
 70
     1
102
RTVSPropertyOp4
 70
     1
102
RTVSPropertyOp5
 70
     1
102
RTVSPropertyOp6
 70
     1
102
RTVSPropertyOp7
 70
     1
102
RTVSPropertyOp8
 70
     1
102
RTVSPropertyOp9
 70
     1
102
RTVSPropertyOp10
 70
     1
102
RTVSPropertyOp11
 70
     1
102
RTVSPropertyOp12
 70
     1
102
RTVSPropertyOp13
 70
     1
102
RTVSPropertyOp14
 70
     1
102
RTVSPropertyOp15
 70
     1
102
RTVSPropertyOp16
 70
     1
102
RTVSPropertyOp17
 70
     1
102
RTVSPropertyOp18
 70
     1
102
RTVSPropertyOp19
 70
     1
102
RTVSPropertyOp20
 70
     1
102
RTVSPropertyOp21
 70
     1
102
RTVSPropertyOp22
 70
     1
102
RTVSPropertyOp23
 70
     1
102
RTVSPropertyOp24
 70
     1
102
RTVSPropertyOp25
 70
     1
102
RTVSPropertyOp26
 70
     1
102
RTVSPropertyOp27
 70
     1
102
RTVSPropertyOp28
 70
     1
102
RTVSPropertyOp29
 70
     1
102
RTVSPropertyOp30
 70
     1
102
RTVSPropertyOp31
 70
     1
102
RTVSPropertyOp32
 70
     1
102
RTVSPropertyOp33
 70
     1
102
RTVSPropertyOp34
 70
     1
102
RTVSPropertyOp35
 70
     1
102
RTVSPropertyOp36
 70
     1
102
RTVSPropertyOp37
 70
     1
102
RTVSPropertyOp38
 70
     1
102
RTVSPropertyOp39
 70
     1
102
RTVSPropertyOp40
 70
     1
102
RTVSPropertyOp41
 70
     1
102
RTVSPropertyOp42
 70
     1
102
RTVSPropertyOp43
 70
     1
102
RTVSPropertyOp44
 70
     1
102
RTVSPropertyOp45
 70
     1
102
RTVSPropertyOp46
 70
     1
102
RTVSPropertyOp47
 70
     1
102
RTVSPropertyOp48
 70
     1
102
RTVSPropertyOp49
 70
     1
102
RTVSPropertyOp50
 70
     1
102
RTVSPropertyOp51
 70
     0
102
RTVSPropertyOp52
 70
     0
102
RTVSPropertyOp53
 70
     1
102
RTVSPropertyOp54
 70
     1
102
RTVSPropertyOp55
 70
     1
102
RTVSPropertyOp56
 70
     1
102
RTVSPropertyOp57
 70
     1
102
RTVSPost2010Prop28
280
     0
102
RTVSPost2010PropOp28
 70
     1
102
RTVSPost2010Prop29
280
     1
102
RTVSPost2010PropOp29
 70
     1
102
RTVSPost2010Prop30
280
     1
102
RTVSPost2010PropOp30
 70
     1
102
RTVSPost2010Prop31
280
     0
102
RTVSPost2010PropOp31
 70
     1
102
RTVSPost2010Prop32
280
     0
102
RTVSPost2010PropOp32
 70
     1
102
RTVSPost2010Prop33
280
     0
102
RTVSPost2010PropOp33
 70
     1
102
RTVSPost2010Prop34
280
     0
102
RTVSPost2010PropOp34
 70
     1
102
RTVSPost2010Prop35
280
     0
102
RTVSPost2010PropOp35
 70
     1
102
RTVSPost2010Prop36
280
     0
102
RTVSPost2010PropOp36
 70
     1
102
RTVSPost2010Prop37
 90
       50
102
RTVSPost2010PropOp37
 70
     1
102
RTVSPost2010Prop38
140
0.0
102
RTVSPost2010PropOp38
 70
     1
102
RTVSPost2010Prop39
140
1.0
102
RTVSPost2010PropOp39
 70
     1
102
RTVSPost2010Prop40
 90
        0
102
RTVSPost2010PropOp40
 70
     1
102
RTVSPost2010Prop41ColorIndex
 90
       18
102
RTVSPost2010Prop41ColorRGB
 90
        0
102
RTVSPost2010PropOp41
 70
     1
102
RTVSPost2010Prop42
 90
       50
102
RTVSPost2010PropOp42
 70
     1
102
RTVSPost2010Prop43
 90
        3
102
RTVSPost2010PropOp43
 70
     1
102
RTVSPost2010Prop44ColorIndex
 90
        5
102
RTVSPost2010Prop44ColorRGB
 90
      255
102
RTVSPost2010PropOp44
 70
     1
102
RTVSPost2010Prop45
280
     0
102
RTVSPost2010PropOp45
 70
     1
102
RTVSPost2010Prop46
 90
       50
102
RTVSPost2010PropOp46
 70
     1
102
RTVSPost2010Prop47
 90
       50
102
RTVSPost2010PropOp47
 70
     1
102
RTVSPost2010Prop48
 90
       50
102
RTVSPost2010PropOp48
 70
     1
102
RTVSPost2010Prop49
280
     0
102
RTVSPost2010PropOp49
 70
     1
102
RTVSPost2010Prop50
 90
       50
102
RTVSPost2010PropOp50
 70
     1
102
RTVSPost2010Prop51ColorIndex
 90
      256
102
RTVSPost2010Prop51ColorRGB
 90
-16777216
102
RTVSPost2010PropOp51
 70
     0
102
RTVSPost2010Prop52
140
1.0
102
RTVSPost2010PropOp52
 70
     0
102
RTVSPost2010Prop53
 90
        2
102
RTVSPost2010PropOp53
 70
     1
102
RTVSPost2010Prop54
  1
strokes_ogs.tif
102
RTVSPost2010PropOp54
 70
     1
102
RTVSPost2010Prop55
280
     0
102
RTVSPost2010PropOp55
 70
     1
102
RTVSPost2010Prop56
140
1.0
102
RTVSPost2010PropOp56
 70
     1
102
RTVSPost2010Prop57
140
1.0
102
RTVSPost2010PropOp57
 70
     1
  0
XRECORD
  5
23A
102
{ACAD_REACTORS
330
239
102
}
330
239
100
AcDbXrecord
280
     1
102
RTVSPropertyOp0
 70
     0
102
RTVSPropertyOp1
 70
     0
102
RTVSPropertyOp2
 70
     0
102
RTVSPropertyOp3
 70
     0
102
RTVSPropertyOp4
 70
     0
102
RTVSPropertyOp5
 70
     0
102
RTVSPropertyOp6
 70
     0
102
RTVSPropertyOp7
 70
     0
102
RTVSPropertyOp8
 70
     0
102
RTVSPropertyOp9
 70
     0
102
RTVSPropertyOp10
 70
     0
102
RTVSPropertyOp11
 70
     0
102
RTVSPropertyOp12
 70
     0
102
RTVSPropertyOp13
 70
     0
102
RTVSPropertyOp14
 70
     2
102
RTVSPropertyOp15
 70
     0
102
RTVSPropertyOp16
 70
     0
102
RTVSPropertyOp17
 70
     0
102
RTVSPropertyOp18
 70
     0
102
RTVSPropertyOp19
 70
     0
102
RTVSPropertyOp20
 70
     0
102
RTVSPropertyOp21
 70
     0
102
RTVSPropertyOp22
 70
     0
102
RTVSPropertyOp23
 70
     0
102
RTVSPropertyOp24
 70
     0
102
RTVSPropertyOp25
 70
     0
102
RTVSPropertyOp26
 70
     0
102
RTVSPropertyOp27
 70
     0
102
RTVSPropertyOp28
 70
     0
102
RTVSPropertyOp29
 70
     0
102
RTVSPropertyOp30
 70
     0
102
RTVSPropertyOp31
 70
     0
102
RTVSPropertyOp32
 70
     0
102
RTVSPropertyOp33
 70
     0
102
RTVSPropertyOp34
 70
     0
102
RTVSPropertyOp35
 70
     0
102
RTVSPropertyOp36
 70
     0
102
RTVSPropertyOp37
 70
     0
102
RTVSPropertyOp38
 70
     0
102
RTVSPropertyOp39
 70
     0
102
RTVSPropertyOp40
 70
     0
102
RTVSPropertyOp41
 70
     0
102
RTVSPropertyOp42
 70
     0
102
RTVSPropertyOp43
 70
     0
102
RTVSPropertyOp44
 70
     0
102
RTVSPropertyOp45
 70
     0
102
RTVSPropertyOp46
 70
     0
102
RTVSPropertyOp47
 70
     0
102
RTVSPropertyOp48
 70
     0
102
RTVSPropertyOp49
 70
     0
102
RTVSPropertyOp50
 70
     0
102
RTVSPropertyOp51
 70
     0
102
RTVSPropertyOp52
 70
     0
102
RTVSPropertyOp53
 70
     0
102
RTVSPropertyOp54
 70
     0
102
RTVSPropertyOp55
 70
     0
102
RTVSPropertyOp56
 70
     0
102
RTVSPropertyOp57
 70
     0
102
RTVSPost2010Prop28
280
     0
102
RTVSPost2010PropOp28
 70
     0
102
RTVSPost2010Prop29
280
     1
102
RTVSPost2010PropOp29
 70
     0
102
RTVSPost2010Prop30
280
     1
102
RTVSPost2010PropOp30
 70
     0
102
RTVSPost2010Prop31
280
     0
102
RTVSPost2010PropOp31
 70
     0
102
RTVSPost2010Prop32
280
     0
102
RTVSPost2010PropOp32
 70
     0
102
RTVSPost2010Prop33
280
     0
102
RTVSPost2010PropOp33
 70
     0
102
RTVSPost2010Prop34
280
     0
102
RTVSPost2010PropOp34
 70
     0
102
RTVSPost2010Prop35
280
     0
102
RTVSPost2010PropOp35
 70
     0
102
RTVSPost2010Prop36
280
     0
102
RTVSPost2010PropOp36
 70
     0
102
RTVSPost2010Prop37
 90
       50
102
RTVSPost2010PropOp37
 70
     0
102
RTVSPost2010Prop38
140
0.0
102
RTVSPost2010PropOp38
 70
     0
102
RTVSPost2010Prop39
140
1.0
102
RTVSPost2010PropOp39
 70
     0
102
RTVSPost2010Prop40
 90
        0
102
RTVSPost2010PropOp40
 70
     0
102
RTVSPost2010Prop41ColorIndex
 90
       18
102
RTVSPost2010Prop41ColorRGB
 90
        0
102
RTVSPost2010PropOp41
 70
     0
102
RTVSPost2010Prop42
 90
       50
102
RTVSPost2010PropOp42
 70
     0
102
RTVSPost2010Prop43
 90
        3
102
RTVSPost2010PropOp43
 70
     0
102
RTVSPost2010Prop44ColorIndex
 90
        5
102
RTVSPost2010Prop44ColorRGB
 90
      255
102
RTVSPost2010PropOp44
 70
     0
102
RTVSPost2010Prop45
280
     0
102
RTVSPost2010PropOp45
 70
     0
102
RTVSPost2010Prop46
 90
       50
102
RTVSPost2010PropOp46
 70
     0
102
RTVSPost2010Prop47
 90
       50
102
RTVSPost2010PropOp47
 70
     0
102
RTVSPost2010Prop48
 90
       50
102
RTVSPost2010PropOp48
 70
     0
102
RTVSPost2010Prop49
280
     0
102
RTVSPost2010PropOp49
 70
     0
102
RTVSPost2010Prop50
 90
       50
102
RTVSPost2010PropOp50
 70
     0
102
RTVSPost2010Prop51ColorIndex
 90
      256
102
RTVSPost2010Prop51ColorRGB
 90
-16777216
102
RTVSPost2010PropOp51
 70
     0
102
RTVSPost2010Prop52
140
1.0
102
RTVSPost2010PropOp52
 70
     0
102
RTVSPost2010Prop53
 90
        2
102
RTVSPost2010PropOp53
 70
     0
102
RTVSPost2010Prop54
  1
strokes_ogs.tif
102
RTVSPost2010PropOp54
 70
     0
102
RTVSPost2010Prop55
280
     0
102
RTVSPost2010PropOp55
 70
     0
102
RTVSPost2010Prop56
140
1.0
102
RTVSPost2010PropOp56
 70
     0
102
RTVSPost2010Prop57
140
1.0
102
RTVSPost2010PropOp57
 70
     0
  0
XRECORD
  5
232
102
{ACAD_REACTORS
330
231
102
}
330
231
100
AcDbXrecord
280
     1
102
RTVSPropertyOp0
 70
     1
102
RTVSPropertyOp1
 70
     1
102
RTVSPropertyOp2
 70
     1
102
RTVSPropertyOp3
 70
     1
102
RTVSPropertyOp4
 70
     1
102
RTVSPropertyOp5
 70
     1
102
RTVSPropertyOp6
 70
     1
102
RTVSPropertyOp7
 70
     1
102
RTVSPropertyOp8
 70
     1
102
RTVSPropertyOp9
 70
     1
102
RTVSPropertyOp10
 70
     1
102
RTVSPropertyOp11
 70
     1
102
RTVSPropertyOp12
 70
     1
102
RTVSPropertyOp13
 70
     1
102
RTVSPropertyOp14
 70
     1
102
RTVSPropertyOp15
 70
     1
102
RTVSPropertyOp16
 70
     1
102
RTVSPropertyOp17
 70
     1
102
RTVSPropertyOp18
 70
     1
102
RTVSPropertyOp19
 70
     1
102
RTVSPropertyOp20
 70
     1
102
RTVSPropertyOp21
 70
     1
102
RTVSPropertyOp22
 70
     1
102
RTVSPropertyOp23
 70
     1
102
RTVSPropertyOp24
 70
     1
102
RTVSPropertyOp25
 70
     1
102
RTVSPropertyOp26
 70
     1
102
RTVSPropertyOp27
 70
     1
102
RTVSPropertyOp28
 70
     1
102
RTVSPropertyOp29
 70
     1
102
RTVSPropertyOp30
 70
     1
102
RTVSPropertyOp31
 70
     1
102
RTVSPropertyOp32
 70
     1
102
RTVSPropertyOp33
 70
     1
102
RTVSPropertyOp34
 70
     1
102
RTVSPropertyOp35
 70
     1
102
RTVSPropertyOp36
 70
     1
102
RTVSPropertyOp37
 70
     1
102
RTVSPropertyOp38
 70
     1
102
RTVSPropertyOp39
 70
     1
102
RTVSPropertyOp40
 70
     1
102
RTVSPropertyOp41
 70
     1
102
RTVSPropertyOp42
 70
     1
102
RTVSPropertyOp43
 70
     1
102
RTVSPropertyOp44
 70
     1
102
RTVSPropertyOp45
 70
     1
102
RTVSPropertyOp46
 70
     1
102
RTVSPropertyOp47
 70
     1
102
RTVSPropertyOp48
 70
     1
102
RTVSPropertyOp49
 70
     1
102
RTVSPropertyOp50
 70
     1
102
RTVSPropertyOp51
 70
     0
102
RTVSPropertyOp52
 70
     0
102
RTVSPropertyOp53
 70
     1
102
RTVSPropertyOp54
 70
     1
102
RTVSPropertyOp55
 70
     1
102
RTVSPropertyOp56
 70
     1
102
RTVSPropertyOp57
 70
     1
102
RTVSPost2010Prop28
280
     0
102
RTVSPost2010PropOp28
 70
     1
102
RTVSPost2010Prop29
280
     1
102
RTVSPost2010PropOp29
 70
     1
102
RTVSPost2010Prop30
280
     1
102
RTVSPost2010PropOp30
 70
     1
102
RTVSPost2010Prop31
280
     0
102
RTVSPost2010PropOp31
 70
     1
102
RTVSPost2010Prop32
280
     0
102
RTVSPost2010PropOp32
 70
     1
102
RTVSPost2010Prop33
280
     0
102
RTVSPost2010PropOp33
 70
     1
102
RTVSPost2010Prop34
280
     0
102
RTVSPost2010PropOp34
 70
     1
102
RTVSPost2010Prop35
280
     0
102
RTVSPost2010PropOp35
 70
     1
102
RTVSPost2010Prop36
280
     0
102
RTVSPost2010PropOp36
 70
     1
102
RTVSPost2010Prop37
 90
       50
102
RTVSPost2010PropOp37
 70
     1
102
RTVSPost2010Prop38
140
0.0
102
RTVSPost2010PropOp38
 70
     1
102
RTVSPost2010Prop39
140
1.0
102
RTVSPost2010PropOp39
 70
     1
102
RTVSPost2010Prop40
 90
        0
102
RTVSPost2010PropOp40
 70
     1
102
RTVSPost2010Prop41ColorIndex
 90
       18
102
RTVSPost2010Prop41ColorRGB
 90
        0
102
RTVSPost2010PropOp41
 70
     1
102
RTVSPost2010Prop42
 90
       50
102
RTVSPost2010PropOp42
 70
     1
102
RTVSPost2010Prop43
 90
        3
102
RTVSPost2010PropOp43
 70
     1
102
RTVSPost2010Prop44ColorIndex
 90
        5
102
RTVSPost2010Prop44ColorRGB
 90
      255
102
RTVSPost2010PropOp44
 70
     1
102
RTVSPost2010Prop45
280
     0
102
RTVSPost2010PropOp45
 70
     1
102
RTVSPost2010Prop46
 90
       50
102
RTVSPost2010PropOp46
 70
     1
102
RTVSPost2010Prop47
 90
       50
102
RTVSPost2010PropOp47
 70
     1
102
RTVSPost2010Prop48
 90
       50
102
RTVSPost2010PropOp48
 70
     1
102
RTVSPost2010Prop49
280
     0
102
RTVSPost2010PropOp49
 70
     1
102
RTVSPost2010Prop50
 90
       50
102
RTVSPost2010PropOp50
 70
     1
102
RTVSPost2010Prop51ColorIndex
 90
      256
102
RTVSPost2010Prop51ColorRGB
 90
-16777216
102
RTVSPost2010PropOp51
 70
     0
102
RTVSPost2010Prop52
140
1.0
102
RTVSPost2010PropOp52
 70
     0
102
RTVSPost2010Prop53
 90
        2
102
RTVSPost2010PropOp53
 70
     1
102
RTVSPost2010Prop54
  1
strokes_ogs.tif
102
RTVSPost2010PropOp54
 70
     1
102
RTVSPost2010Prop55
280
     0
102
RTVSPost2010PropOp55
 70
     1
102
RTVSPost2010Prop56
140
1.0
102
RTVSPost2010PropOp56
 70
     1
102
RTVSPost2010Prop57
140
1.0
102
RTVSPost2010PropOp57
 70
     1
  0
XRECORD
  5
216
102
{ACAD_REACTORS
330
215
102
}
330
215
100
AcDbXrecord
280
     1
102
RTVSPropertyOp0
 70
     1
102
RTVSPropertyOp1
 70
     1
102
RTVSPropertyOp2
 70
     1
102
RTVSPropertyOp3
 70
     1
102
RTVSPropertyOp4
 70
     1
102
RTVSPropertyOp5
 70
     1
102
RTVSPropertyOp6
 70
     1
102
RTVSPropertyOp7
 70
     1
102
RTVSPropertyOp8
 70
     1
102
RTVSPropertyOp9
 70
     1
102
RTVSPropertyOp10
 70
     1
102
RTVSPropertyOp11
 70
     1
102
RTVSPropertyOp12
 70
     1
102
RTVSPropertyOp13
 70
     1
102
RTVSPropertyOp14
 70
     1
102
RTVSPropertyOp15
 70
     1
102
RTVSPropertyOp16
 70
     1
102
RTVSPropertyOp17
 70
     1
102
RTVSPropertyOp18
 70
     1
102
RTVSPropertyOp19
 70
     1
102
RTVSPropertyOp20
 70
     1
102
RTVSPropertyOp21
 70
     1
102
RTVSPropertyOp22
 70
     1
102
RTVSPropertyOp23
 70
     1
102
RTVSPropertyOp24
 70
     1
102
RTVSPropertyOp25
 70
     1
102
RTVSPropertyOp26
 70
     1
102
RTVSPropertyOp27
 70
     1
102
RTVSPropertyOp28
 70
     1
102
RTVSPropertyOp29
 70
     1
102
RTVSPropertyOp30
 70
     1
102
RTVSPropertyOp31
 70
     1
102
RTVSPropertyOp32
 70
     1
102
RTVSPropertyOp33
 70
     1
102
RTVSPropertyOp34
 70
     1
102
RTVSPropertyOp35
 70
     1
102
RTVSPropertyOp36
 70
     1
102
RTVSPropertyOp37
 70
     1
102
RTVSPropertyOp38
 70
     1
102
RTVSPropertyOp39
 70
     1
102
RTVSPropertyOp40
 70
     1
102
RTVSPropertyOp41
 70
     1
102
RTVSPropertyOp42
 70
     1
102
RTVSPropertyOp43
 70
     1
102
RTVSPropertyOp44
 70
     1
102
RTVSPropertyOp45
 70
     1
102
RTVSPropertyOp46
 70
     1
102
RTVSPropertyOp47
 70
     1
102
RTVSPropertyOp48
 70
     1
102
RTVSPropertyOp49
 70
     1
102
RTVSPropertyOp50
 70
     1
102
RTVSPropertyOp51
 70
     0
102
RTVSPropertyOp52
 70
     0
102
RTVSPropertyOp53
 70
     1
102
RTVSPropertyOp54
 70
     1
102
RTVSPropertyOp55
 70
     1
102
RTVSPropertyOp56
 70
     1
102
RTVSPropertyOp57
 70
     1
102
RTVSPost2010Prop28
280
     0
102
RTVSPost2010PropOp28
 70
     1
102
RTVSPost2010Prop29
280
     1
102
RTVSPost2010PropOp29
 70
     1
102
RTVSPost2010Prop30
280
     1
102
RTVSPost2010PropOp30
 70
     1
102
RTVSPost2010Prop31
280
     0
102
RTVSPost2010PropOp31
 70
     1
102
RTVSPost2010Prop32
280
     0
102
RTVSPost2010PropOp32
 70
     1
102
RTVSPost2010Prop33
280
     0
102
RTVSPost2010PropOp33
 70
     1
102
RTVSPost2010Prop34
280
     0
102
RTVSPost2010PropOp34
 70
     1
102
RTVSPost2010Prop35
280
     0
102
RTVSPost2010PropOp35
 70
     1
102
RTVSPost2010Prop36
280
     0
102
RTVSPost2010PropOp36
 70
     1
102
RTVSPost2010Prop37
 90
       50
102
RTVSPost2010PropOp37
 70
     1
102
RTVSPost2010Prop38
140
0.0
102
RTVSPost2010PropOp38
 70
     1
102
RTVSPost2010Prop39
140
1.0
102
RTVSPost2010PropOp39
 70
     1
102
RTVSPost2010Prop40
 90
        0
102
RTVSPost2010PropOp40
 70
     1
102
RTVSPost2010Prop41ColorIndex
 90
       18
102
RTVSPost2010Prop41ColorRGB
 90
        0
102
RTVSPost2010PropOp41
 70
     1
102
RTVSPost2010Prop42
 90
       50
102
RTVSPost2010PropOp42
 70
     1
102
RTVSPost2010Prop43
 90
        3
102
RTVSPost2010PropOp43
 70
     1
102
RTVSPost2010Prop44ColorIndex
 90
        5
102
RTVSPost2010Prop44ColorRGB
 90
      255
102
RTVSPost2010PropOp44
 70
     1
102
RTVSPost2010Prop45
280
     0
102
RTVSPost2010PropOp45
 70
     1
102
RTVSPost2010Prop46
 90
       50
102
RTVSPost2010PropOp46
 70
     1
102
RTVSPost2010Prop47
 90
       50
102
RTVSPost2010PropOp47
 70
     1
102
RTVSPost2010Prop48
 90
       50
102
RTVSPost2010PropOp48
 70
     1
102
RTVSPost2010Prop49
280
     0
102
RTVSPost2010PropOp49
 70
     1
102
RTVSPost2010Prop50
 90
       50
102
RTVSPost2010PropOp50
 70
     1
102
RTVSPost2010Prop51ColorIndex
 90
      256
102
RTVSPost2010Prop51ColorRGB
 90
-16777216
102
RTVSPost2010PropOp51
 70
     0
102
RTVSPost2010Prop52
140
1.0
102
RTVSPost2010PropOp52
 70
     0
102
RTVSPost2010Prop53
 90
        2
102
RTVSPost2010PropOp53
 70
     1
102
RTVSPost2010Prop54
  1
strokes_ogs.tif
102
RTVSPost2010PropOp54
 70
     1
102
RTVSPost2010Prop55
280
     0
102
RTVSPost2010PropOp55
 70
     1
102
RTVSPost2010Prop56
140
1.0
102
RTVSPost2010PropOp56
 70
     1
102
RTVSPost2010Prop57
140
1.0
102
RTVSPost2010PropOp57
 70
     1
  0
XRECORD
  5
218
102
{ACAD_REACTORS
330
217
102
}
330
217
100
AcDbXrecord
280
     1
102
RTVSPropertyOp0
 70
     1
102
RTVSPropertyOp1
 70
     1
102
RTVSPropertyOp2
 70
     1
102
RTVSPropertyOp3
 70
     1
102
RTVSPropertyOp4
 70
     1
102
RTVSPropertyOp5
 70
     1
102
RTVSPropertyOp6
 70
     1
102
RTVSPropertyOp7
 70
     1
102
RTVSPropertyOp8
 70
     1
102
RTVSPropertyOp9
 70
     1
102
RTVSPropertyOp10
 70
     1
102
RTVSPropertyOp11
 70
     1
102
RTVSPropertyOp12
 70
     1
102
RTVSPropertyOp13
 70
     1
102
RTVSPropertyOp14
 70
     1
102
RTVSPropertyOp15
 70
     1
102
RTVSPropertyOp16
 70
     1
102
RTVSPropertyOp17
 70
     1
102
RTVSPropertyOp18
 70
     1
102
RTVSPropertyOp19
 70
     1
102
RTVSPropertyOp20
 70
     1
102
RTVSPropertyOp21
 70
     1
102
RTVSPropertyOp22
 70
     1
102
RTVSPropertyOp23
 70
     1
102
RTVSPropertyOp24
 70
     1
102
RTVSPropertyOp25
 70
     1
102
RTVSPropertyOp26
 70
     1
102
RTVSPropertyOp27
 70
     1
102
RTVSPropertyOp28
 70
     1
102
RTVSPropertyOp29
 70
     1
102
RTVSPropertyOp30
 70
     1
102
RTVSPropertyOp31
 70
     1
102
RTVSPropertyOp32
 70
     1
102
RTVSPropertyOp33
 70
     1
102
RTVSPropertyOp34
 70
     1
102
RTVSPropertyOp35
 70
     1
102
RTVSPropertyOp36
 70
     1
102
RTVSPropertyOp37
 70
     1
102
RTVSPropertyOp38
 70
     1
102
RTVSPropertyOp39
 70
     1
102
RTVSPropertyOp40
 70
     1
102
RTVSPropertyOp41
 70
     1
102
RTVSPropertyOp42
 70
     1
102
RTVSPropertyOp43
 70
     1
102
RTVSPropertyOp44
 70
     1
102
RTVSPropertyOp45
 70
     1
102
RTVSPropertyOp46
 70
     1
102
RTVSPropertyOp47
 70
     1
102
RTVSPropertyOp48
 70
     1
102
RTVSPropertyOp49
 70
     1
102
RTVSPropertyOp50
 70
     1
102
RTVSPropertyOp51
 70
     0
102
RTVSPropertyOp52
 70
     0
102
RTVSPropertyOp53
 70
     1
102
RTVSPropertyOp54
 70
     1
102
RTVSPropertyOp55
 70
     1
102
RTVSPropertyOp56
 70
     1
102
RTVSPropertyOp57
 70
     1
102
RTVSPost2010Prop28
280
     0
102
RTVSPost2010PropOp28
 70
     1
102
RTVSPost2010Prop29
280
     1
102
RTVSPost2010PropOp29
 70
     1
102
RTVSPost2010Prop30
280
     1
102
RTVSPost2010PropOp30
 70
     1
102
RTVSPost2010Prop31
280
     0
102
RTVSPost2010PropOp31
 70
     1
102
RTVSPost2010Prop32
280
     0
102
RTVSPost2010PropOp32
 70
     1
102
RTVSPost2010Prop33
280
     0
102
RTVSPost2010PropOp33
 70
     1
102
RTVSPost2010Prop34
280
     0
102
RTVSPost2010PropOp34
 70
     1
102
RTVSPost2010Prop35
280
     0
102
RTVSPost2010PropOp35
 70
     1
102
RTVSPost2010Prop36
280
     0
102
RTVSPost2010PropOp36
 70
     1
102
RTVSPost2010Prop37
 90
       50
102
RTVSPost2010PropOp37
 70
     1
102
RTVSPost2010Prop38
140
0.0
102
RTVSPost2010PropOp38
 70
     1
102
RTVSPost2010Prop39
140
1.0
102
RTVSPost2010PropOp39
 70
     1
102
RTVSPost2010Prop40
 90
        0
102
RTVSPost2010PropOp40
 70
     1
102
RTVSPost2010Prop41ColorIndex
 90
       18
102
RTVSPost2010Prop41ColorRGB
 90
        0
102
RTVSPost2010PropOp41
 70
     1
102
RTVSPost2010Prop42
 90
       50
102
RTVSPost2010PropOp42
 70
     1
102
RTVSPost2010Prop43
 90
        3
102
RTVSPost2010PropOp43
 70
     1
102
RTVSPost2010Prop44ColorIndex
 90
        5
102
RTVSPost2010Prop44ColorRGB
 90
      255
102
RTVSPost2010PropOp44
 70
     1
102
RTVSPost2010Prop45
280
     0
102
RTVSPost2010PropOp45
 70
     1
102
RTVSPost2010Prop46
 90
       50
102
RTVSPost2010PropOp46
 70
     1
102
RTVSPost2010Prop47
 90
       50
102
RTVSPost2010PropOp47
 70
     1
102
RTVSPost2010Prop48
 90
       50
102
RTVSPost2010PropOp48
 70
     1
102
RTVSPost2010Prop49
280
     0
102
RTVSPost2010PropOp49
 70
     1
102
RTVSPost2010Prop50
 90
       50
102
RTVSPost2010PropOp50
 70
     1
102
RTVSPost2010Prop51ColorIndex
 90
      256
102
RTVSPost2010Prop51ColorRGB
 90
-16777216
102
RTVSPost2010PropOp51
 70
     0
102
RTVSPost2010Prop52
140
1.0
102
RTVSPost2010PropOp52
 70
     0
102
RTVSPost2010Prop53
 90
        2
102
RTVSPost2010PropOp53
 70
     1
102
RTVSPost2010Prop54
  1
strokes_ogs.tif
102
RTVSPost2010PropOp54
 70
     1
102
RTVSPost2010Prop55
280
     0
102
RTVSPost2010PropOp55
 70
     1
102
RTVSPost2010Prop56
140
1.0
102
RTVSPost2010PropOp56
 70
     1
102
RTVSPost2010Prop57
140
1.0
102
RTVSPost2010PropOp57
 70
     1
  0
XRECORD
  5
21A
102
{ACAD_REACTORS
330
219
102
}
330
219
100
AcDbXrecord
280
     1
102
RTVSPropertyOp0
 70
     1
102
RTVSPropertyOp1
 70
     1
102
RTVSPropertyOp2
 70
     1
102
RTVSPropertyOp3
 70
     1
102
RTVSPropertyOp4
 70
     1
102
RTVSPropertyOp5
 70
     1
102
RTVSPropertyOp6
 70
     1
102
RTVSPropertyOp7
 70
     1
102
RTVSPropertyOp8
 70
     1
102
RTVSPropertyOp9
 70
     1
102
RTVSPropertyOp10
 70
     1
102
RTVSPropertyOp11
 70
     1
102
RTVSPropertyOp12
 70
     1
102
RTVSPropertyOp13
 70
     1
102
RTVSPropertyOp14
 70
     1
102
RTVSPropertyOp15
 70
     1
102
RTVSPropertyOp16
 70
     1
102
RTVSPropertyOp17
 70
     1
102
RTVSPropertyOp18
 70
     1
102
RTVSPropertyOp19
 70
     1
102
RTVSPropertyOp20
 70
     1
102
RTVSPropertyOp21
 70
     1
102
RTVSPropertyOp22
 70
     1
102
RTVSPropertyOp23
 70
     1
102
RTVSPropertyOp24
 70
     1
102
RTVSPropertyOp25
 70
     1
102
RTVSPropertyOp26
 70
     1
102
RTVSPropertyOp27
 70
     1
102
RTVSPropertyOp28
 70
     1
102
RTVSPropertyOp29
 70
     1
102
RTVSPropertyOp30
 70
     1
102
RTVSPropertyOp31
 70
     1
102
RTVSPropertyOp32
 70
     1
102
RTVSPropertyOp33
 70
     1
102
RTVSPropertyOp34
 70
     1
102
RTVSPropertyOp35
 70
     1
102
RTVSPropertyOp36
 70
     1
102
RTVSPropertyOp37
 70
     1
102
RTVSPropertyOp38
 70
     1
102
RTVSPropertyOp39
 70
     1
102
RTVSPropertyOp40
 70
     1
102
RTVSPropertyOp41
 70
     1
102
RTVSPropertyOp42
 70
     1
102
RTVSPropertyOp43
 70
     1
102
RTVSPropertyOp44
 70
     1
102
RTVSPropertyOp45
 70
     1
102
RTVSPropertyOp46
 70
     1
102
RTVSPropertyOp47
 70
     1
102
RTVSPropertyOp48
 70
     1
102
RTVSPropertyOp49
 70
     1
102
RTVSPropertyOp50
 70
     1
102
RTVSPropertyOp51
 70
     0
102
RTVSPropertyOp52
 70
     0
102
RTVSPropertyOp53
 70
     1
102
RTVSPropertyOp54
 70
     1
102
RTVSPropertyOp55
 70
     1
102
RTVSPropertyOp56
 70
     1
102
RTVSPropertyOp57
 70
     1
102
RTVSPost2010Prop28
280
     0
102
RTVSPost2010PropOp28
 70
     1
102
RTVSPost2010Prop29
280
     1
102
RTVSPost2010PropOp29
 70
     1
102
RTVSPost2010Prop30
280
     1
102
RTVSPost2010PropOp30
 70
     1
102
RTVSPost2010Prop31
280
     0
102
RTVSPost2010PropOp31
 70
     1
102
RTVSPost2010Prop32
280
     0
102
RTVSPost2010PropOp32
 70
     1
102
RTVSPost2010Prop33
280
     0
102
RTVSPost2010PropOp33
 70
     1
102
RTVSPost2010Prop34
280
     0
102
RTVSPost2010PropOp34
 70
     1
102
RTVSPost2010Prop35
280
     0
102
RTVSPost2010PropOp35
 70
     1
102
RTVSPost2010Prop36
280
     0
102
RTVSPost2010PropOp36
 70
     1
102
RTVSPost2010Prop37
 90
       50
102
RTVSPost2010PropOp37
 70
     1
102
RTVSPost2010Prop38
140
0.0
102
RTVSPost2010PropOp38
 70
     1
102
RTVSPost2010Prop39
140
1.0
102
RTVSPost2010PropOp39
 70
     1
102
RTVSPost2010Prop40
 90
        0
102
RTVSPost2010PropOp40
 70
     1
102
RTVSPost2010Prop41ColorIndex
 90
       18
102
RTVSPost2010Prop41ColorRGB
 90
        0
102
RTVSPost2010PropOp41
 70
     1
102
RTVSPost2010Prop42
 90
       50
102
RTVSPost2010PropOp42
 70
     1
102
RTVSPost2010Prop43
 90
        3
102
RTVSPost2010PropOp43
 70
     1
102
RTVSPost2010Prop44ColorIndex
 90
        5
102
RTVSPost2010Prop44ColorRGB
 90
      255
102
RTVSPost2010PropOp44
 70
     1
102
RTVSPost2010Prop45
280
     0
102
RTVSPost2010PropOp45
 70
     1
102
RTVSPost2010Prop46
 90
       50
102
RTVSPost2010PropOp46
 70
     1
102
RTVSPost2010Prop47
 90
       50
102
RTVSPost2010PropOp47
 70
     1
102
RTVSPost2010Prop48
 90
       50
102
RTVSPost2010PropOp48
 70
     1
102
RTVSPost2010Prop49
280
     0
102
RTVSPost2010PropOp49
 70
     1
102
RTVSPost2010Prop50
 90
       50
102
RTVSPost2010PropOp50
 70
     1
102
RTVSPost2010Prop51ColorIndex
 90
      256
102
RTVSPost2010Prop51ColorRGB
 90
-16777216
102
RTVSPost2010PropOp51
 70
     0
102
RTVSPost2010Prop52
140
1.0
102
RTVSPost2010PropOp52
 70
     0
102
RTVSPost2010Prop53
 90
        2
102
RTVSPost2010PropOp53
 70
     1
102
RTVSPost2010Prop54
  1
strokes_ogs.tif
102
RTVSPost2010PropOp54
 70
     1
102
RTVSPost2010Prop55
280
     0
102
RTVSPost2010PropOp55
 70
     1
102
RTVSPost2010Prop56
140
1.0
102
RTVSPost2010PropOp56
 70
     1
102
RTVSPost2010Prop57
140
1.0
102
RTVSPost2010PropOp57
 70
     1
  0
XRECORD
  5
21C
102
{ACAD_REACTORS
330
21B
102
}
330
21B
100
AcDbXrecord
280
     1
102
RTVSPropertyOp0
 70
     1
102
RTVSPropertyOp1
 70
     1
102
RTVSPropertyOp2
 70
     1
102
RTVSPropertyOp3
 70
     1
102
RTVSPropertyOp4
 70
     1
102
RTVSPropertyOp5
 70
     1
102
RTVSPropertyOp6
 70
     1
102
RTVSPropertyOp7
 70
     1
102
RTVSPropertyOp8
 70
     1
102
RTVSPropertyOp9
 70
     1
102
RTVSPropertyOp10
 70
     1
102
RTVSPropertyOp11
 70
     1
102
RTVSPropertyOp12
 70
     1
102
RTVSPropertyOp13
 70
     1
102
RTVSPropertyOp14
 70
     1
102
RTVSPropertyOp15
 70
     1
102
RTVSPropertyOp16
 70
     1
102
RTVSPropertyOp17
 70
     1
102
RTVSPropertyOp18
 70
     1
102
RTVSPropertyOp19
 70
     1
102
RTVSPropertyOp20
 70
     1
102
RTVSPropertyOp21
 70
     1
102
RTVSPropertyOp22
 70
     1
102
RTVSPropertyOp23
 70
     1
102
RTVSPropertyOp24
 70
     1
102
RTVSPropertyOp25
 70
     1
102
RTVSPropertyOp26
 70
     1
102
RTVSPropertyOp27
 70
     1
102
RTVSPropertyOp28
 70
     1
102
RTVSPropertyOp29
 70
     1
102
RTVSPropertyOp30
 70
     1
102
RTVSPropertyOp31
 70
     1
102
RTVSPropertyOp32
 70
     1
102
RTVSPropertyOp33
 70
     1
102
RTVSPropertyOp34
 70
     1
102
RTVSPropertyOp35
 70
     1
102
RTVSPropertyOp36
 70
     1
102
RTVSPropertyOp37
 70
     1
102
RTVSPropertyOp38
 70
     1
102
RTVSPropertyOp39
 70
     1
102
RTVSPropertyOp40
 70
     1
102
RTVSPropertyOp41
 70
     1
102
RTVSPropertyOp42
 70
     1
102
RTVSPropertyOp43
 70
     1
102
RTVSPropertyOp44
 70
     1
102
RTVSPropertyOp45
 70
     1
102
RTVSPropertyOp46
 70
     1
102
RTVSPropertyOp47
 70
     1
102
RTVSPropertyOp48
 70
     1
102
RTVSPropertyOp49
 70
     1
102
RTVSPropertyOp50
 70
     1
102
RTVSPropertyOp51
 70
     0
102
RTVSPropertyOp52
 70
     0
102
RTVSPropertyOp53
 70
     1
102
RTVSPropertyOp54
 70
     1
102
RTVSPropertyOp55
 70
     1
102
RTVSPropertyOp56
 70
     1
102
RTVSPropertyOp57
 70
     1
102
RTVSPost2010Prop28
280
     0
102
RTVSPost2010PropOp28
 70
     1
102
RTVSPost2010Prop29
280
     1
102
RTVSPost2010PropOp29
 70
     1
102
RTVSPost2010Prop30
280
     1
102
RTVSPost2010PropOp30
 70
     1
102
RTVSPost2010Prop31
280
     0
102
RTVSPost2010PropOp31
 70
     1
102
RTVSPost2010Prop32
280
     0
102
RTVSPost2010PropOp32
 70
     1
102
RTVSPost2010Prop33
280
     0
102
RTVSPost2010PropOp33
 70
     1
102
RTVSPost2010Prop34
280
     0
102
RTVSPost2010PropOp34
 70
     1
102
RTVSPost2010Prop35
280
     0
102
RTVSPost2010PropOp35
 70
     1
102
RTVSPost2010Prop36
280
     0
102
RTVSPost2010PropOp36
 70
     1
102
RTVSPost2010Prop37
 90
       50
102
RTVSPost2010PropOp37
 70
     1
102
RTVSPost2010Prop38
140
0.0
102
RTVSPost2010PropOp38
 70
     1
102
RTVSPost2010Prop39
140
1.0
102
RTVSPost2010PropOp39
 70
     1
102
RTVSPost2010Prop40
 90
        0
102
RTVSPost2010PropOp40
 70
     1
102
RTVSPost2010Prop41ColorIndex
 90
       18
102
RTVSPost2010Prop41ColorRGB
 90
        0
102
RTVSPost2010PropOp41
 70
     1
102
RTVSPost2010Prop42
 90
       50
102
RTVSPost2010PropOp42
 70
     1
102
RTVSPost2010Prop43
 90
        3
102
RTVSPost2010PropOp43
 70
     1
102
RTVSPost2010Prop44ColorIndex
 90
        5
102
RTVSPost2010Prop44ColorRGB
 90
      255
102
RTVSPost2010PropOp44
 70
     1
102
RTVSPost2010Prop45
280
     0
102
RTVSPost2010PropOp45
 70
     1
102
RTVSPost2010Prop46
 90
       50
102
RTVSPost2010PropOp46
 70
     1
102
RTVSPost2010Prop47
 90
       50
102
RTVSPost2010PropOp47
 70
     1
102
RTVSPost2010Prop48
 90
       50
102
RTVSPost2010PropOp48
 70
     1
102
RTVSPost2010Prop49
280
     0
102
RTVSPost2010PropOp49
 70
     1
102
RTVSPost2010Prop50
 90
       50
102
RTVSPost2010PropOp50
 70
     1
102
RTVSPost2010Prop51ColorIndex
 90
      256
102
RTVSPost2010Prop51ColorRGB
 90
-16777216
102
RTVSPost2010PropOp51
 70
     0
102
RTVSPost2010Prop52
140
1.0
102
RTVSPost2010PropOp52
 70
     0
102
RTVSPost2010Prop53
 90
        2
102
RTVSPost2010PropOp53
 70
     1
102
RTVSPost2010Prop54
  1
strokes_ogs.tif
102
RTVSPost2010PropOp54
 70
     1
102
RTVSPost2010Prop55
280
     0
102
RTVSPost2010PropOp55
 70
     1
102
RTVSPost2010Prop56
140
1.0
102
RTVSPost2010PropOp56
 70
     1
102
RTVSPost2010Prop57
140
1.0
102
RTVSPost2010PropOp57
 70
     1
  0
XRECORD
  5
222
102
{ACAD_REACTORS
330
221
102
}
330
221
100
AcDbXrecord
280
     1
102
RTVSPropertyOp0
 70
     1
102
RTVSPropertyOp1
 70
     1
102
RTVSPropertyOp2
 70
     1
102
RTVSPropertyOp3
 70
     1
102
RTVSPropertyOp4
 70
     1
102
RTVSPropertyOp5
 70
     1
102
RTVSPropertyOp6
 70
     1
102
RTVSPropertyOp7
 70
     1
102
RTVSPropertyOp8
 70
     1
102
RTVSPropertyOp9
 70
     1
102
RTVSPropertyOp10
 70
     1
102
RTVSPropertyOp11
 70
     1
102
RTVSPropertyOp12
 70
     1
102
RTVSPropertyOp13
 70
     1
102
RTVSPropertyOp14
 70
     1
102
RTVSPropertyOp15
 70
     1
102
RTVSPropertyOp16
 70
     1
102
RTVSPropertyOp17
 70
     1
102
RTVSPropertyOp18
 70
     1
102
RTVSPropertyOp19
 70
     1
102
RTVSPropertyOp20
 70
     1
102
RTVSPropertyOp21
 70
     1
102
RTVSPropertyOp22
 70
     1
102
RTVSPropertyOp23
 70
     1
102
RTVSPropertyOp24
 70
     1
102
RTVSPropertyOp25
 70
     1
102
RTVSPropertyOp26
 70
     1
102
RTVSPropertyOp27
 70
     1
102
RTVSPropertyOp28
 70
     1
102
RTVSPropertyOp29
 70
     1
102
RTVSPropertyOp30
 70
     1
102
RTVSPropertyOp31
 70
     1
102
RTVSPropertyOp32
 70
     1
102
RTVSPropertyOp33
 70
     1
102
RTVSPropertyOp34
 70
     1
102
RTVSPropertyOp35
 70
     1
102
RTVSPropertyOp36
 70
     1
102
RTVSPropertyOp37
 70
     1
102
RTVSPropertyOp38
 70
     1
102
RTVSPropertyOp39
 70
     1
102
RTVSPropertyOp40
 70
     1
102
RTVSPropertyOp41
 70
     1
102
RTVSPropertyOp42
 70
     1
102
RTVSPropertyOp43
 70
     1
102
RTVSPropertyOp44
 70
     1
102
RTVSPropertyOp45
 70
     1
102
RTVSPropertyOp46
 70
     1
102
RTVSPropertyOp47
 70
     1
102
RTVSPropertyOp48
 70
     1
102
RTVSPropertyOp49
 70
     1
102
RTVSPropertyOp50
 70
     1
102
RTVSPropertyOp51
 70
     0
102
RTVSPropertyOp52
 70
     0
102
RTVSPropertyOp53
 70
     1
102
RTVSPropertyOp54
 70
     1
102
RTVSPropertyOp55
 70
     1
102
RTVSPropertyOp56
 70
     1
102
RTVSPropertyOp57
 70
     1
102
RTVSPost2010Prop28
280
     0
102
RTVSPost2010PropOp28
 70
     1
102
RTVSPost2010Prop29
280
     1
102
RTVSPost2010PropOp29
 70
     1
102
RTVSPost2010Prop30
280
     1
102
RTVSPost2010PropOp30
 70
     1
102
RTVSPost2010Prop31
280
     0
102
RTVSPost2010PropOp31
 70
     1
102
RTVSPost2010Prop32
280
     0
102
RTVSPost2010PropOp32
 70
     1
102
RTVSPost2010Prop33
280
     0
102
RTVSPost2010PropOp33
 70
     1
102
RTVSPost2010Prop34
280
     0
102
RTVSPost2010PropOp34
 70
     1
102
RTVSPost2010Prop35
280
     0
102
RTVSPost2010PropOp35
 70
     1
102
RTVSPost2010Prop36
280
     0
102
RTVSPost2010PropOp36
 70
     1
102
RTVSPost2010Prop37
 90
       50
102
RTVSPost2010PropOp37
 70
     1
102
RTVSPost2010Prop38
140
0.0
102
RTVSPost2010PropOp38
 70
     1
102
RTVSPost2010Prop39
140
1.0
102
RTVSPost2010PropOp39
 70
     1
102
RTVSPost2010Prop40
 90
        0
102
RTVSPost2010PropOp40
 70
     1
102
RTVSPost2010Prop41ColorIndex
 90
       18
102
RTVSPost2010Prop41ColorRGB
 90
        0
102
RTVSPost2010PropOp41
 70
     1
102
RTVSPost2010Prop42
 90
       50
102
RTVSPost2010PropOp42
 70
     1
102
RTVSPost2010Prop43
 90
        3
102
RTVSPost2010PropOp43
 70
     1
102
RTVSPost2010Prop44ColorIndex
 90
        5
102
RTVSPost2010Prop44ColorRGB
 90
      255
102
RTVSPost2010PropOp44
 70
     1
102
RTVSPost2010Prop45
280
     0
102
RTVSPost2010PropOp45
 70
     1
102
RTVSPost2010Prop46
 90
       50
102
RTVSPost2010PropOp46
 70
     1
102
RTVSPost2010Prop47
 90
       50
102
RTVSPost2010PropOp47
 70
     1
102
RTVSPost2010Prop48
 90
       50
102
RTVSPost2010PropOp48
 70
     1
102
RTVSPost2010Prop49
280
     0
102
RTVSPost2010PropOp49
 70
     1
102
RTVSPost2010Prop50
 90
       50
102
RTVSPost2010PropOp50
 70
     1
102
RTVSPost2010Prop51ColorIndex
 90
      256
102
RTVSPost2010Prop51ColorRGB
 90
-16777216
102
RTVSPost2010PropOp51
 70
     0
102
RTVSPost2010Prop52
140
1.0
102
RTVSPost2010PropOp52
 70
     0
102
RTVSPost2010Prop53
 90
        2
102
RTVSPost2010PropOp53
 70
     1
102
RTVSPost2010Prop54
  1
strokes_ogs.tif
102
RTVSPost2010PropOp54
 70
     1
102
RTVSPost2010Prop55
280
     0
102
RTVSPost2010PropOp55
 70
     1
102
RTVSPost2010Prop56
140
1.0
102
RTVSPost2010PropOp56
 70
     1
102
RTVSPost2010Prop57
140
1.0
102
RTVSPost2010PropOp57
 70
     1
  0
XRECORD
  5
236
102
{ACAD_REACTORS
330
235
102
}
330
235
100
AcDbXrecord
280
     1
102
RTVSPropertyOp0
 70
     0
102
RTVSPropertyOp1
 70
     0
102
RTVSPropertyOp2
 70
     0
102
RTVSPropertyOp3
 70
     0
102
RTVSPropertyOp4
 70
     0
102
RTVSPropertyOp5
 70
     0
102
RTVSPropertyOp6
 70
     0
102
RTVSPropertyOp7
 70
     0
102
RTVSPropertyOp8
 70
     0
102
RTVSPropertyOp9
 70
     0
102
RTVSPropertyOp10
 70
     0
102
RTVSPropertyOp11
 70
     0
102
RTVSPropertyOp12
 70
     0
102
RTVSPropertyOp13
 70
     0
102
RTVSPropertyOp14
 70
     2
102
RTVSPropertyOp15
 70
     0
102
RTVSPropertyOp16
 70
     0
102
RTVSPropertyOp17
 70
     0
102
RTVSPropertyOp18
 70
     0
102
RTVSPropertyOp19
 70
     0
102
RTVSPropertyOp20
 70
     0
102
RTVSPropertyOp21
 70
     0
102
RTVSPropertyOp22
 70
     0
102
RTVSPropertyOp23
 70
     0
102
RTVSPropertyOp24
 70
     0
102
RTVSPropertyOp25
 70
     0
102
RTVSPropertyOp26
 70
     0
102
RTVSPropertyOp27
 70
     0
102
RTVSPropertyOp28
 70
     0
102
RTVSPropertyOp29
 70
     0
102
RTVSPropertyOp30
 70
     0
102
RTVSPropertyOp31
 70
     0
102
RTVSPropertyOp32
 70
     0
102
RTVSPropertyOp33
 70
     0
102
RTVSPropertyOp34
 70
     0
102
RTVSPropertyOp35
 70
     0
102
RTVSPropertyOp36
 70
     0
102
RTVSPropertyOp37
 70
     0
102
RTVSPropertyOp38
 70
     0
102
RTVSPropertyOp39
 70
     0
102
RTVSPropertyOp40
 70
     0
102
RTVSPropertyOp41
 70
     0
102
RTVSPropertyOp42
 70
     0
102
RTVSPropertyOp43
 70
     0
102
RTVSPropertyOp44
 70
     0
102
RTVSPropertyOp45
 70
     0
102
RTVSPropertyOp46
 70
     0
102
RTVSPropertyOp47
 70
     0
102
RTVSPropertyOp48
 70
     0
102
RTVSPropertyOp49
 70
     0
102
RTVSPropertyOp50
 70
     0
102
RTVSPropertyOp51
 70
     0
102
RTVSPropertyOp52
 70
     0
102
RTVSPropertyOp53
 70
     0
102
RTVSPropertyOp54
 70
     0
102
RTVSPropertyOp55
 70
     0
102
RTVSPropertyOp56
 70
     0
102
RTVSPropertyOp57
 70
     0
102
RTVSPost2010Prop28
280
     0
102
RTVSPost2010PropOp28
 70
     0
102
RTVSPost2010Prop29
280
     1
102
RTVSPost2010PropOp29
 70
     0
102
RTVSPost2010Prop30
280
     1
102
RTVSPost2010PropOp30
 70
     0
102
RTVSPost2010Prop31
280
     0
102
RTVSPost2010PropOp31
 70
     0
102
RTVSPost2010Prop32
280
     0
102
RTVSPost2010PropOp32
 70
     0
102
RTVSPost2010Prop33
280
     0
102
RTVSPost2010PropOp33
 70
     0
102
RTVSPost2010Prop34
280
     0
102
RTVSPost2010PropOp34
 70
     0
102
RTVSPost2010Prop35
280
     0
102
RTVSPost2010PropOp35
 70
     0
102
RTVSPost2010Prop36
280
     0
102
RTVSPost2010PropOp36
 70
     0
102
RTVSPost2010Prop37
 90
       50
102
RTVSPost2010PropOp37
 70
     0
102
RTVSPost2010Prop38
140
0.0
102
RTVSPost2010PropOp38
 70
     0
102
RTVSPost2010Prop39
140
1.0
102
RTVSPost2010PropOp39
 70
     0
102
RTVSPost2010Prop40
 90
        0
102
RTVSPost2010PropOp40
 70
     0
102
RTVSPost2010Prop41ColorIndex
 90
       18
102
RTVSPost2010Prop41ColorRGB
 90
        0
102
RTVSPost2010PropOp41
 70
     0
102
RTVSPost2010Prop42
 90
       50
102
RTVSPost2010PropOp42
 70
     0
102
RTVSPost2010Prop43
 90
        3
102
RTVSPost2010PropOp43
 70
     0
102
RTVSPost2010Prop44ColorIndex
 90
        5
102
RTVSPost2010Prop44ColorRGB
 90
      255
102
RTVSPost2010PropOp44
 70
     0
102
RTVSPost2010Prop45
280
     0
102
RTVSPost2010PropOp45
 70
     0
102
RTVSPost2010Prop46
 90
       50
102
RTVSPost2010PropOp46
 70
     0
102
RTVSPost2010Prop47
 90
       50
102
RTVSPost2010PropOp47
 70
     0
102
RTVSPost2010Prop48
 90
       50
102
RTVSPost2010PropOp48
 70
     0
102
RTVSPost2010Prop49
280
     0
102
RTVSPost2010PropOp49
 70
     0
102
RTVSPost2010Prop50
 90
       50
102
RTVSPost2010PropOp50
 70
     0
102
RTVSPost2010Prop51ColorIndex
 90
      256
102
RTVSPost2010Prop51ColorRGB
 90
-16777216
102
RTVSPost2010PropOp51
 70
     0
102
RTVSPost2010Prop52
140
1.0
102
RTVSPost2010PropOp52
 70
     0
102
RTVSPost2010Prop53
 90
        2
102
RTVSPost2010PropOp53
 70
     0
102
RTVSPost2010Prop54
  1
strokes_ogs.tif
102
RTVSPost2010PropOp54
 70
     0
102
RTVSPost2010Prop55
280
     0
102
RTVSPost2010PropOp55
 70
     0
102
RTVSPost2010Prop56
140
1.0
102
RTVSPost2010PropOp56
 70
     0
102
RTVSPost2010Prop57
140
1.0
102
RTVSPost2010PropOp57
 70
     0
  0
XRECORD
  5
230
102
{ACAD_REACTORS
330
22F
102
}
330
22F
100
AcDbXrecord
280
     1
102
RTVSPropertyOp0
 70
     1
102
RTVSPropertyOp1
 70
     1
102
RTVSPropertyOp2
 70
     1
102
RTVSPropertyOp3
 70
     1
102
RTVSPropertyOp4
 70
     1
102
RTVSPropertyOp5
 70
     1
102
RTVSPropertyOp6
 70
     1
102
RTVSPropertyOp7
 70
     1
102
RTVSPropertyOp8
 70
     1
102
RTVSPropertyOp9
 70
     1
102
RTVSPropertyOp10
 70
     1
102
RTVSPropertyOp11
 70
     1
102
RTVSPropertyOp12
 70
     1
102
RTVSPropertyOp13
 70
     1
102
RTVSPropertyOp14
 70
     1
102
RTVSPropertyOp15
 70
     1
102
RTVSPropertyOp16
 70
     1
102
RTVSPropertyOp17
 70
     1
102
RTVSPropertyOp18
 70
     1
102
RTVSPropertyOp19
 70
     1
102
RTVSPropertyOp20
 70
     1
102
RTVSPropertyOp21
 70
     1
102
RTVSPropertyOp22
 70
     1
102
RTVSPropertyOp23
 70
     1
102
RTVSPropertyOp24
 70
     1
102
RTVSPropertyOp25
 70
     1
102
RTVSPropertyOp26
 70
     1
102
RTVSPropertyOp27
 70
     1
102
RTVSPropertyOp28
 70
     1
102
RTVSPropertyOp29
 70
     1
102
RTVSPropertyOp30
 70
     1
102
RTVSPropertyOp31
 70
     1
102
RTVSPropertyOp32
 70
     1
102
RTVSPropertyOp33
 70
     1
102
RTVSPropertyOp34
 70
     1
102
RTVSPropertyOp35
 70
     1
102
RTVSPropertyOp36
 70
     1
102
RTVSPropertyOp37
 70
     1
102
RTVSPropertyOp38
 70
     1
102
RTVSPropertyOp39
 70
     1
102
RTVSPropertyOp40
 70
     1
102
RTVSPropertyOp41
 70
     1
102
RTVSPropertyOp42
 70
     1
102
RTVSPropertyOp43
 70
     1
102
RTVSPropertyOp44
 70
     1
102
RTVSPropertyOp45
 70
     1
102
RTVSPropertyOp46
 70
     1
102
RTVSPropertyOp47
 70
     1
102
RTVSPropertyOp48
 70
     1
102
RTVSPropertyOp49
 70
     1
102
RTVSPropertyOp50
 70
     1
102
RTVSPropertyOp51
 70
     0
102
RTVSPropertyOp52
 70
     0
102
RTVSPropertyOp53
 70
     1
102
RTVSPropertyOp54
 70
     1
102
RTVSPropertyOp55
 70
     1
102
RTVSPropertyOp56
 70
     1
102
RTVSPropertyOp57
 70
     1
102
RTVSPost2010Prop28
280
     0
102
RTVSPost2010PropOp28
 70
     1
102
RTVSPost2010Prop29
280
     1
102
RTVSPost2010PropOp29
 70
     1
102
RTVSPost2010Prop30
280
     1
102
RTVSPost2010PropOp30
 70
     1
102
RTVSPost2010Prop31
280
     0
102
RTVSPost2010PropOp31
 70
     1
102
RTVSPost2010Prop32
280
     0
102
RTVSPost2010PropOp32
 70
     1
102
RTVSPost2010Prop33
280
     0
102
RTVSPost2010PropOp33
 70
     1
102
RTVSPost2010Prop34
280
     0
102
RTVSPost2010PropOp34
 70
     1
102
RTVSPost2010Prop35
280
     0
102
RTVSPost2010PropOp35
 70
     1
102
RTVSPost2010Prop36
280
     0
102
RTVSPost2010PropOp36
 70
     1
102
RTVSPost2010Prop37
 90
       50
102
RTVSPost2010PropOp37
 70
     1
102
RTVSPost2010Prop38
140
0.0
102
RTVSPost2010PropOp38
 70
     1
102
RTVSPost2010Prop39
140
1.0
102
RTVSPost2010PropOp39
 70
     1
102
RTVSPost2010Prop40
 90
        0
102
RTVSPost2010PropOp40
 70
     1
102
RTVSPost2010Prop41ColorIndex
 90
       18
102
RTVSPost2010Prop41ColorRGB
 90
        0
102
RTVSPost2010PropOp41
 70
     1
102
RTVSPost2010Prop42
 90
       50
102
RTVSPost2010PropOp42
 70
     1
102
RTVSPost2010Prop43
 90
        3
102
RTVSPost2010PropOp43
 70
     1
102
RTVSPost2010Prop44ColorIndex
 90
        5
102
RTVSPost2010Prop44ColorRGB
 90
      255
102
RTVSPost2010PropOp44
 70
     1
102
RTVSPost2010Prop45
280
     0
102
RTVSPost2010PropOp45
 70
     1
102
RTVSPost2010Prop46
 90
       50
102
RTVSPost2010PropOp46
 70
     1
102
RTVSPost2010Prop47
 90
       50
102
RTVSPost2010PropOp47
 70
     1
102
RTVSPost2010Prop48
 90
       50
102
RTVSPost2010PropOp48
 70
     1
102
RTVSPost2010Prop49
280
     0
102
RTVSPost2010PropOp49
 70
     1
102
RTVSPost2010Prop50
 90
       50
102
RTVSPost2010PropOp50
 70
     1
102
RTVSPost2010Prop51ColorIndex
 90
      256
102
RTVSPost2010Prop51ColorRGB
 90
-16777216
102
RTVSPost2010PropOp51
 70
     0
102
RTVSPost2010Prop52
140
1.0
102
RTVSPost2010PropOp52
 70
     0
102
RTVSPost2010Prop53
 90
        2
102
RTVSPost2010PropOp53
 70
     1
102
RTVSPost2010Prop54
  1
strokes_ogs.tif
102
RTVSPost2010PropOp54
 70
     1
102
RTVSPost2010Prop55
280
     0
102
RTVSPost2010PropOp55
 70
     1
102
RTVSPost2010Prop56
140
1.0
102
RTVSPost2010PropOp56
 70
     1
102
RTVSPost2010Prop57
140
1.0
102
RTVSPost2010PropOp57
 70
     1
  0
XRECORD
  5
238
102
{ACAD_REACTORS
330
237
102
}
330
237
100
AcDbXrecord
280
     1
102
RTVSPropertyOp0
 70
     0
102
RTVSPropertyOp1
 70
     0
102
RTVSPropertyOp2
 70
     0
102
RTVSPropertyOp3
 70
     0
102
RTVSPropertyOp4
 70
     0
102
RTVSPropertyOp5
 70
     0
102
RTVSPropertyOp6
 70
     0
102
RTVSPropertyOp7
 70
     0
102
RTVSPropertyOp8
 70
     0
102
RTVSPropertyOp9
 70
     0
102
RTVSPropertyOp10
 70
     0
102
RTVSPropertyOp11
 70
     0
102
RTVSPropertyOp12
 70
     0
102
RTVSPropertyOp13
 70
     0
102
RTVSPropertyOp14
 70
     2
102
RTVSPropertyOp15
 70
     0
102
RTVSPropertyOp16
 70
     0
102
RTVSPropertyOp17
 70
     0
102
RTVSPropertyOp18
 70
     0
102
RTVSPropertyOp19
 70
     0
102
RTVSPropertyOp20
 70
     0
102
RTVSPropertyOp21
 70
     0
102
RTVSPropertyOp22
 70
     0
102
RTVSPropertyOp23
 70
     0
102
RTVSPropertyOp24
 70
     0
102
RTVSPropertyOp25
 70
     0
102
RTVSPropertyOp26
 70
     0
102
RTVSPropertyOp27
 70
     0
102
RTVSPropertyOp28
 70
     0
102
RTVSPropertyOp29
 70
     0
102
RTVSPropertyOp30
 70
     0
102
RTVSPropertyOp31
 70
     0
102
RTVSPropertyOp32
 70
     0
102
RTVSPropertyOp33
 70
     0
102
RTVSPropertyOp34
 70
     0
102
RTVSPropertyOp35
 70
     0
102
RTVSPropertyOp36
 70
     0
102
RTVSPropertyOp37
 70
     0
102
RTVSPropertyOp38
 70
     0
102
RTVSPropertyOp39
 70
     0
102
RTVSPropertyOp40
 70
     0
102
RTVSPropertyOp41
 70
     0
102
RTVSPropertyOp42
 70
     0
102
RTVSPropertyOp43
 70
     0
102
RTVSPropertyOp44
 70
     0
102
RTVSPropertyOp45
 70
     0
102
RTVSPropertyOp46
 70
     0
102
RTVSPropertyOp47
 70
     0
102
RTVSPropertyOp48
 70
     0
102
RTVSPropertyOp49
 70
     0
102
RTVSPropertyOp50
 70
     0
102
RTVSPropertyOp51
 70
     0
102
RTVSPropertyOp52
 70
     0
102
RTVSPropertyOp53
 70
     0
102
RTVSPropertyOp54
 70
     0
102
RTVSPropertyOp55
 70
     0
102
RTVSPropertyOp56
 70
     0
102
RTVSPropertyOp57
 70
     0
102
RTVSPost2010Prop28
280
     0
102
RTVSPost2010PropOp28
 70
     0
102
RTVSPost2010Prop29
280
     1
102
RTVSPost2010PropOp29
 70
     0
102
RTVSPost2010Prop30
280
     1
102
RTVSPost2010PropOp30
 70
     0
102
RTVSPost2010Prop31
280
     0
102
RTVSPost2010PropOp31
 70
     0
102
RTVSPost2010Prop32
280
     0
102
RTVSPost2010PropOp32
 70
     0
102
RTVSPost2010Prop33
280
     0
102
RTVSPost2010PropOp33
 70
     0
102
RTVSPost2010Prop34
280
     0
102
RTVSPost2010PropOp34
 70
     0
102
RTVSPost2010Prop35
280
     0
102
RTVSPost2010PropOp35
 70
     0
102
RTVSPost2010Prop36
280
     0
102
RTVSPost2010PropOp36
 70
     0
102
RTVSPost2010Prop37
 90
       50
102
RTVSPost2010PropOp37
 70
     0
102
RTVSPost2010Prop38
140
0.0
102
RTVSPost2010PropOp38
 70
     0
102
RTVSPost2010Prop39
140
1.0
102
RTVSPost2010PropOp39
 70
     0
102
RTVSPost2010Prop40
 90
        0
102
RTVSPost2010PropOp40
 70
     0
102
RTVSPost2010Prop41ColorIndex
 90
       18
102
RTVSPost2010Prop41ColorRGB
 90
        0
102
RTVSPost2010PropOp41
 70
     0
102
RTVSPost2010Prop42
 90
       50
102
RTVSPost2010PropOp42
 70
     0
102
RTVSPost2010Prop43
 90
        3
102
RTVSPost2010PropOp43
 70
     0
102
RTVSPost2010Prop44ColorIndex
 90
        5
102
RTVSPost2010Prop44ColorRGB
 90
      255
102
RTVSPost2010PropOp44
 70
     0
102
RTVSPost2010Prop45
280
     0
102
RTVSPost2010PropOp45
 70
     0
102
RTVSPost2010Prop46
 90
       50
102
RTVSPost2010PropOp46
 70
     0
102
RTVSPost2010Prop47
 90
       50
102
RTVSPost2010PropOp47
 70
     0
102
RTVSPost2010Prop48
 90
       50
102
RTVSPost2010PropOp48
 70
     0
102
RTVSPost2010Prop49
280
     0
102
RTVSPost2010PropOp49
 70
     0
102
RTVSPost2010Prop50
 90
       50
102
RTVSPost2010PropOp50
 70
     0
102
RTVSPost2010Prop51ColorIndex
 90
      256
102
RTVSPost2010Prop51ColorRGB
 90
-16777216
102
RTVSPost2010PropOp51
 70
     0
102
RTVSPost2010Prop52
140
1.0
102
RTVSPost2010PropOp52
 70
     0
102
RTVSPost2010Prop53
 90
        2
102
RTVSPost2010PropOp53
 70
     0
102
RTVSPost2010Prop54
  1
strokes_ogs.tif
102
RTVSPost2010PropOp54
 70
     0
102
RTVSPost2010Prop55
280
     0
102
RTVSPost2010PropOp55
 70
     0
102
RTVSPost2010Prop56
140
1.0
102
RTVSPost2010PropOp56
 70
     0
102
RTVSPost2010Prop57
140
1.0
102
RTVSPost2010PropOp57
 70
     0
  0
XRECORD
  5
226
102
{ACAD_REACTORS
330
225
102
}
330
225
100
AcDbXrecord
280
     1
102
RTVSPropertyOp0
 70
     1
102
RTVSPropertyOp1
 70
     1
102
RTVSPropertyOp2
 70
     1
102
RTVSPropertyOp3
 70
     1
102
RTVSPropertyOp4
 70
     1
102
RTVSPropertyOp5
 70
     1
102
RTVSPropertyOp6
 70
     1
102
RTVSPropertyOp7
 70
     1
102
RTVSPropertyOp8
 70
     1
102
RTVSPropertyOp9
 70
     1
102
RTVSPropertyOp10
 70
     1
102
RTVSPropertyOp11
 70
     1
102
RTVSPropertyOp12
 70
     1
102
RTVSPropertyOp13
 70
     1
102
RTVSPropertyOp14
 70
     1
102
RTVSPropertyOp15
 70
     1
102
RTVSPropertyOp16
 70
     1
102
RTVSPropertyOp17
 70
     1
102
RTVSPropertyOp18
 70
     1
102
RTVSPropertyOp19
 70
     1
102
RTVSPropertyOp20
 70
     1
102
RTVSPropertyOp21
 70
     1
102
RTVSPropertyOp22
 70
     1
102
RTVSPropertyOp23
 70
     1
102
RTVSPropertyOp24
 70
     1
102
RTVSPropertyOp25
 70
     1
102
RTVSPropertyOp26
 70
     1
102
RTVSPropertyOp27
 70
     1
102
RTVSPropertyOp28
 70
     1
102
RTVSPropertyOp29
 70
     1
102
RTVSPropertyOp30
 70
     1
102
RTVSPropertyOp31
 70
     1
102
RTVSPropertyOp32
 70
     1
102
RTVSPropertyOp33
 70
     1
102
RTVSPropertyOp34
 70
     1
102
RTVSPropertyOp35
 70
     1
102
RTVSPropertyOp36
 70
     1
102
RTVSPropertyOp37
 70
     1
102
RTVSPropertyOp38
 70
     1
102
RTVSPropertyOp39
 70
     1
102
RTVSPropertyOp40
 70
     1
102
RTVSPropertyOp41
 70
     1
102
RTVSPropertyOp42
 70
     1
102
RTVSPropertyOp43
 70
     1
102
RTVSPropertyOp44
 70
     1
102
RTVSPropertyOp45
 70
     1
102
RTVSPropertyOp46
 70
     1
102
RTVSPropertyOp47
 70
     1
102
RTVSPropertyOp48
 70
     1
102
RTVSPropertyOp49
 70
     1
102
RTVSPropertyOp50
 70
     1
102
RTVSPropertyOp51
 70
     0
102
RTVSPropertyOp52
 70
     0
102
RTVSPropertyOp53
 70
     1
102
RTVSPropertyOp54
 70
     1
102
RTVSPropertyOp55
 70
     1
102
RTVSPropertyOp56
 70
     1
102
RTVSPropertyOp57
 70
     1
102
RTVSPost2010Prop28
280
     0
102
RTVSPost2010PropOp28
 70
     1
102
RTVSPost2010Prop29
280
     1
102
RTVSPost2010PropOp29
 70
     1
102
RTVSPost2010Prop30
280
     1
102
RTVSPost2010PropOp30
 70
     1
102
RTVSPost2010Prop31
280
     0
102
RTVSPost2010PropOp31
 70
     1
102
RTVSPost2010Prop32
280
     0
102
RTVSPost2010PropOp32
 70
     1
102
RTVSPost2010Prop33
280
     0
102
RTVSPost2010PropOp33
 70
     1
102
RTVSPost2010Prop34
280
     0
102
RTVSPost2010PropOp34
 70
     1
102
RTVSPost2010Prop35
280
     0
102
RTVSPost2010PropOp35
 70
     1
102
RTVSPost2010Prop36
280
     0
102
RTVSPost2010PropOp36
 70
     1
102
RTVSPost2010Prop37
 90
       50
102
RTVSPost2010PropOp37
 70
     1
102
RTVSPost2010Prop38
140
0.0
102
RTVSPost2010PropOp38
 70
     1
102
RTVSPost2010Prop39
140
1.0
102
RTVSPost2010PropOp39
 70
     1
102
RTVSPost2010Prop40
 90
        0
102
RTVSPost2010PropOp40
 70
     1
102
RTVSPost2010Prop41ColorIndex
 90
       18
102
RTVSPost2010Prop41ColorRGB
 90
        0
102
RTVSPost2010PropOp41
 70
     1
102
RTVSPost2010Prop42
 90
       50
102
RTVSPost2010PropOp42
 70
     1
102
RTVSPost2010Prop43
 90
        3
102
RTVSPost2010PropOp43
 70
     1
102
RTVSPost2010Prop44ColorIndex
 90
        5
102
RTVSPost2010Prop44ColorRGB
 90
      255
102
RTVSPost2010PropOp44
 70
     1
102
RTVSPost2010Prop45
280
     0
102
RTVSPost2010PropOp45
 70
     1
102
RTVSPost2010Prop46
 90
       50
102
RTVSPost2010PropOp46
 70
     1
102
RTVSPost2010Prop47
 90
       50
102
RTVSPost2010PropOp47
 70
     1
102
RTVSPost2010Prop48
 90
       50
102
RTVSPost2010PropOp48
 70
     1
102
RTVSPost2010Prop49
280
     0
102
RTVSPost2010PropOp49
 70
     1
102
RTVSPost2010Prop50
 90
       50
102
RTVSPost2010PropOp50
 70
     1
102
RTVSPost2010Prop51ColorIndex
 90
      256
102
RTVSPost2010Prop51ColorRGB
 90
-16777216
102
RTVSPost2010PropOp51
 70
     0
102
RTVSPost2010Prop52
140
1.0
102
RTVSPost2010PropOp52
 70
     0
102
RTVSPost2010Prop53
 90
        2
102
RTVSPost2010PropOp53
 70
     1
102
RTVSPost2010Prop54
  1
strokes_ogs.tif
102
RTVSPost2010PropOp54
 70
     1
102
RTVSPost2010Prop55
280
     0
102
RTVSPost2010PropOp55
 70
     1
102
RTVSPost2010Prop56
140
1.0
102
RTVSPost2010PropOp56
 70
     1
102
RTVSPost2010Prop57
140
1.0
102
RTVSPost2010PropOp57
 70
     1
  0
XRECORD
  5
244
102
{ACAD_REACTORS
330
243
102
}
330
243
100
AcDbXrecord
280
     1
102
RTVSPropertyOp0
 70
     1
102
RTVSPropertyOp1
 70
     1
102
RTVSPropertyOp2
 70
     1
102
RTVSPropertyOp3
 70
     1
102
RTVSPropertyOp4
 70
     1
102
RTVSPropertyOp5
 70
     1
102
RTVSPropertyOp6
 70
     1
102
RTVSPropertyOp7
 70
     1
102
RTVSPropertyOp8
 70
     1
102
RTVSPropertyOp9
 70
     1
102
RTVSPropertyOp10
 70
     1
102
RTVSPropertyOp11
 70
     1
102
RTVSPropertyOp12
 70
     1
102
RTVSPropertyOp13
 70
     1
102
RTVSPropertyOp14
 70
     1
102
RTVSPropertyOp15
 70
     1
102
RTVSPropertyOp16
 70
     1
102
RTVSPropertyOp17
 70
     1
102
RTVSPropertyOp18
 70
     1
102
RTVSPropertyOp19
 70
     1
102
RTVSPropertyOp20
 70
     1
102
RTVSPropertyOp21
 70
     1
102
RTVSPropertyOp22
 70
     1
102
RTVSPropertyOp23
 70
     1
102
RTVSPropertyOp24
 70
     1
102
RTVSPropertyOp25
 70
     1
102
RTVSPropertyOp26
 70
     1
102
RTVSPropertyOp27
 70
     1
102
RTVSPropertyOp28
 70
     1
102
RTVSPropertyOp29
 70
     1
102
RTVSPropertyOp30
 70
     1
102
RTVSPropertyOp31
 70
     1
102
RTVSPropertyOp32
 70
     1
102
RTVSPropertyOp33
 70
     1
102
RTVSPropertyOp34
 70
     1
102
RTVSPropertyOp35
 70
     1
102
RTVSPropertyOp36
 70
     1
102
RTVSPropertyOp37
 70
     1
102
RTVSPropertyOp38
 70
     1
102
RTVSPropertyOp39
 70
     1
102
RTVSPropertyOp40
 70
     1
102
RTVSPropertyOp41
 70
     1
102
RTVSPropertyOp42
 70
     1
102
RTVSPropertyOp43
 70
     1
102
RTVSPropertyOp44
 70
     1
102
RTVSPropertyOp45
 70
     1
102
RTVSPropertyOp46
 70
     1
102
RTVSPropertyOp47
 70
     1
102
RTVSPropertyOp48
 70
     1
102
RTVSPropertyOp49
 70
     1
102
RTVSPropertyOp50
 70
     1
102
RTVSPropertyOp51
 70
     0
102
RTVSPropertyOp52
 70
     0
102
RTVSPropertyOp53
 70
     1
102
RTVSPropertyOp54
 70
     1
102
RTVSPropertyOp55
 70
     1
102
RTVSPropertyOp56
 70
     1
102
RTVSPropertyOp57
 70
     1
102
RTVSPost2010Prop28
280
     0
102
RTVSPost2010PropOp28
 70
     1
102
RTVSPost2010Prop29
280
     1
102
RTVSPost2010PropOp29
 70
     1
102
RTVSPost2010Prop30
280
     1
102
RTVSPost2010PropOp30
 70
     1
102
RTVSPost2010Prop31
280
     0
102
RTVSPost2010PropOp31
 70
     1
102
RTVSPost2010Prop32
280
     0
102
RTVSPost2010PropOp32
 70
     1
102
RTVSPost2010Prop33
280
     0
102
RTVSPost2010PropOp33
 70
     1
102
RTVSPost2010Prop34
280
     0
102
RTVSPost2010PropOp34
 70
     1
102
RTVSPost2010Prop35
280
     0
102
RTVSPost2010PropOp35
 70
     1
102
RTVSPost2010Prop36
280
     0
102
RTVSPost2010PropOp36
 70
     1
102
RTVSPost2010Prop37
 90
       50
102
RTVSPost2010PropOp37
 70
     1
102
RTVSPost2010Prop38
140
0.0
102
RTVSPost2010PropOp38
 70
     1
102
RTVSPost2010Prop39
140
1.0
102
RTVSPost2010PropOp39
 70
     1
102
RTVSPost2010Prop40
 90
        0
102
RTVSPost2010PropOp40
 70
     1
102
RTVSPost2010Prop41ColorIndex
 90
       18
102
RTVSPost2010Prop41ColorRGB
 90
        0
102
RTVSPost2010PropOp41
 70
     1
102
RTVSPost2010Prop42
 90
       50
102
RTVSPost2010PropOp42
 70
     1
102
RTVSPost2010Prop43
 90
        3
102
RTVSPost2010PropOp43
 70
     1
102
RTVSPost2010Prop44ColorIndex
 90
        5
102
RTVSPost2010Prop44ColorRGB
 90
      255
102
RTVSPost2010PropOp44
 70
     1
102
RTVSPost2010Prop45
280
     0
102
RTVSPost2010PropOp45
 70
     1
102
RTVSPost2010Prop46
 90
       50
102
RTVSPost2010PropOp46
 70
     1
102
RTVSPost2010Prop47
 90
       50
102
RTVSPost2010PropOp47
 70
     1
102
RTVSPost2010Prop48
 90
       50
102
RTVSPost2010PropOp48
 70
     1
102
RTVSPost2010Prop49
280
     0
102
RTVSPost2010PropOp49
 70
     1
102
RTVSPost2010Prop50
 90
       50
102
RTVSPost2010PropOp50
 70
     1
102
RTVSPost2010Prop51ColorIndex
 90
      256
102
RTVSPost2010Prop51ColorRGB
 90
-16777216
102
RTVSPost2010PropOp51
 70
     0
102
RTVSPost2010Prop52
140
1.0
102
RTVSPost2010PropOp52
 70
     0
102
RTVSPost2010Prop53
 90
        2
102
RTVSPost2010PropOp53
 70
     1
102
RTVSPost2010Prop54
  1
strokes_ogs.tif
102
RTVSPost2010PropOp54
 70
     1
102
RTVSPost2010Prop55
280
     0
102
RTVSPost2010PropOp55
 70
     1
102
RTVSPost2010Prop56
140
1.0
102
RTVSPost2010PropOp56
 70
     1
102
RTVSPost2010Prop57
140
1.0
102
RTVSPost2010PropOp57
 70
     1
  0
XRECORD
  5
242
102
{ACAD_REACTORS
330
241
102
}
330
241
100
AcDbXrecord
280
     1
102
RTVSPropertyOp0
 70
     1
102
RTVSPropertyOp1
 70
     1
102
RTVSPropertyOp2
 70
     1
102
RTVSPropertyOp3
 70
     1
102
RTVSPropertyOp4
 70
     1
102
RTVSPropertyOp5
 70
     1
102
RTVSPropertyOp6
 70
     1
102
RTVSPropertyOp7
 70
     1
102
RTVSPropertyOp8
 70
     1
102
RTVSPropertyOp9
 70
     1
102
RTVSPropertyOp10
 70
     1
102
RTVSPropertyOp11
 70
     1
102
RTVSPropertyOp12
 70
     1
102
RTVSPropertyOp13
 70
     1
102
RTVSPropertyOp14
 70
     1
102
RTVSPropertyOp15
 70
     1
102
RTVSPropertyOp16
 70
     1
102
RTVSPropertyOp17
 70
     1
102
RTVSPropertyOp18
 70
     1
102
RTVSPropertyOp19
 70
     1
102
RTVSPropertyOp20
 70
     1
102
RTVSPropertyOp21
 70
     1
102
RTVSPropertyOp22
 70
     1
102
RTVSPropertyOp23
 70
     1
102
RTVSPropertyOp24
 70
     1
102
RTVSPropertyOp25
 70
     1
102
RTVSPropertyOp26
 70
     1
102
RTVSPropertyOp27
 70
     1
102
RTVSPropertyOp28
 70
     1
102
RTVSPropertyOp29
 70
     1
102
RTVSPropertyOp30
 70
     1
102
RTVSPropertyOp31
 70
     1
102
RTVSPropertyOp32
 70
     1
102
RTVSPropertyOp33
 70
     1
102
RTVSPropertyOp34
 70
     1
102
RTVSPropertyOp35
 70
     1
102
RTVSPropertyOp36
 70
     1
102
RTVSPropertyOp37
 70
     1
102
RTVSPropertyOp38
 70
     1
102
RTVSPropertyOp39
 70
     1
102
RTVSPropertyOp40
 70
     1
102
RTVSPropertyOp41
 70
     1
102
RTVSPropertyOp42
 70
     1
102
RTVSPropertyOp43
 70
     1
102
RTVSPropertyOp44
 70
     1
102
RTVSPropertyOp45
 70
     1
102
RTVSPropertyOp46
 70
     1
102
RTVSPropertyOp47
 70
     1
102
RTVSPropertyOp48
 70
     1
102
RTVSPropertyOp49
 70
     1
102
RTVSPropertyOp50
 70
     1
102
RTVSPropertyOp51
 70
     0
102
RTVSPropertyOp52
 70
     0
102
RTVSPropertyOp53
 70
     1
102
RTVSPropertyOp54
 70
     1
102
RTVSPropertyOp55
 70
     1
102
RTVSPropertyOp56
 70
     1
102
RTVSPropertyOp57
 70
     1
102
RTVSPost2010Prop28
280
     0
102
RTVSPost2010PropOp28
 70
     1
102
RTVSPost2010Prop29
280
     1
102
RTVSPost2010PropOp29
 70
     1
102
RTVSPost2010Prop30
280
     1
102
RTVSPost2010PropOp30
 70
     1
102
RTVSPost2010Prop31
280
     0
102
RTVSPost2010PropOp31
 70
     1
102
RTVSPost2010Prop32
280
     0
102
RTVSPost2010PropOp32
 70
     1
102
RTVSPost2010Prop33
280
     0
102
RTVSPost2010PropOp33
 70
     1
102
RTVSPost2010Prop34
280
     0
102
RTVSPost2010PropOp34
 70
     1
102
RTVSPost2010Prop35
280
     0
102
RTVSPost2010PropOp35
 70
     1
102
RTVSPost2010Prop36
280
     0
102
RTVSPost2010PropOp36
 70
     1
102
RTVSPost2010Prop37
 90
       50
102
RTVSPost2010PropOp37
 70
     1
102
RTVSPost2010Prop38
140
0.0
102
RTVSPost2010PropOp38
 70
     1
102
RTVSPost2010Prop39
140
1.0
102
RTVSPost2010PropOp39
 70
     1
102
RTVSPost2010Prop40
 90
        0
102
RTVSPost2010PropOp40
 70
     1
102
RTVSPost2010Prop41ColorIndex
 90
       18
102
RTVSPost2010Prop41ColorRGB
 90
        0
102
RTVSPost2010PropOp41
 70
     1
102
RTVSPost2010Prop42
 90
       50
102
RTVSPost2010PropOp42
 70
     1
102
RTVSPost2010Prop43
 90
        3
102
RTVSPost2010PropOp43
 70
     1
102
RTVSPost2010Prop44ColorIndex
 90
        5
102
RTVSPost2010Prop44ColorRGB
 90
      255
102
RTVSPost2010PropOp44
 70
     1
102
RTVSPost2010Prop45
280
     0
102
RTVSPost2010PropOp45
 70
     1
102
RTVSPost2010Prop46
 90
       50
102
RTVSPost2010PropOp46
 70
     1
102
RTVSPost2010Prop47
 90
       50
102
RTVSPost2010PropOp47
 70
     1
102
RTVSPost2010Prop48
 90
       50
102
RTVSPost2010PropOp48
 70
     1
102
RTVSPost2010Prop49
280
     0
102
RTVSPost2010PropOp49
 70
     1
102
RTVSPost2010Prop50
 90
       50
102
RTVSPost2010PropOp50
 70
     1
102
RTVSPost2010Prop51ColorIndex
 90
      256
102
RTVSPost2010Prop51ColorRGB
 90
-16777216
102
RTVSPost2010PropOp51
 70
     0
102
RTVSPost2010Prop52
140
1.0
102
RTVSPost2010PropOp52
 70
     0
102
RTVSPost2010Prop53
 90
        2
102
RTVSPost2010PropOp53
 70
     1
102
RTVSPost2010Prop54
  1
strokes_ogs.tif
102
RTVSPost2010PropOp54
 70
     1
102
RTVSPost2010Prop55
280
     0
102
RTVSPost2010PropOp55
 70
     1
102
RTVSPost2010Prop56
140
1.0
102
RTVSPost2010PropOp56
 70
     1
102
RTVSPost2010Prop57
140
1.0
102
RTVSPost2010PropOp57
 70
     1
  0
XRECORD
  5
23C
102
{ACAD_REACTORS
330
23B
102
}
330
23B
100
AcDbXrecord
280
     1
102
RTVSPropertyOp0
 70
     1
102
RTVSPropertyOp1
 70
     1
102
RTVSPropertyOp2
 70
     1
102
RTVSPropertyOp3
 70
     1
102
RTVSPropertyOp4
 70
     1
102
RTVSPropertyOp5
 70
     1
102
RTVSPropertyOp6
 70
     1
102
RTVSPropertyOp7
 70
     1
102
RTVSPropertyOp8
 70
     1
102
RTVSPropertyOp9
 70
     1
102
RTVSPropertyOp10
 70
     1
102
RTVSPropertyOp11
 70
     1
102
RTVSPropertyOp12
 70
     1
102
RTVSPropertyOp13
 70
     1
102
RTVSPropertyOp14
 70
     1
102
RTVSPropertyOp15
 70
     1
102
RTVSPropertyOp16
 70
     1
102
RTVSPropertyOp17
 70
     1
102
RTVSPropertyOp18
 70
     1
102
RTVSPropertyOp19
 70
     1
102
RTVSPropertyOp20
 70
     1
102
RTVSPropertyOp21
 70
     1
102
RTVSPropertyOp22
 70
     1
102
RTVSPropertyOp23
 70
     1
102
RTVSPropertyOp24
 70
     1
102
RTVSPropertyOp25
 70
     1
102
RTVSPropertyOp26
 70
     1
102
RTVSPropertyOp27
 70
     1
102
RTVSPropertyOp28
 70
     1
102
RTVSPropertyOp29
 70
     1
102
RTVSPropertyOp30
 70
     1
102
RTVSPropertyOp31
 70
     1
102
RTVSPropertyOp32
 70
     1
102
RTVSPropertyOp33
 70
     1
102
RTVSPropertyOp34
 70
     1
102
RTVSPropertyOp35
 70
     1
102
RTVSPropertyOp36
 70
     1
102
RTVSPropertyOp37
 70
     1
102
RTVSPropertyOp38
 70
     1
102
RTVSPropertyOp39
 70
     1
102
RTVSPropertyOp40
 70
     1
102
RTVSPropertyOp41
 70
     1
102
RTVSPropertyOp42
 70
     1
102
RTVSPropertyOp43
 70
     1
102
RTVSPropertyOp44
 70
     1
102
RTVSPropertyOp45
 70
     1
102
RTVSPropertyOp46
 70
     1
102
RTVSPropertyOp47
 70
     1
102
RTVSPropertyOp48
 70
     1
102
RTVSPropertyOp49
 70
     1
102
RTVSPropertyOp50
 70
     1
102
RTVSPropertyOp51
 70
     0
102
RTVSPropertyOp52
 70
     0
102
RTVSPropertyOp53
 70
     1
102
RTVSPropertyOp54
 70
     1
102
RTVSPropertyOp55
 70
     1
102
RTVSPropertyOp56
 70
     1
102
RTVSPropertyOp57
 70
     1
102
RTVSPost2010Prop28
280
     0
102
RTVSPost2010PropOp28
 70
     1
102
RTVSPost2010Prop29
280
     1
102
RTVSPost2010PropOp29
 70
     1
102
RTVSPost2010Prop30
280
     1
102
RTVSPost2010PropOp30
 70
     1
102
RTVSPost2010Prop31
280
     0
102
RTVSPost2010PropOp31
 70
     1
102
RTVSPost2010Prop32
280
     0
102
RTVSPost2010PropOp32
 70
     1
102
RTVSPost2010Prop33
280
     0
102
RTVSPost2010PropOp33
 70
     1
102
RTVSPost2010Prop34
280
     0
102
RTVSPost2010PropOp34
 70
     1
102
RTVSPost2010Prop35
280
     0
102
RTVSPost2010PropOp35
 70
     1
102
RTVSPost2010Prop36
280
     0
102
RTVSPost2010PropOp36
 70
     1
102
RTVSPost2010Prop37
 90
       50
102
RTVSPost2010PropOp37
 70
     1
102
RTVSPost2010Prop38
140
0.0
102
RTVSPost2010PropOp38
 70
     1
102
RTVSPost2010Prop39
140
1.0
102
RTVSPost2010PropOp39
 70
     1
102
RTVSPost2010Prop40
 90
        0
102
RTVSPost2010PropOp40
 70
     1
102
RTVSPost2010Prop41ColorIndex
 90
       18
102
RTVSPost2010Prop41ColorRGB
 90
        0
102
RTVSPost2010PropOp41
 70
     1
102
RTVSPost2010Prop42
 90
       50
102
RTVSPost2010PropOp42
 70
     1
102
RTVSPost2010Prop43
 90
        3
102
RTVSPost2010PropOp43
 70
     1
102
RTVSPost2010Prop44ColorIndex
 90
        5
102
RTVSPost2010Prop44ColorRGB
 90
      255
102
RTVSPost2010PropOp44
 70
     1
102
RTVSPost2010Prop45
280
     0
102
RTVSPost2010PropOp45
 70
     1
102
RTVSPost2010Prop46
 90
       50
102
RTVSPost2010PropOp46
 70
     1
102
RTVSPost2010Prop47
 90
       50
102
RTVSPost2010PropOp47
 70
     1
102
RTVSPost2010Prop48
 90
       50
102
RTVSPost2010PropOp48
 70
     1
102
RTVSPost2010Prop49
280
     0
102
RTVSPost2010PropOp49
 70
     1
102
RTVSPost2010Prop50
 90
       50
102
RTVSPost2010PropOp50
 70
     1
102
RTVSPost2010Prop51ColorIndex
 90
      256
102
RTVSPost2010Prop51ColorRGB
 90
-16777216
102
RTVSPost2010PropOp51
 70
     0
102
RTVSPost2010Prop52
140
1.0
102
RTVSPost2010PropOp52
 70
     0
102
RTVSPost2010Prop53
 90
        2
102
RTVSPost2010PropOp53
 70
     1
102
RTVSPost2010Prop54
  1
strokes_ogs.tif
102
RTVSPost2010PropOp54
 70
     1
102
RTVSPost2010Prop55
280
     0
102
RTVSPost2010PropOp55
 70
     1
102
RTVSPost2010Prop56
140
1.0
102
RTVSPost2010PropOp56
 70
     1
102
RTVSPost2010Prop57
140
1.0
102
RTVSPost2010PropOp57
 70
     1
  0
XRECORD
  5
23E
102
{ACAD_REACTORS
330
23D
102
}
330
23D
100
AcDbXrecord
280
     1
102
RTVSPropertyOp0
 70
     1
102
RTVSPropertyOp1
 70
     1
102
RTVSPropertyOp2
 70
     1
102
RTVSPropertyOp3
 70
     1
102
RTVSPropertyOp4
 70
     1
102
RTVSPropertyOp5
 70
     1
102
RTVSPropertyOp6
 70
     1
102
RTVSPropertyOp7
 70
     1
102
RTVSPropertyOp8
 70
     1
102
RTVSPropertyOp9
 70
     1
102
RTVSPropertyOp10
 70
     1
102
RTVSPropertyOp11
 70
     1
102
RTVSPropertyOp12
 70
     1
102
RTVSPropertyOp13
 70
     1
102
RTVSPropertyOp14
 70
     1
102
RTVSPropertyOp15
 70
     1
102
RTVSPropertyOp16
 70
     1
102
RTVSPropertyOp17
 70
     1
102
RTVSPropertyOp18
 70
     1
102
RTVSPropertyOp19
 70
     1
102
RTVSPropertyOp20
 70
     1
102
RTVSPropertyOp21
 70
     1
102
RTVSPropertyOp22
 70
     1
102
RTVSPropertyOp23
 70
     1
102
RTVSPropertyOp24
 70
     1
102
RTVSPropertyOp25
 70
     1
102
RTVSPropertyOp26
 70
     1
102
RTVSPropertyOp27
 70
     1
102
RTVSPropertyOp28
 70
     1
102
RTVSPropertyOp29
 70
     1
102
RTVSPropertyOp30
 70
     1
102
RTVSPropertyOp31
 70
     1
102
RTVSPropertyOp32
 70
     1
102
RTVSPropertyOp33
 70
     1
102
RTVSPropertyOp34
 70
     1
102
RTVSPropertyOp35
 70
     1
102
RTVSPropertyOp36
 70
     1
102
RTVSPropertyOp37
 70
     1
102
RTVSPropertyOp38
 70
     1
102
RTVSPropertyOp39
 70
     1
102
RTVSPropertyOp40
 70
     1
102
RTVSPropertyOp41
 70
     1
102
RTVSPropertyOp42
 70
     1
102
RTVSPropertyOp43
 70
     1
102
RTVSPropertyOp44
 70
     1
102
RTVSPropertyOp45
 70
     1
102
RTVSPropertyOp46
 70
     1
102
RTVSPropertyOp47
 70
     1
102
RTVSPropertyOp48
 70
     1
102
RTVSPropertyOp49
 70
     1
102
RTVSPropertyOp50
 70
     1
102
RTVSPropertyOp51
 70
     0
102
RTVSPropertyOp52
 70
     0
102
RTVSPropertyOp53
 70
     1
102
RTVSPropertyOp54
 70
     1
102
RTVSPropertyOp55
 70
     1
102
RTVSPropertyOp56
 70
     1
102
RTVSPropertyOp57
 70
     1
102
RTVSPost2010Prop28
280
     0
102
RTVSPost2010PropOp28
 70
     1
102
RTVSPost2010Prop29
280
     1
102
RTVSPost2010PropOp29
 70
     1
102
RTVSPost2010Prop30
280
     1
102
RTVSPost2010PropOp30
 70
     1
102
RTVSPost2010Prop31
280
     0
102
RTVSPost2010PropOp31
 70
     1
102
RTVSPost2010Prop32
280
     0
102
RTVSPost2010PropOp32
 70
     1
102
RTVSPost2010Prop33
280
     0
102
RTVSPost2010PropOp33
 70
     1
102
RTVSPost2010Prop34
280
     0
102
RTVSPost2010PropOp34
 70
     1
102
RTVSPost2010Prop35
280
     0
102
RTVSPost2010PropOp35
 70
     1
102
RTVSPost2010Prop36
280
     0
102
RTVSPost2010PropOp36
 70
     1
102
RTVSPost2010Prop37
 90
       50
102
RTVSPost2010PropOp37
 70
     1
102
RTVSPost2010Prop38
140
0.0
102
RTVSPost2010PropOp38
 70
     1
102
RTVSPost2010Prop39
140
1.0
102
RTVSPost2010PropOp39
 70
     1
102
RTVSPost2010Prop40
 90
        0
102
RTVSPost2010PropOp40
 70
     1
102
RTVSPost2010Prop41ColorIndex
 90
       18
102
RTVSPost2010Prop41ColorRGB
 90
        0
102
RTVSPost2010PropOp41
 70
     1
102
RTVSPost2010Prop42
 90
       50
102
RTVSPost2010PropOp42
 70
     1
102
RTVSPost2010Prop43
 90
        3
102
RTVSPost2010PropOp43
 70
     1
102
RTVSPost2010Prop44ColorIndex
 90
        5
102
RTVSPost2010Prop44ColorRGB
 90
      255
102
RTVSPost2010PropOp44
 70
     1
102
RTVSPost2010Prop45
280
     0
102
RTVSPost2010PropOp45
 70
     1
102
RTVSPost2010Prop46
 90
       50
102
RTVSPost2010PropOp46
 70
     1
102
RTVSPost2010Prop47
 90
       50
102
RTVSPost2010PropOp47
 70
     1
102
RTVSPost2010Prop48
 90
       50
102
RTVSPost2010PropOp48
 70
     1
102
RTVSPost2010Prop49
280
     0
102
RTVSPost2010PropOp49
 70
     1
102
RTVSPost2010Prop50
 90
       50
102
RTVSPost2010PropOp50
 70
     1
102
RTVSPost2010Prop51ColorIndex
 90
      256
102
RTVSPost2010Prop51ColorRGB
 90
-16777216
102
RTVSPost2010PropOp51
 70
     0
102
RTVSPost2010Prop52
140
1.0
102
RTVSPost2010PropOp52
 70
     0
102
RTVSPost2010Prop53
 90
        2
102
RTVSPost2010PropOp53
 70
     1
102
RTVSPost2010Prop54
  1
strokes_ogs.tif
102
RTVSPost2010PropOp54
 70
     1
102
RTVSPost2010Prop55
280
     0
102
RTVSPost2010PropOp55
 70
     1
102
RTVSPost2010Prop56
140
1.0
102
RTVSPost2010PropOp56
 70
     1
102
RTVSPost2010Prop57
140
1.0
102
RTVSPost2010PropOp57
 70
     1
  0
XRECORD
  5
22E
102
{ACAD_REACTORS
330
22D
102
}
330
22D
100
AcDbXrecord
280
     1
102
RTVSPropertyOp0
 70
     1
102
RTVSPropertyOp1
 70
     1
102
RTVSPropertyOp2
 70
     1
102
RTVSPropertyOp3
 70
     1
102
RTVSPropertyOp4
 70
     1
102
RTVSPropertyOp5
 70
     1
102
RTVSPropertyOp6
 70
     1
102
RTVSPropertyOp7
 70
     1
102
RTVSPropertyOp8
 70
     1
102
RTVSPropertyOp9
 70
     1
102
RTVSPropertyOp10
 70
     1
102
RTVSPropertyOp11
 70
     1
102
RTVSPropertyOp12
 70
     1
102
RTVSPropertyOp13
 70
     1
102
RTVSPropertyOp14
 70
     1
102
RTVSPropertyOp15
 70
     1
102
RTVSPropertyOp16
 70
     1
102
RTVSPropertyOp17
 70
     1
102
RTVSPropertyOp18
 70
     1
102
RTVSPropertyOp19
 70
     1
102
RTVSPropertyOp20
 70
     1
102
RTVSPropertyOp21
 70
     1
102
RTVSPropertyOp22
 70
     1
102
RTVSPropertyOp23
 70
     1
102
RTVSPropertyOp24
 70
     1
102
RTVSPropertyOp25
 70
     1
102
RTVSPropertyOp26
 70
     1
102
RTVSPropertyOp27
 70
     1
102
RTVSPropertyOp28
 70
     1
102
RTVSPropertyOp29
 70
     1
102
RTVSPropertyOp30
 70
     1
102
RTVSPropertyOp31
 70
     1
102
RTVSPropertyOp32
 70
     1
102
RTVSPropertyOp33
 70
     1
102
RTVSPropertyOp34
 70
     1
102
RTVSPropertyOp35
 70
     1
102
RTVSPropertyOp36
 70
     1
102
RTVSPropertyOp37
 70
     1
102
RTVSPropertyOp38
 70
     1
102
RTVSPropertyOp39
 70
     1
102
RTVSPropertyOp40
 70
     1
102
RTVSPropertyOp41
 70
     1
102
RTVSPropertyOp42
 70
     1
102
RTVSPropertyOp43
 70
     1
102
RTVSPropertyOp44
 70
     1
102
RTVSPropertyOp45
 70
     1
102
RTVSPropertyOp46
 70
     1
102
RTVSPropertyOp47
 70
     1
102
RTVSPropertyOp48
 70
     1
102
RTVSPropertyOp49
 70
     1
102
RTVSPropertyOp50
 70
     1
102
RTVSPropertyOp51
 70
     0
102
RTVSPropertyOp52
 70
     0
102
RTVSPropertyOp53
 70
     1
102
RTVSPropertyOp54
 70
     1
102
RTVSPropertyOp55
 70
     1
102
RTVSPropertyOp56
 70
     1
102
RTVSPropertyOp57
 70
     1
102
RTVSPost2010Prop28
280
     0
102
RTVSPost2010PropOp28
 70
     1
102
RTVSPost2010Prop29
280
     1
102
RTVSPost2010PropOp29
 70
     1
102
RTVSPost2010Prop30
280
     1
102
RTVSPost2010PropOp30
 70
     1
102
RTVSPost2010Prop31
280
     0
102
RTVSPost2010PropOp31
 70
     1
102
RTVSPost2010Prop32
280
     0
102
RTVSPost2010PropOp32
 70
     1
102
RTVSPost2010Prop33
280
     0
102
RTVSPost2010PropOp33
 70
     1
102
RTVSPost2010Prop34
280
     0
102
RTVSPost2010PropOp34
 70
     1
102
RTVSPost2010Prop35
280
     0
102
RTVSPost2010PropOp35
 70
     1
102
RTVSPost2010Prop36
280
     0
102
RTVSPost2010PropOp36
 70
     1
102
RTVSPost2010Prop37
 90
       50
102
RTVSPost2010PropOp37
 70
     1
102
RTVSPost2010Prop38
140
0.0
102
RTVSPost2010PropOp38
 70
     1
102
RTVSPost2010Prop39
140
1.0
102
RTVSPost2010PropOp39
 70
     1
102
RTVSPost2010Prop40
 90
        0
102
RTVSPost2010PropOp40
 70
     1
102
RTVSPost2010Prop41ColorIndex
 90
       18
102
RTVSPost2010Prop41ColorRGB
 90
        0
102
RTVSPost2010PropOp41
 70
     1
102
RTVSPost2010Prop42
 90
       50
102
RTVSPost2010PropOp42
 70
     1
102
RTVSPost2010Prop43
 90
        3
102
RTVSPost2010PropOp43
 70
     1
102
RTVSPost2010Prop44ColorIndex
 90
        5
102
RTVSPost2010Prop44ColorRGB
 90
      255
102
RTVSPost2010PropOp44
 70
     1
102
RTVSPost2010Prop45
280
     0
102
RTVSPost2010PropOp45
 70
     1
102
RTVSPost2010Prop46
 90
       50
102
RTVSPost2010PropOp46
 70
     1
102
RTVSPost2010Prop47
 90
       50
102
RTVSPost2010PropOp47
 70
     1
102
RTVSPost2010Prop48
 90
       50
102
RTVSPost2010PropOp48
 70
     1
102
RTVSPost2010Prop49
280
     0
102
RTVSPost2010PropOp49
 70
     1
102
RTVSPost2010Prop50
 90
       50
102
RTVSPost2010PropOp50
 70
     1
102
RTVSPost2010Prop51ColorIndex
 90
      256
102
RTVSPost2010Prop51ColorRGB
 90
-16777216
102
RTVSPost2010PropOp51
 70
     0
102
RTVSPost2010Prop52
140
1.0
102
RTVSPost2010PropOp52
 70
     0
102
RTVSPost2010Prop53
 90
        2
102
RTVSPost2010PropOp53
 70
     1
102
RTVSPost2010Prop54
  1
strokes_ogs.tif
102
RTVSPost2010PropOp54
 70
     1
102
RTVSPost2010Prop55
280
     0
102
RTVSPost2010PropOp55
 70
     1
102
RTVSPost2010Prop56
140
1.0
102
RTVSPost2010PropOp56
 70
     1
102
RTVSPost2010Prop57
140
1.0
102
RTVSPost2010PropOp57
 70
     1
  0
XRECORD
  5
220
102
{ACAD_REACTORS
330
21F
102
}
330
21F
100
AcDbXrecord
280
     1
102
RTVSPropertyOp0
 70
     1
102
RTVSPropertyOp1
 70
     1
102
RTVSPropertyOp2
 70
     1
102
RTVSPropertyOp3
 70
     1
102
RTVSPropertyOp4
 70
     1
102
RTVSPropertyOp5
 70
     1
102
RTVSPropertyOp6
 70
     1
102
RTVSPropertyOp7
 70
     1
102
RTVSPropertyOp8
 70
     1
102
RTVSPropertyOp9
 70
     1
102
RTVSPropertyOp10
 70
     1
102
RTVSPropertyOp11
 70
     1
102
RTVSPropertyOp12
 70
     1
102
RTVSPropertyOp13
 70
     1
102
RTVSPropertyOp14
 70
     1
102
RTVSPropertyOp15
 70
     1
102
RTVSPropertyOp16
 70
     1
102
RTVSPropertyOp17
 70
     1
102
RTVSPropertyOp18
 70
     1
102
RTVSPropertyOp19
 70
     1
102
RTVSPropertyOp20
 70
     1
102
RTVSPropertyOp21
 70
     1
102
RTVSPropertyOp22
 70
     1
102
RTVSPropertyOp23
 70
     1
102
RTVSPropertyOp24
 70
     1
102
RTVSPropertyOp25
 70
     1
102
RTVSPropertyOp26
 70
     1
102
RTVSPropertyOp27
 70
     1
102
RTVSPropertyOp28
 70
     1
102
RTVSPropertyOp29
 70
     1
102
RTVSPropertyOp30
 70
     1
102
RTVSPropertyOp31
 70
     1
102
RTVSPropertyOp32
 70
     1
102
RTVSPropertyOp33
 70
     1
102
RTVSPropertyOp34
 70
     1
102
RTVSPropertyOp35
 70
     1
102
RTVSPropertyOp36
 70
     1
102
RTVSPropertyOp37
 70
     1
102
RTVSPropertyOp38
 70
     1
102
RTVSPropertyOp39
 70
     1
102
RTVSPropertyOp40
 70
     1
102
RTVSPropertyOp41
 70
     1
102
RTVSPropertyOp42
 70
     1
102
RTVSPropertyOp43
 70
     1
102
RTVSPropertyOp44
 70
     1
102
RTVSPropertyOp45
 70
     1
102
RTVSPropertyOp46
 70
     1
102
RTVSPropertyOp47
 70
     1
102
RTVSPropertyOp48
 70
     1
102
RTVSPropertyOp49
 70
     1
102
RTVSPropertyOp50
 70
     1
102
RTVSPropertyOp51
 70
     0
102
RTVSPropertyOp52
 70
     0
102
RTVSPropertyOp53
 70
     1
102
RTVSPropertyOp54
 70
     1
102
RTVSPropertyOp55
 70
     1
102
RTVSPropertyOp56
 70
     1
102
RTVSPropertyOp57
 70
     1
102
RTVSPost2010Prop28
280
     0
102
RTVSPost2010PropOp28
 70
     1
102
RTVSPost2010Prop29
280
     1
102
RTVSPost2010PropOp29
 70
     1
102
RTVSPost2010Prop30
280
     1
102
RTVSPost2010PropOp30
 70
     1
102
RTVSPost2010Prop31
280
     0
102
RTVSPost2010PropOp31
 70
     1
102
RTVSPost2010Prop32
280
     0
102
RTVSPost2010PropOp32
 70
     1
102
RTVSPost2010Prop33
280
     0
102
RTVSPost2010PropOp33
 70
     1
102
RTVSPost2010Prop34
280
     0
102
RTVSPost2010PropOp34
 70
     1
102
RTVSPost2010Prop35
280
     0
102
RTVSPost2010PropOp35
 70
     1
102
RTVSPost2010Prop36
280
     0
102
RTVSPost2010PropOp36
 70
     1
102
RTVSPost2010Prop37
 90
       50
102
RTVSPost2010PropOp37
 70
     1
102
RTVSPost2010Prop38
140
0.0
102
RTVSPost2010PropOp38
 70
     1
102
RTVSPost2010Prop39
140
1.0
102
RTVSPost2010PropOp39
 70
     1
102
RTVSPost2010Prop40
 90
        0
102
RTVSPost2010PropOp40
 70
     1
102
RTVSPost2010Prop41ColorIndex
 90
       18
102
RTVSPost2010Prop41ColorRGB
 90
        0
102
RTVSPost2010PropOp41
 70
     1
102
RTVSPost2010Prop42
 90
       50
102
RTVSPost2010PropOp42
 70
     1
102
RTVSPost2010Prop43
 90
        3
102
RTVSPost2010PropOp43
 70
     1
102
RTVSPost2010Prop44ColorIndex
 90
        5
102
RTVSPost2010Prop44ColorRGB
 90
      255
102
RTVSPost2010PropOp44
 70
     1
102
RTVSPost2010Prop45
280
     0
102
RTVSPost2010PropOp45
 70
     1
102
RTVSPost2010Prop46
 90
       50
102
RTVSPost2010PropOp46
 70
     1
102
RTVSPost2010Prop47
 90
       50
102
RTVSPost2010PropOp47
 70
     1
102
RTVSPost2010Prop48
 90
       50
102
RTVSPost2010PropOp48
 70
     1
102
RTVSPost2010Prop49
280
     0
102
RTVSPost2010PropOp49
 70
     1
102
RTVSPost2010Prop50
 90
       50
102
RTVSPost2010PropOp50
 70
     1
102
RTVSPost2010Prop51ColorIndex
 90
      256
102
RTVSPost2010Prop51ColorRGB
 90
-16777216
102
RTVSPost2010PropOp51
 70
     0
102
RTVSPost2010Prop52
140
1.0
102
RTVSPost2010PropOp52
 70
     0
102
RTVSPost2010Prop53
 90
        2
102
RTVSPost2010PropOp53
 70
     1
102
RTVSPost2010Prop54
  1
strokes_ogs.tif
102
RTVSPost2010PropOp54
 70
     1
102
RTVSPost2010Prop55
280
     0
102
RTVSPost2010PropOp55
 70
     1
102
RTVSPost2010Prop56
140
1.0
102
RTVSPost2010PropOp56
 70
     1
102
RTVSPost2010Prop57
140
1.0
102
RTVSPost2010PropOp57
 70
     1
  0
XRECORD
  5
240
102
{ACAD_REACTORS
330
23F
102
}
330
23F
100
AcDbXrecord
280
     1
102
RTVSPropertyOp0
 70
     1
102
RTVSPropertyOp1
 70
     1
102
RTVSPropertyOp2
 70
     1
102
RTVSPropertyOp3
 70
     1
102
RTVSPropertyOp4
 70
     1
102
RTVSPropertyOp5
 70
     1
102
RTVSPropertyOp6
 70
     1
102
RTVSPropertyOp7
 70
     1
102
RTVSPropertyOp8
 70
     1
102
RTVSPropertyOp9
 70
     1
102
RTVSPropertyOp10
 70
     1
102
RTVSPropertyOp11
 70
     1
102
RTVSPropertyOp12
 70
     1
102
RTVSPropertyOp13
 70
     1
102
RTVSPropertyOp14
 70
     1
102
RTVSPropertyOp15
 70
     1
102
RTVSPropertyOp16
 70
     1
102
RTVSPropertyOp17
 70
     1
102
RTVSPropertyOp18
 70
     1
102
RTVSPropertyOp19
 70
     1
102
RTVSPropertyOp20
 70
     1
102
RTVSPropertyOp21
 70
     1
102
RTVSPropertyOp22
 70
     1
102
RTVSPropertyOp23
 70
     1
102
RTVSPropertyOp24
 70
     1
102
RTVSPropertyOp25
 70
     1
102
RTVSPropertyOp26
 70
     1
102
RTVSPropertyOp27
 70
     1
102
RTVSPropertyOp28
 70
     1
102
RTVSPropertyOp29
 70
     1
102
RTVSPropertyOp30
 70
     1
102
RTVSPropertyOp31
 70
     1
102
RTVSPropertyOp32
 70
     1
102
RTVSPropertyOp33
 70
     1
102
RTVSPropertyOp34
 70
     1
102
RTVSPropertyOp35
 70
     1
102
RTVSPropertyOp36
 70
     1
102
RTVSPropertyOp37
 70
     1
102
RTVSPropertyOp38
 70
     1
102
RTVSPropertyOp39
 70
     1
102
RTVSPropertyOp40
 70
     1
102
RTVSPropertyOp41
 70
     1
102
RTVSPropertyOp42
 70
     1
102
RTVSPropertyOp43
 70
     1
102
RTVSPropertyOp44
 70
     1
102
RTVSPropertyOp45
 70
     1
102
RTVSPropertyOp46
 70
     1
102
RTVSPropertyOp47
 70
     1
102
RTVSPropertyOp48
 70
     1
102
RTVSPropertyOp49
 70
     1
102
RTVSPropertyOp50
 70
     1
102
RTVSPropertyOp51
 70
     0
102
RTVSPropertyOp52
 70
     0
102
RTVSPropertyOp53
 70
     1
102
RTVSPropertyOp54
 70
     1
102
RTVSPropertyOp55
 70
     1
102
RTVSPropertyOp56
 70
     1
102
RTVSPropertyOp57
 70
     1
102
RTVSPost2010Prop28
280
     0
102
RTVSPost2010PropOp28
 70
     1
102
RTVSPost2010Prop29
280
     1
102
RTVSPost2010PropOp29
 70
     1
102
RTVSPost2010Prop30
280
     1
102
RTVSPost2010PropOp30
 70
     1
102
RTVSPost2010Prop31
280
     0
102
RTVSPost2010PropOp31
 70
     1
102
RTVSPost2010Prop32
280
     0
102
RTVSPost2010PropOp32
 70
     1
102
RTVSPost2010Prop33
280
     0
102
RTVSPost2010PropOp33
 70
     1
102
RTVSPost2010Prop34
280
     0
102
RTVSPost2010PropOp34
 70
     1
102
RTVSPost2010Prop35
280
     0
102
RTVSPost2010PropOp35
 70
     1
102
RTVSPost2010Prop36
280
     0
102
RTVSPost2010PropOp36
 70
     1
102
RTVSPost2010Prop37
 90
       50
102
RTVSPost2010PropOp37
 70
     1
102
RTVSPost2010Prop38
140
0.0
102
RTVSPost2010PropOp38
 70
     1
102
RTVSPost2010Prop39
140
1.0
102
RTVSPost2010PropOp39
 70
     1
102
RTVSPost2010Prop40
 90
        0
102
RTVSPost2010PropOp40
 70
     1
102
RTVSPost2010Prop41ColorIndex
 90
       18
102
RTVSPost2010Prop41ColorRGB
 90
        0
102
RTVSPost2010PropOp41
 70
     1
102
RTVSPost2010Prop42
 90
       50
102
RTVSPost2010PropOp42
 70
     1
102
RTVSPost2010Prop43
 90
        3
102
RTVSPost2010PropOp43
 70
     1
102
RTVSPost2010Prop44ColorIndex
 90
        5
102
RTVSPost2010Prop44ColorRGB
 90
      255
102
RTVSPost2010PropOp44
 70
     1
102
RTVSPost2010Prop45
280
     0
102
RTVSPost2010PropOp45
 70
     1
102
RTVSPost2010Prop46
 90
       50
102
RTVSPost2010PropOp46
 70
     1
102
RTVSPost2010Prop47
 90
       50
102
RTVSPost2010PropOp47
 70
     1
102
RTVSPost2010Prop48
 90
       50
102
RTVSPost2010PropOp48
 70
     1
102
RTVSPost2010Prop49
280
     0
102
RTVSPost2010PropOp49
 70
     1
102
RTVSPost2010Prop50
 90
       50
102
RTVSPost2010PropOp50
 70
     1
102
RTVSPost2010Prop51ColorIndex
 90
      256
102
RTVSPost2010Prop51ColorRGB
 90
-16777216
102
RTVSPost2010PropOp51
 70
     0
102
RTVSPost2010Prop52
140
1.0
102
RTVSPost2010PropOp52
 70
     0
102
RTVSPost2010Prop53
 90
        2
102
RTVSPost2010PropOp53
 70
     1
102
RTVSPost2010Prop54
  1
strokes_ogs.tif
102
RTVSPost2010PropOp54
 70
     1
102
RTVSPost2010Prop55
280
     0
102
RTVSPost2010PropOp55
 70
     1
102
RTVSPost2010Prop56
140
1.0
102
RTVSPost2010PropOp56
 70
     1
102
RTVSPost2010Prop57
140
1.0
102
RTVSPost2010PropOp57
 70
     1
  0
ENDSEC
  0
EOF
