  0
SECTION
  2
HEADER
  9
$ACADVER
  1
AC1021
  9
$ACADMAINTVER
 70
    25
  9
$DWGCODEPAGE
  3
ANSI_1252
  9
$INSBASE
 10
0.0
 20
0.0
 30
0.0
  9
$EXTMIN
 10
0.0
 20
0.0
 30
0.0
  9
$EXTMAX
 10
420.0
 20
297.0
 30
0.0
  9
$LIMMIN
 10
0.0
 20
0.0
  9
$LIMMAX
 10
420.0
 20
297.0
  9
$ORTHOMODE
 70
     0
  9
$REGENMODE
 70
     1
  9
$FILLMODE
 70
     1
  9
$QTEXTMODE
 70
     0
  9
$MIRRTEXT
 70
     1
  9
$LTSCALE
 40
1.0
  9
$ATTMODE
 70
     1
  9
$TEXTSIZE
 40
2.5
  9
$TRACEWID
 40
1.0
  9
$TEXTSTYLE
  7
Standard
  9
$CLAYER
  8
0
  9
$CELTYPE
  6
ByLayer
  9
$CECOLOR
 62
   256
  9
$CELTSCALE
 40
1.0
  9
$DISPSILH
 70
     0
  9
$DIMSCALE
 40
1.0
  9
$DIMASZ
 40
2.5
  9
$DIMEXO
 40
0.625
  9
$DIMDLI
 40
3.75
  9
$DIMRND
 40
0.0
  9
$DIMDLE
 40
0.0
  9
$DIMEXE
 40
1.25
  9
$DIMTP
 40
0.0
  9
$DIMTM
 40
0.0
  9
$DIMTXT
 40
2.5
  9
$DIMCEN
 40
2.5
  9
$DIMTSZ
 40
0.0
  9
$DIMTOL
 70
     0
  9
$DIMLIM
 70
     0
  9
$DIMTIH
 70
     0
  9
$DIMTOH
 70
     0
  9
$DIMSE1
 70
     0
  9
$DIMSE2
 70
     0
  9
$DIMTAD
 70
     1
  9
$DIMZIN
 70
     8
  9
$DIMBLK
  1

  9
$DIMASO
 70
     1
  9
$DIMSHO
 70
     1
  9
$DIMPOST
  1

  9
$DIMAPOST
  1

  9
$DIMALT
 70
     0
  9
$DIMALTD
 70
     3
  9
$DIMALTF
 40
0.0393700787
  9
$DIMLFAC
 40
1.0
  9
$DIMTOFL
 70
     1
  9
$DIMTVP
 40
0.0
  9
$DIMTIX
 70
     0
  9
$DIMSOXD
 70
     0
  9
$DIMSAH
 70
     0
  9
$DIMBLK1
  1

  9
$DIMBLK2
  1

  9
$DIMSTYLE
  2
ISO-25
  9
$DIMCLRD
 70
     0
  9
$DIMCLRE
 70
     0
  9
$DIMCLRT
 70
     0
  9
$DIMTFAC
 40
1.0
  9
$DIMGAP
 40
0.625
  9
$DIMJUST
 70
     0
  9
$DIMSD1
 70
     0
  9
$DIMSD2
 70
     0
  9
$DIMTOLJ
 70
     0
  9
$DIMTZIN
 70
     8
  9
$DIMALTZ
 70
     0
  9
$DIMALTTZ
 70
     0
  9
$DIMUPT
 70
     0
  9
$DIMDEC
 70
     2
  9
$DIMTDEC
 70
     2
  9
$DIMALTU
 70
     2
  9
$DIMALTTD
 70
     3
  9
$DIMTXSTY
  7
Standard
  9
$DIMAUNIT
 70
     0
  9
$DIMADEC
 70
     0
  9
$DIMALTRND
 40
0.0
  9
$DIMAZIN
 70
     0
  9
$DIMDSEP
 70
    44
  9
$DIMATFIT
 70
     3
  9
$DIMFRAC
 70
     0
  9
$DIMLDRBLK
  1

  9
$DIMLUNIT
 70
     2
  9
$DIMLWD
 70
    -2
  9
$DIMLWE
 70
    -2
  9
$DIMTMOVE
 70
     0
  9
$DIMFXL
 40
1.0
  9
$DIMFXLON
 70
     0
  9
$DIMJOGANG
 40
0.7853981634
  9
$DIMTFILL
 70
     0
  9
$DIMTFILLCLR
 70
     0
  9
$DIMARCSYM
 70
     0
  9
$DIMLTYPE
  6

  9
$DIMLTEX1
  6

  9
$DIMLTEX2
  6

  9
$LUNITS
 70
     2
  9
$LUPREC
 70
     4
  9
$SKETCHINC
 40
1.0
  9
$FILLETRAD
 40
10.0
  9
$AUNITS
 70
     0
  9
$AUPREC
 70
     0
  9
$MENU
  1
.
  9
$ELEVATION
 40
0.0
  9
$PELEVATION
 40
0.0
  9
$THICKNESS
 40
0.0
  9
$LIMCHECK
 70
     0
  9
$CHAMFERA
 40
0.0
  9
$CHAMFERB
 40
0.0
  9
$CHAMFERC
 40
0.0
  9
$CHAMFERD
 40
0.0
  9
$SKPOLY
 70
     0
  9
$TDCREATE
 40
2460277.46318404
  9
$TDUCREATE
 40
2460277.421517373
  9
$TDUPDATE
 40
2460277.463184329
  9
$TDUUPDATE
 40
2460277.421517662
  9
$TDINDWG
 40
0.0000000116
  9
$TDUSRTIMER
 40
0.0000000116
  9
$USRTIMER
 70
     1
  9
$ANGBASE
 50
0.0
  9
$ANGDIR
 70
     0
  9
$PDMODE
 70
     0
  9
$PDSIZE
 40
0.0
  9
$PLINEWID
 40
0.0
  9
$SPLFRAME
 70
     0
  9
$SPLINETYPE
 70
     6
  9
$SPLINESEGS
 70
     8
  9
$HANDSEED
  5
265
  9
$SURFTAB1
 70
     6
  9
$SURFTAB2
 70
     6
  9
$SURFTYPE
 70
     6
  9
$SURFU
 70
     6
  9
$SURFV
 70
     6
  9
$UCSBASE
  2

  9
$UCSNAME
  2

  9
$UCSORG
 10
0.0
 20
0.0
 30
0.0
  9
$UCSXDIR
 10
1.0
 20
0.0
 30
0.0
  9
$UCSYDIR
 10
0.0
 20
1.0
 30
0.0
  9
$UCSORTHOREF
  2

  9
$UCSORTHOVIEW
 70
     0
  9
$UCSORGTOP
 10
0.0
 20
0.0
 30
0.0
  9
$UCSORGBOTTOM
 10
0.0
 20
0.0
 30
0.0
  9
$UCSORGLEFT
 10
0.0
 20
0.0
 30
0.0
  9
$UCSORGRIGHT
 10
0.0
 20
0.0
 30
0.0
  9
$UCSORGFRONT
 10
0.0
 20
0.0
 30
0.0
  9
$UCSORGBACK
 10
0.0
 20
0.0
 30
0.0
  9
$PUCSBASE
  2

  9
$PUCSNAME
  2

  9
$PUCSORG
 10
0.0
 20
0.0
 30
0.0
  9
$PUCSXDIR
 10
1.0
 20
0.0
 30
0.0
  9
$PUCSYDIR
 10
0.0
 20
1.0
 30
0.0
  9
$PUCSORTHOREF
  2

  9
$PUCSORTHOVIEW
 70
     0
  9
$PUCSORGTOP
 10
0.0
 20
0.0
 30
0.0
  9
$PUCSORGBOTTOM
 10
0.0
 20
0.0
 30
0.0
  9
$PUCSORGLEFT
 10
0.0
 20
0.0
 30
0.0
  9
$PUCSORGRIGHT
 10
0.0
 20
0.0
 30
0.0
  9
$PUCSORGFRONT
 10
0.0
 20
0.0
 30
0.0
  9
$PUCSORGBACK
 10
0.0
 20
0.0
 30
0.0
  9
$USERI1
 70
     0
  9
$USERI2
 70
     0
  9
$USERI3
 70
     0
  9
$USERI4
 70
     0
  9
$USERI5
 70
     0
  9
$USERR1
 40
0.0
  9
$USERR2
 40
0.0
  9
$USERR3
 40
0.0
  9
$USERR4
 40
0.0
  9
$USERR5
 40
0.0
  9
$WORLDVIEW
 70
     1
  9
$SHADEDGE
 70
     3
  9
$SHADEDIF
 70
    70
  9
$TILEMODE
 70
     1
  9
$MAXACTVP
 70
    64
  9
$PINSBASE
 10
0.0
 20
0.0
 30
0.0
  9
$PLIMCHECK
 70
     0
  9
$PEXTMIN
 10
0.0
 20
0.0
 30
0.0
  9
$PEXTMAX
 10
420.0
 20
297.0
 30
0.0
  9
$PLIMMIN
 10
0.0
 20
0.0
  9
$PLIMMAX
 10
420.0
 20
297.0
  9
$UNITMODE
 70
     0
  9
$VISRETAIN
 70
     1
  9
$PLINEGEN
 70
     0
  9
$PSLTSCALE
 70
     1
  9
$TREEDEPTH
 70
  3020
  9
$CMLSTYLE
  2
Standard
  9
$CMLJUST
 70
     0
  9
$CMLSCALE
 40
20.0
  9
$PROXYGRAPHICS
 70
     1
  9
$MEASUREMENT
 70
     1
  9
$CELWEIGHT
370
    -1
  9
$ENDCAPS
280
     0
  9
$JOINSTYLE
280
     0
  9
$LWDISPLAY
290
     0
  9
$INSUNITS
 70
     4
  9
$HYPERLINKBASE
  1

  9
$STYLESHEET
  1

  9
$XEDIT
290
     1
  9
$CEPSNTYPE
380
     0
  9
$PSTYLEMODE
290
     1
  9
$FINGERPRINTGUID
  2
{14dc6d02-352c-4d89-9b89-b2f43f1e88de}
  9
$VERSIONGUID
  2
{FAEB1C32-E019-11D5-929B-00C0DF256EC4}
  9
$EXTNAMES
290
     1
  9
$PSVPSCALE
 40
0.0
  9
$OLESTARTUP
290
     0
  9
$SORTENTS
280
   127
  9
$INDEXCTL
280
     0
  9
$HIDETEXT
280
     1
  9
$XCLIPFRAME
290
     0
  9
$HALOGAP
280
     0
  9
$OBSCOLOR
 70
   257
  9
$OBSLTYPE
280
     0
  9
$INTERSECTIONDISPLAY
280
     0
  9
$INTERSECTIONCOLOR
 70
   257
  9
$DIMASSOC
280
     2
  9
$PROJECTNAME
  1

  9
$CAMERADISPLAY
290
     0
  9
$LENSLENGTH
 40
50.0
  9
$CAMERAHEIGHT
 40
0.0
  9
$STEPSPERSEC
 40
2.0
  9
$STEPSIZE
 40
6.0
  9
$3DDWFPREC
 40
2.0
  9
$PSOLWIDTH
 40
5.0
  9
$PSOLHEIGHT
 40
80.0
  9
$LOFTANG1
 40
1.5707963268
  9
$LOFTANG2
 40
1.5707963268
  9
$LOFTMAG1
 40
0.0
  9
$LOFTMAG2
 40
0.0
  9
$LOFTPARAM
 70
     7
  9
$LOFTNORMALS
280
     1
  9
$LATITUDE
 40
37.795
  9
$LONGITUDE
 40
-122.394
  9
$NORTHDIRECTION
 40
0.0
  9
$TIMEZONE
 70
 -8000
  9
$LIGHTGLYPHDISPLAY
280
     1
  9
$TILEMODELIGHTSYNCH
280
     1
  9
$CMATERIAL
347
44
  9
$SOLIDHIST
280
     0
  9
$SHOWHIST
280
     1
  9
$DWFFRAME
280
     2
  9
$DGNFRAME
280
     2
  9
$REALWORLDSCALE
290
     1
  9
$INTERFERECOLOR
 62
   256
  9
$CSHADOW
280
     0
  9
$SHADOWPLANELOCATION
 40
0.0
  0
ENDSEC
  0
SECTION
  2
CLASSES
  0
CLASS
  1
ACDBDICTIONARYWDFLT
  2
AcDbDictionaryWithDefault
  3
ObjectDBX Classes
 90
        0
 91
        3
280
     0
281
     0
  0
CLASS
  1
VISUALSTYLE
  2
AcDbVisualStyle
  3
ObjectDBX Classes
 90
     4095
 91
        3
280
     0
281
     0
  0
CLASS
  1
MATERIAL
  2
AcDbMaterial
  3
ObjectDBX Classes
 90
     1153
 91
        3
280
     0
281
     0
  0
CLASS
  1
SCALE
  2
AcDbScale
  3
ObjectDBX Classes
 90
     1153
 91
        3
280
     0
281
     0
  0
CLASS
  1
TABLESTYLE
  2
AcDbTableStyle
  3
ObjectDBX Classes
 90
     4095
 91
        3
280
     0
281
     0
  0
CLASS
  1
MLEADERSTYLE
  2
AcDbMLeaderStyle
  3
ACDB_MLEADERSTYLE_CLASS
 90
     4095
 91
        3
280
     0
281
     0
  0
CLASS
  1
SUN
  2
AcDbSun
  3
SCENEOE
 90
     1153
 91
        3
280
     0
281
     0
  0
CLASS
  1
DICTIONARYVAR
  2
AcDbDictionaryVar
  3
ObjectDBX Classes
 90
        0
 91
        3
280
     0
281
     0
  0
CLASS
  1
CELLSTYLEMAP
  2
AcDbCellStyleMap
  3
ObjectDBX Classes
 90
     1152
 91
        3
280
     0
281
     0
  0
ENDSEC
  0
SECTION
  2
TABLES
  0
TABLE
  2
VPORT
  5
8
330
0
100
AcDbSymbolTable
 70
     1
  0
VPORT
  5
29
330
8
100
AcDbSymbolTableRecord
100
AcDbViewportTableRecord
  2
*Active
 70
     0
 10
0.0
 20
0.0
 11
1.0
 21
1.0
 12
344.1869158879
 22
148.5
 13
0.0
 23
0.0
 14
10.0
 24
10.0
 15
10.0
 25
10.0
 16
0.0
 26
0.0
 36
1.0
 17
0.0
 27
0.0
 37
0.0
 40
297.0
 41
1.9729729729
 42
50.0
 43
0.0
 44
0.0
 50
0.0
 51
0.0
 71
     0
 72
   100
 73
     1
 74
     3
 75
     0
 76
     0
 77
     0
 78
     0
281
     0
 65
     1
110
0.0
120
0.0
130
0.0
111
1.0
121
0.0
131
0.0
112
0.0
122
1.0
132
0.0
 79
     0
146
0.0
348
2F
 60
     3
 61
     5
292
     1
282
     1
141
0.0
142
0.0
 63
   250
361
6D
  0
ENDTAB
  0
TABLE
  2
LTYPE
  5
5
330
0
100
AcDbSymbolTable
 70
     1
  0
LTYPE
  5
14
330
5
100
AcDbSymbolTableRecord
100
AcDbLinetypeTableRecord
  2
ByBlock
 70
     0
  3

 72
    65
 73
     0
 40
0.0
  0
LTYPE
  5
15
330
5
100
AcDbSymbolTableRecord
100
AcDbLinetypeTableRecord
  2
ByLayer
 70
     0
  3

 72
    65
 73
     0
 40
0.0
  0
LTYPE
  5
16
330
5
100
AcDbSymbolTableRecord
100
AcDbLinetypeTableRecord
  2
Continuous
 70
     0
  3
Solid line
 72
    65
 73
     0
 40
0.0
  0
ENDTAB
  0
TABLE
  2
LAYER
  5
2
330
0
100
AcDbSymbolTable
 70
     3
  0
LAYER
  5
10
330
2
100
AcDbSymbolTableRecord
100
AcDbLayerTableRecord
  2
0
 70
     0
 62
     7
  6
Continuous
370
    -3
390
F
347
46
  0
LAYER
  5
6E
330
2
100
AcDbSymbolTableRecord
100
AcDbLayerTableRecord
  2
Default
 70
     0
 62
     7
  6
Continuous
370
    -3
390
F
347
46
  0
LAYER
  5
71
330
2
100
AcDbSymbolTableRecord
100
AcDbLayerTableRecord
  2
TA-SMART_DN25_NP
 70
     0
 62
     7
  6
Continuous
370
    -3
390
F
347
46
  0
ENDTAB
  0
TABLE
  2
STYLE
  5
3
330
0
100
AcDbSymbolTable
 70
     1
  0
STYLE
  5
11
330
3
100
AcDbSymbolTableRecord
100
AcDbTextStyleTableRecord
  2
Standard
 70
     0
 40
0.0
 41
1.0
 50
0.0
 71
     0
 42
2.5
  3
txt
  4

  0
ENDTAB
  0
TABLE
  2
VIEW
  5
6
330
0
100
AcDbSymbolTable
 70
     0
  0
ENDTAB
  0
TABLE
  2
UCS
  5
7
330
0
100
AcDbSymbolTable
 70
     0
  0
ENDTAB
  0
TABLE
  2
APPID
  5
9
330
0
100
AcDbSymbolTable
 70
     2
  0
APPID
  5
12
330
9
100
AcDbSymbolTableRecord
100
AcDbRegAppTableRecord
  2
ACAD
 70
     0
  0
APPID
  5
25B
330
9
100
AcDbSymbolTableRecord
100
AcDbRegAppTableRecord
  2
ACAD_MLEADERVER
 70
     0
  0
ENDTAB
  0
TABLE
  2
DIMSTYLE
  5
A
330
0
100
AcDbSymbolTable
 70
     1
100
AcDbDimStyleTable
  0
DIMSTYLE
105
27
330
A
100
AcDbSymbolTableRecord
100
AcDbDimStyleTableRecord
  2
ISO-25
 70
     0
 41
2.5
 42
0.625
 43
3.75
 44
1.25
 73
     0
 74
     0
 77
     1
 78
     8
140
2.5
141
2.5
143
0.0393700787
147
0.625
171
     3
172
     1
178
     0
271
     2
272
     2
274
     3
278
    44
283
     0
284
     8
340
11
  0
ENDTAB
  0
TABLE
  2
BLOCK_RECORD
  5
1
330
0
100
AcDbSymbolTable
 70
     5
  0
BLOCK_RECORD
  5
1F
330
1
100
AcDbSymbolTableRecord
100
AcDbBlockTableRecord
  2
*Model_Space
340
22
 70
     0
280
     1
281
     0
  0
BLOCK_RECORD
  5
1B
330
1
100
AcDbSymbolTableRecord
100
AcDbBlockTableRecord
  2
*Paper_Space
340
1E
 70
     0
280
     1
281
     0
  0
BLOCK_RECORD
  5
6F
330
1
100
AcDbSymbolTableRecord
100
AcDbBlockTableRecord
  2
SE
340
0
102
{BLKREFS
331
70
102
}
 70
     0
280
     1
281
     0
  0
BLOCK_RECORD
  5
DF
330
1
100
AcDbSymbolTableRecord
100
AcDbBlockTableRecord
  2
SE1
340
0
102
{BLKREFS
331
E0
102
}
 70
     0
280
     1
281
     0
  0
BLOCK_RECORD
  5
126
330
1
100
AcDbSymbolTableRecord
100
AcDbBlockTableRecord
  2
SE2
340
0
102
{BLKREFS
331
127
102
}
 70
     0
280
     1
281
     0
  0
BLOCK_RECORD
  5
188
330
1
100
AcDbSymbolTableRecord
100
AcDbBlockTableRecord
  2
SE3
340
0
102
{BLKREFS
331
189
102
}
 70
     0
280
     1
281
     0
  0
BLOCK_RECORD
  5
1CF
330
1
100
AcDbSymbolTableRecord
100
AcDbBlockTableRecord
  2
SE4
340
0
102
{BLKREFS
331
1D0
102
}
 70
     0
280
     1
281
     0
  0
ENDTAB
  0
ENDSEC
  0
SECTION
  2
BLOCKS
  0
BLOCK
  5
20
330
1F
100
AcDbEntity
  8
0
100
AcDbBlockBegin
  2
*Model_Space
 70
     0
 10
0.0
 20
0.0
 30
0.0
  3
*Model_Space
  1

  0
ENDBLK
  5
21
330
1F
100
AcDbEntity
  8
0
100
AcDbBlockEnd
  0
BLOCK
  5
1C
330
1B
100
AcDbEntity
 67
     1
  8
0
100
AcDbBlockBegin
  2
*Paper_Space
 70
     0
 10
0.0
 20
0.0
 30
0.0
  3
*Paper_Space
  1

  0
ENDBLK
  5
1D
330
1B
100
AcDbEntity
 67
     1
  8
0
100
AcDbBlockEnd
  0
BLOCK
  5
DD
330
6F
100
AcDbEntity
  8
0
100
AcDbBlockBegin
  2
SE
 70
     0
 10
0.0
 20
0.0
 30
0.0
  3
SE
  1

  0
LINE
  5
72
330
6F
100
AcDbEntity
  8
TA-SMART_DN25_NP
  6
Continuous
 62
     7
100
AcDbLine
 10
101.7039198451
 20
172.8470006466
 30
0.0
 11
101.7039198451
 21
211.3470006466
 31
0.0
  0
LINE
  5
73
330
6F
100
AcDbEntity
  8
TA-SMART_DN25_NP
  6
Continuous
 62
     7
100
AcDbLine
 10
119.7039198451
 20
168.0970006466
 30
0.0
 11
119.7039198451
 21
216.0970006466
 31
0.0
  0
LINE
  5
74
330
6F
100
AcDbEntity
  8
TA-SMART_DN25_NP
  6
Continuous
 62
     7
100
AcDbLine
 10
102.7048379894
 20
172.2520011087
 30
0.0
 11
102.7048379894
 21
173.9506328729
 31
0.0
  0
LINE
  5
75
330
6F
100
AcDbEntity
  8
TA-SMART_DN25_NP
  6
Continuous
 62
     7
100
AcDbLine
 10
102.7048379894
 20
190.3983650752
 30
0.0
 11
102.7048379894
 21
193.7956351507
 31
0.0
  0
LINE
  5
76
330
6F
100
AcDbEntity
  8
TA-SMART_DN25_NP
  6
Continuous
 62
     7
100
AcDbLine
 10
102.7048379894
 20
210.2433678151
 30
0.0
 11
102.7048379894
 21
211.9419997225
 31
0.0
  0
LINE
  5
77
330
6F
100
AcDbEntity
  8
TA-SMART_DN25_NP
  6
Continuous
 62
     7
100
AcDbLine
 10
101.920482341
 20
211.9420006467
 30
0.0
 11
102.7048379894
 21
211.9420015708
 31
0.0
  0
LINE
  5
78
330
6F
100
AcDbEntity
  8
TA-SMART_DN25_NP
  6
Continuous
 62
     7
100
AcDbLine
 10
102.7048379894
 20
211.9420015708
 30
0.0
 11
119.7039198451
 21
211.9420015708
 31
0.0
  0
LINE
  5
79
330
6F
100
AcDbEntity
  8
TA-SMART_DN25_NP
  6
Continuous
 62
     7
100
AcDbLine
 10
119.7039198451
 20
211.9419997225
 30
0.0
 11
102.7048379894
 21
211.9419997225
 31
0.0
  0
ARC
  5
7A
330
6F
100
AcDbEntity
  8
TA-SMART_DN25_NP
  6
Continuous
 62
     7
100
AcDbCircle
 10
145.7092308399
 20
202.0195014829
 30
0.0
 40
43.78367026517493
100
AcDbArc
 50
169.1738547627
 51
190.8261452373
  0
LINE
  5
7B
330
6F
100
AcDbEntity
  8
TA-SMART_DN25_NP
  6
Continuous
 62
     7
100
AcDbLine
 10
102.7048379894
 20
210.2433678151
 30
0.0
 11
119.7039198451
 21
210.2433678151
 31
0.0
  0
LINE
  5
7C
330
6F
100
AcDbEntity
  8
TA-SMART_DN25_NP
  6
Continuous
 62
     7
100
AcDbLine
 10
119.7039198451
 20
193.7956351507
 30
0.0
 11
102.7048379894
 21
193.7956351507
 31
0.0
  0
ARC
  5
7D
330
6F
100
AcDbEntity
  8
TA-SMART_DN25_NP
  6
Continuous
 62
     7
100
AcDbCircle
 10
145.7092284039
 20
182.1744989741
 30
0.0
 40
43.78366782918668
100
AcDbArc
 50
169.1738544609
 51
190.8261455391
  0
LINE
  5
7E
330
6F
100
AcDbEntity
  8
TA-SMART_DN25_NP
  6
Continuous
 62
     7
100
AcDbLine
 10
102.7048379894
 20
190.3983650752
 30
0.0
 11
119.7039198451
 21
190.3983650752
 31
0.0
  0
LINE
  5
7F
330
6F
100
AcDbEntity
  8
TA-SMART_DN25_NP
  6
Continuous
 62
     7
100
AcDbLine
 10
119.7039198451
 20
173.9506328729
 30
0.0
 11
102.7048379894
 21
173.9506328729
 31
0.0
  0
LINE
  5
80
330
6F
100
AcDbEntity
  8
TA-SMART_DN25_NP
  6
Continuous
 62
     7
100
AcDbLine
 10
101.920482341
 20
172.2520006466
 30
0.0
 11
102.7048379894
 21
172.2520011087
 31
0.0
  0
LINE
  5
81
330
6F
100
AcDbEntity
  8
TA-SMART_DN25_NP
  6
Continuous
 62
     7
100
AcDbLine
 10
102.7048379894
 20
172.2520011087
 30
0.0
 11
119.7039198451
 21
172.2520011087
 31
0.0
  0
LINE
  5
82
330
6F
100
AcDbEntity
  8
TA-SMART_DN25_NP
  6
Continuous
 62
     7
100
AcDbLine
 10
119.7039198451
 20
172.2520001845
 30
0.0
 11
102.7048379894
 21
172.2520001845
 31
0.0
  0
LINE
  5
83
330
6F
100
AcDbEntity
  8
TA-SMART_DN25_NP
  6
Continuous
 62
     7
100
AcDbLine
 10
147.7039198451
 20
168.0970006466
 30
0.0
 11
147.7039198451
 21
216.0970006466
 31
0.0
  0
LINE
  5
84
330
6F
100
AcDbEntity
  8
TA-SMART_DN25_NP
  6
Continuous
 62
     7
100
AcDbLine
 10
165.7039198451
 20
172.8470006466
 30
0.0
 11
165.7039198451
 21
211.3470006466
 31
0.0
  0
LINE
  5
85
330
6F
100
AcDbEntity
  8
TA-SMART_DN25_NP
  6
Continuous
 62
     7
100
AcDbLine
 10
164.7030017009
 20
172.2520011087
 30
0.0
 11
164.7030017009
 21
173.9506328729
 31
0.0
  0
LINE
  5
86
330
6F
100
AcDbEntity
  8
TA-SMART_DN25_NP
  6
Continuous
 62
     7
100
AcDbLine
 10
164.7030017009
 20
190.3983650752
 30
0.0
 11
164.7030017009
 21
193.7956351507
 31
0.0
  0
LINE
  5
87
330
6F
100
AcDbEntity
  8
TA-SMART_DN25_NP
  6
Continuous
 62
     7
100
AcDbLine
 10
164.7030017009
 20
210.2433678151
 30
0.0
 11
164.7030017009
 21
211.9419997225
 31
0.0
  0
LINE
  5
88
330
6F
100
AcDbEntity
  8
TA-SMART_DN25_NP
  6
Continuous
 62
     7
100
AcDbLine
 10
165.4873573493
 20
211.9420006466
 30
0.0
 11
164.7030017009
 21
211.9419997225
 31
0.0
  0
ARC
  5
89
330
6F
100
AcDbEntity
  8
TA-SMART_DN25_NP
  6
Continuous
 62
     7
100
AcDbCircle
 10
121.6986088504
 20
202.0195014829
 30
0.0
 40
43.78367026517467
100
AcDbArc
 50
349.1738547627
 51
10.8261452373
  0
ARC
  5
8A
330
6F
100
AcDbEntity
  8
TA-SMART_DN25_NP
  6
Continuous
 62
     7
100
AcDbCircle
 10
121.6986112864
 20
182.1744989741
 30
0.0
 40
43.78366782918679
100
AcDbArc
 50
349.1738544609
 51
10.8261455391
  0
LINE
  5
8B
330
6F
100
AcDbEntity
  8
TA-SMART_DN25_NP
  6
Continuous
 62
     7
100
AcDbLine
 10
165.4873573493
 20
172.2520006466
 30
0.0
 11
164.7030017009
 21
172.2520001845
 31
0.0
  0
LINE
  5
8C
330
6F
100
AcDbEntity
  8
TA-SMART_DN25_NP
  6
Continuous
 62
     7
100
AcDbLine
 10
147.7039198451
 20
172.2520011087
 30
0.0
 11
164.7030017009
 21
172.2520011087
 31
0.0
  0
LINE
  5
8D
330
6F
100
AcDbEntity
  8
TA-SMART_DN25_NP
  6
Continuous
 62
     7
100
AcDbLine
 10
164.7030017009
 20
172.2520001845
 30
0.0
 11
147.7039198451
 21
172.2520001845
 31
0.0
  0
LINE
  5
8E
330
6F
100
AcDbEntity
  8
TA-SMART_DN25_NP
  6
Continuous
 62
     7
100
AcDbLine
 10
147.7039198451
 20
190.3983650752
 30
0.0
 11
164.7030017009
 21
190.3983650752
 31
0.0
  0
LINE
  5
8F
330
6F
100
AcDbEntity
  8
TA-SMART_DN25_NP
  6
Continuous
 62
     7
100
AcDbLine
 10
164.7030017009
 20
173.9506328729
 30
0.0
 11
147.7039198451
 21
173.9506328729
 31
0.0
  0
LINE
  5
90
330
6F
100
AcDbEntity
  8
TA-SMART_DN25_NP
  6
Continuous
 62
     7
100
AcDbLine
 10
147.7039198451
 20
210.2433678151
 30
0.0
 11
164.7030017009
 21
210.2433678151
 31
0.0
  0
LINE
  5
91
330
6F
100
AcDbEntity
  8
TA-SMART_DN25_NP
  6
Continuous
 62
     7
100
AcDbLine
 10
164.7030017009
 20
193.7956351507
 30
0.0
 11
147.7039198451
 21
193.7956351507
 31
0.0
  0
LINE
  5
92
330
6F
100
AcDbEntity
  8
TA-SMART_DN25_NP
  6
Continuous
 62
     7
100
AcDbLine
 10
147.7039198451
 20
211.9420015708
 30
0.0
 11
164.7030017009
 21
211.9420015708
 31
0.0
  0
LINE
  5
93
330
6F
100
AcDbEntity
  8
TA-SMART_DN25_NP
  6
Continuous
 62
     7
100
AcDbLine
 10
164.7030017009
 20
211.9419997225
 30
0.0
 11
147.7039198451
 21
211.9419997225
 31
0.0
  0
LINE
  5
94
330
6F
100
AcDbEntity
  8
TA-SMART_DN25_NP
  6
Continuous
 62
     7
100
AcDbLine
 10
144.9539198451
 20
216.2970006466
 30
0.0
 11
138.8349528795
 21
216.2970006466
 31
0.0
  0
LINE
  5
95
330
6F
100
AcDbEntity
  8
TA-SMART_DN25_NP
  6
Continuous
 62
     7
100
AcDbLine
 10
144.9539198451
 20
216.2970006466
 30
0.0
 11
147.5039173386
 21
216.2970006466
 31
0.0
  0
LINE
  5
96
330
6F
100
AcDbEntity
  8
TA-SMART_DN25_NP
  6
Continuous
 62
     7
100
AcDbLine
 10
122.4539198451
 20
216.2970006466
 30
0.0
 11
119.9039223517
 21
216.2970006466
 31
0.0
  0
LINE
  5
97
330
6F
100
AcDbEntity
  8
TA-SMART_DN25_NP
  6
Continuous
 62
     7
100
AcDbLine
 10
122.4539198451
 20
216.2970006466
 30
0.0
 11
128.5728868107
 21
216.2970006466
 31
0.0
  0
LINE
  5
98
330
6F
100
AcDbEntity
  8
TA-SMART_DN25_NP
  6
Continuous
 62
     7
100
AcDbLine
 10
133.7039198451
 20
167.8970006466
 30
0.0
 11
133.7039198451
 21
215.4107152692
 31
0.0
  0
LINE
  5
99
330
6F
100
AcDbEntity
  8
TA-SMART_DN25_NP
  6
Continuous
 62
     7
100
AcDbLine
 10
144.9539198451
 20
167.8970006466
 30
0.0
 11
144.9539198451
 21
216.2970006466
 31
0.0
  0
LINE
  5
9A
330
6F
100
AcDbEntity
  8
TA-SMART_DN25_NP
  6
Continuous
 62
     7
100
AcDbLine
 10
134.2039198451
 20
167.8970006466
 30
0.0
 11
134.2039198451
 21
215.7848250382
 31
0.0
  0
LINE
  5
9B
330
6F
100
AcDbEntity
  8
TA-SMART_DN25_NP
  6
Continuous
 62
     7
100
AcDbLine
 10
133.7039198451
 20
167.8970006466
 30
0.0
 11
134.2039198451
 21
167.8970006466
 31
0.0
  0
LINE
  5
9C
330
6F
100
AcDbEntity
  8
TA-SMART_DN25_NP
  6
Continuous
 62
     7
100
AcDbLine
 10
144.9539198451
 20
167.8970006466
 30
0.0
 11
147.5039173386
 21
167.8970006466
 31
0.0
  0
LINE
  5
9D
330
6F
100
AcDbEntity
  8
TA-SMART_DN25_NP
  6
Continuous
 62
     7
100
AcDbLine
 10
144.9539198451
 20
167.8970006466
 30
0.0
 11
134.2039198451
 21
167.8970006466
 31
0.0
  0
LINE
  5
9E
330
6F
100
AcDbEntity
  8
TA-SMART_DN25_NP
  6
Continuous
 62
     7
100
AcDbLine
 10
133.2039198451
 20
167.8970006466
 30
0.0
 11
133.2039198451
 21
215.7848250382
 31
0.0
  0
LINE
  5
9F
330
6F
100
AcDbEntity
  8
TA-SMART_DN25_NP
  6
Continuous
 62
     7
100
AcDbLine
 10
122.4539198451
 20
167.8970006466
 30
0.0
 11
122.4539198451
 21
216.2970006466
 31
0.0
  0
LINE
  5
A0
330
6F
100
AcDbEntity
  8
TA-SMART_DN25_NP
  6
Continuous
 62
     7
100
AcDbLine
 10
122.4539198451
 20
167.8970006466
 30
0.0
 11
133.2039198451
 21
167.8970006466
 31
0.0
  0
LINE
  5
A1
330
6F
100
AcDbEntity
  8
TA-SMART_DN25_NP
  6
Continuous
 62
     7
100
AcDbLine
 10
122.4539198451
 20
167.8970006466
 30
0.0
 11
119.9039223517
 21
167.8970006466
 31
0.0
  0
LINE
  5
A2
330
6F
100
AcDbEntity
  8
TA-SMART_DN25_NP
  6
Continuous
 62
     7
100
AcDbLine
 10
133.7039198451
 20
167.8970006466
 30
0.0
 11
133.2039198451
 21
167.8970006466
 31
0.0
  0
LINE
  5
A3
330
6F
100
AcDbEntity
  8
TA-SMART_DN25_NP
  6
Continuous
 62
     7
100
AcDbLine
 10
133.2039198451
 20
215.7848250382
 30
0.0
 11
133.7039198451
 21
215.4107152692
 31
0.0
  0
ARC
  5
A4
330
6F
100
AcDbEntity
  8
TA-SMART_DN25_NP
  6
Continuous
 62
     7
100
AcDbCircle
 10
133.5396901626
 20
241.124195383
 30
0.0
 40
25.38561414896348
100
AcDbArc
 50
275.2972687642
 51
282.0399142002
  0
ARC
  5
A5
330
6F
100
AcDbEntity
  8
TA-SMART_DN25_NP
  6
Continuous
 62
     7
100
AcDbCircle
 10
133.8681495276
 20
241.1241953829
 30
0.0
 40
25.38561414883383
100
AcDbArc
 50
257.9600857998
 51
264.7027312358
  0
LINE
  5
A6
330
6F
100
AcDbEntity
  8
TA-SMART_DN25_NP
  6
Continuous
 62
     7
100
AcDbLine
 10
133.7039198451
 20
215.4107152692
 30
0.0
 11
134.2039198451
 21
215.7848250382
 31
0.0
  0
LINE
  5
A7
330
6F
100
AcDbEntity
  8
TA-SMART_DN25_NP
  6
Continuous
 62
     7
100
AcDbLine
 10
134.2039198451
 20
215.7848250382
 30
0.0
 11
135.8833693169
 21
215.8470006466
 31
0.0
  0
LINE
  5
A8
330
6F
100
AcDbEntity
  8
TA-SMART_DN25_NP
  6
Continuous
 62
     7
100
AcDbLine
 10
131.5244703734
 20
215.8470006466
 30
0.0
 11
133.2039198451
 21
215.7848250382
 31
0.0
  0
ARC
  5
A9
330
6F
100
AcDbEntity
  8
TA-SMART_DN25_NP
  6
Continuous
 62
     7
100
AcDbCircle
 10
137.6664198451
 20
204.2028483955
 30
0.0
 40
17.33045746015939
100
AcDbArc
 50
79.3187619994
 51
100.6812380006
  0
ARC
  5
AA
330
6F
100
AcDbEntity
  8
TA-SMART_DN25_NP
  6
Continuous
 62
     7
100
AcDbCircle
 10
129.7414198451
 20
204.2028483955
 30
0.0
 40
17.33045746015945
100
AcDbArc
 50
79.3187619994
 51
100.6812380006
  0
LINE
  5
AB
330
6F
100
AcDbEntity
  8
TA-SMART_DN25_NP
  6
Continuous
 62
     7
100
AcDbLine
 10
125.7789198451
 20
221.2330304124
 30
0.0
 11
125.7789198451
 21
221.5333025817
 31
0.0
  0
LINE
  5
AC
330
6F
100
AcDbEntity
  8
TA-SMART_DN25_NP
  6
Continuous
 62
     7
100
AcDbLine
 10
141.6289198451
 20
221.2330304124
 30
0.0
 11
141.6289198451
 21
221.5333045703
 31
0.0
  0
LINE
  5
AD
330
6F
100
AcDbEntity
  8
TA-SMART_DN25_NP
  6
Continuous
 62
     7
100
AcDbLine
 10
125.9539198451
 20
221.5970006466
 30
0.0
 11
141.4539198451
 21
221.5970006466
 31
0.0
  0
LINE
  5
AE
330
6F
100
AcDbEntity
  8
TA-SMART_DN25_NP
  6
Continuous
 62
     7
100
AcDbLine
 10
125.7789198451
 20
221.2330304124
 30
0.0
 11
126.5293089738
 21
221.2330304124
 31
0.0
  0
LINE
  5
AF
330
6F
100
AcDbEntity
  8
TA-SMART_DN25_NP
  6
Continuous
 62
     7
100
AcDbLine
 10
132.9535307165
 20
221.2330304124
 30
0.0
 11
134.4543089738
 21
221.2330304124
 31
0.0
  0
LINE
  5
B0
330
6F
100
AcDbEntity
  8
TA-SMART_DN25_NP
  6
Continuous
 62
     7
100
AcDbLine
 10
140.8785307165
 20
221.2330304124
 30
0.0
 11
141.6289198451
 21
221.2330304124
 31
0.0
  0
LINE
  5
B1
330
6F
100
AcDbEntity
  8
TA-SMART_DN25_NP
  6
Continuous
 62
     7
100
AcDbLine
 10
141.6289198451
 20
216.2970006466
 30
0.0
 11
141.6289198451
 21
221.2330304124
 31
0.0
  0
LINE
  5
B2
330
6F
100
AcDbEntity
  8
TA-SMART_DN25_NP
  6
Continuous
 62
     7
100
AcDbLine
 10
125.7789198451
 20
216.2970006466
 30
0.0
 11
125.7789198451
 21
221.2330304124
 31
0.0
  0
LINE
  5
B3
330
6F
100
AcDbEntity
  8
TA-SMART_DN25_NP
  6
Continuous
 62
     7
100
AcDbLine
 10
126.5293089738
 20
216.2970006466
 30
0.0
 11
126.5293089738
 21
221.2330304124
 31
0.0
  0
LINE
  5
B4
330
6F
100
AcDbEntity
  8
TA-SMART_DN25_NP
  6
Continuous
 62
     7
100
AcDbLine
 10
132.9535307165
 20
215.7940947999
 30
0.0
 11
132.9535307165
 21
221.2330304124
 31
0.0
  0
LINE
  5
B5
330
6F
100
AcDbEntity
  8
TA-SMART_DN25_NP
  6
Continuous
 62
     7
100
AcDbLine
 10
134.4543089738
 20
215.7940947999
 30
0.0
 11
134.4543089738
 21
221.2330304124
 31
0.0
  0
LINE
  5
B6
330
6F
100
AcDbEntity
  8
TA-SMART_DN25_NP
  6
Continuous
 62
     7
100
AcDbLine
 10
140.8785307165
 20
216.2970006466
 30
0.0
 11
140.8785307165
 21
221.2330304124
 31
0.0
  0
LINE
  5
B7
330
6F
100
AcDbEntity
  8
TA-SMART_DN25_NP
  6
Continuous
 62
     7
100
AcDbLine
 10
130.0501926487
 20
161.1972380999
 30
0.0
 11
129.7539198451
 21
161.1972380999
 31
0.0
  0
LINE
  5
B8
330
6F
100
AcDbEntity
  8
TA-SMART_DN25_NP
  6
Continuous
 62
     7
100
AcDbLine
 10
137.6539198451
 20
161.1972380999
 30
0.0
 11
137.3576470416
 21
161.1972380999
 31
0.0
  0
LINE
  5
B9
330
6F
100
AcDbEntity
  8
TA-SMART_DN25_NP
  6
Continuous
 62
     7
100
AcDbLine
 10
134.0001926487
 20
161.1972380999
 30
0.0
 11
133.4076470416
 21
161.1972380999
 31
0.0
  0
ARC
  5
BA
330
6F
100
AcDbEntity
  8
TA-SMART_DN25_NP
  6
Continuous
 62
     7
100
AcDbCircle
 10
131.7289198451
 20
160.7246872868
 30
0.0
 40
5.583409709998126
100
AcDbArc
 50
72.5025445036
 51
107.4974554964
  0
LINE
  5
BB
330
6F
100
AcDbEntity
  8
TA-SMART_DN25_NP
  6
Continuous
 62
     7
100
AcDbLine
 10
129.7539198451
 20
166.0497543277
 30
0.0
 11
129.7539198451
 21
166.3095607357
 31
0.0
  0
LINE
  5
BC
330
6F
100
AcDbEntity
  8
TA-SMART_DN25_NP
  6
Continuous
 62
     7
100
AcDbLine
 10
137.6539198451
 20
166.0497543277
 30
0.0
 11
137.6539198451
 21
166.3095607357
 31
0.0
  0
ARC
  5
BD
330
6F
100
AcDbEntity
  8
TA-SMART_DN25_NP
  6
Continuous
 62
     7
100
AcDbCircle
 10
135.6789198451
 20
160.724732757
 30
0.0
 40
5.583366343728517
100
AcDbArc
 50
72.5024042113
 51
107.4975957887
  0
LINE
  5
BE
330
6F
100
AcDbEntity
  8
TA-SMART_DN25_NP
  6
Continuous
 62
     7
100
AcDbLine
 10
129.8424198451
 20
166.3606574476
 30
0.0
 11
137.5654198451
 21
166.3606574476
 31
0.0
  0
LINE
  5
BF
330
6F
100
AcDbEntity
  8
TA-SMART_DN25_NP
  6
Continuous
 62
     7
100
AcDbLine
 10
129.9539198451
 20
160.9606574476
 30
0.0
 11
137.4539198451
 21
160.9606574476
 31
0.0
  0
ARC
  5
C0
330
6F
100
AcDbEntity
  8
TA-SMART_DN25_NP
  6
Continuous
 62
     7
100
AcDbCircle
 10
131.7289198451
 20
169.7183845941
 30
0.0
 40
8.68493307833181
100
AcDbArc
 50
258.8550417415
 51
281.1449582585
  0
LINE
  5
C1
330
6F
100
AcDbEntity
  8
TA-SMART_DN25_NP
  6
Continuous
 62
     7
100
AcDbLine
 10
129.7539198451
 20
161.1972380999
 30
0.0
 11
129.7539198451
 21
161.0334514945
 31
0.0
  0
LINE
  5
C2
330
6F
100
AcDbEntity
  8
TA-SMART_DN25_NP
  6
Continuous
 62
     7
100
AcDbLine
 10
137.6539198451
 20
161.1972380999
 30
0.0
 11
137.6539198451
 21
161.0334514945
 31
0.0
  0
ARC
  5
C3
330
6F
100
AcDbEntity
  8
TA-SMART_DN25_NP
  6
Continuous
 62
     7
100
AcDbCircle
 10
135.6789198451
 20
169.7183834668
 30
0.0
 40
8.684931972376301
100
AcDbArc
 50
258.8550403041
 51
281.1449596959
  0
LINE
  5
C4
330
6F
100
AcDbEntity
  8
TA-SMART_DN25_NP
  6
Continuous
 62
     7
100
AcDbLine
 10
129.7539198451
 20
166.0497543277
 30
0.0
 11
130.0501926487
 21
166.0497543277
 31
0.0
  0
LINE
  5
C5
330
6F
100
AcDbEntity
  8
TA-SMART_DN25_NP
  6
Continuous
 62
     7
100
AcDbLine
 10
130.0501926487
 20
161.1972380999
 30
0.0
 11
130.0501926487
 21
166.0497543277
 31
0.0
  0
LINE
  5
C6
330
6F
100
AcDbEntity
  8
TA-SMART_DN25_NP
  6
Continuous
 62
     7
100
AcDbLine
 10
129.7539198451
 20
166.0497543277
 30
0.0
 11
129.7539198451
 21
161.1972380999
 31
0.0
  0
LINE
  5
C7
330
6F
100
AcDbEntity
  8
TA-SMART_DN25_NP
  6
Continuous
 62
     7
100
AcDbLine
 10
137.3576470416
 20
166.0497543277
 30
0.0
 11
137.6539198451
 21
166.0497543277
 31
0.0
  0
LINE
  5
C8
330
6F
100
AcDbEntity
  8
TA-SMART_DN25_NP
  6
Continuous
 62
     7
100
AcDbLine
 10
137.6539198451
 20
161.1972380999
 30
0.0
 11
137.6539198451
 21
166.0497543277
 31
0.0
  0
LINE
  5
C9
330
6F
100
AcDbEntity
  8
TA-SMART_DN25_NP
  6
Continuous
 62
     7
100
AcDbLine
 10
137.3576470416
 20
166.0497543277
 30
0.0
 11
137.3576470416
 21
161.1972380999
 31
0.0
  0
LINE
  5
CA
330
6F
100
AcDbEntity
  8
TA-SMART_DN25_NP
  6
Continuous
 62
     7
100
AcDbLine
 10
133.4076470416
 20
166.0497543277
 30
0.0
 11
134.0001926487
 21
166.0497543277
 31
0.0
  0
LINE
  5
CB
330
6F
100
AcDbEntity
  8
TA-SMART_DN25_NP
  6
Continuous
 62
     7
100
AcDbLine
 10
133.4076470416
 20
166.0497543277
 30
0.0
 11
133.4076470416
 21
161.1972380999
 31
0.0
  0
LINE
  5
CC
330
6F
100
AcDbEntity
  8
TA-SMART_DN25_NP
  6
Continuous
 62
     7
100
AcDbLine
 10
134.0001926487
 20
161.1972380999
 30
0.0
 11
134.0001926487
 21
166.0497543277
 31
0.0
  0
LINE
  5
CD
330
6F
100
AcDbEntity
  8
TA-SMART_DN25_NP
  6
Continuous
 62
     7
100
AcDbLine
 10
101.922513953
 20
211.9475830219
 30
0.0
 11
101.7039198451
 21
211.3470006466
 31
0.0
  0
LINE
  5
CE
330
6F
100
AcDbEntity
  8
TA-SMART_DN25_NP
  6
Continuous
 62
     7
100
AcDbLine
 10
101.7039198451
 20
172.8470006466
 30
0.0
 11
101.9225139539
 21
172.2464182687
 31
0.0
  0
LINE
  5
CF
330
6F
100
AcDbEntity
  8
TA-SMART_DN25_NP
  6
Continuous
 62
     7
100
AcDbLine
 10
119.9039198451
 20
216.2970006466
 30
0.0
 11
119.7039198451
 21
216.0970006466
 31
0.0
  0
LINE
  5
D0
330
6F
100
AcDbEntity
  8
TA-SMART_DN25_NP
  6
Continuous
 62
     7
100
AcDbLine
 10
119.7039198451
 20
168.0970006466
 30
0.0
 11
119.9039198451
 21
167.8970006466
 31
0.0
  0
LINE
  5
D1
330
6F
100
AcDbEntity
  8
TA-SMART_DN25_NP
  6
Continuous
 62
     7
100
AcDbLine
 10
165.485325737
 20
172.2464182706
 30
0.0
 11
165.7039198451
 21
172.8470006466
 31
0.0
  0
LINE
  5
D2
330
6F
100
AcDbEntity
  8
TA-SMART_DN25_NP
  6
Continuous
 62
     7
100
AcDbLine
 10
165.7039198451
 20
211.3470006466
 30
0.0
 11
165.4853257361
 21
211.9475830253
 31
0.0
  0
LINE
  5
D3
330
6F
100
AcDbEntity
  8
TA-SMART_DN25_NP
  6
Continuous
 62
     7
100
AcDbLine
 10
147.5039198451
 20
167.8970006466
 30
0.0
 11
147.7039198451
 21
168.0970006466
 31
0.0
  0
LINE
  5
D4
330
6F
100
AcDbEntity
  8
TA-SMART_DN25_NP
  6
Continuous
 62
     7
100
AcDbLine
 10
147.7039198451
 20
216.0970006466
 30
0.0
 11
147.5039198451
 21
216.2970006466
 31
0.0
  0
LINE
  5
D5
330
6F
100
AcDbEntity
  8
TA-SMART_DN25_NP
  6
Continuous
 62
     7
100
AcDbLine
 10
141.6289198451
 20
221.5333058556
 30
0.0
 11
141.4539198451
 21
221.5970006466
 31
0.0
  0
LINE
  5
D6
330
6F
100
AcDbEntity
  8
TA-SMART_DN25_NP
  6
Continuous
 62
     7
100
AcDbLine
 10
125.9539198451
 20
221.5970006466
 30
0.0
 11
125.7789198451
 21
221.5333058556
 31
0.0
  0
LINE
  5
D7
330
6F
100
AcDbEntity
  8
TA-SMART_DN25_NP
  6
Continuous
 62
     7
100
AcDbLine
 10
137.6539198451
 20
166.3095619488
 30
0.0
 11
137.5654198451
 21
166.3606574476
 31
0.0
  0
LINE
  5
D8
330
6F
100
AcDbEntity
  8
TA-SMART_DN25_NP
  6
Continuous
 62
     7
100
AcDbLine
 10
129.8424198451
 20
166.3606574476
 30
0.0
 11
129.7539198451
 21
166.3095619488
 31
0.0
  0
LINE
  5
D9
330
6F
100
AcDbEntity
  8
TA-SMART_DN25_NP
  6
Continuous
 62
     7
100
AcDbLine
 10
129.8424198451
 20
167.8970006466
 30
0.0
 11
129.8424198451
 21
166.3606574476
 31
0.0
  0
LINE
  5
DA
330
6F
100
AcDbEntity
  8
TA-SMART_DN25_NP
  6
Continuous
 62
     7
100
AcDbLine
 10
137.5654198451
 20
166.3606574476
 30
0.0
 11
137.5654198451
 21
167.8970006466
 31
0.0
  0
LINE
  5
DB
330
6F
100
AcDbEntity
  8
TA-SMART_DN25_NP
  6
Continuous
 62
     7
100
AcDbLine
 10
129.7539198451
 20
161.0334514945
 30
0.0
 11
129.9539198451
 21
160.9606574476
 31
0.0
  0
LINE
  5
DC
330
6F
100
AcDbEntity
  8
TA-SMART_DN25_NP
  6
Continuous
 62
     7
100
AcDbLine
 10
137.4539198451
 20
160.9606574476
 30
0.0
 11
137.6539198451
 21
161.0334514945
 31
0.0
  0
ENDBLK
  5
DE
330
6F
100
AcDbEntity
  8
0
100
AcDbBlockEnd
  0
BLOCK
  5
124
330
DF
100
AcDbEntity
  8
0
100
AcDbBlockBegin
  2
SE1
 70
     0
 10
0.0
 20
0.0
 30
0.0
  3
SE1
  1

  0
CIRCLE
  5
E1
330
DF
100
AcDbEntity
  8
TA-SMART_DN25_NP
  6
Continuous
 62
     7
100
AcDbCircle
 10
253.0994301571
 20
192.0970006466
 30
0.0
 40
19.25
  0
ARC
  5
E2
330
DF
100
AcDbEntity
  8
TA-SMART_DN25_NP
  6
Continuous
 62
     7
100
AcDbCircle
 10
253.0994301571
 20
192.0970006466
 30
0.0
 40
22.0
100
AcDbArc
 50
115.5717450203
 51
124.4282521917
  0
CIRCLE
  5
E3
330
DF
100
AcDbEntity
  8
TA-SMART_DN25_NP
  6
Continuous
 62
     7
100
AcDbCircle
 10
253.0994301571
 20
192.0970006466
 30
0.0
 40
24.0
  0
ARC
  5
E4
330
DF
100
AcDbEntity
  8
TA-SMART_DN25_NP
  6
Continuous
 62
     7
100
AcDbCircle
 10
253.0994301571
 20
192.0970006466
 30
0.0
 40
26.75
100
AcDbArc
 50
115.2207362158
 51
244.7792637842
  0
ARC
  5
E5
330
DF
100
AcDbEntity
  8
TA-SMART_DN25_NP
  6
Continuous
 62
     7
100
AcDbCircle
 10
253.0994301571
 20
192.0970006466
 30
0.0
 40
22.0
100
AcDbArc
 50
175.5717533843
 51
184.4282438277
  0
ARC
  5
E6
330
DF
100
AcDbEntity
  8
TA-SMART_DN25_NP
  6
Continuous
 62
     7
100
AcDbCircle
 10
253.0994301571
 20
192.0970006466
 30
0.0
 40
22.0
100
AcDbArc
 50
235.5717450203
 51
244.4282521917
  0
ARC
  5
E7
330
DF
100
AcDbEntity
  8
TA-SMART_DN25_NP
  6
Continuous
 62
     7
100
AcDbCircle
 10
253.0994301571
 20
192.0970006466
 30
0.0
 40
22.0
100
AcDbArc
 50
295.5717533843
 51
304.4282438277
  0
ARC
  5
E8
330
DF
100
AcDbEntity
  8
TA-SMART_DN25_NP
  6
Continuous
 62
     7
100
AcDbCircle
 10
253.0994301571
 20
192.0970006466
 30
0.0
 40
22.0
100
AcDbArc
 50
355.5717450203
 51
4.4282521917
  0
ARC
  5
E9
330
DF
100
AcDbEntity
  8
TA-SMART_DN25_NP
  6
Continuous
 62
     7
100
AcDbCircle
 10
253.0994301571
 20
192.0970006466
 30
0.0
 40
22.0
100
AcDbArc
 50
55.5717533843
 51
64.4282438277
  0
LINE
  5
EA
330
DF
100
AcDbEntity
  8
TA-SMART_DN25_NP
  6
Continuous
 62
     7
100
AcDbLine
 10
262.5955352365
 20
211.9419997225
 30
0.0
 11
243.6033289402
 21
211.9420015708
 31
0.0
  0
LINE
  5
EB
330
DF
100
AcDbEntity
  8
TA-SMART_DN25_NP
  6
Continuous
 62
     7
100
AcDbLine
 10
275.0337557866
 20
193.7956351507
 30
0.0
 11
265.5376518381
 21
210.2433678151
 31
0.0
  0
LINE
  5
EC
330
DF
100
AcDbEntity
  8
TA-SMART_DN25_NP
  6
Continuous
 62
     7
100
AcDbLine
 10
265.5376509551
 20
173.9506328729
 30
0.0
 11
275.0337557039
 21
190.3983650752
 31
0.0
  0
LINE
  5
ED
330
DF
100
AcDbEntity
  8
TA-SMART_DN25_NP
  6
Continuous
 62
     7
100
AcDbLine
 10
243.6033279746
 20
172.2520001845
 30
0.0
 11
262.5955342708
 21
172.2520011087
 31
0.0
  0
LINE
  5
EE
330
DF
100
AcDbEntity
  8
TA-SMART_DN25_NP
  6
Continuous
 62
     7
100
AcDbLine
 10
231.1651042796
 20
190.3983693445
 30
0.0
 11
240.661205827
 21
173.9506352939
 31
0.0
  0
LINE
  5
EF
330
DF
100
AcDbEntity
  8
TA-SMART_DN25_NP
  6
Continuous
 62
     7
100
AcDbLine
 10
240.66120671
 20
210.2433666046
 30
0.0
 11
231.1651043622
 21
193.7956330161
 31
0.0
  0
CIRCLE
  5
F0
330
DF
100
AcDbEntity
  8
TA-SMART_DN25_NP
  6
Continuous
 62
     7
100
AcDbCircle
 10
253.0994301571
 20
192.0970006466
 30
0.0
 40
14.375
  0
LINE
  5
F1
330
DF
100
AcDbEntity
  8
TA-SMART_DN25_NP
  6
Continuous
 62
     7
100
AcDbLine
 10
241.7010750126
 20
216.2970006466
 30
0.0
 11
264.4977853016
 21
216.2970006466
 31
0.0
  0
ARC
  5
F2
330
DF
100
AcDbEntity
  8
TA-SMART_DN25_NP
  6
Continuous
 62
     7
100
AcDbCircle
 10
253.0994301571
 20
192.0970006466
 30
0.0
 40
26.75
100
AcDbArc
 50
295.2207362158
 51
64.7792637842
  0
LINE
  5
F3
330
DF
100
AcDbEntity
  8
TA-SMART_DN25_NP
  6
Continuous
 62
     7
100
AcDbLine
 10
264.4977853016
 20
167.8970006466
 30
0.0
 11
241.7010750126
 21
167.8970006466
 31
0.0
  0
ARC
  5
F4
330
DF
100
AcDbEntity
  8
TA-SMART_DN25_NP
  6
Continuous
 62
     7
100
AcDbCircle
 10
259.9626814821
 20
215.6563948878
 30
0.0
 40
5.876910967809756
100
AcDbArc
 50
71.6054270599
 51
108.3945729401
  0
SPLINE
  5
F5
330
DF
100
AcDbEntity
  8
TA-SMART_DN25_NP
  6
Continuous
 62
     7
100
AcDbSpline
210
0.0
220
0.0
230
1.0
 70
     8
 71
     3
 72
    12
 73
     8
 74
     0
 42
0.000000001
 43
0.0000000001
 40
0.0
 40
0.0
 40
0.0
 40
0.0
 40
0.5
 40
0.5
 40
0.75
 40
0.75
 40
1.0
 40
1.0
 40
1.0
 40
1.0
 10
256.8084563095723
 20
221.2330304123563
 30
0.0
 10
255.5857731620246
 20
221.4216694781772
 30
0.0
 10
254.3545983519804
 20
221.5326208173256
 30
0.0
 10
252.4897566013257
 20
221.5336434638597
 30
0.0
 10
251.8628469952424
 20
221.5067153709754
 30
0.0
 10
250.6203385127821
 20
221.4034971325437
 30
0.0
 10
250.0036183219962
 20
221.3276388775359
 30
0.0
 10
249.3904040045531
 20
221.2330304123563
 30
0.0
  0
ARC
  5
F6
330
DF
100
AcDbEntity
  8
TA-SMART_DN25_NP
  6
Continuous
 62
     7
100
AcDbCircle
 10
246.2361788321
 20
215.6563948878
 30
0.0
 40
5.876910967809597
100
AcDbArc
 50
71.6054270599
 51
108.3945729401
  0
LINE
  5
F7
330
DF
100
AcDbEntity
  8
TA-SMART_DN25_NP
  6
Continuous
 62
     7
100
AcDbLine
 10
245.3494301571
 20
221.5970006466
 30
0.0
 11
260.8494301571
 21
221.5970006466
 31
0.0
  0
LINE
  5
F8
330
DF
100
AcDbEntity
  8
TA-SMART_DN25_NP
  6
Continuous
 62
     7
100
AcDbLine
 10
244.3816657558
 20
221.2330304124
 30
0.0
 11
244.3494301571
 21
221.2330304124
 31
0.0
  0
LINE
  5
F9
330
DF
100
AcDbEntity
  8
TA-SMART_DN25_NP
  6
Continuous
 62
     7
100
AcDbLine
 10
248.0906919083
 20
221.2330304124
 30
0.0
 11
249.3904040046
 21
221.2330304124
 31
0.0
  0
LINE
  5
FA
330
DF
100
AcDbEntity
  8
TA-SMART_DN25_NP
  6
Continuous
 62
     7
100
AcDbLine
 10
256.8084563096
 20
221.2330304124
 30
0.0
 11
258.1081684058
 21
221.2330304124
 31
0.0
  0
LINE
  5
FB
330
DF
100
AcDbEntity
  8
TA-SMART_DN25_NP
  6
Continuous
 62
     7
100
AcDbLine
 10
261.8171945583
 20
221.2330304124
 30
0.0
 11
261.8494301571
 21
221.2330304124
 31
0.0
  0
LINE
  5
FC
330
DF
100
AcDbEntity
  8
TA-SMART_DN25_NP
  6
Continuous
 62
     7
100
AcDbLine
 10
244.3816657558
 20
216.2970006466
 30
0.0
 11
244.3816657558
 21
221.2330304124
 31
0.0
  0
LINE
  5
FD
330
DF
100
AcDbEntity
  8
TA-SMART_DN25_NP
  6
Continuous
 62
     7
100
AcDbLine
 10
248.0906919083
 20
216.2970006466
 30
0.0
 11
248.0906919083
 21
221.2330304124
 31
0.0
  0
LINE
  5
FE
330
DF
100
AcDbEntity
  8
TA-SMART_DN25_NP
  6
Continuous
 62
     7
100
AcDbLine
 10
249.3904040046
 20
216.2970006466
 30
0.0
 11
249.3904040046
 21
221.2330304124
 31
0.0
  0
LINE
  5
FF
330
DF
100
AcDbEntity
  8
TA-SMART_DN25_NP
  6
Continuous
 62
     7
100
AcDbLine
 10
256.8084563096
 20
216.2970006466
 30
0.0
 11
256.8084563096
 21
221.2330304124
 31
0.0
  0
LINE
  5
100
330
DF
100
AcDbEntity
  8
TA-SMART_DN25_NP
  6
Continuous
 62
     7
100
AcDbLine
 10
258.1081684058
 20
216.2970006466
 30
0.0
 11
258.1081684058
 21
221.2330304124
 31
0.0
  0
LINE
  5
101
330
DF
100
AcDbEntity
  8
TA-SMART_DN25_NP
  6
Continuous
 62
     7
100
AcDbLine
 10
261.8171945583
 20
216.2970006466
 30
0.0
 11
261.8171945583
 21
221.2330304124
 31
0.0
  0
LINE
  5
102
330
DF
100
AcDbEntity
  8
TA-SMART_DN25_NP
  6
Continuous
 62
     7
100
AcDbLine
 10
255.5510169033
 20
161.1972380999
 30
0.0
 11
255.0378573546
 21
161.1972380999
 31
0.0
  0
LINE
  5
103
330
DF
100
AcDbEntity
  8
TA-SMART_DN25_NP
  6
Continuous
 62
     7
100
AcDbLine
 10
251.1610029596
 20
161.1972380999
 30
0.0
 11
250.6478434109
 21
161.1972380999
 31
0.0
  0
LINE
  5
104
330
DF
100
AcDbEntity
  8
TA-SMART_DN25_NP
  6
Continuous
 62
     7
100
AcDbLine
 10
248.6994301571
 20
161.1972380999
 30
0.0
 11
248.7094162134
 21
161.1972380999
 31
0.0
  0
LINE
  5
105
330
DF
100
AcDbEntity
  8
TA-SMART_DN25_NP
  6
Continuous
 62
     7
100
AcDbLine
 10
257.4894441008
 20
161.1972380999
 30
0.0
 11
257.4994301571
 21
161.1972380999
 31
0.0
  0
ARC
  5
106
330
DF
100
AcDbEntity
  8
TA-SMART_DN25_NP
  6
Continuous
 62
     7
100
AcDbCircle
 10
256.520230502
 20
164.3548756985
 30
0.0
 40
1.952431450186748
100
AcDbArc
 50
60.2369895162
 51
119.7630104838
  0
SPLINE
  5
107
330
DF
100
AcDbEntity
  8
TA-SMART_DN25_NP
  6
Continuous
 62
     7
100
AcDbSpline
210
0.0
220
0.0
230
1.0
 70
     8
 71
     3
 72
    12
 73
     8
 74
     0
 42
0.000000001
 43
0.0000000001
 40
0.0
 40
0.0
 40
0.0
 40
0.0
 40
0.5
 40
0.5
 40
0.75
 40
0.75
 40
1.0
 40
1.0
 40
1.0
 40
1.0
 10
255.0378573545607
 20
166.0497543276564
 30
0.0
 10
254.403800659206
 20
166.2110283001662
 30
0.0
 10
253.7606740465857
 20
166.3091693921771
 30
0.0
 10
252.7749194591879
 20
166.3097564074797
 30
0.0
 10
252.4460285430793
 20
166.2856971175411
 30
0.0
 10
251.7988356264013
 20
166.1959799240681
 30
0.0
 10
251.4786470190325
 20
166.1305479218095
 30
0.0
 10
251.1610029595647
 20
166.0497543276565
 30
0.0
  0
ARC
  5
108
330
DF
100
AcDbEntity
  8
TA-SMART_DN25_NP
  6
Continuous
 62
     7
100
AcDbCircle
 10
249.6786298121
 20
164.3549001824
 30
0.0
 40
1.952410196055022
100
AcDbArc
 50
60.2366328379
 51
119.7633671621
  0
LINE
  5
109
330
DF
100
AcDbEntity
  8
TA-SMART_DN25_NP
  6
Continuous
 62
     7
100
AcDbLine
 10
256.9609301571
 20
166.3606574476
 30
0.0
 11
249.2379301571
 21
166.3606574476
 31
0.0
  0
LINE
  5
10A
330
DF
100
AcDbEntity
  8
TA-SMART_DN25_NP
  6
Continuous
 62
     7
100
AcDbLine
 10
256.8494301571
 20
160.9606574476
 30
0.0
 11
249.3494301571
 21
160.9606574476
 31
0.0
  0
ARC
  5
10B
330
DF
100
AcDbEntity
  8
TA-SMART_DN25_NP
  6
Continuous
 62
     7
100
AcDbCircle
 10
256.520230502
 20
163.9830248423
 30
0.0
 40
2.949573320683717
100
AcDbArc
 50
250.816509868
 51
289.183490132
  0
SPLINE
  5
10C
330
DF
100
AcDbEntity
  8
TA-SMART_DN25_NP
  6
Continuous
 62
     7
100
AcDbSpline
210
0.0
220
0.0
230
1.0
 70
     8
 71
     3
 72
     9
 73
     5
 74
     0
 42
0.000000001
 43
0.0000000001
 40
0.0
 40
0.0
 40
0.0
 40
0.0
 40
0.5
 40
1.0
 40
1.0
 40
1.0
 40
1.0
 10
251.1610029595647
 20
161.1972380998881
 30
0.0
 10
251.8071453587307
 20
161.0936306638839
 30
0.0
 10
253.0994301570627
 20
160.9732723250527
 30
0.0
 10
254.3917149553947
 20
161.0936306638839
 30
0.0
 10
255.0378573545607
 20
161.1972380998881
 30
0.0
  0
ARC
  5
10D
330
DF
100
AcDbEntity
  8
TA-SMART_DN25_NP
  6
Continuous
 62
     7
100
AcDbCircle
 10
249.6786298121
 20
163.9830243537
 30
0.0
 40
2.949572859265878
100
AcDbArc
 50
250.8165067496
 51
289.1834932504
  0
LINE
  5
10E
330
DF
100
AcDbEntity
  8
TA-SMART_DN25_NP
  6
Continuous
 62
     7
100
AcDbLine
 10
255.0378573546
 20
166.0497543277
 30
0.0
 11
255.5510169033
 21
166.0497543277
 31
0.0
  0
LINE
  5
10F
330
DF
100
AcDbEntity
  8
TA-SMART_DN25_NP
  6
Continuous
 62
     7
100
AcDbLine
 10
255.5510169033
 20
161.1972380999
 30
0.0
 11
255.5510169033
 21
166.0497543277
 31
0.0
  0
LINE
  5
110
330
DF
100
AcDbEntity
  8
TA-SMART_DN25_NP
  6
Continuous
 62
     7
100
AcDbLine
 10
255.0378573546
 20
166.0497543277
 30
0.0
 11
255.0378573546
 21
161.1972380999
 31
0.0
  0
LINE
  5
111
330
DF
100
AcDbEntity
  8
TA-SMART_DN25_NP
  6
Continuous
 62
     7
100
AcDbLine
 10
250.6478434109
 20
166.0497543277
 30
0.0
 11
251.1610029596
 21
166.0497543277
 31
0.0
  0
LINE
  5
112
330
DF
100
AcDbEntity
  8
TA-SMART_DN25_NP
  6
Continuous
 62
     7
100
AcDbLine
 10
251.1610029596
 20
161.1972380999
 30
0.0
 11
251.1610029596
 21
166.0497543277
 31
0.0
  0
LINE
  5
113
330
DF
100
AcDbEntity
  8
TA-SMART_DN25_NP
  6
Continuous
 62
     7
100
AcDbLine
 10
250.6478434109
 20
166.0497543277
 30
0.0
 11
250.6478434109
 21
161.1972380999
 31
0.0
  0
LINE
  5
114
330
DF
100
AcDbEntity
  8
TA-SMART_DN25_NP
  6
Continuous
 62
     7
100
AcDbLine
 10
248.7094162134
 20
166.0497543277
 30
0.0
 11
248.6994301571
 21
166.0497543277
 31
0.0
  0
LINE
  5
115
330
DF
100
AcDbEntity
  8
TA-SMART_DN25_NP
  6
Continuous
 62
     7
100
AcDbLine
 10
248.7094162134
 20
161.1972380999
 30
0.0
 11
248.7094162134
 21
166.0497543277
 31
0.0
  0
LINE
  5
116
330
DF
100
AcDbEntity
  8
TA-SMART_DN25_NP
  6
Continuous
 62
     7
100
AcDbLine
 10
257.4894441008
 20
166.0497543277
 30
0.0
 11
257.4994301571
 21
166.0497543277
 31
0.0
  0
LINE
  5
117
330
DF
100
AcDbEntity
  8
TA-SMART_DN25_NP
  6
Continuous
 62
     7
100
AcDbLine
 10
257.4894441008
 20
166.0497543277
 30
0.0
 11
257.4894441008
 21
161.1972380999
 31
0.0
  0
LINE
  5
118
330
DF
100
AcDbEntity
  8
TA-SMART_DN25_NP
  6
Continuous
 62
     7
100
AcDbLine
 10
261.8494301571
 20
216.2970006466
 30
0.0
 11
261.8494301571
 21
221.2330304124
 31
0.0
  0
LINE
  5
119
330
DF
100
AcDbEntity
  8
TA-SMART_DN25_NP
  6
Continuous
 62
     7
100
AcDbLine
 10
261.8494301571
 20
221.2330304124
 30
0.0
 11
260.8494301571
 21
221.5970006466
 31
0.0
  0
LINE
  5
11A
330
DF
100
AcDbEntity
  8
TA-SMART_DN25_NP
  6
Continuous
 62
     7
100
AcDbLine
 10
245.3494301571
 20
221.5970006466
 30
0.0
 11
244.3494301571
 21
221.2330304124
 31
0.0
  0
LINE
  5
11B
330
DF
100
AcDbEntity
  8
TA-SMART_DN25_NP
  6
Continuous
 62
     7
100
AcDbLine
 10
244.3494301571
 20
221.2330304124
 30
0.0
 11
244.3494301571
 21
216.2970006466
 31
0.0
  0
LINE
  5
11C
330
DF
100
AcDbEntity
  8
TA-SMART_DN25_NP
  6
Continuous
 62
     7
100
AcDbLine
 10
257.4994301571
 20
166.0497543277
 30
0.0
 11
256.9609301571
 21
166.3606574476
 31
0.0
  0
LINE
  5
11D
330
DF
100
AcDbEntity
  8
TA-SMART_DN25_NP
  6
Continuous
 62
     7
100
AcDbLine
 10
249.2379301571
 20
166.3606574476
 30
0.0
 11
248.6994301571
 21
166.0497543277
 31
0.0
  0
LINE
  5
11E
330
DF
100
AcDbEntity
  8
TA-SMART_DN25_NP
  6
Continuous
 62
     7
100
AcDbLine
 10
249.2379301571
 20
167.8970006466
 30
0.0
 11
249.2379301571
 21
166.3606574476
 31
0.0
  0
LINE
  5
11F
330
DF
100
AcDbEntity
  8
TA-SMART_DN25_NP
  6
Continuous
 62
     7
100
AcDbLine
 10
256.9609301571
 20
166.3606574476
 30
0.0
 11
256.9609301571
 21
167.8970006466
 31
0.0
  0
LINE
  5
120
330
DF
100
AcDbEntity
  8
TA-SMART_DN25_NP
  6
Continuous
 62
     7
100
AcDbLine
 10
248.6994301571
 20
161.1972380999
 30
0.0
 11
249.3494301571
 21
160.9606574476
 31
0.0
  0
LINE
  5
121
330
DF
100
AcDbEntity
  8
TA-SMART_DN25_NP
  6
Continuous
 62
     7
100
AcDbLine
 10
256.8494301571
 20
160.9606574476
 30
0.0
 11
257.4994301571
 21
161.1972380999
 31
0.0
  0
LINE
  5
122
330
DF
100
AcDbEntity
  8
TA-SMART_DN25_NP
  6
Continuous
 62
     7
100
AcDbLine
 10
248.6994301571
 20
166.0497543277
 30
0.0
 11
248.6994301571
 21
161.1972380999
 31
0.0
  0
LINE
  5
123
330
DF
100
AcDbEntity
  8
TA-SMART_DN25_NP
  6
Continuous
 62
     7
100
AcDbLine
 10
257.4994301571
 20
161.1972380999
 30
0.0
 11
257.4994301571
 21
166.0497543277
 31
0.0
  0
ENDBLK
  5
125
330
DF
100
AcDbEntity
  8
0
100
AcDbBlockEnd
  0
BLOCK
  5
186
330
126
100
AcDbEntity
  8
0
100
AcDbBlockBegin
  2
SE2
 70
     0
 10
0.0
 20
0.0
 30
0.0
  3
SE2
  1

  0
LINE
  5
128
330
126
100
AcDbEntity
  8
TA-SMART_DN25_NP
  6
Continuous
 62
     7
100
AcDbLine
 10
101.7039198451
 20
115.4760926823
 30
0.0
 11
101.7039198451
 21
76.9760926823
 31
0.0
  0
LINE
  5
129
330
126
100
AcDbEntity
  8
TA-SMART_DN25_NP
  6
Continuous
 62
     7
100
AcDbLine
 10
102.7048379894
 20
105.7221938991
 30
0.0
 11
102.7048379894
 21
108.6643161293
 31
0.0
  0
LINE
  5
12A
330
126
100
AcDbEntity
  8
TA-SMART_DN25_NP
  6
Continuous
 62
     7
100
AcDbLine
 10
119.7039198451
 20
120.2260926823
 30
0.0
 11
119.7039198451
 21
72.2260926823
 31
0.0
  0
LINE
  5
12B
330
126
100
AcDbEntity
  8
TA-SMART_DN25_NP
  6
Continuous
 62
     7
100
AcDbLine
 10
122.4539198451
 20
122.9760926823
 30
0.0
 11
122.4539198451
 21
107.6244478268
 31
0.0
  0
LINE
  5
12C
330
126
100
AcDbEntity
  8
TA-SMART_DN25_NP
  6
Continuous
 62
     7
100
AcDbLine
 10
102.7048379894
 20
118.1604184771
 30
0.0
 11
102.7048379894
 21
118.2260926823
 31
0.0
  0
LINE
  5
12D
330
126
100
AcDbEntity
  8
TA-SMART_DN25_NP
  6
Continuous
 62
     7
100
AcDbLine
 10
102.7048379894
 20
74.2917671354
 30
0.0
 11
102.7048379894
 21
74.2260926823
 31
0.0
  0
LINE
  5
12E
330
126
100
AcDbEntity
  8
TA-SMART_DN25_NP
  6
Continuous
 62
     7
100
AcDbLine
 10
102.7048379894
 20
83.7878710012
 30
0.0
 11
102.7048379894
 21
86.7299876028
 31
0.0
  0
ARC
  5
12F
330
126
100
AcDbEntity
  8
TA-SMART_DN25_NP
  6
Continuous
 62
     7
100
AcDbCircle
 10
160.0843228521
 20
96.226090751
 30
0.0
 40
58.15996267288028
100
AcDbArc
 50
170.6029244593
 51
189.3970755407
  0
LINE
  5
130
330
126
100
AcDbEntity
  8
TA-SMART_DN25_NP
  6
Continuous
 62
     7
100
AcDbLine
 10
102.7048379894
 20
105.7221938991
 30
0.0
 11
119.7039198451
 21
105.7221938991
 31
0.0
  0
LINE
  5
131
330
126
100
AcDbEntity
  8
TA-SMART_DN25_NP
  6
Continuous
 62
     7
100
AcDbLine
 10
119.7039198451
 20
86.7299876028
 30
0.0
 11
102.7048379894
 21
86.7299876028
 31
0.0
  0
ARC
  5
132
330
126
100
AcDbEntity
  8
TA-SMART_DN25_NP
  6
Continuous
 62
     7
100
AcDbCircle
 10
116.8065590993
 20
79.039819027
 30
0.0
 40
14.87960133246091
100
AcDbArc
 50
161.3916116226
 51
198.6083883774
  0
LINE
  5
133
330
126
100
AcDbEntity
  8
TA-SMART_DN25_NP
  6
Continuous
 62
     7
100
AcDbLine
 10
102.7048379894
 20
83.7878710012
 30
0.0
 11
119.7039198451
 21
83.7878710012
 31
0.0
  0
LINE
  5
134
330
126
100
AcDbEntity
  8
TA-SMART_DN25_NP
  6
Continuous
 62
     7
100
AcDbLine
 10
119.7039198451
 20
74.2917670528
 30
0.0
 11
102.7048379894
 21
74.2917670528
 31
0.0
  0
ARC
  5
135
330
126
100
AcDbEntity
  8
TA-SMART_DN25_NP
  6
Continuous
 62
     7
100
AcDbCircle
 10
116.8065542274
 20
113.4123673032
 30
0.0
 40
14.87959645987207
100
AcDbArc
 50
161.3916085571
 51
198.6083914429
  0
LINE
  5
136
330
126
100
AcDbEntity
  8
TA-SMART_DN25_NP
  6
Continuous
 62
     7
100
AcDbLine
 10
102.7048379894
 20
118.1604184771
 30
0.0
 11
119.7039198451
 21
118.1604184771
 31
0.0
  0
LINE
  5
137
330
126
100
AcDbEntity
  8
TA-SMART_DN25_NP
  6
Continuous
 62
     7
100
AcDbLine
 10
119.7039198451
 20
108.6643161293
 30
0.0
 11
102.7048379894
 21
108.6643161293
 31
0.0
  0
LINE
  5
138
330
126
100
AcDbEntity
  8
TA-SMART_DN25_NP
  6
Continuous
 62
     7
100
AcDbLine
 10
144.9539198451
 20
122.9760926823
 30
0.0
 11
144.9539198451
 21
107.6244478268
 31
0.0
  0
LINE
  5
139
330
126
100
AcDbEntity
  8
TA-SMART_DN25_NP
  6
Continuous
 62
     7
100
AcDbLine
 10
147.7039198451
 20
120.2260926823
 30
0.0
 11
147.7039198451
 21
72.2260926823
 31
0.0
  0
LINE
  5
13A
330
126
100
AcDbEntity
  8
TA-SMART_DN25_NP
  6
Continuous
 62
     7
100
AcDbLine
 10
164.7030017009
 20
105.7221938991
 30
0.0
 11
164.7030017009
 21
108.6643161293
 31
0.0
  0
LINE
  5
13B
330
126
100
AcDbEntity
  8
TA-SMART_DN25_NP
  6
Continuous
 62
     7
100
AcDbLine
 10
165.7039198451
 20
115.4760926823
 30
0.0
 11
165.7039198451
 21
76.9760926823
 31
0.0
  0
LINE
  5
13C
330
126
100
AcDbEntity
  8
TA-SMART_DN25_NP
  6
Continuous
 62
     7
100
AcDbLine
 10
164.7030017009
 20
118.1604184771
 30
0.0
 11
164.7030017009
 21
118.2260926823
 31
0.0
  0
LINE
  5
13D
330
126
100
AcDbEntity
  8
TA-SMART_DN25_NP
  6
Continuous
 62
     7
100
AcDbLine
 10
164.7030017009
 20
74.2917671354
 30
0.0
 11
164.7030017009
 21
74.2260926823
 31
0.0
  0
LINE
  5
13E
330
126
100
AcDbEntity
  8
TA-SMART_DN25_NP
  6
Continuous
 62
     7
100
AcDbLine
 10
164.7030017009
 20
83.7878710012
 30
0.0
 11
164.7030017009
 21
86.7299876028
 31
0.0
  0
ARC
  5
13F
330
126
100
AcDbEntity
  8
TA-SMART_DN25_NP
  6
Continuous
 62
     7
100
AcDbCircle
 10
107.3235168398
 20
96.226090751
 30
0.0
 40
58.15996267132105
100
AcDbArc
 50
350.602924459
 51
9.397075541
  0
ARC
  5
140
330
126
100
AcDbEntity
  8
TA-SMART_DN25_NP
  6
Continuous
 62
     7
100
AcDbCircle
 10
150.6012805909
 20
79.039819027
 30
0.0
 40
14.87960133246082
100
AcDbArc
 50
341.3916116226
 51
18.6083883774
  0
ARC
  5
141
330
126
100
AcDbEntity
  8
TA-SMART_DN25_NP
  6
Continuous
 62
     7
100
AcDbCircle
 10
150.6012854628
 20
113.4123673032
 30
0.0
 40
14.8795964598721
100
AcDbArc
 50
341.3916085571
 51
18.6083914429
  0
LINE
  5
142
330
126
100
AcDbEntity
  8
TA-SMART_DN25_NP
  6
Continuous
 62
     7
100
AcDbLine
 10
147.7039198451
 20
118.1604184771
 30
0.0
 11
164.7030017009
 21
118.1604184771
 31
0.0
  0
LINE
  5
143
330
126
100
AcDbEntity
  8
TA-SMART_DN25_NP
  6
Continuous
 62
     7
100
AcDbLine
 10
164.7030017009
 20
108.6643161293
 30
0.0
 11
147.7039198451
 21
108.6643161293
 31
0.0
  0
LINE
  5
144
330
126
100
AcDbEntity
  8
TA-SMART_DN25_NP
  6
Continuous
 62
     7
100
AcDbLine
 10
147.7039198451
 20
83.7878710012
 30
0.0
 11
164.7030017009
 21
83.7878710012
 31
0.0
  0
LINE
  5
145
330
126
100
AcDbEntity
  8
TA-SMART_DN25_NP
  6
Continuous
 62
     7
100
AcDbLine
 10
164.7030017009
 20
74.2917670528
 30
0.0
 11
147.7039198451
 21
74.2917670528
 31
0.0
  0
LINE
  5
146
330
126
100
AcDbEntity
  8
TA-SMART_DN25_NP
  6
Continuous
 62
     7
100
AcDbLine
 10
147.7039198451
 20
105.7221938991
 30
0.0
 11
164.7030017009
 21
105.7221938991
 31
0.0
  0
LINE
  5
147
330
126
100
AcDbEntity
  8
TA-SMART_DN25_NP
  6
Continuous
 62
     7
100
AcDbLine
 10
164.7030017009
 20
86.7299876028
 30
0.0
 11
147.7039198451
 21
86.7299876028
 31
0.0
  0
LINE
  5
148
330
126
100
AcDbEntity
  8
TA-SMART_DN25_NP
  6
Continuous
 62
     7
100
AcDbLine
 10
144.9539198451
 20
84.8277375378
 30
0.0
 11
138.8349528795
 21
84.8277375378
 31
0.0
  0
SPLINE
  5
149
330
126
100
AcDbEntity
  8
TA-SMART_DN25_NP
  6
Continuous
 62
     7
100
AcDbSpline
210
0.0
220
0.0
230
1.0
 70
     8
 71
     3
 72
    14
 73
    10
 74
     0
 42
0.000000001
 43
0.0000000001
 40
0.0
 40
0.0
 40
0.0
 40
0.0
 40
0.25
 40
0.25
 40
0.5
 40
0.5
 40
0.75
 40
0.75
 40
1.0
 40
1.0
 40
1.0
 40
1.0
 10
144.9539198451355
 20
107.624447826777
 30
0.0
 10
145.720272487901
 20
105.8259485754282
 30
0.0
 10
146.3683894855685
 20
103.9520762737207
 30
0.0
 10
147.2604032838107
 20
100.1359808825233
 30
0.0
 10
147.5030230478949
 20
98.20197163454439
 30
0.0
 10
147.5048116292617
 20
94.2722425634495
 30
0.0
 10
147.2581913154792
 20
92.30543383202807
 30
0.0
 10
146.3686198276921
 20
88.5024051272161
 30
0.0
 10
145.7211547719552
 20
86.62830735968598
 30
0.0
 10
144.9539198451355
 20
84.82773753779004
 30
0.0
  0
LINE
  5
14A
330
126
100
AcDbEntity
  8
TA-SMART_DN25_NP
  6
Continuous
 62
     7
100
AcDbLine
 10
122.4539198451
 20
107.6244478268
 30
0.0
 11
128.5728868107
 21
107.6244478268
 31
0.0
  0
SPLINE
  5
14B
330
126
100
AcDbEntity
  8
TA-SMART_DN25_NP
  6
Continuous
 62
     7
100
AcDbSpline
210
0.0
220
0.0
230
1.0
 70
     8
 71
     3
 72
    14
 73
    10
 74
     0
 42
0.000000001
 43
0.0000000001
 40
0.0
 40
0.0
 40
0.0
 40
0.0
 40
0.2500000000000001
 40
0.2500000000000001
 40
0.5000000000000001
 40
0.5000000000000001
 40
0.75
 40
0.75
 40
1.0
 40
1.0
 40
1.0
 40
1.0
 10
122.4539198451355
 20
107.624447826777
 30
0.0
 10
121.6875672023699
 20
105.8259485754282
 30
0.0
 10
121.0394502047024
 20
103.9520762737207
 30
0.0
 10
120.1474364064602
 20
100.1359808825233
 30
0.0
 10
119.9048166423761
 20
98.20197163454439
 30
0.0
 10
119.9030280610093
 20
94.2722425634495
 30
0.0
 10
120.1496483747917
 20
92.30543383202806
 30
0.0
 10
121.0392198625789
 20
88.50240512721608
 30
0.0
 10
121.6866849183158
 20
86.62830735968596
 30
0.0
 10
122.4539198451355
 20
84.82773753779004
 30
0.0
  0
LINE
  5
14C
330
126
100
AcDbEntity
  8
TA-SMART_DN25_NP
  6
Continuous
 62
     7
100
AcDbLine
 10
122.4539198451
 20
84.8277375378
 30
0.0
 11
128.5728868107
 21
84.8277375378
 31
0.0
  0
LINE
  5
14D
330
126
100
AcDbEntity
  8
TA-SMART_DN25_NP
  6
Continuous
 62
     7
100
AcDbLine
 10
133.7039198451
 20
84.1623780597
 30
0.0
 11
133.7039198451
 21
69.9760926823
 31
0.0
  0
LINE
  5
14E
330
126
100
AcDbEntity
  8
TA-SMART_DN25_NP
  6
Continuous
 62
     7
100
AcDbLine
 10
144.9539198451
 20
69.4760926823
 30
0.0
 11
144.9539198451
 21
84.8277375378
 31
0.0
  0
LINE
  5
14F
330
126
100
AcDbEntity
  8
TA-SMART_DN25_NP
  6
Continuous
 62
     7
100
AcDbLine
 10
134.2039198451
 20
83.7983223434
 30
0.0
 11
134.2039198451
 21
69.4760926823
 31
0.0
  0
LINE
  5
150
330
126
100
AcDbEntity
  8
TA-SMART_DN25_NP
  6
Continuous
 62
     7
100
AcDbLine
 10
133.2039198451
 20
83.7983223434
 30
0.0
 11
133.2039198451
 21
69.4760926823
 31
0.0
  0
LINE
  5
151
330
126
100
AcDbEntity
  8
TA-SMART_DN25_NP
  6
Continuous
 62
     7
100
AcDbLine
 10
122.4539198451
 20
69.4760926823
 30
0.0
 11
122.4539198451
 21
84.8277375378
 31
0.0
  0
LINE
  5
152
330
126
100
AcDbEntity
  8
TA-SMART_DN25_NP
  6
Continuous
 62
     7
100
AcDbLine
 10
138.8349528795
 20
107.6244478268
 30
0.0
 11
144.9539198451
 21
107.6244478268
 31
0.0
  0
ARC
  5
153
330
126
100
AcDbEntity
  8
TA-SMART_DN25_NP
  6
Continuous
 62
     7
100
AcDbCircle
 10
133.7039198451
 20
96.2260926823
 30
0.0
 40
12.50000000000031
100
AcDbArc
 50
294.235157269
 51
65.764842731
  0
ARC
  5
154
330
126
100
AcDbEntity
  8
TA-SMART_DN25_NP
  6
Continuous
 62
     7
100
AcDbCircle
 10
133.7039198451
 20
96.2260926823
 30
0.0
 40
12.50000000000031
100
AcDbArc
 50
114.235157269
 51
245.764842731
  0
LINE
  5
155
330
126
100
AcDbEntity
  8
TA-SMART_DN25_NP
  6
Continuous
 62
     7
100
AcDbLine
 10
133.2039198451
 20
83.7983223434
 30
0.0
 11
133.7039198451
 21
84.1623780597
 31
0.0
  0
LINE
  5
156
330
126
100
AcDbEntity
  8
TA-SMART_DN25_NP
  6
Continuous
 62
     7
100
AcDbLine
 10
134.2039198451
 20
122.9760926823
 30
0.0
 11
134.2039198451
 21
108.6538630211
 31
0.0
  0
LINE
  5
157
330
126
100
AcDbEntity
  8
TA-SMART_DN25_NP
  6
Continuous
 62
     7
100
AcDbLine
 10
133.7039198451
 20
122.4760926823
 30
0.0
 11
133.7039198451
 21
108.2898073049
 31
0.0
  0
LINE
  5
158
330
126
100
AcDbEntity
  8
TA-SMART_DN25_NP
  6
Continuous
 62
     7
100
AcDbLine
 10
133.2039198451
 20
122.9760926823
 30
0.0
 11
133.2039198451
 21
108.6538630211
 31
0.0
  0
LINE
  5
159
330
126
100
AcDbEntity
  8
TA-SMART_DN25_NP
  6
Continuous
 62
     7
100
AcDbLine
 10
133.7039198451
 20
108.2898073049
 30
0.0
 11
133.2039198451
 21
108.6538630211
 31
0.0
  0
LINE
  5
15A
330
126
100
AcDbEntity
  8
TA-SMART_DN25_NP
  6
Continuous
 62
     7
100
AcDbLine
 10
133.2039198451
 20
108.6538630211
 30
0.0
 11
131.5244703734
 21
108.5346263074
 31
0.0
  0
LINE
  5
15B
330
126
100
AcDbEntity
  8
TA-SMART_DN25_NP
  6
Continuous
 62
     7
100
AcDbLine
 10
135.8833693169
 20
108.5346263074
 30
0.0
 11
134.2039198451
 21
108.6538630211
 31
0.0
  0
LINE
  5
15C
330
126
100
AcDbEntity
  8
TA-SMART_DN25_NP
  6
Continuous
 62
     7
100
AcDbLine
 10
134.2039198451
 20
108.6538630211
 30
0.0
 11
133.7039198451
 21
108.2898073049
 31
0.0
  0
ARC
  5
15D
330
126
100
AcDbEntity
  8
TA-SMART_DN25_NP
  6
Continuous
 62
     7
100
AcDbCircle
 10
133.6906026369
 20
96.2692785559
 30
0.0
 40
12.45515493467425
100
AcDbArc
 50
100.015495943
 51
114.2608423426
  0
ARC
  5
15E
330
126
100
AcDbEntity
  8
TA-SMART_DN25_NP
  6
Continuous
 62
     7
100
AcDbCircle
 10
133.7172370534
 20
96.2692785559
 30
0.0
 40
12.45515493467712
100
AcDbArc
 50
65.7391576574
 51
79.984504057
  0
ARC
  5
15F
330
126
100
AcDbEntity
  8
TA-SMART_DN25_NP
  6
Continuous
 62
     7
100
AcDbCircle
 10
133.7172370534
 20
96.1829068086
 30
0.0
 40
12.45515493467445
100
AcDbArc
 50
280.015495943
 51
294.2608423426
  0
ARC
  5
160
330
126
100
AcDbEntity
  8
TA-SMART_DN25_NP
  6
Continuous
 62
     7
100
AcDbCircle
 10
133.6906026369
 20
96.1829068086
 30
0.0
 40
12.45515493467674
100
AcDbArc
 50
245.7391576574
 51
259.984504057
  0
LINE
  5
161
330
126
100
AcDbEntity
  8
TA-SMART_DN25_NP
  6
Continuous
 62
     7
100
AcDbLine
 10
133.7039198451
 20
84.1623780597
 30
0.0
 11
134.2039198451
 21
83.7983223434
 31
0.0
  0
LINE
  5
162
330
126
100
AcDbEntity
  8
TA-SMART_DN25_NP
  6
Continuous
 62
     7
100
AcDbLine
 10
134.2039198451
 20
83.7983223434
 30
0.0
 11
135.8833693169
 21
83.9175590572
 31
0.0
  0
LINE
  5
163
330
126
100
AcDbEntity
  8
TA-SMART_DN25_NP
  6
Continuous
 62
     7
100
AcDbLine
 10
131.5244703734
 20
83.9175590572
 30
0.0
 11
133.2039198451
 21
83.7983223434
 31
0.0
  0
CIRCLE
  5
164
330
126
100
AcDbEntity
  8
TA-SMART_DN25_NP
  6
Continuous
 62
     7
100
AcDbCircle
 10
133.7039198451
 20
96.2260926823
 30
0.0
 40
11.25000000000028
  0
LINE
  5
165
330
126
100
AcDbEntity
  8
TA-SMART_DN25_NP
  6
Continuous
 62
     7
100
AcDbLine
 10
140.8785307165
 20
91.2173544335
 30
0.0
 11
134.4543089738
 21
87.508328281
 31
0.0
  0
LINE
  5
166
330
126
100
AcDbEntity
  8
TA-SMART_DN25_NP
  6
Continuous
 62
     7
100
AcDbLine
 10
132.9535307165
 20
87.508328281
 30
0.0
 11
126.5293089738
 21
91.2173544335
 31
0.0
  0
LINE
  5
167
330
126
100
AcDbEntity
  8
TA-SMART_DN25_NP
  6
Continuous
 62
     7
100
AcDbLine
 10
125.7789198451
 20
92.5170665298
 30
0.0
 11
125.7789198451
 21
99.9351188348
 31
0.0
  0
LINE
  5
168
330
126
100
AcDbEntity
  8
TA-SMART_DN25_NP
  6
Continuous
 62
     7
100
AcDbLine
 10
126.5293089738
 20
101.234830931
 30
0.0
 11
132.9535307165
 21
104.9438570835
 31
0.0
  0
LINE
  5
169
330
126
100
AcDbEntity
  8
TA-SMART_DN25_NP
  6
Continuous
 62
     7
100
AcDbLine
 10
134.4543089738
 20
104.9438570835
 30
0.0
 11
140.8785307165
 21
101.234830931
 31
0.0
  0
LINE
  5
16A
330
126
100
AcDbEntity
  8
TA-SMART_DN25_NP
  6
Continuous
 62
     7
100
AcDbLine
 10
141.6289198451
 20
99.9351188348
 30
0.0
 11
141.6289198451
 21
92.5170665298
 31
0.0
  0
CIRCLE
  5
16B
330
126
100
AcDbEntity
  8
TA-SMART_DN25_NP
  6
Continuous
 62
     7
100
AcDbCircle
 10
133.7039198451
 20
96.2260926823
 30
0.0
 40
7.75
  0
ARC
  5
16C
330
126
100
AcDbEntity
  8
TA-SMART_DN25_NP
  6
Continuous
 62
     7
100
AcDbCircle
 10
133.7039198451
 20
96.2260926823
 30
0.0
 40
8.750000000000004
100
AcDbArc
 50
25.0803421986
 51
34.9196578014
  0
ARC
  5
16D
330
126
100
AcDbEntity
  8
TA-SMART_DN25_NP
  6
Continuous
 62
     7
100
AcDbCircle
 10
133.7039198451
 20
96.2260926823
 30
0.0
 40
8.750000000000004
100
AcDbArc
 50
85.0803421986
 51
94.9196578014
  0
ARC
  5
16E
330
126
100
AcDbEntity
  8
TA-SMART_DN25_NP
  6
Continuous
 62
     7
100
AcDbCircle
 10
133.7039198451
 20
96.2260926823
 30
0.0
 40
8.750000000000002
100
AcDbArc
 50
145.0803421986
 51
154.9196578014
  0
ARC
  5
16F
330
126
100
AcDbEntity
  8
TA-SMART_DN25_NP
  6
Continuous
 62
     7
100
AcDbCircle
 10
133.7039198451
 20
96.2260926823
 30
0.0
 40
8.750000000000004
100
AcDbArc
 50
205.0803421986
 51
214.9196578014
  0
ARC
  5
170
330
126
100
AcDbEntity
  8
TA-SMART_DN25_NP
  6
Continuous
 62
     7
100
AcDbCircle
 10
133.7039198451
 20
96.2260926823
 30
0.0
 40
8.750000000000002
100
AcDbArc
 50
265.0803421986
 51
274.9196578014
  0
ARC
  5
171
330
126
100
AcDbEntity
  8
TA-SMART_DN25_NP
  6
Continuous
 62
     7
100
AcDbCircle
 10
133.7039198451
 20
96.2260926823
 30
0.0
 40
8.750000000000005
100
AcDbArc
 50
325.0803421986
 51
334.9196578014
  0
LINE
  5
172
330
126
100
AcDbEntity
  8
TA-SMART_DN25_NP
  6
Continuous
 62
     7
100
AcDbLine
 10
102.7048379894
 20
118.2260926823
 30
0.0
 11
101.7039198451
 21
115.4760926823
 31
0.0
  0
LINE
  5
173
330
126
100
AcDbEntity
  8
TA-SMART_DN25_NP
  6
Continuous
 62
     7
100
AcDbLine
 10
101.7039198451
 20
76.9760926823
 30
0.0
 11
102.7048379894
 21
74.2260926823
 31
0.0
  0
LINE
  5
174
330
126
100
AcDbEntity
  8
TA-SMART_DN25_NP
  6
Continuous
 62
     7
100
AcDbLine
 10
119.7039198451
 20
118.2260926823
 30
0.0
 11
102.7048379894
 21
118.2260926823
 31
0.0
  0
LINE
  5
175
330
126
100
AcDbEntity
  8
TA-SMART_DN25_NP
  6
Continuous
 62
     7
100
AcDbLine
 10
122.4539198451
 20
122.9760926823
 30
0.0
 11
119.7039198451
 21
120.2260926823
 31
0.0
  0
LINE
  5
176
330
126
100
AcDbEntity
  8
TA-SMART_DN25_NP
  6
Continuous
 62
     7
100
AcDbLine
 10
119.7039198451
 20
72.2260926823
 30
0.0
 11
122.4539198451
 21
69.4760926823
 31
0.0
  0
LINE
  5
177
330
126
100
AcDbEntity
  8
TA-SMART_DN25_NP
  6
Continuous
 62
     7
100
AcDbLine
 10
102.7048379894
 20
74.2260926823
 30
0.0
 11
119.7039198451
 21
74.2260926823
 31
0.0
  0
LINE
  5
178
330
126
100
AcDbEntity
  8
TA-SMART_DN25_NP
  6
Continuous
 62
     7
100
AcDbLine
 10
122.4539198451
 20
69.4760926823
 30
0.0
 11
133.2039198451
 21
69.4760926823
 31
0.0
  0
LINE
  5
179
330
126
100
AcDbEntity
  8
TA-SMART_DN25_NP
  6
Continuous
 62
     7
100
AcDbLine
 10
133.2039198451
 20
69.4760926823
 30
0.0
 11
133.7039198451
 21
69.9760926823
 31
0.0
  0
LINE
  5
17A
330
126
100
AcDbEntity
  8
TA-SMART_DN25_NP
  6
Continuous
 62
     7
100
AcDbLine
 10
164.7030017009
 20
74.2260926823
 30
0.0
 11
165.7039198451
 21
76.9760926823
 31
0.0
  0
LINE
  5
17B
330
126
100
AcDbEntity
  8
TA-SMART_DN25_NP
  6
Continuous
 62
     7
100
AcDbLine
 10
165.7039198451
 20
115.4760926823
 30
0.0
 11
164.7030017009
 21
118.2260926823
 31
0.0
  0
LINE
  5
17C
330
126
100
AcDbEntity
  8
TA-SMART_DN25_NP
  6
Continuous
 62
     7
100
AcDbLine
 10
147.7039198451
 20
74.2260926823
 30
0.0
 11
164.7030017009
 21
74.2260926823
 31
0.0
  0
LINE
  5
17D
330
126
100
AcDbEntity
  8
TA-SMART_DN25_NP
  6
Continuous
 62
     7
100
AcDbLine
 10
164.7030017009
 20
118.2260926823
 30
0.0
 11
147.7039198451
 21
118.2260926823
 31
0.0
  0
LINE
  5
17E
330
126
100
AcDbEntity
  8
TA-SMART_DN25_NP
  6
Continuous
 62
     7
100
AcDbLine
 10
134.2039198451
 20
69.4760926823
 30
0.0
 11
144.9539198451
 21
69.4760926823
 31
0.0
  0
LINE
  5
17F
330
126
100
AcDbEntity
  8
TA-SMART_DN25_NP
  6
Continuous
 62
     7
100
AcDbLine
 10
144.9539198451
 20
122.9760926823
 30
0.0
 11
134.2039198451
 21
122.9760926823
 31
0.0
  0
LINE
  5
180
330
126
100
AcDbEntity
  8
TA-SMART_DN25_NP
  6
Continuous
 62
     7
100
AcDbLine
 10
144.9539198451
 20
69.4760926823
 30
0.0
 11
147.7039198451
 21
72.2260926823
 31
0.0
  0
LINE
  5
181
330
126
100
AcDbEntity
  8
TA-SMART_DN25_NP
  6
Continuous
 62
     7
100
AcDbLine
 10
147.7039198451
 20
120.2260926823
 30
0.0
 11
144.9539198451
 21
122.9760926823
 31
0.0
  0
LINE
  5
182
330
126
100
AcDbEntity
  8
TA-SMART_DN25_NP
  6
Continuous
 62
     7
100
AcDbLine
 10
133.7039198451
 20
69.9760926823
 30
0.0
 11
134.2039198451
 21
69.4760926823
 31
0.0
  0
LINE
  5
183
330
126
100
AcDbEntity
  8
TA-SMART_DN25_NP
  6
Continuous
 62
     7
100
AcDbLine
 10
134.2039198451
 20
122.9760926823
 30
0.0
 11
133.7039198451
 21
122.4760926823
 31
0.0
  0
LINE
  5
184
330
126
100
AcDbEntity
  8
TA-SMART_DN25_NP
  6
Continuous
 62
     7
100
AcDbLine
 10
133.7039198451
 20
122.4760926823
 30
0.0
 11
133.2039198451
 21
122.9760926823
 31
0.0
  0
LINE
  5
185
330
126
100
AcDbEntity
  8
TA-SMART_DN25_NP
  6
Continuous
 62
     7
100
AcDbLine
 10
133.2039198451
 20
122.9760926823
 30
0.0
 11
122.4539198451
 21
122.9760926823
 31
0.0
  0
ENDBLK
  5
187
330
126
100
AcDbEntity
  8
0
100
AcDbBlockEnd
  0
BLOCK
  5
1CD
330
188
100
AcDbEntity
  8
0
100
AcDbBlockBegin
  2
SE3
 70
     0
 10
0.0
 20
0.0
 30
0.0
  3
SE3
  1

  0
CIRCLE
  5
18A
330
188
100
AcDbEntity
  8
TA-SMART_DN25_NP
  6
Continuous
 62
     7
100
AcDbCircle
 10
221.4605698271
 20
96.2260926823
 30
0.0
 40
19.25
  0
ARC
  5
18B
330
188
100
AcDbEntity
  8
TA-SMART_DN25_NP
  6
Continuous
 62
     7
100
AcDbCircle
 10
221.4605698271
 20
96.2260926823
 30
0.0
 40
22.0
100
AcDbArc
 50
25.5717450203
 51
34.4282521917
  0
CIRCLE
  5
18C
330
188
100
AcDbEntity
  8
TA-SMART_DN25_NP
  6
Continuous
 62
     7
100
AcDbCircle
 10
221.4605698271
 20
96.2260926823
 30
0.0
 40
24.0
  0
ARC
  5
18D
330
188
100
AcDbEntity
  8
TA-SMART_DN25_NP
  6
Continuous
 62
     7
100
AcDbCircle
 10
221.4605698271
 20
96.2260926823
 30
0.0
 40
26.75
100
AcDbArc
 50
25.2207362158
 51
154.7792637842
  0
ARC
  5
18E
330
188
100
AcDbEntity
  8
TA-SMART_DN25_NP
  6
Continuous
 62
     7
100
AcDbCircle
 10
221.4605698271
 20
96.2260926823
 30
0.0
 40
22.0
100
AcDbArc
 50
85.5717533843
 51
94.4282438277
  0
ARC
  5
18F
330
188
100
AcDbEntity
  8
TA-SMART_DN25_NP
  6
Continuous
 62
     7
100
AcDbCircle
 10
221.4605698271
 20
96.2260926823
 30
0.0
 40
22.0
100
AcDbArc
 50
145.5717450203
 51
154.4282521917
  0
ARC
  5
190
330
188
100
AcDbEntity
  8
TA-SMART_DN25_NP
  6
Continuous
 62
     7
100
AcDbCircle
 10
221.4605698271
 20
96.2260926823
 30
0.0
 40
22.0
100
AcDbArc
 50
205.5717533843
 51
214.4282438277
  0
ARC
  5
191
330
188
100
AcDbEntity
  8
TA-SMART_DN25_NP
  6
Continuous
 62
     7
100
AcDbCircle
 10
221.4605698271
 20
96.2260926823
 30
0.0
 40
22.0
100
AcDbArc
 50
265.5717450203
 51
274.4282521917
  0
ARC
  5
192
330
188
100
AcDbEntity
  8
TA-SMART_DN25_NP
  6
Continuous
 62
     7
100
AcDbCircle
 10
221.4605698271
 20
96.2260926823
 30
0.0
 40
22.0
100
AcDbArc
 50
325.5717533843
 51
334.4282438277
  0
LINE
  5
193
330
188
100
AcDbEntity
  8
TA-SMART_DN25_NP
  6
Continuous
 62
     7
100
AcDbLine
 10
241.305568903
 20
86.7299876028
 30
0.0
 11
241.3055707513
 21
105.7221938991
 31
0.0
  0
LINE
  5
194
330
188
100
AcDbEntity
  8
TA-SMART_DN25_NP
  6
Continuous
 62
     7
100
AcDbLine
 10
223.1592043312
 20
74.2917670528
 30
0.0
 11
239.6069369956
 21
83.7878710012
 31
0.0
  0
LINE
  5
195
330
188
100
AcDbEntity
  8
TA-SMART_DN25_NP
  6
Continuous
 62
     7
100
AcDbLine
 10
203.3142020534
 20
83.7878718842
 30
0.0
 11
219.7619342557
 21
74.2917671354
 31
0.0
  0
LINE
  5
196
330
188
100
AcDbEntity
  8
TA-SMART_DN25_NP
  6
Continuous
 62
     7
100
AcDbLine
 10
201.615569365
 20
105.7221948648
 30
0.0
 11
201.6155702892
 21
86.7299885685
 31
0.0
  0
LINE
  5
197
330
188
100
AcDbEntity
  8
TA-SMART_DN25_NP
  6
Continuous
 62
     7
100
AcDbLine
 10
219.761938525
 20
118.1604185598
 30
0.0
 11
203.3142044743
 21
108.6643170123
 31
0.0
  0
LINE
  5
198
330
188
100
AcDbEntity
  8
TA-SMART_DN25_NP
  6
Continuous
 62
     7
100
AcDbLine
 10
239.6069357851
 20
108.6643161293
 30
0.0
 11
223.1592021966
 21
118.1604184771
 31
0.0
  0
CIRCLE
  5
199
330
188
100
AcDbEntity
  8
TA-SMART_DN25_NP
  6
Continuous
 62
     7
100
AcDbCircle
 10
221.4605698271
 20
96.2260926823
 30
0.0
 40
14.375
  0
LINE
  5
19A
330
188
100
AcDbEntity
  8
TA-SMART_DN25_NP
  6
Continuous
 62
     7
100
AcDbLine
 10
245.6605698271
 20
107.6244478268
 30
0.0
 11
245.6605698271
 21
84.8277375378
 31
0.0
  0
ARC
  5
19B
330
188
100
AcDbEntity
  8
TA-SMART_DN25_NP
  6
Continuous
 62
     7
100
AcDbCircle
 10
221.4605698271
 20
96.2260926823
 30
0.0
 40
26.75
100
AcDbArc
 50
205.2207362158
 51
334.7792637842
  0
LINE
  5
19C
330
188
100
AcDbEntity
  8
TA-SMART_DN25_NP
  6
Continuous
 62
     7
100
AcDbLine
 10
197.2605698271
 20
84.8277375378
 30
0.0
 11
197.2605698271
 21
107.6244478268
 31
0.0
  0
ARC
  5
19D
330
188
100
AcDbEntity
  8
TA-SMART_DN25_NP
  6
Continuous
 62
     7
100
AcDbCircle
 10
245.0199640683
 20
89.3628413573
 30
0.0
 40
5.876910967809755
100
AcDbArc
 50
341.6054270599
 51
18.3945729401
  0
SPLINE
  5
19E
330
188
100
AcDbEntity
  8
TA-SMART_DN25_NP
  6
Continuous
 62
     7
100
AcDbSpline
210
0.0
220
0.0
230
1.0
 70
     8
 71
     3
 72
    12
 73
     8
 74
     0
 42
0.000000001
 43
0.0000000001
 40
0.0
 40
0.0
 40
0.0
 40
0.0
 40
0.5
 40
0.5
 40
0.75
 40
0.75
 40
1.0
 40
1.0
 40
1.0
 40
1.0
 10
250.5965995928443
 20
92.51706652977394
 30
0.0
 10
250.7852386586652
 20
93.73974967732164
 30
0.0
 10
250.8961899978136
 20
94.97092448736585
 30
0.0
 10
250.8972126443476
 20
96.83576623802053
 30
0.0
 10
250.8702845514633
 20
97.4626758441038
 30
0.0
 10
250.7670663130316
 20
98.70518432656415
 30
0.0
 10
250.6912080580239
 20
99.32190451735005
 30
0.0
 10
250.5965995928443
 20
99.93511883479312
 30
0.0
  0
ARC
  5
19F
330
188
100
AcDbEntity
  8
TA-SMART_DN25_NP
  6
Continuous
 62
     7
100
AcDbCircle
 10
245.0199640683
 20
103.0893440073
 30
0.0
 40
5.876910967809602
100
AcDbArc
 50
341.6054270599
 51
18.3945729401
  0
LINE
  5
1A0
330
188
100
AcDbEntity
  8
TA-SMART_DN25_NP
  6
Continuous
 62
     7
100
AcDbLine
 10
250.9605698271
 20
103.9760926823
 30
0.0
 11
250.9605698271
 21
88.4760926823
 31
0.0
  0
LINE
  5
1A1
330
188
100
AcDbEntity
  8
TA-SMART_DN25_NP
  6
Continuous
 62
     7
100
AcDbLine
 10
250.5965995928
 20
104.9438570835
 30
0.0
 11
250.5965995928
 21
104.9760926823
 31
0.0
  0
LINE
  5
1A2
330
188
100
AcDbEntity
  8
TA-SMART_DN25_NP
  6
Continuous
 62
     7
100
AcDbLine
 10
250.5965995928
 20
101.234830931
 30
0.0
 11
250.5965995928
 21
99.9351188348
 31
0.0
  0
LINE
  5
1A3
330
188
100
AcDbEntity
  8
TA-SMART_DN25_NP
  6
Continuous
 62
     7
100
AcDbLine
 10
250.5965995928
 20
92.5170665298
 30
0.0
 11
250.5965995928
 21
91.2173544335
 31
0.0
  0
LINE
  5
1A4
330
188
100
AcDbEntity
  8
TA-SMART_DN25_NP
  6
Continuous
 62
     7
100
AcDbLine
 10
250.5965995928
 20
87.508328281
 30
0.0
 11
250.5965995928
 21
87.4760926823
 31
0.0
  0
LINE
  5
1A5
330
188
100
AcDbEntity
  8
TA-SMART_DN25_NP
  6
Continuous
 62
     7
100
AcDbLine
 10
245.6605698271
 20
104.9438570835
 30
0.0
 11
250.5965995928
 21
104.9438570835
 31
0.0
  0
LINE
  5
1A6
330
188
100
AcDbEntity
  8
TA-SMART_DN25_NP
  6
Continuous
 62
     7
100
AcDbLine
 10
245.6605698271
 20
101.234830931
 30
0.0
 11
250.5965995928
 21
101.234830931
 31
0.0
  0
LINE
  5
1A7
330
188
100
AcDbEntity
  8
TA-SMART_DN25_NP
  6
Continuous
 62
     7
100
AcDbLine
 10
245.6605698271
 20
99.9351188348
 30
0.0
 11
250.5965995928
 21
99.9351188348
 31
0.0
  0
LINE
  5
1A8
330
188
100
AcDbEntity
  8
TA-SMART_DN25_NP
  6
Continuous
 62
     7
100
AcDbLine
 10
245.6605698271
 20
92.5170665298
 30
0.0
 11
250.5965995928
 21
92.5170665298
 31
0.0
  0
LINE
  5
1A9
330
188
100
AcDbEntity
  8
TA-SMART_DN25_NP
  6
Continuous
 62
     7
100
AcDbLine
 10
245.6605698271
 20
91.2173544335
 30
0.0
 11
250.5965995928
 21
91.2173544335
 31
0.0
  0
LINE
  5
1AA
330
188
100
AcDbEntity
  8
TA-SMART_DN25_NP
  6
Continuous
 62
     7
100
AcDbLine
 10
245.6605698271
 20
87.508328281
 30
0.0
 11
250.5965995928
 21
87.508328281
 31
0.0
  0
LINE
  5
1AB
330
188
100
AcDbEntity
  8
TA-SMART_DN25_NP
  6
Continuous
 62
     7
100
AcDbLine
 10
190.5608072804
 20
93.7745059361
 30
0.0
 11
190.5608072804
 21
94.2876654848
 31
0.0
  0
LINE
  5
1AC
330
188
100
AcDbEntity
  8
TA-SMART_DN25_NP
  6
Continuous
 62
     7
100
AcDbLine
 10
190.5608072804
 20
98.1645198798
 30
0.0
 11
190.5608072804
 21
98.6776794285
 31
0.0
  0
LINE
  5
1AD
330
188
100
AcDbEntity
  8
TA-SMART_DN25_NP
  6
Continuous
 62
     7
100
AcDbLine
 10
190.5608072804
 20
100.6260926823
 30
0.0
 11
190.5608072804
 21
100.616106626
 31
0.0
  0
LINE
  5
1AE
330
188
100
AcDbEntity
  8
TA-SMART_DN25_NP
  6
Continuous
 62
     7
100
AcDbLine
 10
190.5608072804
 20
91.8360787386
 30
0.0
 11
190.5608072804
 21
91.8260926823
 31
0.0
  0
ARC
  5
1AF
330
188
100
AcDbEntity
  8
TA-SMART_DN25_NP
  6
Continuous
 62
     7
100
AcDbCircle
 10
193.718444879
 20
92.8052923373
 30
0.0
 40
1.952431450186748
100
AcDbArc
 50
330.2369895162
 51
29.7630104838
  0
SPLINE
  5
1B0
330
188
100
AcDbEntity
  8
TA-SMART_DN25_NP
  6
Continuous
 62
     7
100
AcDbSpline
210
0.0
220
0.0
230
1.0
 70
     8
 71
     3
 72
    12
 73
     8
 74
     0
 42
0.000000001
 43
0.0000000001
 40
0.0
 40
0.0
 40
0.0
 40
0.0
 40
0.5
 40
0.5
 40
0.75
 40
0.75
 40
1.0
 40
1.0
 40
1.0
 40
1.0
 10
195.4133235081444
 20
94.28766548478549
 30
0.0
 10
195.5745974806541
 20
94.92172218014026
 30
0.0
 10
195.672738572665
 20
95.56484879276053
 30
0.0
 10
195.6733255879676
 20
96.55060338015834
 30
0.0
 10
195.6492662980291
 20
96.87949429626694
 30
0.0
 10
195.5595491045561
 20
97.52668721294489
 30
0.0
 10
195.4941171022974
 20
97.84687582031377
 30
0.0
 10
195.4133235081444
 20
98.16451987978157
 30
0.0
  0
ARC
  5
1B1
330
188
100
AcDbEntity
  8
TA-SMART_DN25_NP
  6
Continuous
 62
     7
100
AcDbCircle
 10
193.7184693629
 20
99.6468930272
 30
0.0
 40
1.952410196055022
100
AcDbArc
 50
330.2366328379
 51
29.7633671621
  0
LINE
  5
1B2
330
188
100
AcDbEntity
  8
TA-SMART_DN25_NP
  6
Continuous
 62
     7
100
AcDbLine
 10
195.7242266281
 20
92.3645926823
 30
0.0
 11
195.7242266281
 21
100.0875926823
 31
0.0
  0
LINE
  5
1B3
330
188
100
AcDbEntity
  8
TA-SMART_DN25_NP
  6
Continuous
 62
     7
100
AcDbLine
 10
190.3242266281
 20
92.4760926823
 30
0.0
 11
190.3242266281
 21
99.9760926823
 31
0.0
  0
ARC
  5
1B4
330
188
100
AcDbEntity
  8
TA-SMART_DN25_NP
  6
Continuous
 62
     7
100
AcDbCircle
 10
193.3465940228
 20
92.8052923373
 30
0.0
 40
2.949573320683716
100
AcDbArc
 50
160.816509868
 51
199.183490132
  0
SPLINE
  5
1B5
330
188
100
AcDbEntity
  8
TA-SMART_DN25_NP
  6
Continuous
 62
     7
100
AcDbSpline
210
0.0
220
0.0
230
1.0
 70
     8
 71
     3
 72
     9
 73
     5
 74
     0
 42
0.000000001
 43
0.0000000001
 40
0.0
 40
0.0
 40
0.0
 40
0.0
 40
0.5
 40
1.0
 40
1.0
 40
1.0
 40
1.0
 10
190.5608072803761
 20
98.16451987978155
 30
0.0
 10
190.4571998443719
 20
97.51837748061554
 30
0.0
 10
190.3368415055407
 20
96.22609268228352
 30
0.0
 10
190.4571998443719
 20
94.9338078839515
 30
0.0
 10
190.5608072803761
 20
94.28766548478549
 30
0.0
  0
ARC
  5
1B6
330
188
100
AcDbEntity
  8
TA-SMART_DN25_NP
  6
Continuous
 62
     7
100
AcDbCircle
 10
193.3465935342
 20
99.6468930272
 30
0.0
 40
2.94957285926588
100
AcDbArc
 50
160.8165067496
 51
199.1834932504
  0
LINE
  5
1B7
330
188
100
AcDbEntity
  8
TA-SMART_DN25_NP
  6
Continuous
 62
     7
100
AcDbLine
 10
195.4133235081
 20
94.2876654848
 30
0.0
 11
195.4133235081
 21
93.7745059361
 31
0.0
  0
LINE
  5
1B8
330
188
100
AcDbEntity
  8
TA-SMART_DN25_NP
  6
Continuous
 62
     7
100
AcDbLine
 10
190.5608072804
 20
93.7745059361
 30
0.0
 11
195.4133235081
 21
93.7745059361
 31
0.0
  0
LINE
  5
1B9
330
188
100
AcDbEntity
  8
TA-SMART_DN25_NP
  6
Continuous
 62
     7
100
AcDbLine
 10
195.4133235081
 20
94.2876654848
 30
0.0
 11
190.5608072804
 21
94.2876654848
 31
0.0
  0
LINE
  5
1BA
330
188
100
AcDbEntity
  8
TA-SMART_DN25_NP
  6
Continuous
 62
     7
100
AcDbLine
 10
195.4133235081
 20
98.6776794285
 30
0.0
 11
195.4133235081
 21
98.1645198798
 31
0.0
  0
LINE
  5
1BB
330
188
100
AcDbEntity
  8
TA-SMART_DN25_NP
  6
Continuous
 62
     7
100
AcDbLine
 10
190.5608072804
 20
98.1645198798
 30
0.0
 11
195.4133235081
 21
98.1645198798
 31
0.0
  0
LINE
  5
1BC
330
188
100
AcDbEntity
  8
TA-SMART_DN25_NP
  6
Continuous
 62
     7
100
AcDbLine
 10
195.4133235081
 20
98.6776794285
 30
0.0
 11
190.5608072804
 21
98.6776794285
 31
0.0
  0
LINE
  5
1BD
330
188
100
AcDbEntity
  8
TA-SMART_DN25_NP
  6
Continuous
 62
     7
100
AcDbLine
 10
195.4133235081
 20
100.616106626
 30
0.0
 11
195.4133235081
 21
100.6260926823
 31
0.0
  0
LINE
  5
1BE
330
188
100
AcDbEntity
  8
TA-SMART_DN25_NP
  6
Continuous
 62
     7
100
AcDbLine
 10
190.5608072804
 20
100.616106626
 30
0.0
 11
195.4133235081
 21
100.616106626
 31
0.0
  0
LINE
  5
1BF
330
188
100
AcDbEntity
  8
TA-SMART_DN25_NP
  6
Continuous
 62
     7
100
AcDbLine
 10
195.4133235081
 20
91.8360787386
 30
0.0
 11
195.4133235081
 21
91.8260926823
 31
0.0
  0
LINE
  5
1C0
330
188
100
AcDbEntity
  8
TA-SMART_DN25_NP
  6
Continuous
 62
     7
100
AcDbLine
 10
195.4133235081
 20
91.8360787386
 30
0.0
 11
190.5608072804
 21
91.8360787386
 31
0.0
  0
LINE
  5
1C1
330
188
100
AcDbEntity
  8
TA-SMART_DN25_NP
  6
Continuous
 62
     7
100
AcDbLine
 10
245.6605698271
 20
87.4760926823
 30
0.0
 11
250.5965995928
 21
87.4760926823
 31
0.0
  0
LINE
  5
1C2
330
188
100
AcDbEntity
  8
TA-SMART_DN25_NP
  6
Continuous
 62
     7
100
AcDbLine
 10
250.5965995928
 20
87.4760926823
 30
0.0
 11
250.9605698271
 21
88.4760926823
 31
0.0
  0
LINE
  5
1C3
330
188
100
AcDbEntity
  8
TA-SMART_DN25_NP
  6
Continuous
 62
     7
100
AcDbLine
 10
250.9605698271
 20
103.9760926823
 30
0.0
 11
250.5965995928
 21
104.9760926823
 31
0.0
  0
LINE
  5
1C4
330
188
100
AcDbEntity
  8
TA-SMART_DN25_NP
  6
Continuous
 62
     7
100
AcDbLine
 10
250.5965995928
 20
104.9760926823
 30
0.0
 11
245.6605698271
 21
104.9760926823
 31
0.0
  0
LINE
  5
1C5
330
188
100
AcDbEntity
  8
TA-SMART_DN25_NP
  6
Continuous
 62
     7
100
AcDbLine
 10
195.4133235081
 20
91.8260926823
 30
0.0
 11
195.7242266281
 21
92.3645926823
 31
0.0
  0
LINE
  5
1C6
330
188
100
AcDbEntity
  8
TA-SMART_DN25_NP
  6
Continuous
 62
     7
100
AcDbLine
 10
195.7242266281
 20
100.0875926823
 30
0.0
 11
195.4133235081
 21
100.6260926823
 31
0.0
  0
LINE
  5
1C7
330
188
100
AcDbEntity
  8
TA-SMART_DN25_NP
  6
Continuous
 62
     7
100
AcDbLine
 10
197.2605698271
 20
100.0875926823
 30
0.0
 11
195.7242266281
 21
100.0875926823
 31
0.0
  0
LINE
  5
1C8
330
188
100
AcDbEntity
  8
TA-SMART_DN25_NP
  6
Continuous
 62
     7
100
AcDbLine
 10
195.7242266281
 20
92.3645926823
 30
0.0
 11
197.2605698271
 21
92.3645926823
 31
0.0
  0
LINE
  5
1C9
330
188
100
AcDbEntity
  8
TA-SMART_DN25_NP
  6
Continuous
 62
     7
100
AcDbLine
 10
190.5608072804
 20
100.6260926823
 30
0.0
 11
190.3242266281
 21
99.9760926823
 31
0.0
  0
LINE
  5
1CA
330
188
100
AcDbEntity
  8
TA-SMART_DN25_NP
  6
Continuous
 62
     7
100
AcDbLine
 10
190.3242266281
 20
92.4760926823
 30
0.0
 11
190.5608072804
 21
91.8260926823
 31
0.0
  0
LINE
  5
1CB
330
188
100
AcDbEntity
  8
TA-SMART_DN25_NP
  6
Continuous
 62
     7
100
AcDbLine
 10
195.4133235081
 20
100.6260926823
 30
0.0
 11
190.5608072804
 21
100.6260926823
 31
0.0
  0
LINE
  5
1CC
330
188
100
AcDbEntity
  8
TA-SMART_DN25_NP
  6
Continuous
 62
     7
100
AcDbLine
 10
190.5608072804
 20
91.8260926823
 30
0.0
 11
195.4133235081
 21
91.8260926823
 31
0.0
  0
ENDBLK
  5
1CE
330
188
100
AcDbEntity
  8
0
100
AcDbBlockEnd
  0
BLOCK
  5
224
330
1CF
100
AcDbEntity
  8
0
100
AcDbBlockBegin
  2
SE4
 70
     0
 10
0.0
 20
0.0
 30
0.0
  3
SE4
  1

  0
LINE
  5
1D1
330
1CF
100
AcDbEntity
  8
TA-SMART_DN25_NP
  6
Continuous
 62
     7
100
AcDbLine
 10
344.2175954571
 20
115.4760926823
 30
0.0
 11
344.2175954571
 21
76.9760926823
 31
0.0
  0
LINE
  5
1D2
330
1CF
100
AcDbEntity
  8
TA-SMART_DN25_NP
  6
Continuous
 62
     7
100
AcDbLine
 10
326.2175954571
 20
120.2260926823
 30
0.0
 11
326.2175954571
 21
72.2260926823
 31
0.0
  0
LINE
  5
1D3
330
1CF
100
AcDbEntity
  8
TA-SMART_DN25_NP
  6
Continuous
 62
     7
100
AcDbLine
 10
323.4675954571
 20
122.9760926823
 30
0.0
 11
323.4675954571
 21
107.6244478268
 31
0.0
  0
LINE
  5
1D4
330
1CF
100
AcDbEntity
  8
TA-SMART_DN25_NP
  6
Continuous
 62
     7
100
AcDbLine
 10
343.2166773129
 20
118.1604184771
 30
0.0
 11
343.2166773129
 21
118.2260926823
 31
0.0
  0
LINE
  5
1D5
330
1CF
100
AcDbEntity
  8
TA-SMART_DN25_NP
  6
Continuous
 62
     7
100
AcDbLine
 10
343.2166773129
 20
108.6643170123
 30
0.0
 11
343.2166773129
 21
105.7221948648
 31
0.0
  0
LINE
  5
1D6
330
1CF
100
AcDbEntity
  8
TA-SMART_DN25_NP
  6
Continuous
 62
     7
100
AcDbLine
 10
343.2166773129
 20
86.7299885685
 30
0.0
 11
343.2166773129
 21
83.7878718842
 31
0.0
  0
LINE
  5
1D7
330
1CF
100
AcDbEntity
  8
TA-SMART_DN25_NP
  6
Continuous
 62
     7
100
AcDbLine
 10
343.2166773129
 20
74.2917671354
 30
0.0
 11
343.2166773129
 21
74.2260926823
 31
0.0
  0
ARC
  5
1D8
330
1CF
100
AcDbEntity
  8
TA-SMART_DN25_NP
  6
Continuous
 62
     7
100
AcDbCircle
 10
329.114953767
 20
79.0398195098
 30
0.0
 40
14.87960376875541
100
AcDbArc
 50
341.3916131553
 51
18.6083868447
  0
LINE
  5
1D9
330
1CF
100
AcDbEntity
  8
TA-SMART_DN25_NP
  6
Continuous
 62
     7
100
AcDbLine
 10
343.2166773129
 20
74.2917671354
 30
0.0
 11
326.2175954571
 21
74.2917671354
 31
0.0
  0
LINE
  5
1DA
330
1CF
100
AcDbEntity
  8
TA-SMART_DN25_NP
  6
Continuous
 62
     7
100
AcDbLine
 10
326.2175954571
 20
83.7878718842
 30
0.0
 11
343.2166773129
 21
83.7878718842
 31
0.0
  0
ARC
  5
1DB
330
1CF
100
AcDbEntity
  8
TA-SMART_DN25_NP
  6
Continuous
 62
     7
100
AcDbCircle
 10
285.8371924518
 20
96.2260917166
 30
0.0
 40
58.15996267132088
100
AcDbArc
 50
350.602924459
 51
9.397075541
  0
LINE
  5
1DC
330
1CF
100
AcDbEntity
  8
TA-SMART_DN25_NP
  6
Continuous
 62
     7
100
AcDbLine
 10
343.2166773129
 20
86.7299885685
 30
0.0
 11
326.2175954571
 21
86.7299885685
 31
0.0
  0
LINE
  5
1DD
330
1CF
100
AcDbEntity
  8
TA-SMART_DN25_NP
  6
Continuous
 62
     7
100
AcDbLine
 10
326.2175954571
 20
105.7221948648
 30
0.0
 11
343.2166773129
 21
105.7221948648
 31
0.0
  0
ARC
  5
1DE
330
1CF
100
AcDbEntity
  8
TA-SMART_DN25_NP
  6
Continuous
 62
     7
100
AcDbCircle
 10
329.1149635108
 20
113.412367786
 30
0.0
 40
14.87959402357792
100
AcDbArc
 50
341.3916070243
 51
18.6083929757
  0
LINE
  5
1DF
330
1CF
100
AcDbEntity
  8
TA-SMART_DN25_NP
  6
Continuous
 62
     7
100
AcDbLine
 10
343.2166773129
 20
108.6643170123
 30
0.0
 11
326.2175954571
 21
108.6643170123
 31
0.0
  0
LINE
  5
1E0
330
1CF
100
AcDbEntity
  8
TA-SMART_DN25_NP
  6
Continuous
 62
     7
100
AcDbLine
 10
326.2175954571
 20
118.1604185598
 30
0.0
 11
343.2166773129
 21
118.1604185598
 31
0.0
  0
LINE
  5
1E1
330
1CF
100
AcDbEntity
  8
TA-SMART_DN25_NP
  6
Continuous
 62
     7
100
AcDbLine
 10
300.9675954571
 20
122.9760926823
 30
0.0
 11
300.9675954571
 21
107.6244478268
 31
0.0
  0
LINE
  5
1E2
330
1CF
100
AcDbEntity
  8
TA-SMART_DN25_NP
  6
Continuous
 62
     7
100
AcDbLine
 10
298.2175954571
 20
120.2260926823
 30
0.0
 11
298.2175954571
 21
72.2260926823
 31
0.0
  0
LINE
  5
1E3
330
1CF
100
AcDbEntity
  8
TA-SMART_DN25_NP
  6
Continuous
 62
     7
100
AcDbLine
 10
280.2175954571
 20
115.4760926823
 30
0.0
 11
280.2175954571
 21
76.9760926823
 31
0.0
  0
LINE
  5
1E4
330
1CF
100
AcDbEntity
  8
TA-SMART_DN25_NP
  6
Continuous
 62
     7
100
AcDbLine
 10
281.2185136014
 20
118.1604184771
 30
0.0
 11
281.2185136014
 21
118.2260926823
 31
0.0
  0
LINE
  5
1E5
330
1CF
100
AcDbEntity
  8
TA-SMART_DN25_NP
  6
Continuous
 62
     7
100
AcDbLine
 10
281.2185136014
 20
108.6643170123
 30
0.0
 11
281.2185136014
 21
105.7221948648
 31
0.0
  0
LINE
  5
1E6
330
1CF
100
AcDbEntity
  8
TA-SMART_DN25_NP
  6
Continuous
 62
     7
100
AcDbLine
 10
281.2185136014
 20
86.7299885685
 30
0.0
 11
281.2185136014
 21
83.7878718842
 31
0.0
  0
LINE
  5
1E7
330
1CF
100
AcDbEntity
  8
TA-SMART_DN25_NP
  6
Continuous
 62
     7
100
AcDbLine
 10
281.2185136014
 20
74.2917671354
 30
0.0
 11
281.2185136014
 21
74.2260926823
 31
0.0
  0
ARC
  5
1E8
330
1CF
100
AcDbEntity
  8
TA-SMART_DN25_NP
  6
Continuous
 62
     7
100
AcDbCircle
 10
295.3202371473
 20
79.0398195098
 30
0.0
 40
14.87960376875549
100
AcDbArc
 50
161.3916131553
 51
198.6083868447
  0
ARC
  5
1E9
330
1CF
100
AcDbEntity
  8
TA-SMART_DN25_NP
  6
Continuous
 62
     7
100
AcDbCircle
 10
338.5979984641
 20
96.2260917166
 30
0.0
 40
58.1599626728806
100
AcDbArc
 50
170.6029244593
 51
189.3970755407
  0
ARC
  5
1EA
330
1CF
100
AcDbEntity
  8
TA-SMART_DN25_NP
  6
Continuous
 62
     7
100
AcDbCircle
 10
295.3202274035
 20
113.412367786
 30
0.0
 40
14.87959402357802
100
AcDbArc
 50
161.3916070243
 51
198.6083929757
  0
LINE
  5
1EB
330
1CF
100
AcDbEntity
  8
TA-SMART_DN25_NP
  6
Continuous
 62
     7
100
AcDbLine
 10
298.2175954571
 20
108.6643170123
 30
0.0
 11
281.2185136014
 21
108.6643170123
 31
0.0
  0
LINE
  5
1EC
330
1CF
100
AcDbEntity
  8
TA-SMART_DN25_NP
  6
Continuous
 62
     7
100
AcDbLine
 10
281.2185136014
 20
118.1604185598
 30
0.0
 11
298.2175954571
 21
118.1604185598
 31
0.0
  0
LINE
  5
1ED
330
1CF
100
AcDbEntity
  8
TA-SMART_DN25_NP
  6
Continuous
 62
     7
100
AcDbLine
 10
298.2175954571
 20
86.7299885685
 30
0.0
 11
281.2185136014
 21
86.7299885685
 31
0.0
  0
LINE
  5
1EE
330
1CF
100
AcDbEntity
  8
TA-SMART_DN25_NP
  6
Continuous
 62
     7
100
AcDbLine
 10
281.2185136014
 20
105.7221948648
 30
0.0
 11
298.2175954571
 21
105.7221948648
 31
0.0
  0
LINE
  5
1EF
330
1CF
100
AcDbEntity
  8
TA-SMART_DN25_NP
  6
Continuous
 62
     7
100
AcDbLine
 10
298.2175954571
 20
74.2917671354
 30
0.0
 11
281.2185136014
 21
74.2917671354
 31
0.0
  0
LINE
  5
1F0
330
1CF
100
AcDbEntity
  8
TA-SMART_DN25_NP
  6
Continuous
 62
     7
100
AcDbLine
 10
281.2185136014
 20
83.7878718842
 30
0.0
 11
298.2175954571
 21
83.7878718842
 31
0.0
  0
LINE
  5
1F1
330
1CF
100
AcDbEntity
  8
TA-SMART_DN25_NP
  6
Continuous
 62
     7
100
AcDbLine
 10
312.2175954571
 20
86.0564073381
 30
0.0
 11
312.2175954571
 21
69.9760926823
 31
0.0
  0
LINE
  5
1F2
330
1CF
100
AcDbEntity
  8
TA-SMART_DN25_NP
  6
Continuous
 62
     7
100
AcDbLine
 10
300.9675954571
 20
69.4760926823
 30
0.0
 11
300.9675954571
 21
84.8277375378
 31
0.0
  0
LINE
  5
1F3
330
1CF
100
AcDbEntity
  8
TA-SMART_DN25_NP
  6
Continuous
 62
     7
100
AcDbLine
 10
311.7175954571
 20
84.8277375378
 30
0.0
 11
311.7175954571
 21
69.4760926823
 31
0.0
  0
LINE
  5
1F4
330
1CF
100
AcDbEntity
  8
TA-SMART_DN25_NP
  6
Continuous
 62
     7
100
AcDbLine
 10
300.9675954571
 20
107.6244478268
 30
0.0
 11
311.7175954571
 21
107.6244478268
 31
0.0
  0
LINE
  5
1F5
330
1CF
100
AcDbEntity
  8
TA-SMART_DN25_NP
  6
Continuous
 62
     7
100
AcDbLine
 10
311.7175954571
 20
107.6244478268
 30
0.0
 11
312.2175954571
 21
106.3957780265
 31
0.0
  0
LINE
  5
1F6
330
1CF
100
AcDbEntity
  8
TA-SMART_DN25_NP
  6
Continuous
 62
     7
100
AcDbLine
 10
312.2175954571
 20
86.0564073381
 30
0.0
 11
311.7175954571
 21
84.8277375378
 31
0.0
  0
SPLINE
  5
1F7
330
1CF
100
AcDbEntity
  8
TA-SMART_DN25_NP
  6
Continuous
 62
     7
100
AcDbSpline
210
0.0
220
0.0
230
1.0
 70
     8
 71
     3
 72
    14
 73
    10
 74
     0
 42
0.000000001
 43
0.0000000001
 40
0.0
 40
0.0
 40
0.0
 40
0.0
 40
0.25
 40
0.25
 40
0.5
 40
0.5
 40
0.75
 40
0.75
 40
1.0
 40
1.0
 40
1.0
 40
1.0
 10
300.9675954571433
 20
84.82773753779004
 30
0.0
 10
300.2012428143777
 20
86.62623678913884
 30
0.0
 10
299.5531258167102
 20
88.50010909084631
 30
0.0
 10
298.661112018468
 20
92.31620448204376
 30
0.0
 10
298.4184922543838
 20
94.25021373002265
 30
0.0
 10
298.416703673017
 20
98.17994280111755
 30
0.0
 10
298.6633239867995
 20
100.146751532539
 30
0.0
 10
299.5528954745866
 20
103.949780237351
 30
0.0
 10
300.2003605303235
 20
105.8238780048811
 30
0.0
 10
300.9675954571433
 20
107.624447826777
 30
0.0
  0
LINE
  5
1F8
330
1CF
100
AcDbEntity
  8
TA-SMART_DN25_NP
  6
Continuous
 62
     7
100
AcDbLine
 10
300.9675954571
 20
84.8277375378
 30
0.0
 11
311.7175954571
 21
84.8277375378
 31
0.0
  0
LINE
  5
1F9
330
1CF
100
AcDbEntity
  8
TA-SMART_DN25_NP
  6
Continuous
 62
     7
100
AcDbLine
 10
312.7175954571
 20
84.8277375378
 30
0.0
 11
312.7175954571
 21
69.4760926823
 31
0.0
  0
LINE
  5
1FA
330
1CF
100
AcDbEntity
  8
TA-SMART_DN25_NP
  6
Continuous
 62
     7
100
AcDbLine
 10
323.4675954571
 20
69.4760926823
 30
0.0
 11
323.4675954571
 21
84.8277375378
 31
0.0
  0
LINE
  5
1FB
330
1CF
100
AcDbEntity
  8
TA-SMART_DN25_NP
  6
Continuous
 62
     7
100
AcDbLine
 10
323.4675954571
 20
84.8277375378
 30
0.0
 11
312.7175954571
 21
84.8277375378
 31
0.0
  0
SPLINE
  5
1FC
330
1CF
100
AcDbEntity
  8
TA-SMART_DN25_NP
  6
Continuous
 62
     7
100
AcDbSpline
210
0.0
220
0.0
230
1.0
 70
     8
 71
     3
 72
    14
 73
    10
 74
     0
 42
0.000000001
 43
0.0000000001
 40
0.0
 40
0.0
 40
0.0
 40
0.0
 40
0.2500000000000001
 40
0.2500000000000001
 40
0.5000000000000001
 40
0.5000000000000001
 40
0.75
 40
0.75
 40
1.0
 40
1.0
 40
1.0
 40
1.0
 10
323.4675954571432
 20
84.82773753779004
 30
0.0
 10
324.2339480999088
 20
86.62623678913884
 30
0.0
 10
324.8820650975762
 20
88.50010909084632
 30
0.0
 10
325.7740788958185
 20
92.31620448204376
 30
0.0
 10
326.0166986599026
 20
94.25021373002265
 30
0.0
 10
326.0184872412694
 20
98.17994280111753
 30
0.0
 10
325.7718669274869
 20
100.146751532539
 30
0.0
 10
324.8822954396998
 20
103.949780237351
 30
0.0
 10
324.234830383963
 20
105.8238780048811
 30
0.0
 10
323.4675954571432
 20
107.624447826777
 30
0.0
  0
LINE
  5
1FD
330
1CF
100
AcDbEntity
  8
TA-SMART_DN25_NP
  6
Continuous
 62
     7
100
AcDbLine
 10
312.7175954571
 20
107.6244478268
 30
0.0
 11
312.2175954571
 21
106.3957780265
 31
0.0
  0
LINE
  5
1FE
330
1CF
100
AcDbEntity
  8
TA-SMART_DN25_NP
  6
Continuous
 62
     7
100
AcDbLine
 10
323.4675954571
 20
107.6244478268
 30
0.0
 11
312.7175954571
 21
107.6244478268
 31
0.0
  0
LINE
  5
1FF
330
1CF
100
AcDbEntity
  8
TA-SMART_DN25_NP
  6
Continuous
 62
     7
100
AcDbLine
 10
312.2175954571
 20
86.0564073381
 30
0.0
 11
312.7175954571
 21
84.8277375378
 31
0.0
  0
LINE
  5
200
330
1CF
100
AcDbEntity
  8
TA-SMART_DN25_NP
  6
Continuous
 62
     7
100
AcDbLine
 10
311.7175954571
 20
122.9760926823
 30
0.0
 11
311.7175954571
 21
107.6244478268
 31
0.0
  0
LINE
  5
201
330
1CF
100
AcDbEntity
  8
TA-SMART_DN25_NP
  6
Continuous
 62
     7
100
AcDbLine
 10
312.2175954571
 20
122.4760926823
 30
0.0
 11
312.2175954571
 21
106.3957780265
 31
0.0
  0
LINE
  5
202
330
1CF
100
AcDbEntity
  8
TA-SMART_DN25_NP
  6
Continuous
 62
     7
100
AcDbLine
 10
312.7175954571
 20
122.9760926823
 30
0.0
 11
312.7175954571
 21
107.6244478268
 31
0.0
  0
ARC
  5
203
330
1CF
100
AcDbEntity
  8
TA-SMART_DN25_NP
  6
Continuous
 62
     7
100
AcDbCircle
 10
312.2175954571
 20
96.2260926823
 30
0.0
 40
4.400000000000011
100
AcDbArc
 50
326.1390829651
 51
333.8609170349
  0
ARC
  5
204
330
1CF
100
AcDbEntity
  8
TA-SMART_DN25_NP
  6
Continuous
 62
     7
100
AcDbCircle
 10
312.2175954571
 20
96.2260926823
 30
0.0
 40
4.399999999999992
100
AcDbArc
 50
26.1390829651
 51
33.8609170349
  0
ARC
  5
205
330
1CF
100
AcDbEntity
  8
TA-SMART_DN25_NP
  6
Continuous
 62
     7
100
AcDbCircle
 10
312.2175954571
 20
96.2260926823
 30
0.0
 40
4.4
100
AcDbArc
 50
86.1390829651
 51
93.8609170349
  0
ARC
  5
206
330
1CF
100
AcDbEntity
  8
TA-SMART_DN25_NP
  6
Continuous
 62
     7
100
AcDbCircle
 10
312.2175954571
 20
96.2260926823
 30
0.0
 40
4.400000000000011
100
AcDbArc
 50
146.1390829651
 51
153.8609170349
  0
ARC
  5
207
330
1CF
100
AcDbEntity
  8
TA-SMART_DN25_NP
  6
Continuous
 62
     7
100
AcDbCircle
 10
312.2175954571
 20
96.2260926823
 30
0.0
 40
4.399999999999991
100
AcDbArc
 50
206.1390829651
 51
213.8609170349
  0
ARC
  5
208
330
1CF
100
AcDbEntity
  8
TA-SMART_DN25_NP
  6
Continuous
 62
     7
100
AcDbCircle
 10
312.2175954571
 20
96.2260926823
 30
0.0
 40
4.399999999999999
100
AcDbArc
 50
266.1390829651
 51
273.8609170349
  0
CIRCLE
  5
209
330
1CF
100
AcDbEntity
  8
TA-SMART_DN25_NP
  6
Continuous
 62
     7
100
AcDbCircle
 10
312.2175954571
 20
96.2260926823
 30
0.0
 40
3.750000000000006
  0
LINE
  5
20A
330
1CF
100
AcDbEntity
  8
TA-SMART_DN25_NP
  6
Continuous
 62
     7
100
AcDbLine
 10
315.8713226536
 20
93.7745059361
 30
0.0
 11
312.5138682607
 21
91.8360787386
 31
0.0
  0
LINE
  5
20B
330
1CF
100
AcDbEntity
  8
TA-SMART_DN25_NP
  6
Continuous
 62
     7
100
AcDbLine
 10
316.1675954571
 20
98.1645198798
 30
0.0
 11
316.1675954571
 21
94.2876654848
 31
0.0
  0
LINE
  5
20C
330
1CF
100
AcDbEntity
  8
TA-SMART_DN25_NP
  6
Continuous
 62
     7
100
AcDbLine
 10
312.5138682607
 20
100.616106626
 30
0.0
 11
315.8713226536
 21
98.6776794285
 31
0.0
  0
LINE
  5
20D
330
1CF
100
AcDbEntity
  8
TA-SMART_DN25_NP
  6
Continuous
 62
     7
100
AcDbLine
 10
308.5638682607
 20
98.6776794285
 30
0.0
 11
311.9213226536
 21
100.616106626
 31
0.0
  0
LINE
  5
20E
330
1CF
100
AcDbEntity
  8
TA-SMART_DN25_NP
  6
Continuous
 62
     7
100
AcDbLine
 10
308.2675954571
 20
94.2876654848
 30
0.0
 11
308.2675954571
 21
98.1645198798
 31
0.0
  0
LINE
  5
20F
330
1CF
100
AcDbEntity
  8
TA-SMART_DN25_NP
  6
Continuous
 62
     7
100
AcDbLine
 10
311.9213226536
 20
91.8360787386
 30
0.0
 11
308.5638682607
 21
93.7745059361
 31
0.0
  0
LINE
  5
210
330
1CF
100
AcDbEntity
  8
TA-SMART_DN25_NP
  6
Continuous
 62
     7
100
AcDbLine
 10
343.2166773129
 20
74.2260926823
 30
0.0
 11
344.2175954571
 21
76.9760926823
 31
0.0
  0
LINE
  5
211
330
1CF
100
AcDbEntity
  8
TA-SMART_DN25_NP
  6
Continuous
 62
     7
100
AcDbLine
 10
344.2175954571
 20
115.4760926823
 30
0.0
 11
343.2166773129
 21
118.2260926823
 31
0.0
  0
LINE
  5
212
330
1CF
100
AcDbEntity
  8
TA-SMART_DN25_NP
  6
Continuous
 62
     7
100
AcDbLine
 10
343.2166773129
 20
118.2260926823
 30
0.0
 11
326.2175954571
 21
118.2260926823
 31
0.0
  0
LINE
  5
213
330
1CF
100
AcDbEntity
  8
TA-SMART_DN25_NP
  6
Continuous
 62
     7
100
AcDbLine
 10
323.4675954571
 20
69.4760926823
 30
0.0
 11
326.2175954571
 21
72.2260926823
 31
0.0
  0
LINE
  5
214
330
1CF
100
AcDbEntity
  8
TA-SMART_DN25_NP
  6
Continuous
 62
     7
100
AcDbLine
 10
326.2175954571
 20
120.2260926823
 30
0.0
 11
323.4675954571
 21
122.9760926823
 31
0.0
  0
LINE
  5
215
330
1CF
100
AcDbEntity
  8
TA-SMART_DN25_NP
  6
Continuous
 62
     7
100
AcDbLine
 10
326.2175954571
 20
74.2260926823
 30
0.0
 11
343.2166773129
 21
74.2260926823
 31
0.0
  0
LINE
  5
216
330
1CF
100
AcDbEntity
  8
TA-SMART_DN25_NP
  6
Continuous
 62
     7
100
AcDbLine
 10
312.7175954571
 20
69.4760926823
 30
0.0
 11
323.4675954571
 21
69.4760926823
 31
0.0
  0
LINE
  5
217
330
1CF
100
AcDbEntity
  8
TA-SMART_DN25_NP
  6
Continuous
 62
     7
100
AcDbLine
 10
312.2175954571
 20
69.9760926823
 30
0.0
 11
312.7175954571
 21
69.4760926823
 31
0.0
  0
LINE
  5
218
330
1CF
100
AcDbEntity
  8
TA-SMART_DN25_NP
  6
Continuous
 62
     7
100
AcDbLine
 10
281.2185136014
 20
118.2260926823
 30
0.0
 11
280.2175954571
 21
115.4760926823
 31
0.0
  0
LINE
  5
219
330
1CF
100
AcDbEntity
  8
TA-SMART_DN25_NP
  6
Continuous
 62
     7
100
AcDbLine
 10
280.2175954571
 20
76.9760926823
 30
0.0
 11
281.2185136014
 21
74.2260926823
 31
0.0
  0
LINE
  5
21A
330
1CF
100
AcDbEntity
  8
TA-SMART_DN25_NP
  6
Continuous
 62
     7
100
AcDbLine
 10
281.2185136014
 20
74.2260926823
 30
0.0
 11
298.2175954571
 21
74.2260926823
 31
0.0
  0
LINE
  5
21B
330
1CF
100
AcDbEntity
  8
TA-SMART_DN25_NP
  6
Continuous
 62
     7
100
AcDbLine
 10
298.2175954571
 20
118.2260926823
 30
0.0
 11
281.2185136014
 21
118.2260926823
 31
0.0
  0
LINE
  5
21C
330
1CF
100
AcDbEntity
  8
TA-SMART_DN25_NP
  6
Continuous
 62
     7
100
AcDbLine
 10
300.9675954571
 20
69.4760926823
 30
0.0
 11
311.7175954571
 21
69.4760926823
 31
0.0
  0
LINE
  5
21D
330
1CF
100
AcDbEntity
  8
TA-SMART_DN25_NP
  6
Continuous
 62
     7
100
AcDbLine
 10
311.7175954571
 20
122.9760926823
 30
0.0
 11
300.9675954571
 21
122.9760926823
 31
0.0
  0
LINE
  5
21E
330
1CF
100
AcDbEntity
  8
TA-SMART_DN25_NP
  6
Continuous
 62
     7
100
AcDbLine
 10
300.9675954571
 20
122.9760926823
 30
0.0
 11
298.2175954571
 21
120.2260926823
 31
0.0
  0
LINE
  5
21F
330
1CF
100
AcDbEntity
  8
TA-SMART_DN25_NP
  6
Continuous
 62
     7
100
AcDbLine
 10
298.2175954571
 20
72.2260926823
 30
0.0
 11
300.9675954571
 21
69.4760926823
 31
0.0
  0
LINE
  5
220
330
1CF
100
AcDbEntity
  8
TA-SMART_DN25_NP
  6
Continuous
 62
     7
100
AcDbLine
 10
311.7175954571
 20
69.4760926823
 30
0.0
 11
312.2175954571
 21
69.9760926823
 31
0.0
  0
LINE
  5
221
330
1CF
100
AcDbEntity
  8
TA-SMART_DN25_NP
  6
Continuous
 62
     7
100
AcDbLine
 10
312.2175954571
 20
122.4760926823
 30
0.0
 11
311.7175954571
 21
122.9760926823
 31
0.0
  0
LINE
  5
222
330
1CF
100
AcDbEntity
  8
TA-SMART_DN25_NP
  6
Continuous
 62
     7
100
AcDbLine
 10
312.7175954571
 20
122.9760926823
 30
0.0
 11
312.2175954571
 21
122.4760926823
 31
0.0
  0
LINE
  5
223
330
1CF
100
AcDbEntity
  8
TA-SMART_DN25_NP
  6
Continuous
 62
     7
100
AcDbLine
 10
323.4675954571
 20
122.9760926823
 30
0.0
 11
312.7175954571
 21
122.9760926823
 31
0.0
  0
ENDBLK
  5
225
330
1CF
100
AcDbEntity
  8
0
100
AcDbBlockEnd
  0
ENDSEC
  0
SECTION
  2
ENTITIES
  0
INSERT
  5
70
330
1F
100
AcDbEntity
  8
Default
100
AcDbBlockReference
  2
SE
 10
0.0
 20
0.0
 30
0.0
  0
INSERT
  5
E0
330
1F
100
AcDbEntity
  8
Default
100
AcDbBlockReference
  2
SE1
 10
0.0
 20
0.0
 30
0.0
  0
INSERT
  5
127
330
1F
100
AcDbEntity
  8
Default
100
AcDbBlockReference
  2
SE2
 10
0.0
 20
0.0
 30
0.0
  0
INSERT
  5
189
330
1F
100
AcDbEntity
  8
Default
100
AcDbBlockReference
  2
SE3
 10
0.0
 20
0.0
 30
0.0
  0
INSERT
  5
1D0
330
1F
100
AcDbEntity
  8
Default
100
AcDbBlockReference
  2
SE4
 10
0.0
 20
0.0
 30
0.0
  0
ENDSEC
  0
SECTION
  2
OBJECTS
  0
DICTIONARY
  5
C
330
0
100
AcDbDictionary
281
     1
  3
ACAD_DETAILVIEWSTYLE
350
261
  3
ACAD_GROUP
350
D
  3
ACAD_LAYOUT
350
1A
  3
ACAD_MATERIAL
350
43
  3
ACAD_MLEADERSTYLE
350
6B
  3
ACAD_MLINESTYLE
350
17
  3
ACAD_PLOTSETTINGS
350
19
  3
ACAD_PLOTSTYLENAME
350
E
  3
ACAD_SCALELIST
350
47
  3
ACAD_SECTIONVIEWSTYLE
350
262
  3
ACAD_TABLESTYLE
350
69
  3
ACAD_VISUALSTYLE
350
2A
  3
ACDB_RECOMPOSE_DATA
350
25E
  3
AcDbVariableDictionary
350
226
  0
SUN
  5
6D
330
29
100
AcDbSun
 90
        1
290
     0
 63
     7
421
 16777215
 40
1.0
291
     1
 91
  2455826
 92
 54000000
292
     0
 70
     2
 71
   256
280
     1
  0
DICTIONARY
  5
261
102
{ACAD_REACTORS
330
C
102
}
330
C
100
AcDbDictionary
281
     1
  0
DICTIONARY
  5
D
102
{ACAD_REACTORS
330
C
102
}
330
C
100
AcDbDictionary
281
     1
  0
DICTIONARY
  5
1A
102
{ACAD_REACTORS
330
C
102
}
330
C
100
AcDbDictionary
281
     1
  3
Layout1
350
1E
  3
Model
350
22
  0
DICTIONARY
  5
43
102
{ACAD_REACTORS
330
C
102
}
330
C
100
AcDbDictionary
281
     1
  3
ByBlock
350
45
  3
ByLayer
350
44
  3
Global
350
46
  0
DICTIONARY
  5
6B
102
{ACAD_REACTORS
330
C
102
}
330
C
100
AcDbDictionary
281
     1
  3
Standard
350
6C
  0
DICTIONARY
  5
17
102
{ACAD_REACTORS
330
C
102
}
330
C
100
AcDbDictionary
281
     1
  3
Standard
350
18
  0
DICTIONARY
  5
19
102
{ACAD_REACTORS
330
C
102
}
330
C
100
AcDbDictionary
281
     1
  0
ACDBDICTIONARYWDFLT
  5
E
102
{ACAD_REACTORS
330
C
102
}
330
C
100
AcDbDictionary
281
     1
  3
Normal
350
F
100
AcDbDictionaryWithDefault
340
F
  0
DICTIONARY
  5
47
102
{ACAD_REACTORS
330
C
102
}
330
C
100
AcDbDictionary
281
     1
  3
A0
350
48
  3
A1
350
49
  3
A2
350
4A
  3
A3
350
4B
  3
A4
350
4C
  3
A5
350
4D
  3
A6
350
4E
  3
A7
350
4F
  3
A8
350
50
  3
A9
350
51
  3
B0
350
52
  3
B1
350
53
  3
B2
350
54
  3
B3
350
55
  3
B4
350
56
  3
B5
350
57
  3
B6
350
58
  3
B7
350
59
  3
B8
350
5A
  3
B9
350
5B
  3
C0
350
5C
  3
C1
350
5D
  3
C2
350
5E
  3
C3
350
5F
  3
C4
350
60
  3
C5
350
61
  3
C6
350
62
  3
C7
350
63
  3
C8
350
64
  3
C9
350
65
  3
D0
350
66
  3
D1
350
67
  3
D2
350
68
  0
DICTIONARY
  5
262
102
{ACAD_REACTORS
330
C
102
}
330
C
100
AcDbDictionary
281
     1
  0
DICTIONARY
  5
69
102
{ACAD_REACTORS
330
C
102
}
330
C
100
AcDbDictionary
281
     1
  3
Standard
350
6A
  0
DICTIONARY
  5
2A
102
{ACAD_REACTORS
330
C
102
}
330
C
100
AcDbDictionary
281
     1
  3
2dWireframe
350
2F
  3
Basic
350
32
  3
Brighten
350
36
  3
ColorChange
350
3A
  3
Conceptual
350
34
  3
Dim
350
35
  3
EdgeColorOff
350
3D
  3
Facepattern
350
39
  3
Flat
350
2B
  3
FlatWithEdges
350
2C
  3
Gouraud
350
2D
  3
GouraudWithEdges
350
2E
  3
Hidden
350
31
  3
JitterOff
350
3B
  3
Linepattern
350
38
  3
OverhangOff
350
3C
  3
Realistic
350
33
  3
Shaded
350
42
  3
Shaded with edges
350
41
  3
Shades of Gray
350
3E
  3
Sketchy
350
3F
  3
Thicken
350
37
  3
Wireframe
350
30
  3
X-Ray
350
40
  0
XRECORD
  5
25E
102
{ACAD_REACTORS
330
C
102
}
330
C
100
AcDbXrecord
280
     1
 90
        1
330
6A
  0
DICTIONARY
  5
226
102
{ACAD_REACTORS
330
C
102
}
330
C
100
AcDbDictionary
281
     1
  3
CANNOSCALE
350
227
  3
CENTEREXE
350
263
  3
CENTERLTYPEFILE
350
264
  3
CMLEADERSTYLE
350
260
  3
CTABLESTYLE
350
25F
  3
XCLIPFRAME
350
228
  0
LAYOUT
  5
1E
102
{ACAD_REACTORS
330
1A
102
}
330
1A
100
AcDbPlotSettings
  1

  2
none_device
  4

  6

 40
0.0
 41
0.0
 42
0.0
 43
0.0
 44
0.0
 45
0.0
 46
0.0
 47
0.0
 48
0.0
 49
0.0
140
0.0
141
0.0
142
1.0
143
1.0
 70
   688
 72
     1
 73
     0
 74
     5
  7

 75
    16
 76
     0
 77
     2
 78
   300
147
1.0
148
0.0
149
0.0
100
AcDbLayout
  1
Layout1
 70
     1
 71
     1
 10
0.0
 20
0.0
 11
420.0
 21
297.0
 12
0.0
 22
0.0
 32
0.0
 14
0.0
 24
0.0
 34
0.0
 15
420.0
 25
297.0
 35
0.0
146
0.0
 13
0.0
 23
0.0
 33
0.0
 16
1.0
 26
0.0
 36
0.0
 17
0.0
 27
1.0
 37
0.0
 76
     0
330
1B
  0
LAYOUT
  5
22
102
{ACAD_REACTORS
330
1A
102
}
330
1A
100
AcDbPlotSettings
  1

  2
none_device
  4
Letter_(8.50_x_11.00_Inches)
  6

 40
6.35
 41
6.35
 42
6.35000508
 43
6.35000508
 44
215.9
 45
279.4
 46
0.0
 47
0.0
 48
0.0
 49
0.0
140
0.0
141
0.0
142
1.0
143
1.0
 70
  1712
 72
     1
 73
     0
 74
     0
  7

 75
     0
 76
     0
 77
     2
 78
   300
147
1.0
148
0.0
149
0.0
100
AcDbLayout
  1
Model
 70
     1
 71
     0
 10
0.0
 20
0.0
 11
420.0
 21
297.0
 12
0.0
 22
0.0
 32
0.0
 14
0.0
 24
0.0
 34
0.0
 15
420.0
 25
297.0
 35
0.0
146
0.0
 13
0.0
 23
0.0
 33
0.0
 16
1.0
 26
0.0
 36
0.0
 17
0.0
 27
1.0
 37
0.0
 76
     0
330
1F
331
29
  0
MATERIAL
  5
45
102
{ACAD_REACTORS
330
43
102
}
330
43
100
AcDbMaterial
  1
ByBlock
 72
     1
 94
      127
  0
MATERIAL
  5
44
102
{ACAD_REACTORS
330
43
102
}
330
43
100
AcDbMaterial
  1
ByLayer
 72
     1
 94
      127
  0
MATERIAL
  5
46
102
{ACAD_REACTORS
330
43
102
}
330
43
100
AcDbMaterial
  1
Global
 72
     1
 94
      127
  0
MLEADERSTYLE
  5
6C
102
{ACAD_REACTORS
330
6B
102
}
102
{ACAD_XDICTIONARY
360
25C
102
}
330
6B
100
AcDbMLeaderStyle
170
     2
171
     1
172
     0
 90
        2
 40
0.0
 41
0.0
173
     1
 91
-1056964608
340
14
 92
       -2
290
     1
 42
2.0
291
     1
 43
8.0
  3
Standard
341
0
 44
4.0
300

342
11
174
     1
178
     6
175
     1
176
     0
 93
-1056964608
 45
4.0
292
     0
297
     0
 46
4.0
343
0
 94
-1056964608
 47
1.0
 49
1.0
140
1.0
293
     1
141
0.0
294
     1
177
     0
142
1.0
295
     0
296
     0
143
3.75
1001
ACAD_MLEADERVER
1070
     2
  0
MLINESTYLE
  5
18
102
{ACAD_REACTORS
330
17
102
}
330
17
100
AcDbMlineStyle
  2
Standard
 70
     0
  3

 62
   256
 51
90.0
 52
90.0
 71
     2
 49
0.5
 62
   256
  6
BYLAYER
 49
-0.5
 62
   256
  6
BYLAYER
  0
ACDBPLACEHOLDER
  5
F
102
{ACAD_REACTORS
330
E
102
}
330
E
  0
SCALE
  5
48
102
{ACAD_REACTORS
330
47
102
}
330
47
100
AcDbScale
 70
     0
300
1:1
140
1.0
141
1.0
290
     1
  0
SCALE
  5
49
102
{ACAD_REACTORS
330
47
102
}
330
47
100
AcDbScale
 70
     0
300
1:2
140
1.0
141
2.0
290
     0
  0
SCALE
  5
4A
102
{ACAD_REACTORS
330
47
102
}
330
47
100
AcDbScale
 70
     0
300
1:4
140
1.0
141
4.0
290
     0
  0
SCALE
  5
4B
102
{ACAD_REACTORS
330
47
102
}
330
47
100
AcDbScale
 70
     0
300
1:5
140
1.0
141
5.0
290
     0
  0
SCALE
  5
4C
102
{ACAD_REACTORS
330
47
102
}
330
47
100
AcDbScale
 70
     0
300
1:8
140
1.0
141
8.0
290
     0
  0
SCALE
  5
4D
102
{ACAD_REACTORS
330
47
102
}
330
47
100
AcDbScale
 70
     0
300
1:10
140
1.0
141
10.0
290
     0
  0
SCALE
  5
4E
102
{ACAD_REACTORS
330
47
102
}
330
47
100
AcDbScale
 70
     0
300
1:16
140
1.0
141
16.0
290
     0
  0
SCALE
  5
4F
102
{ACAD_REACTORS
330
47
102
}
330
47
100
AcDbScale
 70
     0
300
1:20
140
1.0
141
20.0
290
     0
  0
SCALE
  5
50
102
{ACAD_REACTORS
330
47
102
}
330
47
100
AcDbScale
 70
     0
300
1:30
140
1.0
141
30.0
290
     0
  0
SCALE
  5
51
102
{ACAD_REACTORS
330
47
102
}
330
47
100
AcDbScale
 70
     0
300
1:40
140
1.0
141
40.0
290
     0
  0
SCALE
  5
52
102
{ACAD_REACTORS
330
47
102
}
330
47
100
AcDbScale
 70
     0
300
1:50
140
1.0
141
50.0
290
     0
  0
SCALE
  5
53
102
{ACAD_REACTORS
330
47
102
}
330
47
100
AcDbScale
 70
     0
300
1:100
140
1.0
141
100.0
290
     0
  0
SCALE
  5
54
102
{ACAD_REACTORS
330
47
102
}
330
47
100
AcDbScale
 70
     0
300
2:1
140
2.0
141
1.0
290
     0
  0
SCALE
  5
55
102
{ACAD_REACTORS
330
47
102
}
330
47
100
AcDbScale
 70
     0
300
4:1
140
4.0
141
1.0
290
     0
  0
SCALE
  5
56
102
{ACAD_REACTORS
330
47
102
}
330
47
100
AcDbScale
 70
     0
300
8:1
140
8.0
141
1.0
290
     0
  0
SCALE
  5
57
102
{ACAD_REACTORS
330
47
102
}
330
47
100
AcDbScale
 70
     0
300
10:1
140
10.0
141
1.0
290
     0
  0
SCALE
  5
58
102
{ACAD_REACTORS
330
47
102
}
330
47
100
AcDbScale
 70
     0
300
100:1
140
100.0
141
1.0
290
     0
  0
SCALE
  5
59
102
{ACAD_REACTORS
330
47
102
}
330
47
100
AcDbScale
 70
     0
300
1/128" = 1'-0"
140
0.0078125
141
12.0
290
     0
  0
SCALE
  5
5A
102
{ACAD_REACTORS
330
47
102
}
330
47
100
AcDbScale
 70
     0
300
1/64" = 1'-0"
140
0.015625
141
12.0
290
     0
  0
SCALE
  5
5B
102
{ACAD_REACTORS
330
47
102
}
330
47
100
AcDbScale
 70
     0
300
1/32" = 1'-0"
140
0.03125
141
12.0
290
     0
  0
SCALE
  5
5C
102
{ACAD_REACTORS
330
47
102
}
330
47
100
AcDbScale
 70
     0
300
1/16" = 1'-0"
140
0.0625
141
12.0
290
     0
  0
SCALE
  5
5D
102
{ACAD_REACTORS
330
47
102
}
330
47
100
AcDbScale
 70
     0
300
3/32" = 1'-0"
140
0.09375
141
12.0
290
     0
  0
SCALE
  5
5E
102
{ACAD_REACTORS
330
47
102
}
330
47
100
AcDbScale
 70
     0
300
1/8" = 1'-0"
140
0.125
141
12.0
290
     0
  0
SCALE
  5
5F
102
{ACAD_REACTORS
330
47
102
}
330
47
100
AcDbScale
 70
     0
300
3/16" = 1'-0"
140
0.1875
141
12.0
290
     0
  0
SCALE
  5
60
102
{ACAD_REACTORS
330
47
102
}
330
47
100
AcDbScale
 70
     0
300
1/4" = 1'-0"
140
0.25
141
12.0
290
     0
  0
SCALE
  5
61
102
{ACAD_REACTORS
330
47
102
}
330
47
100
AcDbScale
 70
     0
300
3/8" = 1'-0"
140
0.375
141
12.0
290
     0
  0
SCALE
  5
62
102
{ACAD_REACTORS
330
47
102
}
330
47
100
AcDbScale
 70
     0
300
1/2" = 1'-0"
140
0.5
141
12.0
290
     0
  0
SCALE
  5
63
102
{ACAD_REACTORS
330
47
102
}
330
47
100
AcDbScale
 70
     0
300
3/4" = 1'-0"
140
0.75
141
12.0
290
     0
  0
SCALE
  5
64
102
{ACAD_REACTORS
330
47
102
}
330
47
100
AcDbScale
 70
     0
300
1" = 1'-0"
140
1.0
141
12.0
290
     0
  0
SCALE
  5
65
102
{ACAD_REACTORS
330
47
102
}
330
47
100
AcDbScale
 70
     0
300
1-1/2" = 1'-0"
140
1.5
141
12.0
290
     0
  0
SCALE
  5
66
102
{ACAD_REACTORS
330
47
102
}
330
47
100
AcDbScale
 70
     0
300
3" = 1'-0"
140
3.0
141
12.0
290
     0
  0
SCALE
  5
67
102
{ACAD_REACTORS
330
47
102
}
330
47
100
AcDbScale
 70
     0
300
6" = 1'-0"
140
6.0
141
12.0
290
     0
  0
SCALE
  5
68
102
{ACAD_REACTORS
330
47
102
}
330
47
100
AcDbScale
 70
     0
300
1'-0" = 1'-0"
140
12.0
141
12.0
290
     0
  0
TABLESTYLE
  5
6A
102
{ACAD_REACTORS
330
69
102
}
102
{ACAD_XDICTIONARY
360
259
102
}
330
69
100
AcDbTableStyle
  3
Standard
 70
     0
 71
     0
 40
0.06
 41
0.06
280
     0
281
     0
  7
Standard
140
4.5
170
     2
 62
     0
 63
   257
283
     0
 90
        4
 91
        0
  1

274
    -2
284
     1
 64
     0
275
    -2
285
     1
 65
     0
276
    -2
286
     1
 66
     0
277
    -2
287
     1
 67
     0
278
    -2
288
     1
 68
     0
279
    -2
289
     1
 69
     0
  7
Standard
140
6.0
170
     5
 62
     0
 63
   257
283
     0
 90
        4
 91
        0
  1

274
    -2
284
     1
 64
     0
275
    -2
285
     1
 65
     0
276
    -2
286
     1
 66
     0
277
    -2
287
     1
 67
     0
278
    -2
288
     1
 68
     0
279
    -2
289
     1
 69
     0
  7
Standard
140
4.5
170
     5
 62
     0
 63
   257
283
     0
 90
        4
 91
        0
  1

274
    -2
284
     1
 64
     0
275
    -2
285
     1
 65
     0
276
    -2
286
     1
 66
     0
277
    -2
287
     1
 67
     0
278
    -2
288
     1
 68
     0
279
    -2
289
     1
 69
     0
  0
VISUALSTYLE
  5
2F
102
{ACAD_REACTORS
330
2A
102
}
102
{ACAD_XDICTIONARY
360
231
102
}
330
2A
100
AcDbVisualStyle
  2
2dWireframe
 70
     4
 71
     0
 72
     2
 73
     0
 90
        0
 40
0.6
 41
30.0
 62
     5
 63
     7
421
 16777215
 74
     1
 91
        4
 64
     7
 65
   257
 75
     1
175
     1
 42
1.0
 92
        0
 66
   257
 43
1.0
 76
     1
 77
     6
 78
     2
 67
     7
 79
     5
170
     0
171
     0
290
     0
174
     0
 93
        1
 44
0.0
173
     0
291
     0
 45
0.0
  0
VISUALSTYLE
  5
32
102
{ACAD_REACTORS
330
2A
102
}
102
{ACAD_XDICTIONARY
360
237
102
}
330
2A
100
AcDbVisualStyle
  2
Basic
 70
     7
 71
     1
 72
     0
 73
     1
 90
        0
 40
0.6
 41
30.0
 62
     5
 63
     7
421
 16777215
 74
     0
 91
        4
 64
     7
 65
   257
 75
     1
175
     1
 42
1.0
 92
        8
 66
     7
 43
1.0
 76
     1
 77
     6
 78
     2
 67
     7
 79
     5
170
     0
171
     0
290
     0
174
     0
 93
        1
 44
0.0
173
     0
291
     1
 45
0.0
  0
VISUALSTYLE
  5
36
102
{ACAD_REACTORS
330
2A
102
}
102
{ACAD_XDICTIONARY
360
23F
102
}
330
2A
100
AcDbVisualStyle
  2
Brighten
 70
    12
 71
     2
 72
     2
 73
     0
 90
        0
 40
0.6
 41
30.0
 62
     5
 63
     7
421
 16777215
 74
     1
 91
        4
 64
     7
 65
   257
 75
     1
175
     1
 42
1.0
 92
        8
 66
     7
 43
1.0
 76
     1
 77
     6
 78
     2
 67
     7
 79
     5
170
     0
171
     0
290
     0
174
     0
 93
        1
 44
50.0
173
     0
291
     1
 45
0.0
  0
VISUALSTYLE
  5
3A
102
{ACAD_REACTORS
330
2A
102
}
102
{ACAD_XDICTIONARY
360
247
102
}
330
2A
100
AcDbVisualStyle
  2
ColorChange
 70
    16
 71
     2
 72
     2
 73
     3
 90
        0
 40
0.6
 41
30.0
 62
     5
 63
     8
421
  8421504
 74
     1
 91
        4
 64
     7
 65
   257
 75
     1
175
     1
 42
1.0
 92
        8
 66
     8
424
  8421504
 43
1.0
 76
     1
 77
     6
 78
     2
 67
     7
 79
     5
170
     0
171
     0
290
     0
174
     0
 93
        1
 44
0.0
173
     0
291
     1
 45
0.0
  0
VISUALSTYLE
  5
34
102
{ACAD_REACTORS
330
2A
102
}
102
{ACAD_XDICTIONARY
360
23B
102
}
330
2A
100
AcDbVisualStyle
  2
Conceptual
 70
     9
 71
     3
 72
     2
 73
     0
 90
        0
 40
0.6
 41
30.0
 62
     5
 63
     7
421
 16777215
 74
     2
 91
        2
 64
     7
 65
   257
 75
     1
175
     1
 42
179.0
 92
        8
 66
     7
 43
1.0
 76
     1
 77
     6
 78
     2
 67
     7
 79
     3
170
     0
171
     0
290
     0
174
     0
 93
        1
 44
0.0
173
     0
291
     0
 45
0.0
  0
VISUALSTYLE
  5
35
102
{ACAD_REACTORS
330
2A
102
}
102
{ACAD_XDICTIONARY
360
23D
102
}
330
2A
100
AcDbVisualStyle
  2
Dim
 70
    11
 71
     2
 72
     2
 73
     0
 90
        0
 40
0.6
 41
30.0
 62
     5
 63
     7
421
 16777215
 74
     1
 91
        4
 64
     7
 65
   257
 75
     1
175
     1
 42
1.0
 92
        8
 66
     7
 43
1.0
 76
     1
 77
     6
 78
     2
 67
     7
 79
     5
170
     0
171
     0
290
     0
174
     0
 93
        1
 44
-50.0
173
     0
291
     1
 45
0.0
  0
VISUALSTYLE
  5
3D
102
{ACAD_REACTORS
330
2A
102
}
102
{ACAD_XDICTIONARY
360
24D
102
}
330
2A
100
AcDbVisualStyle
  2
EdgeColorOff
 70
    22
 71
     2
 72
     2
 73
     0
 90
        0
 40
0.6
 41
30.0
 62
     5
 63
     7
421
 16777215
 74
     1
 91
        4
 64
     7
 65
   257
 75
     1
175
     1
 42
1.0
 92
        8
 66
     7
 43
1.0
 76
     1
 77
     6
 78
     2
 67
     7
 79
     5
170
     0
171
     0
290
     0
174
     0
 93
        1
 44
0.0
173
     0
291
     1
 45
0.0
  0
VISUALSTYLE
  5
39
102
{ACAD_REACTORS
330
2A
102
}
102
{ACAD_XDICTIONARY
360
245
102
}
330
2A
100
AcDbVisualStyle
  2
Facepattern
 70
    15
 71
     2
 72
     2
 73
     0
 90
        0
 40
0.6
 41
30.0
 62
     5
 63
     7
421
 16777215
 74
     1
 91
        4
 64
     7
 65
   257
 75
     1
175
     1
 42
1.0
 92
        8
 66
     7
 43
1.0
 76
     1
 77
     6
 78
     2
 67
     7
 79
     5
170
     0
171
     0
290
     0
174
     0
 93
        1
 44
0.0
173
     0
291
     1
 45
0.0
  0
VISUALSTYLE
  5
2B
102
{ACAD_REACTORS
330
2A
102
}
102
{ACAD_XDICTIONARY
360
229
102
}
330
2A
100
AcDbVisualStyle
  2
Flat
 70
     0
 71
     2
 72
     1
 73
     1
 90
        2
 40
0.6
 41
30.0
 62
     5
 63
     7
421
 16777215
 74
     0
 91
        0
 64
     7
 65
   257
 75
     1
175
     1
 42
1.0
 92
        8
 66
     7
 43
1.0
 76
     1
 77
     6
 78
     2
 67
     7
 79
     5
170
     0
171
     0
290
     0
174
     0
 93
       13
 44
0.0
173
     0
291
     1
 45
0.0
  0
VISUALSTYLE
  5
2C
102
{ACAD_REACTORS
330
2A
102
}
102
{ACAD_XDICTIONARY
360
22B
102
}
330
2A
100
AcDbVisualStyle
  2
FlatWithEdges
 70
     1
 71
     2
 72
     1
 73
     1
 90
        2
 40
0.6
 41
30.0
 62
     5
 63
     7
421
 16777215
 74
     1
 91
        0
 64
     7
 65
   257
 75
     1
175
     1
 42
1.0
 92
        0
 66
   257
 43
1.0
 76
     1
 77
     6
 78
     2
 67
     7
 79
     5
170
     0
171
     0
290
     0
174
     0
 93
       13
 44
0.0
173
     0
291
     1
 45
0.0
  0
VISUALSTYLE
  5
2D
102
{ACAD_REACTORS
330
2A
102
}
102
{ACAD_XDICTIONARY
360
22D
102
}
330
2A
100
AcDbVisualStyle
  2
Gouraud
 70
     2
 71
     2
 72
     2
 73
     1
 90
        2
 40
0.6
 41
30.0
 62
     5
 63
     7
421
 16777215
 74
     0
 91
        0
 64
     7
 65
   257
 75
     1
175
     1
 42
1.0
 92
        0
 66
     7
 43
1.0
 76
     1
 77
     6
 78
     2
 67
     7
 79
     5
170
     0
171
     0
290
     0
174
     0
 93
       13
 44
0.0
173
     0
291
     1
 45
0.0
  0
VISUALSTYLE
  5
2E
102
{ACAD_REACTORS
330
2A
102
}
102
{ACAD_XDICTIONARY
360
22F
102
}
330
2A
100
AcDbVisualStyle
  2
GouraudWithEdges
 70
     3
 71
     2
 72
     2
 73
     1
 90
        2
 40
0.6
 41
30.0
 62
     5
 63
     7
421
 16777215
 74
     1
 91
        0
 64
     7
 65
   257
 75
     1
175
     1
 42
1.0
 92
        0
 66
   257
 43
1.0
 76
     1
 77
     6
 78
     2
 67
     7
 79
     5
170
     0
171
     0
290
     0
174
     0
 93
       13
 44
0.0
173
     0
291
     1
 45
0.0
  0
VISUALSTYLE
  5
31
102
{ACAD_REACTORS
330
2A
102
}
102
{ACAD_XDICTIONARY
360
235
102
}
330
2A
100
AcDbVisualStyle
  2
Hidden
 70
     6
 71
     1
 72
     2
 73
     2
 90
        0
 40
0.6
 41
30.0
 62
     5
 63
     7
421
 16777215
 74
     2
 91
        2
 64
     7
 65
   257
 75
     2
175
     1
 42
40.0
 92
        0
 66
   257
 43
1.0
 76
     1
 77
     6
 78
     2
 67
     7
 79
     3
170
     0
171
     0
290
     0
174
     0
 93
        1
 44
0.0
173
     0
291
     0
 45
0.0
  0
VISUALSTYLE
  5
3B
102
{ACAD_REACTORS
330
2A
102
}
102
{ACAD_XDICTIONARY
360
249
102
}
330
2A
100
AcDbVisualStyle
  2
JitterOff
 70
    20
 71
     2
 72
     2
 73
     0
 90
        0
 40
0.6
 41
30.0
 62
     5
 63
     7
421
 16777215
 74
     1
 91
        4
 64
     7
 65
   257
 75
     1
175
     1
 42
1.0
 92
       10
 66
     7
 43
1.0
 76
     1
 77
     6
 78
     2
 67
     7
 79
     5
170
     0
171
     0
290
     0
174
     0
 93
        1
 44
0.0
173
     0
291
     1
 45
0.0
  0
VISUALSTYLE
  5
38
102
{ACAD_REACTORS
330
2A
102
}
102
{ACAD_XDICTIONARY
360
243
102
}
330
2A
100
AcDbVisualStyle
  2
Linepattern
 70
    14
 71
     2
 72
     2
 73
     0
 90
        0
 40
0.6
 41
30.0
 62
     5
 63
     7
421
 16777215
 74
     1
 91
        4
 64
     7
 65
   257
 75
     7
175
     7
 42
1.0
 92
        8
 66
     7
 43
1.0
 76
     1
 77
     6
 78
     2
 67
     7
 79
     5
170
     0
171
     0
290
     0
174
     0
 93
        1
 44
0.0
173
     0
291
     1
 45
0.0
  0
VISUALSTYLE
  5
3C
102
{ACAD_REACTORS
330
2A
102
}
102
{ACAD_XDICTIONARY
360
24B
102
}
330
2A
100
AcDbVisualStyle
  2
OverhangOff
 70
    21
 71
     2
 72
     2
 73
     0
 90
        0
 40
0.6
 41
30.0
 62
     5
 63
     7
421
 16777215
 74
     1
 91
        4
 64
     7
 65
   257
 75
     1
175
     1
 42
1.0
 92
        9
 66
     7
 43
1.0
 76
     1
 77
     6
 78
     2
 67
     7
 79
     5
170
     0
171
     0
290
     0
174
     0
 93
        1
 44
0.0
173
     0
291
     1
 45
0.0
  0
VISUALSTYLE
  5
33
102
{ACAD_REACTORS
330
2A
102
}
102
{ACAD_XDICTIONARY
360
239
102
}
330
2A
100
AcDbVisualStyle
  2
Realistic
 70
     8
 71
     2
 72
     3
 73
     0
 90
        2
 40
0.6
 41
30.0
 62
     5
 63
     7
421
 16777215
 74
     0
 91
        0
 64
     7
 65
   257
 75
     1
175
     1
 42
1.0
 92
        8
 66
   257
 43
1.0
 76
     1
 77
     6
 78
     2
 67
     7
 79
     3
170
     0
171
     0
290
     0
174
     0
 93
       13
 44
0.0
173
     0
291
     0
 45
0.0
  0
VISUALSTYLE
  5
42
102
{ACAD_REACTORS
330
2A
102
}
102
{ACAD_XDICTIONARY
360
257
102
}
330
2A
100
AcDbVisualStyle
  2
Shaded
 70
    27
 71
     2
 72
     2
 73
     1
 90
        2
 40
0.6
 41
30.0
 62
     5
 63
     7
421
 16777215
 74
     0
 91
        4
 64
     7
 65
   257
 75
     1
175
     1
 42
1.0
 92
        8
 66
   257
 43
1.0
 76
     1
 77
     6
 78
     2
 67
     8
425
  7895160
 79
     3
170
     0
171
     0
290
     0
174
     0
 93
        5
 44
0.0
173
     0
291
     0
 45
0.0
  0
VISUALSTYLE
  5
41
102
{ACAD_REACTORS
330
2A
102
}
102
{ACAD_XDICTIONARY
360
255
102
}
330
2A
100
AcDbVisualStyle
  2
Shaded with edges
 70
    26
 71
     2
 72
     2
 73
     1
 90
        2
 40
0.6
 41
30.0
 62
     5
 63
     7
421
 16777215
 74
     1
 91
       10
 64
     7
 65
   257
 75
     2
175
     1
 42
1.0
 92
        8
 66
   257
 43
1.0
 76
     1
 77
     6
 78
     2
 67
     7
 79
     3
170
     0
171
     0
290
     0
174
     0
 93
        5
 44
0.0
173
     0
291
     0
 45
0.0
  0
VISUALSTYLE
  5
3E
102
{ACAD_REACTORS
330
2A
102
}
102
{ACAD_XDICTIONARY
360
24F
102
}
330
2A
100
AcDbVisualStyle
  2
Shades of Gray
 70
    23
 71
     2
 72
     2
 73
     3
 90
        0
 40
0.6
 41
30.0
 62
     5
 63
     7
421
 16777215
 74
     2
 91
        2
 64
     7
 65
     7
 75
     1
175
     1
 42
40.0
 92
        8
 66
     7
 43
1.0
 76
     1
 77
     6
 78
     2
 67
     7
 79
     3
170
     0
171
     0
290
     0
174
     0
 93
        1
 44
0.0
173
     0
291
     0
 45
0.0
  0
VISUALSTYLE
  5
3F
102
{ACAD_REACTORS
330
2A
102
}
102
{ACAD_XDICTIONARY
360
251
102
}
330
2A
100
AcDbVisualStyle
  2
Sketchy
 70
    24
 71
     1
 72
     2
 73
     2
 90
        0
 40
0.6
 41
30.0
 62
     5
 63
     7
421
 16777215
 74
     2
 91
        2
 64
     7
 65
     7
 75
     1
175
     1
 42
40.0
 92
       11
 66
     7
 43
1.0
 76
     1
 77
     6
 78
     2
 67
     7
 79
     6
170
     0
171
     0
290
     0
174
     0
 93
        1
 44
0.0
173
     0
291
     0
 45
0.0
  0
VISUALSTYLE
  5
37
102
{ACAD_REACTORS
330
2A
102
}
102
{ACAD_XDICTIONARY
360
241
102
}
330
2A
100
AcDbVisualStyle
  2
Thicken
 70
    13
 71
     2
 72
     2
 73
     0
 90
        0
 40
0.6
 41
30.0
 62
     5
 63
     7
421
 16777215
 74
     1
 91
        4
 64
     7
 65
   257
 75
     1
175
     1
 42
1.0
 92
       12
 66
     7
 43
1.0
 76
     1
 77
     6
 78
     2
 67
     7
 79
     5
170
     0
171
     0
290
     0
174
     0
 93
        1
 44
0.0
173
     0
291
     1
 45
0.0
  0
VISUALSTYLE
  5
30
102
{ACAD_REACTORS
330
2A
102
}
102
{ACAD_XDICTIONARY
360
233
102
}
330
2A
100
AcDbVisualStyle
  2
Wireframe
 70
     5
 71
     0
 72
     2
 73
     0
 90
        0
 40
0.6
 41
30.0
 62
     5
 63
     7
421
 16777215
 74
     1
 91
        4
 64
     7
 65
   257
 75
     1
175
     1
 42
1.0
 92
        0
 66
   257
 43
1.0
 76
     1
 77
     6
 78
     2
 67
     7
 79
     3
170
     0
171
     0
290
     0
174
     0
 93
        1
 44
0.0
173
     0
291
     0
 45
0.0
  0
VISUALSTYLE
  5
40
102
{ACAD_REACTORS
330
2A
102
}
102
{ACAD_XDICTIONARY
360
253
102
}
330
2A
100
AcDbVisualStyle
  2
X-Ray
 70
    25
 71
     2
 72
     2
 73
     1
 90
        1
 40
0.5
 41
30.0
 62
     5
 63
     7
421
 16777215
 74
     1
 91
        0
 64
     7
 65
   257
 75
     1
175
     1
 42
1.0
 92
        8
 66
     7
 43
1.0
 76
     1
 77
     6
 78
     2
 67
     7
 79
     3
170
     0
171
     0
290
     0
174
     0
 93
       13
 44
0.0
173
     0
291
     0
 45
0.0
  0
DICTIONARYVAR
  5
227
102
{ACAD_REACTORS
330
226
102
}
330
226
100
DictionaryVariables
280
     0
  1
1:1
  0
DICTIONARYVAR
  5
263
102
{ACAD_REACTORS
330
226
102
}
330
226
100
DictionaryVariables
280
     0
  1
3.500000
  0
DICTIONARYVAR
  5
264
102
{ACAD_REACTORS
330
226
102
}
330
226
100
DictionaryVariables
280
     0
  1
acadiso.lin
  0
DICTIONARYVAR
  5
260
102
{ACAD_REACTORS
330
226
102
}
330
226
100
DictionaryVariables
280
     0
  1
Standard
  0
DICTIONARYVAR
  5
25F
102
{ACAD_REACTORS
330
226
102
}
330
226
100
DictionaryVariables
280
     0
  1
Standard
  0
DICTIONARYVAR
  5
228
102
{ACAD_REACTORS
330
226
102
}
330
226
100
DictionaryVariables
280
     0
  1
2
  0
DICTIONARY
  5
25C
330
6C
100
AcDbDictionary
280
     1
281
     1
  3
ACAD_XREC_ROUNDTRIP
360
25D
  0
DICTIONARY
  5
259
330
6A
100
AcDbDictionary
280
     1
281
     1
  3
ACAD_ROUNDTRIP_2008_TABLESTYLE_CELLSTYLEMAP
360
25A
  0
DICTIONARY
  5
231
330
2F
100
AcDbDictionary
280
     1
281
     1
  3
ACAD_XREC_ROUNDTRIP
360
232
  0
DICTIONARY
  5
237
330
32
100
AcDbDictionary
280
     1
281
     1
  3
ACAD_XREC_ROUNDTRIP
360
238
  0
DICTIONARY
  5
23F
330
36
100
AcDbDictionary
280
     1
281
     1
  3
ACAD_XREC_ROUNDTRIP
360
240
  0
DICTIONARY
  5
247
330
3A
100
AcDbDictionary
280
     1
281
     1
  3
ACAD_XREC_ROUNDTRIP
360
248
  0
DICTIONARY
  5
23B
330
34
100
AcDbDictionary
280
     1
281
     1
  3
ACAD_XREC_ROUNDTRIP
360
23C
  0
DICTIONARY
  5
23D
330
35
100
AcDbDictionary
280
     1
281
     1
  3
ACAD_XREC_ROUNDTRIP
360
23E
  0
DICTIONARY
  5
24D
330
3D
100
AcDbDictionary
280
     1
281
     1
  3
ACAD_XREC_ROUNDTRIP
360
24E
  0
DICTIONARY
  5
245
330
39
100
AcDbDictionary
280
     1
281
     1
  3
ACAD_XREC_ROUNDTRIP
360
246
  0
DICTIONARY
  5
229
330
2B
100
AcDbDictionary
280
     1
281
     1
  3
ACAD_XREC_ROUNDTRIP
360
22A
  0
DICTIONARY
  5
22B
330
2C
100
AcDbDictionary
280
     1
281
     1
  3
ACAD_XREC_ROUNDTRIP
360
22C
  0
DICTIONARY
  5
22D
330
2D
100
AcDbDictionary
280
     1
281
     1
  3
ACAD_XREC_ROUNDTRIP
360
22E
  0
DICTIONARY
  5
22F
330
2E
100
AcDbDictionary
280
     1
281
     1
  3
ACAD_XREC_ROUNDTRIP
360
230
  0
DICTIONARY
  5
235
330
31
100
AcDbDictionary
280
     1
281
     1
  3
ACAD_XREC_ROUNDTRIP
360
236
  0
DICTIONARY
  5
249
330
3B
100
AcDbDictionary
280
     1
281
     1
  3
ACAD_XREC_ROUNDTRIP
360
24A
  0
DICTIONARY
  5
243
330
38
100
AcDbDictionary
280
     1
281
     1
  3
ACAD_XREC_ROUNDTRIP
360
244
  0
DICTIONARY
  5
24B
330
3C
100
AcDbDictionary
280
     1
281
     1
  3
ACAD_XREC_ROUNDTRIP
360
24C
  0
DICTIONARY
  5
239
330
33
100
AcDbDictionary
280
     1
281
     1
  3
ACAD_XREC_ROUNDTRIP
360
23A
  0
DICTIONARY
  5
257
330
42
100
AcDbDictionary
280
     1
281
     1
  3
ACAD_XREC_ROUNDTRIP
360
258
  0
DICTIONARY
  5
255
330
41
100
AcDbDictionary
280
     1
281
     1
  3
ACAD_XREC_ROUNDTRIP
360
256
  0
DICTIONARY
  5
24F
330
3E
100
AcDbDictionary
280
     1
281
     1
  3
ACAD_XREC_ROUNDTRIP
360
250
  0
DICTIONARY
  5
251
330
3F
100
AcDbDictionary
280
     1
281
     1
  3
ACAD_XREC_ROUNDTRIP
360
252
  0
DICTIONARY
  5
241
330
37
100
AcDbDictionary
280
     1
281
     1
  3
ACAD_XREC_ROUNDTRIP
360
242
  0
DICTIONARY
  5
233
330
30
100
AcDbDictionary
280
     1
281
     1
  3
ACAD_XREC_ROUNDTRIP
360
234
  0
DICTIONARY
  5
253
330
40
100
AcDbDictionary
280
     1
281
     1
  3
ACAD_XREC_ROUNDTRIP
360
254
  0
XRECORD
  5
25D
102
{ACAD_REACTORS
330
25C
102
}
330
25C
100
AcDbXrecord
280
     1
102
ACAD_ROUNDTRIP_2010_MLEADER_STYLE
  0
CELLSTYLEMAP
  5
25A
102
{ACAD_REACTORS
330
259
102
}
330
259
100
AcDbCellStyleMap
 90
        3
300
CELLSTYLE
  1
TABLEFORMAT_BEGIN
 90
        5
170
     1
 91
        0
 92
    32768
 62
   257
 93
        1
300
CONTENTFORMAT
  1
CONTENTFORMAT_BEGIN
 90
        0
 91
        0
 92
        4
 93
        0
300

 40
0.0
140
1.0
 94
        5
 62
     0
340
11
144
6.0
309
CONTENTFORMAT_END
171
     1
301
MARGIN
  1
CELLMARGIN_BEGIN
 40
1.5
 40
1.5
 40
1.5
 40
1.5
 40
1.5
 40
1.5
309
CELLMARGIN_END
 94
        6
 95
        1
302
GRIDFORMAT
  1
GRIDFORMAT_BEGIN
 90
        0
 91
        1
 62
     0
 92
       -2
340
14
 93
        0
 40
0.045
309
GRIDFORMAT_END
 95
        2
302
GRIDFORMAT
  1
GRIDFORMAT_BEGIN
 90
        0
 91
        1
 62
     0
 92
       -2
340
14
 93
        0
 40
0.045
309
GRIDFORMAT_END
 95
        4
302
GRIDFORMAT
  1
GRIDFORMAT_BEGIN
 90
        0
 91
        1
 62
     0
 92
       -2
340
14
 93
        0
 40
0.045
309
GRIDFORMAT_END
 95
        8
302
GRIDFORMAT
  1
GRIDFORMAT_BEGIN
 90
        0
 91
        1
 62
     0
 92
       -2
340
14
 93
        0
 40
0.045
309
GRIDFORMAT_END
 95
       16
302
GRIDFORMAT
  1
GRIDFORMAT_BEGIN
 90
        0
 91
        1
 62
     0
 92
       -2
340
14
 93
        0
 40
0.045
309
GRIDFORMAT_END
 95
       32
302
GRIDFORMAT
  1
GRIDFORMAT_BEGIN
 90
        0
 91
        1
 62
     0
 92
       -2
340
14
 93
        0
 40
0.045
309
GRIDFORMAT_END
309
TABLEFORMAT_END
  1
CELLSTYLE_BEGIN
 90
        1
 91
        1
300
_TITLE
309
CELLSTYLE_END
300
CELLSTYLE
  1
TABLEFORMAT_BEGIN
 90
        5
170
     1
 91
        0
 92
        0
 62
   257
 93
        1
300
CONTENTFORMAT
  1
CONTENTFORMAT_BEGIN
 90
        0
 91
        0
 92
        4
 93
        0
300

 40
0.0
140
1.0
 94
        5
 62
     0
340
11
144
4.5
309
CONTENTFORMAT_END
171
     1
301
MARGIN
  1
CELLMARGIN_BEGIN
 40
1.5
 40
1.5
 40
1.5
 40
1.5
 40
1.5
 40
1.5
309
CELLMARGIN_END
 94
        6
 95
        1
302
GRIDFORMAT
  1
GRIDFORMAT_BEGIN
 90
        0
 91
        1
 62
     0
 92
       -2
340
14
 93
        0
 40
0.045
309
GRIDFORMAT_END
 95
        2
302
GRIDFORMAT
  1
GRIDFORMAT_BEGIN
 90
        0
 91
        1
 62
     0
 92
       -2
340
14
 93
        0
 40
0.045
309
GRIDFORMAT_END
 95
        4
302
GRIDFORMAT
  1
GRIDFORMAT_BEGIN
 90
        0
 91
        1
 62
     0
 92
       -2
340
14
 93
        0
 40
0.045
309
GRIDFORMAT_END
 95
        8
302
GRIDFORMAT
  1
GRIDFORMAT_BEGIN
 90
        0
 91
        1
 62
     0
 92
       -2
340
14
 93
        0
 40
0.045
309
GRIDFORMAT_END
 95
       16
302
GRIDFORMAT
  1
GRIDFORMAT_BEGIN
 90
        0
 91
        1
 62
     0
 92
       -2
340
14
 93
        0
 40
0.045
309
GRIDFORMAT_END
 95
       32
302
GRIDFORMAT
  1
GRIDFORMAT_BEGIN
 90
        0
 91
        1
 62
     0
 92
       -2
340
14
 93
        0
 40
0.045
309
GRIDFORMAT_END
309
TABLEFORMAT_END
  1
CELLSTYLE_BEGIN
 90
        2
 91
        1
300
_HEADER
309
CELLSTYLE_END
300
CELLSTYLE
  1
TABLEFORMAT_BEGIN
 90
        5
170
     1
 91
        0
 92
        0
 62
   257
 93
        1
300
CONTENTFORMAT
  1
CONTENTFORMAT_BEGIN
 90
        0
 91
        0
 92
        4
 93
        0
300

 40
0.0
140
1.0
 94
        2
 62
     0
340
11
144
4.5
309
CONTENTFORMAT_END
171
     1
301
MARGIN
  1
CELLMARGIN_BEGIN
 40
1.5
 40
1.5
 40
1.5
 40
1.5
 40
1.5
 40
1.5
309
CELLMARGIN_END
 94
        6
 95
        1
302
GRIDFORMAT
  1
GRIDFORMAT_BEGIN
 90
        0
 91
        1
 62
     0
 92
       -2
340
14
 93
        0
 40
0.045
309
GRIDFORMAT_END
 95
        2
302
GRIDFORMAT
  1
GRIDFORMAT_BEGIN
 90
        0
 91
        1
 62
     0
 92
       -2
340
14
 93
        0
 40
0.045
309
GRIDFORMAT_END
 95
        4
302
GRIDFORMAT
  1
GRIDFORMAT_BEGIN
 90
        0
 91
        1
 62
     0
 92
       -2
340
14
 93
        0
 40
0.045
309
GRIDFORMAT_END
 95
        8
302
GRIDFORMAT
  1
GRIDFORMAT_BEGIN
 90
        0
 91
        1
 62
     0
 92
       -2
340
14
 93
        0
 40
0.045
309
GRIDFORMAT_END
 95
       16
302
GRIDFORMAT
  1
GRIDFORMAT_BEGIN
 90
        0
 91
        1
 62
     0
 92
       -2
340
14
 93
        0
 40
0.045
309
GRIDFORMAT_END
 95
       32
302
GRIDFORMAT
  1
GRIDFORMAT_BEGIN
 90
        0
 91
        1
 62
     0
 92
       -2
340
14
 93
        0
 40
0.045
309
GRIDFORMAT_END
309
TABLEFORMAT_END
  1
CELLSTYLE_BEGIN
 90
        3
 91
        2
300
_DATA
309
CELLSTYLE_END
  0
XRECORD
  5
232
102
{ACAD_REACTORS
330
231
102
}
330
231
100
AcDbXrecord
280
     1
102
RTVSPropertyOp0
 70
     1
102
RTVSPropertyOp1
 70
     1
102
RTVSPropertyOp2
 70
     1
102
RTVSPropertyOp3
 70
     1
102
RTVSPropertyOp4
 70
     1
102
RTVSPropertyOp5
 70
     1
102
RTVSPropertyOp6
 70
     1
102
RTVSPropertyOp7
 70
     1
102
RTVSPropertyOp8
 70
     1
102
RTVSPropertyOp9
 70
     1
102
RTVSPropertyOp10
 70
     1
102
RTVSPropertyOp11
 70
     1
102
RTVSPropertyOp12
 70
     1
102
RTVSPropertyOp13
 70
     1
102
RTVSPropertyOp14
 70
     1
102
RTVSPropertyOp15
 70
     1
102
RTVSPropertyOp16
 70
     1
102
RTVSPropertyOp17
 70
     1
102
RTVSPropertyOp18
 70
     1
102
RTVSPropertyOp19
 70
     1
102
RTVSPropertyOp20
 70
     1
102
RTVSPropertyOp21
 70
     1
102
RTVSPropertyOp22
 70
     1
102
RTVSPropertyOp23
 70
     1
102
RTVSPropertyOp24
 70
     1
102
RTVSPropertyOp25
 70
     1
102
RTVSPropertyOp26
 70
     1
102
RTVSPropertyOp27
 70
     1
102
RTVSPropertyOp28
 70
     1
102
RTVSPropertyOp29
 70
     1
102
RTVSPropertyOp30
 70
     1
102
RTVSPropertyOp31
 70
     1
102
RTVSPropertyOp32
 70
     1
102
RTVSPropertyOp33
 70
     1
102
RTVSPropertyOp34
 70
     1
102
RTVSPropertyOp35
 70
     1
102
RTVSPropertyOp36
 70
     1
102
RTVSPropertyOp37
 70
     1
102
RTVSPropertyOp38
 70
     1
102
RTVSPropertyOp39
 70
     1
102
RTVSPropertyOp40
 70
     1
102
RTVSPropertyOp41
 70
     1
102
RTVSPropertyOp42
 70
     1
102
RTVSPropertyOp43
 70
     1
102
RTVSPropertyOp44
 70
     1
102
RTVSPropertyOp45
 70
     1
102
RTVSPropertyOp46
 70
     1
102
RTVSPropertyOp47
 70
     1
102
RTVSPropertyOp48
 70
     1
102
RTVSPropertyOp49
 70
     1
102
RTVSPropertyOp50
 70
     1
102
RTVSPropertyOp51
 70
     0
102
RTVSPropertyOp52
 70
     0
102
RTVSPropertyOp53
 70
     1
102
RTVSPropertyOp54
 70
     1
102
RTVSPropertyOp55
 70
     1
102
RTVSPropertyOp56
 70
     1
102
RTVSPropertyOp57
 70
     1
102
RTVSPost2010Prop28
280
     1
102
RTVSPost2010PropOp28
 70
     1
102
RTVSPost2010Prop29
280
     1
102
RTVSPost2010PropOp29
 70
     1
102
RTVSPost2010Prop30
280
     0
102
RTVSPost2010PropOp30
 70
     1
102
RTVSPost2010Prop31
280
     0
102
RTVSPost2010PropOp31
 70
     1
102
RTVSPost2010Prop32
280
     0
102
RTVSPost2010PropOp32
 70
     1
102
RTVSPost2010Prop33
280
     0
102
RTVSPost2010PropOp33
 70
     1
102
RTVSPost2010Prop34
280
     0
102
RTVSPost2010PropOp34
 70
     1
102
RTVSPost2010Prop35
280
     0
102
RTVSPost2010PropOp35
 70
     1
102
RTVSPost2010Prop36
280
     0
102
RTVSPost2010PropOp36
 70
     1
102
RTVSPost2010Prop37
 90
       50
102
RTVSPost2010PropOp37
 70
     1
102
RTVSPost2010Prop38
140
0.0
102
RTVSPost2010PropOp38
 70
     1
102
RTVSPost2010Prop39
140
1.0
102
RTVSPost2010PropOp39
 70
     1
102
RTVSPost2010Prop40
 90
        0
102
RTVSPost2010PropOp40
 70
     1
102
RTVSPost2010Prop41ColorIndex
 90
       18
102
RTVSPost2010Prop41ColorRGB
 90
        0
102
RTVSPost2010PropOp41
 70
     1
102
RTVSPost2010Prop42
 90
       50
102
RTVSPost2010PropOp42
 70
     1
102
RTVSPost2010Prop43
 90
        3
102
RTVSPost2010PropOp43
 70
     1
102
RTVSPost2010Prop44ColorIndex
 90
        5
102
RTVSPost2010Prop44ColorRGB
 90
      255
102
RTVSPost2010PropOp44
 70
     1
102
RTVSPost2010Prop45
280
     0
102
RTVSPost2010PropOp45
 70
     1
102
RTVSPost2010Prop46
 90
       50
102
RTVSPost2010PropOp46
 70
     1
102
RTVSPost2010Prop47
 90
       50
102
RTVSPost2010PropOp47
 70
     1
102
RTVSPost2010Prop48
 90
       50
102
RTVSPost2010PropOp48
 70
     1
102
RTVSPost2010Prop49
280
     0
102
RTVSPost2010PropOp49
 70
     1
102
RTVSPost2010Prop50
 90
       50
102
RTVSPost2010PropOp50
 70
     1
102
RTVSPost2010Prop51ColorIndex
 90
      256
102
RTVSPost2010Prop51ColorRGB
 90
-16777216
102
RTVSPost2010PropOp51
 70
     0
102
RTVSPost2010Prop52
140
1.0
102
RTVSPost2010PropOp52
 70
     0
102
RTVSPost2010Prop53
 90
        2
102
RTVSPost2010PropOp53
 70
     1
102
RTVSPost2010Prop54
  1
strokes_ogs.tif
102
RTVSPost2010PropOp54
 70
     1
102
RTVSPost2010Prop55
280
     0
102
RTVSPost2010PropOp55
 70
     1
102
RTVSPost2010Prop56
140
1.0
102
RTVSPost2010PropOp56
 70
     1
102
RTVSPost2010Prop57
140
1.0
102
RTVSPost2010PropOp57
 70
     1
  0
XRECORD
  5
238
102
{ACAD_REACTORS
330
237
102
}
330
237
100
AcDbXrecord
280
     1
102
RTVSPropertyOp0
 70
     1
102
RTVSPropertyOp1
 70
     1
102
RTVSPropertyOp2
 70
     1
102
RTVSPropertyOp3
 70
     1
102
RTVSPropertyOp4
 70
     1
102
RTVSPropertyOp5
 70
     1
102
RTVSPropertyOp6
 70
     1
102
RTVSPropertyOp7
 70
     1
102
RTVSPropertyOp8
 70
     1
102
RTVSPropertyOp9
 70
     1
102
RTVSPropertyOp10
 70
     1
102
RTVSPropertyOp11
 70
     1
102
RTVSPropertyOp12
 70
     1
102
RTVSPropertyOp13
 70
     1
102
RTVSPropertyOp14
 70
     1
102
RTVSPropertyOp15
 70
     1
102
RTVSPropertyOp16
 70
     1
102
RTVSPropertyOp17
 70
     1
102
RTVSPropertyOp18
 70
     1
102
RTVSPropertyOp19
 70
     1
102
RTVSPropertyOp20
 70
     1
102
RTVSPropertyOp21
 70
     1
102
RTVSPropertyOp22
 70
     1
102
RTVSPropertyOp23
 70
     1
102
RTVSPropertyOp24
 70
     1
102
RTVSPropertyOp25
 70
     1
102
RTVSPropertyOp26
 70
     1
102
RTVSPropertyOp27
 70
     1
102
RTVSPropertyOp28
 70
     1
102
RTVSPropertyOp29
 70
     1
102
RTVSPropertyOp30
 70
     1
102
RTVSPropertyOp31
 70
     1
102
RTVSPropertyOp32
 70
     1
102
RTVSPropertyOp33
 70
     1
102
RTVSPropertyOp34
 70
     1
102
RTVSPropertyOp35
 70
     1
102
RTVSPropertyOp36
 70
     1
102
RTVSPropertyOp37
 70
     1
102
RTVSPropertyOp38
 70
     1
102
RTVSPropertyOp39
 70
     1
102
RTVSPropertyOp40
 70
     1
102
RTVSPropertyOp41
 70
     1
102
RTVSPropertyOp42
 70
     1
102
RTVSPropertyOp43
 70
     1
102
RTVSPropertyOp44
 70
     1
102
RTVSPropertyOp45
 70
     1
102
RTVSPropertyOp46
 70
     1
102
RTVSPropertyOp47
 70
     1
102
RTVSPropertyOp48
 70
     1
102
RTVSPropertyOp49
 70
     1
102
RTVSPropertyOp50
 70
     1
102
RTVSPropertyOp51
 70
     0
102
RTVSPropertyOp52
 70
     0
102
RTVSPropertyOp53
 70
     1
102
RTVSPropertyOp54
 70
     1
102
RTVSPropertyOp55
 70
     1
102
RTVSPropertyOp56
 70
     1
102
RTVSPropertyOp57
 70
     1
102
RTVSPost2010Prop28
280
     0
102
RTVSPost2010PropOp28
 70
     1
102
RTVSPost2010Prop29
280
     1
102
RTVSPost2010PropOp29
 70
     1
102
RTVSPost2010Prop30
280
     1
102
RTVSPost2010PropOp30
 70
     1
102
RTVSPost2010Prop31
280
     0
102
RTVSPost2010PropOp31
 70
     1
102
RTVSPost2010Prop32
280
     0
102
RTVSPost2010PropOp32
 70
     1
102
RTVSPost2010Prop33
280
     0
102
RTVSPost2010PropOp33
 70
     1
102
RTVSPost2010Prop34
280
     0
102
RTVSPost2010PropOp34
 70
     1
102
RTVSPost2010Prop35
280
     0
102
RTVSPost2010PropOp35
 70
     1
102
RTVSPost2010Prop36
280
     0
102
RTVSPost2010PropOp36
 70
     1
102
RTVSPost2010Prop37
 90
       50
102
RTVSPost2010PropOp37
 70
     1
102
RTVSPost2010Prop38
140
0.0
102
RTVSPost2010PropOp38
 70
     1
102
RTVSPost2010Prop39
140
1.0
102
RTVSPost2010PropOp39
 70
     1
102
RTVSPost2010Prop40
 90
        0
102
RTVSPost2010PropOp40
 70
     1
102
RTVSPost2010Prop41ColorIndex
 90
       18
102
RTVSPost2010Prop41ColorRGB
 90
        0
102
RTVSPost2010PropOp41
 70
     1
102
RTVSPost2010Prop42
 90
       50
102
RTVSPost2010PropOp42
 70
     1
102
RTVSPost2010Prop43
 90
        3
102
RTVSPost2010PropOp43
 70
     1
102
RTVSPost2010Prop44ColorIndex
 90
        5
102
RTVSPost2010Prop44ColorRGB
 90
      255
102
RTVSPost2010PropOp44
 70
     1
102
RTVSPost2010Prop45
280
     0
102
RTVSPost2010PropOp45
 70
     1
102
RTVSPost2010Prop46
 90
       50
102
RTVSPost2010PropOp46
 70
     1
102
RTVSPost2010Prop47
 90
       50
102
RTVSPost2010PropOp47
 70
     1
102
RTVSPost2010Prop48
 90
       50
102
RTVSPost2010PropOp48
 70
     1
102
RTVSPost2010Prop49
280
     0
102
RTVSPost2010PropOp49
 70
     1
102
RTVSPost2010Prop50
 90
       50
102
RTVSPost2010PropOp50
 70
     1
102
RTVSPost2010Prop51ColorIndex
 90
      256
102
RTVSPost2010Prop51ColorRGB
 90
-16777216
102
RTVSPost2010PropOp51
 70
     0
102
RTVSPost2010Prop52
140
1.0
102
RTVSPost2010PropOp52
 70
     0
102
RTVSPost2010Prop53
 90
        2
102
RTVSPost2010PropOp53
 70
     1
102
RTVSPost2010Prop54
  1
strokes_ogs.tif
102
RTVSPost2010PropOp54
 70
     1
102
RTVSPost2010Prop55
280
     0
102
RTVSPost2010PropOp55
 70
     1
102
RTVSPost2010Prop56
140
1.0
102
RTVSPost2010PropOp56
 70
     1
102
RTVSPost2010Prop57
140
1.0
102
RTVSPost2010PropOp57
 70
     1
  0
XRECORD
  5
240
102
{ACAD_REACTORS
330
23F
102
}
330
23F
100
AcDbXrecord
280
     1
102
RTVSPropertyOp0
 70
     1
102
RTVSPropertyOp1
 70
     1
102
RTVSPropertyOp2
 70
     1
102
RTVSPropertyOp3
 70
     1
102
RTVSPropertyOp4
 70
     1
102
RTVSPropertyOp5
 70
     1
102
RTVSPropertyOp6
 70
     1
102
RTVSPropertyOp7
 70
     1
102
RTVSPropertyOp8
 70
     1
102
RTVSPropertyOp9
 70
     1
102
RTVSPropertyOp10
 70
     1
102
RTVSPropertyOp11
 70
     1
102
RTVSPropertyOp12
 70
     1
102
RTVSPropertyOp13
 70
     1
102
RTVSPropertyOp14
 70
     1
102
RTVSPropertyOp15
 70
     1
102
RTVSPropertyOp16
 70
     1
102
RTVSPropertyOp17
 70
     1
102
RTVSPropertyOp18
 70
     1
102
RTVSPropertyOp19
 70
     1
102
RTVSPropertyOp20
 70
     1
102
RTVSPropertyOp21
 70
     1
102
RTVSPropertyOp22
 70
     1
102
RTVSPropertyOp23
 70
     1
102
RTVSPropertyOp24
 70
     1
102
RTVSPropertyOp25
 70
     1
102
RTVSPropertyOp26
 70
     1
102
RTVSPropertyOp27
 70
     1
102
RTVSPropertyOp28
 70
     1
102
RTVSPropertyOp29
 70
     1
102
RTVSPropertyOp30
 70
     1
102
RTVSPropertyOp31
 70
     1
102
RTVSPropertyOp32
 70
     1
102
RTVSPropertyOp33
 70
     1
102
RTVSPropertyOp34
 70
     1
102
RTVSPropertyOp35
 70
     1
102
RTVSPropertyOp36
 70
     1
102
RTVSPropertyOp37
 70
     1
102
RTVSPropertyOp38
 70
     1
102
RTVSPropertyOp39
 70
     1
102
RTVSPropertyOp40
 70
     1
102
RTVSPropertyOp41
 70
     1
102
RTVSPropertyOp42
 70
     1
102
RTVSPropertyOp43
 70
     1
102
RTVSPropertyOp44
 70
     1
102
RTVSPropertyOp45
 70
     1
102
RTVSPropertyOp46
 70
     1
102
RTVSPropertyOp47
 70
     1
102
RTVSPropertyOp48
 70
     1
102
RTVSPropertyOp49
 70
     1
102
RTVSPropertyOp50
 70
     1
102
RTVSPropertyOp51
 70
     0
102
RTVSPropertyOp52
 70
     0
102
RTVSPropertyOp53
 70
     1
102
RTVSPropertyOp54
 70
     1
102
RTVSPropertyOp55
 70
     1
102
RTVSPropertyOp56
 70
     1
102
RTVSPropertyOp57
 70
     1
102
RTVSPost2010Prop28
280
     0
102
RTVSPost2010PropOp28
 70
     1
102
RTVSPost2010Prop29
280
     1
102
RTVSPost2010PropOp29
 70
     1
102
RTVSPost2010Prop30
280
     1
102
RTVSPost2010PropOp30
 70
     1
102
RTVSPost2010Prop31
280
     0
102
RTVSPost2010PropOp31
 70
     1
102
RTVSPost2010Prop32
280
     0
102
RTVSPost2010PropOp32
 70
     1
102
RTVSPost2010Prop33
280
     0
102
RTVSPost2010PropOp33
 70
     1
102
RTVSPost2010Prop34
280
     0
102
RTVSPost2010PropOp34
 70
     1
102
RTVSPost2010Prop35
280
     0
102
RTVSPost2010PropOp35
 70
     1
102
RTVSPost2010Prop36
280
     0
102
RTVSPost2010PropOp36
 70
     1
102
RTVSPost2010Prop37
 90
       50
102
RTVSPost2010PropOp37
 70
     1
102
RTVSPost2010Prop38
140
0.0
102
RTVSPost2010PropOp38
 70
     1
102
RTVSPost2010Prop39
140
1.0
102
RTVSPost2010PropOp39
 70
     1
102
RTVSPost2010Prop40
 90
        0
102
RTVSPost2010PropOp40
 70
     1
102
RTVSPost2010Prop41ColorIndex
 90
       18
102
RTVSPost2010Prop41ColorRGB
 90
        0
102
RTVSPost2010PropOp41
 70
     1
102
RTVSPost2010Prop42
 90
       50
102
RTVSPost2010PropOp42
 70
     1
102
RTVSPost2010Prop43
 90
        3
102
RTVSPost2010PropOp43
 70
     1
102
RTVSPost2010Prop44ColorIndex
 90
        5
102
RTVSPost2010Prop44ColorRGB
 90
      255
102
RTVSPost2010PropOp44
 70
     1
102
RTVSPost2010Prop45
280
     0
102
RTVSPost2010PropOp45
 70
     1
102
RTVSPost2010Prop46
 90
       50
102
RTVSPost2010PropOp46
 70
     1
102
RTVSPost2010Prop47
 90
       50
102
RTVSPost2010PropOp47
 70
     1
102
RTVSPost2010Prop48
 90
       50
102
RTVSPost2010PropOp48
 70
     1
102
RTVSPost2010Prop49
280
     0
102
RTVSPost2010PropOp49
 70
     1
102
RTVSPost2010Prop50
 90
       50
102
RTVSPost2010PropOp50
 70
     1
102
RTVSPost2010Prop51ColorIndex
 90
      256
102
RTVSPost2010Prop51ColorRGB
 90
-16777216
102
RTVSPost2010PropOp51
 70
     0
102
RTVSPost2010Prop52
140
1.0
102
RTVSPost2010PropOp52
 70
     0
102
RTVSPost2010Prop53
 90
        2
102
RTVSPost2010PropOp53
 70
     1
102
RTVSPost2010Prop54
  1
strokes_ogs.tif
102
RTVSPost2010PropOp54
 70
     1
102
RTVSPost2010Prop55
280
     0
102
RTVSPost2010PropOp55
 70
     1
102
RTVSPost2010Prop56
140
1.0
102
RTVSPost2010PropOp56
 70
     1
102
RTVSPost2010Prop57
140
1.0
102
RTVSPost2010PropOp57
 70
     1
  0
XRECORD
  5
248
102
{ACAD_REACTORS
330
247
102
}
330
247
100
AcDbXrecord
280
     1
102
RTVSPropertyOp0
 70
     1
102
RTVSPropertyOp1
 70
     1
102
RTVSPropertyOp2
 70
     1
102
RTVSPropertyOp3
 70
     1
102
RTVSPropertyOp4
 70
     1
102
RTVSPropertyOp5
 70
     1
102
RTVSPropertyOp6
 70
     1
102
RTVSPropertyOp7
 70
     1
102
RTVSPropertyOp8
 70
     1
102
RTVSPropertyOp9
 70
     1
102
RTVSPropertyOp10
 70
     1
102
RTVSPropertyOp11
 70
     1
102
RTVSPropertyOp12
 70
     1
102
RTVSPropertyOp13
 70
     1
102
RTVSPropertyOp14
 70
     1
102
RTVSPropertyOp15
 70
     1
102
RTVSPropertyOp16
 70
     1
102
RTVSPropertyOp17
 70
     1
102
RTVSPropertyOp18
 70
     1
102
RTVSPropertyOp19
 70
     1
102
RTVSPropertyOp20
 70
     1
102
RTVSPropertyOp21
 70
     1
102
RTVSPropertyOp22
 70
     1
102
RTVSPropertyOp23
 70
     1
102
RTVSPropertyOp24
 70
     1
102
RTVSPropertyOp25
 70
     1
102
RTVSPropertyOp26
 70
     1
102
RTVSPropertyOp27
 70
     1
102
RTVSPropertyOp28
 70
     1
102
RTVSPropertyOp29
 70
     1
102
RTVSPropertyOp30
 70
     1
102
RTVSPropertyOp31
 70
     1
102
RTVSPropertyOp32
 70
     1
102
RTVSPropertyOp33
 70
     1
102
RTVSPropertyOp34
 70
     1
102
RTVSPropertyOp35
 70
     1
102
RTVSPropertyOp36
 70
     1
102
RTVSPropertyOp37
 70
     1
102
RTVSPropertyOp38
 70
     1
102
RTVSPropertyOp39
 70
     1
102
RTVSPropertyOp40
 70
     1
102
RTVSPropertyOp41
 70
     1
102
RTVSPropertyOp42
 70
     1
102
RTVSPropertyOp43
 70
     1
102
RTVSPropertyOp44
 70
     1
102
RTVSPropertyOp45
 70
     1
102
RTVSPropertyOp46
 70
     1
102
RTVSPropertyOp47
 70
     1
102
RTVSPropertyOp48
 70
     1
102
RTVSPropertyOp49
 70
     1
102
RTVSPropertyOp50
 70
     1
102
RTVSPropertyOp51
 70
     0
102
RTVSPropertyOp52
 70
     0
102
RTVSPropertyOp53
 70
     1
102
RTVSPropertyOp54
 70
     1
102
RTVSPropertyOp55
 70
     1
102
RTVSPropertyOp56
 70
     1
102
RTVSPropertyOp57
 70
     1
102
RTVSPost2010Prop28
280
     0
102
RTVSPost2010PropOp28
 70
     1
102
RTVSPost2010Prop29
280
     1
102
RTVSPost2010PropOp29
 70
     1
102
RTVSPost2010Prop30
280
     1
102
RTVSPost2010PropOp30
 70
     1
102
RTVSPost2010Prop31
280
     0
102
RTVSPost2010PropOp31
 70
     1
102
RTVSPost2010Prop32
280
     0
102
RTVSPost2010PropOp32
 70
     1
102
RTVSPost2010Prop33
280
     0
102
RTVSPost2010PropOp33
 70
     1
102
RTVSPost2010Prop34
280
     0
102
RTVSPost2010PropOp34
 70
     1
102
RTVSPost2010Prop35
280
     0
102
RTVSPost2010PropOp35
 70
     1
102
RTVSPost2010Prop36
280
     0
102
RTVSPost2010PropOp36
 70
     1
102
RTVSPost2010Prop37
 90
       50
102
RTVSPost2010PropOp37
 70
     1
102
RTVSPost2010Prop38
140
0.0
102
RTVSPost2010PropOp38
 70
     1
102
RTVSPost2010Prop39
140
1.0
102
RTVSPost2010PropOp39
 70
     1
102
RTVSPost2010Prop40
 90
        0
102
RTVSPost2010PropOp40
 70
     1
102
RTVSPost2010Prop41ColorIndex
 90
       18
102
RTVSPost2010Prop41ColorRGB
 90
        0
102
RTVSPost2010PropOp41
 70
     1
102
RTVSPost2010Prop42
 90
       50
102
RTVSPost2010PropOp42
 70
     1
102
RTVSPost2010Prop43
 90
        3
102
RTVSPost2010PropOp43
 70
     1
102
RTVSPost2010Prop44ColorIndex
 90
        5
102
RTVSPost2010Prop44ColorRGB
 90
      255
102
RTVSPost2010PropOp44
 70
     1
102
RTVSPost2010Prop45
280
     0
102
RTVSPost2010PropOp45
 70
     1
102
RTVSPost2010Prop46
 90
       50
102
RTVSPost2010PropOp46
 70
     1
102
RTVSPost2010Prop47
 90
       50
102
RTVSPost2010PropOp47
 70
     1
102
RTVSPost2010Prop48
 90
       50
102
RTVSPost2010PropOp48
 70
     1
102
RTVSPost2010Prop49
280
     0
102
RTVSPost2010PropOp49
 70
     1
102
RTVSPost2010Prop50
 90
       50
102
RTVSPost2010PropOp50
 70
     1
102
RTVSPost2010Prop51ColorIndex
 90
      256
102
RTVSPost2010Prop51ColorRGB
 90
-16777216
102
RTVSPost2010PropOp51
 70
     0
102
RTVSPost2010Prop52
140
1.0
102
RTVSPost2010PropOp52
 70
     0
102
RTVSPost2010Prop53
 90
        2
102
RTVSPost2010PropOp53
 70
     1
102
RTVSPost2010Prop54
  1
strokes_ogs.tif
102
RTVSPost2010PropOp54
 70
     1
102
RTVSPost2010Prop55
280
     0
102
RTVSPost2010PropOp55
 70
     1
102
RTVSPost2010Prop56
140
1.0
102
RTVSPost2010PropOp56
 70
     1
102
RTVSPost2010Prop57
140
1.0
102
RTVSPost2010PropOp57
 70
     1
  0
XRECORD
  5
23C
102
{ACAD_REACTORS
330
23B
102
}
330
23B
100
AcDbXrecord
280
     1
102
RTVSPropertyOp0
 70
     1
102
RTVSPropertyOp1
 70
     1
102
RTVSPropertyOp2
 70
     1
102
RTVSPropertyOp3
 70
     1
102
RTVSPropertyOp4
 70
     1
102
RTVSPropertyOp5
 70
     1
102
RTVSPropertyOp6
 70
     1
102
RTVSPropertyOp7
 70
     1
102
RTVSPropertyOp8
 70
     1
102
RTVSPropertyOp9
 70
     1
102
RTVSPropertyOp10
 70
     1
102
RTVSPropertyOp11
 70
     1
102
RTVSPropertyOp12
 70
     1
102
RTVSPropertyOp13
 70
     1
102
RTVSPropertyOp14
 70
     1
102
RTVSPropertyOp15
 70
     1
102
RTVSPropertyOp16
 70
     1
102
RTVSPropertyOp17
 70
     1
102
RTVSPropertyOp18
 70
     1
102
RTVSPropertyOp19
 70
     1
102
RTVSPropertyOp20
 70
     1
102
RTVSPropertyOp21
 70
     1
102
RTVSPropertyOp22
 70
     1
102
RTVSPropertyOp23
 70
     1
102
RTVSPropertyOp24
 70
     1
102
RTVSPropertyOp25
 70
     1
102
RTVSPropertyOp26
 70
     1
102
RTVSPropertyOp27
 70
     1
102
RTVSPropertyOp28
 70
     1
102
RTVSPropertyOp29
 70
     1
102
RTVSPropertyOp30
 70
     1
102
RTVSPropertyOp31
 70
     1
102
RTVSPropertyOp32
 70
     1
102
RTVSPropertyOp33
 70
     1
102
RTVSPropertyOp34
 70
     1
102
RTVSPropertyOp35
 70
     1
102
RTVSPropertyOp36
 70
     1
102
RTVSPropertyOp37
 70
     1
102
RTVSPropertyOp38
 70
     1
102
RTVSPropertyOp39
 70
     1
102
RTVSPropertyOp40
 70
     1
102
RTVSPropertyOp41
 70
     1
102
RTVSPropertyOp42
 70
     1
102
RTVSPropertyOp43
 70
     1
102
RTVSPropertyOp44
 70
     1
102
RTVSPropertyOp45
 70
     1
102
RTVSPropertyOp46
 70
     1
102
RTVSPropertyOp47
 70
     1
102
RTVSPropertyOp48
 70
     1
102
RTVSPropertyOp49
 70
     1
102
RTVSPropertyOp50
 70
     1
102
RTVSPropertyOp51
 70
     0
102
RTVSPropertyOp52
 70
     0
102
RTVSPropertyOp53
 70
     1
102
RTVSPropertyOp54
 70
     1
102
RTVSPropertyOp55
 70
     1
102
RTVSPropertyOp56
 70
     1
102
RTVSPropertyOp57
 70
     1
102
RTVSPost2010Prop28
280
     0
102
RTVSPost2010PropOp28
 70
     1
102
RTVSPost2010Prop29
280
     1
102
RTVSPost2010PropOp29
 70
     1
102
RTVSPost2010Prop30
280
     1
102
RTVSPost2010PropOp30
 70
     1
102
RTVSPost2010Prop31
280
     0
102
RTVSPost2010PropOp31
 70
     1
102
RTVSPost2010Prop32
280
     0
102
RTVSPost2010PropOp32
 70
     1
102
RTVSPost2010Prop33
280
     0
102
RTVSPost2010PropOp33
 70
     1
102
RTVSPost2010Prop34
280
     0
102
RTVSPost2010PropOp34
 70
     1
102
RTVSPost2010Prop35
280
     0
102
RTVSPost2010PropOp35
 70
     1
102
RTVSPost2010Prop36
280
     0
102
RTVSPost2010PropOp36
 70
     1
102
RTVSPost2010Prop37
 90
       50
102
RTVSPost2010PropOp37
 70
     1
102
RTVSPost2010Prop38
140
0.0
102
RTVSPost2010PropOp38
 70
     1
102
RTVSPost2010Prop39
140
1.0
102
RTVSPost2010PropOp39
 70
     1
102
RTVSPost2010Prop40
 90
        0
102
RTVSPost2010PropOp40
 70
     1
102
RTVSPost2010Prop41ColorIndex
 90
       18
102
RTVSPost2010Prop41ColorRGB
 90
        0
102
RTVSPost2010PropOp41
 70
     1
102
RTVSPost2010Prop42
 90
       50
102
RTVSPost2010PropOp42
 70
     1
102
RTVSPost2010Prop43
 90
        3
102
RTVSPost2010PropOp43
 70
     1
102
RTVSPost2010Prop44ColorIndex
 90
        5
102
RTVSPost2010Prop44ColorRGB
 90
      255
102
RTVSPost2010PropOp44
 70
     1
102
RTVSPost2010Prop45
280
     0
102
RTVSPost2010PropOp45
 70
     1
102
RTVSPost2010Prop46
 90
       50
102
RTVSPost2010PropOp46
 70
     1
102
RTVSPost2010Prop47
 90
       50
102
RTVSPost2010PropOp47
 70
     1
102
RTVSPost2010Prop48
 90
       50
102
RTVSPost2010PropOp48
 70
     1
102
RTVSPost2010Prop49
280
     0
102
RTVSPost2010PropOp49
 70
     1
102
RTVSPost2010Prop50
 90
       50
102
RTVSPost2010PropOp50
 70
     1
102
RTVSPost2010Prop51ColorIndex
 90
      256
102
RTVSPost2010Prop51ColorRGB
 90
-16777216
102
RTVSPost2010PropOp51
 70
     0
102
RTVSPost2010Prop52
140
1.0
102
RTVSPost2010PropOp52
 70
     0
102
RTVSPost2010Prop53
 90
        2
102
RTVSPost2010PropOp53
 70
     1
102
RTVSPost2010Prop54
  1
strokes_ogs.tif
102
RTVSPost2010PropOp54
 70
     1
102
RTVSPost2010Prop55
280
     0
102
RTVSPost2010PropOp55
 70
     1
102
RTVSPost2010Prop56
140
1.0
102
RTVSPost2010PropOp56
 70
     1
102
RTVSPost2010Prop57
140
1.0
102
RTVSPost2010PropOp57
 70
     1
  0
XRECORD
  5
23E
102
{ACAD_REACTORS
330
23D
102
}
330
23D
100
AcDbXrecord
280
     1
102
RTVSPropertyOp0
 70
     1
102
RTVSPropertyOp1
 70
     1
102
RTVSPropertyOp2
 70
     1
102
RTVSPropertyOp3
 70
     1
102
RTVSPropertyOp4
 70
     1
102
RTVSPropertyOp5
 70
     1
102
RTVSPropertyOp6
 70
     1
102
RTVSPropertyOp7
 70
     1
102
RTVSPropertyOp8
 70
     1
102
RTVSPropertyOp9
 70
     1
102
RTVSPropertyOp10
 70
     1
102
RTVSPropertyOp11
 70
     1
102
RTVSPropertyOp12
 70
     1
102
RTVSPropertyOp13
 70
     1
102
RTVSPropertyOp14
 70
     1
102
RTVSPropertyOp15
 70
     1
102
RTVSPropertyOp16
 70
     1
102
RTVSPropertyOp17
 70
     1
102
RTVSPropertyOp18
 70
     1
102
RTVSPropertyOp19
 70
     1
102
RTVSPropertyOp20
 70
     1
102
RTVSPropertyOp21
 70
     1
102
RTVSPropertyOp22
 70
     1
102
RTVSPropertyOp23
 70
     1
102
RTVSPropertyOp24
 70
     1
102
RTVSPropertyOp25
 70
     1
102
RTVSPropertyOp26
 70
     1
102
RTVSPropertyOp27
 70
     1
102
RTVSPropertyOp28
 70
     1
102
RTVSPropertyOp29
 70
     1
102
RTVSPropertyOp30
 70
     1
102
RTVSPropertyOp31
 70
     1
102
RTVSPropertyOp32
 70
     1
102
RTVSPropertyOp33
 70
     1
102
RTVSPropertyOp34
 70
     1
102
RTVSPropertyOp35
 70
     1
102
RTVSPropertyOp36
 70
     1
102
RTVSPropertyOp37
 70
     1
102
RTVSPropertyOp38
 70
     1
102
RTVSPropertyOp39
 70
     1
102
RTVSPropertyOp40
 70
     1
102
RTVSPropertyOp41
 70
     1
102
RTVSPropertyOp42
 70
     1
102
RTVSPropertyOp43
 70
     1
102
RTVSPropertyOp44
 70
     1
102
RTVSPropertyOp45
 70
     1
102
RTVSPropertyOp46
 70
     1
102
RTVSPropertyOp47
 70
     1
102
RTVSPropertyOp48
 70
     1
102
RTVSPropertyOp49
 70
     1
102
RTVSPropertyOp50
 70
     1
102
RTVSPropertyOp51
 70
     0
102
RTVSPropertyOp52
 70
     0
102
RTVSPropertyOp53
 70
     1
102
RTVSPropertyOp54
 70
     1
102
RTVSPropertyOp55
 70
     1
102
RTVSPropertyOp56
 70
     1
102
RTVSPropertyOp57
 70
     1
102
RTVSPost2010Prop28
280
     0
102
RTVSPost2010PropOp28
 70
     1
102
RTVSPost2010Prop29
280
     1
102
RTVSPost2010PropOp29
 70
     1
102
RTVSPost2010Prop30
280
     1
102
RTVSPost2010PropOp30
 70
     1
102
RTVSPost2010Prop31
280
     0
102
RTVSPost2010PropOp31
 70
     1
102
RTVSPost2010Prop32
280
     0
102
RTVSPost2010PropOp32
 70
     1
102
RTVSPost2010Prop33
280
     0
102
RTVSPost2010PropOp33
 70
     1
102
RTVSPost2010Prop34
280
     0
102
RTVSPost2010PropOp34
 70
     1
102
RTVSPost2010Prop35
280
     0
102
RTVSPost2010PropOp35
 70
     1
102
RTVSPost2010Prop36
280
     0
102
RTVSPost2010PropOp36
 70
     1
102
RTVSPost2010Prop37
 90
       50
102
RTVSPost2010PropOp37
 70
     1
102
RTVSPost2010Prop38
140
0.0
102
RTVSPost2010PropOp38
 70
     1
102
RTVSPost2010Prop39
140
1.0
102
RTVSPost2010PropOp39
 70
     1
102
RTVSPost2010Prop40
 90
        0
102
RTVSPost2010PropOp40
 70
     1
102
RTVSPost2010Prop41ColorIndex
 90
       18
102
RTVSPost2010Prop41ColorRGB
 90
        0
102
RTVSPost2010PropOp41
 70
     1
102
RTVSPost2010Prop42
 90
       50
102
RTVSPost2010PropOp42
 70
     1
102
RTVSPost2010Prop43
 90
        3
102
RTVSPost2010PropOp43
 70
     1
102
RTVSPost2010Prop44ColorIndex
 90
        5
102
RTVSPost2010Prop44ColorRGB
 90
      255
102
RTVSPost2010PropOp44
 70
     1
102
RTVSPost2010Prop45
280
     0
102
RTVSPost2010PropOp45
 70
     1
102
RTVSPost2010Prop46
 90
       50
102
RTVSPost2010PropOp46
 70
     1
102
RTVSPost2010Prop47
 90
       50
102
RTVSPost2010PropOp47
 70
     1
102
RTVSPost2010Prop48
 90
       50
102
RTVSPost2010PropOp48
 70
     1
102
RTVSPost2010Prop49
280
     0
102
RTVSPost2010PropOp49
 70
     1
102
RTVSPost2010Prop50
 90
       50
102
RTVSPost2010PropOp50
 70
     1
102
RTVSPost2010Prop51ColorIndex
 90
      256
102
RTVSPost2010Prop51ColorRGB
 90
-16777216
102
RTVSPost2010PropOp51
 70
     0
102
RTVSPost2010Prop52
140
1.0
102
RTVSPost2010PropOp52
 70
     0
102
RTVSPost2010Prop53
 90
        2
102
RTVSPost2010PropOp53
 70
     1
102
RTVSPost2010Prop54
  1
strokes_ogs.tif
102
RTVSPost2010PropOp54
 70
     1
102
RTVSPost2010Prop55
280
     0
102
RTVSPost2010PropOp55
 70
     1
102
RTVSPost2010Prop56
140
1.0
102
RTVSPost2010PropOp56
 70
     1
102
RTVSPost2010Prop57
140
1.0
102
RTVSPost2010PropOp57
 70
     1
  0
XRECORD
  5
24E
102
{ACAD_REACTORS
330
24D
102
}
330
24D
100
AcDbXrecord
280
     1
102
RTVSPropertyOp0
 70
     0
102
RTVSPropertyOp1
 70
     0
102
RTVSPropertyOp2
 70
     0
102
RTVSPropertyOp3
 70
     0
102
RTVSPropertyOp4
 70
     0
102
RTVSPropertyOp5
 70
     0
102
RTVSPropertyOp6
 70
     0
102
RTVSPropertyOp7
 70
     0
102
RTVSPropertyOp8
 70
     0
102
RTVSPropertyOp9
 70
     0
102
RTVSPropertyOp10
 70
     0
102
RTVSPropertyOp11
 70
     0
102
RTVSPropertyOp12
 70
     0
102
RTVSPropertyOp13
 70
     0
102
RTVSPropertyOp14
 70
     2
102
RTVSPropertyOp15
 70
     0
102
RTVSPropertyOp16
 70
     0
102
RTVSPropertyOp17
 70
     0
102
RTVSPropertyOp18
 70
     0
102
RTVSPropertyOp19
 70
     0
102
RTVSPropertyOp20
 70
     0
102
RTVSPropertyOp21
 70
     0
102
RTVSPropertyOp22
 70
     0
102
RTVSPropertyOp23
 70
     0
102
RTVSPropertyOp24
 70
     0
102
RTVSPropertyOp25
 70
     0
102
RTVSPropertyOp26
 70
     0
102
RTVSPropertyOp27
 70
     0
102
RTVSPropertyOp28
 70
     0
102
RTVSPropertyOp29
 70
     0
102
RTVSPropertyOp30
 70
     0
102
RTVSPropertyOp31
 70
     0
102
RTVSPropertyOp32
 70
     0
102
RTVSPropertyOp33
 70
     0
102
RTVSPropertyOp34
 70
     0
102
RTVSPropertyOp35
 70
     0
102
RTVSPropertyOp36
 70
     0
102
RTVSPropertyOp37
 70
     0
102
RTVSPropertyOp38
 70
     0
102
RTVSPropertyOp39
 70
     0
102
RTVSPropertyOp40
 70
     0
102
RTVSPropertyOp41
 70
     0
102
RTVSPropertyOp42
 70
     0
102
RTVSPropertyOp43
 70
     0
102
RTVSPropertyOp44
 70
     0
102
RTVSPropertyOp45
 70
     0
102
RTVSPropertyOp46
 70
     0
102
RTVSPropertyOp47
 70
     0
102
RTVSPropertyOp48
 70
     0
102
RTVSPropertyOp49
 70
     0
102
RTVSPropertyOp50
 70
     0
102
RTVSPropertyOp51
 70
     0
102
RTVSPropertyOp52
 70
     0
102
RTVSPropertyOp53
 70
     0
102
RTVSPropertyOp54
 70
     0
102
RTVSPropertyOp55
 70
     0
102
RTVSPropertyOp56
 70
     0
102
RTVSPropertyOp57
 70
     0
102
RTVSPost2010Prop28
280
     0
102
RTVSPost2010PropOp28
 70
     0
102
RTVSPost2010Prop29
280
     1
102
RTVSPost2010PropOp29
 70
     0
102
RTVSPost2010Prop30
280
     1
102
RTVSPost2010PropOp30
 70
     0
102
RTVSPost2010Prop31
280
     0
102
RTVSPost2010PropOp31
 70
     0
102
RTVSPost2010Prop32
280
     0
102
RTVSPost2010PropOp32
 70
     0
102
RTVSPost2010Prop33
280
     0
102
RTVSPost2010PropOp33
 70
     0
102
RTVSPost2010Prop34
280
     0
102
RTVSPost2010PropOp34
 70
     0
102
RTVSPost2010Prop35
280
     0
102
RTVSPost2010PropOp35
 70
     0
102
RTVSPost2010Prop36
280
     0
102
RTVSPost2010PropOp36
 70
     0
102
RTVSPost2010Prop37
 90
       50
102
RTVSPost2010PropOp37
 70
     0
102
RTVSPost2010Prop38
140
0.0
102
RTVSPost2010PropOp38
 70
     0
102
RTVSPost2010Prop39
140
1.0
102
RTVSPost2010PropOp39
 70
     0
102
RTVSPost2010Prop40
 90
        0
102
RTVSPost2010PropOp40
 70
     0
102
RTVSPost2010Prop41ColorIndex
 90
       18
102
RTVSPost2010Prop41ColorRGB
 90
        0
102
RTVSPost2010PropOp41
 70
     0
102
RTVSPost2010Prop42
 90
       50
102
RTVSPost2010PropOp42
 70
     0
102
RTVSPost2010Prop43
 90
        3
102
RTVSPost2010PropOp43
 70
     0
102
RTVSPost2010Prop44ColorIndex
 90
        5
102
RTVSPost2010Prop44ColorRGB
 90
      255
102
RTVSPost2010PropOp44
 70
     0
102
RTVSPost2010Prop45
280
     0
102
RTVSPost2010PropOp45
 70
     0
102
RTVSPost2010Prop46
 90
       50
102
RTVSPost2010PropOp46
 70
     0
102
RTVSPost2010Prop47
 90
       50
102
RTVSPost2010PropOp47
 70
     0
102
RTVSPost2010Prop48
 90
       50
102
RTVSPost2010PropOp48
 70
     0
102
RTVSPost2010Prop49
280
     0
102
RTVSPost2010PropOp49
 70
     0
102
RTVSPost2010Prop50
 90
       50
102
RTVSPost2010PropOp50
 70
     0
102
RTVSPost2010Prop51ColorIndex
 90
      256
102
RTVSPost2010Prop51ColorRGB
 90
-16777216
102
RTVSPost2010PropOp51
 70
     0
102
RTVSPost2010Prop52
140
1.0
102
RTVSPost2010PropOp52
 70
     0
102
RTVSPost2010Prop53
 90
        2
102
RTVSPost2010PropOp53
 70
     0
102
RTVSPost2010Prop54
  1
strokes_ogs.tif
102
RTVSPost2010PropOp54
 70
     0
102
RTVSPost2010Prop55
280
     0
102
RTVSPost2010PropOp55
 70
     0
102
RTVSPost2010Prop56
140
1.0
102
RTVSPost2010PropOp56
 70
     0
102
RTVSPost2010Prop57
140
1.0
102
RTVSPost2010PropOp57
 70
     0
  0
XRECORD
  5
246
102
{ACAD_REACTORS
330
245
102
}
330
245
100
AcDbXrecord
280
     1
102
RTVSPropertyOp0
 70
     1
102
RTVSPropertyOp1
 70
     1
102
RTVSPropertyOp2
 70
     1
102
RTVSPropertyOp3
 70
     1
102
RTVSPropertyOp4
 70
     1
102
RTVSPropertyOp5
 70
     1
102
RTVSPropertyOp6
 70
     1
102
RTVSPropertyOp7
 70
     1
102
RTVSPropertyOp8
 70
     1
102
RTVSPropertyOp9
 70
     1
102
RTVSPropertyOp10
 70
     1
102
RTVSPropertyOp11
 70
     1
102
RTVSPropertyOp12
 70
     1
102
RTVSPropertyOp13
 70
     1
102
RTVSPropertyOp14
 70
     1
102
RTVSPropertyOp15
 70
     1
102
RTVSPropertyOp16
 70
     1
102
RTVSPropertyOp17
 70
     1
102
RTVSPropertyOp18
 70
     1
102
RTVSPropertyOp19
 70
     1
102
RTVSPropertyOp20
 70
     1
102
RTVSPropertyOp21
 70
     1
102
RTVSPropertyOp22
 70
     1
102
RTVSPropertyOp23
 70
     1
102
RTVSPropertyOp24
 70
     1
102
RTVSPropertyOp25
 70
     1
102
RTVSPropertyOp26
 70
     1
102
RTVSPropertyOp27
 70
     1
102
RTVSPropertyOp28
 70
     1
102
RTVSPropertyOp29
 70
     1
102
RTVSPropertyOp30
 70
     1
102
RTVSPropertyOp31
 70
     1
102
RTVSPropertyOp32
 70
     1
102
RTVSPropertyOp33
 70
     1
102
RTVSPropertyOp34
 70
     1
102
RTVSPropertyOp35
 70
     1
102
RTVSPropertyOp36
 70
     1
102
RTVSPropertyOp37
 70
     1
102
RTVSPropertyOp38
 70
     1
102
RTVSPropertyOp39
 70
     1
102
RTVSPropertyOp40
 70
     1
102
RTVSPropertyOp41
 70
     1
102
RTVSPropertyOp42
 70
     1
102
RTVSPropertyOp43
 70
     1
102
RTVSPropertyOp44
 70
     1
102
RTVSPropertyOp45
 70
     1
102
RTVSPropertyOp46
 70
     1
102
RTVSPropertyOp47
 70
     1
102
RTVSPropertyOp48
 70
     1
102
RTVSPropertyOp49
 70
     1
102
RTVSPropertyOp50
 70
     1
102
RTVSPropertyOp51
 70
     0
102
RTVSPropertyOp52
 70
     0
102
RTVSPropertyOp53
 70
     1
102
RTVSPropertyOp54
 70
     1
102
RTVSPropertyOp55
 70
     1
102
RTVSPropertyOp56
 70
     1
102
RTVSPropertyOp57
 70
     1
102
RTVSPost2010Prop28
280
     0
102
RTVSPost2010PropOp28
 70
     1
102
RTVSPost2010Prop29
280
     1
102
RTVSPost2010PropOp29
 70
     1
102
RTVSPost2010Prop30
280
     1
102
RTVSPost2010PropOp30
 70
     1
102
RTVSPost2010Prop31
280
     0
102
RTVSPost2010PropOp31
 70
     1
102
RTVSPost2010Prop32
280
     0
102
RTVSPost2010PropOp32
 70
     1
102
RTVSPost2010Prop33
280
     0
102
RTVSPost2010PropOp33
 70
     1
102
RTVSPost2010Prop34
280
     0
102
RTVSPost2010PropOp34
 70
     1
102
RTVSPost2010Prop35
280
     0
102
RTVSPost2010PropOp35
 70
     1
102
RTVSPost2010Prop36
280
     0
102
RTVSPost2010PropOp36
 70
     1
102
RTVSPost2010Prop37
 90
       50
102
RTVSPost2010PropOp37
 70
     1
102
RTVSPost2010Prop38
140
0.0
102
RTVSPost2010PropOp38
 70
     1
102
RTVSPost2010Prop39
140
1.0
102
RTVSPost2010PropOp39
 70
     1
102
RTVSPost2010Prop40
 90
        0
102
RTVSPost2010PropOp40
 70
     1
102
RTVSPost2010Prop41ColorIndex
 90
       18
102
RTVSPost2010Prop41ColorRGB
 90
        0
102
RTVSPost2010PropOp41
 70
     1
102
RTVSPost2010Prop42
 90
       50
102
RTVSPost2010PropOp42
 70
     1
102
RTVSPost2010Prop43
 90
        3
102
RTVSPost2010PropOp43
 70
     1
102
RTVSPost2010Prop44ColorIndex
 90
        5
102
RTVSPost2010Prop44ColorRGB
 90
      255
102
RTVSPost2010PropOp44
 70
     1
102
RTVSPost2010Prop45
280
     0
102
RTVSPost2010PropOp45
 70
     1
102
RTVSPost2010Prop46
 90
       50
102
RTVSPost2010PropOp46
 70
     1
102
RTVSPost2010Prop47
 90
       50
102
RTVSPost2010PropOp47
 70
     1
102
RTVSPost2010Prop48
 90
       50
102
RTVSPost2010PropOp48
 70
     1
102
RTVSPost2010Prop49
280
     0
102
RTVSPost2010PropOp49
 70
     1
102
RTVSPost2010Prop50
 90
       50
102
RTVSPost2010PropOp50
 70
     1
102
RTVSPost2010Prop51ColorIndex
 90
      256
102
RTVSPost2010Prop51ColorRGB
 90
-16777216
102
RTVSPost2010PropOp51
 70
     0
102
RTVSPost2010Prop52
140
1.0
102
RTVSPost2010PropOp52
 70
     0
102
RTVSPost2010Prop53
 90
        2
102
RTVSPost2010PropOp53
 70
     1
102
RTVSPost2010Prop54
  1
strokes_ogs.tif
102
RTVSPost2010PropOp54
 70
     1
102
RTVSPost2010Prop55
280
     0
102
RTVSPost2010PropOp55
 70
     1
102
RTVSPost2010Prop56
140
1.0
102
RTVSPost2010PropOp56
 70
     1
102
RTVSPost2010Prop57
140
1.0
102
RTVSPost2010PropOp57
 70
     1
  0
XRECORD
  5
22A
102
{ACAD_REACTORS
330
229
102
}
330
229
100
AcDbXrecord
280
     1
102
RTVSPropertyOp0
 70
     1
102
RTVSPropertyOp1
 70
     1
102
RTVSPropertyOp2
 70
     1
102
RTVSPropertyOp3
 70
     1
102
RTVSPropertyOp4
 70
     1
102
RTVSPropertyOp5
 70
     1
102
RTVSPropertyOp6
 70
     1
102
RTVSPropertyOp7
 70
     1
102
RTVSPropertyOp8
 70
     1
102
RTVSPropertyOp9
 70
     1
102
RTVSPropertyOp10
 70
     1
102
RTVSPropertyOp11
 70
     1
102
RTVSPropertyOp12
 70
     1
102
RTVSPropertyOp13
 70
     1
102
RTVSPropertyOp14
 70
     1
102
RTVSPropertyOp15
 70
     1
102
RTVSPropertyOp16
 70
     1
102
RTVSPropertyOp17
 70
     1
102
RTVSPropertyOp18
 70
     1
102
RTVSPropertyOp19
 70
     1
102
RTVSPropertyOp20
 70
     1
102
RTVSPropertyOp21
 70
     1
102
RTVSPropertyOp22
 70
     1
102
RTVSPropertyOp23
 70
     1
102
RTVSPropertyOp24
 70
     1
102
RTVSPropertyOp25
 70
     1
102
RTVSPropertyOp26
 70
     1
102
RTVSPropertyOp27
 70
     1
102
RTVSPropertyOp28
 70
     1
102
RTVSPropertyOp29
 70
     1
102
RTVSPropertyOp30
 70
     1
102
RTVSPropertyOp31
 70
     1
102
RTVSPropertyOp32
 70
     1
102
RTVSPropertyOp33
 70
     1
102
RTVSPropertyOp34
 70
     1
102
RTVSPropertyOp35
 70
     1
102
RTVSPropertyOp36
 70
     1
102
RTVSPropertyOp37
 70
     1
102
RTVSPropertyOp38
 70
     1
102
RTVSPropertyOp39
 70
     1
102
RTVSPropertyOp40
 70
     1
102
RTVSPropertyOp41
 70
     1
102
RTVSPropertyOp42
 70
     1
102
RTVSPropertyOp43
 70
     1
102
RTVSPropertyOp44
 70
     1
102
RTVSPropertyOp45
 70
     1
102
RTVSPropertyOp46
 70
     1
102
RTVSPropertyOp47
 70
     1
102
RTVSPropertyOp48
 70
     1
102
RTVSPropertyOp49
 70
     1
102
RTVSPropertyOp50
 70
     1
102
RTVSPropertyOp51
 70
     0
102
RTVSPropertyOp52
 70
     0
102
RTVSPropertyOp53
 70
     1
102
RTVSPropertyOp54
 70
     1
102
RTVSPropertyOp55
 70
     1
102
RTVSPropertyOp56
 70
     1
102
RTVSPropertyOp57
 70
     1
102
RTVSPost2010Prop28
280
     0
102
RTVSPost2010PropOp28
 70
     1
102
RTVSPost2010Prop29
280
     1
102
RTVSPost2010PropOp29
 70
     1
102
RTVSPost2010Prop30
280
     1
102
RTVSPost2010PropOp30
 70
     1
102
RTVSPost2010Prop31
280
     0
102
RTVSPost2010PropOp31
 70
     1
102
RTVSPost2010Prop32
280
     0
102
RTVSPost2010PropOp32
 70
     1
102
RTVSPost2010Prop33
280
     0
102
RTVSPost2010PropOp33
 70
     1
102
RTVSPost2010Prop34
280
     0
102
RTVSPost2010PropOp34
 70
     1
102
RTVSPost2010Prop35
280
     0
102
RTVSPost2010PropOp35
 70
     1
102
RTVSPost2010Prop36
280
     0
102
RTVSPost2010PropOp36
 70
     1
102
RTVSPost2010Prop37
 90
       50
102
RTVSPost2010PropOp37
 70
     1
102
RTVSPost2010Prop38
140
0.0
102
RTVSPost2010PropOp38
 70
     1
102
RTVSPost2010Prop39
140
1.0
102
RTVSPost2010PropOp39
 70
     1
102
RTVSPost2010Prop40
 90
        0
102
RTVSPost2010PropOp40
 70
     1
102
RTVSPost2010Prop41ColorIndex
 90
       18
102
RTVSPost2010Prop41ColorRGB
 90
        0
102
RTVSPost2010PropOp41
 70
     1
102
RTVSPost2010Prop42
 90
       50
102
RTVSPost2010PropOp42
 70
     1
102
RTVSPost2010Prop43
 90
        3
102
RTVSPost2010PropOp43
 70
     1
102
RTVSPost2010Prop44ColorIndex
 90
        5
102
RTVSPost2010Prop44ColorRGB
 90
      255
102
RTVSPost2010PropOp44
 70
     1
102
RTVSPost2010Prop45
280
     0
102
RTVSPost2010PropOp45
 70
     1
102
RTVSPost2010Prop46
 90
       50
102
RTVSPost2010PropOp46
 70
     1
102
RTVSPost2010Prop47
 90
       50
102
RTVSPost2010PropOp47
 70
     1
102
RTVSPost2010Prop48
 90
       50
102
RTVSPost2010PropOp48
 70
     1
102
RTVSPost2010Prop49
280
     0
102
RTVSPost2010PropOp49
 70
     1
102
RTVSPost2010Prop50
 90
       50
102
RTVSPost2010PropOp50
 70
     1
102
RTVSPost2010Prop51ColorIndex
 90
      256
102
RTVSPost2010Prop51ColorRGB
 90
-16777216
102
RTVSPost2010PropOp51
 70
     0
102
RTVSPost2010Prop52
140
1.0
102
RTVSPost2010PropOp52
 70
     0
102
RTVSPost2010Prop53
 90
        2
102
RTVSPost2010PropOp53
 70
     1
102
RTVSPost2010Prop54
  1
strokes_ogs.tif
102
RTVSPost2010PropOp54
 70
     1
102
RTVSPost2010Prop55
280
     0
102
RTVSPost2010PropOp55
 70
     1
102
RTVSPost2010Prop56
140
1.0
102
RTVSPost2010PropOp56
 70
     1
102
RTVSPost2010Prop57
140
1.0
102
RTVSPost2010PropOp57
 70
     1
  0
XRECORD
  5
22C
102
{ACAD_REACTORS
330
22B
102
}
330
22B
100
AcDbXrecord
280
     1
102
RTVSPropertyOp0
 70
     1
102
RTVSPropertyOp1
 70
     1
102
RTVSPropertyOp2
 70
     1
102
RTVSPropertyOp3
 70
     1
102
RTVSPropertyOp4
 70
     1
102
RTVSPropertyOp5
 70
     1
102
RTVSPropertyOp6
 70
     1
102
RTVSPropertyOp7
 70
     1
102
RTVSPropertyOp8
 70
     1
102
RTVSPropertyOp9
 70
     1
102
RTVSPropertyOp10
 70
     1
102
RTVSPropertyOp11
 70
     1
102
RTVSPropertyOp12
 70
     1
102
RTVSPropertyOp13
 70
     1
102
RTVSPropertyOp14
 70
     1
102
RTVSPropertyOp15
 70
     1
102
RTVSPropertyOp16
 70
     1
102
RTVSPropertyOp17
 70
     1
102
RTVSPropertyOp18
 70
     1
102
RTVSPropertyOp19
 70
     1
102
RTVSPropertyOp20
 70
     1
102
RTVSPropertyOp21
 70
     1
102
RTVSPropertyOp22
 70
     1
102
RTVSPropertyOp23
 70
     1
102
RTVSPropertyOp24
 70
     1
102
RTVSPropertyOp25
 70
     1
102
RTVSPropertyOp26
 70
     1
102
RTVSPropertyOp27
 70
     1
102
RTVSPropertyOp28
 70
     1
102
RTVSPropertyOp29
 70
     1
102
RTVSPropertyOp30
 70
     1
102
RTVSPropertyOp31
 70
     1
102
RTVSPropertyOp32
 70
     1
102
RTVSPropertyOp33
 70
     1
102
RTVSPropertyOp34
 70
     1
102
RTVSPropertyOp35
 70
     1
102
RTVSPropertyOp36
 70
     1
102
RTVSPropertyOp37
 70
     1
102
RTVSPropertyOp38
 70
     1
102
RTVSPropertyOp39
 70
     1
102
RTVSPropertyOp40
 70
     1
102
RTVSPropertyOp41
 70
     1
102
RTVSPropertyOp42
 70
     1
102
RTVSPropertyOp43
 70
     1
102
RTVSPropertyOp44
 70
     1
102
RTVSPropertyOp45
 70
     1
102
RTVSPropertyOp46
 70
     1
102
RTVSPropertyOp47
 70
     1
102
RTVSPropertyOp48
 70
     1
102
RTVSPropertyOp49
 70
     1
102
RTVSPropertyOp50
 70
     1
102
RTVSPropertyOp51
 70
     0
102
RTVSPropertyOp52
 70
     0
102
RTVSPropertyOp53
 70
     1
102
RTVSPropertyOp54
 70
     1
102
RTVSPropertyOp55
 70
     1
102
RTVSPropertyOp56
 70
     1
102
RTVSPropertyOp57
 70
     1
102
RTVSPost2010Prop28
280
     0
102
RTVSPost2010PropOp28
 70
     1
102
RTVSPost2010Prop29
280
     1
102
RTVSPost2010PropOp29
 70
     1
102
RTVSPost2010Prop30
280
     1
102
RTVSPost2010PropOp30
 70
     1
102
RTVSPost2010Prop31
280
     0
102
RTVSPost2010PropOp31
 70
     1
102
RTVSPost2010Prop32
280
     0
102
RTVSPost2010PropOp32
 70
     1
102
RTVSPost2010Prop33
280
     0
102
RTVSPost2010PropOp33
 70
     1
102
RTVSPost2010Prop34
280
     0
102
RTVSPost2010PropOp34
 70
     1
102
RTVSPost2010Prop35
280
     0
102
RTVSPost2010PropOp35
 70
     1
102
RTVSPost2010Prop36
280
     0
102
RTVSPost2010PropOp36
 70
     1
102
RTVSPost2010Prop37
 90
       50
102
RTVSPost2010PropOp37
 70
     1
102
RTVSPost2010Prop38
140
0.0
102
RTVSPost2010PropOp38
 70
     1
102
RTVSPost2010Prop39
140
1.0
102
RTVSPost2010PropOp39
 70
     1
102
RTVSPost2010Prop40
 90
        0
102
RTVSPost2010PropOp40
 70
     1
102
RTVSPost2010Prop41ColorIndex
 90
       18
102
RTVSPost2010Prop41ColorRGB
 90
        0
102
RTVSPost2010PropOp41
 70
     1
102
RTVSPost2010Prop42
 90
       50
102
RTVSPost2010PropOp42
 70
     1
102
RTVSPost2010Prop43
 90
        3
102
RTVSPost2010PropOp43
 70
     1
102
RTVSPost2010Prop44ColorIndex
 90
        5
102
RTVSPost2010Prop44ColorRGB
 90
      255
102
RTVSPost2010PropOp44
 70
     1
102
RTVSPost2010Prop45
280
     0
102
RTVSPost2010PropOp45
 70
     1
102
RTVSPost2010Prop46
 90
       50
102
RTVSPost2010PropOp46
 70
     1
102
RTVSPost2010Prop47
 90
       50
102
RTVSPost2010PropOp47
 70
     1
102
RTVSPost2010Prop48
 90
       50
102
RTVSPost2010PropOp48
 70
     1
102
RTVSPost2010Prop49
280
     0
102
RTVSPost2010PropOp49
 70
     1
102
RTVSPost2010Prop50
 90
       50
102
RTVSPost2010PropOp50
 70
     1
102
RTVSPost2010Prop51ColorIndex
 90
      256
102
RTVSPost2010Prop51ColorRGB
 90
-16777216
102
RTVSPost2010PropOp51
 70
     0
102
RTVSPost2010Prop52
140
1.0
102
RTVSPost2010PropOp52
 70
     0
102
RTVSPost2010Prop53
 90
        2
102
RTVSPost2010PropOp53
 70
     1
102
RTVSPost2010Prop54
  1
strokes_ogs.tif
102
RTVSPost2010PropOp54
 70
     1
102
RTVSPost2010Prop55
280
     0
102
RTVSPost2010PropOp55
 70
     1
102
RTVSPost2010Prop56
140
1.0
102
RTVSPost2010PropOp56
 70
     1
102
RTVSPost2010Prop57
140
1.0
102
RTVSPost2010PropOp57
 70
     1
  0
XRECORD
  5
22E
102
{ACAD_REACTORS
330
22D
102
}
330
22D
100
AcDbXrecord
280
     1
102
RTVSPropertyOp0
 70
     1
102
RTVSPropertyOp1
 70
     1
102
RTVSPropertyOp2
 70
     1
102
RTVSPropertyOp3
 70
     1
102
RTVSPropertyOp4
 70
     1
102
RTVSPropertyOp5
 70
     1
102
RTVSPropertyOp6
 70
     1
102
RTVSPropertyOp7
 70
     1
102
RTVSPropertyOp8
 70
     1
102
RTVSPropertyOp9
 70
     1
102
RTVSPropertyOp10
 70
     1
102
RTVSPropertyOp11
 70
     1
102
RTVSPropertyOp12
 70
     1
102
RTVSPropertyOp13
 70
     1
102
RTVSPropertyOp14
 70
     1
102
RTVSPropertyOp15
 70
     1
102
RTVSPropertyOp16
 70
     1
102
RTVSPropertyOp17
 70
     1
102
RTVSPropertyOp18
 70
     1
102
RTVSPropertyOp19
 70
     1
102
RTVSPropertyOp20
 70
     1
102
RTVSPropertyOp21
 70
     1
102
RTVSPropertyOp22
 70
     1
102
RTVSPropertyOp23
 70
     1
102
RTVSPropertyOp24
 70
     1
102
RTVSPropertyOp25
 70
     1
102
RTVSPropertyOp26
 70
     1
102
RTVSPropertyOp27
 70
     1
102
RTVSPropertyOp28
 70
     1
102
RTVSPropertyOp29
 70
     1
102
RTVSPropertyOp30
 70
     1
102
RTVSPropertyOp31
 70
     1
102
RTVSPropertyOp32
 70
     1
102
RTVSPropertyOp33
 70
     1
102
RTVSPropertyOp34
 70
     1
102
RTVSPropertyOp35
 70
     1
102
RTVSPropertyOp36
 70
     1
102
RTVSPropertyOp37
 70
     1
102
RTVSPropertyOp38
 70
     1
102
RTVSPropertyOp39
 70
     1
102
RTVSPropertyOp40
 70
     1
102
RTVSPropertyOp41
 70
     1
102
RTVSPropertyOp42
 70
     1
102
RTVSPropertyOp43
 70
     1
102
RTVSPropertyOp44
 70
     1
102
RTVSPropertyOp45
 70
     1
102
RTVSPropertyOp46
 70
     1
102
RTVSPropertyOp47
 70
     1
102
RTVSPropertyOp48
 70
     1
102
RTVSPropertyOp49
 70
     1
102
RTVSPropertyOp50
 70
     1
102
RTVSPropertyOp51
 70
     0
102
RTVSPropertyOp52
 70
     0
102
RTVSPropertyOp53
 70
     1
102
RTVSPropertyOp54
 70
     1
102
RTVSPropertyOp55
 70
     1
102
RTVSPropertyOp56
 70
     1
102
RTVSPropertyOp57
 70
     1
102
RTVSPost2010Prop28
280
     0
102
RTVSPost2010PropOp28
 70
     1
102
RTVSPost2010Prop29
280
     1
102
RTVSPost2010PropOp29
 70
     1
102
RTVSPost2010Prop30
280
     1
102
RTVSPost2010PropOp30
 70
     1
102
RTVSPost2010Prop31
280
     0
102
RTVSPost2010PropOp31
 70
     1
102
RTVSPost2010Prop32
280
     0
102
RTVSPost2010PropOp32
 70
     1
102
RTVSPost2010Prop33
280
     0
102
RTVSPost2010PropOp33
 70
     1
102
RTVSPost2010Prop34
280
     0
102
RTVSPost2010PropOp34
 70
     1
102
RTVSPost2010Prop35
280
     0
102
RTVSPost2010PropOp35
 70
     1
102
RTVSPost2010Prop36
280
     0
102
RTVSPost2010PropOp36
 70
     1
102
RTVSPost2010Prop37
 90
       50
102
RTVSPost2010PropOp37
 70
     1
102
RTVSPost2010Prop38
140
0.0
102
RTVSPost2010PropOp38
 70
     1
102
RTVSPost2010Prop39
140
1.0
102
RTVSPost2010PropOp39
 70
     1
102
RTVSPost2010Prop40
 90
        0
102
RTVSPost2010PropOp40
 70
     1
102
RTVSPost2010Prop41ColorIndex
 90
       18
102
RTVSPost2010Prop41ColorRGB
 90
        0
102
RTVSPost2010PropOp41
 70
     1
102
RTVSPost2010Prop42
 90
       50
102
RTVSPost2010PropOp42
 70
     1
102
RTVSPost2010Prop43
 90
        3
102
RTVSPost2010PropOp43
 70
     1
102
RTVSPost2010Prop44ColorIndex
 90
        5
102
RTVSPost2010Prop44ColorRGB
 90
      255
102
RTVSPost2010PropOp44
 70
     1
102
RTVSPost2010Prop45
280
     0
102
RTVSPost2010PropOp45
 70
     1
102
RTVSPost2010Prop46
 90
       50
102
RTVSPost2010PropOp46
 70
     1
102
RTVSPost2010Prop47
 90
       50
102
RTVSPost2010PropOp47
 70
     1
102
RTVSPost2010Prop48
 90
       50
102
RTVSPost2010PropOp48
 70
     1
102
RTVSPost2010Prop49
280
     0
102
RTVSPost2010PropOp49
 70
     1
102
RTVSPost2010Prop50
 90
       50
102
RTVSPost2010PropOp50
 70
     1
102
RTVSPost2010Prop51ColorIndex
 90
      256
102
RTVSPost2010Prop51ColorRGB
 90
-16777216
102
RTVSPost2010PropOp51
 70
     0
102
RTVSPost2010Prop52
140
1.0
102
RTVSPost2010PropOp52
 70
     0
102
RTVSPost2010Prop53
 90
        2
102
RTVSPost2010PropOp53
 70
     1
102
RTVSPost2010Prop54
  1
strokes_ogs.tif
102
RTVSPost2010PropOp54
 70
     1
102
RTVSPost2010Prop55
280
     0
102
RTVSPost2010PropOp55
 70
     1
102
RTVSPost2010Prop56
140
1.0
102
RTVSPost2010PropOp56
 70
     1
102
RTVSPost2010Prop57
140
1.0
102
RTVSPost2010PropOp57
 70
     1
  0
XRECORD
  5
230
102
{ACAD_REACTORS
330
22F
102
}
330
22F
100
AcDbXrecord
280
     1
102
RTVSPropertyOp0
 70
     1
102
RTVSPropertyOp1
 70
     1
102
RTVSPropertyOp2
 70
     1
102
RTVSPropertyOp3
 70
     1
102
RTVSPropertyOp4
 70
     1
102
RTVSPropertyOp5
 70
     1
102
RTVSPropertyOp6
 70
     1
102
RTVSPropertyOp7
 70
     1
102
RTVSPropertyOp8
 70
     1
102
RTVSPropertyOp9
 70
     1
102
RTVSPropertyOp10
 70
     1
102
RTVSPropertyOp11
 70
     1
102
RTVSPropertyOp12
 70
     1
102
RTVSPropertyOp13
 70
     1
102
RTVSPropertyOp14
 70
     1
102
RTVSPropertyOp15
 70
     1
102
RTVSPropertyOp16
 70
     1
102
RTVSPropertyOp17
 70
     1
102
RTVSPropertyOp18
 70
     1
102
RTVSPropertyOp19
 70
     1
102
RTVSPropertyOp20
 70
     1
102
RTVSPropertyOp21
 70
     1
102
RTVSPropertyOp22
 70
     1
102
RTVSPropertyOp23
 70
     1
102
RTVSPropertyOp24
 70
     1
102
RTVSPropertyOp25
 70
     1
102
RTVSPropertyOp26
 70
     1
102
RTVSPropertyOp27
 70
     1
102
RTVSPropertyOp28
 70
     1
102
RTVSPropertyOp29
 70
     1
102
RTVSPropertyOp30
 70
     1
102
RTVSPropertyOp31
 70
     1
102
RTVSPropertyOp32
 70
     1
102
RTVSPropertyOp33
 70
     1
102
RTVSPropertyOp34
 70
     1
102
RTVSPropertyOp35
 70
     1
102
RTVSPropertyOp36
 70
     1
102
RTVSPropertyOp37
 70
     1
102
RTVSPropertyOp38
 70
     1
102
RTVSPropertyOp39
 70
     1
102
RTVSPropertyOp40
 70
     1
102
RTVSPropertyOp41
 70
     1
102
RTVSPropertyOp42
 70
     1
102
RTVSPropertyOp43
 70
     1
102
RTVSPropertyOp44
 70
     1
102
RTVSPropertyOp45
 70
     1
102
RTVSPropertyOp46
 70
     1
102
RTVSPropertyOp47
 70
     1
102
RTVSPropertyOp48
 70
     1
102
RTVSPropertyOp49
 70
     1
102
RTVSPropertyOp50
 70
     1
102
RTVSPropertyOp51
 70
     0
102
RTVSPropertyOp52
 70
     0
102
RTVSPropertyOp53
 70
     1
102
RTVSPropertyOp54
 70
     1
102
RTVSPropertyOp55
 70
     1
102
RTVSPropertyOp56
 70
     1
102
RTVSPropertyOp57
 70
     1
102
RTVSPost2010Prop28
280
     0
102
RTVSPost2010PropOp28
 70
     1
102
RTVSPost2010Prop29
280
     1
102
RTVSPost2010PropOp29
 70
     1
102
RTVSPost2010Prop30
280
     1
102
RTVSPost2010PropOp30
 70
     1
102
RTVSPost2010Prop31
280
     0
102
RTVSPost2010PropOp31
 70
     1
102
RTVSPost2010Prop32
280
     0
102
RTVSPost2010PropOp32
 70
     1
102
RTVSPost2010Prop33
280
     0
102
RTVSPost2010PropOp33
 70
     1
102
RTVSPost2010Prop34
280
     0
102
RTVSPost2010PropOp34
 70
     1
102
RTVSPost2010Prop35
280
     0
102
RTVSPost2010PropOp35
 70
     1
102
RTVSPost2010Prop36
280
     0
102
RTVSPost2010PropOp36
 70
     1
102
RTVSPost2010Prop37
 90
       50
102
RTVSPost2010PropOp37
 70
     1
102
RTVSPost2010Prop38
140
0.0
102
RTVSPost2010PropOp38
 70
     1
102
RTVSPost2010Prop39
140
1.0
102
RTVSPost2010PropOp39
 70
     1
102
RTVSPost2010Prop40
 90
        0
102
RTVSPost2010PropOp40
 70
     1
102
RTVSPost2010Prop41ColorIndex
 90
       18
102
RTVSPost2010Prop41ColorRGB
 90
        0
102
RTVSPost2010PropOp41
 70
     1
102
RTVSPost2010Prop42
 90
       50
102
RTVSPost2010PropOp42
 70
     1
102
RTVSPost2010Prop43
 90
        3
102
RTVSPost2010PropOp43
 70
     1
102
RTVSPost2010Prop44ColorIndex
 90
        5
102
RTVSPost2010Prop44ColorRGB
 90
      255
102
RTVSPost2010PropOp44
 70
     1
102
RTVSPost2010Prop45
280
     0
102
RTVSPost2010PropOp45
 70
     1
102
RTVSPost2010Prop46
 90
       50
102
RTVSPost2010PropOp46
 70
     1
102
RTVSPost2010Prop47
 90
       50
102
RTVSPost2010PropOp47
 70
     1
102
RTVSPost2010Prop48
 90
       50
102
RTVSPost2010PropOp48
 70
     1
102
RTVSPost2010Prop49
280
     0
102
RTVSPost2010PropOp49
 70
     1
102
RTVSPost2010Prop50
 90
       50
102
RTVSPost2010PropOp50
 70
     1
102
RTVSPost2010Prop51ColorIndex
 90
      256
102
RTVSPost2010Prop51ColorRGB
 90
-16777216
102
RTVSPost2010PropOp51
 70
     0
102
RTVSPost2010Prop52
140
1.0
102
RTVSPost2010PropOp52
 70
     0
102
RTVSPost2010Prop53
 90
        2
102
RTVSPost2010PropOp53
 70
     1
102
RTVSPost2010Prop54
  1
strokes_ogs.tif
102
RTVSPost2010PropOp54
 70
     1
102
RTVSPost2010Prop55
280
     0
102
RTVSPost2010PropOp55
 70
     1
102
RTVSPost2010Prop56
140
1.0
102
RTVSPost2010PropOp56
 70
     1
102
RTVSPost2010Prop57
140
1.0
102
RTVSPost2010PropOp57
 70
     1
  0
XRECORD
  5
236
102
{ACAD_REACTORS
330
235
102
}
330
235
100
AcDbXrecord
280
     1
102
RTVSPropertyOp0
 70
     1
102
RTVSPropertyOp1
 70
     1
102
RTVSPropertyOp2
 70
     1
102
RTVSPropertyOp3
 70
     1
102
RTVSPropertyOp4
 70
     1
102
RTVSPropertyOp5
 70
     1
102
RTVSPropertyOp6
 70
     1
102
RTVSPropertyOp7
 70
     1
102
RTVSPropertyOp8
 70
     1
102
RTVSPropertyOp9
 70
     1
102
RTVSPropertyOp10
 70
     1
102
RTVSPropertyOp11
 70
     1
102
RTVSPropertyOp12
 70
     1
102
RTVSPropertyOp13
 70
     1
102
RTVSPropertyOp14
 70
     1
102
RTVSPropertyOp15
 70
     1
102
RTVSPropertyOp16
 70
     1
102
RTVSPropertyOp17
 70
     1
102
RTVSPropertyOp18
 70
     1
102
RTVSPropertyOp19
 70
     1
102
RTVSPropertyOp20
 70
     1
102
RTVSPropertyOp21
 70
     1
102
RTVSPropertyOp22
 70
     1
102
RTVSPropertyOp23
 70
     1
102
RTVSPropertyOp24
 70
     1
102
RTVSPropertyOp25
 70
     1
102
RTVSPropertyOp26
 70
     1
102
RTVSPropertyOp27
 70
     1
102
RTVSPropertyOp28
 70
     1
102
RTVSPropertyOp29
 70
     1
102
RTVSPropertyOp30
 70
     1
102
RTVSPropertyOp31
 70
     1
102
RTVSPropertyOp32
 70
     1
102
RTVSPropertyOp33
 70
     1
102
RTVSPropertyOp34
 70
     1
102
RTVSPropertyOp35
 70
     1
102
RTVSPropertyOp36
 70
     1
102
RTVSPropertyOp37
 70
     1
102
RTVSPropertyOp38
 70
     1
102
RTVSPropertyOp39
 70
     1
102
RTVSPropertyOp40
 70
     1
102
RTVSPropertyOp41
 70
     1
102
RTVSPropertyOp42
 70
     1
102
RTVSPropertyOp43
 70
     1
102
RTVSPropertyOp44
 70
     1
102
RTVSPropertyOp45
 70
     1
102
RTVSPropertyOp46
 70
     1
102
RTVSPropertyOp47
 70
     1
102
RTVSPropertyOp48
 70
     1
102
RTVSPropertyOp49
 70
     1
102
RTVSPropertyOp50
 70
     1
102
RTVSPropertyOp51
 70
     0
102
RTVSPropertyOp52
 70
     0
102
RTVSPropertyOp53
 70
     1
102
RTVSPropertyOp54
 70
     1
102
RTVSPropertyOp55
 70
     1
102
RTVSPropertyOp56
 70
     1
102
RTVSPropertyOp57
 70
     1
102
RTVSPost2010Prop28
280
     0
102
RTVSPost2010PropOp28
 70
     1
102
RTVSPost2010Prop29
280
     1
102
RTVSPost2010PropOp29
 70
     1
102
RTVSPost2010Prop30
280
     1
102
RTVSPost2010PropOp30
 70
     1
102
RTVSPost2010Prop31
280
     0
102
RTVSPost2010PropOp31
 70
     1
102
RTVSPost2010Prop32
280
     0
102
RTVSPost2010PropOp32
 70
     1
102
RTVSPost2010Prop33
280
     0
102
RTVSPost2010PropOp33
 70
     1
102
RTVSPost2010Prop34
280
     0
102
RTVSPost2010PropOp34
 70
     1
102
RTVSPost2010Prop35
280
     0
102
RTVSPost2010PropOp35
 70
     1
102
RTVSPost2010Prop36
280
     0
102
RTVSPost2010PropOp36
 70
     1
102
RTVSPost2010Prop37
 90
       50
102
RTVSPost2010PropOp37
 70
     1
102
RTVSPost2010Prop38
140
0.0
102
RTVSPost2010PropOp38
 70
     1
102
RTVSPost2010Prop39
140
1.0
102
RTVSPost2010PropOp39
 70
     1
102
RTVSPost2010Prop40
 90
        0
102
RTVSPost2010PropOp40
 70
     1
102
RTVSPost2010Prop41ColorIndex
 90
       18
102
RTVSPost2010Prop41ColorRGB
 90
        0
102
RTVSPost2010PropOp41
 70
     1
102
RTVSPost2010Prop42
 90
       50
102
RTVSPost2010PropOp42
 70
     1
102
RTVSPost2010Prop43
 90
        3
102
RTVSPost2010PropOp43
 70
     1
102
RTVSPost2010Prop44ColorIndex
 90
        5
102
RTVSPost2010Prop44ColorRGB
 90
      255
102
RTVSPost2010PropOp44
 70
     1
102
RTVSPost2010Prop45
280
     0
102
RTVSPost2010PropOp45
 70
     1
102
RTVSPost2010Prop46
 90
       50
102
RTVSPost2010PropOp46
 70
     1
102
RTVSPost2010Prop47
 90
       50
102
RTVSPost2010PropOp47
 70
     1
102
RTVSPost2010Prop48
 90
       50
102
RTVSPost2010PropOp48
 70
     1
102
RTVSPost2010Prop49
280
     0
102
RTVSPost2010PropOp49
 70
     1
102
RTVSPost2010Prop50
 90
       50
102
RTVSPost2010PropOp50
 70
     1
102
RTVSPost2010Prop51ColorIndex
 90
      256
102
RTVSPost2010Prop51ColorRGB
 90
-16777216
102
RTVSPost2010PropOp51
 70
     0
102
RTVSPost2010Prop52
140
1.0
102
RTVSPost2010PropOp52
 70
     0
102
RTVSPost2010Prop53
 90
        2
102
RTVSPost2010PropOp53
 70
     1
102
RTVSPost2010Prop54
  1
strokes_ogs.tif
102
RTVSPost2010PropOp54
 70
     1
102
RTVSPost2010Prop55
280
     0
102
RTVSPost2010PropOp55
 70
     1
102
RTVSPost2010Prop56
140
1.0
102
RTVSPost2010PropOp56
 70
     1
102
RTVSPost2010Prop57
140
1.0
102
RTVSPost2010PropOp57
 70
     1
  0
XRECORD
  5
24A
102
{ACAD_REACTORS
330
249
102
}
330
249
100
AcDbXrecord
280
     1
102
RTVSPropertyOp0
 70
     0
102
RTVSPropertyOp1
 70
     0
102
RTVSPropertyOp2
 70
     0
102
RTVSPropertyOp3
 70
     0
102
RTVSPropertyOp4
 70
     0
102
RTVSPropertyOp5
 70
     0
102
RTVSPropertyOp6
 70
     0
102
RTVSPropertyOp7
 70
     0
102
RTVSPropertyOp8
 70
     0
102
RTVSPropertyOp9
 70
     0
102
RTVSPropertyOp10
 70
     0
102
RTVSPropertyOp11
 70
     0
102
RTVSPropertyOp12
 70
     0
102
RTVSPropertyOp13
 70
     0
102
RTVSPropertyOp14
 70
     2
102
RTVSPropertyOp15
 70
     0
102
RTVSPropertyOp16
 70
     0
102
RTVSPropertyOp17
 70
     0
102
RTVSPropertyOp18
 70
     0
102
RTVSPropertyOp19
 70
     0
102
RTVSPropertyOp20
 70
     0
102
RTVSPropertyOp21
 70
     0
102
RTVSPropertyOp22
 70
     0
102
RTVSPropertyOp23
 70
     0
102
RTVSPropertyOp24
 70
     0
102
RTVSPropertyOp25
 70
     0
102
RTVSPropertyOp26
 70
     0
102
RTVSPropertyOp27
 70
     0
102
RTVSPropertyOp28
 70
     0
102
RTVSPropertyOp29
 70
     0
102
RTVSPropertyOp30
 70
     0
102
RTVSPropertyOp31
 70
     0
102
RTVSPropertyOp32
 70
     0
102
RTVSPropertyOp33
 70
     0
102
RTVSPropertyOp34
 70
     0
102
RTVSPropertyOp35
 70
     0
102
RTVSPropertyOp36
 70
     0
102
RTVSPropertyOp37
 70
     0
102
RTVSPropertyOp38
 70
     0
102
RTVSPropertyOp39
 70
     0
102
RTVSPropertyOp40
 70
     0
102
RTVSPropertyOp41
 70
     0
102
RTVSPropertyOp42
 70
     0
102
RTVSPropertyOp43
 70
     0
102
RTVSPropertyOp44
 70
     0
102
RTVSPropertyOp45
 70
     0
102
RTVSPropertyOp46
 70
     0
102
RTVSPropertyOp47
 70
     0
102
RTVSPropertyOp48
 70
     0
102
RTVSPropertyOp49
 70
     0
102
RTVSPropertyOp50
 70
     0
102
RTVSPropertyOp51
 70
     0
102
RTVSPropertyOp52
 70
     0
102
RTVSPropertyOp53
 70
     0
102
RTVSPropertyOp54
 70
     0
102
RTVSPropertyOp55
 70
     0
102
RTVSPropertyOp56
 70
     0
102
RTVSPropertyOp57
 70
     0
102
RTVSPost2010Prop28
280
     0
102
RTVSPost2010PropOp28
 70
     0
102
RTVSPost2010Prop29
280
     1
102
RTVSPost2010PropOp29
 70
     0
102
RTVSPost2010Prop30
280
     1
102
RTVSPost2010PropOp30
 70
     0
102
RTVSPost2010Prop31
280
     0
102
RTVSPost2010PropOp31
 70
     0
102
RTVSPost2010Prop32
280
     0
102
RTVSPost2010PropOp32
 70
     0
102
RTVSPost2010Prop33
280
     0
102
RTVSPost2010PropOp33
 70
     0
102
RTVSPost2010Prop34
280
     0
102
RTVSPost2010PropOp34
 70
     0
102
RTVSPost2010Prop35
280
     0
102
RTVSPost2010PropOp35
 70
     0
102
RTVSPost2010Prop36
280
     0
102
RTVSPost2010PropOp36
 70
     0
102
RTVSPost2010Prop37
 90
       50
102
RTVSPost2010PropOp37
 70
     0
102
RTVSPost2010Prop38
140
0.0
102
RTVSPost2010PropOp38
 70
     0
102
RTVSPost2010Prop39
140
1.0
102
RTVSPost2010PropOp39
 70
     0
102
RTVSPost2010Prop40
 90
        0
102
RTVSPost2010PropOp40
 70
     0
102
RTVSPost2010Prop41ColorIndex
 90
       18
102
RTVSPost2010Prop41ColorRGB
 90
        0
102
RTVSPost2010PropOp41
 70
     0
102
RTVSPost2010Prop42
 90
       50
102
RTVSPost2010PropOp42
 70
     0
102
RTVSPost2010Prop43
 90
        3
102
RTVSPost2010PropOp43
 70
     0
102
RTVSPost2010Prop44ColorIndex
 90
        5
102
RTVSPost2010Prop44ColorRGB
 90
      255
102
RTVSPost2010PropOp44
 70
     0
102
RTVSPost2010Prop45
280
     0
102
RTVSPost2010PropOp45
 70
     0
102
RTVSPost2010Prop46
 90
       50
102
RTVSPost2010PropOp46
 70
     0
102
RTVSPost2010Prop47
 90
       50
102
RTVSPost2010PropOp47
 70
     0
102
RTVSPost2010Prop48
 90
       50
102
RTVSPost2010PropOp48
 70
     0
102
RTVSPost2010Prop49
280
     0
102
RTVSPost2010PropOp49
 70
     0
102
RTVSPost2010Prop50
 90
       50
102
RTVSPost2010PropOp50
 70
     0
102
RTVSPost2010Prop51ColorIndex
 90
      256
102
RTVSPost2010Prop51ColorRGB
 90
-16777216
102
RTVSPost2010PropOp51
 70
     0
102
RTVSPost2010Prop52
140
1.0
102
RTVSPost2010PropOp52
 70
     0
102
RTVSPost2010Prop53
 90
        2
102
RTVSPost2010PropOp53
 70
     0
102
RTVSPost2010Prop54
  1
strokes_ogs.tif
102
RTVSPost2010PropOp54
 70
     0
102
RTVSPost2010Prop55
280
     0
102
RTVSPost2010PropOp55
 70
     0
102
RTVSPost2010Prop56
140
1.0
102
RTVSPost2010PropOp56
 70
     0
102
RTVSPost2010Prop57
140
1.0
102
RTVSPost2010PropOp57
 70
     0
  0
XRECORD
  5
244
102
{ACAD_REACTORS
330
243
102
}
330
243
100
AcDbXrecord
280
     1
102
RTVSPropertyOp0
 70
     1
102
RTVSPropertyOp1
 70
     1
102
RTVSPropertyOp2
 70
     1
102
RTVSPropertyOp3
 70
     1
102
RTVSPropertyOp4
 70
     1
102
RTVSPropertyOp5
 70
     1
102
RTVSPropertyOp6
 70
     1
102
RTVSPropertyOp7
 70
     1
102
RTVSPropertyOp8
 70
     1
102
RTVSPropertyOp9
 70
     1
102
RTVSPropertyOp10
 70
     1
102
RTVSPropertyOp11
 70
     1
102
RTVSPropertyOp12
 70
     1
102
RTVSPropertyOp13
 70
     1
102
RTVSPropertyOp14
 70
     1
102
RTVSPropertyOp15
 70
     1
102
RTVSPropertyOp16
 70
     1
102
RTVSPropertyOp17
 70
     1
102
RTVSPropertyOp18
 70
     1
102
RTVSPropertyOp19
 70
     1
102
RTVSPropertyOp20
 70
     1
102
RTVSPropertyOp21
 70
     1
102
RTVSPropertyOp22
 70
     1
102
RTVSPropertyOp23
 70
     1
102
RTVSPropertyOp24
 70
     1
102
RTVSPropertyOp25
 70
     1
102
RTVSPropertyOp26
 70
     1
102
RTVSPropertyOp27
 70
     1
102
RTVSPropertyOp28
 70
     1
102
RTVSPropertyOp29
 70
     1
102
RTVSPropertyOp30
 70
     1
102
RTVSPropertyOp31
 70
     1
102
RTVSPropertyOp32
 70
     1
102
RTVSPropertyOp33
 70
     1
102
RTVSPropertyOp34
 70
     1
102
RTVSPropertyOp35
 70
     1
102
RTVSPropertyOp36
 70
     1
102
RTVSPropertyOp37
 70
     1
102
RTVSPropertyOp38
 70
     1
102
RTVSPropertyOp39
 70
     1
102
RTVSPropertyOp40
 70
     1
102
RTVSPropertyOp41
 70
     1
102
RTVSPropertyOp42
 70
     1
102
RTVSPropertyOp43
 70
     1
102
RTVSPropertyOp44
 70
     1
102
RTVSPropertyOp45
 70
     1
102
RTVSPropertyOp46
 70
     1
102
RTVSPropertyOp47
 70
     1
102
RTVSPropertyOp48
 70
     1
102
RTVSPropertyOp49
 70
     1
102
RTVSPropertyOp50
 70
     1
102
RTVSPropertyOp51
 70
     0
102
RTVSPropertyOp52
 70
     0
102
RTVSPropertyOp53
 70
     1
102
RTVSPropertyOp54
 70
     1
102
RTVSPropertyOp55
 70
     1
102
RTVSPropertyOp56
 70
     1
102
RTVSPropertyOp57
 70
     1
102
RTVSPost2010Prop28
280
     0
102
RTVSPost2010PropOp28
 70
     1
102
RTVSPost2010Prop29
280
     1
102
RTVSPost2010PropOp29
 70
     1
102
RTVSPost2010Prop30
280
     1
102
RTVSPost2010PropOp30
 70
     1
102
RTVSPost2010Prop31
280
     0
102
RTVSPost2010PropOp31
 70
     1
102
RTVSPost2010Prop32
280
     0
102
RTVSPost2010PropOp32
 70
     1
102
RTVSPost2010Prop33
280
     0
102
RTVSPost2010PropOp33
 70
     1
102
RTVSPost2010Prop34
280
     0
102
RTVSPost2010PropOp34
 70
     1
102
RTVSPost2010Prop35
280
     0
102
RTVSPost2010PropOp35
 70
     1
102
RTVSPost2010Prop36
280
     0
102
RTVSPost2010PropOp36
 70
     1
102
RTVSPost2010Prop37
 90
       50
102
RTVSPost2010PropOp37
 70
     1
102
RTVSPost2010Prop38
140
0.0
102
RTVSPost2010PropOp38
 70
     1
102
RTVSPost2010Prop39
140
1.0
102
RTVSPost2010PropOp39
 70
     1
102
RTVSPost2010Prop40
 90
        0
102
RTVSPost2010PropOp40
 70
     1
102
RTVSPost2010Prop41ColorIndex
 90
       18
102
RTVSPost2010Prop41ColorRGB
 90
        0
102
RTVSPost2010PropOp41
 70
     1
102
RTVSPost2010Prop42
 90
       50
102
RTVSPost2010PropOp42
 70
     1
102
RTVSPost2010Prop43
 90
        3
102
RTVSPost2010PropOp43
 70
     1
102
RTVSPost2010Prop44ColorIndex
 90
        5
102
RTVSPost2010Prop44ColorRGB
 90
      255
102
RTVSPost2010PropOp44
 70
     1
102
RTVSPost2010Prop45
280
     0
102
RTVSPost2010PropOp45
 70
     1
102
RTVSPost2010Prop46
 90
       50
102
RTVSPost2010PropOp46
 70
     1
102
RTVSPost2010Prop47
 90
       50
102
RTVSPost2010PropOp47
 70
     1
102
RTVSPost2010Prop48
 90
       50
102
RTVSPost2010PropOp48
 70
     1
102
RTVSPost2010Prop49
280
     0
102
RTVSPost2010PropOp49
 70
     1
102
RTVSPost2010Prop50
 90
       50
102
RTVSPost2010PropOp50
 70
     1
102
RTVSPost2010Prop51ColorIndex
 90
      256
102
RTVSPost2010Prop51ColorRGB
 90
-16777216
102
RTVSPost2010PropOp51
 70
     0
102
RTVSPost2010Prop52
140
1.0
102
RTVSPost2010PropOp52
 70
     0
102
RTVSPost2010Prop53
 90
        2
102
RTVSPost2010PropOp53
 70
     1
102
RTVSPost2010Prop54
  1
strokes_ogs.tif
102
RTVSPost2010PropOp54
 70
     1
102
RTVSPost2010Prop55
280
     0
102
RTVSPost2010PropOp55
 70
     1
102
RTVSPost2010Prop56
140
1.0
102
RTVSPost2010PropOp56
 70
     1
102
RTVSPost2010Prop57
140
1.0
102
RTVSPost2010PropOp57
 70
     1
  0
XRECORD
  5
24C
102
{ACAD_REACTORS
330
24B
102
}
330
24B
100
AcDbXrecord
280
     1
102
RTVSPropertyOp0
 70
     0
102
RTVSPropertyOp1
 70
     0
102
RTVSPropertyOp2
 70
     0
102
RTVSPropertyOp3
 70
     0
102
RTVSPropertyOp4
 70
     0
102
RTVSPropertyOp5
 70
     0
102
RTVSPropertyOp6
 70
     0
102
RTVSPropertyOp7
 70
     0
102
RTVSPropertyOp8
 70
     0
102
RTVSPropertyOp9
 70
     0
102
RTVSPropertyOp10
 70
     0
102
RTVSPropertyOp11
 70
     0
102
RTVSPropertyOp12
 70
     0
102
RTVSPropertyOp13
 70
     0
102
RTVSPropertyOp14
 70
     2
102
RTVSPropertyOp15
 70
     0
102
RTVSPropertyOp16
 70
     0
102
RTVSPropertyOp17
 70
     0
102
RTVSPropertyOp18
 70
     0
102
RTVSPropertyOp19
 70
     0
102
RTVSPropertyOp20
 70
     0
102
RTVSPropertyOp21
 70
     0
102
RTVSPropertyOp22
 70
     0
102
RTVSPropertyOp23
 70
     0
102
RTVSPropertyOp24
 70
     0
102
RTVSPropertyOp25
 70
     0
102
RTVSPropertyOp26
 70
     0
102
RTVSPropertyOp27
 70
     0
102
RTVSPropertyOp28
 70
     0
102
RTVSPropertyOp29
 70
     0
102
RTVSPropertyOp30
 70
     0
102
RTVSPropertyOp31
 70
     0
102
RTVSPropertyOp32
 70
     0
102
RTVSPropertyOp33
 70
     0
102
RTVSPropertyOp34
 70
     0
102
RTVSPropertyOp35
 70
     0
102
RTVSPropertyOp36
 70
     0
102
RTVSPropertyOp37
 70
     0
102
RTVSPropertyOp38
 70
     0
102
RTVSPropertyOp39
 70
     0
102
RTVSPropertyOp40
 70
     0
102
RTVSPropertyOp41
 70
     0
102
RTVSPropertyOp42
 70
     0
102
RTVSPropertyOp43
 70
     0
102
RTVSPropertyOp44
 70
     0
102
RTVSPropertyOp45
 70
     0
102
RTVSPropertyOp46
 70
     0
102
RTVSPropertyOp47
 70
     0
102
RTVSPropertyOp48
 70
     0
102
RTVSPropertyOp49
 70
     0
102
RTVSPropertyOp50
 70
     0
102
RTVSPropertyOp51
 70
     0
102
RTVSPropertyOp52
 70
     0
102
RTVSPropertyOp53
 70
     0
102
RTVSPropertyOp54
 70
     0
102
RTVSPropertyOp55
 70
     0
102
RTVSPropertyOp56
 70
     0
102
RTVSPropertyOp57
 70
     0
102
RTVSPost2010Prop28
280
     0
102
RTVSPost2010PropOp28
 70
     0
102
RTVSPost2010Prop29
280
     1
102
RTVSPost2010PropOp29
 70
     0
102
RTVSPost2010Prop30
280
     1
102
RTVSPost2010PropOp30
 70
     0
102
RTVSPost2010Prop31
280
     0
102
RTVSPost2010PropOp31
 70
     0
102
RTVSPost2010Prop32
280
     0
102
RTVSPost2010PropOp32
 70
     0
102
RTVSPost2010Prop33
280
     0
102
RTVSPost2010PropOp33
 70
     0
102
RTVSPost2010Prop34
280
     0
102
RTVSPost2010PropOp34
 70
     0
102
RTVSPost2010Prop35
280
     0
102
RTVSPost2010PropOp35
 70
     0
102
RTVSPost2010Prop36
280
     0
102
RTVSPost2010PropOp36
 70
     0
102
RTVSPost2010Prop37
 90
       50
102
RTVSPost2010PropOp37
 70
     0
102
RTVSPost2010Prop38
140
0.0
102
RTVSPost2010PropOp38
 70
     0
102
RTVSPost2010Prop39
140
1.0
102
RTVSPost2010PropOp39
 70
     0
102
RTVSPost2010Prop40
 90
        0
102
RTVSPost2010PropOp40
 70
     0
102
RTVSPost2010Prop41ColorIndex
 90
       18
102
RTVSPost2010Prop41ColorRGB
 90
        0
102
RTVSPost2010PropOp41
 70
     0
102
RTVSPost2010Prop42
 90
       50
102
RTVSPost2010PropOp42
 70
     0
102
RTVSPost2010Prop43
 90
        3
102
RTVSPost2010PropOp43
 70
     0
102
RTVSPost2010Prop44ColorIndex
 90
        5
102
RTVSPost2010Prop44ColorRGB
 90
      255
102
RTVSPost2010PropOp44
 70
     0
102
RTVSPost2010Prop45
280
     0
102
RTVSPost2010PropOp45
 70
     0
102
RTVSPost2010Prop46
 90
       50
102
RTVSPost2010PropOp46
 70
     0
102
RTVSPost2010Prop47
 90
       50
102
RTVSPost2010PropOp47
 70
     0
102
RTVSPost2010Prop48
 90
       50
102
RTVSPost2010PropOp48
 70
     0
102
RTVSPost2010Prop49
280
     0
102
RTVSPost2010PropOp49
 70
     0
102
RTVSPost2010Prop50
 90
       50
102
RTVSPost2010PropOp50
 70
     0
102
RTVSPost2010Prop51ColorIndex
 90
      256
102
RTVSPost2010Prop51ColorRGB
 90
-16777216
102
RTVSPost2010PropOp51
 70
     0
102
RTVSPost2010Prop52
140
1.0
102
RTVSPost2010PropOp52
 70
     0
102
RTVSPost2010Prop53
 90
        2
102
RTVSPost2010PropOp53
 70
     0
102
RTVSPost2010Prop54
  1
strokes_ogs.tif
102
RTVSPost2010PropOp54
 70
     0
102
RTVSPost2010Prop55
280
     0
102
RTVSPost2010PropOp55
 70
     0
102
RTVSPost2010Prop56
140
1.0
102
RTVSPost2010PropOp56
 70
     0
102
RTVSPost2010Prop57
140
1.0
102
RTVSPost2010PropOp57
 70
     0
  0
XRECORD
  5
23A
102
{ACAD_REACTORS
330
239
102
}
330
239
100
AcDbXrecord
280
     1
102
RTVSPropertyOp0
 70
     1
102
RTVSPropertyOp1
 70
     1
102
RTVSPropertyOp2
 70
     1
102
RTVSPropertyOp3
 70
     1
102
RTVSPropertyOp4
 70
     1
102
RTVSPropertyOp5
 70
     1
102
RTVSPropertyOp6
 70
     1
102
RTVSPropertyOp7
 70
     1
102
RTVSPropertyOp8
 70
     1
102
RTVSPropertyOp9
 70
     1
102
RTVSPropertyOp10
 70
     1
102
RTVSPropertyOp11
 70
     1
102
RTVSPropertyOp12
 70
     1
102
RTVSPropertyOp13
 70
     1
102
RTVSPropertyOp14
 70
     1
102
RTVSPropertyOp15
 70
     1
102
RTVSPropertyOp16
 70
     1
102
RTVSPropertyOp17
 70
     1
102
RTVSPropertyOp18
 70
     1
102
RTVSPropertyOp19
 70
     1
102
RTVSPropertyOp20
 70
     1
102
RTVSPropertyOp21
 70
     1
102
RTVSPropertyOp22
 70
     1
102
RTVSPropertyOp23
 70
     1
102
RTVSPropertyOp24
 70
     1
102
RTVSPropertyOp25
 70
     1
102
RTVSPropertyOp26
 70
     1
102
RTVSPropertyOp27
 70
     1
102
RTVSPropertyOp28
 70
     1
102
RTVSPropertyOp29
 70
     1
102
RTVSPropertyOp30
 70
     1
102
RTVSPropertyOp31
 70
     1
102
RTVSPropertyOp32
 70
     1
102
RTVSPropertyOp33
 70
     1
102
RTVSPropertyOp34
 70
     1
102
RTVSPropertyOp35
 70
     1
102
RTVSPropertyOp36
 70
     1
102
RTVSPropertyOp37
 70
     1
102
RTVSPropertyOp38
 70
     1
102
RTVSPropertyOp39
 70
     1
102
RTVSPropertyOp40
 70
     1
102
RTVSPropertyOp41
 70
     1
102
RTVSPropertyOp42
 70
     1
102
RTVSPropertyOp43
 70
     1
102
RTVSPropertyOp44
 70
     1
102
RTVSPropertyOp45
 70
     1
102
RTVSPropertyOp46
 70
     1
102
RTVSPropertyOp47
 70
     1
102
RTVSPropertyOp48
 70
     1
102
RTVSPropertyOp49
 70
     1
102
RTVSPropertyOp50
 70
     1
102
RTVSPropertyOp51
 70
     0
102
RTVSPropertyOp52
 70
     0
102
RTVSPropertyOp53
 70
     1
102
RTVSPropertyOp54
 70
     1
102
RTVSPropertyOp55
 70
     1
102
RTVSPropertyOp56
 70
     1
102
RTVSPropertyOp57
 70
     1
102
RTVSPost2010Prop28
280
     0
102
RTVSPost2010PropOp28
 70
     1
102
RTVSPost2010Prop29
280
     1
102
RTVSPost2010PropOp29
 70
     1
102
RTVSPost2010Prop30
280
     1
102
RTVSPost2010PropOp30
 70
     1
102
RTVSPost2010Prop31
280
     0
102
RTVSPost2010PropOp31
 70
     1
102
RTVSPost2010Prop32
280
     0
102
RTVSPost2010PropOp32
 70
     1
102
RTVSPost2010Prop33
280
     0
102
RTVSPost2010PropOp33
 70
     1
102
RTVSPost2010Prop34
280
     0
102
RTVSPost2010PropOp34
 70
     1
102
RTVSPost2010Prop35
280
     0
102
RTVSPost2010PropOp35
 70
     1
102
RTVSPost2010Prop36
280
     0
102
RTVSPost2010PropOp36
 70
     1
102
RTVSPost2010Prop37
 90
       50
102
RTVSPost2010PropOp37
 70
     1
102
RTVSPost2010Prop38
140
0.0
102
RTVSPost2010PropOp38
 70
     1
102
RTVSPost2010Prop39
140
1.0
102
RTVSPost2010PropOp39
 70
     1
102
RTVSPost2010Prop40
 90
        0
102
RTVSPost2010PropOp40
 70
     1
102
RTVSPost2010Prop41ColorIndex
 90
       18
102
RTVSPost2010Prop41ColorRGB
 90
        0
102
RTVSPost2010PropOp41
 70
     1
102
RTVSPost2010Prop42
 90
       50
102
RTVSPost2010PropOp42
 70
     1
102
RTVSPost2010Prop43
 90
        3
102
RTVSPost2010PropOp43
 70
     1
102
RTVSPost2010Prop44ColorIndex
 90
        5
102
RTVSPost2010Prop44ColorRGB
 90
      255
102
RTVSPost2010PropOp44
 70
     1
102
RTVSPost2010Prop45
280
     0
102
RTVSPost2010PropOp45
 70
     1
102
RTVSPost2010Prop46
 90
       50
102
RTVSPost2010PropOp46
 70
     1
102
RTVSPost2010Prop47
 90
       50
102
RTVSPost2010PropOp47
 70
     1
102
RTVSPost2010Prop48
 90
       50
102
RTVSPost2010PropOp48
 70
     1
102
RTVSPost2010Prop49
280
     0
102
RTVSPost2010PropOp49
 70
     1
102
RTVSPost2010Prop50
 90
       50
102
RTVSPost2010PropOp50
 70
     1
102
RTVSPost2010Prop51ColorIndex
 90
      256
102
RTVSPost2010Prop51ColorRGB
 90
-16777216
102
RTVSPost2010PropOp51
 70
     0
102
RTVSPost2010Prop52
140
1.0
102
RTVSPost2010PropOp52
 70
     0
102
RTVSPost2010Prop53
 90
        2
102
RTVSPost2010PropOp53
 70
     1
102
RTVSPost2010Prop54
  1
strokes_ogs.tif
102
RTVSPost2010PropOp54
 70
     1
102
RTVSPost2010Prop55
280
     0
102
RTVSPost2010PropOp55
 70
     1
102
RTVSPost2010Prop56
140
1.0
102
RTVSPost2010PropOp56
 70
     1
102
RTVSPost2010Prop57
140
1.0
102
RTVSPost2010PropOp57
 70
     1
  0
XRECORD
  5
258
102
{ACAD_REACTORS
330
257
102
}
330
257
100
AcDbXrecord
280
     1
102
RTVSPropertyOp0
 70
     1
102
RTVSPropertyOp1
 70
     1
102
RTVSPropertyOp2
 70
     1
102
RTVSPropertyOp3
 70
     1
102
RTVSPropertyOp4
 70
     1
102
RTVSPropertyOp5
 70
     1
102
RTVSPropertyOp6
 70
     1
102
RTVSPropertyOp7
 70
     1
102
RTVSPropertyOp8
 70
     1
102
RTVSPropertyOp9
 70
     1
102
RTVSPropertyOp10
 70
     1
102
RTVSPropertyOp11
 70
     1
102
RTVSPropertyOp12
 70
     1
102
RTVSPropertyOp13
 70
     1
102
RTVSPropertyOp14
 70
     1
102
RTVSPropertyOp15
 70
     1
102
RTVSPropertyOp16
 70
     1
102
RTVSPropertyOp17
 70
     1
102
RTVSPropertyOp18
 70
     1
102
RTVSPropertyOp19
 70
     1
102
RTVSPropertyOp20
 70
     1
102
RTVSPropertyOp21
 70
     1
102
RTVSPropertyOp22
 70
     1
102
RTVSPropertyOp23
 70
     1
102
RTVSPropertyOp24
 70
     1
102
RTVSPropertyOp25
 70
     1
102
RTVSPropertyOp26
 70
     1
102
RTVSPropertyOp27
 70
     1
102
RTVSPropertyOp28
 70
     1
102
RTVSPropertyOp29
 70
     1
102
RTVSPropertyOp30
 70
     1
102
RTVSPropertyOp31
 70
     1
102
RTVSPropertyOp32
 70
     1
102
RTVSPropertyOp33
 70
     1
102
RTVSPropertyOp34
 70
     1
102
RTVSPropertyOp35
 70
     1
102
RTVSPropertyOp36
 70
     1
102
RTVSPropertyOp37
 70
     1
102
RTVSPropertyOp38
 70
     1
102
RTVSPropertyOp39
 70
     1
102
RTVSPropertyOp40
 70
     1
102
RTVSPropertyOp41
 70
     1
102
RTVSPropertyOp42
 70
     1
102
RTVSPropertyOp43
 70
     1
102
RTVSPropertyOp44
 70
     1
102
RTVSPropertyOp45
 70
     1
102
RTVSPropertyOp46
 70
     1
102
RTVSPropertyOp47
 70
     1
102
RTVSPropertyOp48
 70
     1
102
RTVSPropertyOp49
 70
     1
102
RTVSPropertyOp50
 70
     1
102
RTVSPropertyOp51
 70
     0
102
RTVSPropertyOp52
 70
     0
102
RTVSPropertyOp53
 70
     1
102
RTVSPropertyOp54
 70
     1
102
RTVSPropertyOp55
 70
     1
102
RTVSPropertyOp56
 70
     1
102
RTVSPropertyOp57
 70
     1
102
RTVSPost2010Prop28
280
     0
102
RTVSPost2010PropOp28
 70
     1
102
RTVSPost2010Prop29
280
     1
102
RTVSPost2010PropOp29
 70
     1
102
RTVSPost2010Prop30
280
     1
102
RTVSPost2010PropOp30
 70
     1
102
RTVSPost2010Prop31
280
     0
102
RTVSPost2010PropOp31
 70
     1
102
RTVSPost2010Prop32
280
     0
102
RTVSPost2010PropOp32
 70
     1
102
RTVSPost2010Prop33
280
     0
102
RTVSPost2010PropOp33
 70
     1
102
RTVSPost2010Prop34
280
     0
102
RTVSPost2010PropOp34
 70
     1
102
RTVSPost2010Prop35
280
     0
102
RTVSPost2010PropOp35
 70
     1
102
RTVSPost2010Prop36
280
     0
102
RTVSPost2010PropOp36
 70
     1
102
RTVSPost2010Prop37
 90
       50
102
RTVSPost2010PropOp37
 70
     1
102
RTVSPost2010Prop38
140
0.0
102
RTVSPost2010PropOp38
 70
     1
102
RTVSPost2010Prop39
140
1.0
102
RTVSPost2010PropOp39
 70
     1
102
RTVSPost2010Prop40
 90
        0
102
RTVSPost2010PropOp40
 70
     1
102
RTVSPost2010Prop41ColorIndex
 90
       18
102
RTVSPost2010Prop41ColorRGB
 90
        0
102
RTVSPost2010PropOp41
 70
     1
102
RTVSPost2010Prop42
 90
       50
102
RTVSPost2010PropOp42
 70
     1
102
RTVSPost2010Prop43
 90
        3
102
RTVSPost2010PropOp43
 70
     1
102
RTVSPost2010Prop44ColorIndex
 90
        5
102
RTVSPost2010Prop44ColorRGB
 90
      255
102
RTVSPost2010PropOp44
 70
     1
102
RTVSPost2010Prop45
280
     0
102
RTVSPost2010PropOp45
 70
     1
102
RTVSPost2010Prop46
 90
       50
102
RTVSPost2010PropOp46
 70
     1
102
RTVSPost2010Prop47
 90
       50
102
RTVSPost2010PropOp47
 70
     1
102
RTVSPost2010Prop48
 90
       50
102
RTVSPost2010PropOp48
 70
     1
102
RTVSPost2010Prop49
280
     0
102
RTVSPost2010PropOp49
 70
     1
102
RTVSPost2010Prop50
 90
       50
102
RTVSPost2010PropOp50
 70
     1
102
RTVSPost2010Prop51ColorIndex
 90
      256
102
RTVSPost2010Prop51ColorRGB
 90
-16777216
102
RTVSPost2010PropOp51
 70
     0
102
RTVSPost2010Prop52
140
1.0
102
RTVSPost2010PropOp52
 70
     0
102
RTVSPost2010Prop53
 90
        2
102
RTVSPost2010PropOp53
 70
     1
102
RTVSPost2010Prop54
  1
strokes_ogs.tif
102
RTVSPost2010PropOp54
 70
     1
102
RTVSPost2010Prop55
280
     0
102
RTVSPost2010PropOp55
 70
     1
102
RTVSPost2010Prop56
140
1.0
102
RTVSPost2010PropOp56
 70
     1
102
RTVSPost2010Prop57
140
1.0
102
RTVSPost2010PropOp57
 70
     1
  0
XRECORD
  5
256
102
{ACAD_REACTORS
330
255
102
}
330
255
100
AcDbXrecord
280
     1
102
RTVSPropertyOp0
 70
     1
102
RTVSPropertyOp1
 70
     1
102
RTVSPropertyOp2
 70
     1
102
RTVSPropertyOp3
 70
     1
102
RTVSPropertyOp4
 70
     1
102
RTVSPropertyOp5
 70
     1
102
RTVSPropertyOp6
 70
     1
102
RTVSPropertyOp7
 70
     1
102
RTVSPropertyOp8
 70
     1
102
RTVSPropertyOp9
 70
     1
102
RTVSPropertyOp10
 70
     1
102
RTVSPropertyOp11
 70
     1
102
RTVSPropertyOp12
 70
     1
102
RTVSPropertyOp13
 70
     1
102
RTVSPropertyOp14
 70
     1
102
RTVSPropertyOp15
 70
     1
102
RTVSPropertyOp16
 70
     1
102
RTVSPropertyOp17
 70
     1
102
RTVSPropertyOp18
 70
     1
102
RTVSPropertyOp19
 70
     1
102
RTVSPropertyOp20
 70
     1
102
RTVSPropertyOp21
 70
     1
102
RTVSPropertyOp22
 70
     1
102
RTVSPropertyOp23
 70
     1
102
RTVSPropertyOp24
 70
     1
102
RTVSPropertyOp25
 70
     1
102
RTVSPropertyOp26
 70
     1
102
RTVSPropertyOp27
 70
     1
102
RTVSPropertyOp28
 70
     1
102
RTVSPropertyOp29
 70
     1
102
RTVSPropertyOp30
 70
     1
102
RTVSPropertyOp31
 70
     1
102
RTVSPropertyOp32
 70
     1
102
RTVSPropertyOp33
 70
     1
102
RTVSPropertyOp34
 70
     1
102
RTVSPropertyOp35
 70
     1
102
RTVSPropertyOp36
 70
     1
102
RTVSPropertyOp37
 70
     1
102
RTVSPropertyOp38
 70
     1
102
RTVSPropertyOp39
 70
     1
102
RTVSPropertyOp40
 70
     1
102
RTVSPropertyOp41
 70
     1
102
RTVSPropertyOp42
 70
     1
102
RTVSPropertyOp43
 70
     1
102
RTVSPropertyOp44
 70
     1
102
RTVSPropertyOp45
 70
     1
102
RTVSPropertyOp46
 70
     1
102
RTVSPropertyOp47
 70
     1
102
RTVSPropertyOp48
 70
     1
102
RTVSPropertyOp49
 70
     1
102
RTVSPropertyOp50
 70
     1
102
RTVSPropertyOp51
 70
     0
102
RTVSPropertyOp52
 70
     0
102
RTVSPropertyOp53
 70
     1
102
RTVSPropertyOp54
 70
     1
102
RTVSPropertyOp55
 70
     1
102
RTVSPropertyOp56
 70
     1
102
RTVSPropertyOp57
 70
     1
102
RTVSPost2010Prop28
280
     0
102
RTVSPost2010PropOp28
 70
     1
102
RTVSPost2010Prop29
280
     1
102
RTVSPost2010PropOp29
 70
     1
102
RTVSPost2010Prop30
280
     1
102
RTVSPost2010PropOp30
 70
     1
102
RTVSPost2010Prop31
280
     0
102
RTVSPost2010PropOp31
 70
     1
102
RTVSPost2010Prop32
280
     0
102
RTVSPost2010PropOp32
 70
     1
102
RTVSPost2010Prop33
280
     0
102
RTVSPost2010PropOp33
 70
     1
102
RTVSPost2010Prop34
280
     0
102
RTVSPost2010PropOp34
 70
     1
102
RTVSPost2010Prop35
280
     0
102
RTVSPost2010PropOp35
 70
     1
102
RTVSPost2010Prop36
280
     0
102
RTVSPost2010PropOp36
 70
     1
102
RTVSPost2010Prop37
 90
       50
102
RTVSPost2010PropOp37
 70
     1
102
RTVSPost2010Prop38
140
0.0
102
RTVSPost2010PropOp38
 70
     1
102
RTVSPost2010Prop39
140
1.0
102
RTVSPost2010PropOp39
 70
     1
102
RTVSPost2010Prop40
 90
        0
102
RTVSPost2010PropOp40
 70
     1
102
RTVSPost2010Prop41ColorIndex
 90
       18
102
RTVSPost2010Prop41ColorRGB
 90
        0
102
RTVSPost2010PropOp41
 70
     1
102
RTVSPost2010Prop42
 90
       50
102
RTVSPost2010PropOp42
 70
     1
102
RTVSPost2010Prop43
 90
        3
102
RTVSPost2010PropOp43
 70
     1
102
RTVSPost2010Prop44ColorIndex
 90
        5
102
RTVSPost2010Prop44ColorRGB
 90
      255
102
RTVSPost2010PropOp44
 70
     1
102
RTVSPost2010Prop45
280
     0
102
RTVSPost2010PropOp45
 70
     1
102
RTVSPost2010Prop46
 90
       50
102
RTVSPost2010PropOp46
 70
     1
102
RTVSPost2010Prop47
 90
       50
102
RTVSPost2010PropOp47
 70
     1
102
RTVSPost2010Prop48
 90
       50
102
RTVSPost2010PropOp48
 70
     1
102
RTVSPost2010Prop49
280
     0
102
RTVSPost2010PropOp49
 70
     1
102
RTVSPost2010Prop50
 90
       50
102
RTVSPost2010PropOp50
 70
     1
102
RTVSPost2010Prop51ColorIndex
 90
      256
102
RTVSPost2010Prop51ColorRGB
 90
-16777216
102
RTVSPost2010PropOp51
 70
     0
102
RTVSPost2010Prop52
140
1.0
102
RTVSPost2010PropOp52
 70
     0
102
RTVSPost2010Prop53
 90
        2
102
RTVSPost2010PropOp53
 70
     1
102
RTVSPost2010Prop54
  1
strokes_ogs.tif
102
RTVSPost2010PropOp54
 70
     1
102
RTVSPost2010Prop55
280
     0
102
RTVSPost2010PropOp55
 70
     1
102
RTVSPost2010Prop56
140
1.0
102
RTVSPost2010PropOp56
 70
     1
102
RTVSPost2010Prop57
140
1.0
102
RTVSPost2010PropOp57
 70
     1
  0
XRECORD
  5
250
102
{ACAD_REACTORS
330
24F
102
}
330
24F
100
AcDbXrecord
280
     1
102
RTVSPropertyOp0
 70
     1
102
RTVSPropertyOp1
 70
     1
102
RTVSPropertyOp2
 70
     1
102
RTVSPropertyOp3
 70
     1
102
RTVSPropertyOp4
 70
     1
102
RTVSPropertyOp5
 70
     1
102
RTVSPropertyOp6
 70
     1
102
RTVSPropertyOp7
 70
     1
102
RTVSPropertyOp8
 70
     1
102
RTVSPropertyOp9
 70
     1
102
RTVSPropertyOp10
 70
     1
102
RTVSPropertyOp11
 70
     1
102
RTVSPropertyOp12
 70
     1
102
RTVSPropertyOp13
 70
     1
102
RTVSPropertyOp14
 70
     1
102
RTVSPropertyOp15
 70
     1
102
RTVSPropertyOp16
 70
     1
102
RTVSPropertyOp17
 70
     1
102
RTVSPropertyOp18
 70
     1
102
RTVSPropertyOp19
 70
     1
102
RTVSPropertyOp20
 70
     1
102
RTVSPropertyOp21
 70
     1
102
RTVSPropertyOp22
 70
     1
102
RTVSPropertyOp23
 70
     1
102
RTVSPropertyOp24
 70
     1
102
RTVSPropertyOp25
 70
     1
102
RTVSPropertyOp26
 70
     1
102
RTVSPropertyOp27
 70
     1
102
RTVSPropertyOp28
 70
     1
102
RTVSPropertyOp29
 70
     1
102
RTVSPropertyOp30
 70
     1
102
RTVSPropertyOp31
 70
     1
102
RTVSPropertyOp32
 70
     1
102
RTVSPropertyOp33
 70
     1
102
RTVSPropertyOp34
 70
     1
102
RTVSPropertyOp35
 70
     1
102
RTVSPropertyOp36
 70
     1
102
RTVSPropertyOp37
 70
     1
102
RTVSPropertyOp38
 70
     1
102
RTVSPropertyOp39
 70
     1
102
RTVSPropertyOp40
 70
     1
102
RTVSPropertyOp41
 70
     1
102
RTVSPropertyOp42
 70
     1
102
RTVSPropertyOp43
 70
     1
102
RTVSPropertyOp44
 70
     1
102
RTVSPropertyOp45
 70
     1
102
RTVSPropertyOp46
 70
     1
102
RTVSPropertyOp47
 70
     1
102
RTVSPropertyOp48
 70
     1
102
RTVSPropertyOp49
 70
     1
102
RTVSPropertyOp50
 70
     1
102
RTVSPropertyOp51
 70
     0
102
RTVSPropertyOp52
 70
     0
102
RTVSPropertyOp53
 70
     1
102
RTVSPropertyOp54
 70
     1
102
RTVSPropertyOp55
 70
     1
102
RTVSPropertyOp56
 70
     1
102
RTVSPropertyOp57
 70
     1
102
RTVSPost2010Prop28
280
     0
102
RTVSPost2010PropOp28
 70
     1
102
RTVSPost2010Prop29
280
     1
102
RTVSPost2010PropOp29
 70
     1
102
RTVSPost2010Prop30
280
     1
102
RTVSPost2010PropOp30
 70
     1
102
RTVSPost2010Prop31
280
     0
102
RTVSPost2010PropOp31
 70
     1
102
RTVSPost2010Prop32
280
     0
102
RTVSPost2010PropOp32
 70
     1
102
RTVSPost2010Prop33
280
     0
102
RTVSPost2010PropOp33
 70
     1
102
RTVSPost2010Prop34
280
     0
102
RTVSPost2010PropOp34
 70
     1
102
RTVSPost2010Prop35
280
     0
102
RTVSPost2010PropOp35
 70
     1
102
RTVSPost2010Prop36
280
     0
102
RTVSPost2010PropOp36
 70
     1
102
RTVSPost2010Prop37
 90
       50
102
RTVSPost2010PropOp37
 70
     1
102
RTVSPost2010Prop38
140
0.0
102
RTVSPost2010PropOp38
 70
     1
102
RTVSPost2010Prop39
140
1.0
102
RTVSPost2010PropOp39
 70
     1
102
RTVSPost2010Prop40
 90
        0
102
RTVSPost2010PropOp40
 70
     1
102
RTVSPost2010Prop41ColorIndex
 90
       18
102
RTVSPost2010Prop41ColorRGB
 90
        0
102
RTVSPost2010PropOp41
 70
     1
102
RTVSPost2010Prop42
 90
       50
102
RTVSPost2010PropOp42
 70
     1
102
RTVSPost2010Prop43
 90
        3
102
RTVSPost2010PropOp43
 70
     1
102
RTVSPost2010Prop44ColorIndex
 90
        5
102
RTVSPost2010Prop44ColorRGB
 90
      255
102
RTVSPost2010PropOp44
 70
     1
102
RTVSPost2010Prop45
280
     0
102
RTVSPost2010PropOp45
 70
     1
102
RTVSPost2010Prop46
 90
       50
102
RTVSPost2010PropOp46
 70
     1
102
RTVSPost2010Prop47
 90
       50
102
RTVSPost2010PropOp47
 70
     1
102
RTVSPost2010Prop48
 90
       50
102
RTVSPost2010PropOp48
 70
     1
102
RTVSPost2010Prop49
280
     0
102
RTVSPost2010PropOp49
 70
     1
102
RTVSPost2010Prop50
 90
       50
102
RTVSPost2010PropOp50
 70
     1
102
RTVSPost2010Prop51ColorIndex
 90
      256
102
RTVSPost2010Prop51ColorRGB
 90
-16777216
102
RTVSPost2010PropOp51
 70
     0
102
RTVSPost2010Prop52
140
1.0
102
RTVSPost2010PropOp52
 70
     0
102
RTVSPost2010Prop53
 90
        2
102
RTVSPost2010PropOp53
 70
     1
102
RTVSPost2010Prop54
  1
strokes_ogs.tif
102
RTVSPost2010PropOp54
 70
     1
102
RTVSPost2010Prop55
280
     0
102
RTVSPost2010PropOp55
 70
     1
102
RTVSPost2010Prop56
140
1.0
102
RTVSPost2010PropOp56
 70
     1
102
RTVSPost2010Prop57
140
1.0
102
RTVSPost2010PropOp57
 70
     1
  0
XRECORD
  5
252
102
{ACAD_REACTORS
330
251
102
}
330
251
100
AcDbXrecord
280
     1
102
RTVSPropertyOp0
 70
     1
102
RTVSPropertyOp1
 70
     1
102
RTVSPropertyOp2
 70
     1
102
RTVSPropertyOp3
 70
     1
102
RTVSPropertyOp4
 70
     1
102
RTVSPropertyOp5
 70
     1
102
RTVSPropertyOp6
 70
     1
102
RTVSPropertyOp7
 70
     1
102
RTVSPropertyOp8
 70
     1
102
RTVSPropertyOp9
 70
     1
102
RTVSPropertyOp10
 70
     1
102
RTVSPropertyOp11
 70
     1
102
RTVSPropertyOp12
 70
     1
102
RTVSPropertyOp13
 70
     1
102
RTVSPropertyOp14
 70
     1
102
RTVSPropertyOp15
 70
     1
102
RTVSPropertyOp16
 70
     1
102
RTVSPropertyOp17
 70
     1
102
RTVSPropertyOp18
 70
     1
102
RTVSPropertyOp19
 70
     1
102
RTVSPropertyOp20
 70
     1
102
RTVSPropertyOp21
 70
     1
102
RTVSPropertyOp22
 70
     1
102
RTVSPropertyOp23
 70
     1
102
RTVSPropertyOp24
 70
     1
102
RTVSPropertyOp25
 70
     1
102
RTVSPropertyOp26
 70
     1
102
RTVSPropertyOp27
 70
     1
102
RTVSPropertyOp28
 70
     1
102
RTVSPropertyOp29
 70
     1
102
RTVSPropertyOp30
 70
     1
102
RTVSPropertyOp31
 70
     1
102
RTVSPropertyOp32
 70
     1
102
RTVSPropertyOp33
 70
     1
102
RTVSPropertyOp34
 70
     1
102
RTVSPropertyOp35
 70
     1
102
RTVSPropertyOp36
 70
     1
102
RTVSPropertyOp37
 70
     1
102
RTVSPropertyOp38
 70
     1
102
RTVSPropertyOp39
 70
     1
102
RTVSPropertyOp40
 70
     1
102
RTVSPropertyOp41
 70
     1
102
RTVSPropertyOp42
 70
     1
102
RTVSPropertyOp43
 70
     1
102
RTVSPropertyOp44
 70
     1
102
RTVSPropertyOp45
 70
     1
102
RTVSPropertyOp46
 70
     1
102
RTVSPropertyOp47
 70
     1
102
RTVSPropertyOp48
 70
     1
102
RTVSPropertyOp49
 70
     1
102
RTVSPropertyOp50
 70
     1
102
RTVSPropertyOp51
 70
     0
102
RTVSPropertyOp52
 70
     0
102
RTVSPropertyOp53
 70
     1
102
RTVSPropertyOp54
 70
     1
102
RTVSPropertyOp55
 70
     1
102
RTVSPropertyOp56
 70
     1
102
RTVSPropertyOp57
 70
     1
102
RTVSPost2010Prop28
280
     0
102
RTVSPost2010PropOp28
 70
     1
102
RTVSPost2010Prop29
280
     1
102
RTVSPost2010PropOp29
 70
     1
102
RTVSPost2010Prop30
280
     1
102
RTVSPost2010PropOp30
 70
     1
102
RTVSPost2010Prop31
280
     0
102
RTVSPost2010PropOp31
 70
     1
102
RTVSPost2010Prop32
280
     0
102
RTVSPost2010PropOp32
 70
     1
102
RTVSPost2010Prop33
280
     0
102
RTVSPost2010PropOp33
 70
     1
102
RTVSPost2010Prop34
280
     0
102
RTVSPost2010PropOp34
 70
     1
102
RTVSPost2010Prop35
280
     0
102
RTVSPost2010PropOp35
 70
     1
102
RTVSPost2010Prop36
280
     0
102
RTVSPost2010PropOp36
 70
     1
102
RTVSPost2010Prop37
 90
       50
102
RTVSPost2010PropOp37
 70
     1
102
RTVSPost2010Prop38
140
0.0
102
RTVSPost2010PropOp38
 70
     1
102
RTVSPost2010Prop39
140
1.0
102
RTVSPost2010PropOp39
 70
     1
102
RTVSPost2010Prop40
 90
        0
102
RTVSPost2010PropOp40
 70
     1
102
RTVSPost2010Prop41ColorIndex
 90
       18
102
RTVSPost2010Prop41ColorRGB
 90
        0
102
RTVSPost2010PropOp41
 70
     1
102
RTVSPost2010Prop42
 90
       50
102
RTVSPost2010PropOp42
 70
     1
102
RTVSPost2010Prop43
 90
        3
102
RTVSPost2010PropOp43
 70
     1
102
RTVSPost2010Prop44ColorIndex
 90
        5
102
RTVSPost2010Prop44ColorRGB
 90
      255
102
RTVSPost2010PropOp44
 70
     1
102
RTVSPost2010Prop45
280
     0
102
RTVSPost2010PropOp45
 70
     1
102
RTVSPost2010Prop46
 90
       50
102
RTVSPost2010PropOp46
 70
     1
102
RTVSPost2010Prop47
 90
       50
102
RTVSPost2010PropOp47
 70
     1
102
RTVSPost2010Prop48
 90
       50
102
RTVSPost2010PropOp48
 70
     1
102
RTVSPost2010Prop49
280
     0
102
RTVSPost2010PropOp49
 70
     1
102
RTVSPost2010Prop50
 90
       50
102
RTVSPost2010PropOp50
 70
     1
102
RTVSPost2010Prop51ColorIndex
 90
      256
102
RTVSPost2010Prop51ColorRGB
 90
-16777216
102
RTVSPost2010PropOp51
 70
     0
102
RTVSPost2010Prop52
140
1.0
102
RTVSPost2010PropOp52
 70
     0
102
RTVSPost2010Prop53
 90
        2
102
RTVSPost2010PropOp53
 70
     1
102
RTVSPost2010Prop54
  1
strokes_ogs.tif
102
RTVSPost2010PropOp54
 70
     1
102
RTVSPost2010Prop55
280
     0
102
RTVSPost2010PropOp55
 70
     1
102
RTVSPost2010Prop56
140
1.0
102
RTVSPost2010PropOp56
 70
     1
102
RTVSPost2010Prop57
140
1.0
102
RTVSPost2010PropOp57
 70
     1
  0
XRECORD
  5
242
102
{ACAD_REACTORS
330
241
102
}
330
241
100
AcDbXrecord
280
     1
102
RTVSPropertyOp0
 70
     1
102
RTVSPropertyOp1
 70
     1
102
RTVSPropertyOp2
 70
     1
102
RTVSPropertyOp3
 70
     1
102
RTVSPropertyOp4
 70
     1
102
RTVSPropertyOp5
 70
     1
102
RTVSPropertyOp6
 70
     1
102
RTVSPropertyOp7
 70
     1
102
RTVSPropertyOp8
 70
     1
102
RTVSPropertyOp9
 70
     1
102
RTVSPropertyOp10
 70
     1
102
RTVSPropertyOp11
 70
     1
102
RTVSPropertyOp12
 70
     1
102
RTVSPropertyOp13
 70
     1
102
RTVSPropertyOp14
 70
     1
102
RTVSPropertyOp15
 70
     1
102
RTVSPropertyOp16
 70
     1
102
RTVSPropertyOp17
 70
     1
102
RTVSPropertyOp18
 70
     1
102
RTVSPropertyOp19
 70
     1
102
RTVSPropertyOp20
 70
     1
102
RTVSPropertyOp21
 70
     1
102
RTVSPropertyOp22
 70
     1
102
RTVSPropertyOp23
 70
     1
102
RTVSPropertyOp24
 70
     1
102
RTVSPropertyOp25
 70
     1
102
RTVSPropertyOp26
 70
     1
102
RTVSPropertyOp27
 70
     1
102
RTVSPropertyOp28
 70
     1
102
RTVSPropertyOp29
 70
     1
102
RTVSPropertyOp30
 70
     1
102
RTVSPropertyOp31
 70
     1
102
RTVSPropertyOp32
 70
     1
102
RTVSPropertyOp33
 70
     1
102
RTVSPropertyOp34
 70
     1
102
RTVSPropertyOp35
 70
     1
102
RTVSPropertyOp36
 70
     1
102
RTVSPropertyOp37
 70
     1
102
RTVSPropertyOp38
 70
     1
102
RTVSPropertyOp39
 70
     1
102
RTVSPropertyOp40
 70
     1
102
RTVSPropertyOp41
 70
     1
102
RTVSPropertyOp42
 70
     1
102
RTVSPropertyOp43
 70
     1
102
RTVSPropertyOp44
 70
     1
102
RTVSPropertyOp45
 70
     1
102
RTVSPropertyOp46
 70
     1
102
RTVSPropertyOp47
 70
     1
102
RTVSPropertyOp48
 70
     1
102
RTVSPropertyOp49
 70
     1
102
RTVSPropertyOp50
 70
     1
102
RTVSPropertyOp51
 70
     0
102
RTVSPropertyOp52
 70
     0
102
RTVSPropertyOp53
 70
     1
102
RTVSPropertyOp54
 70
     1
102
RTVSPropertyOp55
 70
     1
102
RTVSPropertyOp56
 70
     1
102
RTVSPropertyOp57
 70
     1
102
RTVSPost2010Prop28
280
     0
102
RTVSPost2010PropOp28
 70
     1
102
RTVSPost2010Prop29
280
     1
102
RTVSPost2010PropOp29
 70
     1
102
RTVSPost2010Prop30
280
     1
102
RTVSPost2010PropOp30
 70
     1
102
RTVSPost2010Prop31
280
     0
102
RTVSPost2010PropOp31
 70
     1
102
RTVSPost2010Prop32
280
     0
102
RTVSPost2010PropOp32
 70
     1
102
RTVSPost2010Prop33
280
     0
102
RTVSPost2010PropOp33
 70
     1
102
RTVSPost2010Prop34
280
     0
102
RTVSPost2010PropOp34
 70
     1
102
RTVSPost2010Prop35
280
     0
102
RTVSPost2010PropOp35
 70
     1
102
RTVSPost2010Prop36
280
     0
102
RTVSPost2010PropOp36
 70
     1
102
RTVSPost2010Prop37
 90
       50
102
RTVSPost2010PropOp37
 70
     1
102
RTVSPost2010Prop38
140
0.0
102
RTVSPost2010PropOp38
 70
     1
102
RTVSPost2010Prop39
140
1.0
102
RTVSPost2010PropOp39
 70
     1
102
RTVSPost2010Prop40
 90
        0
102
RTVSPost2010PropOp40
 70
     1
102
RTVSPost2010Prop41ColorIndex
 90
       18
102
RTVSPost2010Prop41ColorRGB
 90
        0
102
RTVSPost2010PropOp41
 70
     1
102
RTVSPost2010Prop42
 90
       50
102
RTVSPost2010PropOp42
 70
     1
102
RTVSPost2010Prop43
 90
        3
102
RTVSPost2010PropOp43
 70
     1
102
RTVSPost2010Prop44ColorIndex
 90
        5
102
RTVSPost2010Prop44ColorRGB
 90
      255
102
RTVSPost2010PropOp44
 70
     1
102
RTVSPost2010Prop45
280
     0
102
RTVSPost2010PropOp45
 70
     1
102
RTVSPost2010Prop46
 90
       50
102
RTVSPost2010PropOp46
 70
     1
102
RTVSPost2010Prop47
 90
       50
102
RTVSPost2010PropOp47
 70
     1
102
RTVSPost2010Prop48
 90
       50
102
RTVSPost2010PropOp48
 70
     1
102
RTVSPost2010Prop49
280
     0
102
RTVSPost2010PropOp49
 70
     1
102
RTVSPost2010Prop50
 90
       50
102
RTVSPost2010PropOp50
 70
     1
102
RTVSPost2010Prop51ColorIndex
 90
      256
102
RTVSPost2010Prop51ColorRGB
 90
-16777216
102
RTVSPost2010PropOp51
 70
     0
102
RTVSPost2010Prop52
140
1.0
102
RTVSPost2010PropOp52
 70
     0
102
RTVSPost2010Prop53
 90
        2
102
RTVSPost2010PropOp53
 70
     1
102
RTVSPost2010Prop54
  1
strokes_ogs.tif
102
RTVSPost2010PropOp54
 70
     1
102
RTVSPost2010Prop55
280
     0
102
RTVSPost2010PropOp55
 70
     1
102
RTVSPost2010Prop56
140
1.0
102
RTVSPost2010PropOp56
 70
     1
102
RTVSPost2010Prop57
140
1.0
102
RTVSPost2010PropOp57
 70
     1
  0
XRECORD
  5
234
102
{ACAD_REACTORS
330
233
102
}
330
233
100
AcDbXrecord
280
     1
102
RTVSPropertyOp0
 70
     1
102
RTVSPropertyOp1
 70
     1
102
RTVSPropertyOp2
 70
     1
102
RTVSPropertyOp3
 70
     1
102
RTVSPropertyOp4
 70
     1
102
RTVSPropertyOp5
 70
     1
102
RTVSPropertyOp6
 70
     1
102
RTVSPropertyOp7
 70
     1
102
RTVSPropertyOp8
 70
     1
102
RTVSPropertyOp9
 70
     1
102
RTVSPropertyOp10
 70
     1
102
RTVSPropertyOp11
 70
     1
102
RTVSPropertyOp12
 70
     1
102
RTVSPropertyOp13
 70
     1
102
RTVSPropertyOp14
 70
     1
102
RTVSPropertyOp15
 70
     1
102
RTVSPropertyOp16
 70
     1
102
RTVSPropertyOp17
 70
     1
102
RTVSPropertyOp18
 70
     1
102
RTVSPropertyOp19
 70
     1
102
RTVSPropertyOp20
 70
     1
102
RTVSPropertyOp21
 70
     1
102
RTVSPropertyOp22
 70
     1
102
RTVSPropertyOp23
 70
     1
102
RTVSPropertyOp24
 70
     1
102
RTVSPropertyOp25
 70
     1
102
RTVSPropertyOp26
 70
     1
102
RTVSPropertyOp27
 70
     1
102
RTVSPropertyOp28
 70
     1
102
RTVSPropertyOp29
 70
     1
102
RTVSPropertyOp30
 70
     1
102
RTVSPropertyOp31
 70
     1
102
RTVSPropertyOp32
 70
     1
102
RTVSPropertyOp33
 70
     1
102
RTVSPropertyOp34
 70
     1
102
RTVSPropertyOp35
 70
     1
102
RTVSPropertyOp36
 70
     1
102
RTVSPropertyOp37
 70
     1
102
RTVSPropertyOp38
 70
     1
102
RTVSPropertyOp39
 70
     1
102
RTVSPropertyOp40
 70
     1
102
RTVSPropertyOp41
 70
     1
102
RTVSPropertyOp42
 70
     1
102
RTVSPropertyOp43
 70
     1
102
RTVSPropertyOp44
 70
     1
102
RTVSPropertyOp45
 70
     1
102
RTVSPropertyOp46
 70
     1
102
RTVSPropertyOp47
 70
     1
102
RTVSPropertyOp48
 70
     1
102
RTVSPropertyOp49
 70
     1
102
RTVSPropertyOp50
 70
     1
102
RTVSPropertyOp51
 70
     0
102
RTVSPropertyOp52
 70
     0
102
RTVSPropertyOp53
 70
     1
102
RTVSPropertyOp54
 70
     1
102
RTVSPropertyOp55
 70
     1
102
RTVSPropertyOp56
 70
     1
102
RTVSPropertyOp57
 70
     1
102
RTVSPost2010Prop28
280
     0
102
RTVSPost2010PropOp28
 70
     1
102
RTVSPost2010Prop29
280
     1
102
RTVSPost2010PropOp29
 70
     1
102
RTVSPost2010Prop30
280
     1
102
RTVSPost2010PropOp30
 70
     1
102
RTVSPost2010Prop31
280
     0
102
RTVSPost2010PropOp31
 70
     1
102
RTVSPost2010Prop32
280
     0
102
RTVSPost2010PropOp32
 70
     1
102
RTVSPost2010Prop33
280
     0
102
RTVSPost2010PropOp33
 70
     1
102
RTVSPost2010Prop34
280
     0
102
RTVSPost2010PropOp34
 70
     1
102
RTVSPost2010Prop35
280
     0
102
RTVSPost2010PropOp35
 70
     1
102
RTVSPost2010Prop36
280
     0
102
RTVSPost2010PropOp36
 70
     1
102
RTVSPost2010Prop37
 90
       50
102
RTVSPost2010PropOp37
 70
     1
102
RTVSPost2010Prop38
140
0.0
102
RTVSPost2010PropOp38
 70
     1
102
RTVSPost2010Prop39
140
1.0
102
RTVSPost2010PropOp39
 70
     1
102
RTVSPost2010Prop40
 90
        0
102
RTVSPost2010PropOp40
 70
     1
102
RTVSPost2010Prop41ColorIndex
 90
       18
102
RTVSPost2010Prop41ColorRGB
 90
        0
102
RTVSPost2010PropOp41
 70
     1
102
RTVSPost2010Prop42
 90
       50
102
RTVSPost2010PropOp42
 70
     1
102
RTVSPost2010Prop43
 90
        3
102
RTVSPost2010PropOp43
 70
     1
102
RTVSPost2010Prop44ColorIndex
 90
        5
102
RTVSPost2010Prop44ColorRGB
 90
      255
102
RTVSPost2010PropOp44
 70
     1
102
RTVSPost2010Prop45
280
     0
102
RTVSPost2010PropOp45
 70
     1
102
RTVSPost2010Prop46
 90
       50
102
RTVSPost2010PropOp46
 70
     1
102
RTVSPost2010Prop47
 90
       50
102
RTVSPost2010PropOp47
 70
     1
102
RTVSPost2010Prop48
 90
       50
102
RTVSPost2010PropOp48
 70
     1
102
RTVSPost2010Prop49
280
     0
102
RTVSPost2010PropOp49
 70
     1
102
RTVSPost2010Prop50
 90
       50
102
RTVSPost2010PropOp50
 70
     1
102
RTVSPost2010Prop51ColorIndex
 90
      256
102
RTVSPost2010Prop51ColorRGB
 90
-16777216
102
RTVSPost2010PropOp51
 70
     0
102
RTVSPost2010Prop52
140
1.0
102
RTVSPost2010PropOp52
 70
     0
102
RTVSPost2010Prop53
 90
        2
102
RTVSPost2010PropOp53
 70
     1
102
RTVSPost2010Prop54
  1
strokes_ogs.tif
102
RTVSPost2010PropOp54
 70
     1
102
RTVSPost2010Prop55
280
     0
102
RTVSPost2010PropOp55
 70
     1
102
RTVSPost2010Prop56
140
1.0
102
RTVSPost2010PropOp56
 70
     1
102
RTVSPost2010Prop57
140
1.0
102
RTVSPost2010PropOp57
 70
     1
  0
XRECORD
  5
254
102
{ACAD_REACTORS
330
253
102
}
330
253
100
AcDbXrecord
280
     1
102
RTVSPropertyOp0
 70
     1
102
RTVSPropertyOp1
 70
     1
102
RTVSPropertyOp2
 70
     1
102
RTVSPropertyOp3
 70
     1
102
RTVSPropertyOp4
 70
     1
102
RTVSPropertyOp5
 70
     1
102
RTVSPropertyOp6
 70
     1
102
RTVSPropertyOp7
 70
     1
102
RTVSPropertyOp8
 70
     1
102
RTVSPropertyOp9
 70
     1
102
RTVSPropertyOp10
 70
     1
102
RTVSPropertyOp11
 70
     1
102
RTVSPropertyOp12
 70
     1
102
RTVSPropertyOp13
 70
     1
102
RTVSPropertyOp14
 70
     1
102
RTVSPropertyOp15
 70
     1
102
RTVSPropertyOp16
 70
     1
102
RTVSPropertyOp17
 70
     1
102
RTVSPropertyOp18
 70
     1
102
RTVSPropertyOp19
 70
     1
102
RTVSPropertyOp20
 70
     1
102
RTVSPropertyOp21
 70
     1
102
RTVSPropertyOp22
 70
     1
102
RTVSPropertyOp23
 70
     1
102
RTVSPropertyOp24
 70
     1
102
RTVSPropertyOp25
 70
     1
102
RTVSPropertyOp26
 70
     1
102
RTVSPropertyOp27
 70
     1
102
RTVSPropertyOp28
 70
     1
102
RTVSPropertyOp29
 70
     1
102
RTVSPropertyOp30
 70
     1
102
RTVSPropertyOp31
 70
     1
102
RTVSPropertyOp32
 70
     1
102
RTVSPropertyOp33
 70
     1
102
RTVSPropertyOp34
 70
     1
102
RTVSPropertyOp35
 70
     1
102
RTVSPropertyOp36
 70
     1
102
RTVSPropertyOp37
 70
     1
102
RTVSPropertyOp38
 70
     1
102
RTVSPropertyOp39
 70
     1
102
RTVSPropertyOp40
 70
     1
102
RTVSPropertyOp41
 70
     1
102
RTVSPropertyOp42
 70
     1
102
RTVSPropertyOp43
 70
     1
102
RTVSPropertyOp44
 70
     1
102
RTVSPropertyOp45
 70
     1
102
RTVSPropertyOp46
 70
     1
102
RTVSPropertyOp47
 70
     1
102
RTVSPropertyOp48
 70
     1
102
RTVSPropertyOp49
 70
     1
102
RTVSPropertyOp50
 70
     1
102
RTVSPropertyOp51
 70
     0
102
RTVSPropertyOp52
 70
     0
102
RTVSPropertyOp53
 70
     1
102
RTVSPropertyOp54
 70
     1
102
RTVSPropertyOp55
 70
     1
102
RTVSPropertyOp56
 70
     1
102
RTVSPropertyOp57
 70
     1
102
RTVSPost2010Prop28
280
     0
102
RTVSPost2010PropOp28
 70
     1
102
RTVSPost2010Prop29
280
     1
102
RTVSPost2010PropOp29
 70
     1
102
RTVSPost2010Prop30
280
     1
102
RTVSPost2010PropOp30
 70
     1
102
RTVSPost2010Prop31
280
     0
102
RTVSPost2010PropOp31
 70
     1
102
RTVSPost2010Prop32
280
     0
102
RTVSPost2010PropOp32
 70
     1
102
RTVSPost2010Prop33
280
     0
102
RTVSPost2010PropOp33
 70
     1
102
RTVSPost2010Prop34
280
     0
102
RTVSPost2010PropOp34
 70
     1
102
RTVSPost2010Prop35
280
     0
102
RTVSPost2010PropOp35
 70
     1
102
RTVSPost2010Prop36
280
     0
102
RTVSPost2010PropOp36
 70
     1
102
RTVSPost2010Prop37
 90
       50
102
RTVSPost2010PropOp37
 70
     1
102
RTVSPost2010Prop38
140
0.0
102
RTVSPost2010PropOp38
 70
     1
102
RTVSPost2010Prop39
140
1.0
102
RTVSPost2010PropOp39
 70
     1
102
RTVSPost2010Prop40
 90
        0
102
RTVSPost2010PropOp40
 70
     1
102
RTVSPost2010Prop41ColorIndex
 90
       18
102
RTVSPost2010Prop41ColorRGB
 90
        0
102
RTVSPost2010PropOp41
 70
     1
102
RTVSPost2010Prop42
 90
       50
102
RTVSPost2010PropOp42
 70
     1
102
RTVSPost2010Prop43
 90
        3
102
RTVSPost2010PropOp43
 70
     1
102
RTVSPost2010Prop44ColorIndex
 90
        5
102
RTVSPost2010Prop44ColorRGB
 90
      255
102
RTVSPost2010PropOp44
 70
     1
102
RTVSPost2010Prop45
280
     0
102
RTVSPost2010PropOp45
 70
     1
102
RTVSPost2010Prop46
 90
       50
102
RTVSPost2010PropOp46
 70
     1
102
RTVSPost2010Prop47
 90
       50
102
RTVSPost2010PropOp47
 70
     1
102
RTVSPost2010Prop48
 90
       50
102
RTVSPost2010PropOp48
 70
     1
102
RTVSPost2010Prop49
280
     0
102
RTVSPost2010PropOp49
 70
     1
102
RTVSPost2010Prop50
 90
       50
102
RTVSPost2010PropOp50
 70
     1
102
RTVSPost2010Prop51ColorIndex
 90
      256
102
RTVSPost2010Prop51ColorRGB
 90
-16777216
102
RTVSPost2010PropOp51
 70
     0
102
RTVSPost2010Prop52
140
1.0
102
RTVSPost2010PropOp52
 70
     0
102
RTVSPost2010Prop53
 90
        2
102
RTVSPost2010PropOp53
 70
     1
102
RTVSPost2010Prop54
  1
strokes_ogs.tif
102
RTVSPost2010PropOp54
 70
     1
102
RTVSPost2010Prop55
280
     0
102
RTVSPost2010PropOp55
 70
     1
102
RTVSPost2010Prop56
140
1.0
102
RTVSPost2010PropOp56
 70
     1
102
RTVSPost2010Prop57
140
1.0
102
RTVSPost2010PropOp57
 70
     1
  0
ENDSEC
  0
EOF
