  0
SECTION
  2
HEADER
  9
$ACADVER
  1
AC1021
  9
$ACADMAINTVER
 70
    25
  9
$DWGCODEPAGE
  3
ANSI_1252
  9
$INSBASE
 10
0.0
 20
0.0
 30
0.0
  9
$EXTMIN
 10
0.0
 20
0.0
 30
0.0
  9
$EXTMAX
 10
420.0
 20
297.0
 30
0.0
  9
$LIMMIN
 10
0.0
 20
0.0
  9
$LIMMAX
 10
420.0
 20
297.0
  9
$ORTHOMODE
 70
     0
  9
$REGENMODE
 70
     1
  9
$FILLMODE
 70
     1
  9
$QTEXTMODE
 70
     0
  9
$MIRRTEXT
 70
     1
  9
$LTSCALE
 40
1.0
  9
$ATTMODE
 70
     1
  9
$TEXTSIZE
 40
2.5
  9
$TRACEWID
 40
1.0
  9
$TEXTSTYLE
  7
Standard
  9
$CLAYER
  8
0
  9
$CELTYPE
  6
ByLayer
  9
$CECOLOR
 62
   256
  9
$CELTSCALE
 40
1.0
  9
$DISPSILH
 70
     0
  9
$DIMSCALE
 40
1.0
  9
$DIMASZ
 40
2.5
  9
$DIMEXO
 40
0.625
  9
$DIMDLI
 40
3.75
  9
$DIMRND
 40
0.0
  9
$DIMDLE
 40
0.0
  9
$DIMEXE
 40
1.25
  9
$DIMTP
 40
0.0
  9
$DIMTM
 40
0.0
  9
$DIMTXT
 40
2.5
  9
$DIMCEN
 40
2.5
  9
$DIMTSZ
 40
0.0
  9
$DIMTOL
 70
     0
  9
$DIMLIM
 70
     0
  9
$DIMTIH
 70
     0
  9
$DIMTOH
 70
     0
  9
$DIMSE1
 70
     0
  9
$DIMSE2
 70
     0
  9
$DIMTAD
 70
     1
  9
$DIMZIN
 70
     8
  9
$DIMBLK
  1

  9
$DIMASO
 70
     1
  9
$DIMSHO
 70
     1
  9
$DIMPOST
  1

  9
$DIMAPOST
  1

  9
$DIMALT
 70
     0
  9
$DIMALTD
 70
     3
  9
$DIMALTF
 40
0.0393700787
  9
$DIMLFAC
 40
1.0
  9
$DIMTOFL
 70
     1
  9
$DIMTVP
 40
0.0
  9
$DIMTIX
 70
     0
  9
$DIMSOXD
 70
     0
  9
$DIMSAH
 70
     0
  9
$DIMBLK1
  1

  9
$DIMBLK2
  1

  9
$DIMSTYLE
  2
ISO-25
  9
$DIMCLRD
 70
     0
  9
$DIMCLRE
 70
     0
  9
$DIMCLRT
 70
     0
  9
$DIMTFAC
 40
1.0
  9
$DIMGAP
 40
0.625
  9
$DIMJUST
 70
     0
  9
$DIMSD1
 70
     0
  9
$DIMSD2
 70
     0
  9
$DIMTOLJ
 70
     0
  9
$DIMTZIN
 70
     8
  9
$DIMALTZ
 70
     0
  9
$DIMALTTZ
 70
     0
  9
$DIMUPT
 70
     0
  9
$DIMDEC
 70
     2
  9
$DIMTDEC
 70
     2
  9
$DIMALTU
 70
     2
  9
$DIMALTTD
 70
     3
  9
$DIMTXSTY
  7
Standard
  9
$DIMAUNIT
 70
     0
  9
$DIMADEC
 70
     0
  9
$DIMALTRND
 40
0.0
  9
$DIMAZIN
 70
     0
  9
$DIMDSEP
 70
    44
  9
$DIMATFIT
 70
     3
  9
$DIMFRAC
 70
     0
  9
$DIMLDRBLK
  1

  9
$DIMLUNIT
 70
     2
  9
$DIMLWD
 70
    -2
  9
$DIMLWE
 70
    -2
  9
$DIMTMOVE
 70
     0
  9
$DIMFXL
 40
1.0
  9
$DIMFXLON
 70
     0
  9
$DIMJOGANG
 40
0.7853981634
  9
$DIMTFILL
 70
     0
  9
$DIMTFILLCLR
 70
     0
  9
$DIMARCSYM
 70
     0
  9
$DIMLTYPE
  6

  9
$DIMLTEX1
  6

  9
$DIMLTEX2
  6

  9
$LUNITS
 70
     2
  9
$LUPREC
 70
     4
  9
$SKETCHINC
 40
1.0
  9
$FILLETRAD
 40
10.0
  9
$AUNITS
 70
     0
  9
$AUPREC
 70
     0
  9
$MENU
  1
.
  9
$ELEVATION
 40
0.0
  9
$PELEVATION
 40
0.0
  9
$THICKNESS
 40
0.0
  9
$LIMCHECK
 70
     0
  9
$CHAMFERA
 40
0.0
  9
$CHAMFERB
 40
0.0
  9
$CHAMFERC
 40
0.0
  9
$CHAMFERD
 40
0.0
  9
$SKPOLY
 70
     0
  9
$TDCREATE
 40
2460276.674592269
  9
$TDUCREATE
 40
2460276.632925602
  9
$TDUPDATE
 40
2460276.674592581
  9
$TDUUPDATE
 40
2460276.632925914
  9
$TDINDWG
 40
0.0000000116
  9
$TDUSRTIMER
 40
0.0000000116
  9
$USRTIMER
 70
     1
  9
$ANGBASE
 50
0.0
  9
$ANGDIR
 70
     0
  9
$PDMODE
 70
     0
  9
$PDSIZE
 40
0.0
  9
$PLINEWID
 40
0.0
  9
$SPLFRAME
 70
     0
  9
$SPLINETYPE
 70
     6
  9
$SPLINESEGS
 70
     8
  9
$HANDSEED
  5
260
  9
$SURFTAB1
 70
     6
  9
$SURFTAB2
 70
     6
  9
$SURFTYPE
 70
     6
  9
$SURFU
 70
     6
  9
$SURFV
 70
     6
  9
$UCSBASE
  2

  9
$UCSNAME
  2

  9
$UCSORG
 10
0.0
 20
0.0
 30
0.0
  9
$UCSXDIR
 10
1.0
 20
0.0
 30
0.0
  9
$UCSYDIR
 10
0.0
 20
1.0
 30
0.0
  9
$UCSORTHOREF
  2

  9
$UCSORTHOVIEW
 70
     0
  9
$UCSORGTOP
 10
0.0
 20
0.0
 30
0.0
  9
$UCSORGBOTTOM
 10
0.0
 20
0.0
 30
0.0
  9
$UCSORGLEFT
 10
0.0
 20
0.0
 30
0.0
  9
$UCSORGRIGHT
 10
0.0
 20
0.0
 30
0.0
  9
$UCSORGFRONT
 10
0.0
 20
0.0
 30
0.0
  9
$UCSORGBACK
 10
0.0
 20
0.0
 30
0.0
  9
$PUCSBASE
  2

  9
$PUCSNAME
  2

  9
$PUCSORG
 10
0.0
 20
0.0
 30
0.0
  9
$PUCSXDIR
 10
1.0
 20
0.0
 30
0.0
  9
$PUCSYDIR
 10
0.0
 20
1.0
 30
0.0
  9
$PUCSORTHOREF
  2

  9
$PUCSORTHOVIEW
 70
     0
  9
$PUCSORGTOP
 10
0.0
 20
0.0
 30
0.0
  9
$PUCSORGBOTTOM
 10
0.0
 20
0.0
 30
0.0
  9
$PUCSORGLEFT
 10
0.0
 20
0.0
 30
0.0
  9
$PUCSORGRIGHT
 10
0.0
 20
0.0
 30
0.0
  9
$PUCSORGFRONT
 10
0.0
 20
0.0
 30
0.0
  9
$PUCSORGBACK
 10
0.0
 20
0.0
 30
0.0
  9
$USERI1
 70
     0
  9
$USERI2
 70
     0
  9
$USERI3
 70
     0
  9
$USERI4
 70
     0
  9
$USERI5
 70
     0
  9
$USERR1
 40
0.0
  9
$USERR2
 40
0.0
  9
$USERR3
 40
0.0
  9
$USERR4
 40
0.0
  9
$USERR5
 40
0.0
  9
$WORLDVIEW
 70
     1
  9
$SHADEDGE
 70
     3
  9
$SHADEDIF
 70
    70
  9
$TILEMODE
 70
     1
  9
$MAXACTVP
 70
    64
  9
$PINSBASE
 10
0.0
 20
0.0
 30
0.0
  9
$PLIMCHECK
 70
     0
  9
$PEXTMIN
 10
0.0
 20
0.0
 30
0.0
  9
$PEXTMAX
 10
420.0
 20
297.0
 30
0.0
  9
$PLIMMIN
 10
0.0
 20
0.0
  9
$PLIMMAX
 10
420.0
 20
297.0
  9
$UNITMODE
 70
     0
  9
$VISRETAIN
 70
     1
  9
$PLINEGEN
 70
     0
  9
$PSLTSCALE
 70
     1
  9
$TREEDEPTH
 70
  3020
  9
$CMLSTYLE
  2
Standard
  9
$CMLJUST
 70
     0
  9
$CMLSCALE
 40
20.0
  9
$PROXYGRAPHICS
 70
     1
  9
$MEASUREMENT
 70
     1
  9
$CELWEIGHT
370
    -1
  9
$ENDCAPS
280
     0
  9
$JOINSTYLE
280
     0
  9
$LWDISPLAY
290
     0
  9
$INSUNITS
 70
     4
  9
$HYPERLINKBASE
  1

  9
$STYLESHEET
  1

  9
$XEDIT
290
     1
  9
$CEPSNTYPE
380
     0
  9
$PSTYLEMODE
290
     1
  9
$FINGERPRINTGUID
  2
{78cf80a4-639c-46ae-b474-524e62d5509a}
  9
$VERSIONGUID
  2
{FAEB1C32-E019-11D5-929B-00C0DF256EC4}
  9
$EXTNAMES
290
     1
  9
$PSVPSCALE
 40
0.0
  9
$OLESTARTUP
290
     0
  9
$SORTENTS
280
   127
  9
$INDEXCTL
280
     0
  9
$HIDETEXT
280
     1
  9
$XCLIPFRAME
290
     0
  9
$HALOGAP
280
     0
  9
$OBSCOLOR
 70
   257
  9
$OBSLTYPE
280
     0
  9
$INTERSECTIONDISPLAY
280
     0
  9
$INTERSECTIONCOLOR
 70
   257
  9
$DIMASSOC
280
     2
  9
$PROJECTNAME
  1

  9
$CAMERADISPLAY
290
     0
  9
$LENSLENGTH
 40
50.0
  9
$CAMERAHEIGHT
 40
0.0
  9
$STEPSPERSEC
 40
2.0
  9
$STEPSIZE
 40
6.0
  9
$3DDWFPREC
 40
2.0
  9
$PSOLWIDTH
 40
5.0
  9
$PSOLHEIGHT
 40
80.0
  9
$LOFTANG1
 40
1.5707963268
  9
$LOFTANG2
 40
1.5707963268
  9
$LOFTMAG1
 40
0.0
  9
$LOFTMAG2
 40
0.0
  9
$LOFTPARAM
 70
     7
  9
$LOFTNORMALS
280
     1
  9
$LATITUDE
 40
37.795
  9
$LONGITUDE
 40
-122.394
  9
$NORTHDIRECTION
 40
0.0
  9
$TIMEZONE
 70
 -8000
  9
$LIGHTGLYPHDISPLAY
280
     1
  9
$TILEMODELIGHTSYNCH
280
     1
  9
$CMATERIAL
347
44
  9
$SOLIDHIST
280
     0
  9
$SHOWHIST
280
     1
  9
$DWFFRAME
280
     2
  9
$DGNFRAME
280
     2
  9
$REALWORLDSCALE
290
     1
  9
$INTERFERECOLOR
 62
   256
  9
$CSHADOW
280
     0
  9
$SHADOWPLANELOCATION
 40
0.0
  0
ENDSEC
  0
SECTION
  2
CLASSES
  0
CLASS
  1
ACDBDICTIONARYWDFLT
  2
AcDbDictionaryWithDefault
  3
ObjectDBX Classes
 90
        0
 91
        3
280
     0
281
     0
  0
CLASS
  1
VISUALSTYLE
  2
AcDbVisualStyle
  3
ObjectDBX Classes
 90
     4095
 91
        3
280
     0
281
     0
  0
CLASS
  1
MATERIAL
  2
AcDbMaterial
  3
ObjectDBX Classes
 90
     1153
 91
        3
280
     0
281
     0
  0
CLASS
  1
SCALE
  2
AcDbScale
  3
ObjectDBX Classes
 90
     1153
 91
        3
280
     0
281
     0
  0
CLASS
  1
TABLESTYLE
  2
AcDbTableStyle
  3
ObjectDBX Classes
 90
     4095
 91
        3
280
     0
281
     0
  0
CLASS
  1
MLEADERSTYLE
  2
AcDbMLeaderStyle
  3
ACDB_MLEADERSTYLE_CLASS
 90
     4095
 91
        3
280
     0
281
     0
  0
CLASS
  1
SUN
  2
AcDbSun
  3
SCENEOE
 90
     1153
 91
        3
280
     0
281
     0
  0
CLASS
  1
DICTIONARYVAR
  2
AcDbDictionaryVar
  3
ObjectDBX Classes
 90
        0
 91
        3
280
     0
281
     0
  0
CLASS
  1
CELLSTYLEMAP
  2
AcDbCellStyleMap
  3
ObjectDBX Classes
 90
     1152
 91
        3
280
     0
281
     0
  0
ENDSEC
  0
SECTION
  2
TABLES
  0
TABLE
  2
VPORT
  5
8
330
0
100
AcDbSymbolTable
 70
     1
  0
VPORT
  5
29
330
8
100
AcDbSymbolTableRecord
100
AcDbViewportTableRecord
  2
*Active
 70
     0
 10
0.0
 20
0.0
 11
1.0
 21
1.0
 12
344.1869158879
 22
148.5
 13
0.0
 23
0.0
 14
10.0
 24
10.0
 15
10.0
 25
10.0
 16
0.0
 26
0.0
 36
1.0
 17
0.0
 27
0.0
 37
0.0
 40
297.0
 41
1.9729729729
 42
50.0
 43
0.0
 44
0.0
 50
0.0
 51
0.0
 71
     0
 72
   100
 73
     1
 74
     3
 75
     0
 76
     0
 77
     0
 78
     0
281
     0
 65
     1
110
0.0
120
0.0
130
0.0
111
1.0
121
0.0
131
0.0
112
0.0
122
1.0
132
0.0
 79
     0
146
0.0
348
2F
 60
     3
 61
     5
292
     1
282
     1
141
0.0
142
0.0
 63
   250
361
6D
  0
ENDTAB
  0
TABLE
  2
LTYPE
  5
5
330
0
100
AcDbSymbolTable
 70
     1
  0
LTYPE
  5
14
330
5
100
AcDbSymbolTableRecord
100
AcDbLinetypeTableRecord
  2
ByBlock
 70
     0
  3

 72
    65
 73
     0
 40
0.0
  0
LTYPE
  5
15
330
5
100
AcDbSymbolTableRecord
100
AcDbLinetypeTableRecord
  2
ByLayer
 70
     0
  3

 72
    65
 73
     0
 40
0.0
  0
LTYPE
  5
16
330
5
100
AcDbSymbolTableRecord
100
AcDbLinetypeTableRecord
  2
Continuous
 70
     0
  3
Solid line
 72
    65
 73
     0
 40
0.0
  0
ENDTAB
  0
TABLE
  2
LAYER
  5
2
330
0
100
AcDbSymbolTable
 70
     3
  0
LAYER
  5
10
330
2
100
AcDbSymbolTableRecord
100
AcDbLayerTableRecord
  2
0
 70
     0
 62
     7
  6
Continuous
370
    -3
390
F
347
46
  0
LAYER
  5
6E
330
2
100
AcDbSymbolTableRecord
100
AcDbLayerTableRecord
  2
Default
 70
     0
 62
     7
  6
Continuous
370
    -3
390
F
347
46
  0
LAYER
  5
71
330
2
100
AcDbSymbolTableRecord
100
AcDbLayerTableRecord
  2
EXTERNAL_TEMP_BO
 70
     0
 62
     7
  6
Continuous
370
    -3
390
F
347
46
  0
ENDTAB
  0
TABLE
  2
STYLE
  5
3
330
0
100
AcDbSymbolTable
 70
     1
  0
STYLE
  5
11
330
3
100
AcDbSymbolTableRecord
100
AcDbTextStyleTableRecord
  2
Standard
 70
     0
 40
0.0
 41
1.0
 50
0.0
 71
     0
 42
2.5
  3
txt
  4

  0
ENDTAB
  0
TABLE
  2
VIEW
  5
6
330
0
100
AcDbSymbolTable
 70
     0
  0
ENDTAB
  0
TABLE
  2
UCS
  5
7
330
0
100
AcDbSymbolTable
 70
     0
  0
ENDTAB
  0
TABLE
  2
APPID
  5
9
330
0
100
AcDbSymbolTable
 70
     2
  0
APPID
  5
12
330
9
100
AcDbSymbolTableRecord
100
AcDbRegAppTableRecord
  2
ACAD
 70
     0
  0
APPID
  5
256
330
9
100
AcDbSymbolTableRecord
100
AcDbRegAppTableRecord
  2
ACAD_MLEADERVER
 70
     0
  0
ENDTAB
  0
TABLE
  2
DIMSTYLE
  5
A
330
0
100
AcDbSymbolTable
 70
     1
100
AcDbDimStyleTable
  0
DIMSTYLE
105
27
330
A
100
AcDbSymbolTableRecord
100
AcDbDimStyleTableRecord
  2
ISO-25
 70
     0
 41
2.5
 42
0.625
 43
3.75
 44
1.25
 73
     0
 74
     0
 77
     1
 78
     8
140
2.5
141
2.5
143
0.0393700787
147
0.625
171
     3
172
     1
178
     0
271
     2
272
     2
274
     3
278
    44
283
     0
284
     8
340
11
  0
ENDTAB
  0
TABLE
  2
BLOCK_RECORD
  5
1
330
0
100
AcDbSymbolTable
 70
     5
  0
BLOCK_RECORD
  5
1F
330
1
100
AcDbSymbolTableRecord
100
AcDbBlockTableRecord
  2
*Model_Space
340
22
 70
     0
280
     1
281
     0
  0
BLOCK_RECORD
  5
1B
330
1
100
AcDbSymbolTableRecord
100
AcDbBlockTableRecord
  2
*Paper_Space
340
1E
 70
     0
280
     1
281
     0
  0
BLOCK_RECORD
  5
6F
330
1
100
AcDbSymbolTableRecord
100
AcDbBlockTableRecord
  2
SE
340
0
102
{BLKREFS
331
70
102
}
 70
     0
280
     1
281
     0
  0
BLOCK_RECORD
  5
DA
330
1
100
AcDbSymbolTableRecord
100
AcDbBlockTableRecord
  2
SE1
340
0
102
{BLKREFS
331
DB
102
}
 70
     0
280
     1
281
     0
  0
BLOCK_RECORD
  5
11C
330
1
100
AcDbSymbolTableRecord
100
AcDbBlockTableRecord
  2
SE2
340
0
102
{BLKREFS
331
11D
102
}
 70
     0
280
     1
281
     0
  0
BLOCK_RECORD
  5
180
330
1
100
AcDbSymbolTableRecord
100
AcDbBlockTableRecord
  2
SE3
340
0
102
{BLKREFS
331
181
102
}
 70
     0
280
     1
281
     0
  0
BLOCK_RECORD
  5
1C2
330
1
100
AcDbSymbolTableRecord
100
AcDbBlockTableRecord
  2
SE4
340
0
102
{BLKREFS
331
1C3
102
}
 70
     0
280
     1
281
     0
  0
ENDTAB
  0
ENDSEC
  0
SECTION
  2
BLOCKS
  0
BLOCK
  5
20
330
1F
100
AcDbEntity
  8
0
100
AcDbBlockBegin
  2
*Model_Space
 70
     0
 10
0.0
 20
0.0
 30
0.0
  3
*Model_Space
  1

  0
ENDBLK
  5
21
330
1F
100
AcDbEntity
  8
0
100
AcDbBlockEnd
  0
BLOCK
  5
1C
330
1B
100
AcDbEntity
 67
     1
  8
0
100
AcDbBlockBegin
  2
*Paper_Space
 70
     0
 10
0.0
 20
0.0
 30
0.0
  3
*Paper_Space
  1

  0
ENDBLK
  5
1D
330
1B
100
AcDbEntity
 67
     1
  8
0
100
AcDbBlockEnd
  0
BLOCK
  5
D8
330
6F
100
AcDbEntity
  8
0
100
AcDbBlockBegin
  2
SE
 70
     0
 10
0.0
 20
0.0
 30
0.0
  3
SE
  1

  0
LINE
  5
72
330
6F
100
AcDbEntity
  8
EXTERNAL_TEMP_BO
  6
Continuous
 62
     7
100
AcDbLine
 10
112.9407958706
 20
183.53700577
 30
0.0
 11
112.9407958706
 21
182.5426263134
 31
0.0
  0
LINE
  5
73
330
6F
100
AcDbEntity
  8
EXTERNAL_TEMP_BO
  6
Continuous
 62
     7
100
AcDbLine
 10
126.4407958706
 20
177.8876263552
 30
0.0
 11
126.4407958706
 21
218.8876263552
 31
0.0
  0
LINE
  5
74
330
6F
100
AcDbEntity
  8
EXTERNAL_TEMP_BO
  6
Continuous
 62
     7
100
AcDbLine
 10
112.9407958706
 20
214.2326264388
 30
0.0
 11
112.9407958706
 21
213.2382469912
 31
0.0
  0
LINE
  5
75
330
6F
100
AcDbEntity
  8
EXTERNAL_TEMP_BO
  6
Continuous
 62
     7
100
AcDbLine
 10
112.9407958706
 20
199.3820055759
 30
0.0
 11
112.9407958706
 21
197.393247227
 31
0.0
  0
LINE
  5
76
330
6F
100
AcDbEntity
  8
EXTERNAL_TEMP_BO
  6
Continuous
 62
     7
100
AcDbLine
 10
126.4407958706
 20
213.2382469912
 30
0.0
 11
112.9407958706
 21
213.2382469912
 31
0.0
  0
LINE
  5
77
330
6F
100
AcDbEntity
  8
EXTERNAL_TEMP_BO
  6
Continuous
 62
     7
100
AcDbLine
 10
126.4407958706
 20
197.393247227
 30
0.0
 11
112.9407958706
 21
197.393247227
 31
0.0
  0
LINE
  5
78
330
6F
100
AcDbEntity
  8
EXTERNAL_TEMP_BO
  6
Continuous
 62
     7
100
AcDbLine
 10
126.4407958706
 20
182.5426263134
 30
0.0
 11
112.9407958706
 21
182.5426263134
 31
0.0
  0
LINE
  5
79
330
6F
100
AcDbEntity
  8
EXTERNAL_TEMP_BO
  6
Continuous
 62
     7
100
AcDbLine
 10
112.9407958706
 20
214.2326264388
 30
0.0
 11
126.4407958706
 21
214.2326264388
 31
0.0
  0
LINE
  5
7A
330
6F
100
AcDbEntity
  8
EXTERNAL_TEMP_BO
  6
Continuous
 62
     7
100
AcDbLine
 10
112.9407958706
 20
199.3820055759
 30
0.0
 11
112.9407958706
 21
213.2382469912
 31
0.0
  0
LINE
  5
7B
330
6F
100
AcDbEntity
  8
EXTERNAL_TEMP_BO
  6
Continuous
 62
     7
100
AcDbLine
 10
112.9407958706
 20
199.3820055759
 30
0.0
 11
126.4407958706
 21
199.3820055759
 31
0.0
  0
LINE
  5
7C
330
6F
100
AcDbEntity
  8
EXTERNAL_TEMP_BO
  6
Continuous
 62
     7
100
AcDbLine
 10
112.9407958706
 20
183.53700577
 30
0.0
 11
112.9407958706
 21
197.393247227
 31
0.0
  0
LINE
  5
7D
330
6F
100
AcDbEntity
  8
EXTERNAL_TEMP_BO
  6
Continuous
 62
     7
100
AcDbLine
 10
112.9407958706
 20
183.53700577
 30
0.0
 11
126.4407958706
 21
183.53700577
 31
0.0
  0
LINE
  5
7E
330
6F
100
AcDbEntity
  8
EXTERNAL_TEMP_BO
  6
Continuous
 62
     7
100
AcDbLine
 10
167.9407958706
 20
213.2382469912
 30
0.0
 11
167.9407958706
 21
214.2326264388
 31
0.0
  0
LINE
  5
7F
330
6F
100
AcDbEntity
  8
EXTERNAL_TEMP_BO
  6
Continuous
 62
     7
100
AcDbLine
 10
154.4407958706
 20
177.8876263552
 30
0.0
 11
154.4407958706
 21
218.8876263552
 31
0.0
  0
LINE
  5
80
330
6F
100
AcDbEntity
  8
EXTERNAL_TEMP_BO
  6
Continuous
 62
     7
100
AcDbLine
 10
167.9407958706
 20
182.5426263134
 30
0.0
 11
167.9407958706
 21
183.53700577
 31
0.0
  0
LINE
  5
81
330
6F
100
AcDbEntity
  8
EXTERNAL_TEMP_BO
  6
Continuous
 62
     7
100
AcDbLine
 10
167.9407958706
 20
197.393247227
 30
0.0
 11
167.9407958706
 21
199.3820055759
 31
0.0
  0
LINE
  5
82
330
6F
100
AcDbEntity
  8
EXTERNAL_TEMP_BO
  6
Continuous
 62
     7
100
AcDbLine
 10
167.9407958706
 20
197.393247227
 30
0.0
 11
167.9407958706
 21
183.53700577
 31
0.0
  0
LINE
  5
83
330
6F
100
AcDbEntity
  8
EXTERNAL_TEMP_BO
  6
Continuous
 62
     7
100
AcDbLine
 10
167.9407958706
 20
213.2382469912
 30
0.0
 11
167.9407958706
 21
199.3820055759
 31
0.0
  0
LINE
  5
84
330
6F
100
AcDbEntity
  8
EXTERNAL_TEMP_BO
  6
Continuous
 62
     7
100
AcDbLine
 10
154.4407958706
 20
182.5426263134
 30
0.0
 11
167.9407958706
 21
182.5426263134
 31
0.0
  0
LINE
  5
85
330
6F
100
AcDbEntity
  8
EXTERNAL_TEMP_BO
  6
Continuous
 62
     7
100
AcDbLine
 10
154.4407958706
 20
197.393247227
 30
0.0
 11
167.9407958706
 21
197.393247227
 31
0.0
  0
LINE
  5
86
330
6F
100
AcDbEntity
  8
EXTERNAL_TEMP_BO
  6
Continuous
 62
     7
100
AcDbLine
 10
167.9407958706
 20
183.53700577
 30
0.0
 11
154.4407958706
 21
183.53700577
 31
0.0
  0
LINE
  5
87
330
6F
100
AcDbEntity
  8
EXTERNAL_TEMP_BO
  6
Continuous
 62
     7
100
AcDbLine
 10
154.4407958706
 20
213.2382469912
 30
0.0
 11
167.9407958706
 21
213.2382469912
 31
0.0
  0
LINE
  5
88
330
6F
100
AcDbEntity
  8
EXTERNAL_TEMP_BO
  6
Continuous
 62
     7
100
AcDbLine
 10
167.9407958706
 20
199.3820055759
 30
0.0
 11
154.4407958706
 21
199.3820055759
 31
0.0
  0
LINE
  5
89
330
6F
100
AcDbEntity
  8
EXTERNAL_TEMP_BO
  6
Continuous
 62
     7
100
AcDbLine
 10
167.9407958706
 20
214.2326264388
 30
0.0
 11
154.4407958706
 21
214.2326264388
 31
0.0
  0
LINE
  5
8A
330
6F
100
AcDbEntity
  8
EXTERNAL_TEMP_BO
  6
Continuous
 62
     7
100
AcDbLine
 10
152.6907958706
 20
219.8876263552
 30
0.0
 11
151.5510388923
 21
219.8876263552
 31
0.0
  0
LINE
  5
8B
330
6F
100
AcDbEntity
  8
EXTERNAL_TEMP_BO
  6
Continuous
 62
     7
100
AcDbLine
 10
128.1907958706
 20
219.8876263552
 30
0.0
 11
127.4407959599
 21
219.8876263552
 31
0.0
  0
LINE
  5
8C
330
6F
100
AcDbEntity
  8
EXTERNAL_TEMP_BO
  6
Continuous
 62
     7
100
AcDbLine
 10
152.6907958706
 20
219.8876263552
 30
0.0
 11
153.4407958458
 21
219.8876263552
 31
0.0
  0
LINE
  5
8D
330
6F
100
AcDbEntity
  8
EXTERNAL_TEMP_BO
  6
Continuous
 62
     7
100
AcDbLine
 10
152.6907958706
 20
176.8876263552
 30
0.0
 11
152.6907958706
 21
219.8876263552
 31
0.0
  0
LINE
  5
8E
330
6F
100
AcDbEntity
  8
EXTERNAL_TEMP_BO
  6
Continuous
 62
     7
100
AcDbLine
 10
140.9407958706
 20
176.8876263552
 30
0.0
 11
140.9407958706
 21
217.8876263552
 31
0.0
  0
LINE
  5
8F
330
6F
100
AcDbEntity
  8
EXTERNAL_TEMP_BO
  6
Continuous
 62
     7
100
AcDbLine
 10
140.9407958706
 20
176.8876263552
 30
0.0
 11
152.6907958706
 21
176.8876263552
 31
0.0
  0
LINE
  5
90
330
6F
100
AcDbEntity
  8
EXTERNAL_TEMP_BO
  6
Continuous
 62
     7
100
AcDbLine
 10
140.4407958706
 20
176.9831567811
 30
0.0
 11
140.4407958706
 21
177.8876263552
 31
0.0
  0
LINE
  5
91
330
6F
100
AcDbEntity
  8
EXTERNAL_TEMP_BO
  6
Continuous
 62
     7
100
AcDbLine
 10
139.9407958706
 20
176.8876263552
 30
0.0
 11
139.9407958706
 21
217.8876263552
 31
0.0
  0
LINE
  5
92
330
6F
100
AcDbEntity
  8
EXTERNAL_TEMP_BO
  6
Continuous
 62
     7
100
AcDbLine
 10
128.1907958706
 20
176.8876263552
 30
0.0
 11
128.1907958706
 21
219.8876263552
 31
0.0
  0
LINE
  5
93
330
6F
100
AcDbEntity
  8
EXTERNAL_TEMP_BO
  6
Continuous
 62
     7
100
AcDbLine
 10
128.1907958706
 20
176.8876263552
 30
0.0
 11
127.4407958954
 21
176.8876263552
 31
0.0
  0
LINE
  5
94
330
6F
100
AcDbEntity
  8
EXTERNAL_TEMP_BO
  6
Continuous
 62
     7
100
AcDbLine
 10
128.1907958706
 20
176.8876263552
 30
0.0
 11
139.9407958706
 21
176.8876263552
 31
0.0
  0
LINE
  5
95
330
6F
100
AcDbEntity
  8
EXTERNAL_TEMP_BO
  6
Continuous
 62
     7
100
AcDbLine
 10
139.9407958706
 20
176.8876263552
 30
0.0
 11
140.3469779705
 21
176.8876263552
 31
0.0
  0
LINE
  5
96
330
6F
100
AcDbEntity
  8
EXTERNAL_TEMP_BO
  6
Continuous
 62
     7
100
AcDbLine
 10
140.5346137707
 20
176.8876263552
 30
0.0
 11
140.9407958706
 21
176.8876263552
 31
0.0
  0
LINE
  5
97
330
6F
100
AcDbEntity
  8
EXTERNAL_TEMP_BO
  6
Continuous
 62
     7
100
AcDbLine
 10
152.6907958706
 20
176.8876263552
 30
0.0
 11
153.4407957814
 21
176.8876263552
 31
0.0
  0
LINE
  5
98
330
6F
100
AcDbEntity
  8
EXTERNAL_TEMP_BO
  6
Continuous
 62
     7
100
AcDbLine
 10
129.330552849
 20
219.8876263552
 30
0.0
 11
128.1907958706
 21
219.8876263552
 31
0.0
  0
ARC
  5
99
330
6F
100
AcDbEntity
  8
EXTERNAL_TEMP_BO
  6
Continuous
 62
     7
100
AcDbCircle
 10
142.1781691411
 20
258.4703117924
 30
0.0
 40
40.75097672857267
100
AcDbArc
 50
252.3500109617
 51
259.6092516655
  0
ARC
  5
9A
330
6F
100
AcDbEntity
  8
EXTERNAL_TEMP_BO
  6
Continuous
 62
     7
100
AcDbCircle
 10
138.6422952339
 20
258.7151094954
 30
0.0
 40
41.00278796056567
100
AcDbArc
 50
280.4130685844
 51
287.6276687884
  0
ARC
  5
9B
330
6F
100
AcDbEntity
  8
EXTERNAL_TEMP_BO
  6
Continuous
 62
     7
100
AcDbCircle
 10
140.9242302975
 20
239.9999048854
 30
0.0
 40
22.45553005601313
100
AcDbArc
 50
254.2484588651
 51
259.9691674013
  0
ARC
  5
9C
330
6F
100
AcDbEntity
  8
EXTERNAL_TEMP_BO
  6
Continuous
 62
     7
100
AcDbCircle
 10
139.9573614438
 20
239.9999048854
 30
0.0
 40
22.45553005601319
100
AcDbArc
 50
280.0308325987
 51
285.7515411349
  0
LINE
  5
9D
330
6F
100
AcDbEntity
  8
EXTERNAL_TEMP_BO
  6
Continuous
 62
     7
100
AcDbLine
 10
137.0129685704
 20
217.8876263552
 30
0.0
 11
139.9407958706
 21
217.8876263552
 31
0.0
  0
LINE
  5
9E
330
6F
100
AcDbEntity
  8
EXTERNAL_TEMP_BO
  6
Continuous
 62
     7
100
AcDbLine
 10
139.9407958706
 20
217.8876263552
 30
0.0
 11
140.4407958706
 21
217.8876263552
 31
0.0
  0
LINE
  5
9F
330
6F
100
AcDbEntity
  8
EXTERNAL_TEMP_BO
  6
Continuous
 62
     7
100
AcDbLine
 10
140.4407958706
 20
217.8876263552
 30
0.0
 11
140.9407958706
 21
217.8876263552
 31
0.0
  0
LINE
  5
A0
330
6F
100
AcDbEntity
  8
EXTERNAL_TEMP_BO
  6
Continuous
 62
     7
100
AcDbLine
 10
140.9407958706
 20
217.8876263552
 30
0.0
 11
143.8686231708
 21
217.8876263552
 31
0.0
  0
LINE
  5
A1
330
6F
100
AcDbEntity
  8
EXTERNAL_TEMP_BO
  6
Continuous
 62
     7
100
AcDbLine
 10
129.330552849
 20
219.8876263552
 30
0.0
 11
129.8224155798
 21
219.6376263552
 31
0.0
  0
LINE
  5
A2
330
6F
100
AcDbEntity
  8
EXTERNAL_TEMP_BO
  6
Continuous
 62
     7
100
AcDbLine
 10
151.0591761614
 20
219.6376263552
 30
0.0
 11
151.5510388923
 21
219.8876263552
 31
0.0
  0
LINE
  5
A3
330
6F
100
AcDbEntity
  8
EXTERNAL_TEMP_BO
  6
Continuous
 62
     7
100
AcDbLine
 10
140.4407958706
 20
178.4753186035
 30
0.0
 11
140.4407958706
 21
217.8876263552
 31
0.0
  0
LINE
  5
A4
330
6F
100
AcDbEntity
  8
EXTERNAL_TEMP_BO
  6
Continuous
 62
     7
100
AcDbLine
 10
140.4407958706
 20
176.9831567811
 30
0.0
 11
140.5346137707
 21
176.8876263552
 31
0.0
  0
LINE
  5
A5
330
6F
100
AcDbEntity
  8
EXTERNAL_TEMP_BO
  6
Continuous
 62
     7
100
AcDbLine
 10
140.6448514424
 20
178.2515965895
 30
0.0
 11
140.606204604
 21
177.8876263552
 31
0.0
  0
LINE
  5
A6
330
6F
100
AcDbEntity
  8
EXTERNAL_TEMP_BO
  6
Continuous
 62
     7
100
AcDbLine
 10
140.4407958706
 20
178.4753186035
 30
0.0
 11
140.6448514424
 21
178.2515965895
 31
0.0
  0
LINE
  5
A7
330
6F
100
AcDbEntity
  8
EXTERNAL_TEMP_BO
  6
Continuous
 62
     7
100
AcDbLine
 10
140.3469779705
 20
176.8876263552
 30
0.0
 11
140.4407958706
 21
176.9831567811
 31
0.0
  0
LINE
  5
A8
330
6F
100
AcDbEntity
  8
EXTERNAL_TEMP_BO
  6
Continuous
 62
     7
100
AcDbLine
 10
140.2753871372
 20
177.8876263552
 30
0.0
 11
140.2367402988
 21
178.2515965895
 31
0.0
  0
LINE
  5
A9
330
6F
100
AcDbEntity
  8
EXTERNAL_TEMP_BO
  6
Continuous
 62
     7
100
AcDbLine
 10
140.2367402988
 20
178.2515965895
 30
0.0
 11
140.4407958706
 21
178.4753186035
 31
0.0
  0
LINE
  5
AA
330
6F
100
AcDbEntity
  8
EXTERNAL_TEMP_BO
  6
Continuous
 62
     7
100
AcDbLine
 10
147.615406742
 20
225.3876263552
 30
0.0
 11
148.3657958706
 21
225.3876263552
 31
0.0
  0
LINE
  5
AB
330
6F
100
AcDbEntity
  8
EXTERNAL_TEMP_BO
  6
Continuous
 62
     7
100
AcDbLine
 10
132.5157958706
 20
225.3876263552
 30
0.0
 11
133.2661849992
 21
225.3876263552
 31
0.0
  0
LINE
  5
AC
330
6F
100
AcDbEntity
  8
EXTERNAL_TEMP_BO
  6
Continuous
 62
     7
100
AcDbLine
 10
139.690406742
 20
225.3876263552
 30
0.0
 11
141.1911849992
 21
225.3876263552
 31
0.0
  0
LINE
  5
AD
330
6F
100
AcDbEntity
  8
EXTERNAL_TEMP_BO
  6
Continuous
 62
     7
100
AcDbLine
 10
140.2367402988
 20
178.2515965895
 30
0.0
 11
140.6448514424
 21
178.2515965895
 31
0.0
  0
LINE
  5
AE
330
6F
100
AcDbEntity
  8
EXTERNAL_TEMP_BO
  6
Continuous
 62
     7
100
AcDbLine
 10
140.2753871372
 20
177.8876263552
 30
0.0
 11
140.606204604
 21
177.8876263552
 31
0.0
  0
LINE
  5
AF
330
6F
100
AcDbEntity
  8
EXTERNAL_TEMP_BO
  6
Continuous
 62
     7
100
AcDbLine
 10
147.615406742
 20
225.3876263552
 30
0.0
 11
141.1911849992
 21
225.3876263552
 31
0.0
  0
LINE
  5
B0
330
6F
100
AcDbEntity
  8
EXTERNAL_TEMP_BO
  6
Continuous
 62
     7
100
AcDbLine
 10
141.1911849992
 20
225.3876263552
 30
0.0
 11
141.1911849992
 21
217.8876263552
 31
0.0
  0
LINE
  5
B1
330
6F
100
AcDbEntity
  8
EXTERNAL_TEMP_BO
  6
Continuous
 62
     7
100
AcDbLine
 10
147.615406742
 20
225.3876263552
 30
0.0
 11
147.615406742
 21
218.7067121754
 31
0.0
  0
LINE
  5
B2
330
6F
100
AcDbEntity
  8
EXTERNAL_TEMP_BO
  6
Continuous
 62
     7
100
AcDbLine
 10
148.3657958706
 20
225.3876263552
 30
0.0
 11
148.3657958706
 21
218.8835110983
 31
0.0
  0
LINE
  5
B3
330
6F
100
AcDbEntity
  8
EXTERNAL_TEMP_BO
  6
Continuous
 62
     7
100
AcDbLine
 10
132.5157958706
 20
225.3876263552
 30
0.0
 11
132.5157958706
 21
218.884423548
 31
0.0
  0
LINE
  5
B4
330
6F
100
AcDbEntity
  8
EXTERNAL_TEMP_BO
  6
Continuous
 62
     7
100
AcDbLine
 10
139.690406742
 20
225.3876263552
 30
0.0
 11
133.2661849992
 21
225.3876263552
 31
0.0
  0
LINE
  5
B5
330
6F
100
AcDbEntity
  8
EXTERNAL_TEMP_BO
  6
Continuous
 62
     7
100
AcDbLine
 10
133.2661849992
 20
225.3876263552
 30
0.0
 11
133.2661849992
 21
218.7072942078
 31
0.0
  0
LINE
  5
B6
330
6F
100
AcDbEntity
  8
EXTERNAL_TEMP_BO
  6
Continuous
 62
     7
100
AcDbLine
 10
139.690406742
 20
225.3876263552
 30
0.0
 11
139.690406742
 21
217.8876263552
 31
0.0
  0
LINE
  5
B7
330
6F
100
AcDbEntity
  8
EXTERNAL_TEMP_BO
  6
Continuous
 62
     7
100
AcDbLine
 10
144.8133501991
 20
170.1878638085
 30
0.0
 11
144.707770296
 21
170.1878638085
 31
0.0
  0
LINE
  5
B8
330
6F
100
AcDbEntity
  8
EXTERNAL_TEMP_BO
  6
Continuous
 62
     7
100
AcDbLine
 10
142.2021301171
 20
170.1878638085
 30
0.0
 11
141.6443922619
 21
170.1878638085
 31
0.0
  0
LINE
  5
B9
330
6F
100
AcDbEntity
  8
EXTERNAL_TEMP_BO
  6
Continuous
 62
     7
100
AcDbLine
 10
137.8295757887
 20
170.1878638085
 30
0.0
 11
137.3774178365
 21
170.1878638085
 31
0.0
  0
SPLINE
  5
BA
330
6F
100
AcDbEntity
  8
EXTERNAL_TEMP_BO
  6
Continuous
 62
     7
100
AcDbSpline
210
0.0
220
0.0
230
1.0
 70
     8
 71
     3
 72
    12
 73
     8
 74
     0
 42
0.000000001
 43
0.0000000001
 40
0.0
 40
0.0
 40
0.0
 40
0.0
 40
0.25
 40
0.25
 40
0.5
 40
0.5
 40
1.0
 40
1.0
 40
1.0
 40
1.0
 10
137.3774178364837
 20
175.0403800362302
 30
0.0
 10
137.271100799516
 20
175.1204593628761
 30
0.0
 10
137.1635082579154
 20
175.1858166344841
 30
0.0
 10
136.944807743193
 20
175.2759555694228
 30
0.0
 10
136.8329885768431
 20
175.3002253076508
 30
0.0
 10
136.5017129261144
 20
175.3001122204201
 30
0.0
 10
136.28342667024
 20
175.2024601755424
 30
0.0
 10
136.0682415421334
 20
175.0403800362302
 30
0.0
  0
SPLINE
  5
BB
330
6F
100
AcDbEntity
  8
EXTERNAL_TEMP_BO
  6
Continuous
 62
     7
100
AcDbSpline
210
0.0
220
0.0
230
1.0
 70
     8
 71
     3
 72
     8
 73
     4
 74
     0
 42
0.000000001
 43
0.0000000001
 40
0.8632504040252645
 40
0.8632504040252645
 40
0.8632504040252645
 40
0.8632504040252645
 40
1.0
 40
1.0
 40
1.0
 40
1.0
 10
144.6376606147707
 20
175.1576640638102
 30
0.0
 10
144.696658064096
 20
175.1235816154085
 30
0.0
 10
144.7551949517066
 20
175.084183298488
 30
0.0
 10
144.8133501991072
 20
175.0403800362302
 30
0.0
  0
ARC
  5
BC
330
6F
100
AcDbEntity
  8
EXTERNAL_TEMP_BO
  6
Continuous
 62
     7
100
AcDbCircle
 10
143.4549502066
 20
172.1278703012
 30
0.0
 40
3.170531679907541
100
AcDbArc
 50
66.7249754931
 51
113.2750245069
  0
ARC
  5
BD
330
6F
100
AcDbEntity
  8
EXTERNAL_TEMP_BO
  6
Continuous
 62
     7
100
AcDbCircle
 10
139.7369840253
 20
168.1307772334
 30
0.0
 40
7.16804136939092
100
AcDbArc
 50
74.5677375671
 51
105.4322624329
  0
LINE
  5
BE
330
6F
100
AcDbEntity
  8
EXTERNAL_TEMP_BO
  6
Continuous
 62
     7
100
AcDbLine
 10
136.5792958706
 20
175.3512831562
 30
0.0
 11
144.3022958706
 21
175.3512831562
 31
0.0
  0
LINE
  5
BF
330
6F
100
AcDbEntity
  8
EXTERNAL_TEMP_BO
  6
Continuous
 62
     7
100
AcDbLine
 10
136.6907958706
 20
169.9512831562
 30
0.0
 11
144.1907958706
 21
169.9512831562
 31
0.0
  0
ARC
  5
C0
330
6F
100
AcDbEntity
  8
EXTERNAL_TEMP_BO
  6
Continuous
 62
     7
100
AcDbCircle
 10
136.7228296893
 20
171.4140315174
 30
0.0
 40
1.389954277275316
100
AcDbArc
 50
241.9045248043
 51
298.0954751957
  0
ARC
  5
C1
330
6F
100
AcDbEntity
  8
EXTERNAL_TEMP_BO
  6
Continuous
 62
     7
100
AcDbCircle
 10
144.1587620519
 20
171.4140315174
 30
0.0
 40
1.389954277275244
100
AcDbArc
 50
290.2225105436
 51
298.0954751957
  0
ARC
  5
C2
330
6F
100
AcDbEntity
  8
EXTERNAL_TEMP_BO
  6
Continuous
 62
     7
100
AcDbCircle
 10
143.4549502066
 20
174.8974434485
 30
0.0
 40
4.8733662454084
100
AcDbArc
 50
255.103433036
 51
284.896566964
  0
ARC
  5
C3
330
6F
100
AcDbEntity
  8
EXTERNAL_TEMP_BO
  6
Continuous
 62
     7
100
AcDbCircle
 10
139.7369840253
 20
181.2125142056
 30
0.0
 40
11.18843700254902
100
AcDbArc
 50
260.1842533942
 51
279.8157466058
  0
LINE
  5
C4
330
6F
100
AcDbEntity
  8
EXTERNAL_TEMP_BO
  6
Continuous
 62
     7
100
AcDbLine
 10
136.0682415421
 20
170.1878638085
 30
0.0
 11
136.0682415421
 21
175.0403800362
 31
0.0
  0
LINE
  5
C5
330
6F
100
AcDbEntity
  8
EXTERNAL_TEMP_BO
  6
Continuous
 62
     7
100
AcDbLine
 10
144.707770296
 20
175.0403800362
 30
0.0
 11
144.8133501991
 21
175.0403800362
 31
0.0
  0
LINE
  5
C6
330
6F
100
AcDbEntity
  8
EXTERNAL_TEMP_BO
  6
Continuous
 62
     7
100
AcDbLine
 10
144.8133501991
 20
170.1878638085
 30
0.0
 11
144.8133501991
 21
175.0403800362
 31
0.0
  0
LINE
  5
C7
330
6F
100
AcDbEntity
  8
EXTERNAL_TEMP_BO
  6
Continuous
 62
     7
100
AcDbLine
 10
144.707770296
 20
175.0403800362
 30
0.0
 11
144.707770296
 21
170.1878638085
 31
0.0
  0
LINE
  5
C8
330
6F
100
AcDbEntity
  8
EXTERNAL_TEMP_BO
  6
Continuous
 62
     7
100
AcDbLine
 10
141.6443922619
 20
175.0403800362
 30
0.0
 11
142.2021301171
 21
175.0403800362
 31
0.0
  0
LINE
  5
C9
330
6F
100
AcDbEntity
  8
EXTERNAL_TEMP_BO
  6
Continuous
 62
     7
100
AcDbLine
 10
142.2021301171
 20
170.1878638085
 30
0.0
 11
142.2021301171
 21
175.0403800362
 31
0.0
  0
LINE
  5
CA
330
6F
100
AcDbEntity
  8
EXTERNAL_TEMP_BO
  6
Continuous
 62
     7
100
AcDbLine
 10
141.6443922619
 20
175.0403800362
 30
0.0
 11
141.6443922619
 21
170.1878638085
 31
0.0
  0
LINE
  5
CB
330
6F
100
AcDbEntity
  8
EXTERNAL_TEMP_BO
  6
Continuous
 62
     7
100
AcDbLine
 10
137.3774178365
 20
175.0403800362
 30
0.0
 11
137.8295757887
 21
175.0403800362
 31
0.0
  0
LINE
  5
CC
330
6F
100
AcDbEntity
  8
EXTERNAL_TEMP_BO
  6
Continuous
 62
     7
100
AcDbLine
 10
137.3774178365
 20
175.0403800362
 30
0.0
 11
137.3774178365
 21
170.1878638085
 31
0.0
  0
LINE
  5
CD
330
6F
100
AcDbEntity
  8
EXTERNAL_TEMP_BO
  6
Continuous
 62
     7
100
AcDbLine
 10
137.8295757887
 20
170.1878638085
 30
0.0
 11
137.8295757887
 21
175.0403800362
 31
0.0
  0
LINE
  5
CE
330
6F
100
AcDbEntity
  8
EXTERNAL_TEMP_BO
  6
Continuous
 62
     7
100
AcDbLine
 10
153.4407958706
 20
176.8876263552
 30
0.0
 11
154.4407958706
 21
177.8876263552
 31
0.0
  0
LINE
  5
CF
330
6F
100
AcDbEntity
  8
EXTERNAL_TEMP_BO
  6
Continuous
 62
     7
100
AcDbLine
 10
154.4407958706
 20
218.8876263552
 30
0.0
 11
153.4407958706
 21
219.8876263552
 31
0.0
  0
LINE
  5
D0
330
6F
100
AcDbEntity
  8
EXTERNAL_TEMP_BO
  6
Continuous
 62
     7
100
AcDbLine
 10
127.4407958706
 20
219.8876263552
 30
0.0
 11
126.4407958706
 21
218.8876263552
 31
0.0
  0
LINE
  5
D1
330
6F
100
AcDbEntity
  8
EXTERNAL_TEMP_BO
  6
Continuous
 62
     7
100
AcDbLine
 10
126.4407958706
 20
177.8876263552
 30
0.0
 11
127.4407958706
 21
176.8876263552
 31
0.0
  0
LINE
  5
D2
330
6F
100
AcDbEntity
  8
EXTERNAL_TEMP_BO
  6
Continuous
 62
     7
100
AcDbLine
 10
136.2417393656
 20
170.1147263575
 30
0.0
 11
136.6907958706
 21
169.9512831562
 31
0.0
  0
LINE
  5
D3
330
6F
100
AcDbEntity
  8
EXTERNAL_TEMP_BO
  6
Continuous
 62
     7
100
AcDbLine
 10
144.1907958706
 20
169.9512831562
 30
0.0
 11
144.6398456085
 21
170.1147238945
 31
0.0
  0
LINE
  5
D4
330
6F
100
AcDbEntity
  8
EXTERNAL_TEMP_BO
  6
Continuous
 62
     7
100
AcDbLine
 10
144.6398857231
 20
175.156375564
 30
0.0
 11
144.3022958706
 21
175.3512831562
 31
0.0
  0
LINE
  5
D5
330
6F
100
AcDbEntity
  8
EXTERNAL_TEMP_BO
  6
Continuous
 62
     7
100
AcDbLine
 10
136.5792958706
 20
175.3512831562
 30
0.0
 11
136.242554405
 21
175.1568653804
 31
0.0
  0
LINE
  5
D6
330
6F
100
AcDbEntity
  8
EXTERNAL_TEMP_BO
  6
Continuous
 62
     7
100
AcDbLine
 10
136.5792958706
 20
176.8876263552
 30
0.0
 11
136.5792958706
 21
175.3512831562
 31
0.0
  0
LINE
  5
D7
330
6F
100
AcDbEntity
  8
EXTERNAL_TEMP_BO
  6
Continuous
 62
     7
100
AcDbLine
 10
144.3022958706
 20
175.3512831562
 30
0.0
 11
144.3022958706
 21
176.8876263552
 31
0.0
  0
ENDBLK
  5
D9
330
6F
100
AcDbEntity
  8
0
100
AcDbBlockEnd
  0
BLOCK
  5
11A
330
DA
100
AcDbEntity
  8
0
100
AcDbBlockBegin
  2
SE1
 70
     0
 10
0.0
 20
0.0
 30
0.0
  3
SE1
  1

  0
ARC
  5
DC
330
DA
100
AcDbEntity
  8
EXTERNAL_TEMP_BO
  6
Continuous
 62
     7
100
AcDbCircle
 10
242.7047067844
 20
198.3876263552
 30
0.0
 40
17.75
100
AcDbArc
 50
296.7885303455
 51
303.2114699537
  0
CIRCLE
  5
DD
330
DA
100
AcDbEntity
  8
EXTERNAL_TEMP_BO
  6
Continuous
 62
     7
100
AcDbCircle
 10
242.7047067844
 20
198.3876263552
 30
0.0
 40
20.5
  0
ARC
  5
DE
330
DA
100
AcDbEntity
  8
EXTERNAL_TEMP_BO
  6
Continuous
 62
     7
100
AcDbCircle
 10
242.7047067844
 20
198.3876263552
 30
0.0
 40
17.75
100
AcDbArc
 50
236.7885312432
 51
243.211469056
  0
ARC
  5
DF
330
DA
100
AcDbEntity
  8
EXTERNAL_TEMP_BO
  6
Continuous
 62
     7
100
AcDbCircle
 10
242.7047067844
 20
198.3876263552
 30
0.0
 40
17.75
100
AcDbArc
 50
176.7885303455
 51
183.2114699537
  0
ARC
  5
E0
330
DA
100
AcDbEntity
  8
EXTERNAL_TEMP_BO
  6
Continuous
 62
     7
100
AcDbCircle
 10
242.7047067844
 20
198.3876263552
 30
0.0
 40
17.75000000000001
100
AcDbArc
 50
116.7885312432
 51
123.211469056
  0
ARC
  5
E1
330
DA
100
AcDbEntity
  8
EXTERNAL_TEMP_BO
  6
Continuous
 62
     7
100
AcDbCircle
 10
242.7047067844
 20
198.3876263552
 30
0.0
 40
17.75000000000001
100
AcDbArc
 50
56.7885303455
 51
63.2114699537
  0
ARC
  5
E2
330
DA
100
AcDbEntity
  8
EXTERNAL_TEMP_BO
  6
Continuous
 62
     7
100
AcDbCircle
 10
242.7047067844
 20
198.3876263552
 30
0.0
 40
17.75000000000001
100
AcDbArc
 50
356.7885312432
 51
3.211469056
  0
LINE
  5
E3
330
DA
100
AcDbEntity
  8
EXTERNAL_TEMP_BO
  6
Continuous
 62
     7
100
AcDbLine
 10
250.7046113058
 20
214.2326264388
 30
0.0
 11
234.7048019319
 21
214.2326262716
 31
0.0
  0
LINE
  5
E4
330
DA
100
AcDbEntity
  8
EXTERNAL_TEMP_BO
  6
Continuous
 62
     7
100
AcDbLine
 10
260.426831656
 20
199.3820055759
 30
0.0
 11
252.4269270414
 21
213.2382469912
 31
0.0
  0
LINE
  5
E5
330
DA
100
AcDbEntity
  8
EXTERNAL_TEMP_BO
  6
Continuous
 62
     7
100
AcDbLine
 10
252.426927119
 20
183.53700577
 30
0.0
 11
260.4268316612
 21
197.393247227
 31
0.0
  0
LINE
  5
E6
330
DA
100
AcDbEntity
  8
EXTERNAL_TEMP_BO
  6
Continuous
 62
     7
100
AcDbLine
 10
234.7048020147
 20
182.542626397
 30
0.0
 11
250.7046113886
 21
182.5426263134
 31
0.0
  0
LINE
  5
E7
330
DA
100
AcDbEntity
  8
EXTERNAL_TEMP_BO
  6
Continuous
 62
     7
100
AcDbLine
 10
224.9825819283
 20
197.3932468568
 30
0.0
 11
232.98248676
 21
183.5370055669
 31
0.0
  0
LINE
  5
E8
330
DA
100
AcDbEntity
  8
EXTERNAL_TEMP_BO
  6
Continuous
 62
     7
100
AcDbLine
 10
232.9824866824
 20
213.2382470927
 30
0.0
 11
224.9825819231
 21
199.382005761
 31
0.0
  0
CIRCLE
  5
E9
330
DA
100
AcDbEntity
  8
EXTERNAL_TEMP_BO
  6
Continuous
 62
     7
100
AcDbCircle
 10
242.7047067844
 20
198.3876263552
 30
0.0
 40
11.43
  0
LINE
  5
EA
330
DA
100
AcDbEntity
  8
EXTERNAL_TEMP_BO
  6
Continuous
 62
     7
100
AcDbLine
 10
248.4329264031
 20
219.8876263552
 30
0.0
 11
236.9764871657
 21
219.8876263552
 31
0.0
  0
ARC
  5
EB
330
DA
100
AcDbEntity
  8
EXTERNAL_TEMP_BO
  6
Continuous
 62
     7
100
AcDbCircle
 10
242.7047067844
 20
198.3876263552
 30
0.0
 40
22.25
100
AcDbArc
 50
104.9186935242
 51
255.0813064758
  0
ARC
  5
EC
330
DA
100
AcDbEntity
  8
EXTERNAL_TEMP_BO
  6
Continuous
 62
     7
100
AcDbCircle
 10
242.7047067844
 20
198.3876263552
 30
0.0
 40
22.25
100
AcDbArc
 50
284.9186935242
 51
75.0813064758
  0
LINE
  5
ED
330
DA
100
AcDbEntity
  8
EXTERNAL_TEMP_BO
  6
Continuous
 62
     7
100
AcDbLine
 10
236.9764871657
 20
176.8876263552
 30
0.0
 11
248.4329264031
 21
176.8876263552
 31
0.0
  0
LINE
  5
EE
330
DA
100
AcDbEntity
  8
EXTERNAL_TEMP_BO
  6
Continuous
 62
     7
100
AcDbLine
 10
233.9869423831
 20
225.3876263552
 30
0.0
 11
233.9547067844
 21
225.3876263552
 31
0.0
  0
LINE
  5
EF
330
DA
100
AcDbEntity
  8
EXTERNAL_TEMP_BO
  6
Continuous
 62
     7
100
AcDbLine
 10
237.6959685356
 20
225.3876263552
 30
0.0
 11
238.9956806319
 21
225.3876263552
 31
0.0
  0
LINE
  5
F0
330
DA
100
AcDbEntity
  8
EXTERNAL_TEMP_BO
  6
Continuous
 62
     7
100
AcDbLine
 10
246.4137329369
 20
225.3876263552
 30
0.0
 11
247.7134450331
 21
225.3876263552
 31
0.0
  0
LINE
  5
F1
330
DA
100
AcDbEntity
  8
EXTERNAL_TEMP_BO
  6
Continuous
 62
     7
100
AcDbLine
 10
251.4224711856
 20
225.3876263552
 30
0.0
 11
251.4547067844
 21
225.3876263552
 31
0.0
  0
LINE
  5
F2
330
DA
100
AcDbEntity
  8
EXTERNAL_TEMP_BO
  6
Continuous
 62
     7
100
AcDbLine
 10
237.6959685356
 20
225.3876263552
 30
0.0
 11
233.9869423831
 21
225.3876263552
 31
0.0
  0
LINE
  5
F3
330
DA
100
AcDbEntity
  8
EXTERNAL_TEMP_BO
  6
Continuous
 62
     7
100
AcDbLine
 10
233.9869423831
 20
225.3876263552
 30
0.0
 11
233.9869423831
 21
218.8586567114
 31
0.0
  0
LINE
  5
F4
330
DA
100
AcDbEntity
  8
EXTERNAL_TEMP_BO
  6
Continuous
 62
     7
100
AcDbLine
 10
237.6959685356
 20
225.3876263552
 30
0.0
 11
237.6959685356
 21
219.8876263552
 31
0.0
  0
LINE
  5
F5
330
DA
100
AcDbEntity
  8
EXTERNAL_TEMP_BO
  6
Continuous
 62
     7
100
AcDbLine
 10
246.4137329369
 20
225.3876263552
 30
0.0
 11
238.9956806319
 21
225.3876263552
 31
0.0
  0
LINE
  5
F6
330
DA
100
AcDbEntity
  8
EXTERNAL_TEMP_BO
  6
Continuous
 62
     7
100
AcDbLine
 10
238.9956806319
 20
225.3876263552
 30
0.0
 11
238.9956806319
 21
219.8876263552
 31
0.0
  0
LINE
  5
F7
330
DA
100
AcDbEntity
  8
EXTERNAL_TEMP_BO
  6
Continuous
 62
     7
100
AcDbLine
 10
246.4137329369
 20
225.3876263552
 30
0.0
 11
246.4137329369
 21
219.8876263552
 31
0.0
  0
LINE
  5
F8
330
DA
100
AcDbEntity
  8
EXTERNAL_TEMP_BO
  6
Continuous
 62
     7
100
AcDbLine
 10
251.4224711856
 20
225.3876263552
 30
0.0
 11
247.7134450331
 21
225.3876263552
 31
0.0
  0
LINE
  5
F9
330
DA
100
AcDbEntity
  8
EXTERNAL_TEMP_BO
  6
Continuous
 62
     7
100
AcDbLine
 10
247.7134450331
 20
225.3876263552
 30
0.0
 11
247.7134450331
 21
219.8876263552
 31
0.0
  0
LINE
  5
FA
330
DA
100
AcDbEntity
  8
EXTERNAL_TEMP_BO
  6
Continuous
 62
     7
100
AcDbLine
 10
251.4224711856
 20
225.3876263552
 30
0.0
 11
251.4224711856
 21
218.8586567114
 31
0.0
  0
LINE
  5
FB
330
DA
100
AcDbEntity
  8
EXTERNAL_TEMP_BO
  6
Continuous
 62
     7
100
AcDbLine
 10
242.2140249685
 20
170.1878638085
 30
0.0
 11
241.6309613522
 21
170.1878638085
 31
0.0
  0
LINE
  5
FC
330
DA
100
AcDbEntity
  8
EXTERNAL_TEMP_BO
  6
Continuous
 62
     7
100
AcDbLine
 10
238.6726227485
 20
170.1878638085
 30
0.0
 11
238.4725258186
 21
170.1878638085
 31
0.0
  0
LINE
  5
FD
330
DA
100
AcDbEntity
  8
EXTERNAL_TEMP_BO
  6
Continuous
 62
     7
100
AcDbLine
 10
246.2461090043
 20
170.1878638085
 30
0.0
 11
245.863142318
 21
170.1878638085
 31
0.0
  0
ARC
  5
FE
330
DA
100
AcDbEntity
  8
EXTERNAL_TEMP_BO
  6
Continuous
 62
     7
100
AcDbCircle
 10
244.0385836432
 20
168.7281541794
 30
0.0
 40
6.570632361152637
100
AcDbArc
 50
73.8779801749
 51
106.1220198251
  0
ARC
  5
FF
330
DA
100
AcDbEntity
  8
EXTERNAL_TEMP_BO
  6
Continuous
 62
     7
100
AcDbCircle
 10
240.1517920504
 20
170.9330140554
 30
0.0
 40
4.365592413907543
100
AcDbArc
 50
70.1947326524
 51
109.8052673476
  0
SPLINE
  5
100
330
DA
100
AcDbEntity
  8
EXTERNAL_TEMP_BO
  6
Continuous
 62
     7
100
AcDbSpline
210
0.0
220
0.0
230
1.0
 70
     8
 71
     3
 72
     8
 73
     4
 74
     0
 42
0.000000001
 43
0.0000000001
 40
0.0
 40
0.0
 40
0.0
 40
0.0
 40
0.3181630126491282
 40
0.3181630126491282
 40
0.3181630126491282
 40
0.3181630126491282
 10
238.472525818609
 20
175.0403800362302
 30
0.0
 10
238.5444156152413
 20
175.1430028621413
 30
0.0
 10
238.616959780055
 20
175.2200625022423
 30
0.0
 10
238.6903866278301
 20
175.2626397374923
 30
0.0
  0
SPLINE
  5
101
330
DA
100
AcDbEntity
  8
EXTERNAL_TEMP_BO
  6
Continuous
 62
     7
100
AcDbSpline
210
0.0
220
0.0
230
1.0
 70
     8
 71
     3
 72
    12
 73
     8
 74
     0
 42
0.000000001
 43
0.0000000001
 40
0.0
 40
0.0
 40
0.0
 40
0.0
 40
0.5
 40
0.5
 40
0.75
 40
0.75
 40
1.0
 40
1.0
 40
1.0
 40
1.0
 10
246.9368877501339
 20
175.0403800362302
 30
0.0
 10
246.8239113924583
 20
175.20165400874
 30
0.0
 10
246.7093189549834
 20
175.2997951007509
 30
0.0
 10
246.5336769916353
 20
175.3003821160534
 30
0.0
 10
246.4750751378157
 20
175.2763228261149
 30
0.0
 10
246.3597581654135
 20
175.1866056326419
 30
0.0
 10
246.3027068908276
 20
175.1211736303832
 30
0.0
 10
246.2461090043313
 20
175.0403800362302
 30
0.0
  0
LINE
  5
102
330
DA
100
AcDbEntity
  8
EXTERNAL_TEMP_BO
  6
Continuous
 62
     7
100
AcDbLine
 10
238.8432067844
 20
175.3512831562
 30
0.0
 11
246.5662067844
 21
175.3512831562
 31
0.0
  0
LINE
  5
103
330
DA
100
AcDbEntity
  8
EXTERNAL_TEMP_BO
  6
Continuous
 62
     7
100
AcDbLine
 10
238.9547067844
 20
169.9512831562
 30
0.0
 11
246.4547067844
 21
169.9512831562
 31
0.0
  0
ARC
  5
104
330
DA
100
AcDbEntity
  8
EXTERNAL_TEMP_BO
  6
Continuous
 62
     7
100
AcDbCircle
 10
244.0385836432
 20
180.2686293361
 30
0.0
 40
10.24455211222453
100
AcDbArc
 50
259.7408678888
 51
280.2591321112
  0
ARC
  5
105
330
DA
100
AcDbEntity
  8
EXTERNAL_TEMP_BO
  6
Continuous
 62
     7
100
AcDbCircle
 10
240.1517920504
 20
176.7852157893
 30
0.0
 40
6.76113858623444
100
AcDbArc
 50
257.3628964681
 51
282.6371035319
  0
SPLINE
  5
106
330
DA
100
AcDbEntity
  8
EXTERNAL_TEMP_BO
  6
Continuous
 62
     7
100
AcDbSpline
210
0.0
220
0.0
230
1.0
 70
     8
 71
     3
 72
     8
 73
     4
 74
     0
 42
0.000000001
 43
0.0000000001
 40
0.6846735716934831
 40
0.6846735716934831
 40
0.6846735716934831
 40
0.6846735716934831
 40
1.0
 40
1.0
 40
1.0
 40
1.0
 10
238.690346613273
 20
170.0478616446799
 30
0.0
 10
238.6177396817183
 20
170.0744555790793
 30
0.0
 10
238.5451327501636
 20
170.1225234829794
 30
0.0
 10
238.472525818609
 20
170.1878638084618
 30
0.0
  0
SPLINE
  5
107
330
DA
100
AcDbEntity
  8
EXTERNAL_TEMP_BO
  6
Continuous
 62
     7
100
AcDbSpline
210
0.0
220
0.0
230
1.0
 70
     8
 71
     3
 72
     9
 73
     5
 74
     0
 42
0.000000001
 43
0.0000000001
 40
0.0
 40
0.0
 40
0.0
 40
0.0
 40
0.5
 40
1.0
 40
1.0
 40
1.0
 40
1.0
 10
246.2461090043313
 20
170.1878638084619
 30
0.0
 10
246.3612387952983
 20
170.0842563724576
 30
0.0
 10
246.5914983772325
 20
169.9638980336264
 30
0.0
 10
246.8217579591667
 20
170.0842563724576
 30
0.0
 10
246.9368877501339
 20
170.1878638084619
 30
0.0
  0
LINE
  5
108
330
DA
100
AcDbEntity
  8
EXTERNAL_TEMP_BO
  6
Continuous
 62
     7
100
AcDbLine
 10
241.6309613522
 20
175.0403800362
 30
0.0
 11
242.2140249685
 21
175.0403800362
 31
0.0
  0
LINE
  5
109
330
DA
100
AcDbEntity
  8
EXTERNAL_TEMP_BO
  6
Continuous
 62
     7
100
AcDbLine
 10
242.2140249685
 20
170.1878638085
 30
0.0
 11
242.2140249685
 21
175.0403800362
 31
0.0
  0
LINE
  5
10A
330
DA
100
AcDbEntity
  8
EXTERNAL_TEMP_BO
  6
Continuous
 62
     7
100
AcDbLine
 10
241.6309613522
 20
175.0403800362
 30
0.0
 11
241.6309613522
 21
170.1878638085
 31
0.0
  0
LINE
  5
10B
330
DA
100
AcDbEntity
  8
EXTERNAL_TEMP_BO
  6
Continuous
 62
     7
100
AcDbLine
 10
238.4725258186
 20
175.0403800362
 30
0.0
 11
238.6726227485
 21
175.0403800362
 31
0.0
  0
LINE
  5
10C
330
DA
100
AcDbEntity
  8
EXTERNAL_TEMP_BO
  6
Continuous
 62
     7
100
AcDbLine
 10
238.6726227485
 20
170.1878638085
 30
0.0
 11
238.6726227485
 21
175.0403800362
 31
0.0
  0
LINE
  5
10D
330
DA
100
AcDbEntity
  8
EXTERNAL_TEMP_BO
  6
Continuous
 62
     7
100
AcDbLine
 10
238.4725258186
 20
175.0403800362
 30
0.0
 11
238.4725258186
 21
170.1878638085
 31
0.0
  0
LINE
  5
10E
330
DA
100
AcDbEntity
  8
EXTERNAL_TEMP_BO
  6
Continuous
 62
     7
100
AcDbLine
 10
246.9368877501
 20
175.0403800362
 30
0.0
 11
246.9368877501
 21
170.1878638085
 31
0.0
  0
LINE
  5
10F
330
DA
100
AcDbEntity
  8
EXTERNAL_TEMP_BO
  6
Continuous
 62
     7
100
AcDbLine
 10
245.863142318
 20
175.0403800362
 30
0.0
 11
246.2461090043
 21
175.0403800362
 31
0.0
  0
LINE
  5
110
330
DA
100
AcDbEntity
  8
EXTERNAL_TEMP_BO
  6
Continuous
 62
     7
100
AcDbLine
 10
245.863142318
 20
175.0403800362
 30
0.0
 11
245.863142318
 21
170.1878638085
 31
0.0
  0
LINE
  5
111
330
DA
100
AcDbEntity
  8
EXTERNAL_TEMP_BO
  6
Continuous
 62
     7
100
AcDbLine
 10
246.2461090043
 20
170.1878638085
 30
0.0
 11
246.2461090043
 21
175.0403800362
 31
0.0
  0
LINE
  5
112
330
DA
100
AcDbEntity
  8
EXTERNAL_TEMP_BO
  6
Continuous
 62
     7
100
AcDbLine
 10
233.9547067844
 20
225.3876263552
 30
0.0
 11
233.9547067844
 21
218.8448989007
 31
0.0
  0
LINE
  5
113
330
DA
100
AcDbEntity
  8
EXTERNAL_TEMP_BO
  6
Continuous
 62
     7
100
AcDbLine
 10
251.4547067844
 20
218.8448989007
 30
0.0
 11
251.4547067844
 21
225.3876263552
 31
0.0
  0
LINE
  5
114
330
DA
100
AcDbEntity
  8
EXTERNAL_TEMP_BO
  6
Continuous
 62
     7
100
AcDbLine
 10
238.687724515
 20
170.0484567553
 30
0.0
 11
238.9547067844
 21
169.9512831562
 31
0.0
  0
LINE
  5
115
330
DA
100
AcDbEntity
  8
EXTERNAL_TEMP_BO
  6
Continuous
 62
     7
100
AcDbLine
 10
246.4547067844
 20
169.9512831562
 30
0.0
 11
246.7216890537
 21
170.0484567553
 31
0.0
  0
LINE
  5
116
330
DA
100
AcDbEntity
  8
EXTERNAL_TEMP_BO
  6
Continuous
 62
     7
100
AcDbLine
 10
246.7209541742
 20
175.261939709
 30
0.0
 11
246.5662067844
 21
175.3512831562
 31
0.0
  0
LINE
  5
117
330
DA
100
AcDbEntity
  8
EXTERNAL_TEMP_BO
  6
Continuous
 62
     7
100
AcDbLine
 10
238.8432067844
 20
175.3512831562
 30
0.0
 11
238.6884593945
 21
175.261939709
 31
0.0
  0
LINE
  5
118
330
DA
100
AcDbEntity
  8
EXTERNAL_TEMP_BO
  6
Continuous
 62
     7
100
AcDbLine
 10
238.8432067844
 20
176.8876263552
 30
0.0
 11
238.8432067844
 21
175.3512831562
 31
0.0
  0
LINE
  5
119
330
DA
100
AcDbEntity
  8
EXTERNAL_TEMP_BO
  6
Continuous
 62
     7
100
AcDbLine
 10
246.5662067844
 20
175.3512831562
 30
0.0
 11
246.5662067844
 21
176.8876263552
 31
0.0
  0
ENDBLK
  5
11B
330
DA
100
AcDbEntity
  8
0
100
AcDbBlockEnd
  0
BLOCK
  5
17E
330
11C
100
AcDbEntity
  8
0
100
AcDbBlockBegin
  2
SE2
 70
     0
 10
0.0
 20
0.0
 30
0.0
  3
SE2
  1

  0
LINE
  5
11E
330
11C
100
AcDbEntity
  8
EXTERNAL_TEMP_BO
  6
Continuous
 62
     7
100
AcDbLine
 10
126.4407958706
 20
91.4389188671
 30
0.0
 11
126.4407958706
 21
132.4389188671
 31
0.0
  0
LINE
  5
11F
330
11C
100
AcDbEntity
  8
EXTERNAL_TEMP_BO
  6
Continuous
 62
     7
100
AcDbLine
 10
112.9407958706
 20
129.6610437232
 30
0.0
 11
112.9407958706
 21
129.6889188671
 31
0.0
  0
LINE
  5
120
330
11C
100
AcDbEntity
  8
EXTERNAL_TEMP_BO
  6
Continuous
 62
     7
100
AcDbLine
 10
112.9407958706
 20
121.6611389691
 30
0.0
 11
112.9407958706
 21
119.9388237196
 31
0.0
  0
LINE
  5
121
330
11C
100
AcDbEntity
  8
EXTERNAL_TEMP_BO
  6
Continuous
 62
     7
100
AcDbLine
 10
112.9407958706
 20
103.9390143457
 30
0.0
 11
112.9407958706
 21
102.2166986101
 31
0.0
  0
LINE
  5
122
330
11C
100
AcDbEntity
  8
EXTERNAL_TEMP_BO
  6
Continuous
 62
     7
100
AcDbLine
 10
112.9407958706
 20
94.2167939955
 30
0.0
 11
112.9407958706
 21
94.1889188671
 31
0.0
  0
LINE
  5
123
330
11C
100
AcDbEntity
  8
EXTERNAL_TEMP_BO
  6
Continuous
 62
     7
100
AcDbLine
 10
126.4407958706
 20
119.9388237196
 30
0.0
 11
112.9407958706
 21
119.9388237196
 31
0.0
  0
LINE
  5
124
330
11C
100
AcDbEntity
  8
EXTERNAL_TEMP_BO
  6
Continuous
 62
     7
100
AcDbLine
 10
126.4407958706
 20
102.2166986101
 30
0.0
 11
112.9407958706
 21
102.2166986101
 31
0.0
  0
LINE
  5
125
330
11C
100
AcDbEntity
  8
EXTERNAL_TEMP_BO
  6
Continuous
 62
     7
100
AcDbLine
 10
126.4407958706
 20
129.6610437284
 30
0.0
 11
112.9407958706
 21
129.6610437284
 31
0.0
  0
LINE
  5
126
330
11C
100
AcDbEntity
  8
EXTERNAL_TEMP_BO
  6
Continuous
 62
     7
100
AcDbLine
 10
112.9407958706
 20
103.9390143457
 30
0.0
 11
112.9407958706
 21
119.9388237196
 31
0.0
  0
LINE
  5
127
330
11C
100
AcDbEntity
  8
EXTERNAL_TEMP_BO
  6
Continuous
 62
     7
100
AcDbLine
 10
112.9407958706
 20
103.9390143457
 30
0.0
 11
126.4407958706
 21
103.9390143457
 31
0.0
  0
LINE
  5
128
330
11C
100
AcDbEntity
  8
EXTERNAL_TEMP_BO
  6
Continuous
 62
     7
100
AcDbLine
 10
112.9407958706
 20
94.2167939955
 30
0.0
 11
112.9407958706
 21
102.2166986101
 31
0.0
  0
LINE
  5
129
330
11C
100
AcDbEntity
  8
EXTERNAL_TEMP_BO
  6
Continuous
 62
     7
100
AcDbLine
 10
112.9407958706
 20
94.2167939955
 30
0.0
 11
126.4407958706
 21
94.2167939955
 31
0.0
  0
LINE
  5
12A
330
11C
100
AcDbEntity
  8
EXTERNAL_TEMP_BO
  6
Continuous
 62
     7
100
AcDbLine
 10
112.9407958706
 20
121.6611389691
 30
0.0
 11
112.9407958706
 21
129.6610437284
 31
0.0
  0
LINE
  5
12B
330
11C
100
AcDbEntity
  8
EXTERNAL_TEMP_BO
  6
Continuous
 62
     7
100
AcDbLine
 10
112.9407958706
 20
121.6611389691
 30
0.0
 11
126.4407958706
 21
121.6611389691
 31
0.0
  0
LINE
  5
12C
330
11C
100
AcDbEntity
  8
EXTERNAL_TEMP_BO
  6
Continuous
 62
     7
100
AcDbLine
 10
167.9407958706
 20
102.2166986101
 30
0.0
 11
167.9407958706
 21
103.9390143457
 31
0.0
  0
LINE
  5
12D
330
11C
100
AcDbEntity
  8
EXTERNAL_TEMP_BO
  6
Continuous
 62
     7
100
AcDbLine
 10
154.4407958706
 20
91.4389188671
 30
0.0
 11
154.4407958706
 21
132.4389188671
 31
0.0
  0
LINE
  5
12E
330
11C
100
AcDbEntity
  8
EXTERNAL_TEMP_BO
  6
Continuous
 62
     7
100
AcDbLine
 10
167.9407958706
 20
119.9388237196
 30
0.0
 11
167.9407958706
 21
121.6611389691
 31
0.0
  0
LINE
  5
12F
330
11C
100
AcDbEntity
  8
EXTERNAL_TEMP_BO
  6
Continuous
 62
     7
100
AcDbLine
 10
167.9407958706
 20
129.6889188671
 30
0.0
 11
167.9407958706
 21
129.6610437232
 31
0.0
  0
LINE
  5
130
330
11C
100
AcDbEntity
  8
EXTERNAL_TEMP_BO
  6
Continuous
 62
     7
100
AcDbLine
 10
167.9407958706
 20
94.1889188671
 30
0.0
 11
167.9407958706
 21
94.2167939955
 31
0.0
  0
LINE
  5
131
330
11C
100
AcDbEntity
  8
EXTERNAL_TEMP_BO
  6
Continuous
 62
     7
100
AcDbLine
 10
167.9407958706
 20
129.6610437284
 30
0.0
 11
167.9407958706
 21
121.6611389691
 31
0.0
  0
LINE
  5
132
330
11C
100
AcDbEntity
  8
EXTERNAL_TEMP_BO
  6
Continuous
 62
     7
100
AcDbLine
 10
167.9407958706
 20
102.2166986101
 30
0.0
 11
167.9407958706
 21
94.2167939955
 31
0.0
  0
LINE
  5
133
330
11C
100
AcDbEntity
  8
EXTERNAL_TEMP_BO
  6
Continuous
 62
     7
100
AcDbLine
 10
167.9407958706
 20
119.9388237196
 30
0.0
 11
167.9407958706
 21
103.9390143457
 31
0.0
  0
LINE
  5
134
330
11C
100
AcDbEntity
  8
EXTERNAL_TEMP_BO
  6
Continuous
 62
     7
100
AcDbLine
 10
154.4407958706
 20
129.6610437284
 30
0.0
 11
167.9407958706
 21
129.6610437284
 31
0.0
  0
LINE
  5
135
330
11C
100
AcDbEntity
  8
EXTERNAL_TEMP_BO
  6
Continuous
 62
     7
100
AcDbLine
 10
167.9407958706
 20
121.6611389691
 30
0.0
 11
154.4407958706
 21
121.6611389691
 31
0.0
  0
LINE
  5
136
330
11C
100
AcDbEntity
  8
EXTERNAL_TEMP_BO
  6
Continuous
 62
     7
100
AcDbLine
 10
154.4407958706
 20
102.2166986101
 30
0.0
 11
167.9407958706
 21
102.2166986101
 31
0.0
  0
LINE
  5
137
330
11C
100
AcDbEntity
  8
EXTERNAL_TEMP_BO
  6
Continuous
 62
     7
100
AcDbLine
 10
167.9407958706
 20
94.2167939955
 30
0.0
 11
154.4407958706
 21
94.2167939955
 31
0.0
  0
LINE
  5
138
330
11C
100
AcDbEntity
  8
EXTERNAL_TEMP_BO
  6
Continuous
 62
     7
100
AcDbLine
 10
154.4407958706
 20
119.9388237196
 30
0.0
 11
167.9407958706
 21
119.9388237196
 31
0.0
  0
LINE
  5
139
330
11C
100
AcDbEntity
  8
EXTERNAL_TEMP_BO
  6
Continuous
 62
     7
100
AcDbLine
 10
167.9407958706
 20
103.9390143457
 30
0.0
 11
154.4407958706
 21
103.9390143457
 31
0.0
  0
LINE
  5
13A
330
11C
100
AcDbEntity
  8
EXTERNAL_TEMP_BO
  6
Continuous
 62
     7
100
AcDbLine
 10
152.6907958706
 20
106.2106992484
 30
0.0
 11
151.5510388923
 21
106.2106992484
 31
0.0
  0
SPLINE
  5
13B
330
11C
100
AcDbEntity
  8
EXTERNAL_TEMP_BO
  6
Continuous
 62
     7
100
AcDbSpline
210
0.0
220
0.0
230
1.0
 70
     8
 71
     3
 72
    14
 73
    10
 74
     0
 42
0.000000001
 43
0.0000000001
 40
0.0
 40
0.0
 40
0.0
 40
0.0
 40
0.5
 40
0.5
 40
0.625
 40
0.625
 40
0.75
 40
0.75
 40
1.0
 40
1.0
 40
1.0
 40
1.0
 10
128.1907958706203
 20
106.2106992484418
 30
0.0
 10
127.7106303264997
 20
108.0757959220779
 30
0.0
 10
127.442242959753
 20
109.9767793203837
 30
0.0
 10
127.4404414668612
 20
112.4095525421923
 30
0.0
 10
127.4568366884993
 20
112.9008665362193
 30
0.0
 10
127.5221867942988
 20
113.8732831146487
 30
0.0
 10
127.5709966963576
 20
114.3556950820177
 30
0.0
 10
127.7627440866678
 20
115.792268317708
 30
0.0
 10
127.9510150965395
 20
116.7357631932559
 30
0.0
 10
128.1907958706203
 20
117.6671384858315
 30
0.0
  0
SPLINE
  5
13C
330
11C
100
AcDbEntity
  8
EXTERNAL_TEMP_BO
  6
Continuous
 62
     7
100
AcDbSpline
210
0.0
220
0.0
230
1.0
 70
     8
 71
     3
 72
    14
 73
    10
 74
     0
 42
0.000000001
 43
0.0000000001
 40
0.0
 40
0.0
 40
0.0
 40
0.0
 40
0.4999999999999999
 40
0.4999999999999999
 40
0.6249999999999999
 40
0.6249999999999999
 40
0.7499999999999998
 40
0.7499999999999998
 40
1.0
 40
1.0
 40
1.0
 40
1.0
 10
152.6907958706203
 20
117.6671384858315
 30
0.0
 10
153.1757422474836
 20
115.7834717266184
 30
0.0
 10
153.4389981236442
 20
113.8818072001173
 30
0.0
 10
153.4412336832028
 20
111.4781927600019
 30
0.0
 10
153.4255411633957
 20
110.9961595887918
 30
0.0
 10
153.3615587798944
 20
110.0294468568889
 30
0.0
 10
153.3130138291205
 20
109.5430039566926
 30
0.0
 10
153.1205712461429
 20
108.0931404600371
 30
0.0
 10
152.9311886515953
 20
107.1444517462054
 30
0.0
 10
152.6907958706203
 20
106.2106992484418
 30
0.0
  0
LINE
  5
13D
330
11C
100
AcDbEntity
  8
EXTERNAL_TEMP_BO
  6
Continuous
 62
     7
100
AcDbLine
 10
152.6907958706
 20
134.1889188671
 30
0.0
 11
152.6907958706
 21
117.6671384858
 31
0.0
  0
LINE
  5
13E
330
11C
100
AcDbEntity
  8
EXTERNAL_TEMP_BO
  6
Continuous
 62
     7
100
AcDbLine
 10
128.1907958706
 20
134.1889188671
 30
0.0
 11
128.1907958706
 21
117.6671384858
 31
0.0
  0
LINE
  5
13F
330
11C
100
AcDbEntity
  8
EXTERNAL_TEMP_BO
  6
Continuous
 62
     7
100
AcDbLine
 10
152.6907958706
 20
117.6671384858
 30
0.0
 11
151.5510388923
 21
117.6671384858
 31
0.0
  0
LINE
  5
140
330
11C
100
AcDbEntity
  8
EXTERNAL_TEMP_BO
  6
Continuous
 62
     7
100
AcDbLine
 10
152.6907958706
 20
89.6889188671
 30
0.0
 11
152.6907958706
 21
106.2106992484
 31
0.0
  0
LINE
  5
141
330
11C
100
AcDbEntity
  8
EXTERNAL_TEMP_BO
  6
Continuous
 62
     7
100
AcDbLine
 10
140.9407958706
 20
101.2238593713
 30
0.0
 11
140.9407958706
 21
89.6889188671
 31
0.0
  0
LINE
  5
142
330
11C
100
AcDbEntity
  8
EXTERNAL_TEMP_BO
  6
Continuous
 62
     7
100
AcDbLine
 10
139.9407958706
 20
101.2238593713
 30
0.0
 11
139.9407958706
 21
89.6889188671
 31
0.0
  0
LINE
  5
143
330
11C
100
AcDbEntity
  8
EXTERNAL_TEMP_BO
  6
Continuous
 62
     7
100
AcDbLine
 10
128.1907958706
 20
89.6889188671
 30
0.0
 11
128.1907958706
 21
106.2106992484
 31
0.0
  0
LINE
  5
144
330
11C
100
AcDbEntity
  8
EXTERNAL_TEMP_BO
  6
Continuous
 62
     7
100
AcDbLine
 10
129.330552849
 20
106.2106992484
 30
0.0
 11
128.1907958706
 21
106.2106992484
 31
0.0
  0
LINE
  5
145
330
11C
100
AcDbEntity
  8
EXTERNAL_TEMP_BO
  6
Continuous
 62
     7
100
AcDbLine
 10
129.330552849
 20
117.6671384858
 30
0.0
 11
128.1907958706
 21
117.6671384858
 31
0.0
  0
ARC
  5
146
330
11C
100
AcDbEntity
  8
EXTERNAL_TEMP_BO
  6
Continuous
 62
     7
100
AcDbCircle
 10
140.4407958706
 20
111.9389188671
 30
0.0
 40
12.5
100
AcDbArc
 50
332.7252713196
 51
27.2747286804
  0
ARC
  5
147
330
11C
100
AcDbEntity
  8
EXTERNAL_TEMP_BO
  6
Continuous
 62
     7
100
AcDbCircle
 10
140.4407958706
 20
111.9389188671
 30
0.0
 40
12.5
100
AcDbArc
 50
152.7252713196
 51
207.2747286804
  0
LINE
  5
148
330
11C
100
AcDbEntity
  8
EXTERNAL_TEMP_BO
  6
Continuous
 62
     7
100
AcDbLine
 10
140.9407958706
 20
134.1889188671
 30
0.0
 11
140.9407958706
 21
122.653978363
 31
0.0
  0
LINE
  5
149
330
11C
100
AcDbEntity
  8
EXTERNAL_TEMP_BO
  6
Continuous
 62
     7
100
AcDbLine
 10
143.8686231708
 20
122.653978363
 30
0.0
 11
140.9407958706
 21
122.653978363
 31
0.0
  0
ARC
  5
14A
330
11C
100
AcDbEntity
  8
EXTERNAL_TEMP_BO
  6
Continuous
 62
     7
100
AcDbCircle
 10
140.4540817758
 20
111.9689949085
 30
0.0
 40
11.21730646636946
100
AcDbArc
 50
60.0557383194
 51
72.2779657715
  0
ARC
  5
14B
330
11C
100
AcDbEntity
  8
EXTERNAL_TEMP_BO
  6
Continuous
 62
     7
100
AcDbCircle
 10
141.4483442027
 20
108.8322700923
 30
0.0
 40
13.65645888890369
100
AcDbArc
 50
45.2707685541
 51
70.2937155098
  0
LINE
  5
14C
330
11C
100
AcDbEntity
  8
EXTERNAL_TEMP_BO
  6
Continuous
 62
     7
100
AcDbLine
 10
140.4407958706
 20
133.6889188671
 30
0.0
 11
140.4407958706
 21
121.5728433011
 31
0.0
  0
LINE
  5
14D
330
11C
100
AcDbEntity
  8
EXTERNAL_TEMP_BO
  6
Continuous
 62
     7
100
AcDbLine
 10
139.9407958706
 20
134.1889188671
 30
0.0
 11
139.9407958706
 21
122.653978363
 31
0.0
  0
ARC
  5
14E
330
11C
100
AcDbEntity
  8
EXTERNAL_TEMP_BO
  6
Continuous
 62
     7
100
AcDbCircle
 10
139.4332475386
 20
115.045567642
 30
0.0
 40
13.65645888890366
100
AcDbArc
 50
225.2707685541
 51
250.2937155098
  0
ARC
  5
14F
330
11C
100
AcDbEntity
  8
EXTERNAL_TEMP_BO
  6
Continuous
 62
     7
100
AcDbCircle
 10
141.502046157
 20
114.9603489718
 30
0.0
 40
13.55814051298882
100
AcDbArc
 50
289.61406949
 51
314.8214464461
  0
ARC
  5
150
330
11C
100
AcDbEntity
  8
EXTERNAL_TEMP_BO
  6
Continuous
 62
     7
100
AcDbCircle
 10
140.4407958706
 20
111.9389188671
 30
0.0
 40
11.25
100
AcDbArc
 50
119.9264348666
 51
240.0735651334
  0
ARC
  5
151
330
11C
100
AcDbEntity
  8
EXTERNAL_TEMP_BO
  6
Continuous
 62
     7
100
AcDbCircle
 10
140.4407958706
 20
111.9389188671
 30
0.0
 40
11.25
100
AcDbArc
 50
299.9264348666
 51
60.0735651334
  0
ARC
  5
152
330
11C
100
AcDbEntity
  8
EXTERNAL_TEMP_BO
  6
Continuous
 62
     7
100
AcDbCircle
 10
140.4275099655
 20
111.9088428257
 30
0.0
 40
11.21730646636946
100
AcDbArc
 50
240.0557383194
 51
252.2779657715
  0
ARC
  5
153
330
11C
100
AcDbEntity
  8
EXTERNAL_TEMP_BO
  6
Continuous
 62
     7
100
AcDbCircle
 10
140.4540817758
 20
111.9088428257
 30
0.0
 40
11.21730646636957
100
AcDbArc
 50
287.7220342285
 51
299.9442616806
  0
LINE
  5
154
330
11C
100
AcDbEntity
  8
EXTERNAL_TEMP_BO
  6
Continuous
 62
     7
100
AcDbLine
 10
137.0129685704
 20
101.2238593713
 30
0.0
 11
139.9407958706
 21
101.2238593713
 31
0.0
  0
LINE
  5
155
330
11C
100
AcDbEntity
  8
EXTERNAL_TEMP_BO
  6
Continuous
 62
     7
100
AcDbLine
 10
139.9407958706
 20
101.2238593713
 30
0.0
 11
140.4407958706
 21
102.3049944331
 31
0.0
  0
LINE
  5
156
330
11C
100
AcDbEntity
  8
EXTERNAL_TEMP_BO
  6
Continuous
 62
     7
100
AcDbLine
 10
140.4407958706
 20
102.3049944331
 30
0.0
 11
140.9407958706
 21
101.2238593713
 31
0.0
  0
LINE
  5
157
330
11C
100
AcDbEntity
  8
EXTERNAL_TEMP_BO
  6
Continuous
 62
     7
100
AcDbLine
 10
140.9407958706
 20
101.2238593713
 30
0.0
 11
143.8686231708
 21
101.2238593713
 31
0.0
  0
LINE
  5
158
330
11C
100
AcDbEntity
  8
EXTERNAL_TEMP_BO
  6
Continuous
 62
     7
100
AcDbLine
 10
129.330552849
 20
106.2106992484
 30
0.0
 11
129.8224155798
 21
105.343465888
 31
0.0
  0
LINE
  5
159
330
11C
100
AcDbEntity
  8
EXTERNAL_TEMP_BO
  6
Continuous
 62
     7
100
AcDbLine
 10
151.0591761614
 20
105.343465888
 30
0.0
 11
151.5510388923
 21
106.2106992484
 31
0.0
  0
LINE
  5
15A
330
11C
100
AcDbEntity
  8
EXTERNAL_TEMP_BO
  6
Continuous
 62
     7
100
AcDbLine
 10
129.8224155798
 20
118.5343718463
 30
0.0
 11
129.330552849
 21
117.6671384858
 31
0.0
  0
LINE
  5
15B
330
11C
100
AcDbEntity
  8
EXTERNAL_TEMP_BO
  6
Continuous
 62
     7
100
AcDbLine
 10
151.5510388923
 20
117.6671384858
 30
0.0
 11
151.0591761614
 21
118.5343718463
 31
0.0
  0
ARC
  5
15C
330
11C
100
AcDbEntity
  8
EXTERNAL_TEMP_BO
  6
Continuous
 62
     7
100
AcDbCircle
 10
139.3795455843
 20
108.9174887624
 30
0.0
 40
13.55814051298874
100
AcDbArc
 50
109.61406949
 51
134.8214464461
  0
ARC
  5
15D
330
11C
100
AcDbEntity
  8
EXTERNAL_TEMP_BO
  6
Continuous
 62
     7
100
AcDbCircle
 10
140.4275099655
 20
111.9689949085
 30
0.0
 40
11.21730646636957
100
AcDbArc
 50
107.7220342285
 51
119.9442616806
  0
LINE
  5
15E
330
11C
100
AcDbEntity
  8
EXTERNAL_TEMP_BO
  6
Continuous
 62
     7
100
AcDbLine
 10
140.4407958706
 20
121.5728433011
 30
0.0
 11
139.9407958706
 21
122.653978363
 31
0.0
  0
LINE
  5
15F
330
11C
100
AcDbEntity
  8
EXTERNAL_TEMP_BO
  6
Continuous
 62
     7
100
AcDbLine
 10
139.9407958706
 20
122.653978363
 30
0.0
 11
137.0129685704
 21
122.653978363
 31
0.0
  0
LINE
  5
160
330
11C
100
AcDbEntity
  8
EXTERNAL_TEMP_BO
  6
Continuous
 62
     7
100
AcDbLine
 10
140.9407958706
 20
122.653978363
 30
0.0
 11
140.4407958706
 21
121.5728433011
 31
0.0
  0
LINE
  5
161
330
11C
100
AcDbEntity
  8
EXTERNAL_TEMP_BO
  6
Continuous
 62
     7
100
AcDbLine
 10
140.4407958706
 20
102.3049944331
 30
0.0
 11
140.4407958706
 21
90.1889188671
 31
0.0
  0
ARC
  5
162
330
11C
100
AcDbEntity
  8
EXTERNAL_TEMP_BO
  6
Continuous
 62
     7
100
AcDbCircle
 10
140.4407958706
 20
111.9389188671
 30
0.0
 40
8.750000000000004
100
AcDbArc
 50
325.0803421986
 51
334.9196578014
  0
ARC
  5
163
330
11C
100
AcDbEntity
  8
EXTERNAL_TEMP_BO
  6
Continuous
 62
     7
100
AcDbCircle
 10
140.4407958706
 20
111.9389188671
 30
0.0
 40
8.749999999999998
100
AcDbArc
 50
25.0803421986
 51
34.9196578014
  0
ARC
  5
164
330
11C
100
AcDbEntity
  8
EXTERNAL_TEMP_BO
  6
Continuous
 62
     7
100
AcDbCircle
 10
140.4407958706
 20
111.9389188671
 30
0.0
 40
8.749999999999996
100
AcDbArc
 50
85.0803421986
 51
94.9196578014
  0
ARC
  5
165
330
11C
100
AcDbEntity
  8
EXTERNAL_TEMP_BO
  6
Continuous
 62
     7
100
AcDbCircle
 10
140.4407958706
 20
111.9389188671
 30
0.0
 40
8.749999999999998
100
AcDbArc
 50
145.0803421986
 51
154.9196578014
  0
ARC
  5
166
330
11C
100
AcDbEntity
  8
EXTERNAL_TEMP_BO
  6
Continuous
 62
     7
100
AcDbCircle
 10
140.4407958706
 20
111.9389188671
 30
0.0
 40
8.749999999999998
100
AcDbArc
 50
205.0803421986
 51
214.9196578014
  0
ARC
  5
167
330
11C
100
AcDbEntity
  8
EXTERNAL_TEMP_BO
  6
Continuous
 62
     7
100
AcDbCircle
 10
140.4407958706
 20
111.9389188671
 30
0.0
 40
8.75
100
AcDbArc
 50
265.0803421986
 51
274.9196578014
  0
LINE
  5
168
330
11C
100
AcDbEntity
  8
EXTERNAL_TEMP_BO
  6
Continuous
 62
     7
100
AcDbLine
 10
147.615406742
 20
106.9301806184
 30
0.0
 11
141.1911849992
 21
103.2211544659
 31
0.0
  0
LINE
  5
169
330
11C
100
AcDbEntity
  8
EXTERNAL_TEMP_BO
  6
Continuous
 62
     7
100
AcDbLine
 10
148.3657958706
 20
115.6479450196
 30
0.0
 11
148.3657958706
 21
108.2298927146
 31
0.0
  0
LINE
  5
16A
330
11C
100
AcDbEntity
  8
EXTERNAL_TEMP_BO
  6
Continuous
 62
     7
100
AcDbLine
 10
141.1911849992
 20
120.6566832684
 30
0.0
 11
147.615406742
 21
116.9476571159
 31
0.0
  0
LINE
  5
16B
330
11C
100
AcDbEntity
  8
EXTERNAL_TEMP_BO
  6
Continuous
 62
     7
100
AcDbLine
 10
133.2661849992
 20
116.9476571159
 30
0.0
 11
139.690406742
 21
120.6566832684
 31
0.0
  0
LINE
  5
16C
330
11C
100
AcDbEntity
  8
EXTERNAL_TEMP_BO
  6
Continuous
 62
     7
100
AcDbLine
 10
132.5157958706
 20
108.2298927146
 30
0.0
 11
132.5157958706
 21
115.6479450196
 31
0.0
  0
LINE
  5
16D
330
11C
100
AcDbEntity
  8
EXTERNAL_TEMP_BO
  6
Continuous
 62
     7
100
AcDbLine
 10
139.690406742
 20
103.2211544659
 30
0.0
 11
133.2661849992
 21
106.9301806184
 31
0.0
  0
LINE
  5
16E
330
11C
100
AcDbEntity
  8
EXTERNAL_TEMP_BO
  6
Continuous
 62
     7
100
AcDbLine
 10
126.4407958706
 20
129.6889188671
 30
0.0
 11
112.9407958706
 21
129.6889188671
 31
0.0
  0
LINE
  5
16F
330
11C
100
AcDbEntity
  8
EXTERNAL_TEMP_BO
  6
Continuous
 62
     7
100
AcDbLine
 10
112.9407958706
 20
94.1889188671
 30
0.0
 11
126.4407958706
 21
94.1889188671
 31
0.0
  0
LINE
  5
170
330
11C
100
AcDbEntity
  8
EXTERNAL_TEMP_BO
  6
Continuous
 62
     7
100
AcDbLine
 10
154.4407958706
 20
94.1889188671
 30
0.0
 11
167.9407958706
 21
94.1889188671
 31
0.0
  0
LINE
  5
171
330
11C
100
AcDbEntity
  8
EXTERNAL_TEMP_BO
  6
Continuous
 62
     7
100
AcDbLine
 10
167.9407958706
 20
129.6889188671
 30
0.0
 11
154.4407958706
 21
129.6889188671
 31
0.0
  0
LINE
  5
172
330
11C
100
AcDbEntity
  8
EXTERNAL_TEMP_BO
  6
Continuous
 62
     7
100
AcDbLine
 10
152.6907958706
 20
134.1889188671
 30
0.0
 11
140.9407958706
 21
134.1889188671
 31
0.0
  0
LINE
  5
173
330
11C
100
AcDbEntity
  8
EXTERNAL_TEMP_BO
  6
Continuous
 62
     7
100
AcDbLine
 10
140.9407958706
 20
89.6889188671
 30
0.0
 11
152.6907958706
 21
89.6889188671
 31
0.0
  0
LINE
  5
174
330
11C
100
AcDbEntity
  8
EXTERNAL_TEMP_BO
  6
Continuous
 62
     7
100
AcDbLine
 10
152.6907958706
 20
89.6889188671
 30
0.0
 11
154.4407958706
 21
91.4389188671
 31
0.0
  0
LINE
  5
175
330
11C
100
AcDbEntity
  8
EXTERNAL_TEMP_BO
  6
Continuous
 62
     7
100
AcDbLine
 10
154.4407958706
 20
132.4389188671
 30
0.0
 11
152.6907958706
 21
134.1889188671
 31
0.0
  0
LINE
  5
176
330
11C
100
AcDbEntity
  8
EXTERNAL_TEMP_BO
  6
Continuous
 62
     7
100
AcDbLine
 10
140.9407958706
 20
134.1889188671
 30
0.0
 11
140.4407958706
 21
133.6889188671
 31
0.0
  0
LINE
  5
177
330
11C
100
AcDbEntity
  8
EXTERNAL_TEMP_BO
  6
Continuous
 62
     7
100
AcDbLine
 10
140.4407958706
 20
90.1889188671
 30
0.0
 11
140.9407958706
 21
89.6889188671
 31
0.0
  0
LINE
  5
178
330
11C
100
AcDbEntity
  8
EXTERNAL_TEMP_BO
  6
Continuous
 62
     7
100
AcDbLine
 10
140.4407958706
 20
133.6889188671
 30
0.0
 11
139.9407958706
 21
134.1889188671
 31
0.0
  0
LINE
  5
179
330
11C
100
AcDbEntity
  8
EXTERNAL_TEMP_BO
  6
Continuous
 62
     7
100
AcDbLine
 10
139.9407958706
 20
89.6889188671
 30
0.0
 11
140.4407958706
 21
90.1889188671
 31
0.0
  0
LINE
  5
17A
330
11C
100
AcDbEntity
  8
EXTERNAL_TEMP_BO
  6
Continuous
 62
     7
100
AcDbLine
 10
128.1907958706
 20
134.1889188671
 30
0.0
 11
126.4407958706
 21
132.4389188671
 31
0.0
  0
LINE
  5
17B
330
11C
100
AcDbEntity
  8
EXTERNAL_TEMP_BO
  6
Continuous
 62
     7
100
AcDbLine
 10
126.4407958706
 20
91.4389188671
 30
0.0
 11
128.1907958706
 21
89.6889188671
 31
0.0
  0
LINE
  5
17C
330
11C
100
AcDbEntity
  8
EXTERNAL_TEMP_BO
  6
Continuous
 62
     7
100
AcDbLine
 10
139.9407958706
 20
134.1889188671
 30
0.0
 11
128.1907958706
 21
134.1889188671
 31
0.0
  0
LINE
  5
17D
330
11C
100
AcDbEntity
  8
EXTERNAL_TEMP_BO
  6
Continuous
 62
     7
100
AcDbLine
 10
128.1907958706
 20
89.6889188671
 30
0.0
 11
139.9407958706
 21
89.6889188671
 31
0.0
  0
ENDBLK
  5
17F
330
11C
100
AcDbEntity
  8
0
100
AcDbBlockEnd
  0
BLOCK
  5
1C0
330
180
100
AcDbEntity
  8
0
100
AcDbBlockBegin
  2
SE3
 70
     0
 10
0.0
 20
0.0
 30
0.0
  3
SE3
  1

  0
ARC
  5
182
330
180
100
AcDbEntity
  8
EXTERNAL_TEMP_BO
  6
Continuous
 62
     7
100
AcDbCircle
 10
215.3578984959
 20
111.9389188671
 30
0.0
 40
17.75000000000001
100
AcDbArc
 50
206.7885303455
 51
213.2114699537
  0
CIRCLE
  5
183
330
180
100
AcDbEntity
  8
EXTERNAL_TEMP_BO
  6
Continuous
 62
     7
100
AcDbCircle
 10
215.3578984959
 20
111.9389188671
 30
0.0
 40
20.5
  0
ARC
  5
184
330
180
100
AcDbEntity
  8
EXTERNAL_TEMP_BO
  6
Continuous
 62
     7
100
AcDbCircle
 10
215.3578984959
 20
111.9389188671
 30
0.0
 40
17.75
100
AcDbArc
 50
146.7885312432
 51
153.211469056
  0
ARC
  5
185
330
180
100
AcDbEntity
  8
EXTERNAL_TEMP_BO
  6
Continuous
 62
     7
100
AcDbCircle
 10
215.3578984959
 20
111.9389188671
 30
0.0
 40
17.75
100
AcDbArc
 50
86.7885303455
 51
93.2114699537
  0
ARC
  5
186
330
180
100
AcDbEntity
  8
EXTERNAL_TEMP_BO
  6
Continuous
 62
     7
100
AcDbCircle
 10
215.3578984959
 20
111.9389188671
 30
0.0
 40
17.75000000000001
100
AcDbArc
 50
26.7885312432
 51
33.211469056
  0
ARC
  5
187
330
180
100
AcDbEntity
  8
EXTERNAL_TEMP_BO
  6
Continuous
 62
     7
100
AcDbCircle
 10
215.3578984959
 20
111.9389188671
 30
0.0
 40
17.75000000000001
100
AcDbArc
 50
326.7885303455
 51
333.2114699537
  0
ARC
  5
188
330
180
100
AcDbEntity
  8
EXTERNAL_TEMP_BO
  6
Continuous
 62
     7
100
AcDbCircle
 10
215.3578984959
 20
111.9389188671
 30
0.0
 40
17.75000000000001
100
AcDbArc
 50
266.7885312432
 51
273.211469056
  0
LINE
  5
189
330
180
100
AcDbEntity
  8
EXTERNAL_TEMP_BO
  6
Continuous
 62
     7
100
AcDbLine
 10
231.2028985795
 20
103.9390143457
 30
0.0
 11
231.2028984124
 21
119.9388237196
 31
0.0
  0
LINE
  5
18A
330
180
100
AcDbEntity
  8
EXTERNAL_TEMP_BO
  6
Continuous
 62
     7
100
AcDbLine
 10
216.3522777167
 20
94.2167939955
 30
0.0
 11
230.2085191319
 21
102.2166986101
 31
0.0
  0
LINE
  5
18B
330
180
100
AcDbEntity
  8
EXTERNAL_TEMP_BO
  6
Continuous
 62
     7
100
AcDbLine
 10
200.5072779108
 20
102.2166985325
 30
0.0
 11
214.3635193678
 21
94.2167939903
 31
0.0
  0
LINE
  5
18C
330
180
100
AcDbEntity
  8
EXTERNAL_TEMP_BO
  6
Continuous
 62
     7
100
AcDbLine
 10
199.5128985377
 20
119.9388236368
 30
0.0
 11
199.5128984542
 21
103.939014263
 31
0.0
  0
LINE
  5
18D
330
180
100
AcDbEntity
  8
EXTERNAL_TEMP_BO
  6
Continuous
 62
     7
100
AcDbLine
 10
214.3635189976
 20
129.6610437232
 30
0.0
 11
200.5072777077
 21
121.6611388915
 31
0.0
  0
LINE
  5
18E
330
180
100
AcDbEntity
  8
EXTERNAL_TEMP_BO
  6
Continuous
 62
     7
100
AcDbLine
 10
230.2085192335
 20
121.6611389691
 30
0.0
 11
216.3522779018
 21
129.6610437284
 31
0.0
  0
CIRCLE
  5
18F
330
180
100
AcDbEntity
  8
EXTERNAL_TEMP_BO
  6
Continuous
 62
     7
100
AcDbCircle
 10
215.3578984959
 20
111.9389188671
 30
0.0
 40
11.43
  0
LINE
  5
190
330
180
100
AcDbEntity
  8
EXTERNAL_TEMP_BO
  6
Continuous
 62
     7
100
AcDbLine
 10
236.8578984959
 20
106.2106992484
 30
0.0
 11
236.8578984959
 21
117.6671384858
 31
0.0
  0
ARC
  5
191
330
180
100
AcDbEntity
  8
EXTERNAL_TEMP_BO
  6
Continuous
 62
     7
100
AcDbCircle
 10
215.3578984959
 20
111.9389188671
 30
0.0
 40
22.25
100
AcDbArc
 50
14.9186935242
 51
165.0813064758
  0
ARC
  5
192
330
180
100
AcDbEntity
  8
EXTERNAL_TEMP_BO
  6
Continuous
 62
     7
100
AcDbCircle
 10
215.3578984959
 20
111.9389188671
 30
0.0
 40
22.25
100
AcDbArc
 50
194.9186935242
 51
345.0813064758
  0
LINE
  5
193
330
180
100
AcDbEntity
  8
EXTERNAL_TEMP_BO
  6
Continuous
 62
     7
100
AcDbLine
 10
193.8578984959
 20
117.6671384858
 30
0.0
 11
193.8578984959
 21
106.2106992484
 31
0.0
  0
LINE
  5
194
330
180
100
AcDbEntity
  8
EXTERNAL_TEMP_BO
  6
Continuous
 62
     7
100
AcDbLine
 10
242.3578984959
 20
120.6566832684
 30
0.0
 11
242.3578984959
 21
120.6889188671
 31
0.0
  0
LINE
  5
195
330
180
100
AcDbEntity
  8
EXTERNAL_TEMP_BO
  6
Continuous
 62
     7
100
AcDbLine
 10
242.3578984959
 20
116.9476571159
 30
0.0
 11
242.3578984959
 21
115.6479450196
 31
0.0
  0
LINE
  5
196
330
180
100
AcDbEntity
  8
EXTERNAL_TEMP_BO
  6
Continuous
 62
     7
100
AcDbLine
 10
242.3578984959
 20
108.2298927146
 30
0.0
 11
242.3578984959
 21
106.9301806184
 31
0.0
  0
LINE
  5
197
330
180
100
AcDbEntity
  8
EXTERNAL_TEMP_BO
  6
Continuous
 62
     7
100
AcDbLine
 10
242.3578984959
 20
103.2211544659
 30
0.0
 11
242.3578984959
 21
103.1889188671
 31
0.0
  0
LINE
  5
198
330
180
100
AcDbEntity
  8
EXTERNAL_TEMP_BO
  6
Continuous
 62
     7
100
AcDbLine
 10
242.3578984959
 20
116.9476571159
 30
0.0
 11
242.3578984959
 21
120.6566832684
 31
0.0
  0
LINE
  5
199
330
180
100
AcDbEntity
  8
EXTERNAL_TEMP_BO
  6
Continuous
 62
     7
100
AcDbLine
 10
242.3578984959
 20
120.6566832684
 30
0.0
 11
235.8289288521
 21
120.6566832684
 31
0.0
  0
LINE
  5
19A
330
180
100
AcDbEntity
  8
EXTERNAL_TEMP_BO
  6
Continuous
 62
     7
100
AcDbLine
 10
242.3578984959
 20
116.9476571159
 30
0.0
 11
236.8578984959
 21
116.9476571159
 31
0.0
  0
LINE
  5
19B
330
180
100
AcDbEntity
  8
EXTERNAL_TEMP_BO
  6
Continuous
 62
     7
100
AcDbLine
 10
242.3578984959
 20
108.2298927146
 30
0.0
 11
242.3578984959
 21
115.6479450196
 31
0.0
  0
LINE
  5
19C
330
180
100
AcDbEntity
  8
EXTERNAL_TEMP_BO
  6
Continuous
 62
     7
100
AcDbLine
 10
242.3578984959
 20
115.6479450196
 30
0.0
 11
236.8578984959
 21
115.6479450196
 31
0.0
  0
LINE
  5
19D
330
180
100
AcDbEntity
  8
EXTERNAL_TEMP_BO
  6
Continuous
 62
     7
100
AcDbLine
 10
242.3578984959
 20
108.2298927146
 30
0.0
 11
236.8578984959
 21
108.2298927146
 31
0.0
  0
LINE
  5
19E
330
180
100
AcDbEntity
  8
EXTERNAL_TEMP_BO
  6
Continuous
 62
     7
100
AcDbLine
 10
242.3578984959
 20
103.2211544659
 30
0.0
 11
242.3578984959
 21
106.9301806184
 31
0.0
  0
LINE
  5
19F
330
180
100
AcDbEntity
  8
EXTERNAL_TEMP_BO
  6
Continuous
 62
     7
100
AcDbLine
 10
242.3578984959
 20
106.9301806184
 30
0.0
 11
236.8578984959
 21
106.9301806184
 31
0.0
  0
LINE
  5
1A0
330
180
100
AcDbEntity
  8
EXTERNAL_TEMP_BO
  6
Continuous
 62
     7
100
AcDbLine
 10
242.3578984959
 20
103.2211544659
 30
0.0
 11
235.8289288521
 21
103.2211544659
 31
0.0
  0
LINE
  5
1A1
330
180
100
AcDbEntity
  8
EXTERNAL_TEMP_BO
  6
Continuous
 62
     7
100
AcDbLine
 10
187.1581359492
 20
112.429600683
 30
0.0
 11
187.1581359492
 21
113.0126642993
 31
0.0
  0
LINE
  5
1A2
330
180
100
AcDbEntity
  8
EXTERNAL_TEMP_BO
  6
Continuous
 62
     7
100
AcDbLine
 10
187.1581359492
 20
115.971002903
 30
0.0
 11
187.1581359492
 21
116.1710998329
 31
0.0
  0
LINE
  5
1A3
330
180
100
AcDbEntity
  8
EXTERNAL_TEMP_BO
  6
Continuous
 62
     7
100
AcDbLine
 10
187.1581359492
 20
108.3975166472
 30
0.0
 11
187.1581359492
 21
108.7804833335
 31
0.0
  0
ARC
  5
1A4
330
180
100
AcDbEntity
  8
EXTERNAL_TEMP_BO
  6
Continuous
 62
     7
100
AcDbCircle
 10
185.6984263201
 20
110.6050420083
 30
0.0
 40
6.570632361152636
100
AcDbArc
 50
343.8779801749
 51
16.1220198251
  0
ARC
  5
1A5
330
180
100
AcDbEntity
  8
EXTERNAL_TEMP_BO
  6
Continuous
 62
     7
100
AcDbCircle
 10
187.9032861961
 20
114.4918336011
 30
0.0
 40
4.365592413907543
100
AcDbArc
 50
340.1947326524
 51
19.8052673476
  0
SPLINE
  5
1A6
330
180
100
AcDbEntity
  8
EXTERNAL_TEMP_BO
  6
Continuous
 62
     7
100
AcDbSpline
210
0.0
220
0.0
230
1.0
 70
     8
 71
     3
 72
     8
 73
     4
 74
     0
 42
0.000000001
 43
0.0000000001
 40
0.0
 40
0.0
 40
0.0
 40
0.0
 40
0.3181630126491282
 40
0.3181630126491282
 40
0.3181630126491282
 40
0.3181630126491282
 10
192.0106521769816
 20
116.1710998328991
 30
0.0
 10
192.1132750028927
 20
116.0992100362668
 30
0.0
 10
192.1903346429937
 20
116.0266658714531
 30
0.0
 10
192.2329118782437
 20
115.9532390236781
 30
0.0
  0
SPLINE
  5
1A7
330
180
100
AcDbEntity
  8
EXTERNAL_TEMP_BO
  6
Continuous
 62
     7
100
AcDbSpline
210
0.0
220
0.0
230
1.0
 70
     8
 71
     3
 72
    12
 73
     8
 74
     0
 42
0.000000001
 43
0.0000000001
 40
0.0
 40
0.0
 40
0.0
 40
0.0
 40
0.5
 40
0.5
 40
0.75
 40
0.75
 40
1.0
 40
1.0
 40
1.0
 40
1.0
 10
192.0106521769816
 20
107.7067379013742
 30
0.0
 10
192.1719261494913
 20
107.8197142590498
 30
0.0
 10
192.2700672415022
 20
107.9343066965247
 30
0.0
 10
192.2706542568048
 20
108.1099486598728
 30
0.0
 10
192.2465949668662
 20
108.1685505136924
 30
0.0
 10
192.1568777733932
 20
108.2838674860946
 30
0.0
 10
192.0914457711346
 20
108.3409187606806
 30
0.0
 10
192.0106521769816
 20
108.3975166471769
 30
0.0
  0
LINE
  5
1A8
330
180
100
AcDbEntity
  8
EXTERNAL_TEMP_BO
  6
Continuous
 62
     7
100
AcDbLine
 10
192.3215552969
 20
115.8004188671
 30
0.0
 11
192.3215552969
 21
108.0774188671
 31
0.0
  0
LINE
  5
1A9
330
180
100
AcDbEntity
  8
EXTERNAL_TEMP_BO
  6
Continuous
 62
     7
100
AcDbLine
 10
186.9215552969
 20
115.6889188671
 30
0.0
 11
186.9215552969
 21
108.1889188671
 31
0.0
  0
ARC
  5
1AA
330
180
100
AcDbEntity
  8
EXTERNAL_TEMP_BO
  6
Continuous
 62
     7
100
AcDbCircle
 10
197.2389014768
 20
110.6050420083
 30
0.0
 40
10.24455211222453
100
AcDbArc
 50
169.7408678888
 51
190.2591321112
  0
ARC
  5
1AB
330
180
100
AcDbEntity
  8
EXTERNAL_TEMP_BO
  6
Continuous
 62
     7
100
AcDbCircle
 10
193.75548793
 20
114.4918336011
 30
0.0
 40
6.76113858623444
100
AcDbArc
 50
167.3628964681
 51
192.6371035319
  0
SPLINE
  5
1AC
330
180
100
AcDbEntity
  8
EXTERNAL_TEMP_BO
  6
Continuous
 62
     7
100
AcDbSpline
210
0.0
220
0.0
230
1.0
 70
     8
 71
     3
 72
     8
 73
     4
 74
     0
 42
0.000000001
 43
0.0000000001
 40
0.6846735716934831
 40
0.6846735716934831
 40
0.6846735716934831
 40
0.6846735716934831
 40
1.0
 40
1.0
 40
1.0
 40
1.0
 10
187.0181337854312
 20
115.9532790382351
 30
0.0
 10
187.0447277198306
 20
116.0258859697898
 30
0.0
 10
187.0927956237308
 20
116.0984929013445
 30
0.0
 10
187.1581359492132
 20
116.1710998328991
 30
0.0
  0
SPLINE
  5
1AD
330
180
100
AcDbEntity
  8
EXTERNAL_TEMP_BO
  6
Continuous
 62
     7
100
AcDbSpline
210
0.0
220
0.0
230
1.0
 70
     8
 71
     3
 72
     9
 73
     5
 74
     0
 42
0.000000001
 43
0.0000000001
 40
0.0
 40
0.0
 40
0.0
 40
0.0
 40
0.5
 40
1.0
 40
1.0
 40
1.0
 40
1.0
 10
187.1581359492132
 20
108.3975166471769
 30
0.0
 10
187.054528513209
 20
108.2823868562098
 30
0.0
 10
186.9341701743778
 20
108.0521272742756
 30
0.0
 10
187.054528513209
 20
107.8218676923414
 30
0.0
 10
187.1581359492132
 20
107.7067379013742
 30
0.0
  0
LINE
  5
1AE
330
180
100
AcDbEntity
  8
EXTERNAL_TEMP_BO
  6
Continuous
 62
     7
100
AcDbLine
 10
192.010652177
 20
113.0126642993
 30
0.0
 11
192.010652177
 21
112.429600683
 31
0.0
  0
LINE
  5
1AF
330
180
100
AcDbEntity
  8
EXTERNAL_TEMP_BO
  6
Continuous
 62
     7
100
AcDbLine
 10
187.1581359492
 20
112.429600683
 30
0.0
 11
192.010652177
 21
112.429600683
 31
0.0
  0
LINE
  5
1B0
330
180
100
AcDbEntity
  8
EXTERNAL_TEMP_BO
  6
Continuous
 62
     7
100
AcDbLine
 10
192.010652177
 20
113.0126642993
 30
0.0
 11
187.1581359492
 21
113.0126642993
 31
0.0
  0
LINE
  5
1B1
330
180
100
AcDbEntity
  8
EXTERNAL_TEMP_BO
  6
Continuous
 62
     7
100
AcDbLine
 10
192.010652177
 20
116.1710998329
 30
0.0
 11
192.010652177
 21
115.971002903
 31
0.0
  0
LINE
  5
1B2
330
180
100
AcDbEntity
  8
EXTERNAL_TEMP_BO
  6
Continuous
 62
     7
100
AcDbLine
 10
187.1581359492
 20
115.971002903
 30
0.0
 11
192.010652177
 21
115.971002903
 31
0.0
  0
LINE
  5
1B3
330
180
100
AcDbEntity
  8
EXTERNAL_TEMP_BO
  6
Continuous
 62
     7
100
AcDbLine
 10
192.010652177
 20
116.1710998329
 30
0.0
 11
187.1581359492
 21
116.1710998329
 31
0.0
  0
LINE
  5
1B4
330
180
100
AcDbEntity
  8
EXTERNAL_TEMP_BO
  6
Continuous
 62
     7
100
AcDbLine
 10
192.010652177
 20
107.7067379014
 30
0.0
 11
187.1581359492
 21
107.7067379014
 31
0.0
  0
LINE
  5
1B5
330
180
100
AcDbEntity
  8
EXTERNAL_TEMP_BO
  6
Continuous
 62
     7
100
AcDbLine
 10
192.010652177
 20
108.7804833335
 30
0.0
 11
192.010652177
 21
108.3975166472
 31
0.0
  0
LINE
  5
1B6
330
180
100
AcDbEntity
  8
EXTERNAL_TEMP_BO
  6
Continuous
 62
     7
100
AcDbLine
 10
192.010652177
 20
108.7804833335
 30
0.0
 11
187.1581359492
 21
108.7804833335
 31
0.0
  0
LINE
  5
1B7
330
180
100
AcDbEntity
  8
EXTERNAL_TEMP_BO
  6
Continuous
 62
     7
100
AcDbLine
 10
187.1581359492
 20
108.3975166472
 30
0.0
 11
192.010652177
 21
108.3975166472
 31
0.0
  0
LINE
  5
1B8
330
180
100
AcDbEntity
  8
EXTERNAL_TEMP_BO
  6
Continuous
 62
     7
100
AcDbLine
 10
242.3578984959
 20
120.6889188671
 30
0.0
 11
235.8151710414
 21
120.6889188671
 31
0.0
  0
LINE
  5
1B9
330
180
100
AcDbEntity
  8
EXTERNAL_TEMP_BO
  6
Continuous
 62
     7
100
AcDbLine
 10
235.8151710414
 20
103.1889188671
 30
0.0
 11
242.3578984959
 21
103.1889188671
 31
0.0
  0
LINE
  5
1BA
330
180
100
AcDbEntity
  8
EXTERNAL_TEMP_BO
  6
Continuous
 62
     7
100
AcDbLine
 10
187.0187288961
 20
115.9559011365
 30
0.0
 11
186.9215552969
 21
115.6889188671
 31
0.0
  0
LINE
  5
1BB
330
180
100
AcDbEntity
  8
EXTERNAL_TEMP_BO
  6
Continuous
 62
     7
100
AcDbLine
 10
186.9215552969
 20
108.1889188671
 30
0.0
 11
187.0187288961
 21
107.9219365978
 31
0.0
  0
LINE
  5
1BC
330
180
100
AcDbEntity
  8
EXTERNAL_TEMP_BO
  6
Continuous
 62
     7
100
AcDbLine
 10
192.2322118498
 20
107.9226714773
 30
0.0
 11
192.3215552969
 21
108.0774188671
 31
0.0
  0
LINE
  5
1BD
330
180
100
AcDbEntity
  8
EXTERNAL_TEMP_BO
  6
Continuous
 62
     7
100
AcDbLine
 10
192.3215552969
 20
115.8004188671
 30
0.0
 11
192.2322118498
 21
115.955166257
 31
0.0
  0
LINE
  5
1BE
330
180
100
AcDbEntity
  8
EXTERNAL_TEMP_BO
  6
Continuous
 62
     7
100
AcDbLine
 10
193.8578984959
 20
115.8004188671
 30
0.0
 11
192.3215552969
 21
115.8004188671
 31
0.0
  0
LINE
  5
1BF
330
180
100
AcDbEntity
  8
EXTERNAL_TEMP_BO
  6
Continuous
 62
     7
100
AcDbLine
 10
192.3215552969
 20
108.0774188671
 30
0.0
 11
193.8578984959
 21
108.0774188671
 31
0.0
  0
ENDBLK
  5
1C1
330
180
100
AcDbEntity
  8
0
100
AcDbBlockEnd
  0
BLOCK
  5
21F
330
1C2
100
AcDbEntity
  8
0
100
AcDbBlockBegin
  2
SE4
 70
     0
 10
0.0
 20
0.0
 30
0.0
  3
SE4
  1

  0
LINE
  5
1C4
330
1C2
100
AcDbEntity
  8
EXTERNAL_TEMP_BO
  6
Continuous
 62
     7
100
AcDbLine
 10
319.6856029468
 20
102.2166985325
 30
0.0
 11
319.6856029468
 21
103.939014263
 31
0.0
  0
LINE
  5
1C5
330
1C2
100
AcDbEntity
  8
EXTERNAL_TEMP_BO
  6
Continuous
 62
     7
100
AcDbLine
 10
306.1856029468
 20
91.4389188671
 30
0.0
 11
306.1856029468
 21
132.4389188671
 31
0.0
  0
LINE
  5
1C6
330
1C2
100
AcDbEntity
  8
EXTERNAL_TEMP_BO
  6
Continuous
 62
     7
100
AcDbLine
 10
319.6856029468
 20
119.9388236368
 30
0.0
 11
319.6856029468
 21
121.6611388915
 31
0.0
  0
LINE
  5
1C7
330
1C2
100
AcDbEntity
  8
EXTERNAL_TEMP_BO
  6
Continuous
 62
     7
100
AcDbLine
 10
319.6856029468
 20
129.6610437232
 30
0.0
 11
319.6856029468
 21
129.6889188671
 31
0.0
  0
LINE
  5
1C8
330
1C2
100
AcDbEntity
  8
EXTERNAL_TEMP_BO
  6
Continuous
 62
     7
100
AcDbLine
 10
319.6856029468
 20
94.2167939955
 30
0.0
 11
319.6856029468
 21
94.1889188671
 31
0.0
  0
LINE
  5
1C9
330
1C2
100
AcDbEntity
  8
EXTERNAL_TEMP_BO
  6
Continuous
 62
     7
100
AcDbLine
 10
306.1856029468
 20
94.2167939903
 30
0.0
 11
319.6856029468
 21
94.2167939903
 31
0.0
  0
LINE
  5
1CA
330
1C2
100
AcDbEntity
  8
EXTERNAL_TEMP_BO
  6
Continuous
 62
     7
100
AcDbLine
 10
306.1856029468
 20
103.939014263
 30
0.0
 11
319.6856029468
 21
103.939014263
 31
0.0
  0
LINE
  5
1CB
330
1C2
100
AcDbEntity
  8
EXTERNAL_TEMP_BO
  6
Continuous
 62
     7
100
AcDbLine
 10
306.1856029468
 20
121.6611388915
 30
0.0
 11
319.6856029468
 21
121.6611388915
 31
0.0
  0
LINE
  5
1CC
330
1C2
100
AcDbEntity
  8
EXTERNAL_TEMP_BO
  6
Continuous
 62
     7
100
AcDbLine
 10
319.6856029468
 20
102.2166985325
 30
0.0
 11
319.6856029468
 21
94.2167939903
 31
0.0
  0
LINE
  5
1CD
330
1C2
100
AcDbEntity
  8
EXTERNAL_TEMP_BO
  6
Continuous
 62
     7
100
AcDbLine
 10
319.6856029468
 20
102.2166985325
 30
0.0
 11
306.1856029468
 21
102.2166985325
 31
0.0
  0
LINE
  5
1CE
330
1C2
100
AcDbEntity
  8
EXTERNAL_TEMP_BO
  6
Continuous
 62
     7
100
AcDbLine
 10
319.6856029468
 20
119.9388236368
 30
0.0
 11
319.6856029468
 21
103.939014263
 31
0.0
  0
LINE
  5
1CF
330
1C2
100
AcDbEntity
  8
EXTERNAL_TEMP_BO
  6
Continuous
 62
     7
100
AcDbLine
 10
319.6856029468
 20
119.9388236368
 30
0.0
 11
306.1856029468
 21
119.9388236368
 31
0.0
  0
LINE
  5
1D0
330
1C2
100
AcDbEntity
  8
EXTERNAL_TEMP_BO
  6
Continuous
 62
     7
100
AcDbLine
 10
319.6856029468
 20
129.6610437232
 30
0.0
 11
319.6856029468
 21
121.6611388915
 31
0.0
  0
LINE
  5
1D1
330
1C2
100
AcDbEntity
  8
EXTERNAL_TEMP_BO
  6
Continuous
 62
     7
100
AcDbLine
 10
319.6856029468
 20
129.6610437232
 30
0.0
 11
306.1856029468
 21
129.6610437232
 31
0.0
  0
LINE
  5
1D2
330
1C2
100
AcDbEntity
  8
EXTERNAL_TEMP_BO
  6
Continuous
 62
     7
100
AcDbLine
 10
278.1856029468
 20
91.4389188671
 30
0.0
 11
278.1856029468
 21
132.4389188671
 31
0.0
  0
LINE
  5
1D3
330
1C2
100
AcDbEntity
  8
EXTERNAL_TEMP_BO
  6
Continuous
 62
     7
100
AcDbLine
 10
264.6856029468
 20
129.6889188671
 30
0.0
 11
264.6856029468
 21
129.6610437232
 31
0.0
  0
LINE
  5
1D4
330
1C2
100
AcDbEntity
  8
EXTERNAL_TEMP_BO
  6
Continuous
 62
     7
100
AcDbLine
 10
264.6856029468
 20
121.6611388915
 30
0.0
 11
264.6856029468
 21
119.9388236368
 31
0.0
  0
LINE
  5
1D5
330
1C2
100
AcDbEntity
  8
EXTERNAL_TEMP_BO
  6
Continuous
 62
     7
100
AcDbLine
 10
264.6856029468
 20
103.939014263
 30
0.0
 11
264.6856029468
 21
102.2166985325
 31
0.0
  0
LINE
  5
1D6
330
1C2
100
AcDbEntity
  8
EXTERNAL_TEMP_BO
  6
Continuous
 62
     7
100
AcDbLine
 10
264.6856029468
 20
94.1889188671
 30
0.0
 11
264.6856029468
 21
94.2167939955
 31
0.0
  0
LINE
  5
1D7
330
1C2
100
AcDbEntity
  8
EXTERNAL_TEMP_BO
  6
Continuous
 62
     7
100
AcDbLine
 10
264.6856029468
 20
121.6611388915
 30
0.0
 11
264.6856029468
 21
129.6610437232
 31
0.0
  0
LINE
  5
1D8
330
1C2
100
AcDbEntity
  8
EXTERNAL_TEMP_BO
  6
Continuous
 62
     7
100
AcDbLine
 10
264.6856029468
 20
103.939014263
 30
0.0
 11
264.6856029468
 21
119.9388236368
 31
0.0
  0
LINE
  5
1D9
330
1C2
100
AcDbEntity
  8
EXTERNAL_TEMP_BO
  6
Continuous
 62
     7
100
AcDbLine
 10
264.6856029468
 20
94.2167939903
 30
0.0
 11
264.6856029468
 21
102.2166985325
 31
0.0
  0
LINE
  5
1DA
330
1C2
100
AcDbEntity
  8
EXTERNAL_TEMP_BO
  6
Continuous
 62
     7
100
AcDbLine
 10
278.1856029468
 20
121.6611388915
 30
0.0
 11
264.6856029468
 21
121.6611388915
 31
0.0
  0
LINE
  5
1DB
330
1C2
100
AcDbEntity
  8
EXTERNAL_TEMP_BO
  6
Continuous
 62
     7
100
AcDbLine
 10
264.6856029468
 20
129.6610437232
 30
0.0
 11
278.1856029468
 21
129.6610437232
 31
0.0
  0
LINE
  5
1DC
330
1C2
100
AcDbEntity
  8
EXTERNAL_TEMP_BO
  6
Continuous
 62
     7
100
AcDbLine
 10
278.1856029468
 20
103.939014263
 30
0.0
 11
264.6856029468
 21
103.939014263
 31
0.0
  0
LINE
  5
1DD
330
1C2
100
AcDbEntity
  8
EXTERNAL_TEMP_BO
  6
Continuous
 62
     7
100
AcDbLine
 10
264.6856029468
 20
119.9388236368
 30
0.0
 11
278.1856029468
 21
119.9388236368
 31
0.0
  0
LINE
  5
1DE
330
1C2
100
AcDbEntity
  8
EXTERNAL_TEMP_BO
  6
Continuous
 62
     7
100
AcDbLine
 10
278.1856029468
 20
94.2167939903
 30
0.0
 11
264.6856029468
 21
94.2167939903
 31
0.0
  0
LINE
  5
1DF
330
1C2
100
AcDbEntity
  8
EXTERNAL_TEMP_BO
  6
Continuous
 62
     7
100
AcDbLine
 10
264.6856029468
 20
102.2166985325
 30
0.0
 11
278.1856029468
 21
102.2166985325
 31
0.0
  0
LINE
  5
1E0
330
1C2
100
AcDbEntity
  8
EXTERNAL_TEMP_BO
  6
Continuous
 62
     7
100
AcDbLine
 10
279.9356029468
 20
134.1889188671
 30
0.0
 11
279.9356029468
 21
117.6671384858
 31
0.0
  0
LINE
  5
1E1
330
1C2
100
AcDbEntity
  8
EXTERNAL_TEMP_BO
  6
Continuous
 62
     7
100
AcDbLine
 10
304.4356029468
 20
134.1889188671
 30
0.0
 11
304.4356029468
 21
117.6671384858
 31
0.0
  0
LINE
  5
1E2
330
1C2
100
AcDbEntity
  8
EXTERNAL_TEMP_BO
  6
Continuous
 62
     7
100
AcDbLine
 10
279.9356029468
 20
89.6889188671
 30
0.0
 11
279.9356029468
 21
106.2106992484
 31
0.0
  0
LINE
  5
1E3
330
1C2
100
AcDbEntity
  8
EXTERNAL_TEMP_BO
  6
Continuous
 62
     7
100
AcDbLine
 10
291.6856029468
 20
106.2106992484
 30
0.0
 11
291.6856029468
 21
89.6889188671
 31
0.0
  0
LINE
  5
1E4
330
1C2
100
AcDbEntity
  8
EXTERNAL_TEMP_BO
  6
Continuous
 62
     7
100
AcDbLine
 10
291.6856029468
 20
106.2106992484
 30
0.0
 11
279.9356029468
 21
106.2106992484
 31
0.0
  0
LINE
  5
1E5
330
1C2
100
AcDbEntity
  8
EXTERNAL_TEMP_BO
  6
Continuous
 62
     7
100
AcDbLine
 10
292.1856029468
 20
107.9234921386
 30
0.0
 11
292.1856029468
 21
104.6716979403
 31
0.0
  0
LINE
  5
1E6
330
1C2
100
AcDbEntity
  8
EXTERNAL_TEMP_BO
  6
Continuous
 62
     7
100
AcDbLine
 10
292.6856029468
 20
106.2106992484
 30
0.0
 11
292.6856029468
 21
89.6889188671
 31
0.0
  0
LINE
  5
1E7
330
1C2
100
AcDbEntity
  8
EXTERNAL_TEMP_BO
  6
Continuous
 62
     7
100
AcDbLine
 10
304.4356029468
 20
89.6889188671
 30
0.0
 11
304.4356029468
 21
106.2106992484
 31
0.0
  0
SPLINE
  5
1E8
330
1C2
100
AcDbEntity
  8
EXTERNAL_TEMP_BO
  6
Continuous
 62
     7
100
AcDbSpline
210
0.0
220
0.0
230
1.0
 70
     8
 71
     3
 72
    14
 73
    10
 74
     0
 42
0.000000001
 43
0.0000000001
 40
0.0
 40
0.0
 40
0.0
 40
0.0
 40
0.5
 40
0.5
 40
0.625
 40
0.625
 40
0.75
 40
0.75
 40
1.0
 40
1.0
 40
1.0
 40
1.0
 10
304.43560294683
 20
117.6671384858315
 30
0.0
 10
304.9205493236933
 20
115.7834717266184
 30
0.0
 10
305.1838051998539
 20
113.8818072001173
 30
0.0
 10
305.1860407594124
 20
111.4781927600019
 30
0.0
 10
305.1703482396054
 20
110.9961595887918
 30
0.0
 10
305.106365856104
 20
110.0294468568889
 30
0.0
 10
305.0578209053302
 20
109.5430039566926
 30
0.0
 10
304.8653783223526
 20
108.0931404600371
 30
0.0
 10
304.675995727805
 20
107.1444517462054
 30
0.0
 10
304.43560294683
 20
106.2106992484418
 30
0.0
  0
LINE
  5
1E9
330
1C2
100
AcDbEntity
  8
EXTERNAL_TEMP_BO
  6
Continuous
 62
     7
100
AcDbLine
 10
304.4356029468
 20
106.2106992484
 30
0.0
 11
292.6856029468
 21
106.2106992484
 31
0.0
  0
SPLINE
  5
1EA
330
1C2
100
AcDbEntity
  8
EXTERNAL_TEMP_BO
  6
Continuous
 62
     7
100
AcDbSpline
210
0.0
220
0.0
230
1.0
 70
     8
 71
     3
 72
     8
 73
     4
 74
     0
 42
0.000000001
 43
0.0000000001
 40
0.0
 40
0.0
 40
0.0
 40
0.0
 40
0.9293629990800324
 40
0.9293629990800324
 40
0.9293629990800324
 40
0.9293629990800324
 10
292.68560294683
 20
106.2106992484418
 30
0.0
 10
292.5373880330083
 20
106.7864072436047
 30
0.0
 10
292.4093708323398
 20
107.364760629667
 30
0.0
 10
292.3032403889551
 20
107.9459806288006
 30
0.0
  0
SPLINE
  5
1EB
330
1C2
100
AcDbEntity
  8
EXTERNAL_TEMP_BO
  6
Continuous
 62
     7
100
AcDbSpline
210
0.0
220
0.0
230
1.0
 70
     8
 71
     3
 72
     8
 73
     4
 74
     0
 42
0.000000001
 43
0.0000000001
 40
0.0947028482174847
 40
0.0947028482174847
 40
0.0947028482174847
 40
0.0947028482174847
 40
1.0
 40
1.0
 40
1.0
 40
1.0
 10
292.0596767645952
 20
107.9008343301449
 30
0.0
 10
291.9551915089925
 20
107.3348094910852
 30
0.0
 10
291.8299798366644
 20
106.7714992897554
 30
0.0
 10
291.68560294683
 20
106.2106992484418
 30
0.0
  0
SPLINE
  5
1EC
330
1C2
100
AcDbEntity
  8
EXTERNAL_TEMP_BO
  6
Continuous
 62
     7
100
AcDbSpline
210
0.0
220
0.0
230
1.0
 70
     8
 71
     3
 72
    14
 73
    10
 74
     0
 42
0.000000001
 43
0.0000000001
 40
0.0
 40
0.0
 40
0.0
 40
0.0
 40
0.5
 40
0.5
 40
0.625
 40
0.625
 40
0.75
 40
0.75
 40
1.0
 40
1.0
 40
1.0
 40
1.0
 10
279.93560294683
 20
106.2106992484418
 30
0.0
 10
279.4554374027093
 20
108.0757959220779
 30
0.0
 10
279.1870500359627
 20
109.9767793203836
 30
0.0
 10
279.1852485430709
 20
112.4095525421923
 30
0.0
 10
279.201643764709
 20
112.9008665362193
 30
0.0
 10
279.2669938705085
 20
113.8732831146486
 30
0.0
 10
279.3158037725673
 20
114.3556950820177
 30
0.0
 10
279.5075511628775
 20
115.792268317708
 30
0.0
 10
279.6958221727491
 20
116.7357631932559
 30
0.0
 10
279.93560294683
 20
117.6671384858315
 30
0.0
  0
LINE
  5
1ED
330
1C2
100
AcDbEntity
  8
EXTERNAL_TEMP_BO
  6
Continuous
 62
     7
100
AcDbLine
 10
304.4356029468
 20
117.6671384858
 30
0.0
 11
292.6856029468
 21
117.6671384858
 31
0.0
  0
SPLINE
  5
1EE
330
1C2
100
AcDbEntity
  8
EXTERNAL_TEMP_BO
  6
Continuous
 62
     7
100
AcDbSpline
210
0.0
220
0.0
230
1.0
 70
     8
 71
     3
 72
     8
 73
     4
 74
     0
 42
0.000000001
 43
0.0000000001
 40
0.0
 40
0.0
 40
0.0
 40
0.0
 40
0.9052961029322683
 40
0.9052961029322683
 40
0.9052961029322683
 40
0.9052961029322683
 10
292.68560294683
 20
117.6671384858315
 30
0.0
 10
292.5412262242663
 20
117.1063390942441
 30
0.0
 10
292.4160146748005
 20
116.5430295484569
 30
0.0
 10
292.3115294922254
 20
115.9770053714669
 30
0.0
  0
SPLINE
  5
1EF
330
1C2
100
AcDbEntity
  8
EXTERNAL_TEMP_BO
  6
Continuous
 62
     7
100
AcDbSpline
210
0.0
220
0.0
230
1.0
 70
     8
 71
     3
 72
     8
 73
     4
 74
     0
 42
0.000000001
 43
0.0000000001
 40
0.0706369978881241
 40
0.0706369978881241
 40
0.0706369978881241
 40
0.0706369978881241
 40
1.0
 40
1.0
 40
1.0
 40
1.0
 10
292.0679655057435
 20
115.9318570997844
 30
0.0
 10
291.9618350621554
 20
116.5130771008328
 30
0.0
 10
291.8338178611352
 20
117.0914304887905
 30
0.0
 10
291.68560294683
 20
117.6671384858315
 30
0.0
  0
LINE
  5
1F0
330
1C2
100
AcDbEntity
  8
EXTERNAL_TEMP_BO
  6
Continuous
 62
     7
100
AcDbLine
 10
291.6856029468
 20
117.6671384858
 30
0.0
 11
279.9356029468
 21
117.6671384858
 31
0.0
  0
LINE
  5
1F1
330
1C2
100
AcDbEntity
  8
EXTERNAL_TEMP_BO
  6
Continuous
 62
     7
100
AcDbLine
 10
291.6856029468
 20
134.1889188671
 30
0.0
 11
291.6856029468
 21
117.6671384858
 31
0.0
  0
LINE
  5
1F2
330
1C2
100
AcDbEntity
  8
EXTERNAL_TEMP_BO
  6
Continuous
 62
     7
100
AcDbLine
 10
292.1856029468
 20
133.6889188671
 30
0.0
 11
292.1856029468
 21
120.6889188671
 31
0.0
  0
LINE
  5
1F3
330
1C2
100
AcDbEntity
  8
EXTERNAL_TEMP_BO
  6
Continuous
 62
     7
100
AcDbLine
 10
292.6856029468
 20
134.1889188671
 30
0.0
 11
292.6856029468
 21
117.6671384858
 31
0.0
  0
LINE
  5
1F4
330
1C2
100
AcDbEntity
  8
EXTERNAL_TEMP_BO
  6
Continuous
 62
     7
100
AcDbLine
 10
292.1856029468
 20
119.206139794
 30
0.0
 11
292.1856029468
 21
115.9542938562
 31
0.0
  0
LINE
  5
1F5
330
1C2
100
AcDbEntity
  8
EXTERNAL_TEMP_BO
  6
Continuous
 62
     7
100
AcDbLine
 10
292.1856029468
 20
119.206139794
 30
0.0
 11
292.0201942135
 21
119.6871535016
 31
0.0
  0
LINE
  5
1F6
330
1C2
100
AcDbEntity
  8
EXTERNAL_TEMP_BO
  6
Continuous
 62
     7
100
AcDbLine
 10
292.0201942135
 20
119.6871535016
 30
0.0
 11
291.981547375
 21
120.6865391906
 31
0.0
  0
LINE
  5
1F7
330
1C2
100
AcDbEntity
  8
EXTERNAL_TEMP_BO
  6
Continuous
 62
     7
100
AcDbLine
 10
292.1856029468
 20
103.1889188671
 30
0.0
 11
292.1856029468
 21
90.1889188671
 31
0.0
  0
LINE
  5
1F8
330
1C2
100
AcDbEntity
  8
EXTERNAL_TEMP_BO
  6
Continuous
 62
     7
100
AcDbLine
 10
292.0201942135
 20
104.1906842327
 30
0.0
 11
292.1856029468
 21
104.6716979403
 31
0.0
  0
LINE
  5
1F9
330
1C2
100
AcDbEntity
  8
EXTERNAL_TEMP_BO
  6
Continuous
 62
     7
100
AcDbLine
 10
291.981547375
 20
103.1912985437
 30
0.0
 11
292.0201942135
 21
104.1906842327
 31
0.0
  0
LINE
  5
1FA
330
1C2
100
AcDbEntity
  8
EXTERNAL_TEMP_BO
  6
Continuous
 62
     7
100
AcDbLine
 10
292.3510116802
 20
119.6871535016
 30
0.0
 11
292.1856029468
 21
119.206139794
 31
0.0
  0
LINE
  5
1FB
330
1C2
100
AcDbEntity
  8
EXTERNAL_TEMP_BO
  6
Continuous
 62
     7
100
AcDbLine
 10
292.3896585186
 20
120.6865391906
 30
0.0
 11
292.3510116802
 21
119.6871535016
 31
0.0
  0
LINE
  5
1FC
330
1C2
100
AcDbEntity
  8
EXTERNAL_TEMP_BO
  6
Continuous
 62
     7
100
AcDbLine
 10
292.1856029468
 20
104.6716979403
 30
0.0
 11
292.3510116802
 21
104.1906842327
 31
0.0
  0
LINE
  5
1FD
330
1C2
100
AcDbEntity
  8
EXTERNAL_TEMP_BO
  6
Continuous
 62
     7
100
AcDbLine
 10
292.3510116802
 20
104.1906842327
 30
0.0
 11
292.3896585186
 21
103.1912985437
 31
0.0
  0
ARC
  5
1FE
330
1C2
100
AcDbEntity
  8
EXTERNAL_TEMP_BO
  6
Continuous
 62
     7
100
AcDbCircle
 10
292.1856029468
 20
111.9389188671
 30
0.0
 40
8.750000000000002
100
AcDbArc
 50
88.6637047939
 51
91.3362952061
  0
ARC
  5
1FF
330
1C2
100
AcDbEntity
  8
EXTERNAL_TEMP_BO
  6
Continuous
 62
     7
100
AcDbCircle
 10
292.1856029468
 20
111.9389188671
 30
0.0
 40
8.75
100
AcDbArc
 50
268.6637047939
 51
271.3362952061
  0
ARC
  5
200
330
1C2
100
AcDbEntity
  8
EXTERNAL_TEMP_BO
  6
Continuous
 62
     7
100
AcDbCircle
 10
292.1856029468
 20
111.9389188671
 30
0.0
 40
7.750000000000003
100
AcDbArc
 50
88.7770397438
 51
91.2229602562
  0
ARC
  5
201
330
1C2
100
AcDbEntity
  8
EXTERNAL_TEMP_BO
  6
Continuous
 62
     7
100
AcDbCircle
 10
292.1856029468
 20
111.9389188671
 30
0.0
 40
7.750000000000004
100
AcDbArc
 50
268.7770397438
 51
271.2229602562
  0
ARC
  5
202
330
1C2
100
AcDbEntity
  8
EXTERNAL_TEMP_BO
  6
Continuous
 62
     7
100
AcDbCircle
 10
292.1856029468
 20
111.9389188671
 30
0.0
 40
4.4
100
AcDbArc
 50
6.4028632931
 51
14.1246973628
  0
ARC
  5
203
330
1C2
100
AcDbEntity
  8
EXTERNAL_TEMP_BO
  6
Continuous
 62
     7
100
AcDbCircle
 10
292.1856029468
 20
111.9389188671
 30
0.0
 40
4.399999999999999
100
AcDbArc
 50
66.4028632931
 51
74.1246973628
  0
ARC
  5
204
330
1C2
100
AcDbEntity
  8
EXTERNAL_TEMP_BO
  6
Continuous
 62
     7
100
AcDbCircle
 10
292.1856029468
 20
111.9389188671
 30
0.0
 40
4.400000000000004
100
AcDbArc
 50
126.4028632931
 51
134.1246973628
  0
ARC
  5
205
330
1C2
100
AcDbEntity
  8
EXTERNAL_TEMP_BO
  6
Continuous
 62
     7
100
AcDbCircle
 10
292.1856029468
 20
111.9389188671
 30
0.0
 40
4.399999999999999
100
AcDbArc
 50
186.4028632931
 51
194.1246973628
  0
ARC
  5
206
330
1C2
100
AcDbEntity
  8
EXTERNAL_TEMP_BO
  6
Continuous
 62
     7
100
AcDbCircle
 10
292.1856029468
 20
111.9389188671
 30
0.0
 40
4.399999999999999
100
AcDbArc
 50
246.4028632931
 51
254.1246973628
  0
ARC
  5
207
330
1C2
100
AcDbEntity
  8
EXTERNAL_TEMP_BO
  6
Continuous
 62
     7
100
AcDbCircle
 10
292.1856029468
 20
111.9389188671
 30
0.0
 40
4.400000000000004
100
AcDbArc
 50
306.4028632931
 51
314.1246973628
  0
CIRCLE
  5
208
330
1C2
100
AcDbEntity
  8
EXTERNAL_TEMP_BO
  6
Continuous
 62
     7
100
AcDbCircle
 10
292.1856029468
 20
111.9389188671
 30
0.0
 40
3.750000000000006
  0
LINE
  5
209
330
1C2
100
AcDbEntity
  8
EXTERNAL_TEMP_BO
  6
Continuous
 62
     7
100
AcDbLine
 10
296.5581572753
 20
112.429600683
 30
0.0
 11
295.248980981
 21
108.7804833335
 31
0.0
  0
LINE
  5
20A
330
1C2
100
AcDbEntity
  8
EXTERNAL_TEMP_BO
  6
Continuous
 62
     7
100
AcDbLine
 10
293.9469371934
 20
115.971002903
 30
0.0
 11
296.4525773722
 21
113.0126642993
 31
0.0
  0
LINE
  5
20B
330
1C2
100
AcDbEntity
  8
EXTERNAL_TEMP_BO
  6
Continuous
 62
     7
100
AcDbLine
 10
289.5743828649
 20
115.4803210871
 30
0.0
 11
293.3891993381
 21
116.1710998329
 31
0.0
  0
LINE
  5
20C
330
1C2
100
AcDbEntity
  8
EXTERNAL_TEMP_BO
  6
Continuous
 62
     7
100
AcDbLine
 10
287.8130486183
 20
111.4482370513
 30
0.0
 11
289.1222249127
 21
115.0973544007
 31
0.0
  0
LINE
  5
20D
330
1C2
100
AcDbEntity
  8
EXTERNAL_TEMP_BO
  6
Continuous
 62
     7
100
AcDbLine
 10
290.4242687003
 20
107.9068348313
 30
0.0
 11
287.9186285214
 21
110.865173435
 31
0.0
  0
LINE
  5
20E
330
1C2
100
AcDbEntity
  8
EXTERNAL_TEMP_BO
  6
Continuous
 62
     7
100
AcDbLine
 10
294.7968230288
 20
108.3975166472
 30
0.0
 11
290.9820065556
 21
107.7067379014
 31
0.0
  0
LINE
  5
20F
330
1C2
100
AcDbEntity
  8
EXTERNAL_TEMP_BO
  6
Continuous
 62
     7
100
AcDbLine
 10
319.6856029468
 20
129.6889188671
 30
0.0
 11
306.1856029468
 21
129.6889188671
 31
0.0
  0
LINE
  5
210
330
1C2
100
AcDbEntity
  8
EXTERNAL_TEMP_BO
  6
Continuous
 62
     7
100
AcDbLine
 10
306.1856029468
 20
94.1889188671
 30
0.0
 11
319.6856029468
 21
94.1889188671
 31
0.0
  0
LINE
  5
211
330
1C2
100
AcDbEntity
  8
EXTERNAL_TEMP_BO
  6
Continuous
 62
     7
100
AcDbLine
 10
264.6856029468
 20
94.1889188671
 30
0.0
 11
278.1856029468
 21
94.1889188671
 31
0.0
  0
LINE
  5
212
330
1C2
100
AcDbEntity
  8
EXTERNAL_TEMP_BO
  6
Continuous
 62
     7
100
AcDbLine
 10
278.1856029468
 20
129.6889188671
 30
0.0
 11
264.6856029468
 21
129.6889188671
 31
0.0
  0
LINE
  5
213
330
1C2
100
AcDbEntity
  8
EXTERNAL_TEMP_BO
  6
Continuous
 62
     7
100
AcDbLine
 10
291.6856029468
 20
134.1889188671
 30
0.0
 11
279.9356029468
 21
134.1889188671
 31
0.0
  0
LINE
  5
214
330
1C2
100
AcDbEntity
  8
EXTERNAL_TEMP_BO
  6
Continuous
 62
     7
100
AcDbLine
 10
279.9356029468
 20
89.6889188671
 30
0.0
 11
291.6856029468
 21
89.6889188671
 31
0.0
  0
LINE
  5
215
330
1C2
100
AcDbEntity
  8
EXTERNAL_TEMP_BO
  6
Continuous
 62
     7
100
AcDbLine
 10
279.9356029468
 20
134.1889188671
 30
0.0
 11
278.1856029468
 21
132.4389188671
 31
0.0
  0
LINE
  5
216
330
1C2
100
AcDbEntity
  8
EXTERNAL_TEMP_BO
  6
Continuous
 62
     7
100
AcDbLine
 10
278.1856029468
 20
91.4389188671
 30
0.0
 11
279.9356029468
 21
89.6889188671
 31
0.0
  0
LINE
  5
217
330
1C2
100
AcDbEntity
  8
EXTERNAL_TEMP_BO
  6
Continuous
 62
     7
100
AcDbLine
 10
292.1856029468
 20
133.6889188671
 30
0.0
 11
291.6856029468
 21
134.1889188671
 31
0.0
  0
LINE
  5
218
330
1C2
100
AcDbEntity
  8
EXTERNAL_TEMP_BO
  6
Continuous
 62
     7
100
AcDbLine
 10
291.6856029468
 20
89.6889188671
 30
0.0
 11
292.1856029468
 21
90.1889188671
 31
0.0
  0
LINE
  5
219
330
1C2
100
AcDbEntity
  8
EXTERNAL_TEMP_BO
  6
Continuous
 62
     7
100
AcDbLine
 10
292.6856029468
 20
134.1889188671
 30
0.0
 11
292.1856029468
 21
133.6889188671
 31
0.0
  0
LINE
  5
21A
330
1C2
100
AcDbEntity
  8
EXTERNAL_TEMP_BO
  6
Continuous
 62
     7
100
AcDbLine
 10
292.1856029468
 20
90.1889188671
 30
0.0
 11
292.6856029468
 21
89.6889188671
 31
0.0
  0
LINE
  5
21B
330
1C2
100
AcDbEntity
  8
EXTERNAL_TEMP_BO
  6
Continuous
 62
     7
100
AcDbLine
 10
304.4356029468
 20
89.6889188671
 30
0.0
 11
306.1856029468
 21
91.4389188671
 31
0.0
  0
LINE
  5
21C
330
1C2
100
AcDbEntity
  8
EXTERNAL_TEMP_BO
  6
Continuous
 62
     7
100
AcDbLine
 10
306.1856029468
 20
132.4389188671
 30
0.0
 11
304.4356029468
 21
134.1889188671
 31
0.0
  0
LINE
  5
21D
330
1C2
100
AcDbEntity
  8
EXTERNAL_TEMP_BO
  6
Continuous
 62
     7
100
AcDbLine
 10
304.4356029468
 20
134.1889188671
 30
0.0
 11
292.6856029468
 21
134.1889188671
 31
0.0
  0
LINE
  5
21E
330
1C2
100
AcDbEntity
  8
EXTERNAL_TEMP_BO
  6
Continuous
 62
     7
100
AcDbLine
 10
292.6856029468
 20
89.6889188671
 30
0.0
 11
304.4356029468
 21
89.6889188671
 31
0.0
  0
ENDBLK
  5
220
330
1C2
100
AcDbEntity
  8
0
100
AcDbBlockEnd
  0
ENDSEC
  0
SECTION
  2
ENTITIES
  0
INSERT
  5
70
330
1F
100
AcDbEntity
  8
Default
100
AcDbBlockReference
  2
SE
 10
0.0
 20
0.0
 30
0.0
  0
INSERT
  5
DB
330
1F
100
AcDbEntity
  8
Default
100
AcDbBlockReference
  2
SE1
 10
0.0
 20
0.0
 30
0.0
  0
INSERT
  5
11D
330
1F
100
AcDbEntity
  8
Default
100
AcDbBlockReference
  2
SE2
 10
0.0
 20
0.0
 30
0.0
  0
INSERT
  5
181
330
1F
100
AcDbEntity
  8
Default
100
AcDbBlockReference
  2
SE3
 10
0.0
 20
0.0
 30
0.0
  0
INSERT
  5
1C3
330
1F
100
AcDbEntity
  8
Default
100
AcDbBlockReference
  2
SE4
 10
0.0
 20
0.0
 30
0.0
  0
ENDSEC
  0
SECTION
  2
OBJECTS
  0
DICTIONARY
  5
C
330
0
100
AcDbDictionary
281
     1
  3
ACAD_DETAILVIEWSTYLE
350
25C
  3
ACAD_GROUP
350
D
  3
ACAD_LAYOUT
350
1A
  3
ACAD_MATERIAL
350
43
  3
ACAD_MLEADERSTYLE
350
6B
  3
ACAD_MLINESTYLE
350
17
  3
ACAD_PLOTSETTINGS
350
19
  3
ACAD_PLOTSTYLENAME
350
E
  3
ACAD_SCALELIST
350
47
  3
ACAD_SECTIONVIEWSTYLE
350
25D
  3
ACAD_TABLESTYLE
350
69
  3
ACAD_VISUALSTYLE
350
2A
  3
ACDB_RECOMPOSE_DATA
350
259
  3
AcDbVariableDictionary
350
221
  0
SUN
  5
6D
330
29
100
AcDbSun
 90
        1
290
     0
 63
     7
421
 16777215
 40
1.0
291
     1
 91
  2455826
 92
 54000000
292
     0
 70
     2
 71
   256
280
     1
  0
DICTIONARY
  5
25C
102
{ACAD_REACTORS
330
C
102
}
330
C
100
AcDbDictionary
281
     1
  0
DICTIONARY
  5
D
102
{ACAD_REACTORS
330
C
102
}
330
C
100
AcDbDictionary
281
     1
  0
DICTIONARY
  5
1A
102
{ACAD_REACTORS
330
C
102
}
330
C
100
AcDbDictionary
281
     1
  3
Layout1
350
1E
  3
Model
350
22
  0
DICTIONARY
  5
43
102
{ACAD_REACTORS
330
C
102
}
330
C
100
AcDbDictionary
281
     1
  3
ByBlock
350
45
  3
ByLayer
350
44
  3
Global
350
46
  0
DICTIONARY
  5
6B
102
{ACAD_REACTORS
330
C
102
}
330
C
100
AcDbDictionary
281
     1
  3
Standard
350
6C
  0
DICTIONARY
  5
17
102
{ACAD_REACTORS
330
C
102
}
330
C
100
AcDbDictionary
281
     1
  3
Standard
350
18
  0
DICTIONARY
  5
19
102
{ACAD_REACTORS
330
C
102
}
330
C
100
AcDbDictionary
281
     1
  0
ACDBDICTIONARYWDFLT
  5
E
102
{ACAD_REACTORS
330
C
102
}
330
C
100
AcDbDictionary
281
     1
  3
Normal
350
F
100
AcDbDictionaryWithDefault
340
F
  0
DICTIONARY
  5
47
102
{ACAD_REACTORS
330
C
102
}
330
C
100
AcDbDictionary
281
     1
  3
A0
350
48
  3
A1
350
49
  3
A2
350
4A
  3
A3
350
4B
  3
A4
350
4C
  3
A5
350
4D
  3
A6
350
4E
  3
A7
350
4F
  3
A8
350
50
  3
A9
350
51
  3
B0
350
52
  3
B1
350
53
  3
B2
350
54
  3
B3
350
55
  3
B4
350
56
  3
B5
350
57
  3
B6
350
58
  3
B7
350
59
  3
B8
350
5A
  3
B9
350
5B
  3
C0
350
5C
  3
C1
350
5D
  3
C2
350
5E
  3
C3
350
5F
  3
C4
350
60
  3
C5
350
61
  3
C6
350
62
  3
C7
350
63
  3
C8
350
64
  3
C9
350
65
  3
D0
350
66
  3
D1
350
67
  3
D2
350
68
  0
DICTIONARY
  5
25D
102
{ACAD_REACTORS
330
C
102
}
330
C
100
AcDbDictionary
281
     1
  0
DICTIONARY
  5
69
102
{ACAD_REACTORS
330
C
102
}
330
C
100
AcDbDictionary
281
     1
  3
Standard
350
6A
  0
DICTIONARY
  5
2A
102
{ACAD_REACTORS
330
C
102
}
330
C
100
AcDbDictionary
281
     1
  3
2dWireframe
350
2F
  3
Basic
350
32
  3
Brighten
350
36
  3
ColorChange
350
3A
  3
Conceptual
350
34
  3
Dim
350
35
  3
EdgeColorOff
350
3D
  3
Facepattern
350
39
  3
Flat
350
2B
  3
FlatWithEdges
350
2C
  3
Gouraud
350
2D
  3
GouraudWithEdges
350
2E
  3
Hidden
350
31
  3
JitterOff
350
3B
  3
Linepattern
350
38
  3
OverhangOff
350
3C
  3
Realistic
350
33
  3
Shaded
350
42
  3
Shaded with edges
350
41
  3
Shades of Gray
350
3E
  3
Sketchy
350
3F
  3
Thicken
350
37
  3
Wireframe
350
30
  3
X-Ray
350
40
  0
XRECORD
  5
259
102
{ACAD_REACTORS
330
C
102
}
330
C
100
AcDbXrecord
280
     1
 90
        1
330
6A
  0
DICTIONARY
  5
221
102
{ACAD_REACTORS
330
C
102
}
330
C
100
AcDbDictionary
281
     1
  3
CANNOSCALE
350
222
  3
CENTEREXE
350
25E
  3
CENTERLTYPEFILE
350
25F
  3
CMLEADERSTYLE
350
25B
  3
CTABLESTYLE
350
25A
  3
XCLIPFRAME
350
223
  0
LAYOUT
  5
1E
102
{ACAD_REACTORS
330
1A
102
}
330
1A
100
AcDbPlotSettings
  1

  2
none_device
  4

  6

 40
0.0
 41
0.0
 42
0.0
 43
0.0
 44
0.0
 45
0.0
 46
0.0
 47
0.0
 48
0.0
 49
0.0
140
0.0
141
0.0
142
1.0
143
1.0
 70
   688
 72
     1
 73
     0
 74
     5
  7

 75
    16
 76
     0
 77
     2
 78
   300
147
1.0
148
0.0
149
0.0
100
AcDbLayout
  1
Layout1
 70
     1
 71
     1
 10
0.0
 20
0.0
 11
420.0
 21
297.0
 12
0.0
 22
0.0
 32
0.0
 14
0.0
 24
0.0
 34
0.0
 15
420.0
 25
297.0
 35
0.0
146
0.0
 13
0.0
 23
0.0
 33
0.0
 16
1.0
 26
0.0
 36
0.0
 17
0.0
 27
1.0
 37
0.0
 76
     0
330
1B
  0
LAYOUT
  5
22
102
{ACAD_REACTORS
330
1A
102
}
330
1A
100
AcDbPlotSettings
  1

  2
none_device
  4
Letter_(8.50_x_11.00_Inches)
  6

 40
6.35
 41
6.35
 42
6.35000508
 43
6.35000508
 44
215.9
 45
279.4
 46
0.0
 47
0.0
 48
0.0
 49
0.0
140
0.0
141
0.0
142
1.0
143
1.0
 70
  1712
 72
     1
 73
     0
 74
     0
  7

 75
     0
 76
     0
 77
     2
 78
   300
147
1.0
148
0.0
149
0.0
100
AcDbLayout
  1
Model
 70
     1
 71
     0
 10
0.0
 20
0.0
 11
420.0
 21
297.0
 12
0.0
 22
0.0
 32
0.0
 14
0.0
 24
0.0
 34
0.0
 15
420.0
 25
297.0
 35
0.0
146
0.0
 13
0.0
 23
0.0
 33
0.0
 16
1.0
 26
0.0
 36
0.0
 17
0.0
 27
1.0
 37
0.0
 76
     0
330
1F
331
29
  0
MATERIAL
  5
45
102
{ACAD_REACTORS
330
43
102
}
330
43
100
AcDbMaterial
  1
ByBlock
 72
     1
 94
      127
  0
MATERIAL
  5
44
102
{ACAD_REACTORS
330
43
102
}
330
43
100
AcDbMaterial
  1
ByLayer
 72
     1
 94
      127
  0
MATERIAL
  5
46
102
{ACAD_REACTORS
330
43
102
}
330
43
100
AcDbMaterial
  1
Global
 72
     1
 94
      127
  0
MLEADERSTYLE
  5
6C
102
{ACAD_REACTORS
330
6B
102
}
102
{ACAD_XDICTIONARY
360
257
102
}
330
6B
100
AcDbMLeaderStyle
170
     2
171
     1
172
     0
 90
        2
 40
0.0
 41
0.0
173
     1
 91
-1056964608
340
14
 92
       -2
290
     1
 42
2.0
291
     1
 43
8.0
  3
Standard
341
0
 44
4.0
300

342
11
174
     1
178
     6
175
     1
176
     0
 93
-1056964608
 45
4.0
292
     0
297
     0
 46
4.0
343
0
 94
-1056964608
 47
1.0
 49
1.0
140
1.0
293
     1
141
0.0
294
     1
177
     0
142
1.0
295
     0
296
     0
143
3.75
1001
ACAD_MLEADERVER
1070
     2
  0
MLINESTYLE
  5
18
102
{ACAD_REACTORS
330
17
102
}
330
17
100
AcDbMlineStyle
  2
Standard
 70
     0
  3

 62
   256
 51
90.0
 52
90.0
 71
     2
 49
0.5
 62
   256
  6
BYLAYER
 49
-0.5
 62
   256
  6
BYLAYER
  0
ACDBPLACEHOLDER
  5
F
102
{ACAD_REACTORS
330
E
102
}
330
E
  0
SCALE
  5
48
102
{ACAD_REACTORS
330
47
102
}
330
47
100
AcDbScale
 70
     0
300
1:1
140
1.0
141
1.0
290
     1
  0
SCALE
  5
49
102
{ACAD_REACTORS
330
47
102
}
330
47
100
AcDbScale
 70
     0
300
1:2
140
1.0
141
2.0
290
     0
  0
SCALE
  5
4A
102
{ACAD_REACTORS
330
47
102
}
330
47
100
AcDbScale
 70
     0
300
1:4
140
1.0
141
4.0
290
     0
  0
SCALE
  5
4B
102
{ACAD_REACTORS
330
47
102
}
330
47
100
AcDbScale
 70
     0
300
1:5
140
1.0
141
5.0
290
     0
  0
SCALE
  5
4C
102
{ACAD_REACTORS
330
47
102
}
330
47
100
AcDbScale
 70
     0
300
1:8
140
1.0
141
8.0
290
     0
  0
SCALE
  5
4D
102
{ACAD_REACTORS
330
47
102
}
330
47
100
AcDbScale
 70
     0
300
1:10
140
1.0
141
10.0
290
     0
  0
SCALE
  5
4E
102
{ACAD_REACTORS
330
47
102
}
330
47
100
AcDbScale
 70
     0
300
1:16
140
1.0
141
16.0
290
     0
  0
SCALE
  5
4F
102
{ACAD_REACTORS
330
47
102
}
330
47
100
AcDbScale
 70
     0
300
1:20
140
1.0
141
20.0
290
     0
  0
SCALE
  5
50
102
{ACAD_REACTORS
330
47
102
}
330
47
100
AcDbScale
 70
     0
300
1:30
140
1.0
141
30.0
290
     0
  0
SCALE
  5
51
102
{ACAD_REACTORS
330
47
102
}
330
47
100
AcDbScale
 70
     0
300
1:40
140
1.0
141
40.0
290
     0
  0
SCALE
  5
52
102
{ACAD_REACTORS
330
47
102
}
330
47
100
AcDbScale
 70
     0
300
1:50
140
1.0
141
50.0
290
     0
  0
SCALE
  5
53
102
{ACAD_REACTORS
330
47
102
}
330
47
100
AcDbScale
 70
     0
300
1:100
140
1.0
141
100.0
290
     0
  0
SCALE
  5
54
102
{ACAD_REACTORS
330
47
102
}
330
47
100
AcDbScale
 70
     0
300
2:1
140
2.0
141
1.0
290
     0
  0
SCALE
  5
55
102
{ACAD_REACTORS
330
47
102
}
330
47
100
AcDbScale
 70
     0
300
4:1
140
4.0
141
1.0
290
     0
  0
SCALE
  5
56
102
{ACAD_REACTORS
330
47
102
}
330
47
100
AcDbScale
 70
     0
300
8:1
140
8.0
141
1.0
290
     0
  0
SCALE
  5
57
102
{ACAD_REACTORS
330
47
102
}
330
47
100
AcDbScale
 70
     0
300
10:1
140
10.0
141
1.0
290
     0
  0
SCALE
  5
58
102
{ACAD_REACTORS
330
47
102
}
330
47
100
AcDbScale
 70
     0
300
100:1
140
100.0
141
1.0
290
     0
  0
SCALE
  5
59
102
{ACAD_REACTORS
330
47
102
}
330
47
100
AcDbScale
 70
     0
300
1/128" = 1'-0"
140
0.0078125
141
12.0
290
     0
  0
SCALE
  5
5A
102
{ACAD_REACTORS
330
47
102
}
330
47
100
AcDbScale
 70
     0
300
1/64" = 1'-0"
140
0.015625
141
12.0
290
     0
  0
SCALE
  5
5B
102
{ACAD_REACTORS
330
47
102
}
330
47
100
AcDbScale
 70
     0
300
1/32" = 1'-0"
140
0.03125
141
12.0
290
     0
  0
SCALE
  5
5C
102
{ACAD_REACTORS
330
47
102
}
330
47
100
AcDbScale
 70
     0
300
1/16" = 1'-0"
140
0.0625
141
12.0
290
     0
  0
SCALE
  5
5D
102
{ACAD_REACTORS
330
47
102
}
330
47
100
AcDbScale
 70
     0
300
3/32" = 1'-0"
140
0.09375
141
12.0
290
     0
  0
SCALE
  5
5E
102
{ACAD_REACTORS
330
47
102
}
330
47
100
AcDbScale
 70
     0
300
1/8" = 1'-0"
140
0.125
141
12.0
290
     0
  0
SCALE
  5
5F
102
{ACAD_REACTORS
330
47
102
}
330
47
100
AcDbScale
 70
     0
300
3/16" = 1'-0"
140
0.1875
141
12.0
290
     0
  0
SCALE
  5
60
102
{ACAD_REACTORS
330
47
102
}
330
47
100
AcDbScale
 70
     0
300
1/4" = 1'-0"
140
0.25
141
12.0
290
     0
  0
SCALE
  5
61
102
{ACAD_REACTORS
330
47
102
}
330
47
100
AcDbScale
 70
     0
300
3/8" = 1'-0"
140
0.375
141
12.0
290
     0
  0
SCALE
  5
62
102
{ACAD_REACTORS
330
47
102
}
330
47
100
AcDbScale
 70
     0
300
1/2" = 1'-0"
140
0.5
141
12.0
290
     0
  0
SCALE
  5
63
102
{ACAD_REACTORS
330
47
102
}
330
47
100
AcDbScale
 70
     0
300
3/4" = 1'-0"
140
0.75
141
12.0
290
     0
  0
SCALE
  5
64
102
{ACAD_REACTORS
330
47
102
}
330
47
100
AcDbScale
 70
     0
300
1" = 1'-0"
140
1.0
141
12.0
290
     0
  0
SCALE
  5
65
102
{ACAD_REACTORS
330
47
102
}
330
47
100
AcDbScale
 70
     0
300
1-1/2" = 1'-0"
140
1.5
141
12.0
290
     0
  0
SCALE
  5
66
102
{ACAD_REACTORS
330
47
102
}
330
47
100
AcDbScale
 70
     0
300
3" = 1'-0"
140
3.0
141
12.0
290
     0
  0
SCALE
  5
67
102
{ACAD_REACTORS
330
47
102
}
330
47
100
AcDbScale
 70
     0
300
6" = 1'-0"
140
6.0
141
12.0
290
     0
  0
SCALE
  5
68
102
{ACAD_REACTORS
330
47
102
}
330
47
100
AcDbScale
 70
     0
300
1'-0" = 1'-0"
140
12.0
141
12.0
290
     0
  0
TABLESTYLE
  5
6A
102
{ACAD_REACTORS
330
69
102
}
102
{ACAD_XDICTIONARY
360
254
102
}
330
69
100
AcDbTableStyle
  3
Standard
 70
     0
 71
     0
 40
0.06
 41
0.06
280
     0
281
     0
  7
Standard
140
4.5
170
     2
 62
     0
 63
   257
283
     0
 90
        4
 91
        0
  1

274
    -2
284
     1
 64
     0
275
    -2
285
     1
 65
     0
276
    -2
286
     1
 66
     0
277
    -2
287
     1
 67
     0
278
    -2
288
     1
 68
     0
279
    -2
289
     1
 69
     0
  7
Standard
140
6.0
170
     5
 62
     0
 63
   257
283
     0
 90
        4
 91
        0
  1

274
    -2
284
     1
 64
     0
275
    -2
285
     1
 65
     0
276
    -2
286
     1
 66
     0
277
    -2
287
     1
 67
     0
278
    -2
288
     1
 68
     0
279
    -2
289
     1
 69
     0
  7
Standard
140
4.5
170
     5
 62
     0
 63
   257
283
     0
 90
        4
 91
        0
  1

274
    -2
284
     1
 64
     0
275
    -2
285
     1
 65
     0
276
    -2
286
     1
 66
     0
277
    -2
287
     1
 67
     0
278
    -2
288
     1
 68
     0
279
    -2
289
     1
 69
     0
  0
VISUALSTYLE
  5
2F
102
{ACAD_REACTORS
330
2A
102
}
102
{ACAD_XDICTIONARY
360
22C
102
}
330
2A
100
AcDbVisualStyle
  2
2dWireframe
 70
     4
 71
     0
 72
     2
 73
     0
 90
        0
 40
0.6
 41
30.0
 62
     5
 63
     7
421
 16777215
 74
     1
 91
        4
 64
     7
 65
   257
 75
     1
175
     1
 42
1.0
 92
        0
 66
   257
 43
1.0
 76
     1
 77
     6
 78
     2
 67
     7
 79
     5
170
     0
171
     0
290
     0
174
     0
 93
        1
 44
0.0
173
     0
291
     0
 45
0.0
  0
VISUALSTYLE
  5
32
102
{ACAD_REACTORS
330
2A
102
}
102
{ACAD_XDICTIONARY
360
232
102
}
330
2A
100
AcDbVisualStyle
  2
Basic
 70
     7
 71
     1
 72
     0
 73
     1
 90
        0
 40
0.6
 41
30.0
 62
     5
 63
     7
421
 16777215
 74
     0
 91
        4
 64
     7
 65
   257
 75
     1
175
     1
 42
1.0
 92
        8
 66
     7
 43
1.0
 76
     1
 77
     6
 78
     2
 67
     7
 79
     5
170
     0
171
     0
290
     0
174
     0
 93
        1
 44
0.0
173
     0
291
     1
 45
0.0
  0
VISUALSTYLE
  5
36
102
{ACAD_REACTORS
330
2A
102
}
102
{ACAD_XDICTIONARY
360
23A
102
}
330
2A
100
AcDbVisualStyle
  2
Brighten
 70
    12
 71
     2
 72
     2
 73
     0
 90
        0
 40
0.6
 41
30.0
 62
     5
 63
     7
421
 16777215
 74
     1
 91
        4
 64
     7
 65
   257
 75
     1
175
     1
 42
1.0
 92
        8
 66
     7
 43
1.0
 76
     1
 77
     6
 78
     2
 67
     7
 79
     5
170
     0
171
     0
290
     0
174
     0
 93
        1
 44
50.0
173
     0
291
     1
 45
0.0
  0
VISUALSTYLE
  5
3A
102
{ACAD_REACTORS
330
2A
102
}
102
{ACAD_XDICTIONARY
360
242
102
}
330
2A
100
AcDbVisualStyle
  2
ColorChange
 70
    16
 71
     2
 72
     2
 73
     3
 90
        0
 40
0.6
 41
30.0
 62
     5
 63
     8
421
  8421504
 74
     1
 91
        4
 64
     7
 65
   257
 75
     1
175
     1
 42
1.0
 92
        8
 66
     8
424
  8421504
 43
1.0
 76
     1
 77
     6
 78
     2
 67
     7
 79
     5
170
     0
171
     0
290
     0
174
     0
 93
        1
 44
0.0
173
     0
291
     1
 45
0.0
  0
VISUALSTYLE
  5
34
102
{ACAD_REACTORS
330
2A
102
}
102
{ACAD_XDICTIONARY
360
236
102
}
330
2A
100
AcDbVisualStyle
  2
Conceptual
 70
     9
 71
     3
 72
     2
 73
     0
 90
        0
 40
0.6
 41
30.0
 62
     5
 63
     7
421
 16777215
 74
     2
 91
        2
 64
     7
 65
   257
 75
     1
175
     1
 42
179.0
 92
        8
 66
     7
 43
1.0
 76
     1
 77
     6
 78
     2
 67
     7
 79
     3
170
     0
171
     0
290
     0
174
     0
 93
        1
 44
0.0
173
     0
291
     0
 45
0.0
  0
VISUALSTYLE
  5
35
102
{ACAD_REACTORS
330
2A
102
}
102
{ACAD_XDICTIONARY
360
238
102
}
330
2A
100
AcDbVisualStyle
  2
Dim
 70
    11
 71
     2
 72
     2
 73
     0
 90
        0
 40
0.6
 41
30.0
 62
     5
 63
     7
421
 16777215
 74
     1
 91
        4
 64
     7
 65
   257
 75
     1
175
     1
 42
1.0
 92
        8
 66
     7
 43
1.0
 76
     1
 77
     6
 78
     2
 67
     7
 79
     5
170
     0
171
     0
290
     0
174
     0
 93
        1
 44
-50.0
173
     0
291
     1
 45
0.0
  0
VISUALSTYLE
  5
3D
102
{ACAD_REACTORS
330
2A
102
}
102
{ACAD_XDICTIONARY
360
248
102
}
330
2A
100
AcDbVisualStyle
  2
EdgeColorOff
 70
    22
 71
     2
 72
     2
 73
     0
 90
        0
 40
0.6
 41
30.0
 62
     5
 63
     7
421
 16777215
 74
     1
 91
        4
 64
     7
 65
   257
 75
     1
175
     1
 42
1.0
 92
        8
 66
     7
 43
1.0
 76
     1
 77
     6
 78
     2
 67
     7
 79
     5
170
     0
171
     0
290
     0
174
     0
 93
        1
 44
0.0
173
     0
291
     1
 45
0.0
  0
VISUALSTYLE
  5
39
102
{ACAD_REACTORS
330
2A
102
}
102
{ACAD_XDICTIONARY
360
240
102
}
330
2A
100
AcDbVisualStyle
  2
Facepattern
 70
    15
 71
     2
 72
     2
 73
     0
 90
        0
 40
0.6
 41
30.0
 62
     5
 63
     7
421
 16777215
 74
     1
 91
        4
 64
     7
 65
   257
 75
     1
175
     1
 42
1.0
 92
        8
 66
     7
 43
1.0
 76
     1
 77
     6
 78
     2
 67
     7
 79
     5
170
     0
171
     0
290
     0
174
     0
 93
        1
 44
0.0
173
     0
291
     1
 45
0.0
  0
VISUALSTYLE
  5
2B
102
{ACAD_REACTORS
330
2A
102
}
102
{ACAD_XDICTIONARY
360
224
102
}
330
2A
100
AcDbVisualStyle
  2
Flat
 70
     0
 71
     2
 72
     1
 73
     1
 90
        2
 40
0.6
 41
30.0
 62
     5
 63
     7
421
 16777215
 74
     0
 91
        0
 64
     7
 65
   257
 75
     1
175
     1
 42
1.0
 92
        8
 66
     7
 43
1.0
 76
     1
 77
     6
 78
     2
 67
     7
 79
     5
170
     0
171
     0
290
     0
174
     0
 93
       13
 44
0.0
173
     0
291
     1
 45
0.0
  0
VISUALSTYLE
  5
2C
102
{ACAD_REACTORS
330
2A
102
}
102
{ACAD_XDICTIONARY
360
226
102
}
330
2A
100
AcDbVisualStyle
  2
FlatWithEdges
 70
     1
 71
     2
 72
     1
 73
     1
 90
        2
 40
0.6
 41
30.0
 62
     5
 63
     7
421
 16777215
 74
     1
 91
        0
 64
     7
 65
   257
 75
     1
175
     1
 42
1.0
 92
        0
 66
   257
 43
1.0
 76
     1
 77
     6
 78
     2
 67
     7
 79
     5
170
     0
171
     0
290
     0
174
     0
 93
       13
 44
0.0
173
     0
291
     1
 45
0.0
  0
VISUALSTYLE
  5
2D
102
{ACAD_REACTORS
330
2A
102
}
102
{ACAD_XDICTIONARY
360
228
102
}
330
2A
100
AcDbVisualStyle
  2
Gouraud
 70
     2
 71
     2
 72
     2
 73
     1
 90
        2
 40
0.6
 41
30.0
 62
     5
 63
     7
421
 16777215
 74
     0
 91
        0
 64
     7
 65
   257
 75
     1
175
     1
 42
1.0
 92
        0
 66
     7
 43
1.0
 76
     1
 77
     6
 78
     2
 67
     7
 79
     5
170
     0
171
     0
290
     0
174
     0
 93
       13
 44
0.0
173
     0
291
     1
 45
0.0
  0
VISUALSTYLE
  5
2E
102
{ACAD_REACTORS
330
2A
102
}
102
{ACAD_XDICTIONARY
360
22A
102
}
330
2A
100
AcDbVisualStyle
  2
GouraudWithEdges
 70
     3
 71
     2
 72
     2
 73
     1
 90
        2
 40
0.6
 41
30.0
 62
     5
 63
     7
421
 16777215
 74
     1
 91
        0
 64
     7
 65
   257
 75
     1
175
     1
 42
1.0
 92
        0
 66
   257
 43
1.0
 76
     1
 77
     6
 78
     2
 67
     7
 79
     5
170
     0
171
     0
290
     0
174
     0
 93
       13
 44
0.0
173
     0
291
     1
 45
0.0
  0
VISUALSTYLE
  5
31
102
{ACAD_REACTORS
330
2A
102
}
102
{ACAD_XDICTIONARY
360
230
102
}
330
2A
100
AcDbVisualStyle
  2
Hidden
 70
     6
 71
     1
 72
     2
 73
     2
 90
        0
 40
0.6
 41
30.0
 62
     5
 63
     7
421
 16777215
 74
     2
 91
        2
 64
     7
 65
   257
 75
     2
175
     1
 42
40.0
 92
        0
 66
   257
 43
1.0
 76
     1
 77
     6
 78
     2
 67
     7
 79
     3
170
     0
171
     0
290
     0
174
     0
 93
        1
 44
0.0
173
     0
291
     0
 45
0.0
  0
VISUALSTYLE
  5
3B
102
{ACAD_REACTORS
330
2A
102
}
102
{ACAD_XDICTIONARY
360
244
102
}
330
2A
100
AcDbVisualStyle
  2
JitterOff
 70
    20
 71
     2
 72
     2
 73
     0
 90
        0
 40
0.6
 41
30.0
 62
     5
 63
     7
421
 16777215
 74
     1
 91
        4
 64
     7
 65
   257
 75
     1
175
     1
 42
1.0
 92
       10
 66
     7
 43
1.0
 76
     1
 77
     6
 78
     2
 67
     7
 79
     5
170
     0
171
     0
290
     0
174
     0
 93
        1
 44
0.0
173
     0
291
     1
 45
0.0
  0
VISUALSTYLE
  5
38
102
{ACAD_REACTORS
330
2A
102
}
102
{ACAD_XDICTIONARY
360
23E
102
}
330
2A
100
AcDbVisualStyle
  2
Linepattern
 70
    14
 71
     2
 72
     2
 73
     0
 90
        0
 40
0.6
 41
30.0
 62
     5
 63
     7
421
 16777215
 74
     1
 91
        4
 64
     7
 65
   257
 75
     7
175
     7
 42
1.0
 92
        8
 66
     7
 43
1.0
 76
     1
 77
     6
 78
     2
 67
     7
 79
     5
170
     0
171
     0
290
     0
174
     0
 93
        1
 44
0.0
173
     0
291
     1
 45
0.0
  0
VISUALSTYLE
  5
3C
102
{ACAD_REACTORS
330
2A
102
}
102
{ACAD_XDICTIONARY
360
246
102
}
330
2A
100
AcDbVisualStyle
  2
OverhangOff
 70
    21
 71
     2
 72
     2
 73
     0
 90
        0
 40
0.6
 41
30.0
 62
     5
 63
     7
421
 16777215
 74
     1
 91
        4
 64
     7
 65
   257
 75
     1
175
     1
 42
1.0
 92
        9
 66
     7
 43
1.0
 76
     1
 77
     6
 78
     2
 67
     7
 79
     5
170
     0
171
     0
290
     0
174
     0
 93
        1
 44
0.0
173
     0
291
     1
 45
0.0
  0
VISUALSTYLE
  5
33
102
{ACAD_REACTORS
330
2A
102
}
102
{ACAD_XDICTIONARY
360
234
102
}
330
2A
100
AcDbVisualStyle
  2
Realistic
 70
     8
 71
     2
 72
     3
 73
     0
 90
        2
 40
0.6
 41
30.0
 62
     5
 63
     7
421
 16777215
 74
     0
 91
        0
 64
     7
 65
   257
 75
     1
175
     1
 42
1.0
 92
        8
 66
   257
 43
1.0
 76
     1
 77
     6
 78
     2
 67
     7
 79
     3
170
     0
171
     0
290
     0
174
     0
 93
       13
 44
0.0
173
     0
291
     0
 45
0.0
  0
VISUALSTYLE
  5
42
102
{ACAD_REACTORS
330
2A
102
}
102
{ACAD_XDICTIONARY
360
252
102
}
330
2A
100
AcDbVisualStyle
  2
Shaded
 70
    27
 71
     2
 72
     2
 73
     1
 90
        2
 40
0.6
 41
30.0
 62
     5
 63
     7
421
 16777215
 74
     0
 91
        4
 64
     7
 65
   257
 75
     1
175
     1
 42
1.0
 92
        8
 66
   257
 43
1.0
 76
     1
 77
     6
 78
     2
 67
     8
425
  7895160
 79
     3
170
     0
171
     0
290
     0
174
     0
 93
        5
 44
0.0
173
     0
291
     0
 45
0.0
  0
VISUALSTYLE
  5
41
102
{ACAD_REACTORS
330
2A
102
}
102
{ACAD_XDICTIONARY
360
250
102
}
330
2A
100
AcDbVisualStyle
  2
Shaded with edges
 70
    26
 71
     2
 72
     2
 73
     1
 90
        2
 40
0.6
 41
30.0
 62
     5
 63
     7
421
 16777215
 74
     1
 91
       10
 64
     7
 65
   257
 75
     2
175
     1
 42
1.0
 92
        8
 66
   257
 43
1.0
 76
     1
 77
     6
 78
     2
 67
     7
 79
     3
170
     0
171
     0
290
     0
174
     0
 93
        5
 44
0.0
173
     0
291
     0
 45
0.0
  0
VISUALSTYLE
  5
3E
102
{ACAD_REACTORS
330
2A
102
}
102
{ACAD_XDICTIONARY
360
24A
102
}
330
2A
100
AcDbVisualStyle
  2
Shades of Gray
 70
    23
 71
     2
 72
     2
 73
     3
 90
        0
 40
0.6
 41
30.0
 62
     5
 63
     7
421
 16777215
 74
     2
 91
        2
 64
     7
 65
     7
 75
     1
175
     1
 42
40.0
 92
        8
 66
     7
 43
1.0
 76
     1
 77
     6
 78
     2
 67
     7
 79
     3
170
     0
171
     0
290
     0
174
     0
 93
        1
 44
0.0
173
     0
291
     0
 45
0.0
  0
VISUALSTYLE
  5
3F
102
{ACAD_REACTORS
330
2A
102
}
102
{ACAD_XDICTIONARY
360
24C
102
}
330
2A
100
AcDbVisualStyle
  2
Sketchy
 70
    24
 71
     1
 72
     2
 73
     2
 90
        0
 40
0.6
 41
30.0
 62
     5
 63
     7
421
 16777215
 74
     2
 91
        2
 64
     7
 65
     7
 75
     1
175
     1
 42
40.0
 92
       11
 66
     7
 43
1.0
 76
     1
 77
     6
 78
     2
 67
     7
 79
     6
170
     0
171
     0
290
     0
174
     0
 93
        1
 44
0.0
173
     0
291
     0
 45
0.0
  0
VISUALSTYLE
  5
37
102
{ACAD_REACTORS
330
2A
102
}
102
{ACAD_XDICTIONARY
360
23C
102
}
330
2A
100
AcDbVisualStyle
  2
Thicken
 70
    13
 71
     2
 72
     2
 73
     0
 90
        0
 40
0.6
 41
30.0
 62
     5
 63
     7
421
 16777215
 74
     1
 91
        4
 64
     7
 65
   257
 75
     1
175
     1
 42
1.0
 92
       12
 66
     7
 43
1.0
 76
     1
 77
     6
 78
     2
 67
     7
 79
     5
170
     0
171
     0
290
     0
174
     0
 93
        1
 44
0.0
173
     0
291
     1
 45
0.0
  0
VISUALSTYLE
  5
30
102
{ACAD_REACTORS
330
2A
102
}
102
{ACAD_XDICTIONARY
360
22E
102
}
330
2A
100
AcDbVisualStyle
  2
Wireframe
 70
     5
 71
     0
 72
     2
 73
     0
 90
        0
 40
0.6
 41
30.0
 62
     5
 63
     7
421
 16777215
 74
     1
 91
        4
 64
     7
 65
   257
 75
     1
175
     1
 42
1.0
 92
        0
 66
   257
 43
1.0
 76
     1
 77
     6
 78
     2
 67
     7
 79
     3
170
     0
171
     0
290
     0
174
     0
 93
        1
 44
0.0
173
     0
291
     0
 45
0.0
  0
VISUALSTYLE
  5
40
102
{ACAD_REACTORS
330
2A
102
}
102
{ACAD_XDICTIONARY
360
24E
102
}
330
2A
100
AcDbVisualStyle
  2
X-Ray
 70
    25
 71
     2
 72
     2
 73
     1
 90
        1
 40
0.5
 41
30.0
 62
     5
 63
     7
421
 16777215
 74
     1
 91
        0
 64
     7
 65
   257
 75
     1
175
     1
 42
1.0
 92
        8
 66
     7
 43
1.0
 76
     1
 77
     6
 78
     2
 67
     7
 79
     3
170
     0
171
     0
290
     0
174
     0
 93
       13
 44
0.0
173
     0
291
     0
 45
0.0
  0
DICTIONARYVAR
  5
222
102
{ACAD_REACTORS
330
221
102
}
330
221
100
DictionaryVariables
280
     0
  1
1:1
  0
DICTIONARYVAR
  5
25E
102
{ACAD_REACTORS
330
221
102
}
330
221
100
DictionaryVariables
280
     0
  1
3.500000
  0
DICTIONARYVAR
  5
25F
102
{ACAD_REACTORS
330
221
102
}
330
221
100
DictionaryVariables
280
     0
  1
acadiso.lin
  0
DICTIONARYVAR
  5
25B
102
{ACAD_REACTORS
330
221
102
}
330
221
100
DictionaryVariables
280
     0
  1
Standard
  0
DICTIONARYVAR
  5
25A
102
{ACAD_REACTORS
330
221
102
}
330
221
100
DictionaryVariables
280
     0
  1
Standard
  0
DICTIONARYVAR
  5
223
102
{ACAD_REACTORS
330
221
102
}
330
221
100
DictionaryVariables
280
     0
  1
2
  0
DICTIONARY
  5
257
330
6C
100
AcDbDictionary
280
     1
281
     1
  3
ACAD_XREC_ROUNDTRIP
360
258
  0
DICTIONARY
  5
254
330
6A
100
AcDbDictionary
280
     1
281
     1
  3
ACAD_ROUNDTRIP_2008_TABLESTYLE_CELLSTYLEMAP
360
255
  0
DICTIONARY
  5
22C
330
2F
100
AcDbDictionary
280
     1
281
     1
  3
ACAD_XREC_ROUNDTRIP
360
22D
  0
DICTIONARY
  5
232
330
32
100
AcDbDictionary
280
     1
281
     1
  3
ACAD_XREC_ROUNDTRIP
360
233
  0
DICTIONARY
  5
23A
330
36
100
AcDbDictionary
280
     1
281
     1
  3
ACAD_XREC_ROUNDTRIP
360
23B
  0
DICTIONARY
  5
242
330
3A
100
AcDbDictionary
280
     1
281
     1
  3
ACAD_XREC_ROUNDTRIP
360
243
  0
DICTIONARY
  5
236
330
34
100
AcDbDictionary
280
     1
281
     1
  3
ACAD_XREC_ROUNDTRIP
360
237
  0
DICTIONARY
  5
238
330
35
100
AcDbDictionary
280
     1
281
     1
  3
ACAD_XREC_ROUNDTRIP
360
239
  0
DICTIONARY
  5
248
330
3D
100
AcDbDictionary
280
     1
281
     1
  3
ACAD_XREC_ROUNDTRIP
360
249
  0
DICTIONARY
  5
240
330
39
100
AcDbDictionary
280
     1
281
     1
  3
ACAD_XREC_ROUNDTRIP
360
241
  0
DICTIONARY
  5
224
330
2B
100
AcDbDictionary
280
     1
281
     1
  3
ACAD_XREC_ROUNDTRIP
360
225
  0
DICTIONARY
  5
226
330
2C
100
AcDbDictionary
280
     1
281
     1
  3
ACAD_XREC_ROUNDTRIP
360
227
  0
DICTIONARY
  5
228
330
2D
100
AcDbDictionary
280
     1
281
     1
  3
ACAD_XREC_ROUNDTRIP
360
229
  0
DICTIONARY
  5
22A
330
2E
100
AcDbDictionary
280
     1
281
     1
  3
ACAD_XREC_ROUNDTRIP
360
22B
  0
DICTIONARY
  5
230
330
31
100
AcDbDictionary
280
     1
281
     1
  3
ACAD_XREC_ROUNDTRIP
360
231
  0
DICTIONARY
  5
244
330
3B
100
AcDbDictionary
280
     1
281
     1
  3
ACAD_XREC_ROUNDTRIP
360
245
  0
DICTIONARY
  5
23E
330
38
100
AcDbDictionary
280
     1
281
     1
  3
ACAD_XREC_ROUNDTRIP
360
23F
  0
DICTIONARY
  5
246
330
3C
100
AcDbDictionary
280
     1
281
     1
  3
ACAD_XREC_ROUNDTRIP
360
247
  0
DICTIONARY
  5
234
330
33
100
AcDbDictionary
280
     1
281
     1
  3
ACAD_XREC_ROUNDTRIP
360
235
  0
DICTIONARY
  5
252
330
42
100
AcDbDictionary
280
     1
281
     1
  3
ACAD_XREC_ROUNDTRIP
360
253
  0
DICTIONARY
  5
250
330
41
100
AcDbDictionary
280
     1
281
     1
  3
ACAD_XREC_ROUNDTRIP
360
251
  0
DICTIONARY
  5
24A
330
3E
100
AcDbDictionary
280
     1
281
     1
  3
ACAD_XREC_ROUNDTRIP
360
24B
  0
DICTIONARY
  5
24C
330
3F
100
AcDbDictionary
280
     1
281
     1
  3
ACAD_XREC_ROUNDTRIP
360
24D
  0
DICTIONARY
  5
23C
330
37
100
AcDbDictionary
280
     1
281
     1
  3
ACAD_XREC_ROUNDTRIP
360
23D
  0
DICTIONARY
  5
22E
330
30
100
AcDbDictionary
280
     1
281
     1
  3
ACAD_XREC_ROUNDTRIP
360
22F
  0
DICTIONARY
  5
24E
330
40
100
AcDbDictionary
280
     1
281
     1
  3
ACAD_XREC_ROUNDTRIP
360
24F
  0
XRECORD
  5
258
102
{ACAD_REACTORS
330
257
102
}
330
257
100
AcDbXrecord
280
     1
102
ACAD_ROUNDTRIP_2010_MLEADER_STYLE
  0
CELLSTYLEMAP
  5
255
102
{ACAD_REACTORS
330
254
102
}
330
254
100
AcDbCellStyleMap
 90
        3
300
CELLSTYLE
  1
TABLEFORMAT_BEGIN
 90
        5
170
     1
 91
        0
 92
    32768
 62
   257
 93
        1
300
CONTENTFORMAT
  1
CONTENTFORMAT_BEGIN
 90
        0
 91
        0
 92
        4
 93
        0
300

 40
0.0
140
1.0
 94
        5
 62
     0
340
11
144
6.0
309
CONTENTFORMAT_END
171
     1
301
MARGIN
  1
CELLMARGIN_BEGIN
 40
1.5
 40
1.5
 40
1.5
 40
1.5
 40
1.5
 40
1.5
309
CELLMARGIN_END
 94
        6
 95
        1
302
GRIDFORMAT
  1
GRIDFORMAT_BEGIN
 90
        0
 91
        1
 62
     0
 92
       -2
340
14
 93
        0
 40
0.045
309
GRIDFORMAT_END
 95
        2
302
GRIDFORMAT
  1
GRIDFORMAT_BEGIN
 90
        0
 91
        1
 62
     0
 92
       -2
340
14
 93
        0
 40
0.045
309
GRIDFORMAT_END
 95
        4
302
GRIDFORMAT
  1
GRIDFORMAT_BEGIN
 90
        0
 91
        1
 62
     0
 92
       -2
340
14
 93
        0
 40
0.045
309
GRIDFORMAT_END
 95
        8
302
GRIDFORMAT
  1
GRIDFORMAT_BEGIN
 90
        0
 91
        1
 62
     0
 92
       -2
340
14
 93
        0
 40
0.045
309
GRIDFORMAT_END
 95
       16
302
GRIDFORMAT
  1
GRIDFORMAT_BEGIN
 90
        0
 91
        1
 62
     0
 92
       -2
340
14
 93
        0
 40
0.045
309
GRIDFORMAT_END
 95
       32
302
GRIDFORMAT
  1
GRIDFORMAT_BEGIN
 90
        0
 91
        1
 62
     0
 92
       -2
340
14
 93
        0
 40
0.045
309
GRIDFORMAT_END
309
TABLEFORMAT_END
  1
CELLSTYLE_BEGIN
 90
        1
 91
        1
300
_TITLE
309
CELLSTYLE_END
300
CELLSTYLE
  1
TABLEFORMAT_BEGIN
 90
        5
170
     1
 91
        0
 92
        0
 62
   257
 93
        1
300
CONTENTFORMAT
  1
CONTENTFORMAT_BEGIN
 90
        0
 91
        0
 92
        4
 93
        0
300

 40
0.0
140
1.0
 94
        5
 62
     0
340
11
144
4.5
309
CONTENTFORMAT_END
171
     1
301
MARGIN
  1
CELLMARGIN_BEGIN
 40
1.5
 40
1.5
 40
1.5
 40
1.5
 40
1.5
 40
1.5
309
CELLMARGIN_END
 94
        6
 95
        1
302
GRIDFORMAT
  1
GRIDFORMAT_BEGIN
 90
        0
 91
        1
 62
     0
 92
       -2
340
14
 93
        0
 40
0.045
309
GRIDFORMAT_END
 95
        2
302
GRIDFORMAT
  1
GRIDFORMAT_BEGIN
 90
        0
 91
        1
 62
     0
 92
       -2
340
14
 93
        0
 40
0.045
309
GRIDFORMAT_END
 95
        4
302
GRIDFORMAT
  1
GRIDFORMAT_BEGIN
 90
        0
 91
        1
 62
     0
 92
       -2
340
14
 93
        0
 40
0.045
309
GRIDFORMAT_END
 95
        8
302
GRIDFORMAT
  1
GRIDFORMAT_BEGIN
 90
        0
 91
        1
 62
     0
 92
       -2
340
14
 93
        0
 40
0.045
309
GRIDFORMAT_END
 95
       16
302
GRIDFORMAT
  1
GRIDFORMAT_BEGIN
 90
        0
 91
        1
 62
     0
 92
       -2
340
14
 93
        0
 40
0.045
309
GRIDFORMAT_END
 95
       32
302
GRIDFORMAT
  1
GRIDFORMAT_BEGIN
 90
        0
 91
        1
 62
     0
 92
       -2
340
14
 93
        0
 40
0.045
309
GRIDFORMAT_END
309
TABLEFORMAT_END
  1
CELLSTYLE_BEGIN
 90
        2
 91
        1
300
_HEADER
309
CELLSTYLE_END
300
CELLSTYLE
  1
TABLEFORMAT_BEGIN
 90
        5
170
     1
 91
        0
 92
        0
 62
   257
 93
        1
300
CONTENTFORMAT
  1
CONTENTFORMAT_BEGIN
 90
        0
 91
        0
 92
        4
 93
        0
300

 40
0.0
140
1.0
 94
        2
 62
     0
340
11
144
4.5
309
CONTENTFORMAT_END
171
     1
301
MARGIN
  1
CELLMARGIN_BEGIN
 40
1.5
 40
1.5
 40
1.5
 40
1.5
 40
1.5
 40
1.5
309
CELLMARGIN_END
 94
        6
 95
        1
302
GRIDFORMAT
  1
GRIDFORMAT_BEGIN
 90
        0
 91
        1
 62
     0
 92
       -2
340
14
 93
        0
 40
0.045
309
GRIDFORMAT_END
 95
        2
302
GRIDFORMAT
  1
GRIDFORMAT_BEGIN
 90
        0
 91
        1
 62
     0
 92
       -2
340
14
 93
        0
 40
0.045
309
GRIDFORMAT_END
 95
        4
302
GRIDFORMAT
  1
GRIDFORMAT_BEGIN
 90
        0
 91
        1
 62
     0
 92
       -2
340
14
 93
        0
 40
0.045
309
GRIDFORMAT_END
 95
        8
302
GRIDFORMAT
  1
GRIDFORMAT_BEGIN
 90
        0
 91
        1
 62
     0
 92
       -2
340
14
 93
        0
 40
0.045
309
GRIDFORMAT_END
 95
       16
302
GRIDFORMAT
  1
GRIDFORMAT_BEGIN
 90
        0
 91
        1
 62
     0
 92
       -2
340
14
 93
        0
 40
0.045
309
GRIDFORMAT_END
 95
       32
302
GRIDFORMAT
  1
GRIDFORMAT_BEGIN
 90
        0
 91
        1
 62
     0
 92
       -2
340
14
 93
        0
 40
0.045
309
GRIDFORMAT_END
309
TABLEFORMAT_END
  1
CELLSTYLE_BEGIN
 90
        3
 91
        2
300
_DATA
309
CELLSTYLE_END
  0
XRECORD
  5
22D
102
{ACAD_REACTORS
330
22C
102
}
330
22C
100
AcDbXrecord
280
     1
102
RTVSPropertyOp0
 70
     1
102
RTVSPropertyOp1
 70
     1
102
RTVSPropertyOp2
 70
     1
102
RTVSPropertyOp3
 70
     1
102
RTVSPropertyOp4
 70
     1
102
RTVSPropertyOp5
 70
     1
102
RTVSPropertyOp6
 70
     1
102
RTVSPropertyOp7
 70
     1
102
RTVSPropertyOp8
 70
     1
102
RTVSPropertyOp9
 70
     1
102
RTVSPropertyOp10
 70
     1
102
RTVSPropertyOp11
 70
     1
102
RTVSPropertyOp12
 70
     1
102
RTVSPropertyOp13
 70
     1
102
RTVSPropertyOp14
 70
     1
102
RTVSPropertyOp15
 70
     1
102
RTVSPropertyOp16
 70
     1
102
RTVSPropertyOp17
 70
     1
102
RTVSPropertyOp18
 70
     1
102
RTVSPropertyOp19
 70
     1
102
RTVSPropertyOp20
 70
     1
102
RTVSPropertyOp21
 70
     1
102
RTVSPropertyOp22
 70
     1
102
RTVSPropertyOp23
 70
     1
102
RTVSPropertyOp24
 70
     1
102
RTVSPropertyOp25
 70
     1
102
RTVSPropertyOp26
 70
     1
102
RTVSPropertyOp27
 70
     1
102
RTVSPropertyOp28
 70
     1
102
RTVSPropertyOp29
 70
     1
102
RTVSPropertyOp30
 70
     1
102
RTVSPropertyOp31
 70
     1
102
RTVSPropertyOp32
 70
     1
102
RTVSPropertyOp33
 70
     1
102
RTVSPropertyOp34
 70
     1
102
RTVSPropertyOp35
 70
     1
102
RTVSPropertyOp36
 70
     1
102
RTVSPropertyOp37
 70
     1
102
RTVSPropertyOp38
 70
     1
102
RTVSPropertyOp39
 70
     1
102
RTVSPropertyOp40
 70
     1
102
RTVSPropertyOp41
 70
     1
102
RTVSPropertyOp42
 70
     1
102
RTVSPropertyOp43
 70
     1
102
RTVSPropertyOp44
 70
     1
102
RTVSPropertyOp45
 70
     1
102
RTVSPropertyOp46
 70
     1
102
RTVSPropertyOp47
 70
     1
102
RTVSPropertyOp48
 70
     1
102
RTVSPropertyOp49
 70
     1
102
RTVSPropertyOp50
 70
     1
102
RTVSPropertyOp51
 70
     0
102
RTVSPropertyOp52
 70
     0
102
RTVSPropertyOp53
 70
     1
102
RTVSPropertyOp54
 70
     1
102
RTVSPropertyOp55
 70
     1
102
RTVSPropertyOp56
 70
     1
102
RTVSPropertyOp57
 70
     1
102
RTVSPost2010Prop28
280
     1
102
RTVSPost2010PropOp28
 70
     1
102
RTVSPost2010Prop29
280
     1
102
RTVSPost2010PropOp29
 70
     1
102
RTVSPost2010Prop30
280
     0
102
RTVSPost2010PropOp30
 70
     1
102
RTVSPost2010Prop31
280
     0
102
RTVSPost2010PropOp31
 70
     1
102
RTVSPost2010Prop32
280
     0
102
RTVSPost2010PropOp32
 70
     1
102
RTVSPost2010Prop33
280
     0
102
RTVSPost2010PropOp33
 70
     1
102
RTVSPost2010Prop34
280
     0
102
RTVSPost2010PropOp34
 70
     1
102
RTVSPost2010Prop35
280
     0
102
RTVSPost2010PropOp35
 70
     1
102
RTVSPost2010Prop36
280
     0
102
RTVSPost2010PropOp36
 70
     1
102
RTVSPost2010Prop37
 90
       50
102
RTVSPost2010PropOp37
 70
     1
102
RTVSPost2010Prop38
140
0.0
102
RTVSPost2010PropOp38
 70
     1
102
RTVSPost2010Prop39
140
1.0
102
RTVSPost2010PropOp39
 70
     1
102
RTVSPost2010Prop40
 90
        0
102
RTVSPost2010PropOp40
 70
     1
102
RTVSPost2010Prop41ColorIndex
 90
       18
102
RTVSPost2010Prop41ColorRGB
 90
        0
102
RTVSPost2010PropOp41
 70
     1
102
RTVSPost2010Prop42
 90
       50
102
RTVSPost2010PropOp42
 70
     1
102
RTVSPost2010Prop43
 90
        3
102
RTVSPost2010PropOp43
 70
     1
102
RTVSPost2010Prop44ColorIndex
 90
        5
102
RTVSPost2010Prop44ColorRGB
 90
      255
102
RTVSPost2010PropOp44
 70
     1
102
RTVSPost2010Prop45
280
     0
102
RTVSPost2010PropOp45
 70
     1
102
RTVSPost2010Prop46
 90
       50
102
RTVSPost2010PropOp46
 70
     1
102
RTVSPost2010Prop47
 90
       50
102
RTVSPost2010PropOp47
 70
     1
102
RTVSPost2010Prop48
 90
       50
102
RTVSPost2010PropOp48
 70
     1
102
RTVSPost2010Prop49
280
     0
102
RTVSPost2010PropOp49
 70
     1
102
RTVSPost2010Prop50
 90
       50
102
RTVSPost2010PropOp50
 70
     1
102
RTVSPost2010Prop51ColorIndex
 90
      256
102
RTVSPost2010Prop51ColorRGB
 90
-16777216
102
RTVSPost2010PropOp51
 70
     0
102
RTVSPost2010Prop52
140
1.0
102
RTVSPost2010PropOp52
 70
     0
102
RTVSPost2010Prop53
 90
        2
102
RTVSPost2010PropOp53
 70
     1
102
RTVSPost2010Prop54
  1
strokes_ogs.tif
102
RTVSPost2010PropOp54
 70
     1
102
RTVSPost2010Prop55
280
     0
102
RTVSPost2010PropOp55
 70
     1
102
RTVSPost2010Prop56
140
1.0
102
RTVSPost2010PropOp56
 70
     1
102
RTVSPost2010Prop57
140
1.0
102
RTVSPost2010PropOp57
 70
     1
  0
XRECORD
  5
233
102
{ACAD_REACTORS
330
232
102
}
330
232
100
AcDbXrecord
280
     1
102
RTVSPropertyOp0
 70
     1
102
RTVSPropertyOp1
 70
     1
102
RTVSPropertyOp2
 70
     1
102
RTVSPropertyOp3
 70
     1
102
RTVSPropertyOp4
 70
     1
102
RTVSPropertyOp5
 70
     1
102
RTVSPropertyOp6
 70
     1
102
RTVSPropertyOp7
 70
     1
102
RTVSPropertyOp8
 70
     1
102
RTVSPropertyOp9
 70
     1
102
RTVSPropertyOp10
 70
     1
102
RTVSPropertyOp11
 70
     1
102
RTVSPropertyOp12
 70
     1
102
RTVSPropertyOp13
 70
     1
102
RTVSPropertyOp14
 70
     1
102
RTVSPropertyOp15
 70
     1
102
RTVSPropertyOp16
 70
     1
102
RTVSPropertyOp17
 70
     1
102
RTVSPropertyOp18
 70
     1
102
RTVSPropertyOp19
 70
     1
102
RTVSPropertyOp20
 70
     1
102
RTVSPropertyOp21
 70
     1
102
RTVSPropertyOp22
 70
     1
102
RTVSPropertyOp23
 70
     1
102
RTVSPropertyOp24
 70
     1
102
RTVSPropertyOp25
 70
     1
102
RTVSPropertyOp26
 70
     1
102
RTVSPropertyOp27
 70
     1
102
RTVSPropertyOp28
 70
     1
102
RTVSPropertyOp29
 70
     1
102
RTVSPropertyOp30
 70
     1
102
RTVSPropertyOp31
 70
     1
102
RTVSPropertyOp32
 70
     1
102
RTVSPropertyOp33
 70
     1
102
RTVSPropertyOp34
 70
     1
102
RTVSPropertyOp35
 70
     1
102
RTVSPropertyOp36
 70
     1
102
RTVSPropertyOp37
 70
     1
102
RTVSPropertyOp38
 70
     1
102
RTVSPropertyOp39
 70
     1
102
RTVSPropertyOp40
 70
     1
102
RTVSPropertyOp41
 70
     1
102
RTVSPropertyOp42
 70
     1
102
RTVSPropertyOp43
 70
     1
102
RTVSPropertyOp44
 70
     1
102
RTVSPropertyOp45
 70
     1
102
RTVSPropertyOp46
 70
     1
102
RTVSPropertyOp47
 70
     1
102
RTVSPropertyOp48
 70
     1
102
RTVSPropertyOp49
 70
     1
102
RTVSPropertyOp50
 70
     1
102
RTVSPropertyOp51
 70
     0
102
RTVSPropertyOp52
 70
     0
102
RTVSPropertyOp53
 70
     1
102
RTVSPropertyOp54
 70
     1
102
RTVSPropertyOp55
 70
     1
102
RTVSPropertyOp56
 70
     1
102
RTVSPropertyOp57
 70
     1
102
RTVSPost2010Prop28
280
     0
102
RTVSPost2010PropOp28
 70
     1
102
RTVSPost2010Prop29
280
     1
102
RTVSPost2010PropOp29
 70
     1
102
RTVSPost2010Prop30
280
     1
102
RTVSPost2010PropOp30
 70
     1
102
RTVSPost2010Prop31
280
     0
102
RTVSPost2010PropOp31
 70
     1
102
RTVSPost2010Prop32
280
     0
102
RTVSPost2010PropOp32
 70
     1
102
RTVSPost2010Prop33
280
     0
102
RTVSPost2010PropOp33
 70
     1
102
RTVSPost2010Prop34
280
     0
102
RTVSPost2010PropOp34
 70
     1
102
RTVSPost2010Prop35
280
     0
102
RTVSPost2010PropOp35
 70
     1
102
RTVSPost2010Prop36
280
     0
102
RTVSPost2010PropOp36
 70
     1
102
RTVSPost2010Prop37
 90
       50
102
RTVSPost2010PropOp37
 70
     1
102
RTVSPost2010Prop38
140
0.0
102
RTVSPost2010PropOp38
 70
     1
102
RTVSPost2010Prop39
140
1.0
102
RTVSPost2010PropOp39
 70
     1
102
RTVSPost2010Prop40
 90
        0
102
RTVSPost2010PropOp40
 70
     1
102
RTVSPost2010Prop41ColorIndex
 90
       18
102
RTVSPost2010Prop41ColorRGB
 90
        0
102
RTVSPost2010PropOp41
 70
     1
102
RTVSPost2010Prop42
 90
       50
102
RTVSPost2010PropOp42
 70
     1
102
RTVSPost2010Prop43
 90
        3
102
RTVSPost2010PropOp43
 70
     1
102
RTVSPost2010Prop44ColorIndex
 90
        5
102
RTVSPost2010Prop44ColorRGB
 90
      255
102
RTVSPost2010PropOp44
 70
     1
102
RTVSPost2010Prop45
280
     0
102
RTVSPost2010PropOp45
 70
     1
102
RTVSPost2010Prop46
 90
       50
102
RTVSPost2010PropOp46
 70
     1
102
RTVSPost2010Prop47
 90
       50
102
RTVSPost2010PropOp47
 70
     1
102
RTVSPost2010Prop48
 90
       50
102
RTVSPost2010PropOp48
 70
     1
102
RTVSPost2010Prop49
280
     0
102
RTVSPost2010PropOp49
 70
     1
102
RTVSPost2010Prop50
 90
       50
102
RTVSPost2010PropOp50
 70
     1
102
RTVSPost2010Prop51ColorIndex
 90
      256
102
RTVSPost2010Prop51ColorRGB
 90
-16777216
102
RTVSPost2010PropOp51
 70
     0
102
RTVSPost2010Prop52
140
1.0
102
RTVSPost2010PropOp52
 70
     0
102
RTVSPost2010Prop53
 90
        2
102
RTVSPost2010PropOp53
 70
     1
102
RTVSPost2010Prop54
  1
strokes_ogs.tif
102
RTVSPost2010PropOp54
 70
     1
102
RTVSPost2010Prop55
280
     0
102
RTVSPost2010PropOp55
 70
     1
102
RTVSPost2010Prop56
140
1.0
102
RTVSPost2010PropOp56
 70
     1
102
RTVSPost2010Prop57
140
1.0
102
RTVSPost2010PropOp57
 70
     1
  0
XRECORD
  5
23B
102
{ACAD_REACTORS
330
23A
102
}
330
23A
100
AcDbXrecord
280
     1
102
RTVSPropertyOp0
 70
     1
102
RTVSPropertyOp1
 70
     1
102
RTVSPropertyOp2
 70
     1
102
RTVSPropertyOp3
 70
     1
102
RTVSPropertyOp4
 70
     1
102
RTVSPropertyOp5
 70
     1
102
RTVSPropertyOp6
 70
     1
102
RTVSPropertyOp7
 70
     1
102
RTVSPropertyOp8
 70
     1
102
RTVSPropertyOp9
 70
     1
102
RTVSPropertyOp10
 70
     1
102
RTVSPropertyOp11
 70
     1
102
RTVSPropertyOp12
 70
     1
102
RTVSPropertyOp13
 70
     1
102
RTVSPropertyOp14
 70
     1
102
RTVSPropertyOp15
 70
     1
102
RTVSPropertyOp16
 70
     1
102
RTVSPropertyOp17
 70
     1
102
RTVSPropertyOp18
 70
     1
102
RTVSPropertyOp19
 70
     1
102
RTVSPropertyOp20
 70
     1
102
RTVSPropertyOp21
 70
     1
102
RTVSPropertyOp22
 70
     1
102
RTVSPropertyOp23
 70
     1
102
RTVSPropertyOp24
 70
     1
102
RTVSPropertyOp25
 70
     1
102
RTVSPropertyOp26
 70
     1
102
RTVSPropertyOp27
 70
     1
102
RTVSPropertyOp28
 70
     1
102
RTVSPropertyOp29
 70
     1
102
RTVSPropertyOp30
 70
     1
102
RTVSPropertyOp31
 70
     1
102
RTVSPropertyOp32
 70
     1
102
RTVSPropertyOp33
 70
     1
102
RTVSPropertyOp34
 70
     1
102
RTVSPropertyOp35
 70
     1
102
RTVSPropertyOp36
 70
     1
102
RTVSPropertyOp37
 70
     1
102
RTVSPropertyOp38
 70
     1
102
RTVSPropertyOp39
 70
     1
102
RTVSPropertyOp40
 70
     1
102
RTVSPropertyOp41
 70
     1
102
RTVSPropertyOp42
 70
     1
102
RTVSPropertyOp43
 70
     1
102
RTVSPropertyOp44
 70
     1
102
RTVSPropertyOp45
 70
     1
102
RTVSPropertyOp46
 70
     1
102
RTVSPropertyOp47
 70
     1
102
RTVSPropertyOp48
 70
     1
102
RTVSPropertyOp49
 70
     1
102
RTVSPropertyOp50
 70
     1
102
RTVSPropertyOp51
 70
     0
102
RTVSPropertyOp52
 70
     0
102
RTVSPropertyOp53
 70
     1
102
RTVSPropertyOp54
 70
     1
102
RTVSPropertyOp55
 70
     1
102
RTVSPropertyOp56
 70
     1
102
RTVSPropertyOp57
 70
     1
102
RTVSPost2010Prop28
280
     0
102
RTVSPost2010PropOp28
 70
     1
102
RTVSPost2010Prop29
280
     1
102
RTVSPost2010PropOp29
 70
     1
102
RTVSPost2010Prop30
280
     1
102
RTVSPost2010PropOp30
 70
     1
102
RTVSPost2010Prop31
280
     0
102
RTVSPost2010PropOp31
 70
     1
102
RTVSPost2010Prop32
280
     0
102
RTVSPost2010PropOp32
 70
     1
102
RTVSPost2010Prop33
280
     0
102
RTVSPost2010PropOp33
 70
     1
102
RTVSPost2010Prop34
280
     0
102
RTVSPost2010PropOp34
 70
     1
102
RTVSPost2010Prop35
280
     0
102
RTVSPost2010PropOp35
 70
     1
102
RTVSPost2010Prop36
280
     0
102
RTVSPost2010PropOp36
 70
     1
102
RTVSPost2010Prop37
 90
       50
102
RTVSPost2010PropOp37
 70
     1
102
RTVSPost2010Prop38
140
0.0
102
RTVSPost2010PropOp38
 70
     1
102
RTVSPost2010Prop39
140
1.0
102
RTVSPost2010PropOp39
 70
     1
102
RTVSPost2010Prop40
 90
        0
102
RTVSPost2010PropOp40
 70
     1
102
RTVSPost2010Prop41ColorIndex
 90
       18
102
RTVSPost2010Prop41ColorRGB
 90
        0
102
RTVSPost2010PropOp41
 70
     1
102
RTVSPost2010Prop42
 90
       50
102
RTVSPost2010PropOp42
 70
     1
102
RTVSPost2010Prop43
 90
        3
102
RTVSPost2010PropOp43
 70
     1
102
RTVSPost2010Prop44ColorIndex
 90
        5
102
RTVSPost2010Prop44ColorRGB
 90
      255
102
RTVSPost2010PropOp44
 70
     1
102
RTVSPost2010Prop45
280
     0
102
RTVSPost2010PropOp45
 70
     1
102
RTVSPost2010Prop46
 90
       50
102
RTVSPost2010PropOp46
 70
     1
102
RTVSPost2010Prop47
 90
       50
102
RTVSPost2010PropOp47
 70
     1
102
RTVSPost2010Prop48
 90
       50
102
RTVSPost2010PropOp48
 70
     1
102
RTVSPost2010Prop49
280
     0
102
RTVSPost2010PropOp49
 70
     1
102
RTVSPost2010Prop50
 90
       50
102
RTVSPost2010PropOp50
 70
     1
102
RTVSPost2010Prop51ColorIndex
 90
      256
102
RTVSPost2010Prop51ColorRGB
 90
-16777216
102
RTVSPost2010PropOp51
 70
     0
102
RTVSPost2010Prop52
140
1.0
102
RTVSPost2010PropOp52
 70
     0
102
RTVSPost2010Prop53
 90
        2
102
RTVSPost2010PropOp53
 70
     1
102
RTVSPost2010Prop54
  1
strokes_ogs.tif
102
RTVSPost2010PropOp54
 70
     1
102
RTVSPost2010Prop55
280
     0
102
RTVSPost2010PropOp55
 70
     1
102
RTVSPost2010Prop56
140
1.0
102
RTVSPost2010PropOp56
 70
     1
102
RTVSPost2010Prop57
140
1.0
102
RTVSPost2010PropOp57
 70
     1
  0
XRECORD
  5
243
102
{ACAD_REACTORS
330
242
102
}
330
242
100
AcDbXrecord
280
     1
102
RTVSPropertyOp0
 70
     1
102
RTVSPropertyOp1
 70
     1
102
RTVSPropertyOp2
 70
     1
102
RTVSPropertyOp3
 70
     1
102
RTVSPropertyOp4
 70
     1
102
RTVSPropertyOp5
 70
     1
102
RTVSPropertyOp6
 70
     1
102
RTVSPropertyOp7
 70
     1
102
RTVSPropertyOp8
 70
     1
102
RTVSPropertyOp9
 70
     1
102
RTVSPropertyOp10
 70
     1
102
RTVSPropertyOp11
 70
     1
102
RTVSPropertyOp12
 70
     1
102
RTVSPropertyOp13
 70
     1
102
RTVSPropertyOp14
 70
     1
102
RTVSPropertyOp15
 70
     1
102
RTVSPropertyOp16
 70
     1
102
RTVSPropertyOp17
 70
     1
102
RTVSPropertyOp18
 70
     1
102
RTVSPropertyOp19
 70
     1
102
RTVSPropertyOp20
 70
     1
102
RTVSPropertyOp21
 70
     1
102
RTVSPropertyOp22
 70
     1
102
RTVSPropertyOp23
 70
     1
102
RTVSPropertyOp24
 70
     1
102
RTVSPropertyOp25
 70
     1
102
RTVSPropertyOp26
 70
     1
102
RTVSPropertyOp27
 70
     1
102
RTVSPropertyOp28
 70
     1
102
RTVSPropertyOp29
 70
     1
102
RTVSPropertyOp30
 70
     1
102
RTVSPropertyOp31
 70
     1
102
RTVSPropertyOp32
 70
     1
102
RTVSPropertyOp33
 70
     1
102
RTVSPropertyOp34
 70
     1
102
RTVSPropertyOp35
 70
     1
102
RTVSPropertyOp36
 70
     1
102
RTVSPropertyOp37
 70
     1
102
RTVSPropertyOp38
 70
     1
102
RTVSPropertyOp39
 70
     1
102
RTVSPropertyOp40
 70
     1
102
RTVSPropertyOp41
 70
     1
102
RTVSPropertyOp42
 70
     1
102
RTVSPropertyOp43
 70
     1
102
RTVSPropertyOp44
 70
     1
102
RTVSPropertyOp45
 70
     1
102
RTVSPropertyOp46
 70
     1
102
RTVSPropertyOp47
 70
     1
102
RTVSPropertyOp48
 70
     1
102
RTVSPropertyOp49
 70
     1
102
RTVSPropertyOp50
 70
     1
102
RTVSPropertyOp51
 70
     0
102
RTVSPropertyOp52
 70
     0
102
RTVSPropertyOp53
 70
     1
102
RTVSPropertyOp54
 70
     1
102
RTVSPropertyOp55
 70
     1
102
RTVSPropertyOp56
 70
     1
102
RTVSPropertyOp57
 70
     1
102
RTVSPost2010Prop28
280
     0
102
RTVSPost2010PropOp28
 70
     1
102
RTVSPost2010Prop29
280
     1
102
RTVSPost2010PropOp29
 70
     1
102
RTVSPost2010Prop30
280
     1
102
RTVSPost2010PropOp30
 70
     1
102
RTVSPost2010Prop31
280
     0
102
RTVSPost2010PropOp31
 70
     1
102
RTVSPost2010Prop32
280
     0
102
RTVSPost2010PropOp32
 70
     1
102
RTVSPost2010Prop33
280
     0
102
RTVSPost2010PropOp33
 70
     1
102
RTVSPost2010Prop34
280
     0
102
RTVSPost2010PropOp34
 70
     1
102
RTVSPost2010Prop35
280
     0
102
RTVSPost2010PropOp35
 70
     1
102
RTVSPost2010Prop36
280
     0
102
RTVSPost2010PropOp36
 70
     1
102
RTVSPost2010Prop37
 90
       50
102
RTVSPost2010PropOp37
 70
     1
102
RTVSPost2010Prop38
140
0.0
102
RTVSPost2010PropOp38
 70
     1
102
RTVSPost2010Prop39
140
1.0
102
RTVSPost2010PropOp39
 70
     1
102
RTVSPost2010Prop40
 90
        0
102
RTVSPost2010PropOp40
 70
     1
102
RTVSPost2010Prop41ColorIndex
 90
       18
102
RTVSPost2010Prop41ColorRGB
 90
        0
102
RTVSPost2010PropOp41
 70
     1
102
RTVSPost2010Prop42
 90
       50
102
RTVSPost2010PropOp42
 70
     1
102
RTVSPost2010Prop43
 90
        3
102
RTVSPost2010PropOp43
 70
     1
102
RTVSPost2010Prop44ColorIndex
 90
        5
102
RTVSPost2010Prop44ColorRGB
 90
      255
102
RTVSPost2010PropOp44
 70
     1
102
RTVSPost2010Prop45
280
     0
102
RTVSPost2010PropOp45
 70
     1
102
RTVSPost2010Prop46
 90
       50
102
RTVSPost2010PropOp46
 70
     1
102
RTVSPost2010Prop47
 90
       50
102
RTVSPost2010PropOp47
 70
     1
102
RTVSPost2010Prop48
 90
       50
102
RTVSPost2010PropOp48
 70
     1
102
RTVSPost2010Prop49
280
     0
102
RTVSPost2010PropOp49
 70
     1
102
RTVSPost2010Prop50
 90
       50
102
RTVSPost2010PropOp50
 70
     1
102
RTVSPost2010Prop51ColorIndex
 90
      256
102
RTVSPost2010Prop51ColorRGB
 90
-16777216
102
RTVSPost2010PropOp51
 70
     0
102
RTVSPost2010Prop52
140
1.0
102
RTVSPost2010PropOp52
 70
     0
102
RTVSPost2010Prop53
 90
        2
102
RTVSPost2010PropOp53
 70
     1
102
RTVSPost2010Prop54
  1
strokes_ogs.tif
102
RTVSPost2010PropOp54
 70
     1
102
RTVSPost2010Prop55
280
     0
102
RTVSPost2010PropOp55
 70
     1
102
RTVSPost2010Prop56
140
1.0
102
RTVSPost2010PropOp56
 70
     1
102
RTVSPost2010Prop57
140
1.0
102
RTVSPost2010PropOp57
 70
     1
  0
XRECORD
  5
237
102
{ACAD_REACTORS
330
236
102
}
330
236
100
AcDbXrecord
280
     1
102
RTVSPropertyOp0
 70
     1
102
RTVSPropertyOp1
 70
     1
102
RTVSPropertyOp2
 70
     1
102
RTVSPropertyOp3
 70
     1
102
RTVSPropertyOp4
 70
     1
102
RTVSPropertyOp5
 70
     1
102
RTVSPropertyOp6
 70
     1
102
RTVSPropertyOp7
 70
     1
102
RTVSPropertyOp8
 70
     1
102
RTVSPropertyOp9
 70
     1
102
RTVSPropertyOp10
 70
     1
102
RTVSPropertyOp11
 70
     1
102
RTVSPropertyOp12
 70
     1
102
RTVSPropertyOp13
 70
     1
102
RTVSPropertyOp14
 70
     1
102
RTVSPropertyOp15
 70
     1
102
RTVSPropertyOp16
 70
     1
102
RTVSPropertyOp17
 70
     1
102
RTVSPropertyOp18
 70
     1
102
RTVSPropertyOp19
 70
     1
102
RTVSPropertyOp20
 70
     1
102
RTVSPropertyOp21
 70
     1
102
RTVSPropertyOp22
 70
     1
102
RTVSPropertyOp23
 70
     1
102
RTVSPropertyOp24
 70
     1
102
RTVSPropertyOp25
 70
     1
102
RTVSPropertyOp26
 70
     1
102
RTVSPropertyOp27
 70
     1
102
RTVSPropertyOp28
 70
     1
102
RTVSPropertyOp29
 70
     1
102
RTVSPropertyOp30
 70
     1
102
RTVSPropertyOp31
 70
     1
102
RTVSPropertyOp32
 70
     1
102
RTVSPropertyOp33
 70
     1
102
RTVSPropertyOp34
 70
     1
102
RTVSPropertyOp35
 70
     1
102
RTVSPropertyOp36
 70
     1
102
RTVSPropertyOp37
 70
     1
102
RTVSPropertyOp38
 70
     1
102
RTVSPropertyOp39
 70
     1
102
RTVSPropertyOp40
 70
     1
102
RTVSPropertyOp41
 70
     1
102
RTVSPropertyOp42
 70
     1
102
RTVSPropertyOp43
 70
     1
102
RTVSPropertyOp44
 70
     1
102
RTVSPropertyOp45
 70
     1
102
RTVSPropertyOp46
 70
     1
102
RTVSPropertyOp47
 70
     1
102
RTVSPropertyOp48
 70
     1
102
RTVSPropertyOp49
 70
     1
102
RTVSPropertyOp50
 70
     1
102
RTVSPropertyOp51
 70
     0
102
RTVSPropertyOp52
 70
     0
102
RTVSPropertyOp53
 70
     1
102
RTVSPropertyOp54
 70
     1
102
RTVSPropertyOp55
 70
     1
102
RTVSPropertyOp56
 70
     1
102
RTVSPropertyOp57
 70
     1
102
RTVSPost2010Prop28
280
     0
102
RTVSPost2010PropOp28
 70
     1
102
RTVSPost2010Prop29
280
     1
102
RTVSPost2010PropOp29
 70
     1
102
RTVSPost2010Prop30
280
     1
102
RTVSPost2010PropOp30
 70
     1
102
RTVSPost2010Prop31
280
     0
102
RTVSPost2010PropOp31
 70
     1
102
RTVSPost2010Prop32
280
     0
102
RTVSPost2010PropOp32
 70
     1
102
RTVSPost2010Prop33
280
     0
102
RTVSPost2010PropOp33
 70
     1
102
RTVSPost2010Prop34
280
     0
102
RTVSPost2010PropOp34
 70
     1
102
RTVSPost2010Prop35
280
     0
102
RTVSPost2010PropOp35
 70
     1
102
RTVSPost2010Prop36
280
     0
102
RTVSPost2010PropOp36
 70
     1
102
RTVSPost2010Prop37
 90
       50
102
RTVSPost2010PropOp37
 70
     1
102
RTVSPost2010Prop38
140
0.0
102
RTVSPost2010PropOp38
 70
     1
102
RTVSPost2010Prop39
140
1.0
102
RTVSPost2010PropOp39
 70
     1
102
RTVSPost2010Prop40
 90
        0
102
RTVSPost2010PropOp40
 70
     1
102
RTVSPost2010Prop41ColorIndex
 90
       18
102
RTVSPost2010Prop41ColorRGB
 90
        0
102
RTVSPost2010PropOp41
 70
     1
102
RTVSPost2010Prop42
 90
       50
102
RTVSPost2010PropOp42
 70
     1
102
RTVSPost2010Prop43
 90
        3
102
RTVSPost2010PropOp43
 70
     1
102
RTVSPost2010Prop44ColorIndex
 90
        5
102
RTVSPost2010Prop44ColorRGB
 90
      255
102
RTVSPost2010PropOp44
 70
     1
102
RTVSPost2010Prop45
280
     0
102
RTVSPost2010PropOp45
 70
     1
102
RTVSPost2010Prop46
 90
       50
102
RTVSPost2010PropOp46
 70
     1
102
RTVSPost2010Prop47
 90
       50
102
RTVSPost2010PropOp47
 70
     1
102
RTVSPost2010Prop48
 90
       50
102
RTVSPost2010PropOp48
 70
     1
102
RTVSPost2010Prop49
280
     0
102
RTVSPost2010PropOp49
 70
     1
102
RTVSPost2010Prop50
 90
       50
102
RTVSPost2010PropOp50
 70
     1
102
RTVSPost2010Prop51ColorIndex
 90
      256
102
RTVSPost2010Prop51ColorRGB
 90
-16777216
102
RTVSPost2010PropOp51
 70
     0
102
RTVSPost2010Prop52
140
1.0
102
RTVSPost2010PropOp52
 70
     0
102
RTVSPost2010Prop53
 90
        2
102
RTVSPost2010PropOp53
 70
     1
102
RTVSPost2010Prop54
  1
strokes_ogs.tif
102
RTVSPost2010PropOp54
 70
     1
102
RTVSPost2010Prop55
280
     0
102
RTVSPost2010PropOp55
 70
     1
102
RTVSPost2010Prop56
140
1.0
102
RTVSPost2010PropOp56
 70
     1
102
RTVSPost2010Prop57
140
1.0
102
RTVSPost2010PropOp57
 70
     1
  0
XRECORD
  5
239
102
{ACAD_REACTORS
330
238
102
}
330
238
100
AcDbXrecord
280
     1
102
RTVSPropertyOp0
 70
     1
102
RTVSPropertyOp1
 70
     1
102
RTVSPropertyOp2
 70
     1
102
RTVSPropertyOp3
 70
     1
102
RTVSPropertyOp4
 70
     1
102
RTVSPropertyOp5
 70
     1
102
RTVSPropertyOp6
 70
     1
102
RTVSPropertyOp7
 70
     1
102
RTVSPropertyOp8
 70
     1
102
RTVSPropertyOp9
 70
     1
102
RTVSPropertyOp10
 70
     1
102
RTVSPropertyOp11
 70
     1
102
RTVSPropertyOp12
 70
     1
102
RTVSPropertyOp13
 70
     1
102
RTVSPropertyOp14
 70
     1
102
RTVSPropertyOp15
 70
     1
102
RTVSPropertyOp16
 70
     1
102
RTVSPropertyOp17
 70
     1
102
RTVSPropertyOp18
 70
     1
102
RTVSPropertyOp19
 70
     1
102
RTVSPropertyOp20
 70
     1
102
RTVSPropertyOp21
 70
     1
102
RTVSPropertyOp22
 70
     1
102
RTVSPropertyOp23
 70
     1
102
RTVSPropertyOp24
 70
     1
102
RTVSPropertyOp25
 70
     1
102
RTVSPropertyOp26
 70
     1
102
RTVSPropertyOp27
 70
     1
102
RTVSPropertyOp28
 70
     1
102
RTVSPropertyOp29
 70
     1
102
RTVSPropertyOp30
 70
     1
102
RTVSPropertyOp31
 70
     1
102
RTVSPropertyOp32
 70
     1
102
RTVSPropertyOp33
 70
     1
102
RTVSPropertyOp34
 70
     1
102
RTVSPropertyOp35
 70
     1
102
RTVSPropertyOp36
 70
     1
102
RTVSPropertyOp37
 70
     1
102
RTVSPropertyOp38
 70
     1
102
RTVSPropertyOp39
 70
     1
102
RTVSPropertyOp40
 70
     1
102
RTVSPropertyOp41
 70
     1
102
RTVSPropertyOp42
 70
     1
102
RTVSPropertyOp43
 70
     1
102
RTVSPropertyOp44
 70
     1
102
RTVSPropertyOp45
 70
     1
102
RTVSPropertyOp46
 70
     1
102
RTVSPropertyOp47
 70
     1
102
RTVSPropertyOp48
 70
     1
102
RTVSPropertyOp49
 70
     1
102
RTVSPropertyOp50
 70
     1
102
RTVSPropertyOp51
 70
     0
102
RTVSPropertyOp52
 70
     0
102
RTVSPropertyOp53
 70
     1
102
RTVSPropertyOp54
 70
     1
102
RTVSPropertyOp55
 70
     1
102
RTVSPropertyOp56
 70
     1
102
RTVSPropertyOp57
 70
     1
102
RTVSPost2010Prop28
280
     0
102
RTVSPost2010PropOp28
 70
     1
102
RTVSPost2010Prop29
280
     1
102
RTVSPost2010PropOp29
 70
     1
102
RTVSPost2010Prop30
280
     1
102
RTVSPost2010PropOp30
 70
     1
102
RTVSPost2010Prop31
280
     0
102
RTVSPost2010PropOp31
 70
     1
102
RTVSPost2010Prop32
280
     0
102
RTVSPost2010PropOp32
 70
     1
102
RTVSPost2010Prop33
280
     0
102
RTVSPost2010PropOp33
 70
     1
102
RTVSPost2010Prop34
280
     0
102
RTVSPost2010PropOp34
 70
     1
102
RTVSPost2010Prop35
280
     0
102
RTVSPost2010PropOp35
 70
     1
102
RTVSPost2010Prop36
280
     0
102
RTVSPost2010PropOp36
 70
     1
102
RTVSPost2010Prop37
 90
       50
102
RTVSPost2010PropOp37
 70
     1
102
RTVSPost2010Prop38
140
0.0
102
RTVSPost2010PropOp38
 70
     1
102
RTVSPost2010Prop39
140
1.0
102
RTVSPost2010PropOp39
 70
     1
102
RTVSPost2010Prop40
 90
        0
102
RTVSPost2010PropOp40
 70
     1
102
RTVSPost2010Prop41ColorIndex
 90
       18
102
RTVSPost2010Prop41ColorRGB
 90
        0
102
RTVSPost2010PropOp41
 70
     1
102
RTVSPost2010Prop42
 90
       50
102
RTVSPost2010PropOp42
 70
     1
102
RTVSPost2010Prop43
 90
        3
102
RTVSPost2010PropOp43
 70
     1
102
RTVSPost2010Prop44ColorIndex
 90
        5
102
RTVSPost2010Prop44ColorRGB
 90
      255
102
RTVSPost2010PropOp44
 70
     1
102
RTVSPost2010Prop45
280
     0
102
RTVSPost2010PropOp45
 70
     1
102
RTVSPost2010Prop46
 90
       50
102
RTVSPost2010PropOp46
 70
     1
102
RTVSPost2010Prop47
 90
       50
102
RTVSPost2010PropOp47
 70
     1
102
RTVSPost2010Prop48
 90
       50
102
RTVSPost2010PropOp48
 70
     1
102
RTVSPost2010Prop49
280
     0
102
RTVSPost2010PropOp49
 70
     1
102
RTVSPost2010Prop50
 90
       50
102
RTVSPost2010PropOp50
 70
     1
102
RTVSPost2010Prop51ColorIndex
 90
      256
102
RTVSPost2010Prop51ColorRGB
 90
-16777216
102
RTVSPost2010PropOp51
 70
     0
102
RTVSPost2010Prop52
140
1.0
102
RTVSPost2010PropOp52
 70
     0
102
RTVSPost2010Prop53
 90
        2
102
RTVSPost2010PropOp53
 70
     1
102
RTVSPost2010Prop54
  1
strokes_ogs.tif
102
RTVSPost2010PropOp54
 70
     1
102
RTVSPost2010Prop55
280
     0
102
RTVSPost2010PropOp55
 70
     1
102
RTVSPost2010Prop56
140
1.0
102
RTVSPost2010PropOp56
 70
     1
102
RTVSPost2010Prop57
140
1.0
102
RTVSPost2010PropOp57
 70
     1
  0
XRECORD
  5
249
102
{ACAD_REACTORS
330
248
102
}
330
248
100
AcDbXrecord
280
     1
102
RTVSPropertyOp0
 70
     0
102
RTVSPropertyOp1
 70
     0
102
RTVSPropertyOp2
 70
     0
102
RTVSPropertyOp3
 70
     0
102
RTVSPropertyOp4
 70
     0
102
RTVSPropertyOp5
 70
     0
102
RTVSPropertyOp6
 70
     0
102
RTVSPropertyOp7
 70
     0
102
RTVSPropertyOp8
 70
     0
102
RTVSPropertyOp9
 70
     0
102
RTVSPropertyOp10
 70
     0
102
RTVSPropertyOp11
 70
     0
102
RTVSPropertyOp12
 70
     0
102
RTVSPropertyOp13
 70
     0
102
RTVSPropertyOp14
 70
     2
102
RTVSPropertyOp15
 70
     0
102
RTVSPropertyOp16
 70
     0
102
RTVSPropertyOp17
 70
     0
102
RTVSPropertyOp18
 70
     0
102
RTVSPropertyOp19
 70
     0
102
RTVSPropertyOp20
 70
     0
102
RTVSPropertyOp21
 70
     0
102
RTVSPropertyOp22
 70
     0
102
RTVSPropertyOp23
 70
     0
102
RTVSPropertyOp24
 70
     0
102
RTVSPropertyOp25
 70
     0
102
RTVSPropertyOp26
 70
     0
102
RTVSPropertyOp27
 70
     0
102
RTVSPropertyOp28
 70
     0
102
RTVSPropertyOp29
 70
     0
102
RTVSPropertyOp30
 70
     0
102
RTVSPropertyOp31
 70
     0
102
RTVSPropertyOp32
 70
     0
102
RTVSPropertyOp33
 70
     0
102
RTVSPropertyOp34
 70
     0
102
RTVSPropertyOp35
 70
     0
102
RTVSPropertyOp36
 70
     0
102
RTVSPropertyOp37
 70
     0
102
RTVSPropertyOp38
 70
     0
102
RTVSPropertyOp39
 70
     0
102
RTVSPropertyOp40
 70
     0
102
RTVSPropertyOp41
 70
     0
102
RTVSPropertyOp42
 70
     0
102
RTVSPropertyOp43
 70
     0
102
RTVSPropertyOp44
 70
     0
102
RTVSPropertyOp45
 70
     0
102
RTVSPropertyOp46
 70
     0
102
RTVSPropertyOp47
 70
     0
102
RTVSPropertyOp48
 70
     0
102
RTVSPropertyOp49
 70
     0
102
RTVSPropertyOp50
 70
     0
102
RTVSPropertyOp51
 70
     0
102
RTVSPropertyOp52
 70
     0
102
RTVSPropertyOp53
 70
     0
102
RTVSPropertyOp54
 70
     0
102
RTVSPropertyOp55
 70
     0
102
RTVSPropertyOp56
 70
     0
102
RTVSPropertyOp57
 70
     0
102
RTVSPost2010Prop28
280
     0
102
RTVSPost2010PropOp28
 70
     0
102
RTVSPost2010Prop29
280
     1
102
RTVSPost2010PropOp29
 70
     0
102
RTVSPost2010Prop30
280
     1
102
RTVSPost2010PropOp30
 70
     0
102
RTVSPost2010Prop31
280
     0
102
RTVSPost2010PropOp31
 70
     0
102
RTVSPost2010Prop32
280
     0
102
RTVSPost2010PropOp32
 70
     0
102
RTVSPost2010Prop33
280
     0
102
RTVSPost2010PropOp33
 70
     0
102
RTVSPost2010Prop34
280
     0
102
RTVSPost2010PropOp34
 70
     0
102
RTVSPost2010Prop35
280
     0
102
RTVSPost2010PropOp35
 70
     0
102
RTVSPost2010Prop36
280
     0
102
RTVSPost2010PropOp36
 70
     0
102
RTVSPost2010Prop37
 90
       50
102
RTVSPost2010PropOp37
 70
     0
102
RTVSPost2010Prop38
140
0.0
102
RTVSPost2010PropOp38
 70
     0
102
RTVSPost2010Prop39
140
1.0
102
RTVSPost2010PropOp39
 70
     0
102
RTVSPost2010Prop40
 90
        0
102
RTVSPost2010PropOp40
 70
     0
102
RTVSPost2010Prop41ColorIndex
 90
       18
102
RTVSPost2010Prop41ColorRGB
 90
        0
102
RTVSPost2010PropOp41
 70
     0
102
RTVSPost2010Prop42
 90
       50
102
RTVSPost2010PropOp42
 70
     0
102
RTVSPost2010Prop43
 90
        3
102
RTVSPost2010PropOp43
 70
     0
102
RTVSPost2010Prop44ColorIndex
 90
        5
102
RTVSPost2010Prop44ColorRGB
 90
      255
102
RTVSPost2010PropOp44
 70
     0
102
RTVSPost2010Prop45
280
     0
102
RTVSPost2010PropOp45
 70
     0
102
RTVSPost2010Prop46
 90
       50
102
RTVSPost2010PropOp46
 70
     0
102
RTVSPost2010Prop47
 90
       50
102
RTVSPost2010PropOp47
 70
     0
102
RTVSPost2010Prop48
 90
       50
102
RTVSPost2010PropOp48
 70
     0
102
RTVSPost2010Prop49
280
     0
102
RTVSPost2010PropOp49
 70
     0
102
RTVSPost2010Prop50
 90
       50
102
RTVSPost2010PropOp50
 70
     0
102
RTVSPost2010Prop51ColorIndex
 90
      256
102
RTVSPost2010Prop51ColorRGB
 90
-16777216
102
RTVSPost2010PropOp51
 70
     0
102
RTVSPost2010Prop52
140
1.0
102
RTVSPost2010PropOp52
 70
     0
102
RTVSPost2010Prop53
 90
        2
102
RTVSPost2010PropOp53
 70
     0
102
RTVSPost2010Prop54
  1
strokes_ogs.tif
102
RTVSPost2010PropOp54
 70
     0
102
RTVSPost2010Prop55
280
     0
102
RTVSPost2010PropOp55
 70
     0
102
RTVSPost2010Prop56
140
1.0
102
RTVSPost2010PropOp56
 70
     0
102
RTVSPost2010Prop57
140
1.0
102
RTVSPost2010PropOp57
 70
     0
  0
XRECORD
  5
241
102
{ACAD_REACTORS
330
240
102
}
330
240
100
AcDbXrecord
280
     1
102
RTVSPropertyOp0
 70
     1
102
RTVSPropertyOp1
 70
     1
102
RTVSPropertyOp2
 70
     1
102
RTVSPropertyOp3
 70
     1
102
RTVSPropertyOp4
 70
     1
102
RTVSPropertyOp5
 70
     1
102
RTVSPropertyOp6
 70
     1
102
RTVSPropertyOp7
 70
     1
102
RTVSPropertyOp8
 70
     1
102
RTVSPropertyOp9
 70
     1
102
RTVSPropertyOp10
 70
     1
102
RTVSPropertyOp11
 70
     1
102
RTVSPropertyOp12
 70
     1
102
RTVSPropertyOp13
 70
     1
102
RTVSPropertyOp14
 70
     1
102
RTVSPropertyOp15
 70
     1
102
RTVSPropertyOp16
 70
     1
102
RTVSPropertyOp17
 70
     1
102
RTVSPropertyOp18
 70
     1
102
RTVSPropertyOp19
 70
     1
102
RTVSPropertyOp20
 70
     1
102
RTVSPropertyOp21
 70
     1
102
RTVSPropertyOp22
 70
     1
102
RTVSPropertyOp23
 70
     1
102
RTVSPropertyOp24
 70
     1
102
RTVSPropertyOp25
 70
     1
102
RTVSPropertyOp26
 70
     1
102
RTVSPropertyOp27
 70
     1
102
RTVSPropertyOp28
 70
     1
102
RTVSPropertyOp29
 70
     1
102
RTVSPropertyOp30
 70
     1
102
RTVSPropertyOp31
 70
     1
102
RTVSPropertyOp32
 70
     1
102
RTVSPropertyOp33
 70
     1
102
RTVSPropertyOp34
 70
     1
102
RTVSPropertyOp35
 70
     1
102
RTVSPropertyOp36
 70
     1
102
RTVSPropertyOp37
 70
     1
102
RTVSPropertyOp38
 70
     1
102
RTVSPropertyOp39
 70
     1
102
RTVSPropertyOp40
 70
     1
102
RTVSPropertyOp41
 70
     1
102
RTVSPropertyOp42
 70
     1
102
RTVSPropertyOp43
 70
     1
102
RTVSPropertyOp44
 70
     1
102
RTVSPropertyOp45
 70
     1
102
RTVSPropertyOp46
 70
     1
102
RTVSPropertyOp47
 70
     1
102
RTVSPropertyOp48
 70
     1
102
RTVSPropertyOp49
 70
     1
102
RTVSPropertyOp50
 70
     1
102
RTVSPropertyOp51
 70
     0
102
RTVSPropertyOp52
 70
     0
102
RTVSPropertyOp53
 70
     1
102
RTVSPropertyOp54
 70
     1
102
RTVSPropertyOp55
 70
     1
102
RTVSPropertyOp56
 70
     1
102
RTVSPropertyOp57
 70
     1
102
RTVSPost2010Prop28
280
     0
102
RTVSPost2010PropOp28
 70
     1
102
RTVSPost2010Prop29
280
     1
102
RTVSPost2010PropOp29
 70
     1
102
RTVSPost2010Prop30
280
     1
102
RTVSPost2010PropOp30
 70
     1
102
RTVSPost2010Prop31
280
     0
102
RTVSPost2010PropOp31
 70
     1
102
RTVSPost2010Prop32
280
     0
102
RTVSPost2010PropOp32
 70
     1
102
RTVSPost2010Prop33
280
     0
102
RTVSPost2010PropOp33
 70
     1
102
RTVSPost2010Prop34
280
     0
102
RTVSPost2010PropOp34
 70
     1
102
RTVSPost2010Prop35
280
     0
102
RTVSPost2010PropOp35
 70
     1
102
RTVSPost2010Prop36
280
     0
102
RTVSPost2010PropOp36
 70
     1
102
RTVSPost2010Prop37
 90
       50
102
RTVSPost2010PropOp37
 70
     1
102
RTVSPost2010Prop38
140
0.0
102
RTVSPost2010PropOp38
 70
     1
102
RTVSPost2010Prop39
140
1.0
102
RTVSPost2010PropOp39
 70
     1
102
RTVSPost2010Prop40
 90
        0
102
RTVSPost2010PropOp40
 70
     1
102
RTVSPost2010Prop41ColorIndex
 90
       18
102
RTVSPost2010Prop41ColorRGB
 90
        0
102
RTVSPost2010PropOp41
 70
     1
102
RTVSPost2010Prop42
 90
       50
102
RTVSPost2010PropOp42
 70
     1
102
RTVSPost2010Prop43
 90
        3
102
RTVSPost2010PropOp43
 70
     1
102
RTVSPost2010Prop44ColorIndex
 90
        5
102
RTVSPost2010Prop44ColorRGB
 90
      255
102
RTVSPost2010PropOp44
 70
     1
102
RTVSPost2010Prop45
280
     0
102
RTVSPost2010PropOp45
 70
     1
102
RTVSPost2010Prop46
 90
       50
102
RTVSPost2010PropOp46
 70
     1
102
RTVSPost2010Prop47
 90
       50
102
RTVSPost2010PropOp47
 70
     1
102
RTVSPost2010Prop48
 90
       50
102
RTVSPost2010PropOp48
 70
     1
102
RTVSPost2010Prop49
280
     0
102
RTVSPost2010PropOp49
 70
     1
102
RTVSPost2010Prop50
 90
       50
102
RTVSPost2010PropOp50
 70
     1
102
RTVSPost2010Prop51ColorIndex
 90
      256
102
RTVSPost2010Prop51ColorRGB
 90
-16777216
102
RTVSPost2010PropOp51
 70
     0
102
RTVSPost2010Prop52
140
1.0
102
RTVSPost2010PropOp52
 70
     0
102
RTVSPost2010Prop53
 90
        2
102
RTVSPost2010PropOp53
 70
     1
102
RTVSPost2010Prop54
  1
strokes_ogs.tif
102
RTVSPost2010PropOp54
 70
     1
102
RTVSPost2010Prop55
280
     0
102
RTVSPost2010PropOp55
 70
     1
102
RTVSPost2010Prop56
140
1.0
102
RTVSPost2010PropOp56
 70
     1
102
RTVSPost2010Prop57
140
1.0
102
RTVSPost2010PropOp57
 70
     1
  0
XRECORD
  5
225
102
{ACAD_REACTORS
330
224
102
}
330
224
100
AcDbXrecord
280
     1
102
RTVSPropertyOp0
 70
     1
102
RTVSPropertyOp1
 70
     1
102
RTVSPropertyOp2
 70
     1
102
RTVSPropertyOp3
 70
     1
102
RTVSPropertyOp4
 70
     1
102
RTVSPropertyOp5
 70
     1
102
RTVSPropertyOp6
 70
     1
102
RTVSPropertyOp7
 70
     1
102
RTVSPropertyOp8
 70
     1
102
RTVSPropertyOp9
 70
     1
102
RTVSPropertyOp10
 70
     1
102
RTVSPropertyOp11
 70
     1
102
RTVSPropertyOp12
 70
     1
102
RTVSPropertyOp13
 70
     1
102
RTVSPropertyOp14
 70
     1
102
RTVSPropertyOp15
 70
     1
102
RTVSPropertyOp16
 70
     1
102
RTVSPropertyOp17
 70
     1
102
RTVSPropertyOp18
 70
     1
102
RTVSPropertyOp19
 70
     1
102
RTVSPropertyOp20
 70
     1
102
RTVSPropertyOp21
 70
     1
102
RTVSPropertyOp22
 70
     1
102
RTVSPropertyOp23
 70
     1
102
RTVSPropertyOp24
 70
     1
102
RTVSPropertyOp25
 70
     1
102
RTVSPropertyOp26
 70
     1
102
RTVSPropertyOp27
 70
     1
102
RTVSPropertyOp28
 70
     1
102
RTVSPropertyOp29
 70
     1
102
RTVSPropertyOp30
 70
     1
102
RTVSPropertyOp31
 70
     1
102
RTVSPropertyOp32
 70
     1
102
RTVSPropertyOp33
 70
     1
102
RTVSPropertyOp34
 70
     1
102
RTVSPropertyOp35
 70
     1
102
RTVSPropertyOp36
 70
     1
102
RTVSPropertyOp37
 70
     1
102
RTVSPropertyOp38
 70
     1
102
RTVSPropertyOp39
 70
     1
102
RTVSPropertyOp40
 70
     1
102
RTVSPropertyOp41
 70
     1
102
RTVSPropertyOp42
 70
     1
102
RTVSPropertyOp43
 70
     1
102
RTVSPropertyOp44
 70
     1
102
RTVSPropertyOp45
 70
     1
102
RTVSPropertyOp46
 70
     1
102
RTVSPropertyOp47
 70
     1
102
RTVSPropertyOp48
 70
     1
102
RTVSPropertyOp49
 70
     1
102
RTVSPropertyOp50
 70
     1
102
RTVSPropertyOp51
 70
     0
102
RTVSPropertyOp52
 70
     0
102
RTVSPropertyOp53
 70
     1
102
RTVSPropertyOp54
 70
     1
102
RTVSPropertyOp55
 70
     1
102
RTVSPropertyOp56
 70
     1
102
RTVSPropertyOp57
 70
     1
102
RTVSPost2010Prop28
280
     0
102
RTVSPost2010PropOp28
 70
     1
102
RTVSPost2010Prop29
280
     1
102
RTVSPost2010PropOp29
 70
     1
102
RTVSPost2010Prop30
280
     1
102
RTVSPost2010PropOp30
 70
     1
102
RTVSPost2010Prop31
280
     0
102
RTVSPost2010PropOp31
 70
     1
102
RTVSPost2010Prop32
280
     0
102
RTVSPost2010PropOp32
 70
     1
102
RTVSPost2010Prop33
280
     0
102
RTVSPost2010PropOp33
 70
     1
102
RTVSPost2010Prop34
280
     0
102
RTVSPost2010PropOp34
 70
     1
102
RTVSPost2010Prop35
280
     0
102
RTVSPost2010PropOp35
 70
     1
102
RTVSPost2010Prop36
280
     0
102
RTVSPost2010PropOp36
 70
     1
102
RTVSPost2010Prop37
 90
       50
102
RTVSPost2010PropOp37
 70
     1
102
RTVSPost2010Prop38
140
0.0
102
RTVSPost2010PropOp38
 70
     1
102
RTVSPost2010Prop39
140
1.0
102
RTVSPost2010PropOp39
 70
     1
102
RTVSPost2010Prop40
 90
        0
102
RTVSPost2010PropOp40
 70
     1
102
RTVSPost2010Prop41ColorIndex
 90
       18
102
RTVSPost2010Prop41ColorRGB
 90
        0
102
RTVSPost2010PropOp41
 70
     1
102
RTVSPost2010Prop42
 90
       50
102
RTVSPost2010PropOp42
 70
     1
102
RTVSPost2010Prop43
 90
        3
102
RTVSPost2010PropOp43
 70
     1
102
RTVSPost2010Prop44ColorIndex
 90
        5
102
RTVSPost2010Prop44ColorRGB
 90
      255
102
RTVSPost2010PropOp44
 70
     1
102
RTVSPost2010Prop45
280
     0
102
RTVSPost2010PropOp45
 70
     1
102
RTVSPost2010Prop46
 90
       50
102
RTVSPost2010PropOp46
 70
     1
102
RTVSPost2010Prop47
 90
       50
102
RTVSPost2010PropOp47
 70
     1
102
RTVSPost2010Prop48
 90
       50
102
RTVSPost2010PropOp48
 70
     1
102
RTVSPost2010Prop49
280
     0
102
RTVSPost2010PropOp49
 70
     1
102
RTVSPost2010Prop50
 90
       50
102
RTVSPost2010PropOp50
 70
     1
102
RTVSPost2010Prop51ColorIndex
 90
      256
102
RTVSPost2010Prop51ColorRGB
 90
-16777216
102
RTVSPost2010PropOp51
 70
     0
102
RTVSPost2010Prop52
140
1.0
102
RTVSPost2010PropOp52
 70
     0
102
RTVSPost2010Prop53
 90
        2
102
RTVSPost2010PropOp53
 70
     1
102
RTVSPost2010Prop54
  1
strokes_ogs.tif
102
RTVSPost2010PropOp54
 70
     1
102
RTVSPost2010Prop55
280
     0
102
RTVSPost2010PropOp55
 70
     1
102
RTVSPost2010Prop56
140
1.0
102
RTVSPost2010PropOp56
 70
     1
102
RTVSPost2010Prop57
140
1.0
102
RTVSPost2010PropOp57
 70
     1
  0
XRECORD
  5
227
102
{ACAD_REACTORS
330
226
102
}
330
226
100
AcDbXrecord
280
     1
102
RTVSPropertyOp0
 70
     1
102
RTVSPropertyOp1
 70
     1
102
RTVSPropertyOp2
 70
     1
102
RTVSPropertyOp3
 70
     1
102
RTVSPropertyOp4
 70
     1
102
RTVSPropertyOp5
 70
     1
102
RTVSPropertyOp6
 70
     1
102
RTVSPropertyOp7
 70
     1
102
RTVSPropertyOp8
 70
     1
102
RTVSPropertyOp9
 70
     1
102
RTVSPropertyOp10
 70
     1
102
RTVSPropertyOp11
 70
     1
102
RTVSPropertyOp12
 70
     1
102
RTVSPropertyOp13
 70
     1
102
RTVSPropertyOp14
 70
     1
102
RTVSPropertyOp15
 70
     1
102
RTVSPropertyOp16
 70
     1
102
RTVSPropertyOp17
 70
     1
102
RTVSPropertyOp18
 70
     1
102
RTVSPropertyOp19
 70
     1
102
RTVSPropertyOp20
 70
     1
102
RTVSPropertyOp21
 70
     1
102
RTVSPropertyOp22
 70
     1
102
RTVSPropertyOp23
 70
     1
102
RTVSPropertyOp24
 70
     1
102
RTVSPropertyOp25
 70
     1
102
RTVSPropertyOp26
 70
     1
102
RTVSPropertyOp27
 70
     1
102
RTVSPropertyOp28
 70
     1
102
RTVSPropertyOp29
 70
     1
102
RTVSPropertyOp30
 70
     1
102
RTVSPropertyOp31
 70
     1
102
RTVSPropertyOp32
 70
     1
102
RTVSPropertyOp33
 70
     1
102
RTVSPropertyOp34
 70
     1
102
RTVSPropertyOp35
 70
     1
102
RTVSPropertyOp36
 70
     1
102
RTVSPropertyOp37
 70
     1
102
RTVSPropertyOp38
 70
     1
102
RTVSPropertyOp39
 70
     1
102
RTVSPropertyOp40
 70
     1
102
RTVSPropertyOp41
 70
     1
102
RTVSPropertyOp42
 70
     1
102
RTVSPropertyOp43
 70
     1
102
RTVSPropertyOp44
 70
     1
102
RTVSPropertyOp45
 70
     1
102
RTVSPropertyOp46
 70
     1
102
RTVSPropertyOp47
 70
     1
102
RTVSPropertyOp48
 70
     1
102
RTVSPropertyOp49
 70
     1
102
RTVSPropertyOp50
 70
     1
102
RTVSPropertyOp51
 70
     0
102
RTVSPropertyOp52
 70
     0
102
RTVSPropertyOp53
 70
     1
102
RTVSPropertyOp54
 70
     1
102
RTVSPropertyOp55
 70
     1
102
RTVSPropertyOp56
 70
     1
102
RTVSPropertyOp57
 70
     1
102
RTVSPost2010Prop28
280
     0
102
RTVSPost2010PropOp28
 70
     1
102
RTVSPost2010Prop29
280
     1
102
RTVSPost2010PropOp29
 70
     1
102
RTVSPost2010Prop30
280
     1
102
RTVSPost2010PropOp30
 70
     1
102
RTVSPost2010Prop31
280
     0
102
RTVSPost2010PropOp31
 70
     1
102
RTVSPost2010Prop32
280
     0
102
RTVSPost2010PropOp32
 70
     1
102
RTVSPost2010Prop33
280
     0
102
RTVSPost2010PropOp33
 70
     1
102
RTVSPost2010Prop34
280
     0
102
RTVSPost2010PropOp34
 70
     1
102
RTVSPost2010Prop35
280
     0
102
RTVSPost2010PropOp35
 70
     1
102
RTVSPost2010Prop36
280
     0
102
RTVSPost2010PropOp36
 70
     1
102
RTVSPost2010Prop37
 90
       50
102
RTVSPost2010PropOp37
 70
     1
102
RTVSPost2010Prop38
140
0.0
102
RTVSPost2010PropOp38
 70
     1
102
RTVSPost2010Prop39
140
1.0
102
RTVSPost2010PropOp39
 70
     1
102
RTVSPost2010Prop40
 90
        0
102
RTVSPost2010PropOp40
 70
     1
102
RTVSPost2010Prop41ColorIndex
 90
       18
102
RTVSPost2010Prop41ColorRGB
 90
        0
102
RTVSPost2010PropOp41
 70
     1
102
RTVSPost2010Prop42
 90
       50
102
RTVSPost2010PropOp42
 70
     1
102
RTVSPost2010Prop43
 90
        3
102
RTVSPost2010PropOp43
 70
     1
102
RTVSPost2010Prop44ColorIndex
 90
        5
102
RTVSPost2010Prop44ColorRGB
 90
      255
102
RTVSPost2010PropOp44
 70
     1
102
RTVSPost2010Prop45
280
     0
102
RTVSPost2010PropOp45
 70
     1
102
RTVSPost2010Prop46
 90
       50
102
RTVSPost2010PropOp46
 70
     1
102
RTVSPost2010Prop47
 90
       50
102
RTVSPost2010PropOp47
 70
     1
102
RTVSPost2010Prop48
 90
       50
102
RTVSPost2010PropOp48
 70
     1
102
RTVSPost2010Prop49
280
     0
102
RTVSPost2010PropOp49
 70
     1
102
RTVSPost2010Prop50
 90
       50
102
RTVSPost2010PropOp50
 70
     1
102
RTVSPost2010Prop51ColorIndex
 90
      256
102
RTVSPost2010Prop51ColorRGB
 90
-16777216
102
RTVSPost2010PropOp51
 70
     0
102
RTVSPost2010Prop52
140
1.0
102
RTVSPost2010PropOp52
 70
     0
102
RTVSPost2010Prop53
 90
        2
102
RTVSPost2010PropOp53
 70
     1
102
RTVSPost2010Prop54
  1
strokes_ogs.tif
102
RTVSPost2010PropOp54
 70
     1
102
RTVSPost2010Prop55
280
     0
102
RTVSPost2010PropOp55
 70
     1
102
RTVSPost2010Prop56
140
1.0
102
RTVSPost2010PropOp56
 70
     1
102
RTVSPost2010Prop57
140
1.0
102
RTVSPost2010PropOp57
 70
     1
  0
XRECORD
  5
229
102
{ACAD_REACTORS
330
228
102
}
330
228
100
AcDbXrecord
280
     1
102
RTVSPropertyOp0
 70
     1
102
RTVSPropertyOp1
 70
     1
102
RTVSPropertyOp2
 70
     1
102
RTVSPropertyOp3
 70
     1
102
RTVSPropertyOp4
 70
     1
102
RTVSPropertyOp5
 70
     1
102
RTVSPropertyOp6
 70
     1
102
RTVSPropertyOp7
 70
     1
102
RTVSPropertyOp8
 70
     1
102
RTVSPropertyOp9
 70
     1
102
RTVSPropertyOp10
 70
     1
102
RTVSPropertyOp11
 70
     1
102
RTVSPropertyOp12
 70
     1
102
RTVSPropertyOp13
 70
     1
102
RTVSPropertyOp14
 70
     1
102
RTVSPropertyOp15
 70
     1
102
RTVSPropertyOp16
 70
     1
102
RTVSPropertyOp17
 70
     1
102
RTVSPropertyOp18
 70
     1
102
RTVSPropertyOp19
 70
     1
102
RTVSPropertyOp20
 70
     1
102
RTVSPropertyOp21
 70
     1
102
RTVSPropertyOp22
 70
     1
102
RTVSPropertyOp23
 70
     1
102
RTVSPropertyOp24
 70
     1
102
RTVSPropertyOp25
 70
     1
102
RTVSPropertyOp26
 70
     1
102
RTVSPropertyOp27
 70
     1
102
RTVSPropertyOp28
 70
     1
102
RTVSPropertyOp29
 70
     1
102
RTVSPropertyOp30
 70
     1
102
RTVSPropertyOp31
 70
     1
102
RTVSPropertyOp32
 70
     1
102
RTVSPropertyOp33
 70
     1
102
RTVSPropertyOp34
 70
     1
102
RTVSPropertyOp35
 70
     1
102
RTVSPropertyOp36
 70
     1
102
RTVSPropertyOp37
 70
     1
102
RTVSPropertyOp38
 70
     1
102
RTVSPropertyOp39
 70
     1
102
RTVSPropertyOp40
 70
     1
102
RTVSPropertyOp41
 70
     1
102
RTVSPropertyOp42
 70
     1
102
RTVSPropertyOp43
 70
     1
102
RTVSPropertyOp44
 70
     1
102
RTVSPropertyOp45
 70
     1
102
RTVSPropertyOp46
 70
     1
102
RTVSPropertyOp47
 70
     1
102
RTVSPropertyOp48
 70
     1
102
RTVSPropertyOp49
 70
     1
102
RTVSPropertyOp50
 70
     1
102
RTVSPropertyOp51
 70
     0
102
RTVSPropertyOp52
 70
     0
102
RTVSPropertyOp53
 70
     1
102
RTVSPropertyOp54
 70
     1
102
RTVSPropertyOp55
 70
     1
102
RTVSPropertyOp56
 70
     1
102
RTVSPropertyOp57
 70
     1
102
RTVSPost2010Prop28
280
     0
102
RTVSPost2010PropOp28
 70
     1
102
RTVSPost2010Prop29
280
     1
102
RTVSPost2010PropOp29
 70
     1
102
RTVSPost2010Prop30
280
     1
102
RTVSPost2010PropOp30
 70
     1
102
RTVSPost2010Prop31
280
     0
102
RTVSPost2010PropOp31
 70
     1
102
RTVSPost2010Prop32
280
     0
102
RTVSPost2010PropOp32
 70
     1
102
RTVSPost2010Prop33
280
     0
102
RTVSPost2010PropOp33
 70
     1
102
RTVSPost2010Prop34
280
     0
102
RTVSPost2010PropOp34
 70
     1
102
RTVSPost2010Prop35
280
     0
102
RTVSPost2010PropOp35
 70
     1
102
RTVSPost2010Prop36
280
     0
102
RTVSPost2010PropOp36
 70
     1
102
RTVSPost2010Prop37
 90
       50
102
RTVSPost2010PropOp37
 70
     1
102
RTVSPost2010Prop38
140
0.0
102
RTVSPost2010PropOp38
 70
     1
102
RTVSPost2010Prop39
140
1.0
102
RTVSPost2010PropOp39
 70
     1
102
RTVSPost2010Prop40
 90
        0
102
RTVSPost2010PropOp40
 70
     1
102
RTVSPost2010Prop41ColorIndex
 90
       18
102
RTVSPost2010Prop41ColorRGB
 90
        0
102
RTVSPost2010PropOp41
 70
     1
102
RTVSPost2010Prop42
 90
       50
102
RTVSPost2010PropOp42
 70
     1
102
RTVSPost2010Prop43
 90
        3
102
RTVSPost2010PropOp43
 70
     1
102
RTVSPost2010Prop44ColorIndex
 90
        5
102
RTVSPost2010Prop44ColorRGB
 90
      255
102
RTVSPost2010PropOp44
 70
     1
102
RTVSPost2010Prop45
280
     0
102
RTVSPost2010PropOp45
 70
     1
102
RTVSPost2010Prop46
 90
       50
102
RTVSPost2010PropOp46
 70
     1
102
RTVSPost2010Prop47
 90
       50
102
RTVSPost2010PropOp47
 70
     1
102
RTVSPost2010Prop48
 90
       50
102
RTVSPost2010PropOp48
 70
     1
102
RTVSPost2010Prop49
280
     0
102
RTVSPost2010PropOp49
 70
     1
102
RTVSPost2010Prop50
 90
       50
102
RTVSPost2010PropOp50
 70
     1
102
RTVSPost2010Prop51ColorIndex
 90
      256
102
RTVSPost2010Prop51ColorRGB
 90
-16777216
102
RTVSPost2010PropOp51
 70
     0
102
RTVSPost2010Prop52
140
1.0
102
RTVSPost2010PropOp52
 70
     0
102
RTVSPost2010Prop53
 90
        2
102
RTVSPost2010PropOp53
 70
     1
102
RTVSPost2010Prop54
  1
strokes_ogs.tif
102
RTVSPost2010PropOp54
 70
     1
102
RTVSPost2010Prop55
280
     0
102
RTVSPost2010PropOp55
 70
     1
102
RTVSPost2010Prop56
140
1.0
102
RTVSPost2010PropOp56
 70
     1
102
RTVSPost2010Prop57
140
1.0
102
RTVSPost2010PropOp57
 70
     1
  0
XRECORD
  5
22B
102
{ACAD_REACTORS
330
22A
102
}
330
22A
100
AcDbXrecord
280
     1
102
RTVSPropertyOp0
 70
     1
102
RTVSPropertyOp1
 70
     1
102
RTVSPropertyOp2
 70
     1
102
RTVSPropertyOp3
 70
     1
102
RTVSPropertyOp4
 70
     1
102
RTVSPropertyOp5
 70
     1
102
RTVSPropertyOp6
 70
     1
102
RTVSPropertyOp7
 70
     1
102
RTVSPropertyOp8
 70
     1
102
RTVSPropertyOp9
 70
     1
102
RTVSPropertyOp10
 70
     1
102
RTVSPropertyOp11
 70
     1
102
RTVSPropertyOp12
 70
     1
102
RTVSPropertyOp13
 70
     1
102
RTVSPropertyOp14
 70
     1
102
RTVSPropertyOp15
 70
     1
102
RTVSPropertyOp16
 70
     1
102
RTVSPropertyOp17
 70
     1
102
RTVSPropertyOp18
 70
     1
102
RTVSPropertyOp19
 70
     1
102
RTVSPropertyOp20
 70
     1
102
RTVSPropertyOp21
 70
     1
102
RTVSPropertyOp22
 70
     1
102
RTVSPropertyOp23
 70
     1
102
RTVSPropertyOp24
 70
     1
102
RTVSPropertyOp25
 70
     1
102
RTVSPropertyOp26
 70
     1
102
RTVSPropertyOp27
 70
     1
102
RTVSPropertyOp28
 70
     1
102
RTVSPropertyOp29
 70
     1
102
RTVSPropertyOp30
 70
     1
102
RTVSPropertyOp31
 70
     1
102
RTVSPropertyOp32
 70
     1
102
RTVSPropertyOp33
 70
     1
102
RTVSPropertyOp34
 70
     1
102
RTVSPropertyOp35
 70
     1
102
RTVSPropertyOp36
 70
     1
102
RTVSPropertyOp37
 70
     1
102
RTVSPropertyOp38
 70
     1
102
RTVSPropertyOp39
 70
     1
102
RTVSPropertyOp40
 70
     1
102
RTVSPropertyOp41
 70
     1
102
RTVSPropertyOp42
 70
     1
102
RTVSPropertyOp43
 70
     1
102
RTVSPropertyOp44
 70
     1
102
RTVSPropertyOp45
 70
     1
102
RTVSPropertyOp46
 70
     1
102
RTVSPropertyOp47
 70
     1
102
RTVSPropertyOp48
 70
     1
102
RTVSPropertyOp49
 70
     1
102
RTVSPropertyOp50
 70
     1
102
RTVSPropertyOp51
 70
     0
102
RTVSPropertyOp52
 70
     0
102
RTVSPropertyOp53
 70
     1
102
RTVSPropertyOp54
 70
     1
102
RTVSPropertyOp55
 70
     1
102
RTVSPropertyOp56
 70
     1
102
RTVSPropertyOp57
 70
     1
102
RTVSPost2010Prop28
280
     0
102
RTVSPost2010PropOp28
 70
     1
102
RTVSPost2010Prop29
280
     1
102
RTVSPost2010PropOp29
 70
     1
102
RTVSPost2010Prop30
280
     1
102
RTVSPost2010PropOp30
 70
     1
102
RTVSPost2010Prop31
280
     0
102
RTVSPost2010PropOp31
 70
     1
102
RTVSPost2010Prop32
280
     0
102
RTVSPost2010PropOp32
 70
     1
102
RTVSPost2010Prop33
280
     0
102
RTVSPost2010PropOp33
 70
     1
102
RTVSPost2010Prop34
280
     0
102
RTVSPost2010PropOp34
 70
     1
102
RTVSPost2010Prop35
280
     0
102
RTVSPost2010PropOp35
 70
     1
102
RTVSPost2010Prop36
280
     0
102
RTVSPost2010PropOp36
 70
     1
102
RTVSPost2010Prop37
 90
       50
102
RTVSPost2010PropOp37
 70
     1
102
RTVSPost2010Prop38
140
0.0
102
RTVSPost2010PropOp38
 70
     1
102
RTVSPost2010Prop39
140
1.0
102
RTVSPost2010PropOp39
 70
     1
102
RTVSPost2010Prop40
 90
        0
102
RTVSPost2010PropOp40
 70
     1
102
RTVSPost2010Prop41ColorIndex
 90
       18
102
RTVSPost2010Prop41ColorRGB
 90
        0
102
RTVSPost2010PropOp41
 70
     1
102
RTVSPost2010Prop42
 90
       50
102
RTVSPost2010PropOp42
 70
     1
102
RTVSPost2010Prop43
 90
        3
102
RTVSPost2010PropOp43
 70
     1
102
RTVSPost2010Prop44ColorIndex
 90
        5
102
RTVSPost2010Prop44ColorRGB
 90
      255
102
RTVSPost2010PropOp44
 70
     1
102
RTVSPost2010Prop45
280
     0
102
RTVSPost2010PropOp45
 70
     1
102
RTVSPost2010Prop46
 90
       50
102
RTVSPost2010PropOp46
 70
     1
102
RTVSPost2010Prop47
 90
       50
102
RTVSPost2010PropOp47
 70
     1
102
RTVSPost2010Prop48
 90
       50
102
RTVSPost2010PropOp48
 70
     1
102
RTVSPost2010Prop49
280
     0
102
RTVSPost2010PropOp49
 70
     1
102
RTVSPost2010Prop50
 90
       50
102
RTVSPost2010PropOp50
 70
     1
102
RTVSPost2010Prop51ColorIndex
 90
      256
102
RTVSPost2010Prop51ColorRGB
 90
-16777216
102
RTVSPost2010PropOp51
 70
     0
102
RTVSPost2010Prop52
140
1.0
102
RTVSPost2010PropOp52
 70
     0
102
RTVSPost2010Prop53
 90
        2
102
RTVSPost2010PropOp53
 70
     1
102
RTVSPost2010Prop54
  1
strokes_ogs.tif
102
RTVSPost2010PropOp54
 70
     1
102
RTVSPost2010Prop55
280
     0
102
RTVSPost2010PropOp55
 70
     1
102
RTVSPost2010Prop56
140
1.0
102
RTVSPost2010PropOp56
 70
     1
102
RTVSPost2010Prop57
140
1.0
102
RTVSPost2010PropOp57
 70
     1
  0
XRECORD
  5
231
102
{ACAD_REACTORS
330
230
102
}
330
230
100
AcDbXrecord
280
     1
102
RTVSPropertyOp0
 70
     1
102
RTVSPropertyOp1
 70
     1
102
RTVSPropertyOp2
 70
     1
102
RTVSPropertyOp3
 70
     1
102
RTVSPropertyOp4
 70
     1
102
RTVSPropertyOp5
 70
     1
102
RTVSPropertyOp6
 70
     1
102
RTVSPropertyOp7
 70
     1
102
RTVSPropertyOp8
 70
     1
102
RTVSPropertyOp9
 70
     1
102
RTVSPropertyOp10
 70
     1
102
RTVSPropertyOp11
 70
     1
102
RTVSPropertyOp12
 70
     1
102
RTVSPropertyOp13
 70
     1
102
RTVSPropertyOp14
 70
     1
102
RTVSPropertyOp15
 70
     1
102
RTVSPropertyOp16
 70
     1
102
RTVSPropertyOp17
 70
     1
102
RTVSPropertyOp18
 70
     1
102
RTVSPropertyOp19
 70
     1
102
RTVSPropertyOp20
 70
     1
102
RTVSPropertyOp21
 70
     1
102
RTVSPropertyOp22
 70
     1
102
RTVSPropertyOp23
 70
     1
102
RTVSPropertyOp24
 70
     1
102
RTVSPropertyOp25
 70
     1
102
RTVSPropertyOp26
 70
     1
102
RTVSPropertyOp27
 70
     1
102
RTVSPropertyOp28
 70
     1
102
RTVSPropertyOp29
 70
     1
102
RTVSPropertyOp30
 70
     1
102
RTVSPropertyOp31
 70
     1
102
RTVSPropertyOp32
 70
     1
102
RTVSPropertyOp33
 70
     1
102
RTVSPropertyOp34
 70
     1
102
RTVSPropertyOp35
 70
     1
102
RTVSPropertyOp36
 70
     1
102
RTVSPropertyOp37
 70
     1
102
RTVSPropertyOp38
 70
     1
102
RTVSPropertyOp39
 70
     1
102
RTVSPropertyOp40
 70
     1
102
RTVSPropertyOp41
 70
     1
102
RTVSPropertyOp42
 70
     1
102
RTVSPropertyOp43
 70
     1
102
RTVSPropertyOp44
 70
     1
102
RTVSPropertyOp45
 70
     1
102
RTVSPropertyOp46
 70
     1
102
RTVSPropertyOp47
 70
     1
102
RTVSPropertyOp48
 70
     1
102
RTVSPropertyOp49
 70
     1
102
RTVSPropertyOp50
 70
     1
102
RTVSPropertyOp51
 70
     0
102
RTVSPropertyOp52
 70
     0
102
RTVSPropertyOp53
 70
     1
102
RTVSPropertyOp54
 70
     1
102
RTVSPropertyOp55
 70
     1
102
RTVSPropertyOp56
 70
     1
102
RTVSPropertyOp57
 70
     1
102
RTVSPost2010Prop28
280
     0
102
RTVSPost2010PropOp28
 70
     1
102
RTVSPost2010Prop29
280
     1
102
RTVSPost2010PropOp29
 70
     1
102
RTVSPost2010Prop30
280
     1
102
RTVSPost2010PropOp30
 70
     1
102
RTVSPost2010Prop31
280
     0
102
RTVSPost2010PropOp31
 70
     1
102
RTVSPost2010Prop32
280
     0
102
RTVSPost2010PropOp32
 70
     1
102
RTVSPost2010Prop33
280
     0
102
RTVSPost2010PropOp33
 70
     1
102
RTVSPost2010Prop34
280
     0
102
RTVSPost2010PropOp34
 70
     1
102
RTVSPost2010Prop35
280
     0
102
RTVSPost2010PropOp35
 70
     1
102
RTVSPost2010Prop36
280
     0
102
RTVSPost2010PropOp36
 70
     1
102
RTVSPost2010Prop37
 90
       50
102
RTVSPost2010PropOp37
 70
     1
102
RTVSPost2010Prop38
140
0.0
102
RTVSPost2010PropOp38
 70
     1
102
RTVSPost2010Prop39
140
1.0
102
RTVSPost2010PropOp39
 70
     1
102
RTVSPost2010Prop40
 90
        0
102
RTVSPost2010PropOp40
 70
     1
102
RTVSPost2010Prop41ColorIndex
 90
       18
102
RTVSPost2010Prop41ColorRGB
 90
        0
102
RTVSPost2010PropOp41
 70
     1
102
RTVSPost2010Prop42
 90
       50
102
RTVSPost2010PropOp42
 70
     1
102
RTVSPost2010Prop43
 90
        3
102
RTVSPost2010PropOp43
 70
     1
102
RTVSPost2010Prop44ColorIndex
 90
        5
102
RTVSPost2010Prop44ColorRGB
 90
      255
102
RTVSPost2010PropOp44
 70
     1
102
RTVSPost2010Prop45
280
     0
102
RTVSPost2010PropOp45
 70
     1
102
RTVSPost2010Prop46
 90
       50
102
RTVSPost2010PropOp46
 70
     1
102
RTVSPost2010Prop47
 90
       50
102
RTVSPost2010PropOp47
 70
     1
102
RTVSPost2010Prop48
 90
       50
102
RTVSPost2010PropOp48
 70
     1
102
RTVSPost2010Prop49
280
     0
102
RTVSPost2010PropOp49
 70
     1
102
RTVSPost2010Prop50
 90
       50
102
RTVSPost2010PropOp50
 70
     1
102
RTVSPost2010Prop51ColorIndex
 90
      256
102
RTVSPost2010Prop51ColorRGB
 90
-16777216
102
RTVSPost2010PropOp51
 70
     0
102
RTVSPost2010Prop52
140
1.0
102
RTVSPost2010PropOp52
 70
     0
102
RTVSPost2010Prop53
 90
        2
102
RTVSPost2010PropOp53
 70
     1
102
RTVSPost2010Prop54
  1
strokes_ogs.tif
102
RTVSPost2010PropOp54
 70
     1
102
RTVSPost2010Prop55
280
     0
102
RTVSPost2010PropOp55
 70
     1
102
RTVSPost2010Prop56
140
1.0
102
RTVSPost2010PropOp56
 70
     1
102
RTVSPost2010Prop57
140
1.0
102
RTVSPost2010PropOp57
 70
     1
  0
XRECORD
  5
245
102
{ACAD_REACTORS
330
244
102
}
330
244
100
AcDbXrecord
280
     1
102
RTVSPropertyOp0
 70
     0
102
RTVSPropertyOp1
 70
     0
102
RTVSPropertyOp2
 70
     0
102
RTVSPropertyOp3
 70
     0
102
RTVSPropertyOp4
 70
     0
102
RTVSPropertyOp5
 70
     0
102
RTVSPropertyOp6
 70
     0
102
RTVSPropertyOp7
 70
     0
102
RTVSPropertyOp8
 70
     0
102
RTVSPropertyOp9
 70
     0
102
RTVSPropertyOp10
 70
     0
102
RTVSPropertyOp11
 70
     0
102
RTVSPropertyOp12
 70
     0
102
RTVSPropertyOp13
 70
     0
102
RTVSPropertyOp14
 70
     2
102
RTVSPropertyOp15
 70
     0
102
RTVSPropertyOp16
 70
     0
102
RTVSPropertyOp17
 70
     0
102
RTVSPropertyOp18
 70
     0
102
RTVSPropertyOp19
 70
     0
102
RTVSPropertyOp20
 70
     0
102
RTVSPropertyOp21
 70
     0
102
RTVSPropertyOp22
 70
     0
102
RTVSPropertyOp23
 70
     0
102
RTVSPropertyOp24
 70
     0
102
RTVSPropertyOp25
 70
     0
102
RTVSPropertyOp26
 70
     0
102
RTVSPropertyOp27
 70
     0
102
RTVSPropertyOp28
 70
     0
102
RTVSPropertyOp29
 70
     0
102
RTVSPropertyOp30
 70
     0
102
RTVSPropertyOp31
 70
     0
102
RTVSPropertyOp32
 70
     0
102
RTVSPropertyOp33
 70
     0
102
RTVSPropertyOp34
 70
     0
102
RTVSPropertyOp35
 70
     0
102
RTVSPropertyOp36
 70
     0
102
RTVSPropertyOp37
 70
     0
102
RTVSPropertyOp38
 70
     0
102
RTVSPropertyOp39
 70
     0
102
RTVSPropertyOp40
 70
     0
102
RTVSPropertyOp41
 70
     0
102
RTVSPropertyOp42
 70
     0
102
RTVSPropertyOp43
 70
     0
102
RTVSPropertyOp44
 70
     0
102
RTVSPropertyOp45
 70
     0
102
RTVSPropertyOp46
 70
     0
102
RTVSPropertyOp47
 70
     0
102
RTVSPropertyOp48
 70
     0
102
RTVSPropertyOp49
 70
     0
102
RTVSPropertyOp50
 70
     0
102
RTVSPropertyOp51
 70
     0
102
RTVSPropertyOp52
 70
     0
102
RTVSPropertyOp53
 70
     0
102
RTVSPropertyOp54
 70
     0
102
RTVSPropertyOp55
 70
     0
102
RTVSPropertyOp56
 70
     0
102
RTVSPropertyOp57
 70
     0
102
RTVSPost2010Prop28
280
     0
102
RTVSPost2010PropOp28
 70
     0
102
RTVSPost2010Prop29
280
     1
102
RTVSPost2010PropOp29
 70
     0
102
RTVSPost2010Prop30
280
     1
102
RTVSPost2010PropOp30
 70
     0
102
RTVSPost2010Prop31
280
     0
102
RTVSPost2010PropOp31
 70
     0
102
RTVSPost2010Prop32
280
     0
102
RTVSPost2010PropOp32
 70
     0
102
RTVSPost2010Prop33
280
     0
102
RTVSPost2010PropOp33
 70
     0
102
RTVSPost2010Prop34
280
     0
102
RTVSPost2010PropOp34
 70
     0
102
RTVSPost2010Prop35
280
     0
102
RTVSPost2010PropOp35
 70
     0
102
RTVSPost2010Prop36
280
     0
102
RTVSPost2010PropOp36
 70
     0
102
RTVSPost2010Prop37
 90
       50
102
RTVSPost2010PropOp37
 70
     0
102
RTVSPost2010Prop38
140
0.0
102
RTVSPost2010PropOp38
 70
     0
102
RTVSPost2010Prop39
140
1.0
102
RTVSPost2010PropOp39
 70
     0
102
RTVSPost2010Prop40
 90
        0
102
RTVSPost2010PropOp40
 70
     0
102
RTVSPost2010Prop41ColorIndex
 90
       18
102
RTVSPost2010Prop41ColorRGB
 90
        0
102
RTVSPost2010PropOp41
 70
     0
102
RTVSPost2010Prop42
 90
       50
102
RTVSPost2010PropOp42
 70
     0
102
RTVSPost2010Prop43
 90
        3
102
RTVSPost2010PropOp43
 70
     0
102
RTVSPost2010Prop44ColorIndex
 90
        5
102
RTVSPost2010Prop44ColorRGB
 90
      255
102
RTVSPost2010PropOp44
 70
     0
102
RTVSPost2010Prop45
280
     0
102
RTVSPost2010PropOp45
 70
     0
102
RTVSPost2010Prop46
 90
       50
102
RTVSPost2010PropOp46
 70
     0
102
RTVSPost2010Prop47
 90
       50
102
RTVSPost2010PropOp47
 70
     0
102
RTVSPost2010Prop48
 90
       50
102
RTVSPost2010PropOp48
 70
     0
102
RTVSPost2010Prop49
280
     0
102
RTVSPost2010PropOp49
 70
     0
102
RTVSPost2010Prop50
 90
       50
102
RTVSPost2010PropOp50
 70
     0
102
RTVSPost2010Prop51ColorIndex
 90
      256
102
RTVSPost2010Prop51ColorRGB
 90
-16777216
102
RTVSPost2010PropOp51
 70
     0
102
RTVSPost2010Prop52
140
1.0
102
RTVSPost2010PropOp52
 70
     0
102
RTVSPost2010Prop53
 90
        2
102
RTVSPost2010PropOp53
 70
     0
102
RTVSPost2010Prop54
  1
strokes_ogs.tif
102
RTVSPost2010PropOp54
 70
     0
102
RTVSPost2010Prop55
280
     0
102
RTVSPost2010PropOp55
 70
     0
102
RTVSPost2010Prop56
140
1.0
102
RTVSPost2010PropOp56
 70
     0
102
RTVSPost2010Prop57
140
1.0
102
RTVSPost2010PropOp57
 70
     0
  0
XRECORD
  5
23F
102
{ACAD_REACTORS
330
23E
102
}
330
23E
100
AcDbXrecord
280
     1
102
RTVSPropertyOp0
 70
     1
102
RTVSPropertyOp1
 70
     1
102
RTVSPropertyOp2
 70
     1
102
RTVSPropertyOp3
 70
     1
102
RTVSPropertyOp4
 70
     1
102
RTVSPropertyOp5
 70
     1
102
RTVSPropertyOp6
 70
     1
102
RTVSPropertyOp7
 70
     1
102
RTVSPropertyOp8
 70
     1
102
RTVSPropertyOp9
 70
     1
102
RTVSPropertyOp10
 70
     1
102
RTVSPropertyOp11
 70
     1
102
RTVSPropertyOp12
 70
     1
102
RTVSPropertyOp13
 70
     1
102
RTVSPropertyOp14
 70
     1
102
RTVSPropertyOp15
 70
     1
102
RTVSPropertyOp16
 70
     1
102
RTVSPropertyOp17
 70
     1
102
RTVSPropertyOp18
 70
     1
102
RTVSPropertyOp19
 70
     1
102
RTVSPropertyOp20
 70
     1
102
RTVSPropertyOp21
 70
     1
102
RTVSPropertyOp22
 70
     1
102
RTVSPropertyOp23
 70
     1
102
RTVSPropertyOp24
 70
     1
102
RTVSPropertyOp25
 70
     1
102
RTVSPropertyOp26
 70
     1
102
RTVSPropertyOp27
 70
     1
102
RTVSPropertyOp28
 70
     1
102
RTVSPropertyOp29
 70
     1
102
RTVSPropertyOp30
 70
     1
102
RTVSPropertyOp31
 70
     1
102
RTVSPropertyOp32
 70
     1
102
RTVSPropertyOp33
 70
     1
102
RTVSPropertyOp34
 70
     1
102
RTVSPropertyOp35
 70
     1
102
RTVSPropertyOp36
 70
     1
102
RTVSPropertyOp37
 70
     1
102
RTVSPropertyOp38
 70
     1
102
RTVSPropertyOp39
 70
     1
102
RTVSPropertyOp40
 70
     1
102
RTVSPropertyOp41
 70
     1
102
RTVSPropertyOp42
 70
     1
102
RTVSPropertyOp43
 70
     1
102
RTVSPropertyOp44
 70
     1
102
RTVSPropertyOp45
 70
     1
102
RTVSPropertyOp46
 70
     1
102
RTVSPropertyOp47
 70
     1
102
RTVSPropertyOp48
 70
     1
102
RTVSPropertyOp49
 70
     1
102
RTVSPropertyOp50
 70
     1
102
RTVSPropertyOp51
 70
     0
102
RTVSPropertyOp52
 70
     0
102
RTVSPropertyOp53
 70
     1
102
RTVSPropertyOp54
 70
     1
102
RTVSPropertyOp55
 70
     1
102
RTVSPropertyOp56
 70
     1
102
RTVSPropertyOp57
 70
     1
102
RTVSPost2010Prop28
280
     0
102
RTVSPost2010PropOp28
 70
     1
102
RTVSPost2010Prop29
280
     1
102
RTVSPost2010PropOp29
 70
     1
102
RTVSPost2010Prop30
280
     1
102
RTVSPost2010PropOp30
 70
     1
102
RTVSPost2010Prop31
280
     0
102
RTVSPost2010PropOp31
 70
     1
102
RTVSPost2010Prop32
280
     0
102
RTVSPost2010PropOp32
 70
     1
102
RTVSPost2010Prop33
280
     0
102
RTVSPost2010PropOp33
 70
     1
102
RTVSPost2010Prop34
280
     0
102
RTVSPost2010PropOp34
 70
     1
102
RTVSPost2010Prop35
280
     0
102
RTVSPost2010PropOp35
 70
     1
102
RTVSPost2010Prop36
280
     0
102
RTVSPost2010PropOp36
 70
     1
102
RTVSPost2010Prop37
 90
       50
102
RTVSPost2010PropOp37
 70
     1
102
RTVSPost2010Prop38
140
0.0
102
RTVSPost2010PropOp38
 70
     1
102
RTVSPost2010Prop39
140
1.0
102
RTVSPost2010PropOp39
 70
     1
102
RTVSPost2010Prop40
 90
        0
102
RTVSPost2010PropOp40
 70
     1
102
RTVSPost2010Prop41ColorIndex
 90
       18
102
RTVSPost2010Prop41ColorRGB
 90
        0
102
RTVSPost2010PropOp41
 70
     1
102
RTVSPost2010Prop42
 90
       50
102
RTVSPost2010PropOp42
 70
     1
102
RTVSPost2010Prop43
 90
        3
102
RTVSPost2010PropOp43
 70
     1
102
RTVSPost2010Prop44ColorIndex
 90
        5
102
RTVSPost2010Prop44ColorRGB
 90
      255
102
RTVSPost2010PropOp44
 70
     1
102
RTVSPost2010Prop45
280
     0
102
RTVSPost2010PropOp45
 70
     1
102
RTVSPost2010Prop46
 90
       50
102
RTVSPost2010PropOp46
 70
     1
102
RTVSPost2010Prop47
 90
       50
102
RTVSPost2010PropOp47
 70
     1
102
RTVSPost2010Prop48
 90
       50
102
RTVSPost2010PropOp48
 70
     1
102
RTVSPost2010Prop49
280
     0
102
RTVSPost2010PropOp49
 70
     1
102
RTVSPost2010Prop50
 90
       50
102
RTVSPost2010PropOp50
 70
     1
102
RTVSPost2010Prop51ColorIndex
 90
      256
102
RTVSPost2010Prop51ColorRGB
 90
-16777216
102
RTVSPost2010PropOp51
 70
     0
102
RTVSPost2010Prop52
140
1.0
102
RTVSPost2010PropOp52
 70
     0
102
RTVSPost2010Prop53
 90
        2
102
RTVSPost2010PropOp53
 70
     1
102
RTVSPost2010Prop54
  1
strokes_ogs.tif
102
RTVSPost2010PropOp54
 70
     1
102
RTVSPost2010Prop55
280
     0
102
RTVSPost2010PropOp55
 70
     1
102
RTVSPost2010Prop56
140
1.0
102
RTVSPost2010PropOp56
 70
     1
102
RTVSPost2010Prop57
140
1.0
102
RTVSPost2010PropOp57
 70
     1
  0
XRECORD
  5
247
102
{ACAD_REACTORS
330
246
102
}
330
246
100
AcDbXrecord
280
     1
102
RTVSPropertyOp0
 70
     0
102
RTVSPropertyOp1
 70
     0
102
RTVSPropertyOp2
 70
     0
102
RTVSPropertyOp3
 70
     0
102
RTVSPropertyOp4
 70
     0
102
RTVSPropertyOp5
 70
     0
102
RTVSPropertyOp6
 70
     0
102
RTVSPropertyOp7
 70
     0
102
RTVSPropertyOp8
 70
     0
102
RTVSPropertyOp9
 70
     0
102
RTVSPropertyOp10
 70
     0
102
RTVSPropertyOp11
 70
     0
102
RTVSPropertyOp12
 70
     0
102
RTVSPropertyOp13
 70
     0
102
RTVSPropertyOp14
 70
     2
102
RTVSPropertyOp15
 70
     0
102
RTVSPropertyOp16
 70
     0
102
RTVSPropertyOp17
 70
     0
102
RTVSPropertyOp18
 70
     0
102
RTVSPropertyOp19
 70
     0
102
RTVSPropertyOp20
 70
     0
102
RTVSPropertyOp21
 70
     0
102
RTVSPropertyOp22
 70
     0
102
RTVSPropertyOp23
 70
     0
102
RTVSPropertyOp24
 70
     0
102
RTVSPropertyOp25
 70
     0
102
RTVSPropertyOp26
 70
     0
102
RTVSPropertyOp27
 70
     0
102
RTVSPropertyOp28
 70
     0
102
RTVSPropertyOp29
 70
     0
102
RTVSPropertyOp30
 70
     0
102
RTVSPropertyOp31
 70
     0
102
RTVSPropertyOp32
 70
     0
102
RTVSPropertyOp33
 70
     0
102
RTVSPropertyOp34
 70
     0
102
RTVSPropertyOp35
 70
     0
102
RTVSPropertyOp36
 70
     0
102
RTVSPropertyOp37
 70
     0
102
RTVSPropertyOp38
 70
     0
102
RTVSPropertyOp39
 70
     0
102
RTVSPropertyOp40
 70
     0
102
RTVSPropertyOp41
 70
     0
102
RTVSPropertyOp42
 70
     0
102
RTVSPropertyOp43
 70
     0
102
RTVSPropertyOp44
 70
     0
102
RTVSPropertyOp45
 70
     0
102
RTVSPropertyOp46
 70
     0
102
RTVSPropertyOp47
 70
     0
102
RTVSPropertyOp48
 70
     0
102
RTVSPropertyOp49
 70
     0
102
RTVSPropertyOp50
 70
     0
102
RTVSPropertyOp51
 70
     0
102
RTVSPropertyOp52
 70
     0
102
RTVSPropertyOp53
 70
     0
102
RTVSPropertyOp54
 70
     0
102
RTVSPropertyOp55
 70
     0
102
RTVSPropertyOp56
 70
     0
102
RTVSPropertyOp57
 70
     0
102
RTVSPost2010Prop28
280
     0
102
RTVSPost2010PropOp28
 70
     0
102
RTVSPost2010Prop29
280
     1
102
RTVSPost2010PropOp29
 70
     0
102
RTVSPost2010Prop30
280
     1
102
RTVSPost2010PropOp30
 70
     0
102
RTVSPost2010Prop31
280
     0
102
RTVSPost2010PropOp31
 70
     0
102
RTVSPost2010Prop32
280
     0
102
RTVSPost2010PropOp32
 70
     0
102
RTVSPost2010Prop33
280
     0
102
RTVSPost2010PropOp33
 70
     0
102
RTVSPost2010Prop34
280
     0
102
RTVSPost2010PropOp34
 70
     0
102
RTVSPost2010Prop35
280
     0
102
RTVSPost2010PropOp35
 70
     0
102
RTVSPost2010Prop36
280
     0
102
RTVSPost2010PropOp36
 70
     0
102
RTVSPost2010Prop37
 90
       50
102
RTVSPost2010PropOp37
 70
     0
102
RTVSPost2010Prop38
140
0.0
102
RTVSPost2010PropOp38
 70
     0
102
RTVSPost2010Prop39
140
1.0
102
RTVSPost2010PropOp39
 70
     0
102
RTVSPost2010Prop40
 90
        0
102
RTVSPost2010PropOp40
 70
     0
102
RTVSPost2010Prop41ColorIndex
 90
       18
102
RTVSPost2010Prop41ColorRGB
 90
        0
102
RTVSPost2010PropOp41
 70
     0
102
RTVSPost2010Prop42
 90
       50
102
RTVSPost2010PropOp42
 70
     0
102
RTVSPost2010Prop43
 90
        3
102
RTVSPost2010PropOp43
 70
     0
102
RTVSPost2010Prop44ColorIndex
 90
        5
102
RTVSPost2010Prop44ColorRGB
 90
      255
102
RTVSPost2010PropOp44
 70
     0
102
RTVSPost2010Prop45
280
     0
102
RTVSPost2010PropOp45
 70
     0
102
RTVSPost2010Prop46
 90
       50
102
RTVSPost2010PropOp46
 70
     0
102
RTVSPost2010Prop47
 90
       50
102
RTVSPost2010PropOp47
 70
     0
102
RTVSPost2010Prop48
 90
       50
102
RTVSPost2010PropOp48
 70
     0
102
RTVSPost2010Prop49
280
     0
102
RTVSPost2010PropOp49
 70
     0
102
RTVSPost2010Prop50
 90
       50
102
RTVSPost2010PropOp50
 70
     0
102
RTVSPost2010Prop51ColorIndex
 90
      256
102
RTVSPost2010Prop51ColorRGB
 90
-16777216
102
RTVSPost2010PropOp51
 70
     0
102
RTVSPost2010Prop52
140
1.0
102
RTVSPost2010PropOp52
 70
     0
102
RTVSPost2010Prop53
 90
        2
102
RTVSPost2010PropOp53
 70
     0
102
RTVSPost2010Prop54
  1
strokes_ogs.tif
102
RTVSPost2010PropOp54
 70
     0
102
RTVSPost2010Prop55
280
     0
102
RTVSPost2010PropOp55
 70
     0
102
RTVSPost2010Prop56
140
1.0
102
RTVSPost2010PropOp56
 70
     0
102
RTVSPost2010Prop57
140
1.0
102
RTVSPost2010PropOp57
 70
     0
  0
XRECORD
  5
235
102
{ACAD_REACTORS
330
234
102
}
330
234
100
AcDbXrecord
280
     1
102
RTVSPropertyOp0
 70
     1
102
RTVSPropertyOp1
 70
     1
102
RTVSPropertyOp2
 70
     1
102
RTVSPropertyOp3
 70
     1
102
RTVSPropertyOp4
 70
     1
102
RTVSPropertyOp5
 70
     1
102
RTVSPropertyOp6
 70
     1
102
RTVSPropertyOp7
 70
     1
102
RTVSPropertyOp8
 70
     1
102
RTVSPropertyOp9
 70
     1
102
RTVSPropertyOp10
 70
     1
102
RTVSPropertyOp11
 70
     1
102
RTVSPropertyOp12
 70
     1
102
RTVSPropertyOp13
 70
     1
102
RTVSPropertyOp14
 70
     1
102
RTVSPropertyOp15
 70
     1
102
RTVSPropertyOp16
 70
     1
102
RTVSPropertyOp17
 70
     1
102
RTVSPropertyOp18
 70
     1
102
RTVSPropertyOp19
 70
     1
102
RTVSPropertyOp20
 70
     1
102
RTVSPropertyOp21
 70
     1
102
RTVSPropertyOp22
 70
     1
102
RTVSPropertyOp23
 70
     1
102
RTVSPropertyOp24
 70
     1
102
RTVSPropertyOp25
 70
     1
102
RTVSPropertyOp26
 70
     1
102
RTVSPropertyOp27
 70
     1
102
RTVSPropertyOp28
 70
     1
102
RTVSPropertyOp29
 70
     1
102
RTVSPropertyOp30
 70
     1
102
RTVSPropertyOp31
 70
     1
102
RTVSPropertyOp32
 70
     1
102
RTVSPropertyOp33
 70
     1
102
RTVSPropertyOp34
 70
     1
102
RTVSPropertyOp35
 70
     1
102
RTVSPropertyOp36
 70
     1
102
RTVSPropertyOp37
 70
     1
102
RTVSPropertyOp38
 70
     1
102
RTVSPropertyOp39
 70
     1
102
RTVSPropertyOp40
 70
     1
102
RTVSPropertyOp41
 70
     1
102
RTVSPropertyOp42
 70
     1
102
RTVSPropertyOp43
 70
     1
102
RTVSPropertyOp44
 70
     1
102
RTVSPropertyOp45
 70
     1
102
RTVSPropertyOp46
 70
     1
102
RTVSPropertyOp47
 70
     1
102
RTVSPropertyOp48
 70
     1
102
RTVSPropertyOp49
 70
     1
102
RTVSPropertyOp50
 70
     1
102
RTVSPropertyOp51
 70
     0
102
RTVSPropertyOp52
 70
     0
102
RTVSPropertyOp53
 70
     1
102
RTVSPropertyOp54
 70
     1
102
RTVSPropertyOp55
 70
     1
102
RTVSPropertyOp56
 70
     1
102
RTVSPropertyOp57
 70
     1
102
RTVSPost2010Prop28
280
     0
102
RTVSPost2010PropOp28
 70
     1
102
RTVSPost2010Prop29
280
     1
102
RTVSPost2010PropOp29
 70
     1
102
RTVSPost2010Prop30
280
     1
102
RTVSPost2010PropOp30
 70
     1
102
RTVSPost2010Prop31
280
     0
102
RTVSPost2010PropOp31
 70
     1
102
RTVSPost2010Prop32
280
     0
102
RTVSPost2010PropOp32
 70
     1
102
RTVSPost2010Prop33
280
     0
102
RTVSPost2010PropOp33
 70
     1
102
RTVSPost2010Prop34
280
     0
102
RTVSPost2010PropOp34
 70
     1
102
RTVSPost2010Prop35
280
     0
102
RTVSPost2010PropOp35
 70
     1
102
RTVSPost2010Prop36
280
     0
102
RTVSPost2010PropOp36
 70
     1
102
RTVSPost2010Prop37
 90
       50
102
RTVSPost2010PropOp37
 70
     1
102
RTVSPost2010Prop38
140
0.0
102
RTVSPost2010PropOp38
 70
     1
102
RTVSPost2010Prop39
140
1.0
102
RTVSPost2010PropOp39
 70
     1
102
RTVSPost2010Prop40
 90
        0
102
RTVSPost2010PropOp40
 70
     1
102
RTVSPost2010Prop41ColorIndex
 90
       18
102
RTVSPost2010Prop41ColorRGB
 90
        0
102
RTVSPost2010PropOp41
 70
     1
102
RTVSPost2010Prop42
 90
       50
102
RTVSPost2010PropOp42
 70
     1
102
RTVSPost2010Prop43
 90
        3
102
RTVSPost2010PropOp43
 70
     1
102
RTVSPost2010Prop44ColorIndex
 90
        5
102
RTVSPost2010Prop44ColorRGB
 90
      255
102
RTVSPost2010PropOp44
 70
     1
102
RTVSPost2010Prop45
280
     0
102
RTVSPost2010PropOp45
 70
     1
102
RTVSPost2010Prop46
 90
       50
102
RTVSPost2010PropOp46
 70
     1
102
RTVSPost2010Prop47
 90
       50
102
RTVSPost2010PropOp47
 70
     1
102
RTVSPost2010Prop48
 90
       50
102
RTVSPost2010PropOp48
 70
     1
102
RTVSPost2010Prop49
280
     0
102
RTVSPost2010PropOp49
 70
     1
102
RTVSPost2010Prop50
 90
       50
102
RTVSPost2010PropOp50
 70
     1
102
RTVSPost2010Prop51ColorIndex
 90
      256
102
RTVSPost2010Prop51ColorRGB
 90
-16777216
102
RTVSPost2010PropOp51
 70
     0
102
RTVSPost2010Prop52
140
1.0
102
RTVSPost2010PropOp52
 70
     0
102
RTVSPost2010Prop53
 90
        2
102
RTVSPost2010PropOp53
 70
     1
102
RTVSPost2010Prop54
  1
strokes_ogs.tif
102
RTVSPost2010PropOp54
 70
     1
102
RTVSPost2010Prop55
280
     0
102
RTVSPost2010PropOp55
 70
     1
102
RTVSPost2010Prop56
140
1.0
102
RTVSPost2010PropOp56
 70
     1
102
RTVSPost2010Prop57
140
1.0
102
RTVSPost2010PropOp57
 70
     1
  0
XRECORD
  5
253
102
{ACAD_REACTORS
330
252
102
}
330
252
100
AcDbXrecord
280
     1
102
RTVSPropertyOp0
 70
     1
102
RTVSPropertyOp1
 70
     1
102
RTVSPropertyOp2
 70
     1
102
RTVSPropertyOp3
 70
     1
102
RTVSPropertyOp4
 70
     1
102
RTVSPropertyOp5
 70
     1
102
RTVSPropertyOp6
 70
     1
102
RTVSPropertyOp7
 70
     1
102
RTVSPropertyOp8
 70
     1
102
RTVSPropertyOp9
 70
     1
102
RTVSPropertyOp10
 70
     1
102
RTVSPropertyOp11
 70
     1
102
RTVSPropertyOp12
 70
     1
102
RTVSPropertyOp13
 70
     1
102
RTVSPropertyOp14
 70
     1
102
RTVSPropertyOp15
 70
     1
102
RTVSPropertyOp16
 70
     1
102
RTVSPropertyOp17
 70
     1
102
RTVSPropertyOp18
 70
     1
102
RTVSPropertyOp19
 70
     1
102
RTVSPropertyOp20
 70
     1
102
RTVSPropertyOp21
 70
     1
102
RTVSPropertyOp22
 70
     1
102
RTVSPropertyOp23
 70
     1
102
RTVSPropertyOp24
 70
     1
102
RTVSPropertyOp25
 70
     1
102
RTVSPropertyOp26
 70
     1
102
RTVSPropertyOp27
 70
     1
102
RTVSPropertyOp28
 70
     1
102
RTVSPropertyOp29
 70
     1
102
RTVSPropertyOp30
 70
     1
102
RTVSPropertyOp31
 70
     1
102
RTVSPropertyOp32
 70
     1
102
RTVSPropertyOp33
 70
     1
102
RTVSPropertyOp34
 70
     1
102
RTVSPropertyOp35
 70
     1
102
RTVSPropertyOp36
 70
     1
102
RTVSPropertyOp37
 70
     1
102
RTVSPropertyOp38
 70
     1
102
RTVSPropertyOp39
 70
     1
102
RTVSPropertyOp40
 70
     1
102
RTVSPropertyOp41
 70
     1
102
RTVSPropertyOp42
 70
     1
102
RTVSPropertyOp43
 70
     1
102
RTVSPropertyOp44
 70
     1
102
RTVSPropertyOp45
 70
     1
102
RTVSPropertyOp46
 70
     1
102
RTVSPropertyOp47
 70
     1
102
RTVSPropertyOp48
 70
     1
102
RTVSPropertyOp49
 70
     1
102
RTVSPropertyOp50
 70
     1
102
RTVSPropertyOp51
 70
     0
102
RTVSPropertyOp52
 70
     0
102
RTVSPropertyOp53
 70
     1
102
RTVSPropertyOp54
 70
     1
102
RTVSPropertyOp55
 70
     1
102
RTVSPropertyOp56
 70
     1
102
RTVSPropertyOp57
 70
     1
102
RTVSPost2010Prop28
280
     0
102
RTVSPost2010PropOp28
 70
     1
102
RTVSPost2010Prop29
280
     1
102
RTVSPost2010PropOp29
 70
     1
102
RTVSPost2010Prop30
280
     1
102
RTVSPost2010PropOp30
 70
     1
102
RTVSPost2010Prop31
280
     0
102
RTVSPost2010PropOp31
 70
     1
102
RTVSPost2010Prop32
280
     0
102
RTVSPost2010PropOp32
 70
     1
102
RTVSPost2010Prop33
280
     0
102
RTVSPost2010PropOp33
 70
     1
102
RTVSPost2010Prop34
280
     0
102
RTVSPost2010PropOp34
 70
     1
102
RTVSPost2010Prop35
280
     0
102
RTVSPost2010PropOp35
 70
     1
102
RTVSPost2010Prop36
280
     0
102
RTVSPost2010PropOp36
 70
     1
102
RTVSPost2010Prop37
 90
       50
102
RTVSPost2010PropOp37
 70
     1
102
RTVSPost2010Prop38
140
0.0
102
RTVSPost2010PropOp38
 70
     1
102
RTVSPost2010Prop39
140
1.0
102
RTVSPost2010PropOp39
 70
     1
102
RTVSPost2010Prop40
 90
        0
102
RTVSPost2010PropOp40
 70
     1
102
RTVSPost2010Prop41ColorIndex
 90
       18
102
RTVSPost2010Prop41ColorRGB
 90
        0
102
RTVSPost2010PropOp41
 70
     1
102
RTVSPost2010Prop42
 90
       50
102
RTVSPost2010PropOp42
 70
     1
102
RTVSPost2010Prop43
 90
        3
102
RTVSPost2010PropOp43
 70
     1
102
RTVSPost2010Prop44ColorIndex
 90
        5
102
RTVSPost2010Prop44ColorRGB
 90
      255
102
RTVSPost2010PropOp44
 70
     1
102
RTVSPost2010Prop45
280
     0
102
RTVSPost2010PropOp45
 70
     1
102
RTVSPost2010Prop46
 90
       50
102
RTVSPost2010PropOp46
 70
     1
102
RTVSPost2010Prop47
 90
       50
102
RTVSPost2010PropOp47
 70
     1
102
RTVSPost2010Prop48
 90
       50
102
RTVSPost2010PropOp48
 70
     1
102
RTVSPost2010Prop49
280
     0
102
RTVSPost2010PropOp49
 70
     1
102
RTVSPost2010Prop50
 90
       50
102
RTVSPost2010PropOp50
 70
     1
102
RTVSPost2010Prop51ColorIndex
 90
      256
102
RTVSPost2010Prop51ColorRGB
 90
-16777216
102
RTVSPost2010PropOp51
 70
     0
102
RTVSPost2010Prop52
140
1.0
102
RTVSPost2010PropOp52
 70
     0
102
RTVSPost2010Prop53
 90
        2
102
RTVSPost2010PropOp53
 70
     1
102
RTVSPost2010Prop54
  1
strokes_ogs.tif
102
RTVSPost2010PropOp54
 70
     1
102
RTVSPost2010Prop55
280
     0
102
RTVSPost2010PropOp55
 70
     1
102
RTVSPost2010Prop56
140
1.0
102
RTVSPost2010PropOp56
 70
     1
102
RTVSPost2010Prop57
140
1.0
102
RTVSPost2010PropOp57
 70
     1
  0
XRECORD
  5
251
102
{ACAD_REACTORS
330
250
102
}
330
250
100
AcDbXrecord
280
     1
102
RTVSPropertyOp0
 70
     1
102
RTVSPropertyOp1
 70
     1
102
RTVSPropertyOp2
 70
     1
102
RTVSPropertyOp3
 70
     1
102
RTVSPropertyOp4
 70
     1
102
RTVSPropertyOp5
 70
     1
102
RTVSPropertyOp6
 70
     1
102
RTVSPropertyOp7
 70
     1
102
RTVSPropertyOp8
 70
     1
102
RTVSPropertyOp9
 70
     1
102
RTVSPropertyOp10
 70
     1
102
RTVSPropertyOp11
 70
     1
102
RTVSPropertyOp12
 70
     1
102
RTVSPropertyOp13
 70
     1
102
RTVSPropertyOp14
 70
     1
102
RTVSPropertyOp15
 70
     1
102
RTVSPropertyOp16
 70
     1
102
RTVSPropertyOp17
 70
     1
102
RTVSPropertyOp18
 70
     1
102
RTVSPropertyOp19
 70
     1
102
RTVSPropertyOp20
 70
     1
102
RTVSPropertyOp21
 70
     1
102
RTVSPropertyOp22
 70
     1
102
RTVSPropertyOp23
 70
     1
102
RTVSPropertyOp24
 70
     1
102
RTVSPropertyOp25
 70
     1
102
RTVSPropertyOp26
 70
     1
102
RTVSPropertyOp27
 70
     1
102
RTVSPropertyOp28
 70
     1
102
RTVSPropertyOp29
 70
     1
102
RTVSPropertyOp30
 70
     1
102
RTVSPropertyOp31
 70
     1
102
RTVSPropertyOp32
 70
     1
102
RTVSPropertyOp33
 70
     1
102
RTVSPropertyOp34
 70
     1
102
RTVSPropertyOp35
 70
     1
102
RTVSPropertyOp36
 70
     1
102
RTVSPropertyOp37
 70
     1
102
RTVSPropertyOp38
 70
     1
102
RTVSPropertyOp39
 70
     1
102
RTVSPropertyOp40
 70
     1
102
RTVSPropertyOp41
 70
     1
102
RTVSPropertyOp42
 70
     1
102
RTVSPropertyOp43
 70
     1
102
RTVSPropertyOp44
 70
     1
102
RTVSPropertyOp45
 70
     1
102
RTVSPropertyOp46
 70
     1
102
RTVSPropertyOp47
 70
     1
102
RTVSPropertyOp48
 70
     1
102
RTVSPropertyOp49
 70
     1
102
RTVSPropertyOp50
 70
     1
102
RTVSPropertyOp51
 70
     0
102
RTVSPropertyOp52
 70
     0
102
RTVSPropertyOp53
 70
     1
102
RTVSPropertyOp54
 70
     1
102
RTVSPropertyOp55
 70
     1
102
RTVSPropertyOp56
 70
     1
102
RTVSPropertyOp57
 70
     1
102
RTVSPost2010Prop28
280
     0
102
RTVSPost2010PropOp28
 70
     1
102
RTVSPost2010Prop29
280
     1
102
RTVSPost2010PropOp29
 70
     1
102
RTVSPost2010Prop30
280
     1
102
RTVSPost2010PropOp30
 70
     1
102
RTVSPost2010Prop31
280
     0
102
RTVSPost2010PropOp31
 70
     1
102
RTVSPost2010Prop32
280
     0
102
RTVSPost2010PropOp32
 70
     1
102
RTVSPost2010Prop33
280
     0
102
RTVSPost2010PropOp33
 70
     1
102
RTVSPost2010Prop34
280
     0
102
RTVSPost2010PropOp34
 70
     1
102
RTVSPost2010Prop35
280
     0
102
RTVSPost2010PropOp35
 70
     1
102
RTVSPost2010Prop36
280
     0
102
RTVSPost2010PropOp36
 70
     1
102
RTVSPost2010Prop37
 90
       50
102
RTVSPost2010PropOp37
 70
     1
102
RTVSPost2010Prop38
140
0.0
102
RTVSPost2010PropOp38
 70
     1
102
RTVSPost2010Prop39
140
1.0
102
RTVSPost2010PropOp39
 70
     1
102
RTVSPost2010Prop40
 90
        0
102
RTVSPost2010PropOp40
 70
     1
102
RTVSPost2010Prop41ColorIndex
 90
       18
102
RTVSPost2010Prop41ColorRGB
 90
        0
102
RTVSPost2010PropOp41
 70
     1
102
RTVSPost2010Prop42
 90
       50
102
RTVSPost2010PropOp42
 70
     1
102
RTVSPost2010Prop43
 90
        3
102
RTVSPost2010PropOp43
 70
     1
102
RTVSPost2010Prop44ColorIndex
 90
        5
102
RTVSPost2010Prop44ColorRGB
 90
      255
102
RTVSPost2010PropOp44
 70
     1
102
RTVSPost2010Prop45
280
     0
102
RTVSPost2010PropOp45
 70
     1
102
RTVSPost2010Prop46
 90
       50
102
RTVSPost2010PropOp46
 70
     1
102
RTVSPost2010Prop47
 90
       50
102
RTVSPost2010PropOp47
 70
     1
102
RTVSPost2010Prop48
 90
       50
102
RTVSPost2010PropOp48
 70
     1
102
RTVSPost2010Prop49
280
     0
102
RTVSPost2010PropOp49
 70
     1
102
RTVSPost2010Prop50
 90
       50
102
RTVSPost2010PropOp50
 70
     1
102
RTVSPost2010Prop51ColorIndex
 90
      256
102
RTVSPost2010Prop51ColorRGB
 90
-16777216
102
RTVSPost2010PropOp51
 70
     0
102
RTVSPost2010Prop52
140
1.0
102
RTVSPost2010PropOp52
 70
     0
102
RTVSPost2010Prop53
 90
        2
102
RTVSPost2010PropOp53
 70
     1
102
RTVSPost2010Prop54
  1
strokes_ogs.tif
102
RTVSPost2010PropOp54
 70
     1
102
RTVSPost2010Prop55
280
     0
102
RTVSPost2010PropOp55
 70
     1
102
RTVSPost2010Prop56
140
1.0
102
RTVSPost2010PropOp56
 70
     1
102
RTVSPost2010Prop57
140
1.0
102
RTVSPost2010PropOp57
 70
     1
  0
XRECORD
  5
24B
102
{ACAD_REACTORS
330
24A
102
}
330
24A
100
AcDbXrecord
280
     1
102
RTVSPropertyOp0
 70
     1
102
RTVSPropertyOp1
 70
     1
102
RTVSPropertyOp2
 70
     1
102
RTVSPropertyOp3
 70
     1
102
RTVSPropertyOp4
 70
     1
102
RTVSPropertyOp5
 70
     1
102
RTVSPropertyOp6
 70
     1
102
RTVSPropertyOp7
 70
     1
102
RTVSPropertyOp8
 70
     1
102
RTVSPropertyOp9
 70
     1
102
RTVSPropertyOp10
 70
     1
102
RTVSPropertyOp11
 70
     1
102
RTVSPropertyOp12
 70
     1
102
RTVSPropertyOp13
 70
     1
102
RTVSPropertyOp14
 70
     1
102
RTVSPropertyOp15
 70
     1
102
RTVSPropertyOp16
 70
     1
102
RTVSPropertyOp17
 70
     1
102
RTVSPropertyOp18
 70
     1
102
RTVSPropertyOp19
 70
     1
102
RTVSPropertyOp20
 70
     1
102
RTVSPropertyOp21
 70
     1
102
RTVSPropertyOp22
 70
     1
102
RTVSPropertyOp23
 70
     1
102
RTVSPropertyOp24
 70
     1
102
RTVSPropertyOp25
 70
     1
102
RTVSPropertyOp26
 70
     1
102
RTVSPropertyOp27
 70
     1
102
RTVSPropertyOp28
 70
     1
102
RTVSPropertyOp29
 70
     1
102
RTVSPropertyOp30
 70
     1
102
RTVSPropertyOp31
 70
     1
102
RTVSPropertyOp32
 70
     1
102
RTVSPropertyOp33
 70
     1
102
RTVSPropertyOp34
 70
     1
102
RTVSPropertyOp35
 70
     1
102
RTVSPropertyOp36
 70
     1
102
RTVSPropertyOp37
 70
     1
102
RTVSPropertyOp38
 70
     1
102
RTVSPropertyOp39
 70
     1
102
RTVSPropertyOp40
 70
     1
102
RTVSPropertyOp41
 70
     1
102
RTVSPropertyOp42
 70
     1
102
RTVSPropertyOp43
 70
     1
102
RTVSPropertyOp44
 70
     1
102
RTVSPropertyOp45
 70
     1
102
RTVSPropertyOp46
 70
     1
102
RTVSPropertyOp47
 70
     1
102
RTVSPropertyOp48
 70
     1
102
RTVSPropertyOp49
 70
     1
102
RTVSPropertyOp50
 70
     1
102
RTVSPropertyOp51
 70
     0
102
RTVSPropertyOp52
 70
     0
102
RTVSPropertyOp53
 70
     1
102
RTVSPropertyOp54
 70
     1
102
RTVSPropertyOp55
 70
     1
102
RTVSPropertyOp56
 70
     1
102
RTVSPropertyOp57
 70
     1
102
RTVSPost2010Prop28
280
     0
102
RTVSPost2010PropOp28
 70
     1
102
RTVSPost2010Prop29
280
     1
102
RTVSPost2010PropOp29
 70
     1
102
RTVSPost2010Prop30
280
     1
102
RTVSPost2010PropOp30
 70
     1
102
RTVSPost2010Prop31
280
     0
102
RTVSPost2010PropOp31
 70
     1
102
RTVSPost2010Prop32
280
     0
102
RTVSPost2010PropOp32
 70
     1
102
RTVSPost2010Prop33
280
     0
102
RTVSPost2010PropOp33
 70
     1
102
RTVSPost2010Prop34
280
     0
102
RTVSPost2010PropOp34
 70
     1
102
RTVSPost2010Prop35
280
     0
102
RTVSPost2010PropOp35
 70
     1
102
RTVSPost2010Prop36
280
     0
102
RTVSPost2010PropOp36
 70
     1
102
RTVSPost2010Prop37
 90
       50
102
RTVSPost2010PropOp37
 70
     1
102
RTVSPost2010Prop38
140
0.0
102
RTVSPost2010PropOp38
 70
     1
102
RTVSPost2010Prop39
140
1.0
102
RTVSPost2010PropOp39
 70
     1
102
RTVSPost2010Prop40
 90
        0
102
RTVSPost2010PropOp40
 70
     1
102
RTVSPost2010Prop41ColorIndex
 90
       18
102
RTVSPost2010Prop41ColorRGB
 90
        0
102
RTVSPost2010PropOp41
 70
     1
102
RTVSPost2010Prop42
 90
       50
102
RTVSPost2010PropOp42
 70
     1
102
RTVSPost2010Prop43
 90
        3
102
RTVSPost2010PropOp43
 70
     1
102
RTVSPost2010Prop44ColorIndex
 90
        5
102
RTVSPost2010Prop44ColorRGB
 90
      255
102
RTVSPost2010PropOp44
 70
     1
102
RTVSPost2010Prop45
280
     0
102
RTVSPost2010PropOp45
 70
     1
102
RTVSPost2010Prop46
 90
       50
102
RTVSPost2010PropOp46
 70
     1
102
RTVSPost2010Prop47
 90
       50
102
RTVSPost2010PropOp47
 70
     1
102
RTVSPost2010Prop48
 90
       50
102
RTVSPost2010PropOp48
 70
     1
102
RTVSPost2010Prop49
280
     0
102
RTVSPost2010PropOp49
 70
     1
102
RTVSPost2010Prop50
 90
       50
102
RTVSPost2010PropOp50
 70
     1
102
RTVSPost2010Prop51ColorIndex
 90
      256
102
RTVSPost2010Prop51ColorRGB
 90
-16777216
102
RTVSPost2010PropOp51
 70
     0
102
RTVSPost2010Prop52
140
1.0
102
RTVSPost2010PropOp52
 70
     0
102
RTVSPost2010Prop53
 90
        2
102
RTVSPost2010PropOp53
 70
     1
102
RTVSPost2010Prop54
  1
strokes_ogs.tif
102
RTVSPost2010PropOp54
 70
     1
102
RTVSPost2010Prop55
280
     0
102
RTVSPost2010PropOp55
 70
     1
102
RTVSPost2010Prop56
140
1.0
102
RTVSPost2010PropOp56
 70
     1
102
RTVSPost2010Prop57
140
1.0
102
RTVSPost2010PropOp57
 70
     1
  0
XRECORD
  5
24D
102
{ACAD_REACTORS
330
24C
102
}
330
24C
100
AcDbXrecord
280
     1
102
RTVSPropertyOp0
 70
     1
102
RTVSPropertyOp1
 70
     1
102
RTVSPropertyOp2
 70
     1
102
RTVSPropertyOp3
 70
     1
102
RTVSPropertyOp4
 70
     1
102
RTVSPropertyOp5
 70
     1
102
RTVSPropertyOp6
 70
     1
102
RTVSPropertyOp7
 70
     1
102
RTVSPropertyOp8
 70
     1
102
RTVSPropertyOp9
 70
     1
102
RTVSPropertyOp10
 70
     1
102
RTVSPropertyOp11
 70
     1
102
RTVSPropertyOp12
 70
     1
102
RTVSPropertyOp13
 70
     1
102
RTVSPropertyOp14
 70
     1
102
RTVSPropertyOp15
 70
     1
102
RTVSPropertyOp16
 70
     1
102
RTVSPropertyOp17
 70
     1
102
RTVSPropertyOp18
 70
     1
102
RTVSPropertyOp19
 70
     1
102
RTVSPropertyOp20
 70
     1
102
RTVSPropertyOp21
 70
     1
102
RTVSPropertyOp22
 70
     1
102
RTVSPropertyOp23
 70
     1
102
RTVSPropertyOp24
 70
     1
102
RTVSPropertyOp25
 70
     1
102
RTVSPropertyOp26
 70
     1
102
RTVSPropertyOp27
 70
     1
102
RTVSPropertyOp28
 70
     1
102
RTVSPropertyOp29
 70
     1
102
RTVSPropertyOp30
 70
     1
102
RTVSPropertyOp31
 70
     1
102
RTVSPropertyOp32
 70
     1
102
RTVSPropertyOp33
 70
     1
102
RTVSPropertyOp34
 70
     1
102
RTVSPropertyOp35
 70
     1
102
RTVSPropertyOp36
 70
     1
102
RTVSPropertyOp37
 70
     1
102
RTVSPropertyOp38
 70
     1
102
RTVSPropertyOp39
 70
     1
102
RTVSPropertyOp40
 70
     1
102
RTVSPropertyOp41
 70
     1
102
RTVSPropertyOp42
 70
     1
102
RTVSPropertyOp43
 70
     1
102
RTVSPropertyOp44
 70
     1
102
RTVSPropertyOp45
 70
     1
102
RTVSPropertyOp46
 70
     1
102
RTVSPropertyOp47
 70
     1
102
RTVSPropertyOp48
 70
     1
102
RTVSPropertyOp49
 70
     1
102
RTVSPropertyOp50
 70
     1
102
RTVSPropertyOp51
 70
     0
102
RTVSPropertyOp52
 70
     0
102
RTVSPropertyOp53
 70
     1
102
RTVSPropertyOp54
 70
     1
102
RTVSPropertyOp55
 70
     1
102
RTVSPropertyOp56
 70
     1
102
RTVSPropertyOp57
 70
     1
102
RTVSPost2010Prop28
280
     0
102
RTVSPost2010PropOp28
 70
     1
102
RTVSPost2010Prop29
280
     1
102
RTVSPost2010PropOp29
 70
     1
102
RTVSPost2010Prop30
280
     1
102
RTVSPost2010PropOp30
 70
     1
102
RTVSPost2010Prop31
280
     0
102
RTVSPost2010PropOp31
 70
     1
102
RTVSPost2010Prop32
280
     0
102
RTVSPost2010PropOp32
 70
     1
102
RTVSPost2010Prop33
280
     0
102
RTVSPost2010PropOp33
 70
     1
102
RTVSPost2010Prop34
280
     0
102
RTVSPost2010PropOp34
 70
     1
102
RTVSPost2010Prop35
280
     0
102
RTVSPost2010PropOp35
 70
     1
102
RTVSPost2010Prop36
280
     0
102
RTVSPost2010PropOp36
 70
     1
102
RTVSPost2010Prop37
 90
       50
102
RTVSPost2010PropOp37
 70
     1
102
RTVSPost2010Prop38
140
0.0
102
RTVSPost2010PropOp38
 70
     1
102
RTVSPost2010Prop39
140
1.0
102
RTVSPost2010PropOp39
 70
     1
102
RTVSPost2010Prop40
 90
        0
102
RTVSPost2010PropOp40
 70
     1
102
RTVSPost2010Prop41ColorIndex
 90
       18
102
RTVSPost2010Prop41ColorRGB
 90
        0
102
RTVSPost2010PropOp41
 70
     1
102
RTVSPost2010Prop42
 90
       50
102
RTVSPost2010PropOp42
 70
     1
102
RTVSPost2010Prop43
 90
        3
102
RTVSPost2010PropOp43
 70
     1
102
RTVSPost2010Prop44ColorIndex
 90
        5
102
RTVSPost2010Prop44ColorRGB
 90
      255
102
RTVSPost2010PropOp44
 70
     1
102
RTVSPost2010Prop45
280
     0
102
RTVSPost2010PropOp45
 70
     1
102
RTVSPost2010Prop46
 90
       50
102
RTVSPost2010PropOp46
 70
     1
102
RTVSPost2010Prop47
 90
       50
102
RTVSPost2010PropOp47
 70
     1
102
RTVSPost2010Prop48
 90
       50
102
RTVSPost2010PropOp48
 70
     1
102
RTVSPost2010Prop49
280
     0
102
RTVSPost2010PropOp49
 70
     1
102
RTVSPost2010Prop50
 90
       50
102
RTVSPost2010PropOp50
 70
     1
102
RTVSPost2010Prop51ColorIndex
 90
      256
102
RTVSPost2010Prop51ColorRGB
 90
-16777216
102
RTVSPost2010PropOp51
 70
     0
102
RTVSPost2010Prop52
140
1.0
102
RTVSPost2010PropOp52
 70
     0
102
RTVSPost2010Prop53
 90
        2
102
RTVSPost2010PropOp53
 70
     1
102
RTVSPost2010Prop54
  1
strokes_ogs.tif
102
RTVSPost2010PropOp54
 70
     1
102
RTVSPost2010Prop55
280
     0
102
RTVSPost2010PropOp55
 70
     1
102
RTVSPost2010Prop56
140
1.0
102
RTVSPost2010PropOp56
 70
     1
102
RTVSPost2010Prop57
140
1.0
102
RTVSPost2010PropOp57
 70
     1
  0
XRECORD
  5
23D
102
{ACAD_REACTORS
330
23C
102
}
330
23C
100
AcDbXrecord
280
     1
102
RTVSPropertyOp0
 70
     1
102
RTVSPropertyOp1
 70
     1
102
RTVSPropertyOp2
 70
     1
102
RTVSPropertyOp3
 70
     1
102
RTVSPropertyOp4
 70
     1
102
RTVSPropertyOp5
 70
     1
102
RTVSPropertyOp6
 70
     1
102
RTVSPropertyOp7
 70
     1
102
RTVSPropertyOp8
 70
     1
102
RTVSPropertyOp9
 70
     1
102
RTVSPropertyOp10
 70
     1
102
RTVSPropertyOp11
 70
     1
102
RTVSPropertyOp12
 70
     1
102
RTVSPropertyOp13
 70
     1
102
RTVSPropertyOp14
 70
     1
102
RTVSPropertyOp15
 70
     1
102
RTVSPropertyOp16
 70
     1
102
RTVSPropertyOp17
 70
     1
102
RTVSPropertyOp18
 70
     1
102
RTVSPropertyOp19
 70
     1
102
RTVSPropertyOp20
 70
     1
102
RTVSPropertyOp21
 70
     1
102
RTVSPropertyOp22
 70
     1
102
RTVSPropertyOp23
 70
     1
102
RTVSPropertyOp24
 70
     1
102
RTVSPropertyOp25
 70
     1
102
RTVSPropertyOp26
 70
     1
102
RTVSPropertyOp27
 70
     1
102
RTVSPropertyOp28
 70
     1
102
RTVSPropertyOp29
 70
     1
102
RTVSPropertyOp30
 70
     1
102
RTVSPropertyOp31
 70
     1
102
RTVSPropertyOp32
 70
     1
102
RTVSPropertyOp33
 70
     1
102
RTVSPropertyOp34
 70
     1
102
RTVSPropertyOp35
 70
     1
102
RTVSPropertyOp36
 70
     1
102
RTVSPropertyOp37
 70
     1
102
RTVSPropertyOp38
 70
     1
102
RTVSPropertyOp39
 70
     1
102
RTVSPropertyOp40
 70
     1
102
RTVSPropertyOp41
 70
     1
102
RTVSPropertyOp42
 70
     1
102
RTVSPropertyOp43
 70
     1
102
RTVSPropertyOp44
 70
     1
102
RTVSPropertyOp45
 70
     1
102
RTVSPropertyOp46
 70
     1
102
RTVSPropertyOp47
 70
     1
102
RTVSPropertyOp48
 70
     1
102
RTVSPropertyOp49
 70
     1
102
RTVSPropertyOp50
 70
     1
102
RTVSPropertyOp51
 70
     0
102
RTVSPropertyOp52
 70
     0
102
RTVSPropertyOp53
 70
     1
102
RTVSPropertyOp54
 70
     1
102
RTVSPropertyOp55
 70
     1
102
RTVSPropertyOp56
 70
     1
102
RTVSPropertyOp57
 70
     1
102
RTVSPost2010Prop28
280
     0
102
RTVSPost2010PropOp28
 70
     1
102
RTVSPost2010Prop29
280
     1
102
RTVSPost2010PropOp29
 70
     1
102
RTVSPost2010Prop30
280
     1
102
RTVSPost2010PropOp30
 70
     1
102
RTVSPost2010Prop31
280
     0
102
RTVSPost2010PropOp31
 70
     1
102
RTVSPost2010Prop32
280
     0
102
RTVSPost2010PropOp32
 70
     1
102
RTVSPost2010Prop33
280
     0
102
RTVSPost2010PropOp33
 70
     1
102
RTVSPost2010Prop34
280
     0
102
RTVSPost2010PropOp34
 70
     1
102
RTVSPost2010Prop35
280
     0
102
RTVSPost2010PropOp35
 70
     1
102
RTVSPost2010Prop36
280
     0
102
RTVSPost2010PropOp36
 70
     1
102
RTVSPost2010Prop37
 90
       50
102
RTVSPost2010PropOp37
 70
     1
102
RTVSPost2010Prop38
140
0.0
102
RTVSPost2010PropOp38
 70
     1
102
RTVSPost2010Prop39
140
1.0
102
RTVSPost2010PropOp39
 70
     1
102
RTVSPost2010Prop40
 90
        0
102
RTVSPost2010PropOp40
 70
     1
102
RTVSPost2010Prop41ColorIndex
 90
       18
102
RTVSPost2010Prop41ColorRGB
 90
        0
102
RTVSPost2010PropOp41
 70
     1
102
RTVSPost2010Prop42
 90
       50
102
RTVSPost2010PropOp42
 70
     1
102
RTVSPost2010Prop43
 90
        3
102
RTVSPost2010PropOp43
 70
     1
102
RTVSPost2010Prop44ColorIndex
 90
        5
102
RTVSPost2010Prop44ColorRGB
 90
      255
102
RTVSPost2010PropOp44
 70
     1
102
RTVSPost2010Prop45
280
     0
102
RTVSPost2010PropOp45
 70
     1
102
RTVSPost2010Prop46
 90
       50
102
RTVSPost2010PropOp46
 70
     1
102
RTVSPost2010Prop47
 90
       50
102
RTVSPost2010PropOp47
 70
     1
102
RTVSPost2010Prop48
 90
       50
102
RTVSPost2010PropOp48
 70
     1
102
RTVSPost2010Prop49
280
     0
102
RTVSPost2010PropOp49
 70
     1
102
RTVSPost2010Prop50
 90
       50
102
RTVSPost2010PropOp50
 70
     1
102
RTVSPost2010Prop51ColorIndex
 90
      256
102
RTVSPost2010Prop51ColorRGB
 90
-16777216
102
RTVSPost2010PropOp51
 70
     0
102
RTVSPost2010Prop52
140
1.0
102
RTVSPost2010PropOp52
 70
     0
102
RTVSPost2010Prop53
 90
        2
102
RTVSPost2010PropOp53
 70
     1
102
RTVSPost2010Prop54
  1
strokes_ogs.tif
102
RTVSPost2010PropOp54
 70
     1
102
RTVSPost2010Prop55
280
     0
102
RTVSPost2010PropOp55
 70
     1
102
RTVSPost2010Prop56
140
1.0
102
RTVSPost2010PropOp56
 70
     1
102
RTVSPost2010Prop57
140
1.0
102
RTVSPost2010PropOp57
 70
     1
  0
XRECORD
  5
22F
102
{ACAD_REACTORS
330
22E
102
}
330
22E
100
AcDbXrecord
280
     1
102
RTVSPropertyOp0
 70
     1
102
RTVSPropertyOp1
 70
     1
102
RTVSPropertyOp2
 70
     1
102
RTVSPropertyOp3
 70
     1
102
RTVSPropertyOp4
 70
     1
102
RTVSPropertyOp5
 70
     1
102
RTVSPropertyOp6
 70
     1
102
RTVSPropertyOp7
 70
     1
102
RTVSPropertyOp8
 70
     1
102
RTVSPropertyOp9
 70
     1
102
RTVSPropertyOp10
 70
     1
102
RTVSPropertyOp11
 70
     1
102
RTVSPropertyOp12
 70
     1
102
RTVSPropertyOp13
 70
     1
102
RTVSPropertyOp14
 70
     1
102
RTVSPropertyOp15
 70
     1
102
RTVSPropertyOp16
 70
     1
102
RTVSPropertyOp17
 70
     1
102
RTVSPropertyOp18
 70
     1
102
RTVSPropertyOp19
 70
     1
102
RTVSPropertyOp20
 70
     1
102
RTVSPropertyOp21
 70
     1
102
RTVSPropertyOp22
 70
     1
102
RTVSPropertyOp23
 70
     1
102
RTVSPropertyOp24
 70
     1
102
RTVSPropertyOp25
 70
     1
102
RTVSPropertyOp26
 70
     1
102
RTVSPropertyOp27
 70
     1
102
RTVSPropertyOp28
 70
     1
102
RTVSPropertyOp29
 70
     1
102
RTVSPropertyOp30
 70
     1
102
RTVSPropertyOp31
 70
     1
102
RTVSPropertyOp32
 70
     1
102
RTVSPropertyOp33
 70
     1
102
RTVSPropertyOp34
 70
     1
102
RTVSPropertyOp35
 70
     1
102
RTVSPropertyOp36
 70
     1
102
RTVSPropertyOp37
 70
     1
102
RTVSPropertyOp38
 70
     1
102
RTVSPropertyOp39
 70
     1
102
RTVSPropertyOp40
 70
     1
102
RTVSPropertyOp41
 70
     1
102
RTVSPropertyOp42
 70
     1
102
RTVSPropertyOp43
 70
     1
102
RTVSPropertyOp44
 70
     1
102
RTVSPropertyOp45
 70
     1
102
RTVSPropertyOp46
 70
     1
102
RTVSPropertyOp47
 70
     1
102
RTVSPropertyOp48
 70
     1
102
RTVSPropertyOp49
 70
     1
102
RTVSPropertyOp50
 70
     1
102
RTVSPropertyOp51
 70
     0
102
RTVSPropertyOp52
 70
     0
102
RTVSPropertyOp53
 70
     1
102
RTVSPropertyOp54
 70
     1
102
RTVSPropertyOp55
 70
     1
102
RTVSPropertyOp56
 70
     1
102
RTVSPropertyOp57
 70
     1
102
RTVSPost2010Prop28
280
     0
102
RTVSPost2010PropOp28
 70
     1
102
RTVSPost2010Prop29
280
     1
102
RTVSPost2010PropOp29
 70
     1
102
RTVSPost2010Prop30
280
     1
102
RTVSPost2010PropOp30
 70
     1
102
RTVSPost2010Prop31
280
     0
102
RTVSPost2010PropOp31
 70
     1
102
RTVSPost2010Prop32
280
     0
102
RTVSPost2010PropOp32
 70
     1
102
RTVSPost2010Prop33
280
     0
102
RTVSPost2010PropOp33
 70
     1
102
RTVSPost2010Prop34
280
     0
102
RTVSPost2010PropOp34
 70
     1
102
RTVSPost2010Prop35
280
     0
102
RTVSPost2010PropOp35
 70
     1
102
RTVSPost2010Prop36
280
     0
102
RTVSPost2010PropOp36
 70
     1
102
RTVSPost2010Prop37
 90
       50
102
RTVSPost2010PropOp37
 70
     1
102
RTVSPost2010Prop38
140
0.0
102
RTVSPost2010PropOp38
 70
     1
102
RTVSPost2010Prop39
140
1.0
102
RTVSPost2010PropOp39
 70
     1
102
RTVSPost2010Prop40
 90
        0
102
RTVSPost2010PropOp40
 70
     1
102
RTVSPost2010Prop41ColorIndex
 90
       18
102
RTVSPost2010Prop41ColorRGB
 90
        0
102
RTVSPost2010PropOp41
 70
     1
102
RTVSPost2010Prop42
 90
       50
102
RTVSPost2010PropOp42
 70
     1
102
RTVSPost2010Prop43
 90
        3
102
RTVSPost2010PropOp43
 70
     1
102
RTVSPost2010Prop44ColorIndex
 90
        5
102
RTVSPost2010Prop44ColorRGB
 90
      255
102
RTVSPost2010PropOp44
 70
     1
102
RTVSPost2010Prop45
280
     0
102
RTVSPost2010PropOp45
 70
     1
102
RTVSPost2010Prop46
 90
       50
102
RTVSPost2010PropOp46
 70
     1
102
RTVSPost2010Prop47
 90
       50
102
RTVSPost2010PropOp47
 70
     1
102
RTVSPost2010Prop48
 90
       50
102
RTVSPost2010PropOp48
 70
     1
102
RTVSPost2010Prop49
280
     0
102
RTVSPost2010PropOp49
 70
     1
102
RTVSPost2010Prop50
 90
       50
102
RTVSPost2010PropOp50
 70
     1
102
RTVSPost2010Prop51ColorIndex
 90
      256
102
RTVSPost2010Prop51ColorRGB
 90
-16777216
102
RTVSPost2010PropOp51
 70
     0
102
RTVSPost2010Prop52
140
1.0
102
RTVSPost2010PropOp52
 70
     0
102
RTVSPost2010Prop53
 90
        2
102
RTVSPost2010PropOp53
 70
     1
102
RTVSPost2010Prop54
  1
strokes_ogs.tif
102
RTVSPost2010PropOp54
 70
     1
102
RTVSPost2010Prop55
280
     0
102
RTVSPost2010PropOp55
 70
     1
102
RTVSPost2010Prop56
140
1.0
102
RTVSPost2010PropOp56
 70
     1
102
RTVSPost2010Prop57
140
1.0
102
RTVSPost2010PropOp57
 70
     1
  0
XRECORD
  5
24F
102
{ACAD_REACTORS
330
24E
102
}
330
24E
100
AcDbXrecord
280
     1
102
RTVSPropertyOp0
 70
     1
102
RTVSPropertyOp1
 70
     1
102
RTVSPropertyOp2
 70
     1
102
RTVSPropertyOp3
 70
     1
102
RTVSPropertyOp4
 70
     1
102
RTVSPropertyOp5
 70
     1
102
RTVSPropertyOp6
 70
     1
102
RTVSPropertyOp7
 70
     1
102
RTVSPropertyOp8
 70
     1
102
RTVSPropertyOp9
 70
     1
102
RTVSPropertyOp10
 70
     1
102
RTVSPropertyOp11
 70
     1
102
RTVSPropertyOp12
 70
     1
102
RTVSPropertyOp13
 70
     1
102
RTVSPropertyOp14
 70
     1
102
RTVSPropertyOp15
 70
     1
102
RTVSPropertyOp16
 70
     1
102
RTVSPropertyOp17
 70
     1
102
RTVSPropertyOp18
 70
     1
102
RTVSPropertyOp19
 70
     1
102
RTVSPropertyOp20
 70
     1
102
RTVSPropertyOp21
 70
     1
102
RTVSPropertyOp22
 70
     1
102
RTVSPropertyOp23
 70
     1
102
RTVSPropertyOp24
 70
     1
102
RTVSPropertyOp25
 70
     1
102
RTVSPropertyOp26
 70
     1
102
RTVSPropertyOp27
 70
     1
102
RTVSPropertyOp28
 70
     1
102
RTVSPropertyOp29
 70
     1
102
RTVSPropertyOp30
 70
     1
102
RTVSPropertyOp31
 70
     1
102
RTVSPropertyOp32
 70
     1
102
RTVSPropertyOp33
 70
     1
102
RTVSPropertyOp34
 70
     1
102
RTVSPropertyOp35
 70
     1
102
RTVSPropertyOp36
 70
     1
102
RTVSPropertyOp37
 70
     1
102
RTVSPropertyOp38
 70
     1
102
RTVSPropertyOp39
 70
     1
102
RTVSPropertyOp40
 70
     1
102
RTVSPropertyOp41
 70
     1
102
RTVSPropertyOp42
 70
     1
102
RTVSPropertyOp43
 70
     1
102
RTVSPropertyOp44
 70
     1
102
RTVSPropertyOp45
 70
     1
102
RTVSPropertyOp46
 70
     1
102
RTVSPropertyOp47
 70
     1
102
RTVSPropertyOp48
 70
     1
102
RTVSPropertyOp49
 70
     1
102
RTVSPropertyOp50
 70
     1
102
RTVSPropertyOp51
 70
     0
102
RTVSPropertyOp52
 70
     0
102
RTVSPropertyOp53
 70
     1
102
RTVSPropertyOp54
 70
     1
102
RTVSPropertyOp55
 70
     1
102
RTVSPropertyOp56
 70
     1
102
RTVSPropertyOp57
 70
     1
102
RTVSPost2010Prop28
280
     0
102
RTVSPost2010PropOp28
 70
     1
102
RTVSPost2010Prop29
280
     1
102
RTVSPost2010PropOp29
 70
     1
102
RTVSPost2010Prop30
280
     1
102
RTVSPost2010PropOp30
 70
     1
102
RTVSPost2010Prop31
280
     0
102
RTVSPost2010PropOp31
 70
     1
102
RTVSPost2010Prop32
280
     0
102
RTVSPost2010PropOp32
 70
     1
102
RTVSPost2010Prop33
280
     0
102
RTVSPost2010PropOp33
 70
     1
102
RTVSPost2010Prop34
280
     0
102
RTVSPost2010PropOp34
 70
     1
102
RTVSPost2010Prop35
280
     0
102
RTVSPost2010PropOp35
 70
     1
102
RTVSPost2010Prop36
280
     0
102
RTVSPost2010PropOp36
 70
     1
102
RTVSPost2010Prop37
 90
       50
102
RTVSPost2010PropOp37
 70
     1
102
RTVSPost2010Prop38
140
0.0
102
RTVSPost2010PropOp38
 70
     1
102
RTVSPost2010Prop39
140
1.0
102
RTVSPost2010PropOp39
 70
     1
102
RTVSPost2010Prop40
 90
        0
102
RTVSPost2010PropOp40
 70
     1
102
RTVSPost2010Prop41ColorIndex
 90
       18
102
RTVSPost2010Prop41ColorRGB
 90
        0
102
RTVSPost2010PropOp41
 70
     1
102
RTVSPost2010Prop42
 90
       50
102
RTVSPost2010PropOp42
 70
     1
102
RTVSPost2010Prop43
 90
        3
102
RTVSPost2010PropOp43
 70
     1
102
RTVSPost2010Prop44ColorIndex
 90
        5
102
RTVSPost2010Prop44ColorRGB
 90
      255
102
RTVSPost2010PropOp44
 70
     1
102
RTVSPost2010Prop45
280
     0
102
RTVSPost2010PropOp45
 70
     1
102
RTVSPost2010Prop46
 90
       50
102
RTVSPost2010PropOp46
 70
     1
102
RTVSPost2010Prop47
 90
       50
102
RTVSPost2010PropOp47
 70
     1
102
RTVSPost2010Prop48
 90
       50
102
RTVSPost2010PropOp48
 70
     1
102
RTVSPost2010Prop49
280
     0
102
RTVSPost2010PropOp49
 70
     1
102
RTVSPost2010Prop50
 90
       50
102
RTVSPost2010PropOp50
 70
     1
102
RTVSPost2010Prop51ColorIndex
 90
      256
102
RTVSPost2010Prop51ColorRGB
 90
-16777216
102
RTVSPost2010PropOp51
 70
     0
102
RTVSPost2010Prop52
140
1.0
102
RTVSPost2010PropOp52
 70
     0
102
RTVSPost2010Prop53
 90
        2
102
RTVSPost2010PropOp53
 70
     1
102
RTVSPost2010Prop54
  1
strokes_ogs.tif
102
RTVSPost2010PropOp54
 70
     1
102
RTVSPost2010Prop55
280
     0
102
RTVSPost2010PropOp55
 70
     1
102
RTVSPost2010Prop56
140
1.0
102
RTVSPost2010PropOp56
 70
     1
102
RTVSPost2010Prop57
140
1.0
102
RTVSPost2010PropOp57
 70
     1
  0
ENDSEC
  0
EOF
