  0
SECTION
  2
HEADER
  9
$ACADVER
  1
AC1021
  9
$ACADMAINTVER
 70
    25
  9
$DWGCODEPAGE
  3
ANSI_1252
  9
$INSBASE
 10
0.0
 20
0.0
 30
0.0
  9
$EXTMIN
 10
0.0
 20
0.0
 30
0.0
  9
$EXTMAX
 10
420.0
 20
297.0
 30
0.0
  9
$LIMMIN
 10
0.0
 20
0.0
  9
$LIMMAX
 10
420.0
 20
297.0
  9
$ORTHOMODE
 70
     0
  9
$REGENMODE
 70
     1
  9
$FILLMODE
 70
     1
  9
$QTEXTMODE
 70
     0
  9
$MIRRTEXT
 70
     1
  9
$LTSCALE
 40
1.0
  9
$ATTMODE
 70
     1
  9
$TEXTSIZE
 40
2.5
  9
$TRACEWID
 40
1.0
  9
$TEXTSTYLE
  7
Standard
  9
$CLAYER
  8
0
  9
$CELTYPE
  6
ByLayer
  9
$CECOLOR
 62
   256
  9
$CELTSCALE
 40
1.0
  9
$DISPSILH
 70
     0
  9
$DIMSCALE
 40
1.0
  9
$DIMASZ
 40
2.5
  9
$DIMEXO
 40
0.625
  9
$DIMDLI
 40
3.75
  9
$DIMRND
 40
0.0
  9
$DIMDLE
 40
0.0
  9
$DIMEXE
 40
1.25
  9
$DIMTP
 40
0.0
  9
$DIMTM
 40
0.0
  9
$DIMTXT
 40
2.5
  9
$DIMCEN
 40
2.5
  9
$DIMTSZ
 40
0.0
  9
$DIMTOL
 70
     0
  9
$DIMLIM
 70
     0
  9
$DIMTIH
 70
     0
  9
$DIMTOH
 70
     0
  9
$DIMSE1
 70
     0
  9
$DIMSE2
 70
     0
  9
$DIMTAD
 70
     1
  9
$DIMZIN
 70
     8
  9
$DIMBLK
  1

  9
$DIMASO
 70
     1
  9
$DIMSHO
 70
     1
  9
$DIMPOST
  1

  9
$DIMAPOST
  1

  9
$DIMALT
 70
     0
  9
$DIMALTD
 70
     3
  9
$DIMALTF
 40
0.0393700787
  9
$DIMLFAC
 40
1.0
  9
$DIMTOFL
 70
     1
  9
$DIMTVP
 40
0.0
  9
$DIMTIX
 70
     0
  9
$DIMSOXD
 70
     0
  9
$DIMSAH
 70
     0
  9
$DIMBLK1
  1

  9
$DIMBLK2
  1

  9
$DIMSTYLE
  2
ISO-25
  9
$DIMCLRD
 70
     0
  9
$DIMCLRE
 70
     0
  9
$DIMCLRT
 70
     0
  9
$DIMTFAC
 40
1.0
  9
$DIMGAP
 40
0.625
  9
$DIMJUST
 70
     0
  9
$DIMSD1
 70
     0
  9
$DIMSD2
 70
     0
  9
$DIMTOLJ
 70
     0
  9
$DIMTZIN
 70
     8
  9
$DIMALTZ
 70
     0
  9
$DIMALTTZ
 70
     0
  9
$DIMUPT
 70
     0
  9
$DIMDEC
 70
     2
  9
$DIMTDEC
 70
     2
  9
$DIMALTU
 70
     2
  9
$DIMALTTD
 70
     3
  9
$DIMTXSTY
  7
Standard
  9
$DIMAUNIT
 70
     0
  9
$DIMADEC
 70
     0
  9
$DIMALTRND
 40
0.0
  9
$DIMAZIN
 70
     0
  9
$DIMDSEP
 70
    44
  9
$DIMATFIT
 70
     3
  9
$DIMFRAC
 70
     0
  9
$DIMLDRBLK
  1

  9
$DIMLUNIT
 70
     2
  9
$DIMLWD
 70
    -2
  9
$DIMLWE
 70
    -2
  9
$DIMTMOVE
 70
     0
  9
$DIMFXL
 40
1.0
  9
$DIMFXLON
 70
     0
  9
$DIMJOGANG
 40
0.7853981634
  9
$DIMTFILL
 70
     0
  9
$DIMTFILLCLR
 70
     0
  9
$DIMARCSYM
 70
     0
  9
$DIMLTYPE
  6

  9
$DIMLTEX1
  6

  9
$DIMLTEX2
  6

  9
$LUNITS
 70
     2
  9
$LUPREC
 70
     4
  9
$SKETCHINC
 40
1.0
  9
$FILLETRAD
 40
10.0
  9
$AUNITS
 70
     0
  9
$AUPREC
 70
     0
  9
$MENU
  1
.
  9
$ELEVATION
 40
0.0
  9
$PELEVATION
 40
0.0
  9
$THICKNESS
 40
0.0
  9
$LIMCHECK
 70
     0
  9
$CHAMFERA
 40
0.0
  9
$CHAMFERB
 40
0.0
  9
$CHAMFERC
 40
0.0
  9
$CHAMFERD
 40
0.0
  9
$SKPOLY
 70
     0
  9
$TDCREATE
 40
2460258.605076239
  9
$TDUCREATE
 40
2460258.563409572
  9
$TDUPDATE
 40
2460258.605076493
  9
$TDUUPDATE
 40
2460258.563409826
  9
$TDINDWG
 40
0.0000000116
  9
$TDUSRTIMER
 40
0.0000000116
  9
$USRTIMER
 70
     1
  9
$ANGBASE
 50
0.0
  9
$ANGDIR
 70
     0
  9
$PDMODE
 70
     0
  9
$PDSIZE
 40
0.0
  9
$PLINEWID
 40
0.0
  9
$SPLFRAME
 70
     0
  9
$SPLINETYPE
 70
     6
  9
$SPLINESEGS
 70
     8
  9
$HANDSEED
  5
221
  9
$SURFTAB1
 70
     6
  9
$SURFTAB2
 70
     6
  9
$SURFTYPE
 70
     6
  9
$SURFU
 70
     6
  9
$SURFV
 70
     6
  9
$UCSBASE
  2

  9
$UCSNAME
  2

  9
$UCSORG
 10
0.0
 20
0.0
 30
0.0
  9
$UCSXDIR
 10
1.0
 20
0.0
 30
0.0
  9
$UCSYDIR
 10
0.0
 20
1.0
 30
0.0
  9
$UCSORTHOREF
  2

  9
$UCSORTHOVIEW
 70
     0
  9
$UCSORGTOP
 10
0.0
 20
0.0
 30
0.0
  9
$UCSORGBOTTOM
 10
0.0
 20
0.0
 30
0.0
  9
$UCSORGLEFT
 10
0.0
 20
0.0
 30
0.0
  9
$UCSORGRIGHT
 10
0.0
 20
0.0
 30
0.0
  9
$UCSORGFRONT
 10
0.0
 20
0.0
 30
0.0
  9
$UCSORGBACK
 10
0.0
 20
0.0
 30
0.0
  9
$PUCSBASE
  2

  9
$PUCSNAME
  2

  9
$PUCSORG
 10
0.0
 20
0.0
 30
0.0
  9
$PUCSXDIR
 10
1.0
 20
0.0
 30
0.0
  9
$PUCSYDIR
 10
0.0
 20
1.0
 30
0.0
  9
$PUCSORTHOREF
  2

  9
$PUCSORTHOVIEW
 70
     0
  9
$PUCSORGTOP
 10
0.0
 20
0.0
 30
0.0
  9
$PUCSORGBOTTOM
 10
0.0
 20
0.0
 30
0.0
  9
$PUCSORGLEFT
 10
0.0
 20
0.0
 30
0.0
  9
$PUCSORGRIGHT
 10
0.0
 20
0.0
 30
0.0
  9
$PUCSORGFRONT
 10
0.0
 20
0.0
 30
0.0
  9
$PUCSORGBACK
 10
0.0
 20
0.0
 30
0.0
  9
$USERI1
 70
     0
  9
$USERI2
 70
     0
  9
$USERI3
 70
     0
  9
$USERI4
 70
     0
  9
$USERI5
 70
     0
  9
$USERR1
 40
0.0
  9
$USERR2
 40
0.0
  9
$USERR3
 40
0.0
  9
$USERR4
 40
0.0
  9
$USERR5
 40
0.0
  9
$WORLDVIEW
 70
     1
  9
$SHADEDGE
 70
     3
  9
$SHADEDIF
 70
    70
  9
$TILEMODE
 70
     1
  9
$MAXACTVP
 70
    64
  9
$PINSBASE
 10
0.0
 20
0.0
 30
0.0
  9
$PLIMCHECK
 70
     0
  9
$PEXTMIN
 10
0.0
 20
0.0
 30
0.0
  9
$PEXTMAX
 10
420.0
 20
297.0
 30
0.0
  9
$PLIMMIN
 10
0.0
 20
0.0
  9
$PLIMMAX
 10
420.0
 20
297.0
  9
$UNITMODE
 70
     0
  9
$VISRETAIN
 70
     1
  9
$PLINEGEN
 70
     0
  9
$PSLTSCALE
 70
     1
  9
$TREEDEPTH
 70
  3020
  9
$CMLSTYLE
  2
Standard
  9
$CMLJUST
 70
     0
  9
$CMLSCALE
 40
20.0
  9
$PROXYGRAPHICS
 70
     1
  9
$MEASUREMENT
 70
     1
  9
$CELWEIGHT
370
    -1
  9
$ENDCAPS
280
     0
  9
$JOINSTYLE
280
     0
  9
$LWDISPLAY
290
     0
  9
$INSUNITS
 70
     4
  9
$HYPERLINKBASE
  1

  9
$STYLESHEET
  1

  9
$XEDIT
290
     1
  9
$CEPSNTYPE
380
     0
  9
$PSTYLEMODE
290
     1
  9
$FINGERPRINTGUID
  2
{0d925601-aa58-498d-87c2-236a49335f43}
  9
$VERSIONGUID
  2
{FAEB1C32-E019-11D5-929B-00C0DF256EC4}
  9
$EXTNAMES
290
     1
  9
$PSVPSCALE
 40
0.0
  9
$OLESTARTUP
290
     0
  9
$SORTENTS
280
   127
  9
$INDEXCTL
280
     0
  9
$HIDETEXT
280
     1
  9
$XCLIPFRAME
290
     0
  9
$HALOGAP
280
     0
  9
$OBSCOLOR
 70
   257
  9
$OBSLTYPE
280
     0
  9
$INTERSECTIONDISPLAY
280
     0
  9
$INTERSECTIONCOLOR
 70
   257
  9
$DIMASSOC
280
     2
  9
$PROJECTNAME
  1

  9
$CAMERADISPLAY
290
     0
  9
$LENSLENGTH
 40
50.0
  9
$CAMERAHEIGHT
 40
0.0
  9
$STEPSPERSEC
 40
2.0
  9
$STEPSIZE
 40
6.0
  9
$3DDWFPREC
 40
2.0
  9
$PSOLWIDTH
 40
5.0
  9
$PSOLHEIGHT
 40
80.0
  9
$LOFTANG1
 40
1.5707963268
  9
$LOFTANG2
 40
1.5707963268
  9
$LOFTMAG1
 40
0.0
  9
$LOFTMAG2
 40
0.0
  9
$LOFTPARAM
 70
     7
  9
$LOFTNORMALS
280
     1
  9
$LATITUDE
 40
37.795
  9
$LONGITUDE
 40
-122.394
  9
$NORTHDIRECTION
 40
0.0
  9
$TIMEZONE
 70
 -8000
  9
$LIGHTGLYPHDISPLAY
280
     1
  9
$TILEMODELIGHTSYNCH
280
     1
  9
$CMATERIAL
347
44
  9
$SOLIDHIST
280
     0
  9
$SHOWHIST
280
     1
  9
$DWFFRAME
280
     2
  9
$DGNFRAME
280
     2
  9
$REALWORLDSCALE
290
     1
  9
$INTERFERECOLOR
 62
   256
  9
$CSHADOW
280
     0
  9
$SHADOWPLANELOCATION
 40
0.0
  0
ENDSEC
  0
SECTION
  2
CLASSES
  0
CLASS
  1
ACDBDICTIONARYWDFLT
  2
AcDbDictionaryWithDefault
  3
ObjectDBX Classes
 90
        0
 91
        3
280
     0
281
     0
  0
CLASS
  1
VISUALSTYLE
  2
AcDbVisualStyle
  3
ObjectDBX Classes
 90
     4095
 91
        3
280
     0
281
     0
  0
CLASS
  1
MATERIAL
  2
AcDbMaterial
  3
ObjectDBX Classes
 90
     1153
 91
        3
280
     0
281
     0
  0
CLASS
  1
SCALE
  2
AcDbScale
  3
ObjectDBX Classes
 90
     1153
 91
        3
280
     0
281
     0
  0
CLASS
  1
TABLESTYLE
  2
AcDbTableStyle
  3
ObjectDBX Classes
 90
     4095
 91
        3
280
     0
281
     0
  0
CLASS
  1
MLEADERSTYLE
  2
AcDbMLeaderStyle
  3
ACDB_MLEADERSTYLE_CLASS
 90
     4095
 91
        3
280
     0
281
     0
  0
CLASS
  1
SUN
  2
AcDbSun
  3
SCENEOE
 90
     1153
 91
        3
280
     0
281
     0
  0
CLASS
  1
DICTIONARYVAR
  2
AcDbDictionaryVar
  3
ObjectDBX Classes
 90
        0
 91
        3
280
     0
281
     0
  0
CLASS
  1
CELLSTYLEMAP
  2
AcDbCellStyleMap
  3
ObjectDBX Classes
 90
     1152
 91
        3
280
     0
281
     0
  0
ENDSEC
  0
SECTION
  2
TABLES
  0
TABLE
  2
VPORT
  5
8
330
0
100
AcDbSymbolTable
 70
     1
  0
VPORT
  5
29
330
8
100
AcDbSymbolTableRecord
100
AcDbViewportTableRecord
  2
*Active
 70
     0
 10
0.0
 20
0.0
 11
1.0
 21
1.0
 12
344.1869158879
 22
148.5
 13
0.0
 23
0.0
 14
10.0
 24
10.0
 15
10.0
 25
10.0
 16
0.0
 26
0.0
 36
1.0
 17
0.0
 27
0.0
 37
0.0
 40
297.0
 41
1.9729729729
 42
50.0
 43
0.0
 44
0.0
 50
0.0
 51
0.0
 71
     0
 72
   100
 73
     1
 74
     3
 75
     0
 76
     0
 77
     0
 78
     0
281
     0
 65
     1
110
0.0
120
0.0
130
0.0
111
1.0
121
0.0
131
0.0
112
0.0
122
1.0
132
0.0
 79
     0
146
0.0
348
2F
 60
     3
 61
     5
292
     1
282
     1
141
0.0
142
0.0
 63
   250
361
6D
  0
ENDTAB
  0
TABLE
  2
LTYPE
  5
5
330
0
100
AcDbSymbolTable
 70
     1
  0
LTYPE
  5
14
330
5
100
AcDbSymbolTableRecord
100
AcDbLinetypeTableRecord
  2
ByBlock
 70
     0
  3

 72
    65
 73
     0
 40
0.0
  0
LTYPE
  5
15
330
5
100
AcDbSymbolTableRecord
100
AcDbLinetypeTableRecord
  2
ByLayer
 70
     0
  3

 72
    65
 73
     0
 40
0.0
  0
LTYPE
  5
16
330
5
100
AcDbSymbolTableRecord
100
AcDbLinetypeTableRecord
  2
Continuous
 70
     0
  3
Solid line
 72
    65
 73
     0
 40
0.0
  0
ENDTAB
  0
TABLE
  2
LAYER
  5
2
330
0
100
AcDbSymbolTable
 70
     3
  0
LAYER
  5
10
330
2
100
AcDbSymbolTableRecord
100
AcDbLayerTableRecord
  2
0
 70
     0
 62
     7
  6
Continuous
370
    -3
390
F
347
46
  0
LAYER
  5
6E
330
2
100
AcDbSymbolTableRecord
100
AcDbLayerTableRecord
  2
Default
 70
     0
 62
     7
  6
Continuous
370
    -3
390
F
347
46
  0
LAYER
  5
71
330
2
100
AcDbSymbolTableRecord
100
AcDbLayerTableRecord
  2
TA-SMART_DN15_EX
 70
     0
 62
     7
  6
Continuous
370
    -3
390
F
347
46
  0
ENDTAB
  0
TABLE
  2
STYLE
  5
3
330
0
100
AcDbSymbolTable
 70
     1
  0
STYLE
  5
11
330
3
100
AcDbSymbolTableRecord
100
AcDbTextStyleTableRecord
  2
Standard
 70
     0
 40
0.0
 41
1.0
 50
0.0
 71
     0
 42
2.5
  3
txt
  4

  0
ENDTAB
  0
TABLE
  2
VIEW
  5
6
330
0
100
AcDbSymbolTable
 70
     0
  0
ENDTAB
  0
TABLE
  2
UCS
  5
7
330
0
100
AcDbSymbolTable
 70
     0
  0
ENDTAB
  0
TABLE
  2
APPID
  5
9
330
0
100
AcDbSymbolTable
 70
     2
  0
APPID
  5
12
330
9
100
AcDbSymbolTableRecord
100
AcDbRegAppTableRecord
  2
ACAD
 70
     0
  0
APPID
  5
217
330
9
100
AcDbSymbolTableRecord
100
AcDbRegAppTableRecord
  2
ACAD_MLEADERVER
 70
     0
  0
ENDTAB
  0
TABLE
  2
DIMSTYLE
  5
A
330
0
100
AcDbSymbolTable
 70
     1
100
AcDbDimStyleTable
  0
DIMSTYLE
105
27
330
A
100
AcDbSymbolTableRecord
100
AcDbDimStyleTableRecord
  2
ISO-25
 70
     0
 41
2.5
 42
0.625
 43
3.75
 44
1.25
 73
     0
 74
     0
 77
     1
 78
     8
140
2.5
141
2.5
143
0.0393700787
147
0.625
171
     3
172
     1
178
     0
271
     2
272
     2
274
     3
278
    44
283
     0
284
     8
340
11
  0
ENDTAB
  0
TABLE
  2
BLOCK_RECORD
  5
1
330
0
100
AcDbSymbolTable
 70
     5
  0
BLOCK_RECORD
  5
1F
330
1
100
AcDbSymbolTableRecord
100
AcDbBlockTableRecord
  2
*Model_Space
340
22
 70
     0
280
     1
281
     0
  0
BLOCK_RECORD
  5
1B
330
1
100
AcDbSymbolTableRecord
100
AcDbBlockTableRecord
  2
*Paper_Space
340
1E
 70
     0
280
     1
281
     0
  0
BLOCK_RECORD
  5
6F
330
1
100
AcDbSymbolTableRecord
100
AcDbBlockTableRecord
  2
SE
340
0
102
{BLKREFS
331
70
102
}
 70
     0
280
     1
281
     0
  0
BLOCK_RECORD
  5
D5
330
1
100
AcDbSymbolTableRecord
100
AcDbBlockTableRecord
  2
SE1
340
0
102
{BLKREFS
331
D6
102
}
 70
     0
280
     1
281
     0
  0
BLOCK_RECORD
  5
116
330
1
100
AcDbSymbolTableRecord
100
AcDbBlockTableRecord
  2
SE2
340
0
102
{BLKREFS
331
117
102
}
 70
     0
280
     1
281
     0
  0
BLOCK_RECORD
  5
15C
330
1
100
AcDbSymbolTableRecord
100
AcDbBlockTableRecord
  2
SE3
340
0
102
{BLKREFS
331
15D
102
}
 70
     0
280
     1
281
     0
  0
BLOCK_RECORD
  5
19D
330
1
100
AcDbSymbolTableRecord
100
AcDbBlockTableRecord
  2
SE4
340
0
102
{BLKREFS
331
19E
102
}
 70
     0
280
     1
281
     0
  0
ENDTAB
  0
ENDSEC
  0
SECTION
  2
BLOCKS
  0
BLOCK
  5
20
330
1F
100
AcDbEntity
  8
0
100
AcDbBlockBegin
  2
*Model_Space
 70
     0
 10
0.0
 20
0.0
 30
0.0
  3
*Model_Space
  1

  0
ENDBLK
  5
21
330
1F
100
AcDbEntity
  8
0
100
AcDbBlockEnd
  0
BLOCK
  5
1C
330
1B
100
AcDbEntity
 67
     1
  8
0
100
AcDbBlockBegin
  2
*Paper_Space
 70
     0
 10
0.0
 20
0.0
 30
0.0
  3
*Paper_Space
  1

  0
ENDBLK
  5
1D
330
1B
100
AcDbEntity
 67
     1
  8
0
100
AcDbBlockEnd
  0
BLOCK
  5
D3
330
6F
100
AcDbEntity
  8
0
100
AcDbBlockBegin
  2
SE
 70
     0
 10
0.0
 20
0.0
 30
0.0
  3
SE
  1

  0
LINE
  5
72
330
6F
100
AcDbEntity
  8
TA-SMART_DN15_EX
  6
Continuous
 62
     7
100
AcDbLine
 10
80.2198481364
 20
193.010618093
 30
0.0
 11
80.2198481364
 21
219.510618093
 31
0.0
  0
LINE
  5
73
330
6F
100
AcDbEntity
  8
TA-SMART_DN15_EX
  6
Continuous
 62
     7
100
AcDbLine
 10
94.2198481364
 20
187.260618093
 30
0.0
 11
94.2198481364
 21
225.260618093
 31
0.0
  0
LINE
  5
74
330
6F
100
AcDbEntity
  8
TA-SMART_DN15_EX
  6
Continuous
 62
     7
100
AcDbLine
 10
80.9477886049
 20
192.3431197766
 30
0.0
 11
80.9477886049
 21
193.9028568476
 31
0.0
  0
LINE
  5
75
330
6F
100
AcDbEntity
  8
TA-SMART_DN15_EX
  6
Continuous
 62
     7
100
AcDbLine
 10
80.9477886049
 20
204.7008663185
 30
0.0
 11
80.9477886049
 21
207.8203657707
 31
0.0
  0
LINE
  5
76
330
6F
100
AcDbEntity
  8
TA-SMART_DN15_EX
  6
Continuous
 62
     7
100
AcDbLine
 10
80.9477886049
 20
218.6183769252
 30
0.0
 11
80.9477886049
 21
220.1781147258
 31
0.0
  0
LINE
  5
77
330
6F
100
AcDbEntity
  8
TA-SMART_DN15_EX
  6
Continuous
 62
     7
100
AcDbLine
 10
80.4627983794
 20
220.1781180931
 30
0.0
 11
80.9477886049
 21
220.1781214602
 31
0.0
  0
LINE
  5
78
330
6F
100
AcDbEntity
  8
TA-SMART_DN15_EX
  6
Continuous
 62
     7
100
AcDbLine
 10
80.9477886049
 20
220.1781214602
 30
0.0
 11
94.2198481364
 21
220.1781214602
 31
0.0
  0
LINE
  5
79
330
6F
100
AcDbEntity
  8
TA-SMART_DN15_EX
  6
Continuous
 62
     7
100
AcDbLine
 10
94.2198481364
 20
220.1781147258
 30
0.0
 11
80.9477886049
 21
220.1781147258
 31
0.0
  0
ARC
  5
7A
330
6F
100
AcDbEntity
  8
TA-SMART_DN15_EX
  6
Continuous
 62
     7
100
AcDbCircle
 10
110.9317374589
 20
213.219371348
 30
0.0
 40
30.46615253201837
100
AcDbArc
 50
169.7925192391
 51
190.2074807609
  0
LINE
  5
7B
330
6F
100
AcDbEntity
  8
TA-SMART_DN15_EX
  6
Continuous
 62
     7
100
AcDbLine
 10
80.9477886049
 20
218.6183769252
 30
0.0
 11
94.2198481364
 21
218.6183769252
 31
0.0
  0
LINE
  5
7C
330
6F
100
AcDbEntity
  8
TA-SMART_DN15_EX
  6
Continuous
 62
     7
100
AcDbLine
 10
94.2198481364
 20
207.8203657707
 30
0.0
 11
80.9477886049
 21
207.8203657707
 31
0.0
  0
ARC
  5
7D
330
6F
100
AcDbEntity
  8
TA-SMART_DN15_EX
  6
Continuous
 62
     7
100
AcDbCircle
 10
110.9317280415
 20
199.3018615831
 30
0.0
 40
30.46614311442184
100
AcDbArc
 50
169.7925176586
 51
190.2074823414
  0
LINE
  5
7E
330
6F
100
AcDbEntity
  8
TA-SMART_DN15_EX
  6
Continuous
 62
     7
100
AcDbLine
 10
80.9477886049
 20
204.7008663185
 30
0.0
 11
94.2198481364
 21
204.7008663185
 31
0.0
  0
LINE
  5
7F
330
6F
100
AcDbEntity
  8
TA-SMART_DN15_EX
  6
Continuous
 62
     7
100
AcDbLine
 10
94.2198481364
 20
193.9028568476
 30
0.0
 11
80.9477886049
 21
193.9028568476
 31
0.0
  0
LINE
  5
80
330
6F
100
AcDbEntity
  8
TA-SMART_DN15_EX
  6
Continuous
 62
     7
100
AcDbLine
 10
80.4627983794
 20
192.3431180931
 30
0.0
 11
80.9477886049
 21
192.3431197766
 31
0.0
  0
LINE
  5
81
330
6F
100
AcDbEntity
  8
TA-SMART_DN15_EX
  6
Continuous
 62
     7
100
AcDbLine
 10
80.9477886049
 20
192.3431197766
 30
0.0
 11
94.2198481364
 21
192.3431197766
 31
0.0
  0
LINE
  5
82
330
6F
100
AcDbEntity
  8
TA-SMART_DN15_EX
  6
Continuous
 62
     7
100
AcDbLine
 10
94.2198481364
 20
192.3431164094
 30
0.0
 11
80.9477886049
 21
192.3431164094
 31
0.0
  0
LINE
  5
83
330
6F
100
AcDbEntity
  8
TA-SMART_DN15_EX
  6
Continuous
 62
     7
100
AcDbLine
 10
114.2198481364
 20
187.260618093
 30
0.0
 11
114.2198481364
 21
225.260618093
 31
0.0
  0
LINE
  5
84
330
6F
100
AcDbEntity
  8
TA-SMART_DN15_EX
  6
Continuous
 62
     7
100
AcDbLine
 10
128.2198481364
 20
193.010618093
 30
0.0
 11
128.2198481364
 21
219.510618093
 31
0.0
  0
LINE
  5
85
330
6F
100
AcDbEntity
  8
TA-SMART_DN15_EX
  6
Continuous
 62
     7
100
AcDbLine
 10
127.4919076678
 20
192.3431197766
 30
0.0
 11
127.4919076678
 21
193.9028568476
 31
0.0
  0
LINE
  5
86
330
6F
100
AcDbEntity
  8
TA-SMART_DN15_EX
  6
Continuous
 62
     7
100
AcDbLine
 10
127.4919076678
 20
204.7008663185
 30
0.0
 11
127.4919076678
 21
207.8203657707
 31
0.0
  0
LINE
  5
87
330
6F
100
AcDbEntity
  8
TA-SMART_DN15_EX
  6
Continuous
 62
     7
100
AcDbLine
 10
127.4919076678
 20
218.6183769252
 30
0.0
 11
127.4919076678
 21
220.1781147258
 31
0.0
  0
LINE
  5
88
330
6F
100
AcDbEntity
  8
TA-SMART_DN15_EX
  6
Continuous
 62
     7
100
AcDbLine
 10
127.9768978933
 20
220.1781180928
 30
0.0
 11
127.4919076678
 21
220.1781147258
 31
0.0
  0
ARC
  5
89
330
6F
100
AcDbEntity
  8
TA-SMART_DN15_EX
  6
Continuous
 62
     7
100
AcDbCircle
 10
97.5079588138
 20
213.219371348
 30
0.0
 40
30.46615253201828
100
AcDbArc
 50
349.7925192391
 51
10.2074807609
  0
ARC
  5
8A
330
6F
100
AcDbEntity
  8
TA-SMART_DN15_EX
  6
Continuous
 62
     7
100
AcDbCircle
 10
97.5079682313
 20
199.3018615831
 30
0.0
 40
30.46614311442167
100
AcDbArc
 50
349.7925176586
 51
10.2074823414
  0
LINE
  5
8B
330
6F
100
AcDbEntity
  8
TA-SMART_DN15_EX
  6
Continuous
 62
     7
100
AcDbLine
 10
127.9768978933
 20
192.3431180929
 30
0.0
 11
127.4919076678
 21
192.3431164094
 31
0.0
  0
LINE
  5
8C
330
6F
100
AcDbEntity
  8
TA-SMART_DN15_EX
  6
Continuous
 62
     7
100
AcDbLine
 10
114.2198481364
 20
192.3431197766
 30
0.0
 11
127.4919076678
 21
192.3431197766
 31
0.0
  0
LINE
  5
8D
330
6F
100
AcDbEntity
  8
TA-SMART_DN15_EX
  6
Continuous
 62
     7
100
AcDbLine
 10
127.4919076678
 20
192.3431164094
 30
0.0
 11
114.2198481364
 21
192.3431164094
 31
0.0
  0
LINE
  5
8E
330
6F
100
AcDbEntity
  8
TA-SMART_DN15_EX
  6
Continuous
 62
     7
100
AcDbLine
 10
114.2198481364
 20
204.7008663185
 30
0.0
 11
127.4919076678
 21
204.7008663185
 31
0.0
  0
LINE
  5
8F
330
6F
100
AcDbEntity
  8
TA-SMART_DN15_EX
  6
Continuous
 62
     7
100
AcDbLine
 10
127.4919076678
 20
193.9028568476
 30
0.0
 11
114.2198481364
 21
193.9028568476
 31
0.0
  0
LINE
  5
90
330
6F
100
AcDbEntity
  8
TA-SMART_DN15_EX
  6
Continuous
 62
     7
100
AcDbLine
 10
114.2198481364
 20
218.6183769252
 30
0.0
 11
127.4919076678
 21
218.6183769252
 31
0.0
  0
LINE
  5
91
330
6F
100
AcDbEntity
  8
TA-SMART_DN15_EX
  6
Continuous
 62
     7
100
AcDbLine
 10
127.4919076678
 20
207.8203657707
 30
0.0
 11
114.2198481364
 21
207.8203657707
 31
0.0
  0
LINE
  5
92
330
6F
100
AcDbEntity
  8
TA-SMART_DN15_EX
  6
Continuous
 62
     7
100
AcDbLine
 10
114.2198481364
 20
220.1781214602
 30
0.0
 11
127.4919076678
 21
220.1781214602
 31
0.0
  0
LINE
  5
93
330
6F
100
AcDbEntity
  8
TA-SMART_DN15_EX
  6
Continuous
 62
     7
100
AcDbLine
 10
127.4919076678
 20
220.1781147258
 30
0.0
 11
114.2198481364
 21
220.1781147258
 31
0.0
  0
LINE
  5
94
330
6F
100
AcDbEntity
  8
TA-SMART_DN15_EX
  6
Continuous
 62
     7
100
AcDbLine
 10
111.7198481364
 20
226.260618093
 30
0.0
 11
113.2198471572
 21
226.260618093
 31
0.0
  0
LINE
  5
95
330
6F
100
AcDbEntity
  8
TA-SMART_DN15_EX
  6
Continuous
 62
     7
100
AcDbLine
 10
111.7198481364
 20
226.260618093
 30
0.0
 11
108.003034624
 21
226.260618093
 31
0.0
  0
LINE
  5
96
330
6F
100
AcDbEntity
  8
TA-SMART_DN15_EX
  6
Continuous
 62
     7
100
AcDbLine
 10
96.7198481364
 20
226.260618093
 30
0.0
 11
95.2198491155
 21
226.260618093
 31
0.0
  0
LINE
  5
97
330
6F
100
AcDbEntity
  8
TA-SMART_DN15_EX
  6
Continuous
 62
     7
100
AcDbLine
 10
111.7198481364
 20
186.260618093
 30
0.0
 11
111.7198481364
 21
226.260618093
 31
0.0
  0
LINE
  5
98
330
6F
100
AcDbEntity
  8
TA-SMART_DN15_EX
  6
Continuous
 62
     7
100
AcDbLine
 10
113.2198471572
 20
186.260618093
 30
0.0
 11
111.7198481364
 21
186.260618093
 31
0.0
  0
LINE
  5
99
330
6F
100
AcDbEntity
  8
TA-SMART_DN15_EX
  6
Continuous
 62
     7
100
AcDbLine
 10
111.7198481364
 20
186.260618093
 30
0.0
 11
96.7198481364
 21
186.260618093
 31
0.0
  0
LINE
  5
9A
330
6F
100
AcDbEntity
  8
TA-SMART_DN15_EX
  6
Continuous
 62
     7
100
AcDbLine
 10
96.7198481364
 20
186.260618093
 30
0.0
 11
96.7198481364
 21
226.260618093
 31
0.0
  0
LINE
  5
9B
330
6F
100
AcDbEntity
  8
TA-SMART_DN15_EX
  6
Continuous
 62
     7
100
AcDbLine
 10
95.2198491155
 20
186.260618093
 30
0.0
 11
96.7198481364
 21
186.260618093
 31
0.0
  0
LINE
  5
9C
330
6F
100
AcDbEntity
  8
TA-SMART_DN15_EX
  6
Continuous
 62
     7
100
AcDbLine
 10
101.7980339232
 20
226.260618093
 30
0.0
 11
96.7198481364
 21
226.260618093
 31
0.0
  0
ELLIPSE
  5
9D
330
6F
100
AcDbEntity
  8
TA-SMART_DN15_EX
  6
Continuous
 62
     7
100
AcDbEllipse
 10
-428.8244438438
 20
206.2612241091
 30
0.0
 11
1445.973001727544
 21
-0.0002236162557518701
 31
0.0
210
0.0
220
0.0
230
1.0
 40
0.0148684605
 41
1.190577299311725
 42
1.195051291918887
  0
LINE
  5
9E
330
6F
100
AcDbEntity
  8
TA-SMART_DN15_EX
  6
Continuous
 62
     7
100
AcDbLine
 10
108.003034624
 20
226.260618093
 30
0.0
 11
107.8106435422
 21
226.2251193802
 31
0.0
  0
LINE
  5
9F
330
6F
100
AcDbEntity
  8
TA-SMART_DN15_EX
  6
Continuous
 62
     7
100
AcDbLine
 10
112.925493032
 20
234.260618093
 30
0.0
 11
112.9698481364
 21
234.260618093
 31
0.0
  0
LINE
  5
A0
330
6F
100
AcDbEntity
  8
TA-SMART_DN15_EX
  6
Continuous
 62
     7
100
AcDbLine
 10
95.4918911985
 20
234.260618093
 30
0.0
 11
95.4698481364
 21
234.260618093
 31
0.0
  0
LINE
  5
A1
330
6F
100
AcDbEntity
  8
TA-SMART_DN15_EX
  6
Continuous
 62
     7
100
AcDbLine
 10
99.1049986465
 20
234.260618093
 30
0.0
 11
100.3934110779
 21
234.260618093
 31
0.0
  0
LINE
  5
A2
330
6F
100
AcDbEntity
  8
TA-SMART_DN15_EX
  6
Continuous
 62
     7
100
AcDbLine
 10
107.8106435422
 20
234.260618093
 30
0.0
 11
109.1213680157
 21
234.260618093
 31
0.0
  0
LINE
  5
A3
330
6F
100
AcDbEntity
  8
TA-SMART_DN15_EX
  6
Continuous
 62
     7
100
AcDbLine
 10
112.925493032
 20
234.260618093
 30
0.0
 11
109.1213680157
 21
234.260618093
 31
0.0
  0
LINE
  5
A4
330
6F
100
AcDbEntity
  8
TA-SMART_DN15_EX
  6
Continuous
 62
     7
100
AcDbLine
 10
109.1213680157
 20
234.260618093
 30
0.0
 11
109.1213680157
 21
226.260618093
 31
0.0
  0
LINE
  5
A5
330
6F
100
AcDbEntity
  8
TA-SMART_DN15_EX
  6
Continuous
 62
     7
100
AcDbLine
 10
112.925493032
 20
234.260618093
 30
0.0
 11
112.925493032
 21
226.260618093
 31
0.0
  0
LINE
  5
A6
330
6F
100
AcDbEntity
  8
TA-SMART_DN15_EX
  6
Continuous
 62
     7
100
AcDbLine
 10
99.1049986465
 20
234.260618093
 30
0.0
 11
95.4918911985
 21
234.260618093
 31
0.0
  0
LINE
  5
A7
330
6F
100
AcDbEntity
  8
TA-SMART_DN15_EX
  6
Continuous
 62
     7
100
AcDbLine
 10
95.4918911985
 20
234.260618093
 30
0.0
 11
95.4918911985
 21
226.260618093
 31
0.0
  0
LINE
  5
A8
330
6F
100
AcDbEntity
  8
TA-SMART_DN15_EX
  6
Continuous
 62
     7
100
AcDbLine
 10
99.1049986465
 20
234.260618093
 30
0.0
 11
99.1049986465
 21
226.260618093
 31
0.0
  0
LINE
  5
A9
330
6F
100
AcDbEntity
  8
TA-SMART_DN15_EX
  6
Continuous
 62
     7
100
AcDbLine
 10
107.8106435422
 20
234.260618093
 30
0.0
 11
100.3934110779
 21
234.260618093
 31
0.0
  0
LINE
  5
AA
330
6F
100
AcDbEntity
  8
TA-SMART_DN15_EX
  6
Continuous
 62
     7
100
AcDbLine
 10
100.3934110779
 20
234.260618093
 30
0.0
 11
100.3934110779
 21
226.260618093
 31
0.0
  0
LINE
  5
AB
330
6F
100
AcDbEntity
  8
TA-SMART_DN15_EX
  6
Continuous
 62
     7
100
AcDbLine
 10
107.8106435422
 20
234.260618093
 30
0.0
 11
107.8106435422
 21
226.2251193802
 31
0.0
  0
LINE
  5
AC
330
6F
100
AcDbEntity
  8
TA-SMART_DN15_EX
  6
Continuous
 62
     7
100
AcDbLine
 10
108.607338872
 20
179.5971987453
 30
0.0
 11
108.523005157
 21
179.5971987453
 31
0.0
  0
LINE
  5
AD
330
6F
100
AcDbEntity
  8
TA-SMART_DN15_EX
  6
Continuous
 62
     7
100
AcDbLine
 10
106.1264632485
 20
179.5971987453
 30
0.0
 11
105.5763607742
 21
179.5971987453
 31
0.0
  0
LINE
  5
AE
330
6F
100
AcDbEntity
  8
TA-SMART_DN15_EX
  6
Continuous
 62
     7
100
AcDbLine
 10
101.7389725129
 20
179.5971987453
 30
0.0
 11
101.2732037536
 21
179.5971987453
 31
0.0
  0
ARC
  5
AF
330
6F
100
AcDbEntity
  8
TA-SMART_DN15_EX
  6
Continuous
 62
     7
100
AcDbCircle
 10
100.5527805772
 20
183.5670815995
 30
0.0
 40
1.139320510304138
100
AcDbArc
 50
50.7779825581
 51
129.2220174419
  0
ARC
  5
B0
330
6F
100
AcDbEntity
  8
TA-SMART_DN15_EX
  6
Continuous
 62
     7
100
AcDbCircle
 10
107.8869156956
 20
183.5670815995
 30
0.0
 40
1.139320510304335
100
AcDbArc
 50
50.7779825581
 51
58.6638812421
  0
ARC
  5
B1
330
6F
100
AcDbEntity
  8
TA-SMART_DN15_EX
  6
Continuous
 62
     7
100
AcDbCircle
 10
107.3247342028
 20
181.795553161
 30
0.0
 40
2.912117477742126
100
AcDbArc
 50
65.7023142013
 51
114.2976857987
  0
ARC
  5
B2
330
6F
100
AcDbEntity
  8
TA-SMART_DN15_EX
  6
Continuous
 62
     7
100
AcDbCircle
 10
103.6576666436
 20
177.4566767964
 30
0.0
 40
7.251480545886779
100
AcDbArc
 50
74.6572040837
 51
105.3427959163
  0
LINE
  5
B3
330
6F
100
AcDbEntity
  8
TA-SMART_DN15_EX
  6
Continuous
 62
     7
100
AcDbLine
 10
100.3583481364
 20
184.760618093
 30
0.0
 11
108.0813481364
 21
184.760618093
 31
0.0
  0
LINE
  5
B4
330
6F
100
AcDbEntity
  8
TA-SMART_DN15_EX
  6
Continuous
 62
     7
100
AcDbLine
 10
100.4698481364
 20
179.360618093
 30
0.0
 11
107.9698481364
 21
179.360618093
 31
0.0
  0
ARC
  5
B5
330
6F
100
AcDbEntity
  8
TA-SMART_DN15_EX
  6
Continuous
 62
     7
100
AcDbCircle
 10
100.5527805772
 20
181.0997135967
 30
0.0
 40
1.666301422833189
100
AcDbArc
 50
244.3832958132
 51
295.6167041868
  0
ARC
  5
B6
330
6F
100
AcDbEntity
  8
TA-SMART_DN15_EX
  6
Continuous
 62
     7
100
AcDbCircle
 10
107.8869156956
 20
181.0997135967
 30
0.0
 40
1.666301422833309
100
AcDbArc
 50
290.7146769833
 51
295.6167041868
  0
ARC
  5
B7
330
6F
100
AcDbEntity
  8
TA-SMART_DN15_EX
  6
Continuous
 62
     7
100
AcDbCircle
 10
107.3247342028
 20
183.8986104026
 30
0.0
 40
4.465198262734539
100
AcDbArc
 50
254.4334279839
 51
285.5665720161
  0
ARC
  5
B8
330
6F
100
AcDbEntity
  8
TA-SMART_DN15_EX
  6
Continuous
 62
     7
100
AcDbCircle
 10
103.6576666436
 20
190.7536700134
 30
0.0
 40
11.32025787356747
100
AcDbArc
 50
260.241710765
 51
279.758289235
  0
LINE
  5
B9
330
6F
100
AcDbEntity
  8
TA-SMART_DN15_EX
  6
Continuous
 62
     7
100
AcDbLine
 10
99.8323574008
 20
179.5971987453
 30
0.0
 11
99.8323574008
 21
184.449714973
 31
0.0
  0
LINE
  5
BA
330
6F
100
AcDbEntity
  8
TA-SMART_DN15_EX
  6
Continuous
 62
     7
100
AcDbLine
 10
108.523005157
 20
184.449714973
 30
0.0
 11
108.607338872
 21
184.449714973
 31
0.0
  0
LINE
  5
BB
330
6F
100
AcDbEntity
  8
TA-SMART_DN15_EX
  6
Continuous
 62
     7
100
AcDbLine
 10
108.607338872
 20
179.5971987453
 30
0.0
 11
108.607338872
 21
184.449714973
 31
0.0
  0
LINE
  5
BC
330
6F
100
AcDbEntity
  8
TA-SMART_DN15_EX
  6
Continuous
 62
     7
100
AcDbLine
 10
108.523005157
 20
184.449714973
 30
0.0
 11
108.523005157
 21
179.5971987453
 31
0.0
  0
LINE
  5
BD
330
6F
100
AcDbEntity
  8
TA-SMART_DN15_EX
  6
Continuous
 62
     7
100
AcDbLine
 10
105.5763607742
 20
184.449714973
 30
0.0
 11
106.1264632485
 21
184.449714973
 31
0.0
  0
LINE
  5
BE
330
6F
100
AcDbEntity
  8
TA-SMART_DN15_EX
  6
Continuous
 62
     7
100
AcDbLine
 10
106.1264632485
 20
179.5971987453
 30
0.0
 11
106.1264632485
 21
184.449714973
 31
0.0
  0
LINE
  5
BF
330
6F
100
AcDbEntity
  8
TA-SMART_DN15_EX
  6
Continuous
 62
     7
100
AcDbLine
 10
105.5763607742
 20
184.449714973
 30
0.0
 11
105.5763607742
 21
179.5971987453
 31
0.0
  0
LINE
  5
C0
330
6F
100
AcDbEntity
  8
TA-SMART_DN15_EX
  6
Continuous
 62
     7
100
AcDbLine
 10
101.2732037536
 20
184.449714973
 30
0.0
 11
101.7389725129
 21
184.449714973
 31
0.0
  0
LINE
  5
C1
330
6F
100
AcDbEntity
  8
TA-SMART_DN15_EX
  6
Continuous
 62
     7
100
AcDbLine
 10
101.2732037536
 20
184.449714973
 30
0.0
 11
101.2732037536
 21
179.5971987453
 31
0.0
  0
LINE
  5
C2
330
6F
100
AcDbEntity
  8
TA-SMART_DN15_EX
  6
Continuous
 62
     7
100
AcDbLine
 10
101.7389725129
 20
179.5971987453
 30
0.0
 11
101.7389725129
 21
184.449714973
 31
0.0
  0
LINE
  5
C3
330
6F
100
AcDbEntity
  8
TA-SMART_DN15_EX
  6
Continuous
 62
     7
100
AcDbLine
 10
80.4640476306
 20
220.1815506894
 30
0.0
 11
80.2198481364
 21
219.510618093
 31
0.0
  0
LINE
  5
C4
330
6F
100
AcDbEntity
  8
TA-SMART_DN15_EX
  6
Continuous
 62
     7
100
AcDbLine
 10
80.2198481364
 20
193.010618093
 30
0.0
 11
80.4640476355
 21
192.3396854832
 31
0.0
  0
LINE
  5
C5
330
6F
100
AcDbEntity
  8
TA-SMART_DN15_EX
  6
Continuous
 62
     7
100
AcDbLine
 10
113.2198481364
 20
186.260618093
 30
0.0
 11
114.2198481364
 21
187.260618093
 31
0.0
  0
LINE
  5
C6
330
6F
100
AcDbEntity
  8
TA-SMART_DN15_EX
  6
Continuous
 62
     7
100
AcDbLine
 10
114.2198481364
 20
225.260618093
 30
0.0
 11
113.2198481364
 21
226.260618093
 31
0.0
  0
LINE
  5
C7
330
6F
100
AcDbEntity
  8
TA-SMART_DN15_EX
  6
Continuous
 62
     7
100
AcDbLine
 10
127.9756486404
 20
192.3396854919
 30
0.0
 11
128.2198481364
 21
193.010618093
 31
0.0
  0
LINE
  5
C8
330
6F
100
AcDbEntity
  8
TA-SMART_DN15_EX
  6
Continuous
 62
     7
100
AcDbLine
 10
128.2198481364
 20
219.510618093
 30
0.0
 11
127.9756486355
 21
220.1815507075
 31
0.0
  0
LINE
  5
C9
330
6F
100
AcDbEntity
  8
TA-SMART_DN15_EX
  6
Continuous
 62
     7
100
AcDbLine
 10
95.2198481364
 20
226.260618093
 30
0.0
 11
94.2198481364
 21
225.260618093
 31
0.0
  0
LINE
  5
CA
330
6F
100
AcDbEntity
  8
TA-SMART_DN15_EX
  6
Continuous
 62
     7
100
AcDbLine
 10
94.2198481364
 20
187.260618093
 30
0.0
 11
95.2198481364
 21
186.260618093
 31
0.0
  0
LINE
  5
CB
330
6F
100
AcDbEntity
  8
TA-SMART_DN15_EX
  6
Continuous
 62
     7
100
AcDbLine
 10
95.4698481364
 20
234.260618093
 30
0.0
 11
95.4698481364
 21
226.260618093
 31
0.0
  0
LINE
  5
CC
330
6F
100
AcDbEntity
  8
TA-SMART_DN15_EX
  6
Continuous
 62
     7
100
AcDbLine
 10
112.9698481364
 20
226.260618093
 30
0.0
 11
112.9698481364
 21
234.260618093
 31
0.0
  0
LINE
  5
CD
330
6F
100
AcDbEntity
  8
TA-SMART_DN15_EX
  6
Continuous
 62
     7
100
AcDbLine
 10
99.9633542759
 20
179.544966782
 30
0.0
 11
100.4698481364
 21
179.360618093
 31
0.0
  0
LINE
  5
CE
330
6F
100
AcDbEntity
  8
TA-SMART_DN15_EX
  6
Continuous
 62
     7
100
AcDbLine
 10
107.9698481364
 20
179.360618093
 30
0.0
 11
108.4770607929
 21
179.5452284024
 31
0.0
  0
LINE
  5
CF
330
6F
100
AcDbEntity
  8
TA-SMART_DN15_EX
  6
Continuous
 62
     7
100
AcDbLine
 10
108.4778580211
 20
184.5316930043
 30
0.0
 11
108.0813481364
 21
184.760618093
 31
0.0
  0
LINE
  5
D0
330
6F
100
AcDbEntity
  8
TA-SMART_DN15_EX
  6
Continuous
 62
     7
100
AcDbLine
 10
100.3583481364
 20
184.760618093
 30
0.0
 11
99.9628797355
 21
184.5322943053
 31
0.0
  0
LINE
  5
D1
330
6F
100
AcDbEntity
  8
TA-SMART_DN15_EX
  6
Continuous
 62
     7
100
AcDbLine
 10
100.3583481364
 20
186.260618093
 30
0.0
 11
100.3583481364
 21
184.760618093
 31
0.0
  0
LINE
  5
D2
330
6F
100
AcDbEntity
  8
TA-SMART_DN15_EX
  6
Continuous
 62
     7
100
AcDbLine
 10
108.0813481364
 20
184.760618093
 30
0.0
 11
108.0813481364
 21
186.260618093
 31
0.0
  0
ENDBLK
  5
D4
330
6F
100
AcDbEntity
  8
0
100
AcDbBlockEnd
  0
BLOCK
  5
114
330
D5
100
AcDbEntity
  8
0
100
AcDbBlockBegin
  2
SE1
 70
     0
 10
0.0
 20
0.0
 30
0.0
  3
SE1
  1

  0
CIRCLE
  5
D7
330
D5
100
AcDbEntity
  8
TA-SMART_DN15_EX
  6
Continuous
 62
     7
100
AcDbCircle
 10
276.0496344033
 20
206.260618093
 30
0.0
 40
13.25
  0
ARC
  5
D8
330
D5
100
AcDbEntity
  8
TA-SMART_DN15_EX
  6
Continuous
 62
     7
100
AcDbCircle
 10
276.0496344033
 20
206.260618093
 30
0.0
 40
15.25
100
AcDbArc
 50
114.1295906325
 51
125.8703938944
  0
CIRCLE
  5
D9
330
D5
100
AcDbEntity
  8
TA-SMART_DN15_EX
  6
Continuous
 62
     7
100
AcDbCircle
 10
276.0496344033
 20
206.260618093
 30
0.0
 40
19.0
  0
ARC
  5
DA
330
D5
100
AcDbEntity
  8
TA-SMART_DN15_EX
  6
Continuous
 62
     7
100
AcDbCircle
 10
276.0496344033
 20
206.260618093
 30
0.0
 40
21.5
100
AcDbArc
 50
111.5289044056
 51
248.4710955944
  0
ARC
  5
DB
330
D5
100
AcDbEntity
  8
TA-SMART_DN15_EX
  6
Continuous
 62
     7
100
AcDbCircle
 10
276.0496344033
 20
206.260618093
 30
0.0
 40
15.25
100
AcDbArc
 50
174.1296370519
 51
185.870347475
  0
ARC
  5
DC
330
D5
100
AcDbEntity
  8
TA-SMART_DN15_EX
  6
Continuous
 62
     7
100
AcDbCircle
 10
276.0496344033
 20
206.260618093
 30
0.0
 40
15.25
100
AcDbArc
 50
234.1295906325
 51
245.8703938943
  0
ARC
  5
DD
330
D5
100
AcDbEntity
  8
TA-SMART_DN15_EX
  6
Continuous
 62
     7
100
AcDbCircle
 10
276.0496344033
 20
206.260618093
 30
0.0
 40
15.25
100
AcDbArc
 50
294.1296370519
 51
305.870347475
  0
ARC
  5
DE
330
D5
100
AcDbEntity
  8
TA-SMART_DN15_EX
  6
Continuous
 62
     7
100
AcDbCircle
 10
276.0496344033
 20
206.260618093
 30
0.0
 40
15.25
100
AcDbArc
 50
354.1295906325
 51
5.8703938943
  0
ARC
  5
DF
330
D5
100
AcDbEntity
  8
TA-SMART_DN15_EX
  6
Continuous
 62
     7
100
AcDbCircle
 10
276.0496344033
 20
206.260618093
 30
0.0
 40
15.25
100
AcDbArc
 50
54.1296370519
 51
65.870347475
  0
LINE
  5
E0
330
D5
100
AcDbEntity
  8
TA-SMART_DN15_EX
  6
Continuous
 62
     7
100
AcDbLine
 10
282.2838775391
 20
220.1781147258
 30
0.0
 11
269.8154063016
 21
220.1781214602
 31
0.0
  0
LINE
  5
E1
330
D5
100
AcDbEntity
  8
TA-SMART_DN15_EX
  6
Continuous
 62
     7
100
AcDbLine
 10
291.2196603486
 20
207.8203657707
 30
0.0
 11
284.9854218138
 21
218.6183769252
 31
0.0
  0
LINE
  5
E2
330
D5
100
AcDbEntity
  8
TA-SMART_DN15_EX
  6
Continuous
 62
     7
100
AcDbLine
 10
284.9854184765
 20
193.9028568476
 30
0.0
 11
291.2196599274
 21
204.7008663185
 31
0.0
  0
LINE
  5
E3
330
D5
100
AcDbEntity
  8
TA-SMART_DN15_EX
  6
Continuous
 62
     7
100
AcDbLine
 10
269.815402543
 20
192.3431164094
 30
0.0
 11
282.2838737805
 21
192.3431197766
 31
0.0
  0
LINE
  5
E4
330
D5
100
AcDbEntity
  8
TA-SMART_DN15_EX
  6
Continuous
 62
     7
100
AcDbLine
 10
260.8796071943
 20
204.7008827055
 30
0.0
 11
267.1138369809
 21
193.9028665003
 31
0.0
  0
LINE
  5
E5
330
D5
100
AcDbEntity
  8
TA-SMART_DN15_EX
  6
Continuous
 62
     7
100
AcDbLine
 10
267.1138403182
 20
218.6183720988
 30
0.0
 11
260.8796076155
 21
207.8203575772
 31
0.0
  0
CIRCLE
  5
E6
330
D5
100
AcDbEntity
  8
TA-SMART_DN15_EX
  6
Continuous
 62
     7
100
AcDbCircle
 10
276.0496344033
 20
206.260618093
 30
0.0
 40
9.4125
  0
LINE
  5
E7
330
D5
100
AcDbEntity
  8
TA-SMART_DN15_EX
  6
Continuous
 62
     7
100
AcDbLine
 10
283.9395013223
 20
226.260618093
 30
0.0
 11
268.1597674843
 21
226.260618093
 31
0.0
  0
ARC
  5
E8
330
D5
100
AcDbEntity
  8
TA-SMART_DN15_EX
  6
Continuous
 62
     7
100
AcDbCircle
 10
276.0496344033
 20
206.260618093
 30
0.0
 40
21.5
100
AcDbArc
 50
291.5289044056
 51
68.4710955944
  0
LINE
  5
E9
330
D5
100
AcDbEntity
  8
TA-SMART_DN15_EX
  6
Continuous
 62
     7
100
AcDbLine
 10
268.1597674843
 20
186.260618093
 30
0.0
 11
283.9395013223
 21
186.260618093
 31
0.0
  0
LINE
  5
EA
330
D5
100
AcDbEntity
  8
TA-SMART_DN15_EX
  6
Continuous
 62
     7
100
AcDbLine
 10
268.0703682495
 20
234.260618093
 30
0.0
 11
268.80135165
 21
234.260618093
 31
0.0
  0
LINE
  5
EB
330
D5
100
AcDbEntity
  8
TA-SMART_DN15_EX
  6
Continuous
 62
     7
100
AcDbLine
 10
275.1697213676
 20
234.260618093
 30
0.0
 11
276.6703337593
 21
234.260618093
 31
0.0
  0
LINE
  5
EC
330
D5
100
AcDbEntity
  8
TA-SMART_DN15_EX
  6
Continuous
 62
     7
100
AcDbLine
 10
283.1489875214
 20
234.260618093
 30
0.0
 11
283.9186165126
 21
234.260618093
 31
0.0
  0
LINE
  5
ED
330
D5
100
AcDbEntity
  8
TA-SMART_DN15_EX
  6
Continuous
 62
     7
100
AcDbLine
 10
268.0703682495
 20
234.260618093
 30
0.0
 11
268.0703682495
 21
226.2251193802
 31
0.0
  0
LINE
  5
EE
330
D5
100
AcDbEntity
  8
TA-SMART_DN15_EX
  6
Continuous
 62
     7
100
AcDbLine
 10
275.1697213676
 20
234.260618093
 30
0.0
 11
268.80135165
 21
234.260618093
 31
0.0
  0
LINE
  5
EF
330
D5
100
AcDbEntity
  8
TA-SMART_DN15_EX
  6
Continuous
 62
     7
100
AcDbLine
 10
268.80135165
 20
234.260618093
 30
0.0
 11
268.80135165
 21
226.260618093
 31
0.0
  0
LINE
  5
F0
330
D5
100
AcDbEntity
  8
TA-SMART_DN15_EX
  6
Continuous
 62
     7
100
AcDbLine
 10
275.1697213676
 20
234.260618093
 30
0.0
 11
275.1697213676
 21
226.260618093
 31
0.0
  0
LINE
  5
F1
330
D5
100
AcDbEntity
  8
TA-SMART_DN15_EX
  6
Continuous
 62
     7
100
AcDbLine
 10
283.1489875214
 20
234.260618093
 30
0.0
 11
276.6703337593
 21
234.260618093
 31
0.0
  0
LINE
  5
F2
330
D5
100
AcDbEntity
  8
TA-SMART_DN15_EX
  6
Continuous
 62
     7
100
AcDbLine
 10
276.6703337593
 20
234.260618093
 30
0.0
 11
276.6703337593
 21
226.260618093
 31
0.0
  0
LINE
  5
F3
330
D5
100
AcDbEntity
  8
TA-SMART_DN15_EX
  6
Continuous
 62
     7
100
AcDbLine
 10
283.1489875214
 20
234.260618093
 30
0.0
 11
283.1489875214
 21
226.260618093
 31
0.0
  0
LINE
  5
F4
330
D5
100
AcDbEntity
  8
TA-SMART_DN15_EX
  6
Continuous
 62
     7
100
AcDbLine
 10
284.0289005571
 20
234.260618093
 30
0.0
 11
283.9186165126
 21
234.260618093
 31
0.0
  0
LINE
  5
F5
330
D5
100
AcDbEntity
  8
TA-SMART_DN15_EX
  6
Continuous
 62
     7
100
AcDbLine
 10
283.9186165126
 20
234.260618093
 30
0.0
 11
283.9186165126
 21
226.260618093
 31
0.0
  0
LINE
  5
F6
330
D5
100
AcDbEntity
  8
TA-SMART_DN15_EX
  6
Continuous
 62
     7
100
AcDbLine
 10
284.0289005571
 20
234.260618093
 30
0.0
 11
284.0289005571
 21
226.2251193802
 31
0.0
  0
LINE
  5
F7
330
D5
100
AcDbEntity
  8
TA-SMART_DN15_EX
  6
Continuous
 62
     7
100
AcDbLine
 10
275.7180849425
 20
179.5971987453
 30
0.0
 11
275.1315714123
 21
179.5971987453
 31
0.0
  0
LINE
  5
F8
330
D5
100
AcDbEntity
  8
TA-SMART_DN15_EX
  6
Continuous
 62
     7
100
AcDbLine
 10
272.084181237
 20
179.5971987453
 30
0.0
 11
271.8639596114
 21
179.5971987453
 31
0.0
  0
LINE
  5
F9
330
D5
100
AcDbEntity
  8
TA-SMART_DN15_EX
  6
Continuous
 62
     7
100
AcDbLine
 10
279.6835381088
 20
179.5971987453
 30
0.0
 11
279.3172462042
 21
179.5971987453
 31
0.0
  0
ARC
  5
FA
330
D5
100
AcDbEntity
  8
TA-SMART_DN15_EX
  6
Continuous
 62
     7
100
AcDbCircle
 10
277.5176655733
 20
178.3124026765
 30
0.0
 40
6.395708926435853
100
AcDbArc
 50
73.6578255798
 51
106.3421744202
  0
ARC
  5
FB
330
D5
100
AcDbEntity
  8
TA-SMART_DN15_EX
  6
Continuous
 62
     7
100
AcDbCircle
 10
273.6078763246
 20
180.0840010691
 30
0.0
 40
4.623970654218842
100
AcDbArc
 50
70.7602998161
 51
109.2397001839
  0
SPLINE
  5
FC
330
D5
100
AcDbEntity
  8
TA-SMART_DN15_EX
  6
Continuous
 62
     7
100
AcDbSpline
210
0.0
220
0.0
230
1.0
 70
     8
 71
     3
 72
     8
 73
     4
 74
     0
 42
0.000000001
 43
0.0000000001
 40
0.0
 40
0.0
 40
0.0
 40
0.0
 40
0.3560521784005194
 40
0.3560521784005194
 40
0.3560521784005194
 40
0.3560521784005194
 10
271.8639596114117
 20
184.4497149730358
 30
0.0
 10
271.9282211596225
 20
184.5645588714986
 30
0.0
 10
271.9931372988787
 20
184.6473885524983
 30
0.0
 10
272.0589636203644
 20
184.6857037659896
 30
0.0
  0
SPLINE
  5
FD
330
D5
100
AcDbEntity
  8
TA-SMART_DN15_EX
  6
Continuous
 62
     7
100
AcDbSpline
210
0.0
220
0.0
230
1.0
 70
     8
 71
     3
 72
    12
 73
     8
 74
     0
 42
0.000000001
 43
0.0000000001
 40
0.0
 40
0.0
 40
0.0
 40
0.0
 40
0.5
 40
0.5
 40
0.75
 40
0.75
 40
1.0
 40
1.0
 40
1.0
 40
1.0
 10
280.235309195155
 20
184.4497149730358
 30
0.0
 10
280.1450674383155
 20
184.6109889455455
 30
0.0
 10
280.0535348106841
 20
184.7091300375565
 30
0.0
 10
279.9132378523347
 20
184.709717052859
 30
0.0
 10
279.8664286406417
 20
184.6856577629204
 30
0.0
 10
279.774317278609
 20
184.5959405694474
 30
0.0
 10
279.7287466180346
 20
184.5305085671888
 30
0.0
 10
279.6835381087861
 20
184.4497149730358
 30
0.0
  0
LINE
  5
FE
330
D5
100
AcDbEntity
  8
TA-SMART_DN15_EX
  6
Continuous
 62
     7
100
AcDbLine
 10
279.9111344033
 20
184.760618093
 30
0.0
 11
272.1881344033
 21
184.760618093
 31
0.0
  0
LINE
  5
FF
330
D5
100
AcDbEntity
  8
TA-SMART_DN15_EX
  6
Continuous
 62
     7
100
AcDbLine
 10
279.7996344033
 20
179.360618093
 30
0.0
 11
272.2996344033
 21
179.360618093
 31
0.0
  0
ARC
  5
100
330
D5
100
AcDbEntity
  8
TA-SMART_DN15_EX
  6
Continuous
 62
     7
100
AcDbCircle
 10
277.5176655733
 20
189.4016171304
 30
0.0
 40
9.968204969723606
100
AcDbArc
 50
259.5992473683
 51
280.4007526317
  0
ARC
  5
101
330
D5
100
AcDbEntity
  8
TA-SMART_DN15_EX
  6
Continuous
 62
     7
100
AcDbCircle
 10
273.6078763246
 20
186.6027187088
 30
0.0
 40
7.169306568907808
100
AcDbArc
 50
257.7293226274
 51
282.2706773726
  0
SPLINE
  5
102
330
D5
100
AcDbEntity
  8
TA-SMART_DN15_EX
  6
Continuous
 62
     7
100
AcDbSpline
210
0.0
220
0.0
230
1.0
 70
     8
 71
     3
 72
     8
 73
     4
 74
     0
 42
0.000000001
 43
0.0000000001
 40
0.6466640247840234
 40
0.6466640247840234
 40
0.6466640247840234
 40
0.6466640247840234
 40
1.0
 40
1.0
 40
1.0
 40
1.0
 10
272.0589201863098
 20
179.4485230648417
 30
0.0
 10
271.9939333280104
 20
179.4724532430799
 30
0.0
 10
271.928946469711
 20
179.5239822763871
 30
0.0
 10
271.8639596114117
 20
179.5971987452674
 30
0.0
  0
SPLINE
  5
103
330
D5
100
AcDbEntity
  8
TA-SMART_DN15_EX
  6
Continuous
 62
     7
100
AcDbSpline
210
0.0
220
0.0
230
1.0
 70
     8
 71
     3
 72
     9
 73
     5
 74
     0
 42
0.000000001
 43
0.0000000001
 40
0.0
 40
0.0
 40
0.0
 40
0.0
 40
0.5
 40
1.0
 40
1.0
 40
1.0
 40
1.0
 10
279.6835381087861
 20
179.5971987452674
 30
0.0
 10
279.7754999565143
 20
179.4935913092633
 30
0.0
 10
279.9594236519706
 20
179.373232970432
 30
0.0
 10
280.1433473474269
 20
179.4935913092632
 30
0.0
 10
280.235309195155
 20
179.5971987452674
 30
0.0
  0
LINE
  5
104
330
D5
100
AcDbEntity
  8
TA-SMART_DN15_EX
  6
Continuous
 62
     7
100
AcDbLine
 10
275.1315714123
 20
184.449714973
 30
0.0
 11
275.7180849425
 21
184.449714973
 31
0.0
  0
LINE
  5
105
330
D5
100
AcDbEntity
  8
TA-SMART_DN15_EX
  6
Continuous
 62
     7
100
AcDbLine
 10
275.7180849425
 20
179.5971987453
 30
0.0
 11
275.7180849425
 21
184.449714973
 31
0.0
  0
LINE
  5
106
330
D5
100
AcDbEntity
  8
TA-SMART_DN15_EX
  6
Continuous
 62
     7
100
AcDbLine
 10
275.1315714123
 20
184.449714973
 30
0.0
 11
275.1315714123
 21
179.5971987453
 31
0.0
  0
LINE
  5
107
330
D5
100
AcDbEntity
  8
TA-SMART_DN15_EX
  6
Continuous
 62
     7
100
AcDbLine
 10
271.8639596114
 20
184.449714973
 30
0.0
 11
272.084181237
 21
184.449714973
 31
0.0
  0
LINE
  5
108
330
D5
100
AcDbEntity
  8
TA-SMART_DN15_EX
  6
Continuous
 62
     7
100
AcDbLine
 10
272.084181237
 20
179.5971987453
 30
0.0
 11
272.084181237
 21
184.449714973
 31
0.0
  0
LINE
  5
109
330
D5
100
AcDbEntity
  8
TA-SMART_DN15_EX
  6
Continuous
 62
     7
100
AcDbLine
 10
271.8639596114
 20
184.449714973
 30
0.0
 11
271.8639596114
 21
179.5971987453
 31
0.0
  0
LINE
  5
10A
330
D5
100
AcDbEntity
  8
TA-SMART_DN15_EX
  6
Continuous
 62
     7
100
AcDbLine
 10
280.2353091952
 20
184.449714973
 30
0.0
 11
280.2353091952
 21
179.5971987453
 31
0.0
  0
LINE
  5
10B
330
D5
100
AcDbEntity
  8
TA-SMART_DN15_EX
  6
Continuous
 62
     7
100
AcDbLine
 10
279.3172462042
 20
184.449714973
 30
0.0
 11
279.6835381088
 21
184.449714973
 31
0.0
  0
LINE
  5
10C
330
D5
100
AcDbEntity
  8
TA-SMART_DN15_EX
  6
Continuous
 62
     7
100
AcDbLine
 10
279.3172462042
 20
184.449714973
 30
0.0
 11
279.3172462042
 21
179.5971987453
 31
0.0
  0
LINE
  5
10D
330
D5
100
AcDbEntity
  8
TA-SMART_DN15_EX
  6
Continuous
 62
     7
100
AcDbLine
 10
279.6835381088
 20
179.5971987453
 30
0.0
 11
279.6835381088
 21
184.449714973
 31
0.0
  0
LINE
  5
10E
330
D5
100
AcDbEntity
  8
TA-SMART_DN15_EX
  6
Continuous
 62
     7
100
AcDbLine
 10
272.055549308
 20
179.4494578023
 30
0.0
 11
272.2996344033
 21
179.360618093
 31
0.0
  0
LINE
  5
10F
330
D5
100
AcDbEntity
  8
TA-SMART_DN15_EX
  6
Continuous
 62
     7
100
AcDbLine
 10
279.7996344033
 20
179.360618093
 30
0.0
 11
280.0437194986
 21
179.4494578023
 31
0.0
  0
LINE
  5
110
330
D5
100
AcDbEntity
  8
TA-SMART_DN15_EX
  6
Continuous
 62
     7
100
AcDbLine
 10
280.0423028914
 20
184.6848879311
 30
0.0
 11
279.9111344033
 21
184.760618093
 31
0.0
  0
LINE
  5
111
330
D5
100
AcDbEntity
  8
TA-SMART_DN15_EX
  6
Continuous
 62
     7
100
AcDbLine
 10
272.1881344033
 20
184.760618093
 30
0.0
 11
272.0569659152
 21
184.6848879311
 31
0.0
  0
LINE
  5
112
330
D5
100
AcDbEntity
  8
TA-SMART_DN15_EX
  6
Continuous
 62
     7
100
AcDbLine
 10
272.1881344033
 20
186.260618093
 30
0.0
 11
272.1881344033
 21
184.760618093
 31
0.0
  0
LINE
  5
113
330
D5
100
AcDbEntity
  8
TA-SMART_DN15_EX
  6
Continuous
 62
     7
100
AcDbLine
 10
279.9111344033
 20
184.760618093
 30
0.0
 11
279.9111344033
 21
186.260618093
 31
0.0
  0
ENDBLK
  5
115
330
D5
100
AcDbEntity
  8
0
100
AcDbBlockEnd
  0
BLOCK
  5
15A
330
116
100
AcDbEntity
  8
0
100
AcDbBlockBegin
  2
SE2
 70
     0
 10
0.0
 20
0.0
 30
0.0
  3
SE2
  1

  0
LINE
  5
118
330
116
100
AcDbEntity
  8
TA-SMART_DN15_EX
  6
Continuous
 62
     7
100
AcDbLine
 10
80.2198481364
 20
76.1875849875
 30
0.0
 11
80.2198481364
 21
102.6875849875
 31
0.0
  0
LINE
  5
119
330
116
100
AcDbEntity
  8
TA-SMART_DN15_EX
  6
Continuous
 62
     7
100
AcDbLine
 10
80.9477886049
 20
95.6718130892
 30
0.0
 11
80.9477886049
 21
98.3733790726
 31
0.0
  0
LINE
  5
11A
330
116
100
AcDbEntity
  8
TA-SMART_DN15_EX
  6
Continuous
 62
     7
100
AcDbLine
 10
94.2198481364
 20
70.4375849875
 30
0.0
 11
94.2198481364
 21
108.4375849875
 31
0.0
  0
LINE
  5
11B
330
116
100
AcDbEntity
  8
TA-SMART_DN15_EX
  6
Continuous
 62
     7
100
AcDbLine
 10
96.7198481364
 20
110.9375849875
 30
0.0
 11
96.7198481364
 21
97.3274519065
 31
0.0
  0
LINE
  5
11C
330
116
100
AcDbEntity
  8
TA-SMART_DN15_EX
  6
Continuous
 62
     7
100
AcDbLine
 10
80.9477886049
 20
104.6076117753
 30
0.0
 11
80.9477886049
 21
104.6875849875
 31
0.0
  0
LINE
  5
11D
330
116
100
AcDbEntity
  8
TA-SMART_DN15_EX
  6
Continuous
 62
     7
100
AcDbLine
 10
80.9477886049
 20
74.2675594634
 30
0.0
 11
80.9477886049
 21
74.1875849875
 31
0.0
  0
LINE
  5
11E
330
116
100
AcDbEntity
  8
TA-SMART_DN15_EX
  6
Continuous
 62
     7
100
AcDbLine
 10
80.9477886049
 20
80.501797577
 30
0.0
 11
80.9477886049
 21
83.2033418517
 31
0.0
  0
ARC
  5
11F
330
116
100
AcDbEntity
  8
TA-SMART_DN15_EX
  6
Continuous
 62
     7
100
AcDbCircle
 10
120.9069947034
 20
89.4375774705
 30
0.0
 40
40.44259939436249
100
AcDbArc
 50
171.1324848284
 51
188.8675151716
  0
LINE
  5
120
330
116
100
AcDbEntity
  8
TA-SMART_DN15_EX
  6
Continuous
 62
     7
100
AcDbLine
 10
80.9477886049
 20
95.6718130892
 30
0.0
 11
94.2198481364
 21
95.6718130892
 31
0.0
  0
LINE
  5
121
330
116
100
AcDbEntity
  8
TA-SMART_DN15_EX
  6
Continuous
 62
     7
100
AcDbLine
 10
94.2198481364
 20
83.2033418517
 30
0.0
 11
80.9477886049
 21
83.2033418517
 31
0.0
  0
ARC
  5
122
330
116
100
AcDbEntity
  8
TA-SMART_DN15_EX
  6
Continuous
 62
     7
100
AcDbCircle
 10
90.7983070374
 20
77.3846783096
 30
0.0
 40
10.33194782778374
100
AcDbArc
 50
162.44043325
 51
197.55956675
  0
LINE
  5
123
330
116
100
AcDbEntity
  8
TA-SMART_DN15_EX
  6
Continuous
 62
     7
100
AcDbLine
 10
80.9477886049
 20
80.501797577
 30
0.0
 11
94.2198481364
 21
80.501797577
 31
0.0
  0
LINE
  5
124
330
116
100
AcDbEntity
  8
TA-SMART_DN15_EX
  6
Continuous
 62
     7
100
AcDbLine
 10
94.2198481364
 20
74.2675590422
 30
0.0
 11
80.9477886049
 21
74.2675590422
 31
0.0
  0
ARC
  5
125
330
116
100
AcDbEntity
  8
TA-SMART_DN15_EX
  6
Continuous
 62
     7
100
AcDbCircle
 10
90.7982882025
 20
101.4904954239
 30
0.0
 40
10.33192899072
100
AcDbArc
 50
162.4404171556
 51
197.5595828444
  0
LINE
  5
126
330
116
100
AcDbEntity
  8
TA-SMART_DN15_EX
  6
Continuous
 62
     7
100
AcDbLine
 10
80.9477886049
 20
104.6076117753
 30
0.0
 11
94.2198481364
 21
104.6076117753
 31
0.0
  0
LINE
  5
127
330
116
100
AcDbEntity
  8
TA-SMART_DN15_EX
  6
Continuous
 62
     7
100
AcDbLine
 10
94.2198481364
 20
98.3733790726
 30
0.0
 11
80.9477886049
 21
98.3733790726
 31
0.0
  0
LINE
  5
128
330
116
100
AcDbEntity
  8
TA-SMART_DN15_EX
  6
Continuous
 62
     7
100
AcDbLine
 10
111.7198481364
 20
110.9375849875
 30
0.0
 11
111.7198481364
 21
97.3274519065
 31
0.0
  0
LINE
  5
129
330
116
100
AcDbEntity
  8
TA-SMART_DN15_EX
  6
Continuous
 62
     7
100
AcDbLine
 10
114.2198481364
 20
70.4375849875
 30
0.0
 11
114.2198481364
 21
108.4375849875
 31
0.0
  0
LINE
  5
12A
330
116
100
AcDbEntity
  8
TA-SMART_DN15_EX
  6
Continuous
 62
     7
100
AcDbLine
 10
127.4919076678
 20
95.6718130892
 30
0.0
 11
127.4919076678
 21
98.3733790726
 31
0.0
  0
LINE
  5
12B
330
116
100
AcDbEntity
  8
TA-SMART_DN15_EX
  6
Continuous
 62
     7
100
AcDbLine
 10
128.2198481364
 20
76.1875849875
 30
0.0
 11
128.2198481364
 21
102.6875849875
 31
0.0
  0
LINE
  5
12C
330
116
100
AcDbEntity
  8
TA-SMART_DN15_EX
  6
Continuous
 62
     7
100
AcDbLine
 10
127.4919076678
 20
104.6076117753
 30
0.0
 11
127.4919076678
 21
104.6875849875
 31
0.0
  0
LINE
  5
12D
330
116
100
AcDbEntity
  8
TA-SMART_DN15_EX
  6
Continuous
 62
     7
100
AcDbLine
 10
127.4919076678
 20
74.2675594634
 30
0.0
 11
127.4919076678
 21
74.1875849875
 31
0.0
  0
LINE
  5
12E
330
116
100
AcDbEntity
  8
TA-SMART_DN15_EX
  6
Continuous
 62
     7
100
AcDbLine
 10
127.4919076678
 20
80.501797577
 30
0.0
 11
127.4919076678
 21
83.2033418517
 31
0.0
  0
ARC
  5
12F
330
116
100
AcDbEntity
  8
TA-SMART_DN15_EX
  6
Continuous
 62
     7
100
AcDbCircle
 10
87.5327015748
 20
89.4375774705
 30
0.0
 40
40.44259938897852
100
AcDbArc
 50
351.1324848273
 51
8.8675151727
  0
ARC
  5
130
330
116
100
AcDbEntity
  8
TA-SMART_DN15_EX
  6
Continuous
 62
     7
100
AcDbCircle
 10
117.6413892353
 20
77.3846783096
 30
0.0
 40
10.33194782778368
100
AcDbArc
 50
342.44043325
 51
17.55956675
  0
ARC
  5
131
330
116
100
AcDbEntity
  8
TA-SMART_DN15_EX
  6
Continuous
 62
     7
100
AcDbCircle
 10
117.6414080703
 20
101.4904954239
 30
0.0
 40
10.3319289907201
100
AcDbArc
 50
342.4404171556
 51
17.5595828444
  0
LINE
  5
132
330
116
100
AcDbEntity
  8
TA-SMART_DN15_EX
  6
Continuous
 62
     7
100
AcDbLine
 10
114.2198481364
 20
104.6076117753
 30
0.0
 11
127.4919076678
 21
104.6076117753
 31
0.0
  0
LINE
  5
133
330
116
100
AcDbEntity
  8
TA-SMART_DN15_EX
  6
Continuous
 62
     7
100
AcDbLine
 10
127.4919076678
 20
98.3733790726
 30
0.0
 11
114.2198481364
 21
98.3733790726
 31
0.0
  0
LINE
  5
134
330
116
100
AcDbEntity
  8
TA-SMART_DN15_EX
  6
Continuous
 62
     7
100
AcDbLine
 10
114.2198481364
 20
80.501797577
 30
0.0
 11
127.4919076678
 21
80.501797577
 31
0.0
  0
LINE
  5
135
330
116
100
AcDbEntity
  8
TA-SMART_DN15_EX
  6
Continuous
 62
     7
100
AcDbLine
 10
127.4919076678
 20
74.2675590422
 30
0.0
 11
114.2198481364
 21
74.2675590422
 31
0.0
  0
LINE
  5
136
330
116
100
AcDbEntity
  8
TA-SMART_DN15_EX
  6
Continuous
 62
     7
100
AcDbLine
 10
114.2198481364
 20
95.6718130892
 30
0.0
 11
127.4919076678
 21
95.6718130892
 31
0.0
  0
LINE
  5
137
330
116
100
AcDbEntity
  8
TA-SMART_DN15_EX
  6
Continuous
 62
     7
100
AcDbLine
 10
127.4919076678
 20
83.2033418517
 30
0.0
 11
114.2198481364
 21
83.2033418517
 31
0.0
  0
SPLINE
  5
138
330
116
100
AcDbEntity
  8
TA-SMART_DN15_EX
  6
Continuous
 62
     7
100
AcDbSpline
210
0.0
220
0.0
230
1.0
 70
     8
 71
     3
 72
    12
 73
     8
 74
     0
 42
0.000000001
 43
0.0000000001
 40
0.0
 40
0.0
 40
0.0
 40
0.0
 40
0.25
 40
0.25
 40
0.5
 40
0.5
 40
1.0
 40
1.0
 40
1.0
 40
1.0
 10
111.7198481363609
 20
81.54771806848665
 30
0.0
 10
112.1820418889738
 20
82.807202643215
 30
0.0
 10
112.5642213391889
 20
84.11507206400658
 30
0.0
 10
113.0821682260966
 20
86.75423305287525
 30
0.0
 10
113.2202708453493
 20
88.08984920683588
 30
0.0
 10
113.2189997808672
 20
92.15183158666198
 30
0.0
 10
112.6493796006485
 20
94.79446539520463
 30
0.0
 10
111.7198481363609
 20
97.32745190654619
 30
0.0
  0
LINE
  5
139
330
116
100
AcDbEntity
  8
TA-SMART_DN15_EX
  6
Continuous
 62
     7
100
AcDbLine
 10
111.7198481364
 20
81.5477180685
 30
0.0
 11
108.003034624
 21
81.5477180685
 31
0.0
  0
LINE
  5
13A
330
116
100
AcDbEntity
  8
TA-SMART_DN15_EX
  6
Continuous
 62
     7
100
AcDbLine
 10
111.7198481364
 20
97.3274519065
 30
0.0
 11
106.6416623495
 21
97.3274519065
 31
0.0
  0
SPLINE
  5
13B
330
116
100
AcDbEntity
  8
TA-SMART_DN15_EX
  6
Continuous
 62
     7
100
AcDbSpline
210
0.0
220
0.0
230
1.0
 70
     8
 71
     3
 72
    12
 73
     8
 74
     0
 42
0.000000001
 43
0.0000000001
 40
0.0
 40
0.0
 40
0.0
 40
0.0
 40
0.2500000000000001
 40
0.2500000000000001
 40
0.5000000000000001
 40
0.5000000000000001
 40
1.0
 40
1.0
 40
1.0
 40
1.0
 10
96.71984813636092
 20
81.54771806848665
 30
0.0
 10
96.25765438374802
 20
82.807202643215
 30
0.0
 10
95.87547493353296
 20
84.11507206400658
 30
0.0
 10
95.35752804662529
 20
86.75423305287525
 30
0.0
 10
95.21942542737253
 20
88.08984920683588
 30
0.0
 10
95.22069649185465
 20
92.15183158666198
 30
0.0
 10
95.79031667207332
 20
94.79446539520463
 30
0.0
 10
96.71984813636092
 20
97.32745190654619
 30
0.0
  0
LINE
  5
13C
330
116
100
AcDbEntity
  8
TA-SMART_DN15_EX
  6
Continuous
 62
     7
100
AcDbLine
 10
111.7198481364
 20
81.5477180685
 30
0.0
 11
111.7198481364
 21
67.9375849875
 31
0.0
  0
LINE
  5
13D
330
116
100
AcDbEntity
  8
TA-SMART_DN15_EX
  6
Continuous
 62
     7
100
AcDbLine
 10
96.7198481364
 20
81.5477180685
 30
0.0
 11
96.7198481364
 21
67.9375849875
 31
0.0
  0
LINE
  5
13E
330
116
100
AcDbEntity
  8
TA-SMART_DN15_EX
  6
Continuous
 62
     7
100
AcDbLine
 10
100.4366616488
 20
97.3274519065
 30
0.0
 11
96.7198481364
 21
97.3274519065
 31
0.0
  0
LINE
  5
13F
330
116
100
AcDbEntity
  8
TA-SMART_DN15_EX
  6
Continuous
 62
     7
100
AcDbLine
 10
101.7980339232
 20
81.5477180685
 30
0.0
 11
96.7198481364
 21
81.5477180685
 31
0.0
  0
ARC
  5
140
330
116
100
AcDbEntity
  8
TA-SMART_DN15_EX
  6
Continuous
 62
     7
100
AcDbCircle
 10
104.2198481364
 20
89.4375849875
 30
0.0
 40
8.750000000000002
100
AcDbArc
 50
354.2284955371
 51
4.0678111399
  0
ARC
  5
141
330
116
100
AcDbEntity
  8
TA-SMART_DN15_EX
  6
Continuous
 62
     7
100
AcDbCircle
 10
104.2198481364
 20
89.4375849875
 30
0.0
 40
8.749999999999993
100
AcDbArc
 50
54.2284955371
 51
64.0678111399
  0
ARC
  5
142
330
116
100
AcDbEntity
  8
TA-SMART_DN15_EX
  6
Continuous
 62
     7
100
AcDbCircle
 10
104.2198481364
 20
89.4375849875
 30
0.0
 40
8.750000000000002
100
AcDbArc
 50
114.2284955371
 51
124.0678111399
  0
ARC
  5
143
330
116
100
AcDbEntity
  8
TA-SMART_DN15_EX
  6
Continuous
 62
     7
100
AcDbCircle
 10
104.2198481364
 20
89.4375849875
 30
0.0
 40
8.749999999999998
100
AcDbArc
 50
174.2284955371
 51
184.0678111399
  0
ARC
  5
144
330
116
100
AcDbEntity
  8
TA-SMART_DN15_EX
  6
Continuous
 62
     7
100
AcDbCircle
 10
104.2198481364
 20
89.4375849875
 30
0.0
 40
8.749999999999995
100
AcDbArc
 50
234.2284955371
 51
244.0678111399
  0
ARC
  5
145
330
116
100
AcDbEntity
  8
TA-SMART_DN15_EX
  6
Continuous
 62
     7
100
AcDbCircle
 10
104.2198481364
 20
89.4375849875
 30
0.0
 40
8.750000000000005
100
AcDbArc
 50
294.2284955371
 51
304.0678111399
  0
LINE
  5
146
330
116
100
AcDbEntity
  8
TA-SMART_DN15_EX
  6
Continuous
 62
     7
100
AcDbLine
 10
112.925493032
 20
88.5576719518
 30
0.0
 11
109.1213680157
 21
82.1893022342
 31
0.0
  0
LINE
  5
147
330
116
100
AcDbEntity
  8
TA-SMART_DN15_EX
  6
Continuous
 62
     7
100
AcDbLine
 10
109.3346976262
 20
96.5369381056
 30
0.0
 11
112.9478050742
 21
90.0582843435
 31
0.0
  0
LINE
  5
148
330
116
100
AcDbEntity
  8
TA-SMART_DN15_EX
  6
Continuous
 62
     7
100
AcDbLine
 10
100.6290527306
 20
97.4168511413
 30
0.0
 11
108.0462851949
 21
97.3065670969
 31
0.0
  0
LINE
  5
149
330
116
100
AcDbEntity
  8
TA-SMART_DN15_EX
  6
Continuous
 62
     7
100
AcDbLine
 10
95.5142032407
 20
90.3174980232
 30
0.0
 11
99.318328257
 21
96.6858677408
 31
0.0
  0
LINE
  5
14A
330
116
100
AcDbEntity
  8
TA-SMART_DN15_EX
  6
Continuous
 62
     7
100
AcDbLine
 10
99.1049986465
 20
82.3382318694
 30
0.0
 11
95.4918911985
 21
88.8168856315
 31
0.0
  0
LINE
  5
14B
330
116
100
AcDbEntity
  8
TA-SMART_DN15_EX
  6
Continuous
 62
     7
100
AcDbLine
 10
107.8106435422
 20
81.4583188337
 30
0.0
 11
100.3934110779
 21
81.5686028782
 31
0.0
  0
LINE
  5
14C
330
116
100
AcDbEntity
  8
TA-SMART_DN15_EX
  6
Continuous
 62
     7
100
AcDbLine
 10
80.9477886049
 20
104.6875849875
 30
0.0
 11
80.2198481364
 21
102.6875849875
 31
0.0
  0
LINE
  5
14D
330
116
100
AcDbEntity
  8
TA-SMART_DN15_EX
  6
Continuous
 62
     7
100
AcDbLine
 10
80.2198481364
 20
76.1875849875
 30
0.0
 11
80.9477886049
 21
74.1875849875
 31
0.0
  0
LINE
  5
14E
330
116
100
AcDbEntity
  8
TA-SMART_DN15_EX
  6
Continuous
 62
     7
100
AcDbLine
 10
94.2198481364
 20
104.6875849875
 30
0.0
 11
80.9477886049
 21
104.6875849875
 31
0.0
  0
LINE
  5
14F
330
116
100
AcDbEntity
  8
TA-SMART_DN15_EX
  6
Continuous
 62
     7
100
AcDbLine
 10
80.9477886049
 20
74.1875849875
 30
0.0
 11
94.2198481364
 21
74.1875849875
 31
0.0
  0
LINE
  5
150
330
116
100
AcDbEntity
  8
TA-SMART_DN15_EX
  6
Continuous
 62
     7
100
AcDbLine
 10
111.7198481364
 20
67.9375849875
 30
0.0
 11
114.2198481364
 21
70.4375849875
 31
0.0
  0
LINE
  5
151
330
116
100
AcDbEntity
  8
TA-SMART_DN15_EX
  6
Continuous
 62
     7
100
AcDbLine
 10
114.2198481364
 20
108.4375849875
 30
0.0
 11
111.7198481364
 21
110.9375849875
 31
0.0
  0
LINE
  5
152
330
116
100
AcDbEntity
  8
TA-SMART_DN15_EX
  6
Continuous
 62
     7
100
AcDbLine
 10
127.4919076678
 20
74.1875849875
 30
0.0
 11
128.2198481364
 21
76.1875849875
 31
0.0
  0
LINE
  5
153
330
116
100
AcDbEntity
  8
TA-SMART_DN15_EX
  6
Continuous
 62
     7
100
AcDbLine
 10
128.2198481364
 20
102.6875849875
 30
0.0
 11
127.4919076678
 21
104.6875849875
 31
0.0
  0
LINE
  5
154
330
116
100
AcDbEntity
  8
TA-SMART_DN15_EX
  6
Continuous
 62
     7
100
AcDbLine
 10
114.2198481364
 20
74.1875849875
 30
0.0
 11
127.4919076678
 21
74.1875849875
 31
0.0
  0
LINE
  5
155
330
116
100
AcDbEntity
  8
TA-SMART_DN15_EX
  6
Continuous
 62
     7
100
AcDbLine
 10
127.4919076678
 20
104.6875849875
 30
0.0
 11
114.2198481364
 21
104.6875849875
 31
0.0
  0
LINE
  5
156
330
116
100
AcDbEntity
  8
TA-SMART_DN15_EX
  6
Continuous
 62
     7
100
AcDbLine
 10
96.7198481364
 20
67.9375849875
 30
0.0
 11
111.7198481364
 21
67.9375849875
 31
0.0
  0
LINE
  5
157
330
116
100
AcDbEntity
  8
TA-SMART_DN15_EX
  6
Continuous
 62
     7
100
AcDbLine
 10
96.7198481364
 20
110.9375849875
 30
0.0
 11
94.2198481364
 21
108.4375849875
 31
0.0
  0
LINE
  5
158
330
116
100
AcDbEntity
  8
TA-SMART_DN15_EX
  6
Continuous
 62
     7
100
AcDbLine
 10
94.2198481364
 20
70.4375849875
 30
0.0
 11
96.7198481364
 21
67.9375849875
 31
0.0
  0
LINE
  5
159
330
116
100
AcDbEntity
  8
TA-SMART_DN15_EX
  6
Continuous
 62
     7
100
AcDbLine
 10
111.7198481364
 20
110.9375849875
 30
0.0
 11
96.7198481364
 21
110.9375849875
 31
0.0
  0
ENDBLK
  5
15B
330
116
100
AcDbEntity
  8
0
100
AcDbBlockEnd
  0
BLOCK
  5
19B
330
15C
100
AcDbEntity
  8
0
100
AcDbBlockBegin
  2
SE3
 70
     0
 10
0.0
 20
0.0
 30
0.0
  3
SE3
  1

  0
CIRCLE
  5
15E
330
15C
100
AcDbEntity
  8
TA-SMART_DN15_EX
  6
Continuous
 62
     7
100
AcDbCircle
 10
209.7798318236
 20
89.4375849875
 30
0.0
 40
13.25
  0
ARC
  5
15F
330
15C
100
AcDbEntity
  8
TA-SMART_DN15_EX
  6
Continuous
 62
     7
100
AcDbCircle
 10
209.7798318236
 20
89.4375849875
 30
0.0
 40
15.25
100
AcDbArc
 50
24.1295906325
 51
35.8703938944
  0
CIRCLE
  5
160
330
15C
100
AcDbEntity
  8
TA-SMART_DN15_EX
  6
Continuous
 62
     7
100
AcDbCircle
 10
209.7798318236
 20
89.4375849875
 30
0.0
 40
19.0
  0
ARC
  5
161
330
15C
100
AcDbEntity
  8
TA-SMART_DN15_EX
  6
Continuous
 62
     7
100
AcDbCircle
 10
209.7798318236
 20
89.4375849875
 30
0.0
 40
21.5
100
AcDbArc
 50
21.5289044056
 51
158.4710955944
  0
ARC
  5
162
330
15C
100
AcDbEntity
  8
TA-SMART_DN15_EX
  6
Continuous
 62
     7
100
AcDbCircle
 10
209.7798318236
 20
89.4375849875
 30
0.0
 40
15.25
100
AcDbArc
 50
84.1296370519
 51
95.870347475
  0
ARC
  5
163
330
15C
100
AcDbEntity
  8
TA-SMART_DN15_EX
  6
Continuous
 62
     7
100
AcDbCircle
 10
209.7798318236
 20
89.4375849875
 30
0.0
 40
15.25
100
AcDbArc
 50
144.1295906325
 51
155.8703938943
  0
ARC
  5
164
330
15C
100
AcDbEntity
  8
TA-SMART_DN15_EX
  6
Continuous
 62
     7
100
AcDbCircle
 10
209.7798318236
 20
89.4375849875
 30
0.0
 40
15.25
100
AcDbArc
 50
204.1296370519
 51
215.870347475
  0
ARC
  5
165
330
15C
100
AcDbEntity
  8
TA-SMART_DN15_EX
  6
Continuous
 62
     7
100
AcDbCircle
 10
209.7798318236
 20
89.4375849875
 30
0.0
 40
15.25
100
AcDbArc
 50
264.1295906325
 51
275.8703938943
  0
ARC
  5
166
330
15C
100
AcDbEntity
  8
TA-SMART_DN15_EX
  6
Continuous
 62
     7
100
AcDbCircle
 10
209.7798318236
 20
89.4375849875
 30
0.0
 40
15.25
100
AcDbArc
 50
324.1296370519
 51
335.870347475
  0
LINE
  5
167
330
15C
100
AcDbEntity
  8
TA-SMART_DN15_EX
  6
Continuous
 62
     7
100
AcDbLine
 10
223.6973284564
 20
83.2033418517
 30
0.0
 11
223.6973351908
 21
95.6718130892
 31
0.0
  0
LINE
  5
168
330
15C
100
AcDbEntity
  8
TA-SMART_DN15_EX
  6
Continuous
 62
     7
100
AcDbLine
 10
211.3395795014
 20
74.2675590422
 30
0.0
 11
222.1375906558
 21
80.501797577
 31
0.0
  0
LINE
  5
169
330
15C
100
AcDbEntity
  8
TA-SMART_DN15_EX
  6
Continuous
 62
     7
100
AcDbLine
 10
197.4220705782
 20
80.5018009143
 30
0.0
 11
208.2200800491
 21
74.2675594634
 31
0.0
  0
LINE
  5
16A
330
15C
100
AcDbEntity
  8
TA-SMART_DN15_EX
  6
Continuous
 62
     7
100
AcDbLine
 10
195.86233014
 20
95.6718168478
 30
0.0
 11
195.8623335072
 21
83.2033456103
 31
0.0
  0
LINE
  5
16B
330
15C
100
AcDbEntity
  8
TA-SMART_DN15_EX
  6
Continuous
 62
     7
100
AcDbLine
 10
208.2200964362
 20
104.6076121965
 30
0.0
 11
197.4220802309
 21
98.3733824099
 31
0.0
  0
LINE
  5
16C
330
15C
100
AcDbEntity
  8
TA-SMART_DN15_EX
  6
Continuous
 62
     7
100
AcDbLine
 10
222.1375858294
 20
98.3733790726
 30
0.0
 11
211.3395713078
 21
104.6076117753
 31
0.0
  0
CIRCLE
  5
16D
330
15C
100
AcDbEntity
  8
TA-SMART_DN15_EX
  6
Continuous
 62
     7
100
AcDbCircle
 10
209.7798318236
 20
89.4375849875
 30
0.0
 40
9.4125
  0
LINE
  5
16E
330
15C
100
AcDbEntity
  8
TA-SMART_DN15_EX
  6
Continuous
 62
     7
100
AcDbLine
 10
229.7798318236
 20
81.5477180685
 30
0.0
 11
229.7798318236
 21
97.3274519065
 31
0.0
  0
ARC
  5
16F
330
15C
100
AcDbEntity
  8
TA-SMART_DN15_EX
  6
Continuous
 62
     7
100
AcDbCircle
 10
209.7798318236
 20
89.4375849875
 30
0.0
 40
21.5
100
AcDbArc
 50
201.5289044056
 51
338.4710955944
  0
LINE
  5
170
330
15C
100
AcDbEntity
  8
TA-SMART_DN15_EX
  6
Continuous
 62
     7
100
AcDbLine
 10
189.7798318236
 20
97.3274519065
 30
0.0
 11
189.7798318236
 21
81.5477180685
 31
0.0
  0
LINE
  5
171
330
15C
100
AcDbEntity
  8
TA-SMART_DN15_EX
  6
Continuous
 62
     7
100
AcDbLine
 10
237.7798318236
 20
97.4168511413
 30
0.0
 11
237.7798318236
 21
96.6858677408
 31
0.0
  0
LINE
  5
172
330
15C
100
AcDbEntity
  8
TA-SMART_DN15_EX
  6
Continuous
 62
     7
100
AcDbLine
 10
237.7798318236
 20
90.3174980232
 30
0.0
 11
237.7798318236
 21
88.8168856315
 31
0.0
  0
LINE
  5
173
330
15C
100
AcDbEntity
  8
TA-SMART_DN15_EX
  6
Continuous
 62
     7
100
AcDbLine
 10
237.7798318236
 20
82.3382318694
 30
0.0
 11
237.7798318236
 21
81.5686028782
 31
0.0
  0
LINE
  5
174
330
15C
100
AcDbEntity
  8
TA-SMART_DN15_EX
  6
Continuous
 62
     7
100
AcDbLine
 10
237.7798318236
 20
97.4168511413
 30
0.0
 11
229.7443331108
 21
97.4168511413
 31
0.0
  0
LINE
  5
175
330
15C
100
AcDbEntity
  8
TA-SMART_DN15_EX
  6
Continuous
 62
     7
100
AcDbLine
 10
237.7798318236
 20
90.3174980232
 30
0.0
 11
237.7798318236
 21
96.6858677408
 31
0.0
  0
LINE
  5
176
330
15C
100
AcDbEntity
  8
TA-SMART_DN15_EX
  6
Continuous
 62
     7
100
AcDbLine
 10
237.7798318236
 20
96.6858677408
 30
0.0
 11
229.7798318236
 21
96.6858677408
 31
0.0
  0
LINE
  5
177
330
15C
100
AcDbEntity
  8
TA-SMART_DN15_EX
  6
Continuous
 62
     7
100
AcDbLine
 10
237.7798318236
 20
90.3174980232
 30
0.0
 11
229.7798318236
 21
90.3174980232
 31
0.0
  0
LINE
  5
178
330
15C
100
AcDbEntity
  8
TA-SMART_DN15_EX
  6
Continuous
 62
     7
100
AcDbLine
 10
237.7798318236
 20
82.3382318694
 30
0.0
 11
237.7798318236
 21
88.8168856315
 31
0.0
  0
LINE
  5
179
330
15C
100
AcDbEntity
  8
TA-SMART_DN15_EX
  6
Continuous
 62
     7
100
AcDbLine
 10
237.7798318236
 20
88.8168856315
 30
0.0
 11
229.7798318236
 21
88.8168856315
 31
0.0
  0
LINE
  5
17A
330
15C
100
AcDbEntity
  8
TA-SMART_DN15_EX
  6
Continuous
 62
     7
100
AcDbLine
 10
237.7798318236
 20
82.3382318694
 30
0.0
 11
229.7798318236
 21
82.3382318694
 31
0.0
  0
LINE
  5
17B
330
15C
100
AcDbEntity
  8
TA-SMART_DN15_EX
  6
Continuous
 62
     7
100
AcDbLine
 10
237.7798318236
 20
81.4583188337
 30
0.0
 11
237.7798318236
 21
81.5686028782
 31
0.0
  0
LINE
  5
17C
330
15C
100
AcDbEntity
  8
TA-SMART_DN15_EX
  6
Continuous
 62
     7
100
AcDbLine
 10
237.7798318236
 20
81.5686028782
 30
0.0
 11
229.7798318236
 21
81.5686028782
 31
0.0
  0
LINE
  5
17D
330
15C
100
AcDbEntity
  8
TA-SMART_DN15_EX
  6
Continuous
 62
     7
100
AcDbLine
 10
237.7798318236
 20
81.4583188337
 30
0.0
 11
229.7443331108
 21
81.4583188337
 31
0.0
  0
LINE
  5
17E
330
15C
100
AcDbEntity
  8
TA-SMART_DN15_EX
  6
Continuous
 62
     7
100
AcDbLine
 10
183.1164124759
 20
89.7691344483
 30
0.0
 11
183.1164124759
 21
90.3556479785
 31
0.0
  0
LINE
  5
17F
330
15C
100
AcDbEntity
  8
TA-SMART_DN15_EX
  6
Continuous
 62
     7
100
AcDbLine
 10
183.1164124759
 20
93.4030381538
 30
0.0
 11
183.1164124759
 21
93.6232597794
 31
0.0
  0
LINE
  5
180
330
15C
100
AcDbEntity
  8
TA-SMART_DN15_EX
  6
Continuous
 62
     7
100
AcDbLine
 10
183.1164124759
 20
85.803681282
 30
0.0
 11
183.1164124759
 21
86.1699731866
 31
0.0
  0
ARC
  5
181
330
15C
100
AcDbEntity
  8
TA-SMART_DN15_EX
  6
Continuous
 62
     7
100
AcDbCircle
 10
181.8316164071
 20
87.9695538175
 30
0.0
 40
6.395708926435852
100
AcDbArc
 50
343.6578255798
 51
16.3421744202
  0
ARC
  5
182
330
15C
100
AcDbEntity
  8
TA-SMART_DN15_EX
  6
Continuous
 62
     7
100
AcDbCircle
 10
183.6032147997
 20
91.8793430662
 30
0.0
 40
4.623970654218844
100
AcDbArc
 50
340.7602998161
 51
19.2397001839
  0
SPLINE
  5
183
330
15C
100
AcDbEntity
  8
TA-SMART_DN15_EX
  6
Continuous
 62
     7
100
AcDbSpline
210
0.0
220
0.0
230
1.0
 70
     8
 71
     3
 72
     8
 73
     4
 74
     0
 42
0.000000001
 43
0.0000000001
 40
0.0
 40
0.0
 40
0.0
 40
0.0
 40
0.3560521784005194
 40
0.3560521784005194
 40
0.3560521784005194
 40
0.3560521784005194
 10
187.9689287036447
 20
93.62325977938808
 30
0.0
 10
188.0837726021075
 20
93.5589982311773
 30
0.0
 10
188.1666022831072
 20
93.49408209192107
 30
0.0
 10
188.2049174965985
 20
93.42825577043541
 30
0.0
  0
SPLINE
  5
184
330
15C
100
AcDbEntity
  8
TA-SMART_DN15_EX
  6
Continuous
 62
     7
100
AcDbSpline
210
0.0
220
0.0
230
1.0
 70
     8
 71
     3
 72
    12
 73
     8
 74
     0
 42
0.000000001
 43
0.0000000001
 40
0.0
 40
0.0
 40
0.0
 40
0.0
 40
0.5
 40
0.5
 40
0.75
 40
0.75
 40
1.0
 40
1.0
 40
1.0
 40
1.0
 10
187.9689287036447
 20
85.25191019564474
 30
0.0
 10
188.1302026761545
 20
85.34215195248423
 30
0.0
 10
188.2283437681654
 20
85.43368458011562
 30
0.0
 10
188.228930783468
 20
85.57398153846506
 30
0.0
 10
188.2048714935294
 20
85.62079075015801
 30
0.0
 10
188.1151543000564
 20
85.71290211219073
 30
0.0
 10
188.0497222977977
 20
85.75847277276516
 30
0.0
 10
187.9689287036448
 20
85.80368128201363
 30
0.0
  0
LINE
  5
185
330
15C
100
AcDbEntity
  8
TA-SMART_DN15_EX
  6
Continuous
 62
     7
100
AcDbLine
 10
188.2798318236
 20
85.5760849875
 30
0.0
 11
188.2798318236
 21
93.2990849875
 31
0.0
  0
LINE
  5
186
330
15C
100
AcDbEntity
  8
TA-SMART_DN15_EX
  6
Continuous
 62
     7
100
AcDbLine
 10
182.8798318236
 20
85.6875849875
 30
0.0
 11
182.8798318236
 21
93.1875849875
 31
0.0
  0
ARC
  5
187
330
15C
100
AcDbEntity
  8
TA-SMART_DN15_EX
  6
Continuous
 62
     7
100
AcDbCircle
 10
192.920830861
 20
87.9695538175
 30
0.0
 40
9.968204969723601
100
AcDbArc
 50
169.5992473683
 51
190.4007526317
  0
ARC
  5
188
330
15C
100
AcDbEntity
  8
TA-SMART_DN15_EX
  6
Continuous
 62
     7
100
AcDbCircle
 10
190.1219324394
 20
91.8793430662
 30
0.0
 40
7.169306568907813
100
AcDbArc
 50
167.7293226274
 51
192.2706773726
  0
SPLINE
  5
189
330
15C
100
AcDbEntity
  8
TA-SMART_DN15_EX
  6
Continuous
 62
     7
100
AcDbSpline
210
0.0
220
0.0
230
1.0
 70
     8
 71
     3
 72
     8
 73
     4
 74
     0
 42
0.000000001
 43
0.0000000001
 40
0.6466640247840234
 40
0.6466640247840234
 40
0.6466640247840234
 40
0.6466640247840234
 40
1.0
 40
1.0
 40
1.0
 40
1.0
 10
182.9677367954506
 20
93.42829920448997
 30
0.0
 10
182.9916669736888
 20
93.49328606278935
 30
0.0
 10
183.043196006996
 20
93.55827292108872
 30
0.0
 10
183.1164124758764
 20
93.62325977938808
 30
0.0
  0
SPLINE
  5
18A
330
15C
100
AcDbEntity
  8
TA-SMART_DN15_EX
  6
Continuous
 62
     7
100
AcDbSpline
210
0.0
220
0.0
230
1.0
 70
     8
 71
     3
 72
     9
 73
     5
 74
     0
 42
0.000000001
 43
0.0000000001
 40
0.0
 40
0.0
 40
0.0
 40
0.0
 40
0.5
 40
1.0
 40
1.0
 40
1.0
 40
1.0
 10
183.1164124758764
 20
85.80368128201363
 30
0.0
 10
183.0128050398722
 20
85.71171943428548
 30
0.0
 10
182.892446701041
 20
85.52779573882918
 30
0.0
 10
183.0128050398721
 20
85.34387204337288
 30
0.0
 10
183.1164124758764
 20
85.25191019564475
 30
0.0
  0
LINE
  5
18B
330
15C
100
AcDbEntity
  8
TA-SMART_DN15_EX
  6
Continuous
 62
     7
100
AcDbLine
 10
187.9689287036
 20
90.3556479785
 30
0.0
 11
187.9689287036
 21
89.7691344483
 31
0.0
  0
LINE
  5
18C
330
15C
100
AcDbEntity
  8
TA-SMART_DN15_EX
  6
Continuous
 62
     7
100
AcDbLine
 10
183.1164124759
 20
89.7691344483
 30
0.0
 11
187.9689287036
 21
89.7691344483
 31
0.0
  0
LINE
  5
18D
330
15C
100
AcDbEntity
  8
TA-SMART_DN15_EX
  6
Continuous
 62
     7
100
AcDbLine
 10
187.9689287036
 20
90.3556479785
 30
0.0
 11
183.1164124759
 21
90.3556479785
 31
0.0
  0
LINE
  5
18E
330
15C
100
AcDbEntity
  8
TA-SMART_DN15_EX
  6
Continuous
 62
     7
100
AcDbLine
 10
187.9689287036
 20
93.6232597794
 30
0.0
 11
187.9689287036
 21
93.4030381538
 31
0.0
  0
LINE
  5
18F
330
15C
100
AcDbEntity
  8
TA-SMART_DN15_EX
  6
Continuous
 62
     7
100
AcDbLine
 10
183.1164124759
 20
93.4030381538
 30
0.0
 11
187.9689287036
 21
93.4030381538
 31
0.0
  0
LINE
  5
190
330
15C
100
AcDbEntity
  8
TA-SMART_DN15_EX
  6
Continuous
 62
     7
100
AcDbLine
 10
187.9689287036
 20
93.6232597794
 30
0.0
 11
183.1164124759
 21
93.6232597794
 31
0.0
  0
LINE
  5
191
330
15C
100
AcDbEntity
  8
TA-SMART_DN15_EX
  6
Continuous
 62
     7
100
AcDbLine
 10
187.9689287036
 20
85.2519101956
 30
0.0
 11
183.1164124759
 21
85.2519101956
 31
0.0
  0
LINE
  5
192
330
15C
100
AcDbEntity
  8
TA-SMART_DN15_EX
  6
Continuous
 62
     7
100
AcDbLine
 10
187.9689287036
 20
86.1699731866
 30
0.0
 11
187.9689287036
 21
85.803681282
 31
0.0
  0
LINE
  5
193
330
15C
100
AcDbEntity
  8
TA-SMART_DN15_EX
  6
Continuous
 62
     7
100
AcDbLine
 10
187.9689287036
 20
86.1699731866
 30
0.0
 11
183.1164124759
 21
86.1699731866
 31
0.0
  0
LINE
  5
194
330
15C
100
AcDbEntity
  8
TA-SMART_DN15_EX
  6
Continuous
 62
     7
100
AcDbLine
 10
183.1164124759
 20
85.803681282
 30
0.0
 11
187.9689287036
 21
85.803681282
 31
0.0
  0
LINE
  5
195
330
15C
100
AcDbEntity
  8
TA-SMART_DN15_EX
  6
Continuous
 62
     7
100
AcDbLine
 10
182.9686715329
 20
93.4316700828
 30
0.0
 11
182.8798318236
 21
93.1875849875
 31
0.0
  0
LINE
  5
196
330
15C
100
AcDbEntity
  8
TA-SMART_DN15_EX
  6
Continuous
 62
     7
100
AcDbLine
 10
182.8798318236
 20
85.6875849875
 30
0.0
 11
182.9686715329
 21
85.4434998922
 31
0.0
  0
LINE
  5
197
330
15C
100
AcDbEntity
  8
TA-SMART_DN15_EX
  6
Continuous
 62
     7
100
AcDbLine
 10
188.2041016617
 20
85.4449164994
 30
0.0
 11
188.2798318236
 21
85.5760849875
 31
0.0
  0
LINE
  5
198
330
15C
100
AcDbEntity
  8
TA-SMART_DN15_EX
  6
Continuous
 62
     7
100
AcDbLine
 10
188.2798318236
 20
93.2990849875
 30
0.0
 11
188.2041016617
 21
93.4302534756
 31
0.0
  0
LINE
  5
199
330
15C
100
AcDbEntity
  8
TA-SMART_DN15_EX
  6
Continuous
 62
     7
100
AcDbLine
 10
189.7798318236
 20
93.2990849875
 30
0.0
 11
188.2798318236
 21
93.2990849875
 31
0.0
  0
LINE
  5
19A
330
15C
100
AcDbEntity
  8
TA-SMART_DN15_EX
  6
Continuous
 62
     7
100
AcDbLine
 10
188.2798318236
 20
85.5760849875
 30
0.0
 11
189.7798318236
 21
85.5760849875
 31
0.0
  0
ENDBLK
  5
19C
330
15C
100
AcDbEntity
  8
0
100
AcDbBlockEnd
  0
BLOCK
  5
1E0
330
19D
100
AcDbEntity
  8
0
100
AcDbBlockBegin
  2
SE4
 70
     0
 10
0.0
 20
0.0
 30
0.0
  3
SE4
  1

  0
LINE
  5
19F
330
19D
100
AcDbEntity
  8
TA-SMART_DN15_EX
  6
Continuous
 62
     7
100
AcDbLine
 10
331.9566089546
 20
76.1875849875
 30
0.0
 11
331.9566089546
 21
102.6875849875
 31
0.0
  0
LINE
  5
1A0
330
19D
100
AcDbEntity
  8
TA-SMART_DN15_EX
  6
Continuous
 62
     7
100
AcDbLine
 10
317.9566089546
 20
70.4375849875
 30
0.0
 11
317.9566089546
 21
108.4375849875
 31
0.0
  0
LINE
  5
1A1
330
19D
100
AcDbEntity
  8
TA-SMART_DN15_EX
  6
Continuous
 62
     7
100
AcDbLine
 10
315.4566089546
 20
110.9375849875
 30
0.0
 11
315.4566089546
 21
97.3274519065
 31
0.0
  0
LINE
  5
1A2
330
19D
100
AcDbEntity
  8
TA-SMART_DN15_EX
  6
Continuous
 62
     7
100
AcDbLine
 10
331.2286684861
 20
104.6076117753
 30
0.0
 11
331.2286684861
 21
104.6875849875
 31
0.0
  0
LINE
  5
1A3
330
19D
100
AcDbEntity
  8
TA-SMART_DN15_EX
  6
Continuous
 62
     7
100
AcDbLine
 10
331.2286684861
 20
98.3733824099
 30
0.0
 11
331.2286684861
 21
95.6718168478
 31
0.0
  0
LINE
  5
1A4
330
19D
100
AcDbEntity
  8
TA-SMART_DN15_EX
  6
Continuous
 62
     7
100
AcDbLine
 10
331.2286684861
 20
83.2033456103
 30
0.0
 11
331.2286684861
 21
80.5018009143
 31
0.0
  0
LINE
  5
1A5
330
19D
100
AcDbEntity
  8
TA-SMART_DN15_EX
  6
Continuous
 62
     7
100
AcDbLine
 10
331.2286684861
 20
74.2675594634
 30
0.0
 11
331.2286684861
 21
74.1875849875
 31
0.0
  0
ARC
  5
1A6
330
19D
100
AcDbEntity
  8
TA-SMART_DN15_EX
  6
Continuous
 62
     7
100
AcDbCircle
 10
321.3781406361
 20
77.3846801889
 30
0.0
 40
10.33195724632654
100
AcDbArc
 50
342.4404412972
 51
17.5595587028
  0
LINE
  5
1A7
330
19D
100
AcDbEntity
  8
TA-SMART_DN15_EX
  6
Continuous
 62
     7
100
AcDbLine
 10
331.2286684861
 20
74.2675594634
 30
0.0
 11
317.9566089546
 21
74.2675594634
 31
0.0
  0
LINE
  5
1A8
330
19D
100
AcDbEntity
  8
TA-SMART_DN15_EX
  6
Continuous
 62
     7
100
AcDbLine
 10
317.9566089546
 20
80.5018009143
 30
0.0
 11
331.2286684861
 21
80.5018009143
 31
0.0
  0
ARC
  5
1A9
330
19D
100
AcDbEntity
  8
TA-SMART_DN15_EX
  6
Continuous
 62
     7
100
AcDbCircle
 10
291.269462393
 20
89.437581229
 30
0.0
 40
40.44259938898658
100
AcDbArc
 50
351.1324848273
 51
8.8675151727
  0
LINE
  5
1AA
330
19D
100
AcDbEntity
  8
TA-SMART_DN15_EX
  6
Continuous
 62
     7
100
AcDbLine
 10
331.2286684861
 20
83.2033456103
 30
0.0
 11
317.9566089546
 21
83.2033456103
 31
0.0
  0
LINE
  5
1AB
330
19D
100
AcDbEntity
  8
TA-SMART_DN15_EX
  6
Continuous
 62
     7
100
AcDbLine
 10
317.9566089546
 20
95.6718168478
 30
0.0
 11
331.2286684861
 21
95.6718168478
 31
0.0
  0
ARC
  5
1AC
330
19D
100
AcDbEntity
  8
TA-SMART_DN15_EX
  6
Continuous
 62
     7
100
AcDbCircle
 10
321.378178306
 20
101.4904973032
 30
0.0
 40
10.33191957218606
100
AcDbArc
 50
342.4404091084
 51
17.5595908916
  0
LINE
  5
1AD
330
19D
100
AcDbEntity
  8
TA-SMART_DN15_EX
  6
Continuous
 62
     7
100
AcDbLine
 10
331.2286684861
 20
98.3733824099
 30
0.0
 11
317.9566089546
 21
98.3733824099
 31
0.0
  0
LINE
  5
1AE
330
19D
100
AcDbEntity
  8
TA-SMART_DN15_EX
  6
Continuous
 62
     7
100
AcDbLine
 10
317.9566089546
 20
104.6076121965
 30
0.0
 11
331.2286684861
 21
104.6076121965
 31
0.0
  0
LINE
  5
1AF
330
19D
100
AcDbEntity
  8
TA-SMART_DN15_EX
  6
Continuous
 62
     7
100
AcDbLine
 10
300.4566089546
 20
110.9375849875
 30
0.0
 11
300.4566089546
 21
97.3274519065
 31
0.0
  0
LINE
  5
1B0
330
19D
100
AcDbEntity
  8
TA-SMART_DN15_EX
  6
Continuous
 62
     7
100
AcDbLine
 10
297.9566089546
 20
70.4375849875
 30
0.0
 11
297.9566089546
 21
108.4375849875
 31
0.0
  0
LINE
  5
1B1
330
19D
100
AcDbEntity
  8
TA-SMART_DN15_EX
  6
Continuous
 62
     7
100
AcDbLine
 10
283.9566089546
 20
76.1875849875
 30
0.0
 11
283.9566089546
 21
102.6875849875
 31
0.0
  0
LINE
  5
1B2
330
19D
100
AcDbEntity
  8
TA-SMART_DN15_EX
  6
Continuous
 62
     7
100
AcDbLine
 10
284.6845494231
 20
104.6076117753
 30
0.0
 11
284.6845494231
 21
104.6875849875
 31
0.0
  0
LINE
  5
1B3
330
19D
100
AcDbEntity
  8
TA-SMART_DN15_EX
  6
Continuous
 62
     7
100
AcDbLine
 10
284.6845494231
 20
98.3733824099
 30
0.0
 11
284.6845494231
 21
95.6718168478
 31
0.0
  0
LINE
  5
1B4
330
19D
100
AcDbEntity
  8
TA-SMART_DN15_EX
  6
Continuous
 62
     7
100
AcDbLine
 10
284.6845494231
 20
83.2033456103
 30
0.0
 11
284.6845494231
 21
80.5018009143
 31
0.0
  0
LINE
  5
1B5
330
19D
100
AcDbEntity
  8
TA-SMART_DN15_EX
  6
Continuous
 62
     7
100
AcDbLine
 10
284.6845494231
 20
74.2675594634
 30
0.0
 11
284.6845494231
 21
74.1875849875
 31
0.0
  0
ARC
  5
1B6
330
19D
100
AcDbEntity
  8
TA-SMART_DN15_EX
  6
Continuous
 62
     7
100
AcDbCircle
 10
294.5350772731
 20
77.3846801889
 30
0.0
 40
10.33195724632647
100
AcDbArc
 50
162.4404412972
 51
197.5595587028
  0
ARC
  5
1B7
330
19D
100
AcDbEntity
  8
TA-SMART_DN15_EX
  6
Continuous
 62
     7
100
AcDbCircle
 10
324.6437555217
 20
89.437581229
 30
0.0
 40
40.44259939437018
100
AcDbArc
 50
171.1324848284
 51
188.8675151716
  0
ARC
  5
1B8
330
19D
100
AcDbEntity
  8
TA-SMART_DN15_EX
  6
Continuous
 62
     7
100
AcDbCircle
 10
294.5350396032
 20
101.4904973032
 30
0.0
 40
10.33191957218611
100
AcDbArc
 50
162.4404091084
 51
197.5595908916
  0
LINE
  5
1B9
330
19D
100
AcDbEntity
  8
TA-SMART_DN15_EX
  6
Continuous
 62
     7
100
AcDbLine
 10
297.9566089546
 20
98.3733824099
 30
0.0
 11
284.6845494231
 21
98.3733824099
 31
0.0
  0
LINE
  5
1BA
330
19D
100
AcDbEntity
  8
TA-SMART_DN15_EX
  6
Continuous
 62
     7
100
AcDbLine
 10
284.6845494231
 20
104.6076121965
 30
0.0
 11
297.9566089546
 21
104.6076121965
 31
0.0
  0
LINE
  5
1BB
330
19D
100
AcDbEntity
  8
TA-SMART_DN15_EX
  6
Continuous
 62
     7
100
AcDbLine
 10
297.9566089546
 20
83.2033456103
 30
0.0
 11
284.6845494231
 21
83.2033456103
 31
0.0
  0
LINE
  5
1BC
330
19D
100
AcDbEntity
  8
TA-SMART_DN15_EX
  6
Continuous
 62
     7
100
AcDbLine
 10
284.6845494231
 20
95.6718168478
 30
0.0
 11
297.9566089546
 21
95.6718168478
 31
0.0
  0
LINE
  5
1BD
330
19D
100
AcDbEntity
  8
TA-SMART_DN15_EX
  6
Continuous
 62
     7
100
AcDbLine
 10
297.9566089546
 20
74.2675594634
 30
0.0
 11
284.6845494231
 21
74.2675594634
 31
0.0
  0
LINE
  5
1BE
330
19D
100
AcDbEntity
  8
TA-SMART_DN15_EX
  6
Continuous
 62
     7
100
AcDbLine
 10
284.6845494231
 20
80.5018009143
 30
0.0
 11
297.9566089546
 21
80.5018009143
 31
0.0
  0
LINE
  5
1BF
330
19D
100
AcDbEntity
  8
TA-SMART_DN15_EX
  6
Continuous
 62
     7
100
AcDbLine
 10
300.4566089546
 20
81.5477180685
 30
0.0
 11
300.4566089546
 21
67.9375849875
 31
0.0
  0
SPLINE
  5
1C0
330
19D
100
AcDbEntity
  8
TA-SMART_DN15_EX
  6
Continuous
 62
     7
100
AcDbSpline
210
0.0
220
0.0
230
1.0
 70
     8
 71
     3
 72
    12
 73
     8
 74
     0
 42
0.000000001
 43
0.0000000001
 40
0.0
 40
0.0
 40
0.0
 40
0.0
 40
0.5
 40
0.5
 40
0.75
 40
0.75
 40
1.0
 40
1.0
 40
1.0
 40
1.0
 10
300.4566089546074
 20
97.32745190654619
 30
0.0
 10
299.5270774903198
 20
94.79446539520463
 30
0.0
 10
298.9574573101012
 20
92.15183158666198
 30
0.0
 10
298.9561862456191
 20
88.08984920683588
 30
0.0
 10
299.0942888648718
 20
86.75423305287525
 30
0.0
 10
299.6122357517794
 20
84.11507206400658
 30
0.0
 10
299.9944152019945
 20
82.807202643215
 30
0.0
 10
300.4566089546074
 20
81.54771806848665
 30
0.0
  0
LINE
  5
1C1
330
19D
100
AcDbEntity
  8
TA-SMART_DN15_EX
  6
Continuous
 62
     7
100
AcDbLine
 10
300.4566089546
 20
97.3274519065
 30
0.0
 11
315.4566089546
 21
97.3274519065
 31
0.0
  0
LINE
  5
1C2
330
19D
100
AcDbEntity
  8
TA-SMART_DN15_EX
  6
Continuous
 62
     7
100
AcDbLine
 10
300.4566089546
 20
81.5477180685
 30
0.0
 11
315.4566089546
 21
81.5477180685
 31
0.0
  0
LINE
  5
1C3
330
19D
100
AcDbEntity
  8
TA-SMART_DN15_EX
  6
Continuous
 62
     7
100
AcDbLine
 10
315.4566089546
 20
81.5477180685
 30
0.0
 11
315.4566089546
 21
67.9375849875
 31
0.0
  0
SPLINE
  5
1C4
330
19D
100
AcDbEntity
  8
TA-SMART_DN15_EX
  6
Continuous
 62
     7
100
AcDbSpline
210
0.0
220
0.0
230
1.0
 70
     8
 71
     3
 72
    12
 73
     8
 74
     0
 42
0.000000001
 43
0.0000000001
 40
0.0
 40
0.0
 40
0.0
 40
0.0
 40
0.4999999999999999
 40
0.4999999999999999
 40
0.75
 40
0.75
 40
1.0
 40
1.0
 40
1.0
 40
1.0
 10
315.4566089546074
 20
97.32745190654619
 30
0.0
 10
316.386140418895
 20
94.79446539520463
 30
0.0
 10
316.9557605991137
 20
92.15183158666198
 30
0.0
 10
316.9570316635958
 20
88.08984920683588
 30
0.0
 10
316.8189290443431
 20
86.75423305287525
 30
0.0
 10
316.3009821574353
 20
84.11507206400658
 30
0.0
 10
315.9188027072203
 20
82.80720264321499
 30
0.0
 10
315.4566089546074
 20
81.54771806848665
 30
0.0
  0
ARC
  5
1C5
330
19D
100
AcDbEntity
  8
TA-SMART_DN15_EX
  6
Continuous
 62
     7
100
AcDbCircle
 10
307.9566089546
 20
89.4375849875
 30
0.0
 40
4.399999999999999
100
AcDbArc
 50
4.3214562806
 51
12.0432903504
  0
ARC
  5
1C6
330
19D
100
AcDbEntity
  8
TA-SMART_DN15_EX
  6
Continuous
 62
     7
100
AcDbCircle
 10
307.9566089546
 20
89.4375849875
 30
0.0
 40
4.399999999999998
100
AcDbArc
 50
64.3214562806
 51
72.0432903504
  0
ARC
  5
1C7
330
19D
100
AcDbEntity
  8
TA-SMART_DN15_EX
  6
Continuous
 62
     7
100
AcDbCircle
 10
307.9566089546
 20
89.4375849875
 30
0.0
 40
4.400000000000005
100
AcDbArc
 50
124.3214562806
 51
132.0432903504
  0
ARC
  5
1C8
330
19D
100
AcDbEntity
  8
TA-SMART_DN15_EX
  6
Continuous
 62
     7
100
AcDbCircle
 10
307.9566089546
 20
89.4375849875
 30
0.0
 40
4.399999999999999
100
AcDbArc
 50
184.3214562806
 51
192.0432903504
  0
ARC
  5
1C9
330
19D
100
AcDbEntity
  8
TA-SMART_DN15_EX
  6
Continuous
 62
     7
100
AcDbCircle
 10
307.9566089546
 20
89.4375849875
 30
0.0
 40
4.399999999999999
100
AcDbArc
 50
244.3214562806
 51
252.0432903504
  0
ARC
  5
1CA
330
19D
100
AcDbEntity
  8
TA-SMART_DN15_EX
  6
Continuous
 62
     7
100
AcDbCircle
 10
307.9566089546
 20
89.4375849875
 30
0.0
 40
4.400000000000005
100
AcDbArc
 50
304.3214562806
 51
312.0432903504
  0
CIRCLE
  5
1CB
330
19D
100
AcDbEntity
  8
TA-SMART_DN15_EX
  6
Continuous
 62
     7
100
AcDbCircle
 10
307.9566089546
 20
89.4375849875
 30
0.0
 40
3.750000000000006
  0
LINE
  5
1CC
330
19D
100
AcDbEntity
  8
TA-SMART_DN15_EX
  6
Continuous
 62
     7
100
AcDbLine
 10
312.3440996902
 20
89.7691344483
 30
0.0
 11
310.9032533374
 21
86.1699731866
 31
0.0
  0
LINE
  5
1CD
330
19D
100
AcDbEntity
  8
TA-SMART_DN15_EX
  6
Continuous
 62
     7
100
AcDbLine
 10
309.8632240667
 20
93.4030381538
 30
0.0
 11
312.2597659753
 21
90.3556479785
 31
0.0
  0
LINE
  5
1CE
330
19D
100
AcDbEntity
  8
TA-SMART_DN15_EX
  6
Continuous
 62
     7
100
AcDbLine
 10
305.4757333311
 20
93.071488693
 30
0.0
 11
309.3131215925
 21
93.6232597794
 31
0.0
  0
LINE
  5
1CF
330
19D
100
AcDbEntity
  8
TA-SMART_DN15_EX
  6
Continuous
 62
     7
100
AcDbLine
 10
303.569118219
 20
89.1060355267
 30
0.0
 11
305.0099645718
 21
92.7051967884
 31
0.0
  0
LINE
  5
1D0
330
19D
100
AcDbEntity
  8
TA-SMART_DN15_EX
  6
Continuous
 62
     7
100
AcDbLine
 10
306.0499938425
 20
85.4721318212
 30
0.0
 11
303.6534519339
 21
88.5195219965
 31
0.0
  0
LINE
  5
1D1
330
19D
100
AcDbEntity
  8
TA-SMART_DN15_EX
  6
Continuous
 62
     7
100
AcDbLine
 10
310.4374845781
 20
85.803681282
 30
0.0
 11
306.6000963167
 21
85.2519101956
 31
0.0
  0
LINE
  5
1D2
330
19D
100
AcDbEntity
  8
TA-SMART_DN15_EX
  6
Continuous
 62
     7
100
AcDbLine
 10
331.2286684861
 20
74.1875849875
 30
0.0
 11
331.9566089546
 21
76.1875849875
 31
0.0
  0
LINE
  5
1D3
330
19D
100
AcDbEntity
  8
TA-SMART_DN15_EX
  6
Continuous
 62
     7
100
AcDbLine
 10
331.9566089546
 20
102.6875849875
 30
0.0
 11
331.2286684861
 21
104.6875849875
 31
0.0
  0
LINE
  5
1D4
330
19D
100
AcDbEntity
  8
TA-SMART_DN15_EX
  6
Continuous
 62
     7
100
AcDbLine
 10
331.2286684861
 20
104.6875849875
 30
0.0
 11
317.9566089546
 21
104.6875849875
 31
0.0
  0
LINE
  5
1D5
330
19D
100
AcDbEntity
  8
TA-SMART_DN15_EX
  6
Continuous
 62
     7
100
AcDbLine
 10
317.9566089546
 20
74.1875849875
 30
0.0
 11
331.2286684861
 21
74.1875849875
 31
0.0
  0
LINE
  5
1D6
330
19D
100
AcDbEntity
  8
TA-SMART_DN15_EX
  6
Continuous
 62
     7
100
AcDbLine
 10
300.4566089546
 20
110.9375849875
 30
0.0
 11
297.9566089546
 21
108.4375849875
 31
0.0
  0
LINE
  5
1D7
330
19D
100
AcDbEntity
  8
TA-SMART_DN15_EX
  6
Continuous
 62
     7
100
AcDbLine
 10
297.9566089546
 20
70.4375849875
 30
0.0
 11
300.4566089546
 21
67.9375849875
 31
0.0
  0
LINE
  5
1D8
330
19D
100
AcDbEntity
  8
TA-SMART_DN15_EX
  6
Continuous
 62
     7
100
AcDbLine
 10
284.6845494231
 20
104.6875849875
 30
0.0
 11
283.9566089546
 21
102.6875849875
 31
0.0
  0
LINE
  5
1D9
330
19D
100
AcDbEntity
  8
TA-SMART_DN15_EX
  6
Continuous
 62
     7
100
AcDbLine
 10
283.9566089546
 20
76.1875849875
 30
0.0
 11
284.6845494231
 21
74.1875849875
 31
0.0
  0
LINE
  5
1DA
330
19D
100
AcDbEntity
  8
TA-SMART_DN15_EX
  6
Continuous
 62
     7
100
AcDbLine
 10
284.6845494231
 20
74.1875849875
 30
0.0
 11
297.9566089546
 21
74.1875849875
 31
0.0
  0
LINE
  5
1DB
330
19D
100
AcDbEntity
  8
TA-SMART_DN15_EX
  6
Continuous
 62
     7
100
AcDbLine
 10
297.9566089546
 20
104.6875849875
 30
0.0
 11
284.6845494231
 21
104.6875849875
 31
0.0
  0
LINE
  5
1DC
330
19D
100
AcDbEntity
  8
TA-SMART_DN15_EX
  6
Continuous
 62
     7
100
AcDbLine
 10
300.4566089546
 20
67.9375849875
 30
0.0
 11
315.4566089546
 21
67.9375849875
 31
0.0
  0
LINE
  5
1DD
330
19D
100
AcDbEntity
  8
TA-SMART_DN15_EX
  6
Continuous
 62
     7
100
AcDbLine
 10
315.4566089546
 20
67.9375849875
 30
0.0
 11
317.9566089546
 21
70.4375849875
 31
0.0
  0
LINE
  5
1DE
330
19D
100
AcDbEntity
  8
TA-SMART_DN15_EX
  6
Continuous
 62
     7
100
AcDbLine
 10
317.9566089546
 20
108.4375849875
 30
0.0
 11
315.4566089546
 21
110.9375849875
 31
0.0
  0
LINE
  5
1DF
330
19D
100
AcDbEntity
  8
TA-SMART_DN15_EX
  6
Continuous
 62
     7
100
AcDbLine
 10
315.4566089546
 20
110.9375849875
 30
0.0
 11
300.4566089546
 21
110.9375849875
 31
0.0
  0
ENDBLK
  5
1E1
330
19D
100
AcDbEntity
  8
0
100
AcDbBlockEnd
  0
ENDSEC
  0
SECTION
  2
ENTITIES
  0
INSERT
  5
70
330
1F
100
AcDbEntity
  8
Default
100
AcDbBlockReference
  2
SE
 10
0.0
 20
0.0
 30
0.0
  0
INSERT
  5
D6
330
1F
100
AcDbEntity
  8
Default
100
AcDbBlockReference
  2
SE1
 10
0.0
 20
0.0
 30
0.0
  0
INSERT
  5
117
330
1F
100
AcDbEntity
  8
Default
100
AcDbBlockReference
  2
SE2
 10
0.0
 20
0.0
 30
0.0
  0
INSERT
  5
15D
330
1F
100
AcDbEntity
  8
Default
100
AcDbBlockReference
  2
SE3
 10
0.0
 20
0.0
 30
0.0
  0
INSERT
  5
19E
330
1F
100
AcDbEntity
  8
Default
100
AcDbBlockReference
  2
SE4
 10
0.0
 20
0.0
 30
0.0
  0
ENDSEC
  0
SECTION
  2
OBJECTS
  0
DICTIONARY
  5
C
330
0
100
AcDbDictionary
281
     1
  3
ACAD_DETAILVIEWSTYLE
350
21D
  3
ACAD_GROUP
350
D
  3
ACAD_LAYOUT
350
1A
  3
ACAD_MATERIAL
350
43
  3
ACAD_MLEADERSTYLE
350
6B
  3
ACAD_MLINESTYLE
350
17
  3
ACAD_PLOTSETTINGS
350
19
  3
ACAD_PLOTSTYLENAME
350
E
  3
ACAD_SCALELIST
350
47
  3
ACAD_SECTIONVIEWSTYLE
350
21E
  3
ACAD_TABLESTYLE
350
69
  3
ACAD_VISUALSTYLE
350
2A
  3
ACDB_RECOMPOSE_DATA
350
21A
  3
AcDbVariableDictionary
350
1E2
  0
SUN
  5
6D
330
29
100
AcDbSun
 90
        1
290
     0
 63
     7
421
 16777215
 40
1.0
291
     1
 91
  2455826
 92
 54000000
292
     0
 70
     2
 71
   256
280
     1
  0
DICTIONARY
  5
21D
102
{ACAD_REACTORS
330
C
102
}
330
C
100
AcDbDictionary
281
     1
  0
DICTIONARY
  5
D
102
{ACAD_REACTORS
330
C
102
}
330
C
100
AcDbDictionary
281
     1
  0
DICTIONARY
  5
1A
102
{ACAD_REACTORS
330
C
102
}
330
C
100
AcDbDictionary
281
     1
  3
Layout1
350
1E
  3
Model
350
22
  0
DICTIONARY
  5
43
102
{ACAD_REACTORS
330
C
102
}
330
C
100
AcDbDictionary
281
     1
  3
ByBlock
350
45
  3
ByLayer
350
44
  3
Global
350
46
  0
DICTIONARY
  5
6B
102
{ACAD_REACTORS
330
C
102
}
330
C
100
AcDbDictionary
281
     1
  3
Standard
350
6C
  0
DICTIONARY
  5
17
102
{ACAD_REACTORS
330
C
102
}
330
C
100
AcDbDictionary
281
     1
  3
Standard
350
18
  0
DICTIONARY
  5
19
102
{ACAD_REACTORS
330
C
102
}
330
C
100
AcDbDictionary
281
     1
  0
ACDBDICTIONARYWDFLT
  5
E
102
{ACAD_REACTORS
330
C
102
}
330
C
100
AcDbDictionary
281
     1
  3
Normal
350
F
100
AcDbDictionaryWithDefault
340
F
  0
DICTIONARY
  5
47
102
{ACAD_REACTORS
330
C
102
}
330
C
100
AcDbDictionary
281
     1
  3
A0
350
48
  3
A1
350
49
  3
A2
350
4A
  3
A3
350
4B
  3
A4
350
4C
  3
A5
350
4D
  3
A6
350
4E
  3
A7
350
4F
  3
A8
350
50
  3
A9
350
51
  3
B0
350
52
  3
B1
350
53
  3
B2
350
54
  3
B3
350
55
  3
B4
350
56
  3
B5
350
57
  3
B6
350
58
  3
B7
350
59
  3
B8
350
5A
  3
B9
350
5B
  3
C0
350
5C
  3
C1
350
5D
  3
C2
350
5E
  3
C3
350
5F
  3
C4
350
60
  3
C5
350
61
  3
C6
350
62
  3
C7
350
63
  3
C8
350
64
  3
C9
350
65
  3
D0
350
66
  3
D1
350
67
  3
D2
350
68
  0
DICTIONARY
  5
21E
102
{ACAD_REACTORS
330
C
102
}
330
C
100
AcDbDictionary
281
     1
  0
DICTIONARY
  5
69
102
{ACAD_REACTORS
330
C
102
}
330
C
100
AcDbDictionary
281
     1
  3
Standard
350
6A
  0
DICTIONARY
  5
2A
102
{ACAD_REACTORS
330
C
102
}
330
C
100
AcDbDictionary
281
     1
  3
2dWireframe
350
2F
  3
Basic
350
32
  3
Brighten
350
36
  3
ColorChange
350
3A
  3
Conceptual
350
34
  3
Dim
350
35
  3
EdgeColorOff
350
3D
  3
Facepattern
350
39
  3
Flat
350
2B
  3
FlatWithEdges
350
2C
  3
Gouraud
350
2D
  3
GouraudWithEdges
350
2E
  3
Hidden
350
31
  3
JitterOff
350
3B
  3
Linepattern
350
38
  3
OverhangOff
350
3C
  3
Realistic
350
33
  3
Shaded
350
42
  3
Shaded with edges
350
41
  3
Shades of Gray
350
3E
  3
Sketchy
350
3F
  3
Thicken
350
37
  3
Wireframe
350
30
  3
X-Ray
350
40
  0
XRECORD
  5
21A
102
{ACAD_REACTORS
330
C
102
}
330
C
100
AcDbXrecord
280
     1
 90
        1
330
6A
  0
DICTIONARY
  5
1E2
102
{ACAD_REACTORS
330
C
102
}
330
C
100
AcDbDictionary
281
     1
  3
CANNOSCALE
350
1E3
  3
CENTEREXE
350
21F
  3
CENTERLTYPEFILE
350
220
  3
CMLEADERSTYLE
350
21C
  3
CTABLESTYLE
350
21B
  3
XCLIPFRAME
350
1E4
  0
LAYOUT
  5
1E
102
{ACAD_REACTORS
330
1A
102
}
330
1A
100
AcDbPlotSettings
  1

  2
none_device
  4

  6

 40
0.0
 41
0.0
 42
0.0
 43
0.0
 44
0.0
 45
0.0
 46
0.0
 47
0.0
 48
0.0
 49
0.0
140
0.0
141
0.0
142
1.0
143
1.0
 70
   688
 72
     1
 73
     0
 74
     5
  7

 75
    16
 76
     0
 77
     2
 78
   300
147
1.0
148
0.0
149
0.0
100
AcDbLayout
  1
Layout1
 70
     1
 71
     1
 10
0.0
 20
0.0
 11
420.0
 21
297.0
 12
0.0
 22
0.0
 32
0.0
 14
0.0
 24
0.0
 34
0.0
 15
420.0
 25
297.0
 35
0.0
146
0.0
 13
0.0
 23
0.0
 33
0.0
 16
1.0
 26
0.0
 36
0.0
 17
0.0
 27
1.0
 37
0.0
 76
     0
330
1B
  0
LAYOUT
  5
22
102
{ACAD_REACTORS
330
1A
102
}
330
1A
100
AcDbPlotSettings
  1

  2
none_device
  4
Letter_(8.50_x_11.00_Inches)
  6

 40
6.35
 41
6.35
 42
6.35000508
 43
6.35000508
 44
215.9
 45
279.4
 46
0.0
 47
0.0
 48
0.0
 49
0.0
140
0.0
141
0.0
142
1.0
143
1.0
 70
  1712
 72
     1
 73
     0
 74
     0
  7

 75
     0
 76
     0
 77
     2
 78
   300
147
1.0
148
0.0
149
0.0
100
AcDbLayout
  1
Model
 70
     1
 71
     0
 10
0.0
 20
0.0
 11
420.0
 21
297.0
 12
0.0
 22
0.0
 32
0.0
 14
0.0
 24
0.0
 34
0.0
 15
420.0
 25
297.0
 35
0.0
146
0.0
 13
0.0
 23
0.0
 33
0.0
 16
1.0
 26
0.0
 36
0.0
 17
0.0
 27
1.0
 37
0.0
 76
     0
330
1F
331
29
  0
MATERIAL
  5
45
102
{ACAD_REACTORS
330
43
102
}
330
43
100
AcDbMaterial
  1
ByBlock
 72
     1
 94
      127
  0
MATERIAL
  5
44
102
{ACAD_REACTORS
330
43
102
}
330
43
100
AcDbMaterial
  1
ByLayer
 72
     1
 94
      127
  0
MATERIAL
  5
46
102
{ACAD_REACTORS
330
43
102
}
330
43
100
AcDbMaterial
  1
Global
 72
     1
 94
      127
  0
MLEADERSTYLE
  5
6C
102
{ACAD_REACTORS
330
6B
102
}
102
{ACAD_XDICTIONARY
360
218
102
}
330
6B
100
AcDbMLeaderStyle
170
     2
171
     1
172
     0
 90
        2
 40
0.0
 41
0.0
173
     1
 91
-1056964608
340
14
 92
       -2
290
     1
 42
2.0
291
     1
 43
8.0
  3
Standard
341
0
 44
4.0
300

342
11
174
     1
178
     6
175
     1
176
     0
 93
-1056964608
 45
4.0
292
     0
297
     0
 46
4.0
343
0
 94
-1056964608
 47
1.0
 49
1.0
140
1.0
293
     1
141
0.0
294
     1
177
     0
142
1.0
295
     0
296
     0
143
3.75
1001
ACAD_MLEADERVER
1070
     2
  0
MLINESTYLE
  5
18
102
{ACAD_REACTORS
330
17
102
}
330
17
100
AcDbMlineStyle
  2
Standard
 70
     0
  3

 62
   256
 51
90.0
 52
90.0
 71
     2
 49
0.5
 62
   256
  6
BYLAYER
 49
-0.5
 62
   256
  6
BYLAYER
  0
ACDBPLACEHOLDER
  5
F
102
{ACAD_REACTORS
330
E
102
}
330
E
  0
SCALE
  5
48
102
{ACAD_REACTORS
330
47
102
}
330
47
100
AcDbScale
 70
     0
300
1:1
140
1.0
141
1.0
290
     1
  0
SCALE
  5
49
102
{ACAD_REACTORS
330
47
102
}
330
47
100
AcDbScale
 70
     0
300
1:2
140
1.0
141
2.0
290
     0
  0
SCALE
  5
4A
102
{ACAD_REACTORS
330
47
102
}
330
47
100
AcDbScale
 70
     0
300
1:4
140
1.0
141
4.0
290
     0
  0
SCALE
  5
4B
102
{ACAD_REACTORS
330
47
102
}
330
47
100
AcDbScale
 70
     0
300
1:5
140
1.0
141
5.0
290
     0
  0
SCALE
  5
4C
102
{ACAD_REACTORS
330
47
102
}
330
47
100
AcDbScale
 70
     0
300
1:8
140
1.0
141
8.0
290
     0
  0
SCALE
  5
4D
102
{ACAD_REACTORS
330
47
102
}
330
47
100
AcDbScale
 70
     0
300
1:10
140
1.0
141
10.0
290
     0
  0
SCALE
  5
4E
102
{ACAD_REACTORS
330
47
102
}
330
47
100
AcDbScale
 70
     0
300
1:16
140
1.0
141
16.0
290
     0
  0
SCALE
  5
4F
102
{ACAD_REACTORS
330
47
102
}
330
47
100
AcDbScale
 70
     0
300
1:20
140
1.0
141
20.0
290
     0
  0
SCALE
  5
50
102
{ACAD_REACTORS
330
47
102
}
330
47
100
AcDbScale
 70
     0
300
1:30
140
1.0
141
30.0
290
     0
  0
SCALE
  5
51
102
{ACAD_REACTORS
330
47
102
}
330
47
100
AcDbScale
 70
     0
300
1:40
140
1.0
141
40.0
290
     0
  0
SCALE
  5
52
102
{ACAD_REACTORS
330
47
102
}
330
47
100
AcDbScale
 70
     0
300
1:50
140
1.0
141
50.0
290
     0
  0
SCALE
  5
53
102
{ACAD_REACTORS
330
47
102
}
330
47
100
AcDbScale
 70
     0
300
1:100
140
1.0
141
100.0
290
     0
  0
SCALE
  5
54
102
{ACAD_REACTORS
330
47
102
}
330
47
100
AcDbScale
 70
     0
300
2:1
140
2.0
141
1.0
290
     0
  0
SCALE
  5
55
102
{ACAD_REACTORS
330
47
102
}
330
47
100
AcDbScale
 70
     0
300
4:1
140
4.0
141
1.0
290
     0
  0
SCALE
  5
56
102
{ACAD_REACTORS
330
47
102
}
330
47
100
AcDbScale
 70
     0
300
8:1
140
8.0
141
1.0
290
     0
  0
SCALE
  5
57
102
{ACAD_REACTORS
330
47
102
}
330
47
100
AcDbScale
 70
     0
300
10:1
140
10.0
141
1.0
290
     0
  0
SCALE
  5
58
102
{ACAD_REACTORS
330
47
102
}
330
47
100
AcDbScale
 70
     0
300
100:1
140
100.0
141
1.0
290
     0
  0
SCALE
  5
59
102
{ACAD_REACTORS
330
47
102
}
330
47
100
AcDbScale
 70
     0
300
1/128" = 1'-0"
140
0.0078125
141
12.0
290
     0
  0
SCALE
  5
5A
102
{ACAD_REACTORS
330
47
102
}
330
47
100
AcDbScale
 70
     0
300
1/64" = 1'-0"
140
0.015625
141
12.0
290
     0
  0
SCALE
  5
5B
102
{ACAD_REACTORS
330
47
102
}
330
47
100
AcDbScale
 70
     0
300
1/32" = 1'-0"
140
0.03125
141
12.0
290
     0
  0
SCALE
  5
5C
102
{ACAD_REACTORS
330
47
102
}
330
47
100
AcDbScale
 70
     0
300
1/16" = 1'-0"
140
0.0625
141
12.0
290
     0
  0
SCALE
  5
5D
102
{ACAD_REACTORS
330
47
102
}
330
47
100
AcDbScale
 70
     0
300
3/32" = 1'-0"
140
0.09375
141
12.0
290
     0
  0
SCALE
  5
5E
102
{ACAD_REACTORS
330
47
102
}
330
47
100
AcDbScale
 70
     0
300
1/8" = 1'-0"
140
0.125
141
12.0
290
     0
  0
SCALE
  5
5F
102
{ACAD_REACTORS
330
47
102
}
330
47
100
AcDbScale
 70
     0
300
3/16" = 1'-0"
140
0.1875
141
12.0
290
     0
  0
SCALE
  5
60
102
{ACAD_REACTORS
330
47
102
}
330
47
100
AcDbScale
 70
     0
300
1/4" = 1'-0"
140
0.25
141
12.0
290
     0
  0
SCALE
  5
61
102
{ACAD_REACTORS
330
47
102
}
330
47
100
AcDbScale
 70
     0
300
3/8" = 1'-0"
140
0.375
141
12.0
290
     0
  0
SCALE
  5
62
102
{ACAD_REACTORS
330
47
102
}
330
47
100
AcDbScale
 70
     0
300
1/2" = 1'-0"
140
0.5
141
12.0
290
     0
  0
SCALE
  5
63
102
{ACAD_REACTORS
330
47
102
}
330
47
100
AcDbScale
 70
     0
300
3/4" = 1'-0"
140
0.75
141
12.0
290
     0
  0
SCALE
  5
64
102
{ACAD_REACTORS
330
47
102
}
330
47
100
AcDbScale
 70
     0
300
1" = 1'-0"
140
1.0
141
12.0
290
     0
  0
SCALE
  5
65
102
{ACAD_REACTORS
330
47
102
}
330
47
100
AcDbScale
 70
     0
300
1-1/2" = 1'-0"
140
1.5
141
12.0
290
     0
  0
SCALE
  5
66
102
{ACAD_REACTORS
330
47
102
}
330
47
100
AcDbScale
 70
     0
300
3" = 1'-0"
140
3.0
141
12.0
290
     0
  0
SCALE
  5
67
102
{ACAD_REACTORS
330
47
102
}
330
47
100
AcDbScale
 70
     0
300
6" = 1'-0"
140
6.0
141
12.0
290
     0
  0
SCALE
  5
68
102
{ACAD_REACTORS
330
47
102
}
330
47
100
AcDbScale
 70
     0
300
1'-0" = 1'-0"
140
12.0
141
12.0
290
     0
  0
TABLESTYLE
  5
6A
102
{ACAD_REACTORS
330
69
102
}
102
{ACAD_XDICTIONARY
360
215
102
}
330
69
100
AcDbTableStyle
  3
Standard
 70
     0
 71
     0
 40
0.06
 41
0.06
280
     0
281
     0
  7
Standard
140
4.5
170
     2
 62
     0
 63
   257
283
     0
 90
        4
 91
        0
  1

274
    -2
284
     1
 64
     0
275
    -2
285
     1
 65
     0
276
    -2
286
     1
 66
     0
277
    -2
287
     1
 67
     0
278
    -2
288
     1
 68
     0
279
    -2
289
     1
 69
     0
  7
Standard
140
6.0
170
     5
 62
     0
 63
   257
283
     0
 90
        4
 91
        0
  1

274
    -2
284
     1
 64
     0
275
    -2
285
     1
 65
     0
276
    -2
286
     1
 66
     0
277
    -2
287
     1
 67
     0
278
    -2
288
     1
 68
     0
279
    -2
289
     1
 69
     0
  7
Standard
140
4.5
170
     5
 62
     0
 63
   257
283
     0
 90
        4
 91
        0
  1

274
    -2
284
     1
 64
     0
275
    -2
285
     1
 65
     0
276
    -2
286
     1
 66
     0
277
    -2
287
     1
 67
     0
278
    -2
288
     1
 68
     0
279
    -2
289
     1
 69
     0
  0
VISUALSTYLE
  5
2F
102
{ACAD_REACTORS
330
2A
102
}
102
{ACAD_XDICTIONARY
360
1ED
102
}
330
2A
100
AcDbVisualStyle
  2
2dWireframe
 70
     4
 71
     0
 72
     2
 73
     0
 90
        0
 40
0.6
 41
30.0
 62
     5
 63
     7
421
 16777215
 74
     1
 91
        4
 64
     7
 65
   257
 75
     1
175
     1
 42
1.0
 92
        0
 66
   257
 43
1.0
 76
     1
 77
     6
 78
     2
 67
     7
 79
     5
170
     0
171
     0
290
     0
174
     0
 93
        1
 44
0.0
173
     0
291
     0
 45
0.0
  0
VISUALSTYLE
  5
32
102
{ACAD_REACTORS
330
2A
102
}
102
{ACAD_XDICTIONARY
360
1F3
102
}
330
2A
100
AcDbVisualStyle
  2
Basic
 70
     7
 71
     1
 72
     0
 73
     1
 90
        0
 40
0.6
 41
30.0
 62
     5
 63
     7
421
 16777215
 74
     0
 91
        4
 64
     7
 65
   257
 75
     1
175
     1
 42
1.0
 92
        8
 66
     7
 43
1.0
 76
     1
 77
     6
 78
     2
 67
     7
 79
     5
170
     0
171
     0
290
     0
174
     0
 93
        1
 44
0.0
173
     0
291
     1
 45
0.0
  0
VISUALSTYLE
  5
36
102
{ACAD_REACTORS
330
2A
102
}
102
{ACAD_XDICTIONARY
360
1FB
102
}
330
2A
100
AcDbVisualStyle
  2
Brighten
 70
    12
 71
     2
 72
     2
 73
     0
 90
        0
 40
0.6
 41
30.0
 62
     5
 63
     7
421
 16777215
 74
     1
 91
        4
 64
     7
 65
   257
 75
     1
175
     1
 42
1.0
 92
        8
 66
     7
 43
1.0
 76
     1
 77
     6
 78
     2
 67
     7
 79
     5
170
     0
171
     0
290
     0
174
     0
 93
        1
 44
50.0
173
     0
291
     1
 45
0.0
  0
VISUALSTYLE
  5
3A
102
{ACAD_REACTORS
330
2A
102
}
102
{ACAD_XDICTIONARY
360
203
102
}
330
2A
100
AcDbVisualStyle
  2
ColorChange
 70
    16
 71
     2
 72
     2
 73
     3
 90
        0
 40
0.6
 41
30.0
 62
     5
 63
     8
421
  8421504
 74
     1
 91
        4
 64
     7
 65
   257
 75
     1
175
     1
 42
1.0
 92
        8
 66
     8
424
  8421504
 43
1.0
 76
     1
 77
     6
 78
     2
 67
     7
 79
     5
170
     0
171
     0
290
     0
174
     0
 93
        1
 44
0.0
173
     0
291
     1
 45
0.0
  0
VISUALSTYLE
  5
34
102
{ACAD_REACTORS
330
2A
102
}
102
{ACAD_XDICTIONARY
360
1F7
102
}
330
2A
100
AcDbVisualStyle
  2
Conceptual
 70
     9
 71
     3
 72
     2
 73
     0
 90
        0
 40
0.6
 41
30.0
 62
     5
 63
     7
421
 16777215
 74
     2
 91
        2
 64
     7
 65
   257
 75
     1
175
     1
 42
179.0
 92
        8
 66
     7
 43
1.0
 76
     1
 77
     6
 78
     2
 67
     7
 79
     3
170
     0
171
     0
290
     0
174
     0
 93
        1
 44
0.0
173
     0
291
     0
 45
0.0
  0
VISUALSTYLE
  5
35
102
{ACAD_REACTORS
330
2A
102
}
102
{ACAD_XDICTIONARY
360
1F9
102
}
330
2A
100
AcDbVisualStyle
  2
Dim
 70
    11
 71
     2
 72
     2
 73
     0
 90
        0
 40
0.6
 41
30.0
 62
     5
 63
     7
421
 16777215
 74
     1
 91
        4
 64
     7
 65
   257
 75
     1
175
     1
 42
1.0
 92
        8
 66
     7
 43
1.0
 76
     1
 77
     6
 78
     2
 67
     7
 79
     5
170
     0
171
     0
290
     0
174
     0
 93
        1
 44
-50.0
173
     0
291
     1
 45
0.0
  0
VISUALSTYLE
  5
3D
102
{ACAD_REACTORS
330
2A
102
}
102
{ACAD_XDICTIONARY
360
209
102
}
330
2A
100
AcDbVisualStyle
  2
EdgeColorOff
 70
    22
 71
     2
 72
     2
 73
     0
 90
        0
 40
0.6
 41
30.0
 62
     5
 63
     7
421
 16777215
 74
     1
 91
        4
 64
     7
 65
   257
 75
     1
175
     1
 42
1.0
 92
        8
 66
     7
 43
1.0
 76
     1
 77
     6
 78
     2
 67
     7
 79
     5
170
     0
171
     0
290
     0
174
     0
 93
        1
 44
0.0
173
     0
291
     1
 45
0.0
  0
VISUALSTYLE
  5
39
102
{ACAD_REACTORS
330
2A
102
}
102
{ACAD_XDICTIONARY
360
201
102
}
330
2A
100
AcDbVisualStyle
  2
Facepattern
 70
    15
 71
     2
 72
     2
 73
     0
 90
        0
 40
0.6
 41
30.0
 62
     5
 63
     7
421
 16777215
 74
     1
 91
        4
 64
     7
 65
   257
 75
     1
175
     1
 42
1.0
 92
        8
 66
     7
 43
1.0
 76
     1
 77
     6
 78
     2
 67
     7
 79
     5
170
     0
171
     0
290
     0
174
     0
 93
        1
 44
0.0
173
     0
291
     1
 45
0.0
  0
VISUALSTYLE
  5
2B
102
{ACAD_REACTORS
330
2A
102
}
102
{ACAD_XDICTIONARY
360
1E5
102
}
330
2A
100
AcDbVisualStyle
  2
Flat
 70
     0
 71
     2
 72
     1
 73
     1
 90
        2
 40
0.6
 41
30.0
 62
     5
 63
     7
421
 16777215
 74
     0
 91
        0
 64
     7
 65
   257
 75
     1
175
     1
 42
1.0
 92
        8
 66
     7
 43
1.0
 76
     1
 77
     6
 78
     2
 67
     7
 79
     5
170
     0
171
     0
290
     0
174
     0
 93
       13
 44
0.0
173
     0
291
     1
 45
0.0
  0
VISUALSTYLE
  5
2C
102
{ACAD_REACTORS
330
2A
102
}
102
{ACAD_XDICTIONARY
360
1E7
102
}
330
2A
100
AcDbVisualStyle
  2
FlatWithEdges
 70
     1
 71
     2
 72
     1
 73
     1
 90
        2
 40
0.6
 41
30.0
 62
     5
 63
     7
421
 16777215
 74
     1
 91
        0
 64
     7
 65
   257
 75
     1
175
     1
 42
1.0
 92
        0
 66
   257
 43
1.0
 76
     1
 77
     6
 78
     2
 67
     7
 79
     5
170
     0
171
     0
290
     0
174
     0
 93
       13
 44
0.0
173
     0
291
     1
 45
0.0
  0
VISUALSTYLE
  5
2D
102
{ACAD_REACTORS
330
2A
102
}
102
{ACAD_XDICTIONARY
360
1E9
102
}
330
2A
100
AcDbVisualStyle
  2
Gouraud
 70
     2
 71
     2
 72
     2
 73
     1
 90
        2
 40
0.6
 41
30.0
 62
     5
 63
     7
421
 16777215
 74
     0
 91
        0
 64
     7
 65
   257
 75
     1
175
     1
 42
1.0
 92
        0
 66
     7
 43
1.0
 76
     1
 77
     6
 78
     2
 67
     7
 79
     5
170
     0
171
     0
290
     0
174
     0
 93
       13
 44
0.0
173
     0
291
     1
 45
0.0
  0
VISUALSTYLE
  5
2E
102
{ACAD_REACTORS
330
2A
102
}
102
{ACAD_XDICTIONARY
360
1EB
102
}
330
2A
100
AcDbVisualStyle
  2
GouraudWithEdges
 70
     3
 71
     2
 72
     2
 73
     1
 90
        2
 40
0.6
 41
30.0
 62
     5
 63
     7
421
 16777215
 74
     1
 91
        0
 64
     7
 65
   257
 75
     1
175
     1
 42
1.0
 92
        0
 66
   257
 43
1.0
 76
     1
 77
     6
 78
     2
 67
     7
 79
     5
170
     0
171
     0
290
     0
174
     0
 93
       13
 44
0.0
173
     0
291
     1
 45
0.0
  0
VISUALSTYLE
  5
31
102
{ACAD_REACTORS
330
2A
102
}
102
{ACAD_XDICTIONARY
360
1F1
102
}
330
2A
100
AcDbVisualStyle
  2
Hidden
 70
     6
 71
     1
 72
     2
 73
     2
 90
        0
 40
0.6
 41
30.0
 62
     5
 63
     7
421
 16777215
 74
     2
 91
        2
 64
     7
 65
   257
 75
     2
175
     1
 42
40.0
 92
        0
 66
   257
 43
1.0
 76
     1
 77
     6
 78
     2
 67
     7
 79
     3
170
     0
171
     0
290
     0
174
     0
 93
        1
 44
0.0
173
     0
291
     0
 45
0.0
  0
VISUALSTYLE
  5
3B
102
{ACAD_REACTORS
330
2A
102
}
102
{ACAD_XDICTIONARY
360
205
102
}
330
2A
100
AcDbVisualStyle
  2
JitterOff
 70
    20
 71
     2
 72
     2
 73
     0
 90
        0
 40
0.6
 41
30.0
 62
     5
 63
     7
421
 16777215
 74
     1
 91
        4
 64
     7
 65
   257
 75
     1
175
     1
 42
1.0
 92
       10
 66
     7
 43
1.0
 76
     1
 77
     6
 78
     2
 67
     7
 79
     5
170
     0
171
     0
290
     0
174
     0
 93
        1
 44
0.0
173
     0
291
     1
 45
0.0
  0
VISUALSTYLE
  5
38
102
{ACAD_REACTORS
330
2A
102
}
102
{ACAD_XDICTIONARY
360
1FF
102
}
330
2A
100
AcDbVisualStyle
  2
Linepattern
 70
    14
 71
     2
 72
     2
 73
     0
 90
        0
 40
0.6
 41
30.0
 62
     5
 63
     7
421
 16777215
 74
     1
 91
        4
 64
     7
 65
   257
 75
     7
175
     7
 42
1.0
 92
        8
 66
     7
 43
1.0
 76
     1
 77
     6
 78
     2
 67
     7
 79
     5
170
     0
171
     0
290
     0
174
     0
 93
        1
 44
0.0
173
     0
291
     1
 45
0.0
  0
VISUALSTYLE
  5
3C
102
{ACAD_REACTORS
330
2A
102
}
102
{ACAD_XDICTIONARY
360
207
102
}
330
2A
100
AcDbVisualStyle
  2
OverhangOff
 70
    21
 71
     2
 72
     2
 73
     0
 90
        0
 40
0.6
 41
30.0
 62
     5
 63
     7
421
 16777215
 74
     1
 91
        4
 64
     7
 65
   257
 75
     1
175
     1
 42
1.0
 92
        9
 66
     7
 43
1.0
 76
     1
 77
     6
 78
     2
 67
     7
 79
     5
170
     0
171
     0
290
     0
174
     0
 93
        1
 44
0.0
173
     0
291
     1
 45
0.0
  0
VISUALSTYLE
  5
33
102
{ACAD_REACTORS
330
2A
102
}
102
{ACAD_XDICTIONARY
360
1F5
102
}
330
2A
100
AcDbVisualStyle
  2
Realistic
 70
     8
 71
     2
 72
     3
 73
     0
 90
        2
 40
0.6
 41
30.0
 62
     5
 63
     7
421
 16777215
 74
     0
 91
        0
 64
     7
 65
   257
 75
     1
175
     1
 42
1.0
 92
        8
 66
   257
 43
1.0
 76
     1
 77
     6
 78
     2
 67
     7
 79
     3
170
     0
171
     0
290
     0
174
     0
 93
       13
 44
0.0
173
     0
291
     0
 45
0.0
  0
VISUALSTYLE
  5
42
102
{ACAD_REACTORS
330
2A
102
}
102
{ACAD_XDICTIONARY
360
213
102
}
330
2A
100
AcDbVisualStyle
  2
Shaded
 70
    27
 71
     2
 72
     2
 73
     1
 90
        2
 40
0.6
 41
30.0
 62
     5
 63
     7
421
 16777215
 74
     0
 91
        4
 64
     7
 65
   257
 75
     1
175
     1
 42
1.0
 92
        8
 66
   257
 43
1.0
 76
     1
 77
     6
 78
     2
 67
     8
425
  7895160
 79
     3
170
     0
171
     0
290
     0
174
     0
 93
        5
 44
0.0
173
     0
291
     0
 45
0.0
  0
VISUALSTYLE
  5
41
102
{ACAD_REACTORS
330
2A
102
}
102
{ACAD_XDICTIONARY
360
211
102
}
330
2A
100
AcDbVisualStyle
  2
Shaded with edges
 70
    26
 71
     2
 72
     2
 73
     1
 90
        2
 40
0.6
 41
30.0
 62
     5
 63
     7
421
 16777215
 74
     1
 91
       10
 64
     7
 65
   257
 75
     2
175
     1
 42
1.0
 92
        8
 66
   257
 43
1.0
 76
     1
 77
     6
 78
     2
 67
     7
 79
     3
170
     0
171
     0
290
     0
174
     0
 93
        5
 44
0.0
173
     0
291
     0
 45
0.0
  0
VISUALSTYLE
  5
3E
102
{ACAD_REACTORS
330
2A
102
}
102
{ACAD_XDICTIONARY
360
20B
102
}
330
2A
100
AcDbVisualStyle
  2
Shades of Gray
 70
    23
 71
     2
 72
     2
 73
     3
 90
        0
 40
0.6
 41
30.0
 62
     5
 63
     7
421
 16777215
 74
     2
 91
        2
 64
     7
 65
     7
 75
     1
175
     1
 42
40.0
 92
        8
 66
     7
 43
1.0
 76
     1
 77
     6
 78
     2
 67
     7
 79
     3
170
     0
171
     0
290
     0
174
     0
 93
        1
 44
0.0
173
     0
291
     0
 45
0.0
  0
VISUALSTYLE
  5
3F
102
{ACAD_REACTORS
330
2A
102
}
102
{ACAD_XDICTIONARY
360
20D
102
}
330
2A
100
AcDbVisualStyle
  2
Sketchy
 70
    24
 71
     1
 72
     2
 73
     2
 90
        0
 40
0.6
 41
30.0
 62
     5
 63
     7
421
 16777215
 74
     2
 91
        2
 64
     7
 65
     7
 75
     1
175
     1
 42
40.0
 92
       11
 66
     7
 43
1.0
 76
     1
 77
     6
 78
     2
 67
     7
 79
     6
170
     0
171
     0
290
     0
174
     0
 93
        1
 44
0.0
173
     0
291
     0
 45
0.0
  0
VISUALSTYLE
  5
37
102
{ACAD_REACTORS
330
2A
102
}
102
{ACAD_XDICTIONARY
360
1FD
102
}
330
2A
100
AcDbVisualStyle
  2
Thicken
 70
    13
 71
     2
 72
     2
 73
     0
 90
        0
 40
0.6
 41
30.0
 62
     5
 63
     7
421
 16777215
 74
     1
 91
        4
 64
     7
 65
   257
 75
     1
175
     1
 42
1.0
 92
       12
 66
     7
 43
1.0
 76
     1
 77
     6
 78
     2
 67
     7
 79
     5
170
     0
171
     0
290
     0
174
     0
 93
        1
 44
0.0
173
     0
291
     1
 45
0.0
  0
VISUALSTYLE
  5
30
102
{ACAD_REACTORS
330
2A
102
}
102
{ACAD_XDICTIONARY
360
1EF
102
}
330
2A
100
AcDbVisualStyle
  2
Wireframe
 70
     5
 71
     0
 72
     2
 73
     0
 90
        0
 40
0.6
 41
30.0
 62
     5
 63
     7
421
 16777215
 74
     1
 91
        4
 64
     7
 65
   257
 75
     1
175
     1
 42
1.0
 92
        0
 66
   257
 43
1.0
 76
     1
 77
     6
 78
     2
 67
     7
 79
     3
170
     0
171
     0
290
     0
174
     0
 93
        1
 44
0.0
173
     0
291
     0
 45
0.0
  0
VISUALSTYLE
  5
40
102
{ACAD_REACTORS
330
2A
102
}
102
{ACAD_XDICTIONARY
360
20F
102
}
330
2A
100
AcDbVisualStyle
  2
X-Ray
 70
    25
 71
     2
 72
     2
 73
     1
 90
        1
 40
0.5
 41
30.0
 62
     5
 63
     7
421
 16777215
 74
     1
 91
        0
 64
     7
 65
   257
 75
     1
175
     1
 42
1.0
 92
        8
 66
     7
 43
1.0
 76
     1
 77
     6
 78
     2
 67
     7
 79
     3
170
     0
171
     0
290
     0
174
     0
 93
       13
 44
0.0
173
     0
291
     0
 45
0.0
  0
DICTIONARYVAR
  5
1E3
102
{ACAD_REACTORS
330
1E2
102
}
330
1E2
100
DictionaryVariables
280
     0
  1
1:1
  0
DICTIONARYVAR
  5
21F
102
{ACAD_REACTORS
330
1E2
102
}
330
1E2
100
DictionaryVariables
280
     0
  1
3.500000
  0
DICTIONARYVAR
  5
220
102
{ACAD_REACTORS
330
1E2
102
}
330
1E2
100
DictionaryVariables
280
     0
  1
acadiso.lin
  0
DICTIONARYVAR
  5
21C
102
{ACAD_REACTORS
330
1E2
102
}
330
1E2
100
DictionaryVariables
280
     0
  1
Standard
  0
DICTIONARYVAR
  5
21B
102
{ACAD_REACTORS
330
1E2
102
}
330
1E2
100
DictionaryVariables
280
     0
  1
Standard
  0
DICTIONARYVAR
  5
1E4
102
{ACAD_REACTORS
330
1E2
102
}
330
1E2
100
DictionaryVariables
280
     0
  1
2
  0
DICTIONARY
  5
218
330
6C
100
AcDbDictionary
280
     1
281
     1
  3
ACAD_XREC_ROUNDTRIP
360
219
  0
DICTIONARY
  5
215
330
6A
100
AcDbDictionary
280
     1
281
     1
  3
ACAD_ROUNDTRIP_2008_TABLESTYLE_CELLSTYLEMAP
360
216
  0
DICTIONARY
  5
1ED
330
2F
100
AcDbDictionary
280
     1
281
     1
  3
ACAD_XREC_ROUNDTRIP
360
1EE
  0
DICTIONARY
  5
1F3
330
32
100
AcDbDictionary
280
     1
281
     1
  3
ACAD_XREC_ROUNDTRIP
360
1F4
  0
DICTIONARY
  5
1FB
330
36
100
AcDbDictionary
280
     1
281
     1
  3
ACAD_XREC_ROUNDTRIP
360
1FC
  0
DICTIONARY
  5
203
330
3A
100
AcDbDictionary
280
     1
281
     1
  3
ACAD_XREC_ROUNDTRIP
360
204
  0
DICTIONARY
  5
1F7
330
34
100
AcDbDictionary
280
     1
281
     1
  3
ACAD_XREC_ROUNDTRIP
360
1F8
  0
DICTIONARY
  5
1F9
330
35
100
AcDbDictionary
280
     1
281
     1
  3
ACAD_XREC_ROUNDTRIP
360
1FA
  0
DICTIONARY
  5
209
330
3D
100
AcDbDictionary
280
     1
281
     1
  3
ACAD_XREC_ROUNDTRIP
360
20A
  0
DICTIONARY
  5
201
330
39
100
AcDbDictionary
280
     1
281
     1
  3
ACAD_XREC_ROUNDTRIP
360
202
  0
DICTIONARY
  5
1E5
330
2B
100
AcDbDictionary
280
     1
281
     1
  3
ACAD_XREC_ROUNDTRIP
360
1E6
  0
DICTIONARY
  5
1E7
330
2C
100
AcDbDictionary
280
     1
281
     1
  3
ACAD_XREC_ROUNDTRIP
360
1E8
  0
DICTIONARY
  5
1E9
330
2D
100
AcDbDictionary
280
     1
281
     1
  3
ACAD_XREC_ROUNDTRIP
360
1EA
  0
DICTIONARY
  5
1EB
330
2E
100
AcDbDictionary
280
     1
281
     1
  3
ACAD_XREC_ROUNDTRIP
360
1EC
  0
DICTIONARY
  5
1F1
330
31
100
AcDbDictionary
280
     1
281
     1
  3
ACAD_XREC_ROUNDTRIP
360
1F2
  0
DICTIONARY
  5
205
330
3B
100
AcDbDictionary
280
     1
281
     1
  3
ACAD_XREC_ROUNDTRIP
360
206
  0
DICTIONARY
  5
1FF
330
38
100
AcDbDictionary
280
     1
281
     1
  3
ACAD_XREC_ROUNDTRIP
360
200
  0
DICTIONARY
  5
207
330
3C
100
AcDbDictionary
280
     1
281
     1
  3
ACAD_XREC_ROUNDTRIP
360
208
  0
DICTIONARY
  5
1F5
330
33
100
AcDbDictionary
280
     1
281
     1
  3
ACAD_XREC_ROUNDTRIP
360
1F6
  0
DICTIONARY
  5
213
330
42
100
AcDbDictionary
280
     1
281
     1
  3
ACAD_XREC_ROUNDTRIP
360
214
  0
DICTIONARY
  5
211
330
41
100
AcDbDictionary
280
     1
281
     1
  3
ACAD_XREC_ROUNDTRIP
360
212
  0
DICTIONARY
  5
20B
330
3E
100
AcDbDictionary
280
     1
281
     1
  3
ACAD_XREC_ROUNDTRIP
360
20C
  0
DICTIONARY
  5
20D
330
3F
100
AcDbDictionary
280
     1
281
     1
  3
ACAD_XREC_ROUNDTRIP
360
20E
  0
DICTIONARY
  5
1FD
330
37
100
AcDbDictionary
280
     1
281
     1
  3
ACAD_XREC_ROUNDTRIP
360
1FE
  0
DICTIONARY
  5
1EF
330
30
100
AcDbDictionary
280
     1
281
     1
  3
ACAD_XREC_ROUNDTRIP
360
1F0
  0
DICTIONARY
  5
20F
330
40
100
AcDbDictionary
280
     1
281
     1
  3
ACAD_XREC_ROUNDTRIP
360
210
  0
XRECORD
  5
219
102
{ACAD_REACTORS
330
218
102
}
330
218
100
AcDbXrecord
280
     1
102
ACAD_ROUNDTRIP_2010_MLEADER_STYLE
  0
CELLSTYLEMAP
  5
216
102
{ACAD_REACTORS
330
215
102
}
330
215
100
AcDbCellStyleMap
 90
        3
300
CELLSTYLE
  1
TABLEFORMAT_BEGIN
 90
        5
170
     1
 91
        0
 92
    32768
 62
   257
 93
        1
300
CONTENTFORMAT
  1
CONTENTFORMAT_BEGIN
 90
        0
 91
        0
 92
        4
 93
        0
300

 40
0.0
140
1.0
 94
        5
 62
     0
340
11
144
6.0
309
CONTENTFORMAT_END
171
     1
301
MARGIN
  1
CELLMARGIN_BEGIN
 40
1.5
 40
1.5
 40
1.5
 40
1.5
 40
1.5
 40
1.5
309
CELLMARGIN_END
 94
        6
 95
        1
302
GRIDFORMAT
  1
GRIDFORMAT_BEGIN
 90
        0
 91
        1
 62
     0
 92
       -2
340
14
 93
        0
 40
0.045
309
GRIDFORMAT_END
 95
        2
302
GRIDFORMAT
  1
GRIDFORMAT_BEGIN
 90
        0
 91
        1
 62
     0
 92
       -2
340
14
 93
        0
 40
0.045
309
GRIDFORMAT_END
 95
        4
302
GRIDFORMAT
  1
GRIDFORMAT_BEGIN
 90
        0
 91
        1
 62
     0
 92
       -2
340
14
 93
        0
 40
0.045
309
GRIDFORMAT_END
 95
        8
302
GRIDFORMAT
  1
GRIDFORMAT_BEGIN
 90
        0
 91
        1
 62
     0
 92
       -2
340
14
 93
        0
 40
0.045
309
GRIDFORMAT_END
 95
       16
302
GRIDFORMAT
  1
GRIDFORMAT_BEGIN
 90
        0
 91
        1
 62
     0
 92
       -2
340
14
 93
        0
 40
0.045
309
GRIDFORMAT_END
 95
       32
302
GRIDFORMAT
  1
GRIDFORMAT_BEGIN
 90
        0
 91
        1
 62
     0
 92
       -2
340
14
 93
        0
 40
0.045
309
GRIDFORMAT_END
309
TABLEFORMAT_END
  1
CELLSTYLE_BEGIN
 90
        1
 91
        1
300
_TITLE
309
CELLSTYLE_END
300
CELLSTYLE
  1
TABLEFORMAT_BEGIN
 90
        5
170
     1
 91
        0
 92
        0
 62
   257
 93
        1
300
CONTENTFORMAT
  1
CONTENTFORMAT_BEGIN
 90
        0
 91
        0
 92
        4
 93
        0
300

 40
0.0
140
1.0
 94
        5
 62
     0
340
11
144
4.5
309
CONTENTFORMAT_END
171
     1
301
MARGIN
  1
CELLMARGIN_BEGIN
 40
1.5
 40
1.5
 40
1.5
 40
1.5
 40
1.5
 40
1.5
309
CELLMARGIN_END
 94
        6
 95
        1
302
GRIDFORMAT
  1
GRIDFORMAT_BEGIN
 90
        0
 91
        1
 62
     0
 92
       -2
340
14
 93
        0
 40
0.045
309
GRIDFORMAT_END
 95
        2
302
GRIDFORMAT
  1
GRIDFORMAT_BEGIN
 90
        0
 91
        1
 62
     0
 92
       -2
340
14
 93
        0
 40
0.045
309
GRIDFORMAT_END
 95
        4
302
GRIDFORMAT
  1
GRIDFORMAT_BEGIN
 90
        0
 91
        1
 62
     0
 92
       -2
340
14
 93
        0
 40
0.045
309
GRIDFORMAT_END
 95
        8
302
GRIDFORMAT
  1
GRIDFORMAT_BEGIN
 90
        0
 91
        1
 62
     0
 92
       -2
340
14
 93
        0
 40
0.045
309
GRIDFORMAT_END
 95
       16
302
GRIDFORMAT
  1
GRIDFORMAT_BEGIN
 90
        0
 91
        1
 62
     0
 92
       -2
340
14
 93
        0
 40
0.045
309
GRIDFORMAT_END
 95
       32
302
GRIDFORMAT
  1
GRIDFORMAT_BEGIN
 90
        0
 91
        1
 62
     0
 92
       -2
340
14
 93
        0
 40
0.045
309
GRIDFORMAT_END
309
TABLEFORMAT_END
  1
CELLSTYLE_BEGIN
 90
        2
 91
        1
300
_HEADER
309
CELLSTYLE_END
300
CELLSTYLE
  1
TABLEFORMAT_BEGIN
 90
        5
170
     1
 91
        0
 92
        0
 62
   257
 93
        1
300
CONTENTFORMAT
  1
CONTENTFORMAT_BEGIN
 90
        0
 91
        0
 92
        4
 93
        0
300

 40
0.0
140
1.0
 94
        2
 62
     0
340
11
144
4.5
309
CONTENTFORMAT_END
171
     1
301
MARGIN
  1
CELLMARGIN_BEGIN
 40
1.5
 40
1.5
 40
1.5
 40
1.5
 40
1.5
 40
1.5
309
CELLMARGIN_END
 94
        6
 95
        1
302
GRIDFORMAT
  1
GRIDFORMAT_BEGIN
 90
        0
 91
        1
 62
     0
 92
       -2
340
14
 93
        0
 40
0.045
309
GRIDFORMAT_END
 95
        2
302
GRIDFORMAT
  1
GRIDFORMAT_BEGIN
 90
        0
 91
        1
 62
     0
 92
       -2
340
14
 93
        0
 40
0.045
309
GRIDFORMAT_END
 95
        4
302
GRIDFORMAT
  1
GRIDFORMAT_BEGIN
 90
        0
 91
        1
 62
     0
 92
       -2
340
14
 93
        0
 40
0.045
309
GRIDFORMAT_END
 95
        8
302
GRIDFORMAT
  1
GRIDFORMAT_BEGIN
 90
        0
 91
        1
 62
     0
 92
       -2
340
14
 93
        0
 40
0.045
309
GRIDFORMAT_END
 95
       16
302
GRIDFORMAT
  1
GRIDFORMAT_BEGIN
 90
        0
 91
        1
 62
     0
 92
       -2
340
14
 93
        0
 40
0.045
309
GRIDFORMAT_END
 95
       32
302
GRIDFORMAT
  1
GRIDFORMAT_BEGIN
 90
        0
 91
        1
 62
     0
 92
       -2
340
14
 93
        0
 40
0.045
309
GRIDFORMAT_END
309
TABLEFORMAT_END
  1
CELLSTYLE_BEGIN
 90
        3
 91
        2
300
_DATA
309
CELLSTYLE_END
  0
XRECORD
  5
1EE
102
{ACAD_REACTORS
330
1ED
102
}
330
1ED
100
AcDbXrecord
280
     1
102
RTVSPropertyOp0
 70
     1
102
RTVSPropertyOp1
 70
     1
102
RTVSPropertyOp2
 70
     1
102
RTVSPropertyOp3
 70
     1
102
RTVSPropertyOp4
 70
     1
102
RTVSPropertyOp5
 70
     1
102
RTVSPropertyOp6
 70
     1
102
RTVSPropertyOp7
 70
     1
102
RTVSPropertyOp8
 70
     1
102
RTVSPropertyOp9
 70
     1
102
RTVSPropertyOp10
 70
     1
102
RTVSPropertyOp11
 70
     1
102
RTVSPropertyOp12
 70
     1
102
RTVSPropertyOp13
 70
     1
102
RTVSPropertyOp14
 70
     1
102
RTVSPropertyOp15
 70
     1
102
RTVSPropertyOp16
 70
     1
102
RTVSPropertyOp17
 70
     1
102
RTVSPropertyOp18
 70
     1
102
RTVSPropertyOp19
 70
     1
102
RTVSPropertyOp20
 70
     1
102
RTVSPropertyOp21
 70
     1
102
RTVSPropertyOp22
 70
     1
102
RTVSPropertyOp23
 70
     1
102
RTVSPropertyOp24
 70
     1
102
RTVSPropertyOp25
 70
     1
102
RTVSPropertyOp26
 70
     1
102
RTVSPropertyOp27
 70
     1
102
RTVSPropertyOp28
 70
     1
102
RTVSPropertyOp29
 70
     1
102
RTVSPropertyOp30
 70
     1
102
RTVSPropertyOp31
 70
     1
102
RTVSPropertyOp32
 70
     1
102
RTVSPropertyOp33
 70
     1
102
RTVSPropertyOp34
 70
     1
102
RTVSPropertyOp35
 70
     1
102
RTVSPropertyOp36
 70
     1
102
RTVSPropertyOp37
 70
     1
102
RTVSPropertyOp38
 70
     1
102
RTVSPropertyOp39
 70
     1
102
RTVSPropertyOp40
 70
     1
102
RTVSPropertyOp41
 70
     1
102
RTVSPropertyOp42
 70
     1
102
RTVSPropertyOp43
 70
     1
102
RTVSPropertyOp44
 70
     1
102
RTVSPropertyOp45
 70
     1
102
RTVSPropertyOp46
 70
     1
102
RTVSPropertyOp47
 70
     1
102
RTVSPropertyOp48
 70
     1
102
RTVSPropertyOp49
 70
     1
102
RTVSPropertyOp50
 70
     1
102
RTVSPropertyOp51
 70
     0
102
RTVSPropertyOp52
 70
     0
102
RTVSPropertyOp53
 70
     1
102
RTVSPropertyOp54
 70
     1
102
RTVSPropertyOp55
 70
     1
102
RTVSPropertyOp56
 70
     1
102
RTVSPropertyOp57
 70
     1
102
RTVSPost2010Prop28
280
     1
102
RTVSPost2010PropOp28
 70
     1
102
RTVSPost2010Prop29
280
     1
102
RTVSPost2010PropOp29
 70
     1
102
RTVSPost2010Prop30
280
     0
102
RTVSPost2010PropOp30
 70
     1
102
RTVSPost2010Prop31
280
     0
102
RTVSPost2010PropOp31
 70
     1
102
RTVSPost2010Prop32
280
     0
102
RTVSPost2010PropOp32
 70
     1
102
RTVSPost2010Prop33
280
     0
102
RTVSPost2010PropOp33
 70
     1
102
RTVSPost2010Prop34
280
     0
102
RTVSPost2010PropOp34
 70
     1
102
RTVSPost2010Prop35
280
     0
102
RTVSPost2010PropOp35
 70
     1
102
RTVSPost2010Prop36
280
     0
102
RTVSPost2010PropOp36
 70
     1
102
RTVSPost2010Prop37
 90
       50
102
RTVSPost2010PropOp37
 70
     1
102
RTVSPost2010Prop38
140
0.0
102
RTVSPost2010PropOp38
 70
     1
102
RTVSPost2010Prop39
140
1.0
102
RTVSPost2010PropOp39
 70
     1
102
RTVSPost2010Prop40
 90
        0
102
RTVSPost2010PropOp40
 70
     1
102
RTVSPost2010Prop41ColorIndex
 90
       18
102
RTVSPost2010Prop41ColorRGB
 90
        0
102
RTVSPost2010PropOp41
 70
     1
102
RTVSPost2010Prop42
 90
       50
102
RTVSPost2010PropOp42
 70
     1
102
RTVSPost2010Prop43
 90
        3
102
RTVSPost2010PropOp43
 70
     1
102
RTVSPost2010Prop44ColorIndex
 90
        5
102
RTVSPost2010Prop44ColorRGB
 90
      255
102
RTVSPost2010PropOp44
 70
     1
102
RTVSPost2010Prop45
280
     0
102
RTVSPost2010PropOp45
 70
     1
102
RTVSPost2010Prop46
 90
       50
102
RTVSPost2010PropOp46
 70
     1
102
RTVSPost2010Prop47
 90
       50
102
RTVSPost2010PropOp47
 70
     1
102
RTVSPost2010Prop48
 90
       50
102
RTVSPost2010PropOp48
 70
     1
102
RTVSPost2010Prop49
280
     0
102
RTVSPost2010PropOp49
 70
     1
102
RTVSPost2010Prop50
 90
       50
102
RTVSPost2010PropOp50
 70
     1
102
RTVSPost2010Prop51ColorIndex
 90
      256
102
RTVSPost2010Prop51ColorRGB
 90
-16777216
102
RTVSPost2010PropOp51
 70
     0
102
RTVSPost2010Prop52
140
1.0
102
RTVSPost2010PropOp52
 70
     0
102
RTVSPost2010Prop53
 90
        2
102
RTVSPost2010PropOp53
 70
     1
102
RTVSPost2010Prop54
  1
strokes_ogs.tif
102
RTVSPost2010PropOp54
 70
     1
102
RTVSPost2010Prop55
280
     0
102
RTVSPost2010PropOp55
 70
     1
102
RTVSPost2010Prop56
140
1.0
102
RTVSPost2010PropOp56
 70
     1
102
RTVSPost2010Prop57
140
1.0
102
RTVSPost2010PropOp57
 70
     1
  0
XRECORD
  5
1F4
102
{ACAD_REACTORS
330
1F3
102
}
330
1F3
100
AcDbXrecord
280
     1
102
RTVSPropertyOp0
 70
     1
102
RTVSPropertyOp1
 70
     1
102
RTVSPropertyOp2
 70
     1
102
RTVSPropertyOp3
 70
     1
102
RTVSPropertyOp4
 70
     1
102
RTVSPropertyOp5
 70
     1
102
RTVSPropertyOp6
 70
     1
102
RTVSPropertyOp7
 70
     1
102
RTVSPropertyOp8
 70
     1
102
RTVSPropertyOp9
 70
     1
102
RTVSPropertyOp10
 70
     1
102
RTVSPropertyOp11
 70
     1
102
RTVSPropertyOp12
 70
     1
102
RTVSPropertyOp13
 70
     1
102
RTVSPropertyOp14
 70
     1
102
RTVSPropertyOp15
 70
     1
102
RTVSPropertyOp16
 70
     1
102
RTVSPropertyOp17
 70
     1
102
RTVSPropertyOp18
 70
     1
102
RTVSPropertyOp19
 70
     1
102
RTVSPropertyOp20
 70
     1
102
RTVSPropertyOp21
 70
     1
102
RTVSPropertyOp22
 70
     1
102
RTVSPropertyOp23
 70
     1
102
RTVSPropertyOp24
 70
     1
102
RTVSPropertyOp25
 70
     1
102
RTVSPropertyOp26
 70
     1
102
RTVSPropertyOp27
 70
     1
102
RTVSPropertyOp28
 70
     1
102
RTVSPropertyOp29
 70
     1
102
RTVSPropertyOp30
 70
     1
102
RTVSPropertyOp31
 70
     1
102
RTVSPropertyOp32
 70
     1
102
RTVSPropertyOp33
 70
     1
102
RTVSPropertyOp34
 70
     1
102
RTVSPropertyOp35
 70
     1
102
RTVSPropertyOp36
 70
     1
102
RTVSPropertyOp37
 70
     1
102
RTVSPropertyOp38
 70
     1
102
RTVSPropertyOp39
 70
     1
102
RTVSPropertyOp40
 70
     1
102
RTVSPropertyOp41
 70
     1
102
RTVSPropertyOp42
 70
     1
102
RTVSPropertyOp43
 70
     1
102
RTVSPropertyOp44
 70
     1
102
RTVSPropertyOp45
 70
     1
102
RTVSPropertyOp46
 70
     1
102
RTVSPropertyOp47
 70
     1
102
RTVSPropertyOp48
 70
     1
102
RTVSPropertyOp49
 70
     1
102
RTVSPropertyOp50
 70
     1
102
RTVSPropertyOp51
 70
     0
102
RTVSPropertyOp52
 70
     0
102
RTVSPropertyOp53
 70
     1
102
RTVSPropertyOp54
 70
     1
102
RTVSPropertyOp55
 70
     1
102
RTVSPropertyOp56
 70
     1
102
RTVSPropertyOp57
 70
     1
102
RTVSPost2010Prop28
280
     0
102
RTVSPost2010PropOp28
 70
     1
102
RTVSPost2010Prop29
280
     1
102
RTVSPost2010PropOp29
 70
     1
102
RTVSPost2010Prop30
280
     1
102
RTVSPost2010PropOp30
 70
     1
102
RTVSPost2010Prop31
280
     0
102
RTVSPost2010PropOp31
 70
     1
102
RTVSPost2010Prop32
280
     0
102
RTVSPost2010PropOp32
 70
     1
102
RTVSPost2010Prop33
280
     0
102
RTVSPost2010PropOp33
 70
     1
102
RTVSPost2010Prop34
280
     0
102
RTVSPost2010PropOp34
 70
     1
102
RTVSPost2010Prop35
280
     0
102
RTVSPost2010PropOp35
 70
     1
102
RTVSPost2010Prop36
280
     0
102
RTVSPost2010PropOp36
 70
     1
102
RTVSPost2010Prop37
 90
       50
102
RTVSPost2010PropOp37
 70
     1
102
RTVSPost2010Prop38
140
0.0
102
RTVSPost2010PropOp38
 70
     1
102
RTVSPost2010Prop39
140
1.0
102
RTVSPost2010PropOp39
 70
     1
102
RTVSPost2010Prop40
 90
        0
102
RTVSPost2010PropOp40
 70
     1
102
RTVSPost2010Prop41ColorIndex
 90
       18
102
RTVSPost2010Prop41ColorRGB
 90
        0
102
RTVSPost2010PropOp41
 70
     1
102
RTVSPost2010Prop42
 90
       50
102
RTVSPost2010PropOp42
 70
     1
102
RTVSPost2010Prop43
 90
        3
102
RTVSPost2010PropOp43
 70
     1
102
RTVSPost2010Prop44ColorIndex
 90
        5
102
RTVSPost2010Prop44ColorRGB
 90
      255
102
RTVSPost2010PropOp44
 70
     1
102
RTVSPost2010Prop45
280
     0
102
RTVSPost2010PropOp45
 70
     1
102
RTVSPost2010Prop46
 90
       50
102
RTVSPost2010PropOp46
 70
     1
102
RTVSPost2010Prop47
 90
       50
102
RTVSPost2010PropOp47
 70
     1
102
RTVSPost2010Prop48
 90
       50
102
RTVSPost2010PropOp48
 70
     1
102
RTVSPost2010Prop49
280
     0
102
RTVSPost2010PropOp49
 70
     1
102
RTVSPost2010Prop50
 90
       50
102
RTVSPost2010PropOp50
 70
     1
102
RTVSPost2010Prop51ColorIndex
 90
      256
102
RTVSPost2010Prop51ColorRGB
 90
-16777216
102
RTVSPost2010PropOp51
 70
     0
102
RTVSPost2010Prop52
140
1.0
102
RTVSPost2010PropOp52
 70
     0
102
RTVSPost2010Prop53
 90
        2
102
RTVSPost2010PropOp53
 70
     1
102
RTVSPost2010Prop54
  1
strokes_ogs.tif
102
RTVSPost2010PropOp54
 70
     1
102
RTVSPost2010Prop55
280
     0
102
RTVSPost2010PropOp55
 70
     1
102
RTVSPost2010Prop56
140
1.0
102
RTVSPost2010PropOp56
 70
     1
102
RTVSPost2010Prop57
140
1.0
102
RTVSPost2010PropOp57
 70
     1
  0
XRECORD
  5
1FC
102
{ACAD_REACTORS
330
1FB
102
}
330
1FB
100
AcDbXrecord
280
     1
102
RTVSPropertyOp0
 70
     1
102
RTVSPropertyOp1
 70
     1
102
RTVSPropertyOp2
 70
     1
102
RTVSPropertyOp3
 70
     1
102
RTVSPropertyOp4
 70
     1
102
RTVSPropertyOp5
 70
     1
102
RTVSPropertyOp6
 70
     1
102
RTVSPropertyOp7
 70
     1
102
RTVSPropertyOp8
 70
     1
102
RTVSPropertyOp9
 70
     1
102
RTVSPropertyOp10
 70
     1
102
RTVSPropertyOp11
 70
     1
102
RTVSPropertyOp12
 70
     1
102
RTVSPropertyOp13
 70
     1
102
RTVSPropertyOp14
 70
     1
102
RTVSPropertyOp15
 70
     1
102
RTVSPropertyOp16
 70
     1
102
RTVSPropertyOp17
 70
     1
102
RTVSPropertyOp18
 70
     1
102
RTVSPropertyOp19
 70
     1
102
RTVSPropertyOp20
 70
     1
102
RTVSPropertyOp21
 70
     1
102
RTVSPropertyOp22
 70
     1
102
RTVSPropertyOp23
 70
     1
102
RTVSPropertyOp24
 70
     1
102
RTVSPropertyOp25
 70
     1
102
RTVSPropertyOp26
 70
     1
102
RTVSPropertyOp27
 70
     1
102
RTVSPropertyOp28
 70
     1
102
RTVSPropertyOp29
 70
     1
102
RTVSPropertyOp30
 70
     1
102
RTVSPropertyOp31
 70
     1
102
RTVSPropertyOp32
 70
     1
102
RTVSPropertyOp33
 70
     1
102
RTVSPropertyOp34
 70
     1
102
RTVSPropertyOp35
 70
     1
102
RTVSPropertyOp36
 70
     1
102
RTVSPropertyOp37
 70
     1
102
RTVSPropertyOp38
 70
     1
102
RTVSPropertyOp39
 70
     1
102
RTVSPropertyOp40
 70
     1
102
RTVSPropertyOp41
 70
     1
102
RTVSPropertyOp42
 70
     1
102
RTVSPropertyOp43
 70
     1
102
RTVSPropertyOp44
 70
     1
102
RTVSPropertyOp45
 70
     1
102
RTVSPropertyOp46
 70
     1
102
RTVSPropertyOp47
 70
     1
102
RTVSPropertyOp48
 70
     1
102
RTVSPropertyOp49
 70
     1
102
RTVSPropertyOp50
 70
     1
102
RTVSPropertyOp51
 70
     0
102
RTVSPropertyOp52
 70
     0
102
RTVSPropertyOp53
 70
     1
102
RTVSPropertyOp54
 70
     1
102
RTVSPropertyOp55
 70
     1
102
RTVSPropertyOp56
 70
     1
102
RTVSPropertyOp57
 70
     1
102
RTVSPost2010Prop28
280
     0
102
RTVSPost2010PropOp28
 70
     1
102
RTVSPost2010Prop29
280
     1
102
RTVSPost2010PropOp29
 70
     1
102
RTVSPost2010Prop30
280
     1
102
RTVSPost2010PropOp30
 70
     1
102
RTVSPost2010Prop31
280
     0
102
RTVSPost2010PropOp31
 70
     1
102
RTVSPost2010Prop32
280
     0
102
RTVSPost2010PropOp32
 70
     1
102
RTVSPost2010Prop33
280
     0
102
RTVSPost2010PropOp33
 70
     1
102
RTVSPost2010Prop34
280
     0
102
RTVSPost2010PropOp34
 70
     1
102
RTVSPost2010Prop35
280
     0
102
RTVSPost2010PropOp35
 70
     1
102
RTVSPost2010Prop36
280
     0
102
RTVSPost2010PropOp36
 70
     1
102
RTVSPost2010Prop37
 90
       50
102
RTVSPost2010PropOp37
 70
     1
102
RTVSPost2010Prop38
140
0.0
102
RTVSPost2010PropOp38
 70
     1
102
RTVSPost2010Prop39
140
1.0
102
RTVSPost2010PropOp39
 70
     1
102
RTVSPost2010Prop40
 90
        0
102
RTVSPost2010PropOp40
 70
     1
102
RTVSPost2010Prop41ColorIndex
 90
       18
102
RTVSPost2010Prop41ColorRGB
 90
        0
102
RTVSPost2010PropOp41
 70
     1
102
RTVSPost2010Prop42
 90
       50
102
RTVSPost2010PropOp42
 70
     1
102
RTVSPost2010Prop43
 90
        3
102
RTVSPost2010PropOp43
 70
     1
102
RTVSPost2010Prop44ColorIndex
 90
        5
102
RTVSPost2010Prop44ColorRGB
 90
      255
102
RTVSPost2010PropOp44
 70
     1
102
RTVSPost2010Prop45
280
     0
102
RTVSPost2010PropOp45
 70
     1
102
RTVSPost2010Prop46
 90
       50
102
RTVSPost2010PropOp46
 70
     1
102
RTVSPost2010Prop47
 90
       50
102
RTVSPost2010PropOp47
 70
     1
102
RTVSPost2010Prop48
 90
       50
102
RTVSPost2010PropOp48
 70
     1
102
RTVSPost2010Prop49
280
     0
102
RTVSPost2010PropOp49
 70
     1
102
RTVSPost2010Prop50
 90
       50
102
RTVSPost2010PropOp50
 70
     1
102
RTVSPost2010Prop51ColorIndex
 90
      256
102
RTVSPost2010Prop51ColorRGB
 90
-16777216
102
RTVSPost2010PropOp51
 70
     0
102
RTVSPost2010Prop52
140
1.0
102
RTVSPost2010PropOp52
 70
     0
102
RTVSPost2010Prop53
 90
        2
102
RTVSPost2010PropOp53
 70
     1
102
RTVSPost2010Prop54
  1
strokes_ogs.tif
102
RTVSPost2010PropOp54
 70
     1
102
RTVSPost2010Prop55
280
     0
102
RTVSPost2010PropOp55
 70
     1
102
RTVSPost2010Prop56
140
1.0
102
RTVSPost2010PropOp56
 70
     1
102
RTVSPost2010Prop57
140
1.0
102
RTVSPost2010PropOp57
 70
     1
  0
XRECORD
  5
204
102
{ACAD_REACTORS
330
203
102
}
330
203
100
AcDbXrecord
280
     1
102
RTVSPropertyOp0
 70
     1
102
RTVSPropertyOp1
 70
     1
102
RTVSPropertyOp2
 70
     1
102
RTVSPropertyOp3
 70
     1
102
RTVSPropertyOp4
 70
     1
102
RTVSPropertyOp5
 70
     1
102
RTVSPropertyOp6
 70
     1
102
RTVSPropertyOp7
 70
     1
102
RTVSPropertyOp8
 70
     1
102
RTVSPropertyOp9
 70
     1
102
RTVSPropertyOp10
 70
     1
102
RTVSPropertyOp11
 70
     1
102
RTVSPropertyOp12
 70
     1
102
RTVSPropertyOp13
 70
     1
102
RTVSPropertyOp14
 70
     1
102
RTVSPropertyOp15
 70
     1
102
RTVSPropertyOp16
 70
     1
102
RTVSPropertyOp17
 70
     1
102
RTVSPropertyOp18
 70
     1
102
RTVSPropertyOp19
 70
     1
102
RTVSPropertyOp20
 70
     1
102
RTVSPropertyOp21
 70
     1
102
RTVSPropertyOp22
 70
     1
102
RTVSPropertyOp23
 70
     1
102
RTVSPropertyOp24
 70
     1
102
RTVSPropertyOp25
 70
     1
102
RTVSPropertyOp26
 70
     1
102
RTVSPropertyOp27
 70
     1
102
RTVSPropertyOp28
 70
     1
102
RTVSPropertyOp29
 70
     1
102
RTVSPropertyOp30
 70
     1
102
RTVSPropertyOp31
 70
     1
102
RTVSPropertyOp32
 70
     1
102
RTVSPropertyOp33
 70
     1
102
RTVSPropertyOp34
 70
     1
102
RTVSPropertyOp35
 70
     1
102
RTVSPropertyOp36
 70
     1
102
RTVSPropertyOp37
 70
     1
102
RTVSPropertyOp38
 70
     1
102
RTVSPropertyOp39
 70
     1
102
RTVSPropertyOp40
 70
     1
102
RTVSPropertyOp41
 70
     1
102
RTVSPropertyOp42
 70
     1
102
RTVSPropertyOp43
 70
     1
102
RTVSPropertyOp44
 70
     1
102
RTVSPropertyOp45
 70
     1
102
RTVSPropertyOp46
 70
     1
102
RTVSPropertyOp47
 70
     1
102
RTVSPropertyOp48
 70
     1
102
RTVSPropertyOp49
 70
     1
102
RTVSPropertyOp50
 70
     1
102
RTVSPropertyOp51
 70
     0
102
RTVSPropertyOp52
 70
     0
102
RTVSPropertyOp53
 70
     1
102
RTVSPropertyOp54
 70
     1
102
RTVSPropertyOp55
 70
     1
102
RTVSPropertyOp56
 70
     1
102
RTVSPropertyOp57
 70
     1
102
RTVSPost2010Prop28
280
     0
102
RTVSPost2010PropOp28
 70
     1
102
RTVSPost2010Prop29
280
     1
102
RTVSPost2010PropOp29
 70
     1
102
RTVSPost2010Prop30
280
     1
102
RTVSPost2010PropOp30
 70
     1
102
RTVSPost2010Prop31
280
     0
102
RTVSPost2010PropOp31
 70
     1
102
RTVSPost2010Prop32
280
     0
102
RTVSPost2010PropOp32
 70
     1
102
RTVSPost2010Prop33
280
     0
102
RTVSPost2010PropOp33
 70
     1
102
RTVSPost2010Prop34
280
     0
102
RTVSPost2010PropOp34
 70
     1
102
RTVSPost2010Prop35
280
     0
102
RTVSPost2010PropOp35
 70
     1
102
RTVSPost2010Prop36
280
     0
102
RTVSPost2010PropOp36
 70
     1
102
RTVSPost2010Prop37
 90
       50
102
RTVSPost2010PropOp37
 70
     1
102
RTVSPost2010Prop38
140
0.0
102
RTVSPost2010PropOp38
 70
     1
102
RTVSPost2010Prop39
140
1.0
102
RTVSPost2010PropOp39
 70
     1
102
RTVSPost2010Prop40
 90
        0
102
RTVSPost2010PropOp40
 70
     1
102
RTVSPost2010Prop41ColorIndex
 90
       18
102
RTVSPost2010Prop41ColorRGB
 90
        0
102
RTVSPost2010PropOp41
 70
     1
102
RTVSPost2010Prop42
 90
       50
102
RTVSPost2010PropOp42
 70
     1
102
RTVSPost2010Prop43
 90
        3
102
RTVSPost2010PropOp43
 70
     1
102
RTVSPost2010Prop44ColorIndex
 90
        5
102
RTVSPost2010Prop44ColorRGB
 90
      255
102
RTVSPost2010PropOp44
 70
     1
102
RTVSPost2010Prop45
280
     0
102
RTVSPost2010PropOp45
 70
     1
102
RTVSPost2010Prop46
 90
       50
102
RTVSPost2010PropOp46
 70
     1
102
RTVSPost2010Prop47
 90
       50
102
RTVSPost2010PropOp47
 70
     1
102
RTVSPost2010Prop48
 90
       50
102
RTVSPost2010PropOp48
 70
     1
102
RTVSPost2010Prop49
280
     0
102
RTVSPost2010PropOp49
 70
     1
102
RTVSPost2010Prop50
 90
       50
102
RTVSPost2010PropOp50
 70
     1
102
RTVSPost2010Prop51ColorIndex
 90
      256
102
RTVSPost2010Prop51ColorRGB
 90
-16777216
102
RTVSPost2010PropOp51
 70
     0
102
RTVSPost2010Prop52
140
1.0
102
RTVSPost2010PropOp52
 70
     0
102
RTVSPost2010Prop53
 90
        2
102
RTVSPost2010PropOp53
 70
     1
102
RTVSPost2010Prop54
  1
strokes_ogs.tif
102
RTVSPost2010PropOp54
 70
     1
102
RTVSPost2010Prop55
280
     0
102
RTVSPost2010PropOp55
 70
     1
102
RTVSPost2010Prop56
140
1.0
102
RTVSPost2010PropOp56
 70
     1
102
RTVSPost2010Prop57
140
1.0
102
RTVSPost2010PropOp57
 70
     1
  0
XRECORD
  5
1F8
102
{ACAD_REACTORS
330
1F7
102
}
330
1F7
100
AcDbXrecord
280
     1
102
RTVSPropertyOp0
 70
     1
102
RTVSPropertyOp1
 70
     1
102
RTVSPropertyOp2
 70
     1
102
RTVSPropertyOp3
 70
     1
102
RTVSPropertyOp4
 70
     1
102
RTVSPropertyOp5
 70
     1
102
RTVSPropertyOp6
 70
     1
102
RTVSPropertyOp7
 70
     1
102
RTVSPropertyOp8
 70
     1
102
RTVSPropertyOp9
 70
     1
102
RTVSPropertyOp10
 70
     1
102
RTVSPropertyOp11
 70
     1
102
RTVSPropertyOp12
 70
     1
102
RTVSPropertyOp13
 70
     1
102
RTVSPropertyOp14
 70
     1
102
RTVSPropertyOp15
 70
     1
102
RTVSPropertyOp16
 70
     1
102
RTVSPropertyOp17
 70
     1
102
RTVSPropertyOp18
 70
     1
102
RTVSPropertyOp19
 70
     1
102
RTVSPropertyOp20
 70
     1
102
RTVSPropertyOp21
 70
     1
102
RTVSPropertyOp22
 70
     1
102
RTVSPropertyOp23
 70
     1
102
RTVSPropertyOp24
 70
     1
102
RTVSPropertyOp25
 70
     1
102
RTVSPropertyOp26
 70
     1
102
RTVSPropertyOp27
 70
     1
102
RTVSPropertyOp28
 70
     1
102
RTVSPropertyOp29
 70
     1
102
RTVSPropertyOp30
 70
     1
102
RTVSPropertyOp31
 70
     1
102
RTVSPropertyOp32
 70
     1
102
RTVSPropertyOp33
 70
     1
102
RTVSPropertyOp34
 70
     1
102
RTVSPropertyOp35
 70
     1
102
RTVSPropertyOp36
 70
     1
102
RTVSPropertyOp37
 70
     1
102
RTVSPropertyOp38
 70
     1
102
RTVSPropertyOp39
 70
     1
102
RTVSPropertyOp40
 70
     1
102
RTVSPropertyOp41
 70
     1
102
RTVSPropertyOp42
 70
     1
102
RTVSPropertyOp43
 70
     1
102
RTVSPropertyOp44
 70
     1
102
RTVSPropertyOp45
 70
     1
102
RTVSPropertyOp46
 70
     1
102
RTVSPropertyOp47
 70
     1
102
RTVSPropertyOp48
 70
     1
102
RTVSPropertyOp49
 70
     1
102
RTVSPropertyOp50
 70
     1
102
RTVSPropertyOp51
 70
     0
102
RTVSPropertyOp52
 70
     0
102
RTVSPropertyOp53
 70
     1
102
RTVSPropertyOp54
 70
     1
102
RTVSPropertyOp55
 70
     1
102
RTVSPropertyOp56
 70
     1
102
RTVSPropertyOp57
 70
     1
102
RTVSPost2010Prop28
280
     0
102
RTVSPost2010PropOp28
 70
     1
102
RTVSPost2010Prop29
280
     1
102
RTVSPost2010PropOp29
 70
     1
102
RTVSPost2010Prop30
280
     1
102
RTVSPost2010PropOp30
 70
     1
102
RTVSPost2010Prop31
280
     0
102
RTVSPost2010PropOp31
 70
     1
102
RTVSPost2010Prop32
280
     0
102
RTVSPost2010PropOp32
 70
     1
102
RTVSPost2010Prop33
280
     0
102
RTVSPost2010PropOp33
 70
     1
102
RTVSPost2010Prop34
280
     0
102
RTVSPost2010PropOp34
 70
     1
102
RTVSPost2010Prop35
280
     0
102
RTVSPost2010PropOp35
 70
     1
102
RTVSPost2010Prop36
280
     0
102
RTVSPost2010PropOp36
 70
     1
102
RTVSPost2010Prop37
 90
       50
102
RTVSPost2010PropOp37
 70
     1
102
RTVSPost2010Prop38
140
0.0
102
RTVSPost2010PropOp38
 70
     1
102
RTVSPost2010Prop39
140
1.0
102
RTVSPost2010PropOp39
 70
     1
102
RTVSPost2010Prop40
 90
        0
102
RTVSPost2010PropOp40
 70
     1
102
RTVSPost2010Prop41ColorIndex
 90
       18
102
RTVSPost2010Prop41ColorRGB
 90
        0
102
RTVSPost2010PropOp41
 70
     1
102
RTVSPost2010Prop42
 90
       50
102
RTVSPost2010PropOp42
 70
     1
102
RTVSPost2010Prop43
 90
        3
102
RTVSPost2010PropOp43
 70
     1
102
RTVSPost2010Prop44ColorIndex
 90
        5
102
RTVSPost2010Prop44ColorRGB
 90
      255
102
RTVSPost2010PropOp44
 70
     1
102
RTVSPost2010Prop45
280
     0
102
RTVSPost2010PropOp45
 70
     1
102
RTVSPost2010Prop46
 90
       50
102
RTVSPost2010PropOp46
 70
     1
102
RTVSPost2010Prop47
 90
       50
102
RTVSPost2010PropOp47
 70
     1
102
RTVSPost2010Prop48
 90
       50
102
RTVSPost2010PropOp48
 70
     1
102
RTVSPost2010Prop49
280
     0
102
RTVSPost2010PropOp49
 70
     1
102
RTVSPost2010Prop50
 90
       50
102
RTVSPost2010PropOp50
 70
     1
102
RTVSPost2010Prop51ColorIndex
 90
      256
102
RTVSPost2010Prop51ColorRGB
 90
-16777216
102
RTVSPost2010PropOp51
 70
     0
102
RTVSPost2010Prop52
140
1.0
102
RTVSPost2010PropOp52
 70
     0
102
RTVSPost2010Prop53
 90
        2
102
RTVSPost2010PropOp53
 70
     1
102
RTVSPost2010Prop54
  1
strokes_ogs.tif
102
RTVSPost2010PropOp54
 70
     1
102
RTVSPost2010Prop55
280
     0
102
RTVSPost2010PropOp55
 70
     1
102
RTVSPost2010Prop56
140
1.0
102
RTVSPost2010PropOp56
 70
     1
102
RTVSPost2010Prop57
140
1.0
102
RTVSPost2010PropOp57
 70
     1
  0
XRECORD
  5
1FA
102
{ACAD_REACTORS
330
1F9
102
}
330
1F9
100
AcDbXrecord
280
     1
102
RTVSPropertyOp0
 70
     1
102
RTVSPropertyOp1
 70
     1
102
RTVSPropertyOp2
 70
     1
102
RTVSPropertyOp3
 70
     1
102
RTVSPropertyOp4
 70
     1
102
RTVSPropertyOp5
 70
     1
102
RTVSPropertyOp6
 70
     1
102
RTVSPropertyOp7
 70
     1
102
RTVSPropertyOp8
 70
     1
102
RTVSPropertyOp9
 70
     1
102
RTVSPropertyOp10
 70
     1
102
RTVSPropertyOp11
 70
     1
102
RTVSPropertyOp12
 70
     1
102
RTVSPropertyOp13
 70
     1
102
RTVSPropertyOp14
 70
     1
102
RTVSPropertyOp15
 70
     1
102
RTVSPropertyOp16
 70
     1
102
RTVSPropertyOp17
 70
     1
102
RTVSPropertyOp18
 70
     1
102
RTVSPropertyOp19
 70
     1
102
RTVSPropertyOp20
 70
     1
102
RTVSPropertyOp21
 70
     1
102
RTVSPropertyOp22
 70
     1
102
RTVSPropertyOp23
 70
     1
102
RTVSPropertyOp24
 70
     1
102
RTVSPropertyOp25
 70
     1
102
RTVSPropertyOp26
 70
     1
102
RTVSPropertyOp27
 70
     1
102
RTVSPropertyOp28
 70
     1
102
RTVSPropertyOp29
 70
     1
102
RTVSPropertyOp30
 70
     1
102
RTVSPropertyOp31
 70
     1
102
RTVSPropertyOp32
 70
     1
102
RTVSPropertyOp33
 70
     1
102
RTVSPropertyOp34
 70
     1
102
RTVSPropertyOp35
 70
     1
102
RTVSPropertyOp36
 70
     1
102
RTVSPropertyOp37
 70
     1
102
RTVSPropertyOp38
 70
     1
102
RTVSPropertyOp39
 70
     1
102
RTVSPropertyOp40
 70
     1
102
RTVSPropertyOp41
 70
     1
102
RTVSPropertyOp42
 70
     1
102
RTVSPropertyOp43
 70
     1
102
RTVSPropertyOp44
 70
     1
102
RTVSPropertyOp45
 70
     1
102
RTVSPropertyOp46
 70
     1
102
RTVSPropertyOp47
 70
     1
102
RTVSPropertyOp48
 70
     1
102
RTVSPropertyOp49
 70
     1
102
RTVSPropertyOp50
 70
     1
102
RTVSPropertyOp51
 70
     0
102
RTVSPropertyOp52
 70
     0
102
RTVSPropertyOp53
 70
     1
102
RTVSPropertyOp54
 70
     1
102
RTVSPropertyOp55
 70
     1
102
RTVSPropertyOp56
 70
     1
102
RTVSPropertyOp57
 70
     1
102
RTVSPost2010Prop28
280
     0
102
RTVSPost2010PropOp28
 70
     1
102
RTVSPost2010Prop29
280
     1
102
RTVSPost2010PropOp29
 70
     1
102
RTVSPost2010Prop30
280
     1
102
RTVSPost2010PropOp30
 70
     1
102
RTVSPost2010Prop31
280
     0
102
RTVSPost2010PropOp31
 70
     1
102
RTVSPost2010Prop32
280
     0
102
RTVSPost2010PropOp32
 70
     1
102
RTVSPost2010Prop33
280
     0
102
RTVSPost2010PropOp33
 70
     1
102
RTVSPost2010Prop34
280
     0
102
RTVSPost2010PropOp34
 70
     1
102
RTVSPost2010Prop35
280
     0
102
RTVSPost2010PropOp35
 70
     1
102
RTVSPost2010Prop36
280
     0
102
RTVSPost2010PropOp36
 70
     1
102
RTVSPost2010Prop37
 90
       50
102
RTVSPost2010PropOp37
 70
     1
102
RTVSPost2010Prop38
140
0.0
102
RTVSPost2010PropOp38
 70
     1
102
RTVSPost2010Prop39
140
1.0
102
RTVSPost2010PropOp39
 70
     1
102
RTVSPost2010Prop40
 90
        0
102
RTVSPost2010PropOp40
 70
     1
102
RTVSPost2010Prop41ColorIndex
 90
       18
102
RTVSPost2010Prop41ColorRGB
 90
        0
102
RTVSPost2010PropOp41
 70
     1
102
RTVSPost2010Prop42
 90
       50
102
RTVSPost2010PropOp42
 70
     1
102
RTVSPost2010Prop43
 90
        3
102
RTVSPost2010PropOp43
 70
     1
102
RTVSPost2010Prop44ColorIndex
 90
        5
102
RTVSPost2010Prop44ColorRGB
 90
      255
102
RTVSPost2010PropOp44
 70
     1
102
RTVSPost2010Prop45
280
     0
102
RTVSPost2010PropOp45
 70
     1
102
RTVSPost2010Prop46
 90
       50
102
RTVSPost2010PropOp46
 70
     1
102
RTVSPost2010Prop47
 90
       50
102
RTVSPost2010PropOp47
 70
     1
102
RTVSPost2010Prop48
 90
       50
102
RTVSPost2010PropOp48
 70
     1
102
RTVSPost2010Prop49
280
     0
102
RTVSPost2010PropOp49
 70
     1
102
RTVSPost2010Prop50
 90
       50
102
RTVSPost2010PropOp50
 70
     1
102
RTVSPost2010Prop51ColorIndex
 90
      256
102
RTVSPost2010Prop51ColorRGB
 90
-16777216
102
RTVSPost2010PropOp51
 70
     0
102
RTVSPost2010Prop52
140
1.0
102
RTVSPost2010PropOp52
 70
     0
102
RTVSPost2010Prop53
 90
        2
102
RTVSPost2010PropOp53
 70
     1
102
RTVSPost2010Prop54
  1
strokes_ogs.tif
102
RTVSPost2010PropOp54
 70
     1
102
RTVSPost2010Prop55
280
     0
102
RTVSPost2010PropOp55
 70
     1
102
RTVSPost2010Prop56
140
1.0
102
RTVSPost2010PropOp56
 70
     1
102
RTVSPost2010Prop57
140
1.0
102
RTVSPost2010PropOp57
 70
     1
  0
XRECORD
  5
20A
102
{ACAD_REACTORS
330
209
102
}
330
209
100
AcDbXrecord
280
     1
102
RTVSPropertyOp0
 70
     0
102
RTVSPropertyOp1
 70
     0
102
RTVSPropertyOp2
 70
     0
102
RTVSPropertyOp3
 70
     0
102
RTVSPropertyOp4
 70
     0
102
RTVSPropertyOp5
 70
     0
102
RTVSPropertyOp6
 70
     0
102
RTVSPropertyOp7
 70
     0
102
RTVSPropertyOp8
 70
     0
102
RTVSPropertyOp9
 70
     0
102
RTVSPropertyOp10
 70
     0
102
RTVSPropertyOp11
 70
     0
102
RTVSPropertyOp12
 70
     0
102
RTVSPropertyOp13
 70
     0
102
RTVSPropertyOp14
 70
     2
102
RTVSPropertyOp15
 70
     0
102
RTVSPropertyOp16
 70
     0
102
RTVSPropertyOp17
 70
     0
102
RTVSPropertyOp18
 70
     0
102
RTVSPropertyOp19
 70
     0
102
RTVSPropertyOp20
 70
     0
102
RTVSPropertyOp21
 70
     0
102
RTVSPropertyOp22
 70
     0
102
RTVSPropertyOp23
 70
     0
102
RTVSPropertyOp24
 70
     0
102
RTVSPropertyOp25
 70
     0
102
RTVSPropertyOp26
 70
     0
102
RTVSPropertyOp27
 70
     0
102
RTVSPropertyOp28
 70
     0
102
RTVSPropertyOp29
 70
     0
102
RTVSPropertyOp30
 70
     0
102
RTVSPropertyOp31
 70
     0
102
RTVSPropertyOp32
 70
     0
102
RTVSPropertyOp33
 70
     0
102
RTVSPropertyOp34
 70
     0
102
RTVSPropertyOp35
 70
     0
102
RTVSPropertyOp36
 70
     0
102
RTVSPropertyOp37
 70
     0
102
RTVSPropertyOp38
 70
     0
102
RTVSPropertyOp39
 70
     0
102
RTVSPropertyOp40
 70
     0
102
RTVSPropertyOp41
 70
     0
102
RTVSPropertyOp42
 70
     0
102
RTVSPropertyOp43
 70
     0
102
RTVSPropertyOp44
 70
     0
102
RTVSPropertyOp45
 70
     0
102
RTVSPropertyOp46
 70
     0
102
RTVSPropertyOp47
 70
     0
102
RTVSPropertyOp48
 70
     0
102
RTVSPropertyOp49
 70
     0
102
RTVSPropertyOp50
 70
     0
102
RTVSPropertyOp51
 70
     0
102
RTVSPropertyOp52
 70
     0
102
RTVSPropertyOp53
 70
     0
102
RTVSPropertyOp54
 70
     0
102
RTVSPropertyOp55
 70
     0
102
RTVSPropertyOp56
 70
     0
102
RTVSPropertyOp57
 70
     0
102
RTVSPost2010Prop28
280
     0
102
RTVSPost2010PropOp28
 70
     0
102
RTVSPost2010Prop29
280
     1
102
RTVSPost2010PropOp29
 70
     0
102
RTVSPost2010Prop30
280
     1
102
RTVSPost2010PropOp30
 70
     0
102
RTVSPost2010Prop31
280
     0
102
RTVSPost2010PropOp31
 70
     0
102
RTVSPost2010Prop32
280
     0
102
RTVSPost2010PropOp32
 70
     0
102
RTVSPost2010Prop33
280
     0
102
RTVSPost2010PropOp33
 70
     0
102
RTVSPost2010Prop34
280
     0
102
RTVSPost2010PropOp34
 70
     0
102
RTVSPost2010Prop35
280
     0
102
RTVSPost2010PropOp35
 70
     0
102
RTVSPost2010Prop36
280
     0
102
RTVSPost2010PropOp36
 70
     0
102
RTVSPost2010Prop37
 90
       50
102
RTVSPost2010PropOp37
 70
     0
102
RTVSPost2010Prop38
140
0.0
102
RTVSPost2010PropOp38
 70
     0
102
RTVSPost2010Prop39
140
1.0
102
RTVSPost2010PropOp39
 70
     0
102
RTVSPost2010Prop40
 90
        0
102
RTVSPost2010PropOp40
 70
     0
102
RTVSPost2010Prop41ColorIndex
 90
       18
102
RTVSPost2010Prop41ColorRGB
 90
        0
102
RTVSPost2010PropOp41
 70
     0
102
RTVSPost2010Prop42
 90
       50
102
RTVSPost2010PropOp42
 70
     0
102
RTVSPost2010Prop43
 90
        3
102
RTVSPost2010PropOp43
 70
     0
102
RTVSPost2010Prop44ColorIndex
 90
        5
102
RTVSPost2010Prop44ColorRGB
 90
      255
102
RTVSPost2010PropOp44
 70
     0
102
RTVSPost2010Prop45
280
     0
102
RTVSPost2010PropOp45
 70
     0
102
RTVSPost2010Prop46
 90
       50
102
RTVSPost2010PropOp46
 70
     0
102
RTVSPost2010Prop47
 90
       50
102
RTVSPost2010PropOp47
 70
     0
102
RTVSPost2010Prop48
 90
       50
102
RTVSPost2010PropOp48
 70
     0
102
RTVSPost2010Prop49
280
     0
102
RTVSPost2010PropOp49
 70
     0
102
RTVSPost2010Prop50
 90
       50
102
RTVSPost2010PropOp50
 70
     0
102
RTVSPost2010Prop51ColorIndex
 90
      256
102
RTVSPost2010Prop51ColorRGB
 90
-16777216
102
RTVSPost2010PropOp51
 70
     0
102
RTVSPost2010Prop52
140
1.0
102
RTVSPost2010PropOp52
 70
     0
102
RTVSPost2010Prop53
 90
        2
102
RTVSPost2010PropOp53
 70
     0
102
RTVSPost2010Prop54
  1
strokes_ogs.tif
102
RTVSPost2010PropOp54
 70
     0
102
RTVSPost2010Prop55
280
     0
102
RTVSPost2010PropOp55
 70
     0
102
RTVSPost2010Prop56
140
1.0
102
RTVSPost2010PropOp56
 70
     0
102
RTVSPost2010Prop57
140
1.0
102
RTVSPost2010PropOp57
 70
     0
  0
XRECORD
  5
202
102
{ACAD_REACTORS
330
201
102
}
330
201
100
AcDbXrecord
280
     1
102
RTVSPropertyOp0
 70
     1
102
RTVSPropertyOp1
 70
     1
102
RTVSPropertyOp2
 70
     1
102
RTVSPropertyOp3
 70
     1
102
RTVSPropertyOp4
 70
     1
102
RTVSPropertyOp5
 70
     1
102
RTVSPropertyOp6
 70
     1
102
RTVSPropertyOp7
 70
     1
102
RTVSPropertyOp8
 70
     1
102
RTVSPropertyOp9
 70
     1
102
RTVSPropertyOp10
 70
     1
102
RTVSPropertyOp11
 70
     1
102
RTVSPropertyOp12
 70
     1
102
RTVSPropertyOp13
 70
     1
102
RTVSPropertyOp14
 70
     1
102
RTVSPropertyOp15
 70
     1
102
RTVSPropertyOp16
 70
     1
102
RTVSPropertyOp17
 70
     1
102
RTVSPropertyOp18
 70
     1
102
RTVSPropertyOp19
 70
     1
102
RTVSPropertyOp20
 70
     1
102
RTVSPropertyOp21
 70
     1
102
RTVSPropertyOp22
 70
     1
102
RTVSPropertyOp23
 70
     1
102
RTVSPropertyOp24
 70
     1
102
RTVSPropertyOp25
 70
     1
102
RTVSPropertyOp26
 70
     1
102
RTVSPropertyOp27
 70
     1
102
RTVSPropertyOp28
 70
     1
102
RTVSPropertyOp29
 70
     1
102
RTVSPropertyOp30
 70
     1
102
RTVSPropertyOp31
 70
     1
102
RTVSPropertyOp32
 70
     1
102
RTVSPropertyOp33
 70
     1
102
RTVSPropertyOp34
 70
     1
102
RTVSPropertyOp35
 70
     1
102
RTVSPropertyOp36
 70
     1
102
RTVSPropertyOp37
 70
     1
102
RTVSPropertyOp38
 70
     1
102
RTVSPropertyOp39
 70
     1
102
RTVSPropertyOp40
 70
     1
102
RTVSPropertyOp41
 70
     1
102
RTVSPropertyOp42
 70
     1
102
RTVSPropertyOp43
 70
     1
102
RTVSPropertyOp44
 70
     1
102
RTVSPropertyOp45
 70
     1
102
RTVSPropertyOp46
 70
     1
102
RTVSPropertyOp47
 70
     1
102
RTVSPropertyOp48
 70
     1
102
RTVSPropertyOp49
 70
     1
102
RTVSPropertyOp50
 70
     1
102
RTVSPropertyOp51
 70
     0
102
RTVSPropertyOp52
 70
     0
102
RTVSPropertyOp53
 70
     1
102
RTVSPropertyOp54
 70
     1
102
RTVSPropertyOp55
 70
     1
102
RTVSPropertyOp56
 70
     1
102
RTVSPropertyOp57
 70
     1
102
RTVSPost2010Prop28
280
     0
102
RTVSPost2010PropOp28
 70
     1
102
RTVSPost2010Prop29
280
     1
102
RTVSPost2010PropOp29
 70
     1
102
RTVSPost2010Prop30
280
     1
102
RTVSPost2010PropOp30
 70
     1
102
RTVSPost2010Prop31
280
     0
102
RTVSPost2010PropOp31
 70
     1
102
RTVSPost2010Prop32
280
     0
102
RTVSPost2010PropOp32
 70
     1
102
RTVSPost2010Prop33
280
     0
102
RTVSPost2010PropOp33
 70
     1
102
RTVSPost2010Prop34
280
     0
102
RTVSPost2010PropOp34
 70
     1
102
RTVSPost2010Prop35
280
     0
102
RTVSPost2010PropOp35
 70
     1
102
RTVSPost2010Prop36
280
     0
102
RTVSPost2010PropOp36
 70
     1
102
RTVSPost2010Prop37
 90
       50
102
RTVSPost2010PropOp37
 70
     1
102
RTVSPost2010Prop38
140
0.0
102
RTVSPost2010PropOp38
 70
     1
102
RTVSPost2010Prop39
140
1.0
102
RTVSPost2010PropOp39
 70
     1
102
RTVSPost2010Prop40
 90
        0
102
RTVSPost2010PropOp40
 70
     1
102
RTVSPost2010Prop41ColorIndex
 90
       18
102
RTVSPost2010Prop41ColorRGB
 90
        0
102
RTVSPost2010PropOp41
 70
     1
102
RTVSPost2010Prop42
 90
       50
102
RTVSPost2010PropOp42
 70
     1
102
RTVSPost2010Prop43
 90
        3
102
RTVSPost2010PropOp43
 70
     1
102
RTVSPost2010Prop44ColorIndex
 90
        5
102
RTVSPost2010Prop44ColorRGB
 90
      255
102
RTVSPost2010PropOp44
 70
     1
102
RTVSPost2010Prop45
280
     0
102
RTVSPost2010PropOp45
 70
     1
102
RTVSPost2010Prop46
 90
       50
102
RTVSPost2010PropOp46
 70
     1
102
RTVSPost2010Prop47
 90
       50
102
RTVSPost2010PropOp47
 70
     1
102
RTVSPost2010Prop48
 90
       50
102
RTVSPost2010PropOp48
 70
     1
102
RTVSPost2010Prop49
280
     0
102
RTVSPost2010PropOp49
 70
     1
102
RTVSPost2010Prop50
 90
       50
102
RTVSPost2010PropOp50
 70
     1
102
RTVSPost2010Prop51ColorIndex
 90
      256
102
RTVSPost2010Prop51ColorRGB
 90
-16777216
102
RTVSPost2010PropOp51
 70
     0
102
RTVSPost2010Prop52
140
1.0
102
RTVSPost2010PropOp52
 70
     0
102
RTVSPost2010Prop53
 90
        2
102
RTVSPost2010PropOp53
 70
     1
102
RTVSPost2010Prop54
  1
strokes_ogs.tif
102
RTVSPost2010PropOp54
 70
     1
102
RTVSPost2010Prop55
280
     0
102
RTVSPost2010PropOp55
 70
     1
102
RTVSPost2010Prop56
140
1.0
102
RTVSPost2010PropOp56
 70
     1
102
RTVSPost2010Prop57
140
1.0
102
RTVSPost2010PropOp57
 70
     1
  0
XRECORD
  5
1E6
102
{ACAD_REACTORS
330
1E5
102
}
330
1E5
100
AcDbXrecord
280
     1
102
RTVSPropertyOp0
 70
     1
102
RTVSPropertyOp1
 70
     1
102
RTVSPropertyOp2
 70
     1
102
RTVSPropertyOp3
 70
     1
102
RTVSPropertyOp4
 70
     1
102
RTVSPropertyOp5
 70
     1
102
RTVSPropertyOp6
 70
     1
102
RTVSPropertyOp7
 70
     1
102
RTVSPropertyOp8
 70
     1
102
RTVSPropertyOp9
 70
     1
102
RTVSPropertyOp10
 70
     1
102
RTVSPropertyOp11
 70
     1
102
RTVSPropertyOp12
 70
     1
102
RTVSPropertyOp13
 70
     1
102
RTVSPropertyOp14
 70
     1
102
RTVSPropertyOp15
 70
     1
102
RTVSPropertyOp16
 70
     1
102
RTVSPropertyOp17
 70
     1
102
RTVSPropertyOp18
 70
     1
102
RTVSPropertyOp19
 70
     1
102
RTVSPropertyOp20
 70
     1
102
RTVSPropertyOp21
 70
     1
102
RTVSPropertyOp22
 70
     1
102
RTVSPropertyOp23
 70
     1
102
RTVSPropertyOp24
 70
     1
102
RTVSPropertyOp25
 70
     1
102
RTVSPropertyOp26
 70
     1
102
RTVSPropertyOp27
 70
     1
102
RTVSPropertyOp28
 70
     1
102
RTVSPropertyOp29
 70
     1
102
RTVSPropertyOp30
 70
     1
102
RTVSPropertyOp31
 70
     1
102
RTVSPropertyOp32
 70
     1
102
RTVSPropertyOp33
 70
     1
102
RTVSPropertyOp34
 70
     1
102
RTVSPropertyOp35
 70
     1
102
RTVSPropertyOp36
 70
     1
102
RTVSPropertyOp37
 70
     1
102
RTVSPropertyOp38
 70
     1
102
RTVSPropertyOp39
 70
     1
102
RTVSPropertyOp40
 70
     1
102
RTVSPropertyOp41
 70
     1
102
RTVSPropertyOp42
 70
     1
102
RTVSPropertyOp43
 70
     1
102
RTVSPropertyOp44
 70
     1
102
RTVSPropertyOp45
 70
     1
102
RTVSPropertyOp46
 70
     1
102
RTVSPropertyOp47
 70
     1
102
RTVSPropertyOp48
 70
     1
102
RTVSPropertyOp49
 70
     1
102
RTVSPropertyOp50
 70
     1
102
RTVSPropertyOp51
 70
     0
102
RTVSPropertyOp52
 70
     0
102
RTVSPropertyOp53
 70
     1
102
RTVSPropertyOp54
 70
     1
102
RTVSPropertyOp55
 70
     1
102
RTVSPropertyOp56
 70
     1
102
RTVSPropertyOp57
 70
     1
102
RTVSPost2010Prop28
280
     0
102
RTVSPost2010PropOp28
 70
     1
102
RTVSPost2010Prop29
280
     1
102
RTVSPost2010PropOp29
 70
     1
102
RTVSPost2010Prop30
280
     1
102
RTVSPost2010PropOp30
 70
     1
102
RTVSPost2010Prop31
280
     0
102
RTVSPost2010PropOp31
 70
     1
102
RTVSPost2010Prop32
280
     0
102
RTVSPost2010PropOp32
 70
     1
102
RTVSPost2010Prop33
280
     0
102
RTVSPost2010PropOp33
 70
     1
102
RTVSPost2010Prop34
280
     0
102
RTVSPost2010PropOp34
 70
     1
102
RTVSPost2010Prop35
280
     0
102
RTVSPost2010PropOp35
 70
     1
102
RTVSPost2010Prop36
280
     0
102
RTVSPost2010PropOp36
 70
     1
102
RTVSPost2010Prop37
 90
       50
102
RTVSPost2010PropOp37
 70
     1
102
RTVSPost2010Prop38
140
0.0
102
RTVSPost2010PropOp38
 70
     1
102
RTVSPost2010Prop39
140
1.0
102
RTVSPost2010PropOp39
 70
     1
102
RTVSPost2010Prop40
 90
        0
102
RTVSPost2010PropOp40
 70
     1
102
RTVSPost2010Prop41ColorIndex
 90
       18
102
RTVSPost2010Prop41ColorRGB
 90
        0
102
RTVSPost2010PropOp41
 70
     1
102
RTVSPost2010Prop42
 90
       50
102
RTVSPost2010PropOp42
 70
     1
102
RTVSPost2010Prop43
 90
        3
102
RTVSPost2010PropOp43
 70
     1
102
RTVSPost2010Prop44ColorIndex
 90
        5
102
RTVSPost2010Prop44ColorRGB
 90
      255
102
RTVSPost2010PropOp44
 70
     1
102
RTVSPost2010Prop45
280
     0
102
RTVSPost2010PropOp45
 70
     1
102
RTVSPost2010Prop46
 90
       50
102
RTVSPost2010PropOp46
 70
     1
102
RTVSPost2010Prop47
 90
       50
102
RTVSPost2010PropOp47
 70
     1
102
RTVSPost2010Prop48
 90
       50
102
RTVSPost2010PropOp48
 70
     1
102
RTVSPost2010Prop49
280
     0
102
RTVSPost2010PropOp49
 70
     1
102
RTVSPost2010Prop50
 90
       50
102
RTVSPost2010PropOp50
 70
     1
102
RTVSPost2010Prop51ColorIndex
 90
      256
102
RTVSPost2010Prop51ColorRGB
 90
-16777216
102
RTVSPost2010PropOp51
 70
     0
102
RTVSPost2010Prop52
140
1.0
102
RTVSPost2010PropOp52
 70
     0
102
RTVSPost2010Prop53
 90
        2
102
RTVSPost2010PropOp53
 70
     1
102
RTVSPost2010Prop54
  1
strokes_ogs.tif
102
RTVSPost2010PropOp54
 70
     1
102
RTVSPost2010Prop55
280
     0
102
RTVSPost2010PropOp55
 70
     1
102
RTVSPost2010Prop56
140
1.0
102
RTVSPost2010PropOp56
 70
     1
102
RTVSPost2010Prop57
140
1.0
102
RTVSPost2010PropOp57
 70
     1
  0
XRECORD
  5
1E8
102
{ACAD_REACTORS
330
1E7
102
}
330
1E7
100
AcDbXrecord
280
     1
102
RTVSPropertyOp0
 70
     1
102
RTVSPropertyOp1
 70
     1
102
RTVSPropertyOp2
 70
     1
102
RTVSPropertyOp3
 70
     1
102
RTVSPropertyOp4
 70
     1
102
RTVSPropertyOp5
 70
     1
102
RTVSPropertyOp6
 70
     1
102
RTVSPropertyOp7
 70
     1
102
RTVSPropertyOp8
 70
     1
102
RTVSPropertyOp9
 70
     1
102
RTVSPropertyOp10
 70
     1
102
RTVSPropertyOp11
 70
     1
102
RTVSPropertyOp12
 70
     1
102
RTVSPropertyOp13
 70
     1
102
RTVSPropertyOp14
 70
     1
102
RTVSPropertyOp15
 70
     1
102
RTVSPropertyOp16
 70
     1
102
RTVSPropertyOp17
 70
     1
102
RTVSPropertyOp18
 70
     1
102
RTVSPropertyOp19
 70
     1
102
RTVSPropertyOp20
 70
     1
102
RTVSPropertyOp21
 70
     1
102
RTVSPropertyOp22
 70
     1
102
RTVSPropertyOp23
 70
     1
102
RTVSPropertyOp24
 70
     1
102
RTVSPropertyOp25
 70
     1
102
RTVSPropertyOp26
 70
     1
102
RTVSPropertyOp27
 70
     1
102
RTVSPropertyOp28
 70
     1
102
RTVSPropertyOp29
 70
     1
102
RTVSPropertyOp30
 70
     1
102
RTVSPropertyOp31
 70
     1
102
RTVSPropertyOp32
 70
     1
102
RTVSPropertyOp33
 70
     1
102
RTVSPropertyOp34
 70
     1
102
RTVSPropertyOp35
 70
     1
102
RTVSPropertyOp36
 70
     1
102
RTVSPropertyOp37
 70
     1
102
RTVSPropertyOp38
 70
     1
102
RTVSPropertyOp39
 70
     1
102
RTVSPropertyOp40
 70
     1
102
RTVSPropertyOp41
 70
     1
102
RTVSPropertyOp42
 70
     1
102
RTVSPropertyOp43
 70
     1
102
RTVSPropertyOp44
 70
     1
102
RTVSPropertyOp45
 70
     1
102
RTVSPropertyOp46
 70
     1
102
RTVSPropertyOp47
 70
     1
102
RTVSPropertyOp48
 70
     1
102
RTVSPropertyOp49
 70
     1
102
RTVSPropertyOp50
 70
     1
102
RTVSPropertyOp51
 70
     0
102
RTVSPropertyOp52
 70
     0
102
RTVSPropertyOp53
 70
     1
102
RTVSPropertyOp54
 70
     1
102
RTVSPropertyOp55
 70
     1
102
RTVSPropertyOp56
 70
     1
102
RTVSPropertyOp57
 70
     1
102
RTVSPost2010Prop28
280
     0
102
RTVSPost2010PropOp28
 70
     1
102
RTVSPost2010Prop29
280
     1
102
RTVSPost2010PropOp29
 70
     1
102
RTVSPost2010Prop30
280
     1
102
RTVSPost2010PropOp30
 70
     1
102
RTVSPost2010Prop31
280
     0
102
RTVSPost2010PropOp31
 70
     1
102
RTVSPost2010Prop32
280
     0
102
RTVSPost2010PropOp32
 70
     1
102
RTVSPost2010Prop33
280
     0
102
RTVSPost2010PropOp33
 70
     1
102
RTVSPost2010Prop34
280
     0
102
RTVSPost2010PropOp34
 70
     1
102
RTVSPost2010Prop35
280
     0
102
RTVSPost2010PropOp35
 70
     1
102
RTVSPost2010Prop36
280
     0
102
RTVSPost2010PropOp36
 70
     1
102
RTVSPost2010Prop37
 90
       50
102
RTVSPost2010PropOp37
 70
     1
102
RTVSPost2010Prop38
140
0.0
102
RTVSPost2010PropOp38
 70
     1
102
RTVSPost2010Prop39
140
1.0
102
RTVSPost2010PropOp39
 70
     1
102
RTVSPost2010Prop40
 90
        0
102
RTVSPost2010PropOp40
 70
     1
102
RTVSPost2010Prop41ColorIndex
 90
       18
102
RTVSPost2010Prop41ColorRGB
 90
        0
102
RTVSPost2010PropOp41
 70
     1
102
RTVSPost2010Prop42
 90
       50
102
RTVSPost2010PropOp42
 70
     1
102
RTVSPost2010Prop43
 90
        3
102
RTVSPost2010PropOp43
 70
     1
102
RTVSPost2010Prop44ColorIndex
 90
        5
102
RTVSPost2010Prop44ColorRGB
 90
      255
102
RTVSPost2010PropOp44
 70
     1
102
RTVSPost2010Prop45
280
     0
102
RTVSPost2010PropOp45
 70
     1
102
RTVSPost2010Prop46
 90
       50
102
RTVSPost2010PropOp46
 70
     1
102
RTVSPost2010Prop47
 90
       50
102
RTVSPost2010PropOp47
 70
     1
102
RTVSPost2010Prop48
 90
       50
102
RTVSPost2010PropOp48
 70
     1
102
RTVSPost2010Prop49
280
     0
102
RTVSPost2010PropOp49
 70
     1
102
RTVSPost2010Prop50
 90
       50
102
RTVSPost2010PropOp50
 70
     1
102
RTVSPost2010Prop51ColorIndex
 90
      256
102
RTVSPost2010Prop51ColorRGB
 90
-16777216
102
RTVSPost2010PropOp51
 70
     0
102
RTVSPost2010Prop52
140
1.0
102
RTVSPost2010PropOp52
 70
     0
102
RTVSPost2010Prop53
 90
        2
102
RTVSPost2010PropOp53
 70
     1
102
RTVSPost2010Prop54
  1
strokes_ogs.tif
102
RTVSPost2010PropOp54
 70
     1
102
RTVSPost2010Prop55
280
     0
102
RTVSPost2010PropOp55
 70
     1
102
RTVSPost2010Prop56
140
1.0
102
RTVSPost2010PropOp56
 70
     1
102
RTVSPost2010Prop57
140
1.0
102
RTVSPost2010PropOp57
 70
     1
  0
XRECORD
  5
1EA
102
{ACAD_REACTORS
330
1E9
102
}
330
1E9
100
AcDbXrecord
280
     1
102
RTVSPropertyOp0
 70
     1
102
RTVSPropertyOp1
 70
     1
102
RTVSPropertyOp2
 70
     1
102
RTVSPropertyOp3
 70
     1
102
RTVSPropertyOp4
 70
     1
102
RTVSPropertyOp5
 70
     1
102
RTVSPropertyOp6
 70
     1
102
RTVSPropertyOp7
 70
     1
102
RTVSPropertyOp8
 70
     1
102
RTVSPropertyOp9
 70
     1
102
RTVSPropertyOp10
 70
     1
102
RTVSPropertyOp11
 70
     1
102
RTVSPropertyOp12
 70
     1
102
RTVSPropertyOp13
 70
     1
102
RTVSPropertyOp14
 70
     1
102
RTVSPropertyOp15
 70
     1
102
RTVSPropertyOp16
 70
     1
102
RTVSPropertyOp17
 70
     1
102
RTVSPropertyOp18
 70
     1
102
RTVSPropertyOp19
 70
     1
102
RTVSPropertyOp20
 70
     1
102
RTVSPropertyOp21
 70
     1
102
RTVSPropertyOp22
 70
     1
102
RTVSPropertyOp23
 70
     1
102
RTVSPropertyOp24
 70
     1
102
RTVSPropertyOp25
 70
     1
102
RTVSPropertyOp26
 70
     1
102
RTVSPropertyOp27
 70
     1
102
RTVSPropertyOp28
 70
     1
102
RTVSPropertyOp29
 70
     1
102
RTVSPropertyOp30
 70
     1
102
RTVSPropertyOp31
 70
     1
102
RTVSPropertyOp32
 70
     1
102
RTVSPropertyOp33
 70
     1
102
RTVSPropertyOp34
 70
     1
102
RTVSPropertyOp35
 70
     1
102
RTVSPropertyOp36
 70
     1
102
RTVSPropertyOp37
 70
     1
102
RTVSPropertyOp38
 70
     1
102
RTVSPropertyOp39
 70
     1
102
RTVSPropertyOp40
 70
     1
102
RTVSPropertyOp41
 70
     1
102
RTVSPropertyOp42
 70
     1
102
RTVSPropertyOp43
 70
     1
102
RTVSPropertyOp44
 70
     1
102
RTVSPropertyOp45
 70
     1
102
RTVSPropertyOp46
 70
     1
102
RTVSPropertyOp47
 70
     1
102
RTVSPropertyOp48
 70
     1
102
RTVSPropertyOp49
 70
     1
102
RTVSPropertyOp50
 70
     1
102
RTVSPropertyOp51
 70
     0
102
RTVSPropertyOp52
 70
     0
102
RTVSPropertyOp53
 70
     1
102
RTVSPropertyOp54
 70
     1
102
RTVSPropertyOp55
 70
     1
102
RTVSPropertyOp56
 70
     1
102
RTVSPropertyOp57
 70
     1
102
RTVSPost2010Prop28
280
     0
102
RTVSPost2010PropOp28
 70
     1
102
RTVSPost2010Prop29
280
     1
102
RTVSPost2010PropOp29
 70
     1
102
RTVSPost2010Prop30
280
     1
102
RTVSPost2010PropOp30
 70
     1
102
RTVSPost2010Prop31
280
     0
102
RTVSPost2010PropOp31
 70
     1
102
RTVSPost2010Prop32
280
     0
102
RTVSPost2010PropOp32
 70
     1
102
RTVSPost2010Prop33
280
     0
102
RTVSPost2010PropOp33
 70
     1
102
RTVSPost2010Prop34
280
     0
102
RTVSPost2010PropOp34
 70
     1
102
RTVSPost2010Prop35
280
     0
102
RTVSPost2010PropOp35
 70
     1
102
RTVSPost2010Prop36
280
     0
102
RTVSPost2010PropOp36
 70
     1
102
RTVSPost2010Prop37
 90
       50
102
RTVSPost2010PropOp37
 70
     1
102
RTVSPost2010Prop38
140
0.0
102
RTVSPost2010PropOp38
 70
     1
102
RTVSPost2010Prop39
140
1.0
102
RTVSPost2010PropOp39
 70
     1
102
RTVSPost2010Prop40
 90
        0
102
RTVSPost2010PropOp40
 70
     1
102
RTVSPost2010Prop41ColorIndex
 90
       18
102
RTVSPost2010Prop41ColorRGB
 90
        0
102
RTVSPost2010PropOp41
 70
     1
102
RTVSPost2010Prop42
 90
       50
102
RTVSPost2010PropOp42
 70
     1
102
RTVSPost2010Prop43
 90
        3
102
RTVSPost2010PropOp43
 70
     1
102
RTVSPost2010Prop44ColorIndex
 90
        5
102
RTVSPost2010Prop44ColorRGB
 90
      255
102
RTVSPost2010PropOp44
 70
     1
102
RTVSPost2010Prop45
280
     0
102
RTVSPost2010PropOp45
 70
     1
102
RTVSPost2010Prop46
 90
       50
102
RTVSPost2010PropOp46
 70
     1
102
RTVSPost2010Prop47
 90
       50
102
RTVSPost2010PropOp47
 70
     1
102
RTVSPost2010Prop48
 90
       50
102
RTVSPost2010PropOp48
 70
     1
102
RTVSPost2010Prop49
280
     0
102
RTVSPost2010PropOp49
 70
     1
102
RTVSPost2010Prop50
 90
       50
102
RTVSPost2010PropOp50
 70
     1
102
RTVSPost2010Prop51ColorIndex
 90
      256
102
RTVSPost2010Prop51ColorRGB
 90
-16777216
102
RTVSPost2010PropOp51
 70
     0
102
RTVSPost2010Prop52
140
1.0
102
RTVSPost2010PropOp52
 70
     0
102
RTVSPost2010Prop53
 90
        2
102
RTVSPost2010PropOp53
 70
     1
102
RTVSPost2010Prop54
  1
strokes_ogs.tif
102
RTVSPost2010PropOp54
 70
     1
102
RTVSPost2010Prop55
280
     0
102
RTVSPost2010PropOp55
 70
     1
102
RTVSPost2010Prop56
140
1.0
102
RTVSPost2010PropOp56
 70
     1
102
RTVSPost2010Prop57
140
1.0
102
RTVSPost2010PropOp57
 70
     1
  0
XRECORD
  5
1EC
102
{ACAD_REACTORS
330
1EB
102
}
330
1EB
100
AcDbXrecord
280
     1
102
RTVSPropertyOp0
 70
     1
102
RTVSPropertyOp1
 70
     1
102
RTVSPropertyOp2
 70
     1
102
RTVSPropertyOp3
 70
     1
102
RTVSPropertyOp4
 70
     1
102
RTVSPropertyOp5
 70
     1
102
RTVSPropertyOp6
 70
     1
102
RTVSPropertyOp7
 70
     1
102
RTVSPropertyOp8
 70
     1
102
RTVSPropertyOp9
 70
     1
102
RTVSPropertyOp10
 70
     1
102
RTVSPropertyOp11
 70
     1
102
RTVSPropertyOp12
 70
     1
102
RTVSPropertyOp13
 70
     1
102
RTVSPropertyOp14
 70
     1
102
RTVSPropertyOp15
 70
     1
102
RTVSPropertyOp16
 70
     1
102
RTVSPropertyOp17
 70
     1
102
RTVSPropertyOp18
 70
     1
102
RTVSPropertyOp19
 70
     1
102
RTVSPropertyOp20
 70
     1
102
RTVSPropertyOp21
 70
     1
102
RTVSPropertyOp22
 70
     1
102
RTVSPropertyOp23
 70
     1
102
RTVSPropertyOp24
 70
     1
102
RTVSPropertyOp25
 70
     1
102
RTVSPropertyOp26
 70
     1
102
RTVSPropertyOp27
 70
     1
102
RTVSPropertyOp28
 70
     1
102
RTVSPropertyOp29
 70
     1
102
RTVSPropertyOp30
 70
     1
102
RTVSPropertyOp31
 70
     1
102
RTVSPropertyOp32
 70
     1
102
RTVSPropertyOp33
 70
     1
102
RTVSPropertyOp34
 70
     1
102
RTVSPropertyOp35
 70
     1
102
RTVSPropertyOp36
 70
     1
102
RTVSPropertyOp37
 70
     1
102
RTVSPropertyOp38
 70
     1
102
RTVSPropertyOp39
 70
     1
102
RTVSPropertyOp40
 70
     1
102
RTVSPropertyOp41
 70
     1
102
RTVSPropertyOp42
 70
     1
102
RTVSPropertyOp43
 70
     1
102
RTVSPropertyOp44
 70
     1
102
RTVSPropertyOp45
 70
     1
102
RTVSPropertyOp46
 70
     1
102
RTVSPropertyOp47
 70
     1
102
RTVSPropertyOp48
 70
     1
102
RTVSPropertyOp49
 70
     1
102
RTVSPropertyOp50
 70
     1
102
RTVSPropertyOp51
 70
     0
102
RTVSPropertyOp52
 70
     0
102
RTVSPropertyOp53
 70
     1
102
RTVSPropertyOp54
 70
     1
102
RTVSPropertyOp55
 70
     1
102
RTVSPropertyOp56
 70
     1
102
RTVSPropertyOp57
 70
     1
102
RTVSPost2010Prop28
280
     0
102
RTVSPost2010PropOp28
 70
     1
102
RTVSPost2010Prop29
280
     1
102
RTVSPost2010PropOp29
 70
     1
102
RTVSPost2010Prop30
280
     1
102
RTVSPost2010PropOp30
 70
     1
102
RTVSPost2010Prop31
280
     0
102
RTVSPost2010PropOp31
 70
     1
102
RTVSPost2010Prop32
280
     0
102
RTVSPost2010PropOp32
 70
     1
102
RTVSPost2010Prop33
280
     0
102
RTVSPost2010PropOp33
 70
     1
102
RTVSPost2010Prop34
280
     0
102
RTVSPost2010PropOp34
 70
     1
102
RTVSPost2010Prop35
280
     0
102
RTVSPost2010PropOp35
 70
     1
102
RTVSPost2010Prop36
280
     0
102
RTVSPost2010PropOp36
 70
     1
102
RTVSPost2010Prop37
 90
       50
102
RTVSPost2010PropOp37
 70
     1
102
RTVSPost2010Prop38
140
0.0
102
RTVSPost2010PropOp38
 70
     1
102
RTVSPost2010Prop39
140
1.0
102
RTVSPost2010PropOp39
 70
     1
102
RTVSPost2010Prop40
 90
        0
102
RTVSPost2010PropOp40
 70
     1
102
RTVSPost2010Prop41ColorIndex
 90
       18
102
RTVSPost2010Prop41ColorRGB
 90
        0
102
RTVSPost2010PropOp41
 70
     1
102
RTVSPost2010Prop42
 90
       50
102
RTVSPost2010PropOp42
 70
     1
102
RTVSPost2010Prop43
 90
        3
102
RTVSPost2010PropOp43
 70
     1
102
RTVSPost2010Prop44ColorIndex
 90
        5
102
RTVSPost2010Prop44ColorRGB
 90
      255
102
RTVSPost2010PropOp44
 70
     1
102
RTVSPost2010Prop45
280
     0
102
RTVSPost2010PropOp45
 70
     1
102
RTVSPost2010Prop46
 90
       50
102
RTVSPost2010PropOp46
 70
     1
102
RTVSPost2010Prop47
 90
       50
102
RTVSPost2010PropOp47
 70
     1
102
RTVSPost2010Prop48
 90
       50
102
RTVSPost2010PropOp48
 70
     1
102
RTVSPost2010Prop49
280
     0
102
RTVSPost2010PropOp49
 70
     1
102
RTVSPost2010Prop50
 90
       50
102
RTVSPost2010PropOp50
 70
     1
102
RTVSPost2010Prop51ColorIndex
 90
      256
102
RTVSPost2010Prop51ColorRGB
 90
-16777216
102
RTVSPost2010PropOp51
 70
     0
102
RTVSPost2010Prop52
140
1.0
102
RTVSPost2010PropOp52
 70
     0
102
RTVSPost2010Prop53
 90
        2
102
RTVSPost2010PropOp53
 70
     1
102
RTVSPost2010Prop54
  1
strokes_ogs.tif
102
RTVSPost2010PropOp54
 70
     1
102
RTVSPost2010Prop55
280
     0
102
RTVSPost2010PropOp55
 70
     1
102
RTVSPost2010Prop56
140
1.0
102
RTVSPost2010PropOp56
 70
     1
102
RTVSPost2010Prop57
140
1.0
102
RTVSPost2010PropOp57
 70
     1
  0
XRECORD
  5
1F2
102
{ACAD_REACTORS
330
1F1
102
}
330
1F1
100
AcDbXrecord
280
     1
102
RTVSPropertyOp0
 70
     1
102
RTVSPropertyOp1
 70
     1
102
RTVSPropertyOp2
 70
     1
102
RTVSPropertyOp3
 70
     1
102
RTVSPropertyOp4
 70
     1
102
RTVSPropertyOp5
 70
     1
102
RTVSPropertyOp6
 70
     1
102
RTVSPropertyOp7
 70
     1
102
RTVSPropertyOp8
 70
     1
102
RTVSPropertyOp9
 70
     1
102
RTVSPropertyOp10
 70
     1
102
RTVSPropertyOp11
 70
     1
102
RTVSPropertyOp12
 70
     1
102
RTVSPropertyOp13
 70
     1
102
RTVSPropertyOp14
 70
     1
102
RTVSPropertyOp15
 70
     1
102
RTVSPropertyOp16
 70
     1
102
RTVSPropertyOp17
 70
     1
102
RTVSPropertyOp18
 70
     1
102
RTVSPropertyOp19
 70
     1
102
RTVSPropertyOp20
 70
     1
102
RTVSPropertyOp21
 70
     1
102
RTVSPropertyOp22
 70
     1
102
RTVSPropertyOp23
 70
     1
102
RTVSPropertyOp24
 70
     1
102
RTVSPropertyOp25
 70
     1
102
RTVSPropertyOp26
 70
     1
102
RTVSPropertyOp27
 70
     1
102
RTVSPropertyOp28
 70
     1
102
RTVSPropertyOp29
 70
     1
102
RTVSPropertyOp30
 70
     1
102
RTVSPropertyOp31
 70
     1
102
RTVSPropertyOp32
 70
     1
102
RTVSPropertyOp33
 70
     1
102
RTVSPropertyOp34
 70
     1
102
RTVSPropertyOp35
 70
     1
102
RTVSPropertyOp36
 70
     1
102
RTVSPropertyOp37
 70
     1
102
RTVSPropertyOp38
 70
     1
102
RTVSPropertyOp39
 70
     1
102
RTVSPropertyOp40
 70
     1
102
RTVSPropertyOp41
 70
     1
102
RTVSPropertyOp42
 70
     1
102
RTVSPropertyOp43
 70
     1
102
RTVSPropertyOp44
 70
     1
102
RTVSPropertyOp45
 70
     1
102
RTVSPropertyOp46
 70
     1
102
RTVSPropertyOp47
 70
     1
102
RTVSPropertyOp48
 70
     1
102
RTVSPropertyOp49
 70
     1
102
RTVSPropertyOp50
 70
     1
102
RTVSPropertyOp51
 70
     0
102
RTVSPropertyOp52
 70
     0
102
RTVSPropertyOp53
 70
     1
102
RTVSPropertyOp54
 70
     1
102
RTVSPropertyOp55
 70
     1
102
RTVSPropertyOp56
 70
     1
102
RTVSPropertyOp57
 70
     1
102
RTVSPost2010Prop28
280
     0
102
RTVSPost2010PropOp28
 70
     1
102
RTVSPost2010Prop29
280
     1
102
RTVSPost2010PropOp29
 70
     1
102
RTVSPost2010Prop30
280
     1
102
RTVSPost2010PropOp30
 70
     1
102
RTVSPost2010Prop31
280
     0
102
RTVSPost2010PropOp31
 70
     1
102
RTVSPost2010Prop32
280
     0
102
RTVSPost2010PropOp32
 70
     1
102
RTVSPost2010Prop33
280
     0
102
RTVSPost2010PropOp33
 70
     1
102
RTVSPost2010Prop34
280
     0
102
RTVSPost2010PropOp34
 70
     1
102
RTVSPost2010Prop35
280
     0
102
RTVSPost2010PropOp35
 70
     1
102
RTVSPost2010Prop36
280
     0
102
RTVSPost2010PropOp36
 70
     1
102
RTVSPost2010Prop37
 90
       50
102
RTVSPost2010PropOp37
 70
     1
102
RTVSPost2010Prop38
140
0.0
102
RTVSPost2010PropOp38
 70
     1
102
RTVSPost2010Prop39
140
1.0
102
RTVSPost2010PropOp39
 70
     1
102
RTVSPost2010Prop40
 90
        0
102
RTVSPost2010PropOp40
 70
     1
102
RTVSPost2010Prop41ColorIndex
 90
       18
102
RTVSPost2010Prop41ColorRGB
 90
        0
102
RTVSPost2010PropOp41
 70
     1
102
RTVSPost2010Prop42
 90
       50
102
RTVSPost2010PropOp42
 70
     1
102
RTVSPost2010Prop43
 90
        3
102
RTVSPost2010PropOp43
 70
     1
102
RTVSPost2010Prop44ColorIndex
 90
        5
102
RTVSPost2010Prop44ColorRGB
 90
      255
102
RTVSPost2010PropOp44
 70
     1
102
RTVSPost2010Prop45
280
     0
102
RTVSPost2010PropOp45
 70
     1
102
RTVSPost2010Prop46
 90
       50
102
RTVSPost2010PropOp46
 70
     1
102
RTVSPost2010Prop47
 90
       50
102
RTVSPost2010PropOp47
 70
     1
102
RTVSPost2010Prop48
 90
       50
102
RTVSPost2010PropOp48
 70
     1
102
RTVSPost2010Prop49
280
     0
102
RTVSPost2010PropOp49
 70
     1
102
RTVSPost2010Prop50
 90
       50
102
RTVSPost2010PropOp50
 70
     1
102
RTVSPost2010Prop51ColorIndex
 90
      256
102
RTVSPost2010Prop51ColorRGB
 90
-16777216
102
RTVSPost2010PropOp51
 70
     0
102
RTVSPost2010Prop52
140
1.0
102
RTVSPost2010PropOp52
 70
     0
102
RTVSPost2010Prop53
 90
        2
102
RTVSPost2010PropOp53
 70
     1
102
RTVSPost2010Prop54
  1
strokes_ogs.tif
102
RTVSPost2010PropOp54
 70
     1
102
RTVSPost2010Prop55
280
     0
102
RTVSPost2010PropOp55
 70
     1
102
RTVSPost2010Prop56
140
1.0
102
RTVSPost2010PropOp56
 70
     1
102
RTVSPost2010Prop57
140
1.0
102
RTVSPost2010PropOp57
 70
     1
  0
XRECORD
  5
206
102
{ACAD_REACTORS
330
205
102
}
330
205
100
AcDbXrecord
280
     1
102
RTVSPropertyOp0
 70
     0
102
RTVSPropertyOp1
 70
     0
102
RTVSPropertyOp2
 70
     0
102
RTVSPropertyOp3
 70
     0
102
RTVSPropertyOp4
 70
     0
102
RTVSPropertyOp5
 70
     0
102
RTVSPropertyOp6
 70
     0
102
RTVSPropertyOp7
 70
     0
102
RTVSPropertyOp8
 70
     0
102
RTVSPropertyOp9
 70
     0
102
RTVSPropertyOp10
 70
     0
102
RTVSPropertyOp11
 70
     0
102
RTVSPropertyOp12
 70
     0
102
RTVSPropertyOp13
 70
     0
102
RTVSPropertyOp14
 70
     2
102
RTVSPropertyOp15
 70
     0
102
RTVSPropertyOp16
 70
     0
102
RTVSPropertyOp17
 70
     0
102
RTVSPropertyOp18
 70
     0
102
RTVSPropertyOp19
 70
     0
102
RTVSPropertyOp20
 70
     0
102
RTVSPropertyOp21
 70
     0
102
RTVSPropertyOp22
 70
     0
102
RTVSPropertyOp23
 70
     0
102
RTVSPropertyOp24
 70
     0
102
RTVSPropertyOp25
 70
     0
102
RTVSPropertyOp26
 70
     0
102
RTVSPropertyOp27
 70
     0
102
RTVSPropertyOp28
 70
     0
102
RTVSPropertyOp29
 70
     0
102
RTVSPropertyOp30
 70
     0
102
RTVSPropertyOp31
 70
     0
102
RTVSPropertyOp32
 70
     0
102
RTVSPropertyOp33
 70
     0
102
RTVSPropertyOp34
 70
     0
102
RTVSPropertyOp35
 70
     0
102
RTVSPropertyOp36
 70
     0
102
RTVSPropertyOp37
 70
     0
102
RTVSPropertyOp38
 70
     0
102
RTVSPropertyOp39
 70
     0
102
RTVSPropertyOp40
 70
     0
102
RTVSPropertyOp41
 70
     0
102
RTVSPropertyOp42
 70
     0
102
RTVSPropertyOp43
 70
     0
102
RTVSPropertyOp44
 70
     0
102
RTVSPropertyOp45
 70
     0
102
RTVSPropertyOp46
 70
     0
102
RTVSPropertyOp47
 70
     0
102
RTVSPropertyOp48
 70
     0
102
RTVSPropertyOp49
 70
     0
102
RTVSPropertyOp50
 70
     0
102
RTVSPropertyOp51
 70
     0
102
RTVSPropertyOp52
 70
     0
102
RTVSPropertyOp53
 70
     0
102
RTVSPropertyOp54
 70
     0
102
RTVSPropertyOp55
 70
     0
102
RTVSPropertyOp56
 70
     0
102
RTVSPropertyOp57
 70
     0
102
RTVSPost2010Prop28
280
     0
102
RTVSPost2010PropOp28
 70
     0
102
RTVSPost2010Prop29
280
     1
102
RTVSPost2010PropOp29
 70
     0
102
RTVSPost2010Prop30
280
     1
102
RTVSPost2010PropOp30
 70
     0
102
RTVSPost2010Prop31
280
     0
102
RTVSPost2010PropOp31
 70
     0
102
RTVSPost2010Prop32
280
     0
102
RTVSPost2010PropOp32
 70
     0
102
RTVSPost2010Prop33
280
     0
102
RTVSPost2010PropOp33
 70
     0
102
RTVSPost2010Prop34
280
     0
102
RTVSPost2010PropOp34
 70
     0
102
RTVSPost2010Prop35
280
     0
102
RTVSPost2010PropOp35
 70
     0
102
RTVSPost2010Prop36
280
     0
102
RTVSPost2010PropOp36
 70
     0
102
RTVSPost2010Prop37
 90
       50
102
RTVSPost2010PropOp37
 70
     0
102
RTVSPost2010Prop38
140
0.0
102
RTVSPost2010PropOp38
 70
     0
102
RTVSPost2010Prop39
140
1.0
102
RTVSPost2010PropOp39
 70
     0
102
RTVSPost2010Prop40
 90
        0
102
RTVSPost2010PropOp40
 70
     0
102
RTVSPost2010Prop41ColorIndex
 90
       18
102
RTVSPost2010Prop41ColorRGB
 90
        0
102
RTVSPost2010PropOp41
 70
     0
102
RTVSPost2010Prop42
 90
       50
102
RTVSPost2010PropOp42
 70
     0
102
RTVSPost2010Prop43
 90
        3
102
RTVSPost2010PropOp43
 70
     0
102
RTVSPost2010Prop44ColorIndex
 90
        5
102
RTVSPost2010Prop44ColorRGB
 90
      255
102
RTVSPost2010PropOp44
 70
     0
102
RTVSPost2010Prop45
280
     0
102
RTVSPost2010PropOp45
 70
     0
102
RTVSPost2010Prop46
 90
       50
102
RTVSPost2010PropOp46
 70
     0
102
RTVSPost2010Prop47
 90
       50
102
RTVSPost2010PropOp47
 70
     0
102
RTVSPost2010Prop48
 90
       50
102
RTVSPost2010PropOp48
 70
     0
102
RTVSPost2010Prop49
280
     0
102
RTVSPost2010PropOp49
 70
     0
102
RTVSPost2010Prop50
 90
       50
102
RTVSPost2010PropOp50
 70
     0
102
RTVSPost2010Prop51ColorIndex
 90
      256
102
RTVSPost2010Prop51ColorRGB
 90
-16777216
102
RTVSPost2010PropOp51
 70
     0
102
RTVSPost2010Prop52
140
1.0
102
RTVSPost2010PropOp52
 70
     0
102
RTVSPost2010Prop53
 90
        2
102
RTVSPost2010PropOp53
 70
     0
102
RTVSPost2010Prop54
  1
strokes_ogs.tif
102
RTVSPost2010PropOp54
 70
     0
102
RTVSPost2010Prop55
280
     0
102
RTVSPost2010PropOp55
 70
     0
102
RTVSPost2010Prop56
140
1.0
102
RTVSPost2010PropOp56
 70
     0
102
RTVSPost2010Prop57
140
1.0
102
RTVSPost2010PropOp57
 70
     0
  0
XRECORD
  5
200
102
{ACAD_REACTORS
330
1FF
102
}
330
1FF
100
AcDbXrecord
280
     1
102
RTVSPropertyOp0
 70
     1
102
RTVSPropertyOp1
 70
     1
102
RTVSPropertyOp2
 70
     1
102
RTVSPropertyOp3
 70
     1
102
RTVSPropertyOp4
 70
     1
102
RTVSPropertyOp5
 70
     1
102
RTVSPropertyOp6
 70
     1
102
RTVSPropertyOp7
 70
     1
102
RTVSPropertyOp8
 70
     1
102
RTVSPropertyOp9
 70
     1
102
RTVSPropertyOp10
 70
     1
102
RTVSPropertyOp11
 70
     1
102
RTVSPropertyOp12
 70
     1
102
RTVSPropertyOp13
 70
     1
102
RTVSPropertyOp14
 70
     1
102
RTVSPropertyOp15
 70
     1
102
RTVSPropertyOp16
 70
     1
102
RTVSPropertyOp17
 70
     1
102
RTVSPropertyOp18
 70
     1
102
RTVSPropertyOp19
 70
     1
102
RTVSPropertyOp20
 70
     1
102
RTVSPropertyOp21
 70
     1
102
RTVSPropertyOp22
 70
     1
102
RTVSPropertyOp23
 70
     1
102
RTVSPropertyOp24
 70
     1
102
RTVSPropertyOp25
 70
     1
102
RTVSPropertyOp26
 70
     1
102
RTVSPropertyOp27
 70
     1
102
RTVSPropertyOp28
 70
     1
102
RTVSPropertyOp29
 70
     1
102
RTVSPropertyOp30
 70
     1
102
RTVSPropertyOp31
 70
     1
102
RTVSPropertyOp32
 70
     1
102
RTVSPropertyOp33
 70
     1
102
RTVSPropertyOp34
 70
     1
102
RTVSPropertyOp35
 70
     1
102
RTVSPropertyOp36
 70
     1
102
RTVSPropertyOp37
 70
     1
102
RTVSPropertyOp38
 70
     1
102
RTVSPropertyOp39
 70
     1
102
RTVSPropertyOp40
 70
     1
102
RTVSPropertyOp41
 70
     1
102
RTVSPropertyOp42
 70
     1
102
RTVSPropertyOp43
 70
     1
102
RTVSPropertyOp44
 70
     1
102
RTVSPropertyOp45
 70
     1
102
RTVSPropertyOp46
 70
     1
102
RTVSPropertyOp47
 70
     1
102
RTVSPropertyOp48
 70
     1
102
RTVSPropertyOp49
 70
     1
102
RTVSPropertyOp50
 70
     1
102
RTVSPropertyOp51
 70
     0
102
RTVSPropertyOp52
 70
     0
102
RTVSPropertyOp53
 70
     1
102
RTVSPropertyOp54
 70
     1
102
RTVSPropertyOp55
 70
     1
102
RTVSPropertyOp56
 70
     1
102
RTVSPropertyOp57
 70
     1
102
RTVSPost2010Prop28
280
     0
102
RTVSPost2010PropOp28
 70
     1
102
RTVSPost2010Prop29
280
     1
102
RTVSPost2010PropOp29
 70
     1
102
RTVSPost2010Prop30
280
     1
102
RTVSPost2010PropOp30
 70
     1
102
RTVSPost2010Prop31
280
     0
102
RTVSPost2010PropOp31
 70
     1
102
RTVSPost2010Prop32
280
     0
102
RTVSPost2010PropOp32
 70
     1
102
RTVSPost2010Prop33
280
     0
102
RTVSPost2010PropOp33
 70
     1
102
RTVSPost2010Prop34
280
     0
102
RTVSPost2010PropOp34
 70
     1
102
RTVSPost2010Prop35
280
     0
102
RTVSPost2010PropOp35
 70
     1
102
RTVSPost2010Prop36
280
     0
102
RTVSPost2010PropOp36
 70
     1
102
RTVSPost2010Prop37
 90
       50
102
RTVSPost2010PropOp37
 70
     1
102
RTVSPost2010Prop38
140
0.0
102
RTVSPost2010PropOp38
 70
     1
102
RTVSPost2010Prop39
140
1.0
102
RTVSPost2010PropOp39
 70
     1
102
RTVSPost2010Prop40
 90
        0
102
RTVSPost2010PropOp40
 70
     1
102
RTVSPost2010Prop41ColorIndex
 90
       18
102
RTVSPost2010Prop41ColorRGB
 90
        0
102
RTVSPost2010PropOp41
 70
     1
102
RTVSPost2010Prop42
 90
       50
102
RTVSPost2010PropOp42
 70
     1
102
RTVSPost2010Prop43
 90
        3
102
RTVSPost2010PropOp43
 70
     1
102
RTVSPost2010Prop44ColorIndex
 90
        5
102
RTVSPost2010Prop44ColorRGB
 90
      255
102
RTVSPost2010PropOp44
 70
     1
102
RTVSPost2010Prop45
280
     0
102
RTVSPost2010PropOp45
 70
     1
102
RTVSPost2010Prop46
 90
       50
102
RTVSPost2010PropOp46
 70
     1
102
RTVSPost2010Prop47
 90
       50
102
RTVSPost2010PropOp47
 70
     1
102
RTVSPost2010Prop48
 90
       50
102
RTVSPost2010PropOp48
 70
     1
102
RTVSPost2010Prop49
280
     0
102
RTVSPost2010PropOp49
 70
     1
102
RTVSPost2010Prop50
 90
       50
102
RTVSPost2010PropOp50
 70
     1
102
RTVSPost2010Prop51ColorIndex
 90
      256
102
RTVSPost2010Prop51ColorRGB
 90
-16777216
102
RTVSPost2010PropOp51
 70
     0
102
RTVSPost2010Prop52
140
1.0
102
RTVSPost2010PropOp52
 70
     0
102
RTVSPost2010Prop53
 90
        2
102
RTVSPost2010PropOp53
 70
     1
102
RTVSPost2010Prop54
  1
strokes_ogs.tif
102
RTVSPost2010PropOp54
 70
     1
102
RTVSPost2010Prop55
280
     0
102
RTVSPost2010PropOp55
 70
     1
102
RTVSPost2010Prop56
140
1.0
102
RTVSPost2010PropOp56
 70
     1
102
RTVSPost2010Prop57
140
1.0
102
RTVSPost2010PropOp57
 70
     1
  0
XRECORD
  5
208
102
{ACAD_REACTORS
330
207
102
}
330
207
100
AcDbXrecord
280
     1
102
RTVSPropertyOp0
 70
     0
102
RTVSPropertyOp1
 70
     0
102
RTVSPropertyOp2
 70
     0
102
RTVSPropertyOp3
 70
     0
102
RTVSPropertyOp4
 70
     0
102
RTVSPropertyOp5
 70
     0
102
RTVSPropertyOp6
 70
     0
102
RTVSPropertyOp7
 70
     0
102
RTVSPropertyOp8
 70
     0
102
RTVSPropertyOp9
 70
     0
102
RTVSPropertyOp10
 70
     0
102
RTVSPropertyOp11
 70
     0
102
RTVSPropertyOp12
 70
     0
102
RTVSPropertyOp13
 70
     0
102
RTVSPropertyOp14
 70
     2
102
RTVSPropertyOp15
 70
     0
102
RTVSPropertyOp16
 70
     0
102
RTVSPropertyOp17
 70
     0
102
RTVSPropertyOp18
 70
     0
102
RTVSPropertyOp19
 70
     0
102
RTVSPropertyOp20
 70
     0
102
RTVSPropertyOp21
 70
     0
102
RTVSPropertyOp22
 70
     0
102
RTVSPropertyOp23
 70
     0
102
RTVSPropertyOp24
 70
     0
102
RTVSPropertyOp25
 70
     0
102
RTVSPropertyOp26
 70
     0
102
RTVSPropertyOp27
 70
     0
102
RTVSPropertyOp28
 70
     0
102
RTVSPropertyOp29
 70
     0
102
RTVSPropertyOp30
 70
     0
102
RTVSPropertyOp31
 70
     0
102
RTVSPropertyOp32
 70
     0
102
RTVSPropertyOp33
 70
     0
102
RTVSPropertyOp34
 70
     0
102
RTVSPropertyOp35
 70
     0
102
RTVSPropertyOp36
 70
     0
102
RTVSPropertyOp37
 70
     0
102
RTVSPropertyOp38
 70
     0
102
RTVSPropertyOp39
 70
     0
102
RTVSPropertyOp40
 70
     0
102
RTVSPropertyOp41
 70
     0
102
RTVSPropertyOp42
 70
     0
102
RTVSPropertyOp43
 70
     0
102
RTVSPropertyOp44
 70
     0
102
RTVSPropertyOp45
 70
     0
102
RTVSPropertyOp46
 70
     0
102
RTVSPropertyOp47
 70
     0
102
RTVSPropertyOp48
 70
     0
102
RTVSPropertyOp49
 70
     0
102
RTVSPropertyOp50
 70
     0
102
RTVSPropertyOp51
 70
     0
102
RTVSPropertyOp52
 70
     0
102
RTVSPropertyOp53
 70
     0
102
RTVSPropertyOp54
 70
     0
102
RTVSPropertyOp55
 70
     0
102
RTVSPropertyOp56
 70
     0
102
RTVSPropertyOp57
 70
     0
102
RTVSPost2010Prop28
280
     0
102
RTVSPost2010PropOp28
 70
     0
102
RTVSPost2010Prop29
280
     1
102
RTVSPost2010PropOp29
 70
     0
102
RTVSPost2010Prop30
280
     1
102
RTVSPost2010PropOp30
 70
     0
102
RTVSPost2010Prop31
280
     0
102
RTVSPost2010PropOp31
 70
     0
102
RTVSPost2010Prop32
280
     0
102
RTVSPost2010PropOp32
 70
     0
102
RTVSPost2010Prop33
280
     0
102
RTVSPost2010PropOp33
 70
     0
102
RTVSPost2010Prop34
280
     0
102
RTVSPost2010PropOp34
 70
     0
102
RTVSPost2010Prop35
280
     0
102
RTVSPost2010PropOp35
 70
     0
102
RTVSPost2010Prop36
280
     0
102
RTVSPost2010PropOp36
 70
     0
102
RTVSPost2010Prop37
 90
       50
102
RTVSPost2010PropOp37
 70
     0
102
RTVSPost2010Prop38
140
0.0
102
RTVSPost2010PropOp38
 70
     0
102
RTVSPost2010Prop39
140
1.0
102
RTVSPost2010PropOp39
 70
     0
102
RTVSPost2010Prop40
 90
        0
102
RTVSPost2010PropOp40
 70
     0
102
RTVSPost2010Prop41ColorIndex
 90
       18
102
RTVSPost2010Prop41ColorRGB
 90
        0
102
RTVSPost2010PropOp41
 70
     0
102
RTVSPost2010Prop42
 90
       50
102
RTVSPost2010PropOp42
 70
     0
102
RTVSPost2010Prop43
 90
        3
102
RTVSPost2010PropOp43
 70
     0
102
RTVSPost2010Prop44ColorIndex
 90
        5
102
RTVSPost2010Prop44ColorRGB
 90
      255
102
RTVSPost2010PropOp44
 70
     0
102
RTVSPost2010Prop45
280
     0
102
RTVSPost2010PropOp45
 70
     0
102
RTVSPost2010Prop46
 90
       50
102
RTVSPost2010PropOp46
 70
     0
102
RTVSPost2010Prop47
 90
       50
102
RTVSPost2010PropOp47
 70
     0
102
RTVSPost2010Prop48
 90
       50
102
RTVSPost2010PropOp48
 70
     0
102
RTVSPost2010Prop49
280
     0
102
RTVSPost2010PropOp49
 70
     0
102
RTVSPost2010Prop50
 90
       50
102
RTVSPost2010PropOp50
 70
     0
102
RTVSPost2010Prop51ColorIndex
 90
      256
102
RTVSPost2010Prop51ColorRGB
 90
-16777216
102
RTVSPost2010PropOp51
 70
     0
102
RTVSPost2010Prop52
140
1.0
102
RTVSPost2010PropOp52
 70
     0
102
RTVSPost2010Prop53
 90
        2
102
RTVSPost2010PropOp53
 70
     0
102
RTVSPost2010Prop54
  1
strokes_ogs.tif
102
RTVSPost2010PropOp54
 70
     0
102
RTVSPost2010Prop55
280
     0
102
RTVSPost2010PropOp55
 70
     0
102
RTVSPost2010Prop56
140
1.0
102
RTVSPost2010PropOp56
 70
     0
102
RTVSPost2010Prop57
140
1.0
102
RTVSPost2010PropOp57
 70
     0
  0
XRECORD
  5
1F6
102
{ACAD_REACTORS
330
1F5
102
}
330
1F5
100
AcDbXrecord
280
     1
102
RTVSPropertyOp0
 70
     1
102
RTVSPropertyOp1
 70
     1
102
RTVSPropertyOp2
 70
     1
102
RTVSPropertyOp3
 70
     1
102
RTVSPropertyOp4
 70
     1
102
RTVSPropertyOp5
 70
     1
102
RTVSPropertyOp6
 70
     1
102
RTVSPropertyOp7
 70
     1
102
RTVSPropertyOp8
 70
     1
102
RTVSPropertyOp9
 70
     1
102
RTVSPropertyOp10
 70
     1
102
RTVSPropertyOp11
 70
     1
102
RTVSPropertyOp12
 70
     1
102
RTVSPropertyOp13
 70
     1
102
RTVSPropertyOp14
 70
     1
102
RTVSPropertyOp15
 70
     1
102
RTVSPropertyOp16
 70
     1
102
RTVSPropertyOp17
 70
     1
102
RTVSPropertyOp18
 70
     1
102
RTVSPropertyOp19
 70
     1
102
RTVSPropertyOp20
 70
     1
102
RTVSPropertyOp21
 70
     1
102
RTVSPropertyOp22
 70
     1
102
RTVSPropertyOp23
 70
     1
102
RTVSPropertyOp24
 70
     1
102
RTVSPropertyOp25
 70
     1
102
RTVSPropertyOp26
 70
     1
102
RTVSPropertyOp27
 70
     1
102
RTVSPropertyOp28
 70
     1
102
RTVSPropertyOp29
 70
     1
102
RTVSPropertyOp30
 70
     1
102
RTVSPropertyOp31
 70
     1
102
RTVSPropertyOp32
 70
     1
102
RTVSPropertyOp33
 70
     1
102
RTVSPropertyOp34
 70
     1
102
RTVSPropertyOp35
 70
     1
102
RTVSPropertyOp36
 70
     1
102
RTVSPropertyOp37
 70
     1
102
RTVSPropertyOp38
 70
     1
102
RTVSPropertyOp39
 70
     1
102
RTVSPropertyOp40
 70
     1
102
RTVSPropertyOp41
 70
     1
102
RTVSPropertyOp42
 70
     1
102
RTVSPropertyOp43
 70
     1
102
RTVSPropertyOp44
 70
     1
102
RTVSPropertyOp45
 70
     1
102
RTVSPropertyOp46
 70
     1
102
RTVSPropertyOp47
 70
     1
102
RTVSPropertyOp48
 70
     1
102
RTVSPropertyOp49
 70
     1
102
RTVSPropertyOp50
 70
     1
102
RTVSPropertyOp51
 70
     0
102
RTVSPropertyOp52
 70
     0
102
RTVSPropertyOp53
 70
     1
102
RTVSPropertyOp54
 70
     1
102
RTVSPropertyOp55
 70
     1
102
RTVSPropertyOp56
 70
     1
102
RTVSPropertyOp57
 70
     1
102
RTVSPost2010Prop28
280
     0
102
RTVSPost2010PropOp28
 70
     1
102
RTVSPost2010Prop29
280
     1
102
RTVSPost2010PropOp29
 70
     1
102
RTVSPost2010Prop30
280
     1
102
RTVSPost2010PropOp30
 70
     1
102
RTVSPost2010Prop31
280
     0
102
RTVSPost2010PropOp31
 70
     1
102
RTVSPost2010Prop32
280
     0
102
RTVSPost2010PropOp32
 70
     1
102
RTVSPost2010Prop33
280
     0
102
RTVSPost2010PropOp33
 70
     1
102
RTVSPost2010Prop34
280
     0
102
RTVSPost2010PropOp34
 70
     1
102
RTVSPost2010Prop35
280
     0
102
RTVSPost2010PropOp35
 70
     1
102
RTVSPost2010Prop36
280
     0
102
RTVSPost2010PropOp36
 70
     1
102
RTVSPost2010Prop37
 90
       50
102
RTVSPost2010PropOp37
 70
     1
102
RTVSPost2010Prop38
140
0.0
102
RTVSPost2010PropOp38
 70
     1
102
RTVSPost2010Prop39
140
1.0
102
RTVSPost2010PropOp39
 70
     1
102
RTVSPost2010Prop40
 90
        0
102
RTVSPost2010PropOp40
 70
     1
102
RTVSPost2010Prop41ColorIndex
 90
       18
102
RTVSPost2010Prop41ColorRGB
 90
        0
102
RTVSPost2010PropOp41
 70
     1
102
RTVSPost2010Prop42
 90
       50
102
RTVSPost2010PropOp42
 70
     1
102
RTVSPost2010Prop43
 90
        3
102
RTVSPost2010PropOp43
 70
     1
102
RTVSPost2010Prop44ColorIndex
 90
        5
102
RTVSPost2010Prop44ColorRGB
 90
      255
102
RTVSPost2010PropOp44
 70
     1
102
RTVSPost2010Prop45
280
     0
102
RTVSPost2010PropOp45
 70
     1
102
RTVSPost2010Prop46
 90
       50
102
RTVSPost2010PropOp46
 70
     1
102
RTVSPost2010Prop47
 90
       50
102
RTVSPost2010PropOp47
 70
     1
102
RTVSPost2010Prop48
 90
       50
102
RTVSPost2010PropOp48
 70
     1
102
RTVSPost2010Prop49
280
     0
102
RTVSPost2010PropOp49
 70
     1
102
RTVSPost2010Prop50
 90
       50
102
RTVSPost2010PropOp50
 70
     1
102
RTVSPost2010Prop51ColorIndex
 90
      256
102
RTVSPost2010Prop51ColorRGB
 90
-16777216
102
RTVSPost2010PropOp51
 70
     0
102
RTVSPost2010Prop52
140
1.0
102
RTVSPost2010PropOp52
 70
     0
102
RTVSPost2010Prop53
 90
        2
102
RTVSPost2010PropOp53
 70
     1
102
RTVSPost2010Prop54
  1
strokes_ogs.tif
102
RTVSPost2010PropOp54
 70
     1
102
RTVSPost2010Prop55
280
     0
102
RTVSPost2010PropOp55
 70
     1
102
RTVSPost2010Prop56
140
1.0
102
RTVSPost2010PropOp56
 70
     1
102
RTVSPost2010Prop57
140
1.0
102
RTVSPost2010PropOp57
 70
     1
  0
XRECORD
  5
214
102
{ACAD_REACTORS
330
213
102
}
330
213
100
AcDbXrecord
280
     1
102
RTVSPropertyOp0
 70
     1
102
RTVSPropertyOp1
 70
     1
102
RTVSPropertyOp2
 70
     1
102
RTVSPropertyOp3
 70
     1
102
RTVSPropertyOp4
 70
     1
102
RTVSPropertyOp5
 70
     1
102
RTVSPropertyOp6
 70
     1
102
RTVSPropertyOp7
 70
     1
102
RTVSPropertyOp8
 70
     1
102
RTVSPropertyOp9
 70
     1
102
RTVSPropertyOp10
 70
     1
102
RTVSPropertyOp11
 70
     1
102
RTVSPropertyOp12
 70
     1
102
RTVSPropertyOp13
 70
     1
102
RTVSPropertyOp14
 70
     1
102
RTVSPropertyOp15
 70
     1
102
RTVSPropertyOp16
 70
     1
102
RTVSPropertyOp17
 70
     1
102
RTVSPropertyOp18
 70
     1
102
RTVSPropertyOp19
 70
     1
102
RTVSPropertyOp20
 70
     1
102
RTVSPropertyOp21
 70
     1
102
RTVSPropertyOp22
 70
     1
102
RTVSPropertyOp23
 70
     1
102
RTVSPropertyOp24
 70
     1
102
RTVSPropertyOp25
 70
     1
102
RTVSPropertyOp26
 70
     1
102
RTVSPropertyOp27
 70
     1
102
RTVSPropertyOp28
 70
     1
102
RTVSPropertyOp29
 70
     1
102
RTVSPropertyOp30
 70
     1
102
RTVSPropertyOp31
 70
     1
102
RTVSPropertyOp32
 70
     1
102
RTVSPropertyOp33
 70
     1
102
RTVSPropertyOp34
 70
     1
102
RTVSPropertyOp35
 70
     1
102
RTVSPropertyOp36
 70
     1
102
RTVSPropertyOp37
 70
     1
102
RTVSPropertyOp38
 70
     1
102
RTVSPropertyOp39
 70
     1
102
RTVSPropertyOp40
 70
     1
102
RTVSPropertyOp41
 70
     1
102
RTVSPropertyOp42
 70
     1
102
RTVSPropertyOp43
 70
     1
102
RTVSPropertyOp44
 70
     1
102
RTVSPropertyOp45
 70
     1
102
RTVSPropertyOp46
 70
     1
102
RTVSPropertyOp47
 70
     1
102
RTVSPropertyOp48
 70
     1
102
RTVSPropertyOp49
 70
     1
102
RTVSPropertyOp50
 70
     1
102
RTVSPropertyOp51
 70
     0
102
RTVSPropertyOp52
 70
     0
102
RTVSPropertyOp53
 70
     1
102
RTVSPropertyOp54
 70
     1
102
RTVSPropertyOp55
 70
     1
102
RTVSPropertyOp56
 70
     1
102
RTVSPropertyOp57
 70
     1
102
RTVSPost2010Prop28
280
     0
102
RTVSPost2010PropOp28
 70
     1
102
RTVSPost2010Prop29
280
     1
102
RTVSPost2010PropOp29
 70
     1
102
RTVSPost2010Prop30
280
     1
102
RTVSPost2010PropOp30
 70
     1
102
RTVSPost2010Prop31
280
     0
102
RTVSPost2010PropOp31
 70
     1
102
RTVSPost2010Prop32
280
     0
102
RTVSPost2010PropOp32
 70
     1
102
RTVSPost2010Prop33
280
     0
102
RTVSPost2010PropOp33
 70
     1
102
RTVSPost2010Prop34
280
     0
102
RTVSPost2010PropOp34
 70
     1
102
RTVSPost2010Prop35
280
     0
102
RTVSPost2010PropOp35
 70
     1
102
RTVSPost2010Prop36
280
     0
102
RTVSPost2010PropOp36
 70
     1
102
RTVSPost2010Prop37
 90
       50
102
RTVSPost2010PropOp37
 70
     1
102
RTVSPost2010Prop38
140
0.0
102
RTVSPost2010PropOp38
 70
     1
102
RTVSPost2010Prop39
140
1.0
102
RTVSPost2010PropOp39
 70
     1
102
RTVSPost2010Prop40
 90
        0
102
RTVSPost2010PropOp40
 70
     1
102
RTVSPost2010Prop41ColorIndex
 90
       18
102
RTVSPost2010Prop41ColorRGB
 90
        0
102
RTVSPost2010PropOp41
 70
     1
102
RTVSPost2010Prop42
 90
       50
102
RTVSPost2010PropOp42
 70
     1
102
RTVSPost2010Prop43
 90
        3
102
RTVSPost2010PropOp43
 70
     1
102
RTVSPost2010Prop44ColorIndex
 90
        5
102
RTVSPost2010Prop44ColorRGB
 90
      255
102
RTVSPost2010PropOp44
 70
     1
102
RTVSPost2010Prop45
280
     0
102
RTVSPost2010PropOp45
 70
     1
102
RTVSPost2010Prop46
 90
       50
102
RTVSPost2010PropOp46
 70
     1
102
RTVSPost2010Prop47
 90
       50
102
RTVSPost2010PropOp47
 70
     1
102
RTVSPost2010Prop48
 90
       50
102
RTVSPost2010PropOp48
 70
     1
102
RTVSPost2010Prop49
280
     0
102
RTVSPost2010PropOp49
 70
     1
102
RTVSPost2010Prop50
 90
       50
102
RTVSPost2010PropOp50
 70
     1
102
RTVSPost2010Prop51ColorIndex
 90
      256
102
RTVSPost2010Prop51ColorRGB
 90
-16777216
102
RTVSPost2010PropOp51
 70
     0
102
RTVSPost2010Prop52
140
1.0
102
RTVSPost2010PropOp52
 70
     0
102
RTVSPost2010Prop53
 90
        2
102
RTVSPost2010PropOp53
 70
     1
102
RTVSPost2010Prop54
  1
strokes_ogs.tif
102
RTVSPost2010PropOp54
 70
     1
102
RTVSPost2010Prop55
280
     0
102
RTVSPost2010PropOp55
 70
     1
102
RTVSPost2010Prop56
140
1.0
102
RTVSPost2010PropOp56
 70
     1
102
RTVSPost2010Prop57
140
1.0
102
RTVSPost2010PropOp57
 70
     1
  0
XRECORD
  5
212
102
{ACAD_REACTORS
330
211
102
}
330
211
100
AcDbXrecord
280
     1
102
RTVSPropertyOp0
 70
     1
102
RTVSPropertyOp1
 70
     1
102
RTVSPropertyOp2
 70
     1
102
RTVSPropertyOp3
 70
     1
102
RTVSPropertyOp4
 70
     1
102
RTVSPropertyOp5
 70
     1
102
RTVSPropertyOp6
 70
     1
102
RTVSPropertyOp7
 70
     1
102
RTVSPropertyOp8
 70
     1
102
RTVSPropertyOp9
 70
     1
102
RTVSPropertyOp10
 70
     1
102
RTVSPropertyOp11
 70
     1
102
RTVSPropertyOp12
 70
     1
102
RTVSPropertyOp13
 70
     1
102
RTVSPropertyOp14
 70
     1
102
RTVSPropertyOp15
 70
     1
102
RTVSPropertyOp16
 70
     1
102
RTVSPropertyOp17
 70
     1
102
RTVSPropertyOp18
 70
     1
102
RTVSPropertyOp19
 70
     1
102
RTVSPropertyOp20
 70
     1
102
RTVSPropertyOp21
 70
     1
102
RTVSPropertyOp22
 70
     1
102
RTVSPropertyOp23
 70
     1
102
RTVSPropertyOp24
 70
     1
102
RTVSPropertyOp25
 70
     1
102
RTVSPropertyOp26
 70
     1
102
RTVSPropertyOp27
 70
     1
102
RTVSPropertyOp28
 70
     1
102
RTVSPropertyOp29
 70
     1
102
RTVSPropertyOp30
 70
     1
102
RTVSPropertyOp31
 70
     1
102
RTVSPropertyOp32
 70
     1
102
RTVSPropertyOp33
 70
     1
102
RTVSPropertyOp34
 70
     1
102
RTVSPropertyOp35
 70
     1
102
RTVSPropertyOp36
 70
     1
102
RTVSPropertyOp37
 70
     1
102
RTVSPropertyOp38
 70
     1
102
RTVSPropertyOp39
 70
     1
102
RTVSPropertyOp40
 70
     1
102
RTVSPropertyOp41
 70
     1
102
RTVSPropertyOp42
 70
     1
102
RTVSPropertyOp43
 70
     1
102
RTVSPropertyOp44
 70
     1
102
RTVSPropertyOp45
 70
     1
102
RTVSPropertyOp46
 70
     1
102
RTVSPropertyOp47
 70
     1
102
RTVSPropertyOp48
 70
     1
102
RTVSPropertyOp49
 70
     1
102
RTVSPropertyOp50
 70
     1
102
RTVSPropertyOp51
 70
     0
102
RTVSPropertyOp52
 70
     0
102
RTVSPropertyOp53
 70
     1
102
RTVSPropertyOp54
 70
     1
102
RTVSPropertyOp55
 70
     1
102
RTVSPropertyOp56
 70
     1
102
RTVSPropertyOp57
 70
     1
102
RTVSPost2010Prop28
280
     0
102
RTVSPost2010PropOp28
 70
     1
102
RTVSPost2010Prop29
280
     1
102
RTVSPost2010PropOp29
 70
     1
102
RTVSPost2010Prop30
280
     1
102
RTVSPost2010PropOp30
 70
     1
102
RTVSPost2010Prop31
280
     0
102
RTVSPost2010PropOp31
 70
     1
102
RTVSPost2010Prop32
280
     0
102
RTVSPost2010PropOp32
 70
     1
102
RTVSPost2010Prop33
280
     0
102
RTVSPost2010PropOp33
 70
     1
102
RTVSPost2010Prop34
280
     0
102
RTVSPost2010PropOp34
 70
     1
102
RTVSPost2010Prop35
280
     0
102
RTVSPost2010PropOp35
 70
     1
102
RTVSPost2010Prop36
280
     0
102
RTVSPost2010PropOp36
 70
     1
102
RTVSPost2010Prop37
 90
       50
102
RTVSPost2010PropOp37
 70
     1
102
RTVSPost2010Prop38
140
0.0
102
RTVSPost2010PropOp38
 70
     1
102
RTVSPost2010Prop39
140
1.0
102
RTVSPost2010PropOp39
 70
     1
102
RTVSPost2010Prop40
 90
        0
102
RTVSPost2010PropOp40
 70
     1
102
RTVSPost2010Prop41ColorIndex
 90
       18
102
RTVSPost2010Prop41ColorRGB
 90
        0
102
RTVSPost2010PropOp41
 70
     1
102
RTVSPost2010Prop42
 90
       50
102
RTVSPost2010PropOp42
 70
     1
102
RTVSPost2010Prop43
 90
        3
102
RTVSPost2010PropOp43
 70
     1
102
RTVSPost2010Prop44ColorIndex
 90
        5
102
RTVSPost2010Prop44ColorRGB
 90
      255
102
RTVSPost2010PropOp44
 70
     1
102
RTVSPost2010Prop45
280
     0
102
RTVSPost2010PropOp45
 70
     1
102
RTVSPost2010Prop46
 90
       50
102
RTVSPost2010PropOp46
 70
     1
102
RTVSPost2010Prop47
 90
       50
102
RTVSPost2010PropOp47
 70
     1
102
RTVSPost2010Prop48
 90
       50
102
RTVSPost2010PropOp48
 70
     1
102
RTVSPost2010Prop49
280
     0
102
RTVSPost2010PropOp49
 70
     1
102
RTVSPost2010Prop50
 90
       50
102
RTVSPost2010PropOp50
 70
     1
102
RTVSPost2010Prop51ColorIndex
 90
      256
102
RTVSPost2010Prop51ColorRGB
 90
-16777216
102
RTVSPost2010PropOp51
 70
     0
102
RTVSPost2010Prop52
140
1.0
102
RTVSPost2010PropOp52
 70
     0
102
RTVSPost2010Prop53
 90
        2
102
RTVSPost2010PropOp53
 70
     1
102
RTVSPost2010Prop54
  1
strokes_ogs.tif
102
RTVSPost2010PropOp54
 70
     1
102
RTVSPost2010Prop55
280
     0
102
RTVSPost2010PropOp55
 70
     1
102
RTVSPost2010Prop56
140
1.0
102
RTVSPost2010PropOp56
 70
     1
102
RTVSPost2010Prop57
140
1.0
102
RTVSPost2010PropOp57
 70
     1
  0
XRECORD
  5
20C
102
{ACAD_REACTORS
330
20B
102
}
330
20B
100
AcDbXrecord
280
     1
102
RTVSPropertyOp0
 70
     1
102
RTVSPropertyOp1
 70
     1
102
RTVSPropertyOp2
 70
     1
102
RTVSPropertyOp3
 70
     1
102
RTVSPropertyOp4
 70
     1
102
RTVSPropertyOp5
 70
     1
102
RTVSPropertyOp6
 70
     1
102
RTVSPropertyOp7
 70
     1
102
RTVSPropertyOp8
 70
     1
102
RTVSPropertyOp9
 70
     1
102
RTVSPropertyOp10
 70
     1
102
RTVSPropertyOp11
 70
     1
102
RTVSPropertyOp12
 70
     1
102
RTVSPropertyOp13
 70
     1
102
RTVSPropertyOp14
 70
     1
102
RTVSPropertyOp15
 70
     1
102
RTVSPropertyOp16
 70
     1
102
RTVSPropertyOp17
 70
     1
102
RTVSPropertyOp18
 70
     1
102
RTVSPropertyOp19
 70
     1
102
RTVSPropertyOp20
 70
     1
102
RTVSPropertyOp21
 70
     1
102
RTVSPropertyOp22
 70
     1
102
RTVSPropertyOp23
 70
     1
102
RTVSPropertyOp24
 70
     1
102
RTVSPropertyOp25
 70
     1
102
RTVSPropertyOp26
 70
     1
102
RTVSPropertyOp27
 70
     1
102
RTVSPropertyOp28
 70
     1
102
RTVSPropertyOp29
 70
     1
102
RTVSPropertyOp30
 70
     1
102
RTVSPropertyOp31
 70
     1
102
RTVSPropertyOp32
 70
     1
102
RTVSPropertyOp33
 70
     1
102
RTVSPropertyOp34
 70
     1
102
RTVSPropertyOp35
 70
     1
102
RTVSPropertyOp36
 70
     1
102
RTVSPropertyOp37
 70
     1
102
RTVSPropertyOp38
 70
     1
102
RTVSPropertyOp39
 70
     1
102
RTVSPropertyOp40
 70
     1
102
RTVSPropertyOp41
 70
     1
102
RTVSPropertyOp42
 70
     1
102
RTVSPropertyOp43
 70
     1
102
RTVSPropertyOp44
 70
     1
102
RTVSPropertyOp45
 70
     1
102
RTVSPropertyOp46
 70
     1
102
RTVSPropertyOp47
 70
     1
102
RTVSPropertyOp48
 70
     1
102
RTVSPropertyOp49
 70
     1
102
RTVSPropertyOp50
 70
     1
102
RTVSPropertyOp51
 70
     0
102
RTVSPropertyOp52
 70
     0
102
RTVSPropertyOp53
 70
     1
102
RTVSPropertyOp54
 70
     1
102
RTVSPropertyOp55
 70
     1
102
RTVSPropertyOp56
 70
     1
102
RTVSPropertyOp57
 70
     1
102
RTVSPost2010Prop28
280
     0
102
RTVSPost2010PropOp28
 70
     1
102
RTVSPost2010Prop29
280
     1
102
RTVSPost2010PropOp29
 70
     1
102
RTVSPost2010Prop30
280
     1
102
RTVSPost2010PropOp30
 70
     1
102
RTVSPost2010Prop31
280
     0
102
RTVSPost2010PropOp31
 70
     1
102
RTVSPost2010Prop32
280
     0
102
RTVSPost2010PropOp32
 70
     1
102
RTVSPost2010Prop33
280
     0
102
RTVSPost2010PropOp33
 70
     1
102
RTVSPost2010Prop34
280
     0
102
RTVSPost2010PropOp34
 70
     1
102
RTVSPost2010Prop35
280
     0
102
RTVSPost2010PropOp35
 70
     1
102
RTVSPost2010Prop36
280
     0
102
RTVSPost2010PropOp36
 70
     1
102
RTVSPost2010Prop37
 90
       50
102
RTVSPost2010PropOp37
 70
     1
102
RTVSPost2010Prop38
140
0.0
102
RTVSPost2010PropOp38
 70
     1
102
RTVSPost2010Prop39
140
1.0
102
RTVSPost2010PropOp39
 70
     1
102
RTVSPost2010Prop40
 90
        0
102
RTVSPost2010PropOp40
 70
     1
102
RTVSPost2010Prop41ColorIndex
 90
       18
102
RTVSPost2010Prop41ColorRGB
 90
        0
102
RTVSPost2010PropOp41
 70
     1
102
RTVSPost2010Prop42
 90
       50
102
RTVSPost2010PropOp42
 70
     1
102
RTVSPost2010Prop43
 90
        3
102
RTVSPost2010PropOp43
 70
     1
102
RTVSPost2010Prop44ColorIndex
 90
        5
102
RTVSPost2010Prop44ColorRGB
 90
      255
102
RTVSPost2010PropOp44
 70
     1
102
RTVSPost2010Prop45
280
     0
102
RTVSPost2010PropOp45
 70
     1
102
RTVSPost2010Prop46
 90
       50
102
RTVSPost2010PropOp46
 70
     1
102
RTVSPost2010Prop47
 90
       50
102
RTVSPost2010PropOp47
 70
     1
102
RTVSPost2010Prop48
 90
       50
102
RTVSPost2010PropOp48
 70
     1
102
RTVSPost2010Prop49
280
     0
102
RTVSPost2010PropOp49
 70
     1
102
RTVSPost2010Prop50
 90
       50
102
RTVSPost2010PropOp50
 70
     1
102
RTVSPost2010Prop51ColorIndex
 90
      256
102
RTVSPost2010Prop51ColorRGB
 90
-16777216
102
RTVSPost2010PropOp51
 70
     0
102
RTVSPost2010Prop52
140
1.0
102
RTVSPost2010PropOp52
 70
     0
102
RTVSPost2010Prop53
 90
        2
102
RTVSPost2010PropOp53
 70
     1
102
RTVSPost2010Prop54
  1
strokes_ogs.tif
102
RTVSPost2010PropOp54
 70
     1
102
RTVSPost2010Prop55
280
     0
102
RTVSPost2010PropOp55
 70
     1
102
RTVSPost2010Prop56
140
1.0
102
RTVSPost2010PropOp56
 70
     1
102
RTVSPost2010Prop57
140
1.0
102
RTVSPost2010PropOp57
 70
     1
  0
XRECORD
  5
20E
102
{ACAD_REACTORS
330
20D
102
}
330
20D
100
AcDbXrecord
280
     1
102
RTVSPropertyOp0
 70
     1
102
RTVSPropertyOp1
 70
     1
102
RTVSPropertyOp2
 70
     1
102
RTVSPropertyOp3
 70
     1
102
RTVSPropertyOp4
 70
     1
102
RTVSPropertyOp5
 70
     1
102
RTVSPropertyOp6
 70
     1
102
RTVSPropertyOp7
 70
     1
102
RTVSPropertyOp8
 70
     1
102
RTVSPropertyOp9
 70
     1
102
RTVSPropertyOp10
 70
     1
102
RTVSPropertyOp11
 70
     1
102
RTVSPropertyOp12
 70
     1
102
RTVSPropertyOp13
 70
     1
102
RTVSPropertyOp14
 70
     1
102
RTVSPropertyOp15
 70
     1
102
RTVSPropertyOp16
 70
     1
102
RTVSPropertyOp17
 70
     1
102
RTVSPropertyOp18
 70
     1
102
RTVSPropertyOp19
 70
     1
102
RTVSPropertyOp20
 70
     1
102
RTVSPropertyOp21
 70
     1
102
RTVSPropertyOp22
 70
     1
102
RTVSPropertyOp23
 70
     1
102
RTVSPropertyOp24
 70
     1
102
RTVSPropertyOp25
 70
     1
102
RTVSPropertyOp26
 70
     1
102
RTVSPropertyOp27
 70
     1
102
RTVSPropertyOp28
 70
     1
102
RTVSPropertyOp29
 70
     1
102
RTVSPropertyOp30
 70
     1
102
RTVSPropertyOp31
 70
     1
102
RTVSPropertyOp32
 70
     1
102
RTVSPropertyOp33
 70
     1
102
RTVSPropertyOp34
 70
     1
102
RTVSPropertyOp35
 70
     1
102
RTVSPropertyOp36
 70
     1
102
RTVSPropertyOp37
 70
     1
102
RTVSPropertyOp38
 70
     1
102
RTVSPropertyOp39
 70
     1
102
RTVSPropertyOp40
 70
     1
102
RTVSPropertyOp41
 70
     1
102
RTVSPropertyOp42
 70
     1
102
RTVSPropertyOp43
 70
     1
102
RTVSPropertyOp44
 70
     1
102
RTVSPropertyOp45
 70
     1
102
RTVSPropertyOp46
 70
     1
102
RTVSPropertyOp47
 70
     1
102
RTVSPropertyOp48
 70
     1
102
RTVSPropertyOp49
 70
     1
102
RTVSPropertyOp50
 70
     1
102
RTVSPropertyOp51
 70
     0
102
RTVSPropertyOp52
 70
     0
102
RTVSPropertyOp53
 70
     1
102
RTVSPropertyOp54
 70
     1
102
RTVSPropertyOp55
 70
     1
102
RTVSPropertyOp56
 70
     1
102
RTVSPropertyOp57
 70
     1
102
RTVSPost2010Prop28
280
     0
102
RTVSPost2010PropOp28
 70
     1
102
RTVSPost2010Prop29
280
     1
102
RTVSPost2010PropOp29
 70
     1
102
RTVSPost2010Prop30
280
     1
102
RTVSPost2010PropOp30
 70
     1
102
RTVSPost2010Prop31
280
     0
102
RTVSPost2010PropOp31
 70
     1
102
RTVSPost2010Prop32
280
     0
102
RTVSPost2010PropOp32
 70
     1
102
RTVSPost2010Prop33
280
     0
102
RTVSPost2010PropOp33
 70
     1
102
RTVSPost2010Prop34
280
     0
102
RTVSPost2010PropOp34
 70
     1
102
RTVSPost2010Prop35
280
     0
102
RTVSPost2010PropOp35
 70
     1
102
RTVSPost2010Prop36
280
     0
102
RTVSPost2010PropOp36
 70
     1
102
RTVSPost2010Prop37
 90
       50
102
RTVSPost2010PropOp37
 70
     1
102
RTVSPost2010Prop38
140
0.0
102
RTVSPost2010PropOp38
 70
     1
102
RTVSPost2010Prop39
140
1.0
102
RTVSPost2010PropOp39
 70
     1
102
RTVSPost2010Prop40
 90
        0
102
RTVSPost2010PropOp40
 70
     1
102
RTVSPost2010Prop41ColorIndex
 90
       18
102
RTVSPost2010Prop41ColorRGB
 90
        0
102
RTVSPost2010PropOp41
 70
     1
102
RTVSPost2010Prop42
 90
       50
102
RTVSPost2010PropOp42
 70
     1
102
RTVSPost2010Prop43
 90
        3
102
RTVSPost2010PropOp43
 70
     1
102
RTVSPost2010Prop44ColorIndex
 90
        5
102
RTVSPost2010Prop44ColorRGB
 90
      255
102
RTVSPost2010PropOp44
 70
     1
102
RTVSPost2010Prop45
280
     0
102
RTVSPost2010PropOp45
 70
     1
102
RTVSPost2010Prop46
 90
       50
102
RTVSPost2010PropOp46
 70
     1
102
RTVSPost2010Prop47
 90
       50
102
RTVSPost2010PropOp47
 70
     1
102
RTVSPost2010Prop48
 90
       50
102
RTVSPost2010PropOp48
 70
     1
102
RTVSPost2010Prop49
280
     0
102
RTVSPost2010PropOp49
 70
     1
102
RTVSPost2010Prop50
 90
       50
102
RTVSPost2010PropOp50
 70
     1
102
RTVSPost2010Prop51ColorIndex
 90
      256
102
RTVSPost2010Prop51ColorRGB
 90
-16777216
102
RTVSPost2010PropOp51
 70
     0
102
RTVSPost2010Prop52
140
1.0
102
RTVSPost2010PropOp52
 70
     0
102
RTVSPost2010Prop53
 90
        2
102
RTVSPost2010PropOp53
 70
     1
102
RTVSPost2010Prop54
  1
strokes_ogs.tif
102
RTVSPost2010PropOp54
 70
     1
102
RTVSPost2010Prop55
280
     0
102
RTVSPost2010PropOp55
 70
     1
102
RTVSPost2010Prop56
140
1.0
102
RTVSPost2010PropOp56
 70
     1
102
RTVSPost2010Prop57
140
1.0
102
RTVSPost2010PropOp57
 70
     1
  0
XRECORD
  5
1FE
102
{ACAD_REACTORS
330
1FD
102
}
330
1FD
100
AcDbXrecord
280
     1
102
RTVSPropertyOp0
 70
     1
102
RTVSPropertyOp1
 70
     1
102
RTVSPropertyOp2
 70
     1
102
RTVSPropertyOp3
 70
     1
102
RTVSPropertyOp4
 70
     1
102
RTVSPropertyOp5
 70
     1
102
RTVSPropertyOp6
 70
     1
102
RTVSPropertyOp7
 70
     1
102
RTVSPropertyOp8
 70
     1
102
RTVSPropertyOp9
 70
     1
102
RTVSPropertyOp10
 70
     1
102
RTVSPropertyOp11
 70
     1
102
RTVSPropertyOp12
 70
     1
102
RTVSPropertyOp13
 70
     1
102
RTVSPropertyOp14
 70
     1
102
RTVSPropertyOp15
 70
     1
102
RTVSPropertyOp16
 70
     1
102
RTVSPropertyOp17
 70
     1
102
RTVSPropertyOp18
 70
     1
102
RTVSPropertyOp19
 70
     1
102
RTVSPropertyOp20
 70
     1
102
RTVSPropertyOp21
 70
     1
102
RTVSPropertyOp22
 70
     1
102
RTVSPropertyOp23
 70
     1
102
RTVSPropertyOp24
 70
     1
102
RTVSPropertyOp25
 70
     1
102
RTVSPropertyOp26
 70
     1
102
RTVSPropertyOp27
 70
     1
102
RTVSPropertyOp28
 70
     1
102
RTVSPropertyOp29
 70
     1
102
RTVSPropertyOp30
 70
     1
102
RTVSPropertyOp31
 70
     1
102
RTVSPropertyOp32
 70
     1
102
RTVSPropertyOp33
 70
     1
102
RTVSPropertyOp34
 70
     1
102
RTVSPropertyOp35
 70
     1
102
RTVSPropertyOp36
 70
     1
102
RTVSPropertyOp37
 70
     1
102
RTVSPropertyOp38
 70
     1
102
RTVSPropertyOp39
 70
     1
102
RTVSPropertyOp40
 70
     1
102
RTVSPropertyOp41
 70
     1
102
RTVSPropertyOp42
 70
     1
102
RTVSPropertyOp43
 70
     1
102
RTVSPropertyOp44
 70
     1
102
RTVSPropertyOp45
 70
     1
102
RTVSPropertyOp46
 70
     1
102
RTVSPropertyOp47
 70
     1
102
RTVSPropertyOp48
 70
     1
102
RTVSPropertyOp49
 70
     1
102
RTVSPropertyOp50
 70
     1
102
RTVSPropertyOp51
 70
     0
102
RTVSPropertyOp52
 70
     0
102
RTVSPropertyOp53
 70
     1
102
RTVSPropertyOp54
 70
     1
102
RTVSPropertyOp55
 70
     1
102
RTVSPropertyOp56
 70
     1
102
RTVSPropertyOp57
 70
     1
102
RTVSPost2010Prop28
280
     0
102
RTVSPost2010PropOp28
 70
     1
102
RTVSPost2010Prop29
280
     1
102
RTVSPost2010PropOp29
 70
     1
102
RTVSPost2010Prop30
280
     1
102
RTVSPost2010PropOp30
 70
     1
102
RTVSPost2010Prop31
280
     0
102
RTVSPost2010PropOp31
 70
     1
102
RTVSPost2010Prop32
280
     0
102
RTVSPost2010PropOp32
 70
     1
102
RTVSPost2010Prop33
280
     0
102
RTVSPost2010PropOp33
 70
     1
102
RTVSPost2010Prop34
280
     0
102
RTVSPost2010PropOp34
 70
     1
102
RTVSPost2010Prop35
280
     0
102
RTVSPost2010PropOp35
 70
     1
102
RTVSPost2010Prop36
280
     0
102
RTVSPost2010PropOp36
 70
     1
102
RTVSPost2010Prop37
 90
       50
102
RTVSPost2010PropOp37
 70
     1
102
RTVSPost2010Prop38
140
0.0
102
RTVSPost2010PropOp38
 70
     1
102
RTVSPost2010Prop39
140
1.0
102
RTVSPost2010PropOp39
 70
     1
102
RTVSPost2010Prop40
 90
        0
102
RTVSPost2010PropOp40
 70
     1
102
RTVSPost2010Prop41ColorIndex
 90
       18
102
RTVSPost2010Prop41ColorRGB
 90
        0
102
RTVSPost2010PropOp41
 70
     1
102
RTVSPost2010Prop42
 90
       50
102
RTVSPost2010PropOp42
 70
     1
102
RTVSPost2010Prop43
 90
        3
102
RTVSPost2010PropOp43
 70
     1
102
RTVSPost2010Prop44ColorIndex
 90
        5
102
RTVSPost2010Prop44ColorRGB
 90
      255
102
RTVSPost2010PropOp44
 70
     1
102
RTVSPost2010Prop45
280
     0
102
RTVSPost2010PropOp45
 70
     1
102
RTVSPost2010Prop46
 90
       50
102
RTVSPost2010PropOp46
 70
     1
102
RTVSPost2010Prop47
 90
       50
102
RTVSPost2010PropOp47
 70
     1
102
RTVSPost2010Prop48
 90
       50
102
RTVSPost2010PropOp48
 70
     1
102
RTVSPost2010Prop49
280
     0
102
RTVSPost2010PropOp49
 70
     1
102
RTVSPost2010Prop50
 90
       50
102
RTVSPost2010PropOp50
 70
     1
102
RTVSPost2010Prop51ColorIndex
 90
      256
102
RTVSPost2010Prop51ColorRGB
 90
-16777216
102
RTVSPost2010PropOp51
 70
     0
102
RTVSPost2010Prop52
140
1.0
102
RTVSPost2010PropOp52
 70
     0
102
RTVSPost2010Prop53
 90
        2
102
RTVSPost2010PropOp53
 70
     1
102
RTVSPost2010Prop54
  1
strokes_ogs.tif
102
RTVSPost2010PropOp54
 70
     1
102
RTVSPost2010Prop55
280
     0
102
RTVSPost2010PropOp55
 70
     1
102
RTVSPost2010Prop56
140
1.0
102
RTVSPost2010PropOp56
 70
     1
102
RTVSPost2010Prop57
140
1.0
102
RTVSPost2010PropOp57
 70
     1
  0
XRECORD
  5
1F0
102
{ACAD_REACTORS
330
1EF
102
}
330
1EF
100
AcDbXrecord
280
     1
102
RTVSPropertyOp0
 70
     1
102
RTVSPropertyOp1
 70
     1
102
RTVSPropertyOp2
 70
     1
102
RTVSPropertyOp3
 70
     1
102
RTVSPropertyOp4
 70
     1
102
RTVSPropertyOp5
 70
     1
102
RTVSPropertyOp6
 70
     1
102
RTVSPropertyOp7
 70
     1
102
RTVSPropertyOp8
 70
     1
102
RTVSPropertyOp9
 70
     1
102
RTVSPropertyOp10
 70
     1
102
RTVSPropertyOp11
 70
     1
102
RTVSPropertyOp12
 70
     1
102
RTVSPropertyOp13
 70
     1
102
RTVSPropertyOp14
 70
     1
102
RTVSPropertyOp15
 70
     1
102
RTVSPropertyOp16
 70
     1
102
RTVSPropertyOp17
 70
     1
102
RTVSPropertyOp18
 70
     1
102
RTVSPropertyOp19
 70
     1
102
RTVSPropertyOp20
 70
     1
102
RTVSPropertyOp21
 70
     1
102
RTVSPropertyOp22
 70
     1
102
RTVSPropertyOp23
 70
     1
102
RTVSPropertyOp24
 70
     1
102
RTVSPropertyOp25
 70
     1
102
RTVSPropertyOp26
 70
     1
102
RTVSPropertyOp27
 70
     1
102
RTVSPropertyOp28
 70
     1
102
RTVSPropertyOp29
 70
     1
102
RTVSPropertyOp30
 70
     1
102
RTVSPropertyOp31
 70
     1
102
RTVSPropertyOp32
 70
     1
102
RTVSPropertyOp33
 70
     1
102
RTVSPropertyOp34
 70
     1
102
RTVSPropertyOp35
 70
     1
102
RTVSPropertyOp36
 70
     1
102
RTVSPropertyOp37
 70
     1
102
RTVSPropertyOp38
 70
     1
102
RTVSPropertyOp39
 70
     1
102
RTVSPropertyOp40
 70
     1
102
RTVSPropertyOp41
 70
     1
102
RTVSPropertyOp42
 70
     1
102
RTVSPropertyOp43
 70
     1
102
RTVSPropertyOp44
 70
     1
102
RTVSPropertyOp45
 70
     1
102
RTVSPropertyOp46
 70
     1
102
RTVSPropertyOp47
 70
     1
102
RTVSPropertyOp48
 70
     1
102
RTVSPropertyOp49
 70
     1
102
RTVSPropertyOp50
 70
     1
102
RTVSPropertyOp51
 70
     0
102
RTVSPropertyOp52
 70
     0
102
RTVSPropertyOp53
 70
     1
102
RTVSPropertyOp54
 70
     1
102
RTVSPropertyOp55
 70
     1
102
RTVSPropertyOp56
 70
     1
102
RTVSPropertyOp57
 70
     1
102
RTVSPost2010Prop28
280
     0
102
RTVSPost2010PropOp28
 70
     1
102
RTVSPost2010Prop29
280
     1
102
RTVSPost2010PropOp29
 70
     1
102
RTVSPost2010Prop30
280
     1
102
RTVSPost2010PropOp30
 70
     1
102
RTVSPost2010Prop31
280
     0
102
RTVSPost2010PropOp31
 70
     1
102
RTVSPost2010Prop32
280
     0
102
RTVSPost2010PropOp32
 70
     1
102
RTVSPost2010Prop33
280
     0
102
RTVSPost2010PropOp33
 70
     1
102
RTVSPost2010Prop34
280
     0
102
RTVSPost2010PropOp34
 70
     1
102
RTVSPost2010Prop35
280
     0
102
RTVSPost2010PropOp35
 70
     1
102
RTVSPost2010Prop36
280
     0
102
RTVSPost2010PropOp36
 70
     1
102
RTVSPost2010Prop37
 90
       50
102
RTVSPost2010PropOp37
 70
     1
102
RTVSPost2010Prop38
140
0.0
102
RTVSPost2010PropOp38
 70
     1
102
RTVSPost2010Prop39
140
1.0
102
RTVSPost2010PropOp39
 70
     1
102
RTVSPost2010Prop40
 90
        0
102
RTVSPost2010PropOp40
 70
     1
102
RTVSPost2010Prop41ColorIndex
 90
       18
102
RTVSPost2010Prop41ColorRGB
 90
        0
102
RTVSPost2010PropOp41
 70
     1
102
RTVSPost2010Prop42
 90
       50
102
RTVSPost2010PropOp42
 70
     1
102
RTVSPost2010Prop43
 90
        3
102
RTVSPost2010PropOp43
 70
     1
102
RTVSPost2010Prop44ColorIndex
 90
        5
102
RTVSPost2010Prop44ColorRGB
 90
      255
102
RTVSPost2010PropOp44
 70
     1
102
RTVSPost2010Prop45
280
     0
102
RTVSPost2010PropOp45
 70
     1
102
RTVSPost2010Prop46
 90
       50
102
RTVSPost2010PropOp46
 70
     1
102
RTVSPost2010Prop47
 90
       50
102
RTVSPost2010PropOp47
 70
     1
102
RTVSPost2010Prop48
 90
       50
102
RTVSPost2010PropOp48
 70
     1
102
RTVSPost2010Prop49
280
     0
102
RTVSPost2010PropOp49
 70
     1
102
RTVSPost2010Prop50
 90
       50
102
RTVSPost2010PropOp50
 70
     1
102
RTVSPost2010Prop51ColorIndex
 90
      256
102
RTVSPost2010Prop51ColorRGB
 90
-16777216
102
RTVSPost2010PropOp51
 70
     0
102
RTVSPost2010Prop52
140
1.0
102
RTVSPost2010PropOp52
 70
     0
102
RTVSPost2010Prop53
 90
        2
102
RTVSPost2010PropOp53
 70
     1
102
RTVSPost2010Prop54
  1
strokes_ogs.tif
102
RTVSPost2010PropOp54
 70
     1
102
RTVSPost2010Prop55
280
     0
102
RTVSPost2010PropOp55
 70
     1
102
RTVSPost2010Prop56
140
1.0
102
RTVSPost2010PropOp56
 70
     1
102
RTVSPost2010Prop57
140
1.0
102
RTVSPost2010PropOp57
 70
     1
  0
XRECORD
  5
210
102
{ACAD_REACTORS
330
20F
102
}
330
20F
100
AcDbXrecord
280
     1
102
RTVSPropertyOp0
 70
     1
102
RTVSPropertyOp1
 70
     1
102
RTVSPropertyOp2
 70
     1
102
RTVSPropertyOp3
 70
     1
102
RTVSPropertyOp4
 70
     1
102
RTVSPropertyOp5
 70
     1
102
RTVSPropertyOp6
 70
     1
102
RTVSPropertyOp7
 70
     1
102
RTVSPropertyOp8
 70
     1
102
RTVSPropertyOp9
 70
     1
102
RTVSPropertyOp10
 70
     1
102
RTVSPropertyOp11
 70
     1
102
RTVSPropertyOp12
 70
     1
102
RTVSPropertyOp13
 70
     1
102
RTVSPropertyOp14
 70
     1
102
RTVSPropertyOp15
 70
     1
102
RTVSPropertyOp16
 70
     1
102
RTVSPropertyOp17
 70
     1
102
RTVSPropertyOp18
 70
     1
102
RTVSPropertyOp19
 70
     1
102
RTVSPropertyOp20
 70
     1
102
RTVSPropertyOp21
 70
     1
102
RTVSPropertyOp22
 70
     1
102
RTVSPropertyOp23
 70
     1
102
RTVSPropertyOp24
 70
     1
102
RTVSPropertyOp25
 70
     1
102
RTVSPropertyOp26
 70
     1
102
RTVSPropertyOp27
 70
     1
102
RTVSPropertyOp28
 70
     1
102
RTVSPropertyOp29
 70
     1
102
RTVSPropertyOp30
 70
     1
102
RTVSPropertyOp31
 70
     1
102
RTVSPropertyOp32
 70
     1
102
RTVSPropertyOp33
 70
     1
102
RTVSPropertyOp34
 70
     1
102
RTVSPropertyOp35
 70
     1
102
RTVSPropertyOp36
 70
     1
102
RTVSPropertyOp37
 70
     1
102
RTVSPropertyOp38
 70
     1
102
RTVSPropertyOp39
 70
     1
102
RTVSPropertyOp40
 70
     1
102
RTVSPropertyOp41
 70
     1
102
RTVSPropertyOp42
 70
     1
102
RTVSPropertyOp43
 70
     1
102
RTVSPropertyOp44
 70
     1
102
RTVSPropertyOp45
 70
     1
102
RTVSPropertyOp46
 70
     1
102
RTVSPropertyOp47
 70
     1
102
RTVSPropertyOp48
 70
     1
102
RTVSPropertyOp49
 70
     1
102
RTVSPropertyOp50
 70
     1
102
RTVSPropertyOp51
 70
     0
102
RTVSPropertyOp52
 70
     0
102
RTVSPropertyOp53
 70
     1
102
RTVSPropertyOp54
 70
     1
102
RTVSPropertyOp55
 70
     1
102
RTVSPropertyOp56
 70
     1
102
RTVSPropertyOp57
 70
     1
102
RTVSPost2010Prop28
280
     0
102
RTVSPost2010PropOp28
 70
     1
102
RTVSPost2010Prop29
280
     1
102
RTVSPost2010PropOp29
 70
     1
102
RTVSPost2010Prop30
280
     1
102
RTVSPost2010PropOp30
 70
     1
102
RTVSPost2010Prop31
280
     0
102
RTVSPost2010PropOp31
 70
     1
102
RTVSPost2010Prop32
280
     0
102
RTVSPost2010PropOp32
 70
     1
102
RTVSPost2010Prop33
280
     0
102
RTVSPost2010PropOp33
 70
     1
102
RTVSPost2010Prop34
280
     0
102
RTVSPost2010PropOp34
 70
     1
102
RTVSPost2010Prop35
280
     0
102
RTVSPost2010PropOp35
 70
     1
102
RTVSPost2010Prop36
280
     0
102
RTVSPost2010PropOp36
 70
     1
102
RTVSPost2010Prop37
 90
       50
102
RTVSPost2010PropOp37
 70
     1
102
RTVSPost2010Prop38
140
0.0
102
RTVSPost2010PropOp38
 70
     1
102
RTVSPost2010Prop39
140
1.0
102
RTVSPost2010PropOp39
 70
     1
102
RTVSPost2010Prop40
 90
        0
102
RTVSPost2010PropOp40
 70
     1
102
RTVSPost2010Prop41ColorIndex
 90
       18
102
RTVSPost2010Prop41ColorRGB
 90
        0
102
RTVSPost2010PropOp41
 70
     1
102
RTVSPost2010Prop42
 90
       50
102
RTVSPost2010PropOp42
 70
     1
102
RTVSPost2010Prop43
 90
        3
102
RTVSPost2010PropOp43
 70
     1
102
RTVSPost2010Prop44ColorIndex
 90
        5
102
RTVSPost2010Prop44ColorRGB
 90
      255
102
RTVSPost2010PropOp44
 70
     1
102
RTVSPost2010Prop45
280
     0
102
RTVSPost2010PropOp45
 70
     1
102
RTVSPost2010Prop46
 90
       50
102
RTVSPost2010PropOp46
 70
     1
102
RTVSPost2010Prop47
 90
       50
102
RTVSPost2010PropOp47
 70
     1
102
RTVSPost2010Prop48
 90
       50
102
RTVSPost2010PropOp48
 70
     1
102
RTVSPost2010Prop49
280
     0
102
RTVSPost2010PropOp49
 70
     1
102
RTVSPost2010Prop50
 90
       50
102
RTVSPost2010PropOp50
 70
     1
102
RTVSPost2010Prop51ColorIndex
 90
      256
102
RTVSPost2010Prop51ColorRGB
 90
-16777216
102
RTVSPost2010PropOp51
 70
     0
102
RTVSPost2010Prop52
140
1.0
102
RTVSPost2010PropOp52
 70
     0
102
RTVSPost2010Prop53
 90
        2
102
RTVSPost2010PropOp53
 70
     1
102
RTVSPost2010Prop54
  1
strokes_ogs.tif
102
RTVSPost2010PropOp54
 70
     1
102
RTVSPost2010Prop55
280
     0
102
RTVSPost2010PropOp55
 70
     1
102
RTVSPost2010Prop56
140
1.0
102
RTVSPost2010PropOp56
 70
     1
102
RTVSPost2010Prop57
140
1.0
102
RTVSPost2010PropOp57
 70
     1
  0
ENDSEC
  0
EOF
