  0
SECTION
  2
HEADER
  9
$ACADVER
  1
AC1015
  9
$ACADMAINTVER
 70
     6
  9
$DWGCODEPAGE
  3
ANSI_1252
  9
$INSBASE
 10
0.0
 20
0.0
 30
0.0
  9
$EXTMIN
 10
0.0
 20
0.0
 30
0.0
  9
$EXTMAX
 10
420.0
 20
297.0
 30
0.0
  9
$LIMMIN
 10
0.0
 20
0.0
  9
$LIMMAX
 10
420.0
 20
297.0
  9
$ORTHOMODE
 70
     0
  9
$REGENMODE
 70
     1
  9
$FILLMODE
 70
     1
  9
$QTEXTMODE
 70
     0
  9
$MIRRTEXT
 70
     1
  9
$LTSCALE
 40
1.0
  9
$ATTMODE
 70
     1
  9
$TEXTSIZE
 40
2.5
  9
$TRACEWID
 40
1.0
  9
$TEXTSTYLE
  7
Standard
  9
$CLAYER
  8
0
  9
$CELTYPE
  6
ByLayer
  9
$CECOLOR
 62
   256
  9
$CELTSCALE
 40
1.0
  9
$DISPSILH
 70
     0
  9
$DIMSCALE
 40
1.0
  9
$DIMASZ
 40
2.5
  9
$DIMEXO
 40
0.625
  9
$DIMDLI
 40
3.75
  9
$DIMRND
 40
0.0
  9
$DIMDLE
 40
0.0
  9
$DIMEXE
 40
1.25
  9
$DIMTP
 40
0.0
  9
$DIMTM
 40
0.0
  9
$DIMTXT
 40
2.5
  9
$DIMCEN
 40
2.5
  9
$DIMTSZ
 40
0.0
  9
$DIMTOL
 70
     0
  9
$DIMLIM
 70
     0
  9
$DIMTIH
 70
     0
  9
$DIMTOH
 70
     0
  9
$DIMSE1
 70
     0
  9
$DIMSE2
 70
     0
  9
$DIMTAD
 70
     1
  9
$DIMZIN
 70
     8
  9
$DIMBLK
  1

  9
$DIMASO
 70
     1
  9
$DIMSHO
 70
     1
  9
$DIMPOST
  1

  9
$DIMAPOST
  1

  9
$DIMALT
 70
     0
  9
$DIMALTD
 70
     3
  9
$DIMALTF
 40
0.0393700787
  9
$DIMLFAC
 40
1.0
  9
$DIMTOFL
 70
     1
  9
$DIMTVP
 40
0.0
  9
$DIMTIX
 70
     0
  9
$DIMSOXD
 70
     0
  9
$DIMSAH
 70
     0
  9
$DIMBLK1
  1

  9
$DIMBLK2
  1

  9
$DIMSTYLE
  2
ISO-25
  9
$DIMCLRD
 70
     0
  9
$DIMCLRE
 70
     0
  9
$DIMCLRT
 70
     0
  9
$DIMTFAC
 40
1.0
  9
$DIMGAP
 40
0.625
  9
$DIMJUST
 70
     0
  9
$DIMSD1
 70
     0
  9
$DIMSD2
 70
     0
  9
$DIMTOLJ
 70
     0
  9
$DIMTZIN
 70
     8
  9
$DIMALTZ
 70
     0
  9
$DIMALTTZ
 70
     0
  9
$DIMUPT
 70
     0
  9
$DIMDEC
 70
     2
  9
$DIMTDEC
 70
     2
  9
$DIMALTU
 70
     2
  9
$DIMALTTD
 70
     3
  9
$DIMTXSTY
  7
Standard
  9
$DIMAUNIT
 70
     0
  9
$DIMADEC
 70
     0
  9
$DIMALTRND
 40
0.0
  9
$DIMAZIN
 70
     0
  9
$DIMDSEP
 70
    44
  9
$DIMATFIT
 70
     3
  9
$DIMFRAC
 70
     0
  9
$DIMLDRBLK
  1

  9
$DIMLUNIT
 70
     2
  9
$DIMLWD
 70
    -2
  9
$DIMLWE
 70
    -2
  9
$DIMTMOVE
 70
     0
  9
$LUNITS
 70
     2
  9
$LUPREC
 70
     4
  9
$SKETCHINC
 40
1.0
  9
$FILLETRAD
 40
10.0
  9
$AUNITS
 70
     0
  9
$AUPREC
 70
     0
  9
$MENU
  1
.
  9
$ELEVATION
 40
0.0
  9
$PELEVATION
 40
0.0
  9
$THICKNESS
 40
0.0
  9
$LIMCHECK
 70
     0
  9
$CHAMFERA
 40
10.0
  9
$CHAMFERB
 40
10.0
  9
$CHAMFERC
 40
20.0
  9
$CHAMFERD
 40
0.0
  9
$SKPOLY
 70
     0
  9
$TDCREATE
 40
2457403.33306316
  9
$TDUCREATE
 40
2457403.291396493
  9
$TDUPDATE
 40
2457403.333063738
  9
$TDUUPDATE
 40
2457403.291397072
  9
$TDINDWG
 40
0.0000000116
  9
$TDUSRTIMER
 40
0.0000000116
  9
$USRTIMER
 70
     1
  9
$ANGBASE
 50
0.0
  9
$ANGDIR
 70
     0
  9
$PDMODE
 70
     0
  9
$PDSIZE
 40
0.0
  9
$PLINEWID
 40
0.0
  9
$SPLFRAME
 70
     0
  9
$SPLINETYPE
 70
     6
  9
$SPLINESEGS
 70
     8
  9
$HANDSEED
  5
343
  9
$SURFTAB1
 70
     6
  9
$SURFTAB2
 70
     6
  9
$SURFTYPE
 70
     6
  9
$SURFU
 70
     6
  9
$SURFV
 70
     6
  9
$UCSBASE
  2

  9
$UCSNAME
  2

  9
$UCSORG
 10
0.0
 20
0.0
 30
0.0
  9
$UCSXDIR
 10
1.0
 20
0.0
 30
0.0
  9
$UCSYDIR
 10
0.0
 20
1.0
 30
0.0
  9
$UCSORTHOREF
  2

  9
$UCSORTHOVIEW
 70
     0
  9
$UCSORGTOP
 10
0.0
 20
0.0
 30
0.0
  9
$UCSORGBOTTOM
 10
0.0
 20
0.0
 30
0.0
  9
$UCSORGLEFT
 10
0.0
 20
0.0
 30
0.0
  9
$UCSORGRIGHT
 10
0.0
 20
0.0
 30
0.0
  9
$UCSORGFRONT
 10
0.0
 20
0.0
 30
0.0
  9
$UCSORGBACK
 10
0.0
 20
0.0
 30
0.0
  9
$PUCSBASE
  2

  9
$PUCSNAME
  2

  9
$PUCSORG
 10
0.0
 20
0.0
 30
0.0
  9
$PUCSXDIR
 10
1.0
 20
0.0
 30
0.0
  9
$PUCSYDIR
 10
0.0
 20
1.0
 30
0.0
  9
$PUCSORTHOREF
  2

  9
$PUCSORTHOVIEW
 70
     0
  9
$PUCSORGTOP
 10
0.0
 20
0.0
 30
0.0
  9
$PUCSORGBOTTOM
 10
0.0
 20
0.0
 30
0.0
  9
$PUCSORGLEFT
 10
0.0
 20
0.0
 30
0.0
  9
$PUCSORGRIGHT
 10
0.0
 20
0.0
 30
0.0
  9
$PUCSORGFRONT
 10
0.0
 20
0.0
 30
0.0
  9
$PUCSORGBACK
 10
0.0
 20
0.0
 30
0.0
  9
$USERI1
 70
     0
  9
$USERI2
 70
     0
  9
$USERI3
 70
     0
  9
$USERI4
 70
     0
  9
$USERI5
 70
     0
  9
$USERR1
 40
0.0
  9
$USERR2
 40
0.0
  9
$USERR3
 40
0.0
  9
$USERR4
 40
0.0
  9
$USERR5
 40
0.0
  9
$WORLDVIEW
 70
     1
  9
$SHADEDGE
 70
     3
  9
$SHADEDIF
 70
    70
  9
$TILEMODE
 70
     1
  9
$MAXACTVP
 70
    64
  9
$PINSBASE
 10
0.0
 20
0.0
 30
0.0
  9
$PLIMCHECK
 70
     0
  9
$PEXTMIN
 10
0.0
 20
0.0
 30
0.0
  9
$PEXTMAX
 10
420.0
 20
297.0
 30
0.0
  9
$PLIMMIN
 10
0.0
 20
0.0
  9
$PLIMMAX
 10
420.0
 20
297.0
  9
$UNITMODE
 70
     0
  9
$VISRETAIN
 70
     1
  9
$PLINEGEN
 70
     0
  9
$PSLTSCALE
 70
     1
  9
$TREEDEPTH
 70
  3020
  9
$CMLSTYLE
  2
Standard
  9
$CMLJUST
 70
     0
  9
$CMLSCALE
 40
20.0
  9
$PROXYGRAPHICS
 70
     1
  9
$MEASUREMENT
 70
     1
  9
$CELWEIGHT
370
    -1
  9
$ENDCAPS
280
     0
  9
$JOINSTYLE
280
     0
  9
$LWDISPLAY
290
     0
  9
$INSUNITS
 70
     4
  9
$HYPERLINKBASE
  1

  9
$STYLESHEET
  1

  9
$XEDIT
290
     1
  9
$CEPSNTYPE
380
     0
  9
$PSTYLEMODE
290
     1
  9
$FINGERPRINTGUID
  2
{BE709C7A-56DE-4C5B-A923-0D938E48F7DA}
  9
$VERSIONGUID
  2
{FAEB1C32-E019-11D5-929B-00C0DF256EC4}
  9
$EXTNAMES
290
     1
  9
$PSVPSCALE
 40
0.0
  9
$OLESTARTUP
290
     0
  0
ENDSEC
  0
SECTION
  2
CLASSES
  0
CLASS
  1
ACDBDICTIONARYWDFLT
  2
AcDbDictionaryWithDefault
  3
ObjectDBX Classes
 90
        0
280
     0
281
     0
  0
CLASS
  1
VISUALSTYLE
  2
AcDbVisualStyle
  3
ObjectDBX Classes
 90
     4095
280
     0
281
     0
  0
CLASS
  1
MATERIAL
  2
AcDbMaterial
  3
ObjectDBX Classes
 90
     1153
280
     0
281
     0
  0
CLASS
  1
DICTIONARYVAR
  2
AcDbDictionaryVar
  3
ObjectDBX Classes
 90
        0
280
     0
281
     0
  0
CLASS
  1
ACDBPLACEHOLDER
  2
AcDbPlaceHolder
  3
ObjectDBX Classes
 90
        0
280
     0
281
     0
  0
CLASS
  1
LAYOUT
  2
AcDbLayout
  3
ObjectDBX Classes
 90
        0
280
     0
281
     0
  0
ENDSEC
  0
SECTION
  2
TABLES
  0
TABLE
  2
VPORT
  5
8
330
0
100
AcDbSymbolTable
 70
     1
  0
VPORT
  5
29
330
8
100
AcDbSymbolTableRecord
100
AcDbViewportTableRecord
  2
*Active
 70
     0
 10
0.0
 20
0.0
 11
1.0
 21
1.0
 12
344.1869158879
 22
148.5
 13
0.0
 23
0.0
 14
10.0
 24
10.0
 15
10.0
 25
10.0
 16
0.0
 26
0.0
 36
1.0
 17
0.0
 27
0.0
 37
0.0
 40
297.0
 41
1.9729729729
 42
50.0
 43
0.0
 44
0.0
 50
0.0
 51
0.0
 71
     0
 72
   100
 73
     1
 74
     3
 75
     0
 76
     0
 77
     0
 78
     0
281
     0
 65
     1
110
0.0
120
0.0
130
0.0
111
1.0
121
0.0
131
0.0
112
0.0
122
1.0
132
0.0
 79
     0
146
0.0
  0
ENDTAB
  0
TABLE
  2
LTYPE
  5
5
330
0
100
AcDbSymbolTable
 70
     1
  0
LTYPE
  5
14
330
5
100
AcDbSymbolTableRecord
100
AcDbLinetypeTableRecord
  2
ByBlock
 70
     0
  3

 72
    65
 73
     0
 40
0.0
  0
LTYPE
  5
15
330
5
100
AcDbSymbolTableRecord
100
AcDbLinetypeTableRecord
  2
ByLayer
 70
     0
  3

 72
    65
 73
     0
 40
0.0
  0
LTYPE
  5
16
330
5
100
AcDbSymbolTableRecord
100
AcDbLinetypeTableRecord
  2
Continuous
 70
     0
  3
Solid line
 72
    65
 73
     0
 40
0.0
  0
ENDTAB
  0
TABLE
  2
LAYER
  5
2
330
0
100
AcDbSymbolTable
 70
     3
  0
LAYER
  5
10
330
2
100
AcDbSymbolTableRecord
100
AcDbLayerTableRecord
  2
0
 70
     0
 62
     7
  6
Continuous
370
    -3
390
F
  0
LAYER
  5
3F
330
2
100
AcDbSymbolTableRecord
100
AcDbLayerTableRecord
  2
Default
 70
     0
 62
     7
  6
Continuous
370
    -3
390
F
  0
LAYER
  5
42
330
2
100
AcDbSymbolTableRecord
100
AcDbLayerTableRecord
  2
52_164-325_TA-MO
 70
     0
 62
     7
  6
Continuous
370
    -3
390
F
  0
ENDTAB
  0
TABLE
  2
STYLE
  5
3
330
0
100
AcDbSymbolTable
 70
     1
  0
STYLE
  5
11
330
3
100
AcDbSymbolTableRecord
100
AcDbTextStyleTableRecord
  2
Standard
 70
     0
 40
0.0
 41
1.0
 50
0.0
 71
     0
 42
2.5
  3
txt
  4

  0
ENDTAB
  0
TABLE
  2
VIEW
  5
6
330
0
100
AcDbSymbolTable
 70
     0
  0
ENDTAB
  0
TABLE
  2
UCS
  5
7
330
0
100
AcDbSymbolTable
 70
     0
  0
ENDTAB
  0
TABLE
  2
APPID
  5
9
330
0
100
AcDbSymbolTable
 70
     1
  0
APPID
  5
12
330
9
100
AcDbSymbolTableRecord
100
AcDbRegAppTableRecord
  2
ACAD
 70
     0
  0
ENDTAB
  0
TABLE
  2
DIMSTYLE
  5
A
330
0
100
AcDbSymbolTable
 70
     1
100
AcDbDimStyleTable
  0
DIMSTYLE
105
27
330
A
100
AcDbSymbolTableRecord
100
AcDbDimStyleTableRecord
  2
ISO-25
 70
     0
 41
2.5
 42
0.625
 43
3.75
 44
1.25
 73
     0
 74
     0
 77
     1
 78
     8
140
2.5
141
2.5
143
0.0393700787
147
0.625
171
     3
172
     1
178
     0
271
     2
272
     2
274
     3
278
    44
283
     0
284
     8
340
11
  0
ENDTAB
  0
TABLE
  2
BLOCK_RECORD
  5
1
330
0
100
AcDbSymbolTable
 70
     5
  0
BLOCK_RECORD
  5
1F
330
1
100
AcDbSymbolTableRecord
100
AcDbBlockTableRecord
  2
*Model_Space
340
22
  0
BLOCK_RECORD
  5
1B
330
1
100
AcDbSymbolTableRecord
100
AcDbBlockTableRecord
  2
*Paper_Space
340
1E
  0
BLOCK_RECORD
  5
40
330
1
100
AcDbSymbolTableRecord
100
AcDbBlockTableRecord
  2
SE
340
0
102
{BLKREFS
331
41
102
}
  0
BLOCK_RECORD
  5
FE
330
1
100
AcDbSymbolTableRecord
100
AcDbBlockTableRecord
  2
SE1
340
0
102
{BLKREFS
331
FF
102
}
  0
BLOCK_RECORD
  5
1B8
330
1
100
AcDbSymbolTableRecord
100
AcDbBlockTableRecord
  2
SE2
340
0
102
{BLKREFS
331
1B9
102
}
  0
BLOCK_RECORD
  5
29B
330
1
100
AcDbSymbolTableRecord
100
AcDbBlockTableRecord
  2
SE3
340
0
102
{BLKREFS
331
29C
102
}
  0
ENDTAB
  0
ENDSEC
  0
SECTION
  2
BLOCKS
  0
BLOCK
  5
20
330
1F
100
AcDbEntity
  8
0
100
AcDbBlockBegin
  2
*Model_Space
 70
     0
 10
0.0
 20
0.0
 30
0.0
  3
*Model_Space
  1

  0
ENDBLK
  5
21
330
1F
100
AcDbEntity
  8
0
100
AcDbBlockEnd
  0
BLOCK
  5
1C
330
1B
100
AcDbEntity
 67
     1
  8
0
100
AcDbBlockBegin
  2
*Paper_Space
 70
     0
 10
0.0
 20
0.0
 30
0.0
  3
*Paper_Space
  1

  0
ENDBLK
  5
1D
330
1B
100
AcDbEntity
 67
     1
  8
0
100
AcDbBlockEnd
  0
BLOCK
  5
FC
330
40
100
AcDbEntity
  8
0
100
AcDbBlockBegin
  2
SE
 70
     0
 10
0.0
 20
0.0
 30
0.0
  3
SE
  1

  0
LINE
  5
43
330
40
100
AcDbEntity
  8
52_164-325_TA-MO
  6
Continuous
 62
     7
100
AcDbLine
 10
141.3909837589
 20
68.1787252609
 30
0.0
 11
141.3909837589
 21
100.9037060005
 31
0.0
  0
ARC
  5
44
330
40
100
AcDbEntity
  8
52_164-325_TA-MO
  6
Continuous
 62
     7
100
AcDbCircle
 10
84.5279057348
 20
-14.7372911552
 30
0.0
 40
98.72837597508587
100
AcDbArc
 50
57.1232034298
 51
64.2747238926
  0
SPLINE
  5
45
330
40
100
AcDbEntity
  8
52_164-325_TA-MO
  6
Continuous
 62
     7
100
AcDbSpline
210
0.0
220
0.0
230
1.0
 70
     8
 71
     3
 72
    24
 73
    20
 74
     0
 42
0.0000000004307369
 43
0.0000000001
 12
1.0
 22
0.0
 32
0.0
 13
1.0
 23
0.0
 33
0.0
 40
0.0039768068352123
 40
0.0039768068352123
 40
0.0039768068352123
 40
0.0039768068352123
 40
0.2499999999999997
 40
0.2499999999999997
 40
0.3749999999999997
 40
0.3749999999999997
 40
0.4999999999999997
 40
0.4999999999999997
 40
0.5624999999999997
 40
0.5624999999999997
 40
0.6249999999999998
 40
0.6249999999999998
 40
0.6874999999999998
 40
0.6874999999999998
 40
0.7499999999999998
 40
0.7499999999999998
 40
0.8749999999999999
 40
0.8749999999999999
 40
1.0
 40
1.0
 40
1.0
 40
1.0
 10
108.8739901339107
 20
71.7423514583262
 30
0.0
 10
109.7311026462219
 20
72.91914720694214
 30
0.0
 10
110.7283121195638
 20
74.28105620779773
 30
0.0
 10
112.3964563595178
 20
76.4664449915474
 30
0.0
 10
112.9808817672757
 20
77.21832849111843
 30
0.0
 10
114.2230099596418
 20
78.72527712252474
 30
0.0
 10
114.8787363694252
 20
79.49469853170356
 30
0.0
 10
116.004558143971
 20
80.53259167180711
 30
0.0
 10
116.4088809774628
 20
80.86139169371988
 30
0.0
 10
117.3077990070027
 20
81.36363573164812
 30
0.0
 10
117.8163154480851
 20
81.52443895554761
 30
0.0
 10
118.8469375771299
 20
81.55703984879906
 30
0.0
 10
119.3638224813155
 20
81.44437029049003
 30
0.0
 10
120.3453148541432
 20
81.12011605063473
 30
0.0
 10
120.818598317137
 20
80.90855052418713
 30
0.0
 10
122.1950594272577
 20
80.22996169458185
 30
0.0
 10
123.0708798709952
 20
79.71295397843758
 30
0.0
 10
124.7988904109093
 20
78.6570181425896
 30
0.0
 10
125.6491953899037
 20
78.11251235925604
 30
0.0
 10
126.4874587907954
 20
77.56666104713248
 30
0.0
  0
ARC
  5
46
330
40
100
AcDbEntity
  8
52_164-325_TA-MO
  6
Continuous
 62
     7
100
AcDbCircle
 10
133.7201556774
 20
77.6914017249
 30
0.0
 40
7.233772493666303
100
AcDbArc
 50
180.9880693152
 51
208.8074279184
  0
LINE
  5
47
330
40
100
AcDbEntity
  8
52_164-325_TA-MO
  6
Continuous
 62
     7
100
AcDbLine
 10
127.3816043602
 20
74.2056834791
 30
0.0
 11
108.7467337959
 21
67.4231452743
 31
0.0
  0
LINE
  5
48
330
40
100
AcDbEntity
  8
52_164-325_TA-MO
  6
Continuous
 62
     7
100
AcDbLine
 10
126.4874587908
 20
77.5666610471
 30
0.0
 11
108.8037278124
 21
71.1303093402
 31
0.0
  0
ARC
  5
49
330
40
100
AcDbEntity
  8
52_164-325_TA-MO
  6
Continuous
 62
     7
100
AcDbCircle
 10
129.8068444388
 20
80.5768959266
 30
0.0
 40
24.11803330471785
100
AcDbArc
 50
129.0185633062
 51
141.9569383392
  0
ARC
  5
4A
330
40
100
AcDbEntity
  8
52_164-325_TA-MO
  6
Continuous
 62
     7
100
AcDbCircle
 10
52.2106003461
 20
207.4402668424
 30
0.0
 40
126.4054325435074
100
AcDbArc
 50
296.1523623526
 51
297.6199512542
  0
LINE
  5
4B
330
40
100
AcDbEntity
  8
52_164-325_TA-MO
  6
Continuous
 62
     7
100
AcDbLine
 10
114.6228024498
 20
99.3152096011
 30
0.0
 11
77.8146416081
 21
112.7122845256
 31
0.0
  0
LINE
  5
4C
330
40
100
AcDbEntity
  8
52_164-325_TA-MO
  6
Continuous
 62
     7
100
AcDbLine
 10
127.5041886239
 20
102.6081017512
 30
0.0
 11
73.3320980272
 21
122.3251302564
 31
0.0
  0
LINE
  5
4D
330
40
100
AcDbEntity
  8
52_164-325_TA-MO
  6
Continuous
 62
     7
100
AcDbLine
 10
132.0759777845
 20
114.1419582112
 30
0.0
 11
77.5738057789
 21
133.9791265241
 31
0.0
  0
LINE
  5
4E
330
40
100
AcDbEntity
  8
52_164-325_TA-MO
  6
Continuous
 62
     7
100
AcDbLine
 10
134.3741111138
 20
116.0703210403
 30
0.0
 11
77.0528612459
 21
136.9335497832
 31
0.0
  0
LINE
  5
4F
330
40
100
AcDbEntity
  8
52_164-325_TA-MO
  6
Continuous
 62
     7
100
AcDbLine
 10
135.1956174323
 20
118.3273911002
 30
0.0
 11
77.8743675643
 21
139.190619843
 31
0.0
  0
LINE
  5
50
330
40
100
AcDbEntity
  8
52_164-325_TA-MO
  6
Continuous
 62
     7
100
AcDbLine
 10
137.4937507616
 20
120.2557539292
 30
0.0
 11
77.3534230313
 21
142.1450431021
 31
0.0
  0
SPLINE
  5
51
330
40
100
AcDbEntity
  8
52_164-325_TA-MO
  6
Continuous
 62
     7
100
AcDbSpline
210
0.0
220
0.0
230
1.0
 70
     8
 71
     3
 72
    16
 73
    12
 74
     0
 42
0.0000000009059258
 43
0.0000000001
 12
1.0
 22
0.0
 32
0.0
 13
1.0
 23
0.0
 33
0.0
 40
0.0
 40
0.0
 40
0.0
 40
0.0
 40
0.2500000000000001
 40
0.2500000000000001
 40
0.3750000000000002
 40
0.3750000000000002
 40
0.5000000000000002
 40
0.5000000000000002
 40
0.75
 40
0.75
 40
1.0
 40
1.0
 40
1.0
 40
1.0
 10
107.9250195252725
 20
93.97557245672112
 30
0.0
 10
107.9394623824491
 20
94.76152962709541
 30
0.0
 10
107.8010932352639
 20
95.54773427859216
 30
0.0
 10
107.0251636457846
 20
96.37106645114312
 30
0.0
 10
106.6547082437572
 20
96.57452811526151
 30
0.0
 10
105.7838234630492
 20
96.71363766628527
 30
0.0
 10
105.2849966465287
 20
96.65288672756681
 30
0.0
 10
103.8547611557731
 20
96.21791724579977
 30
0.0
 10
102.984869607859
 20
95.64403765089959
 30
0.0
 10
101.4392491864627
 20
94.37026481861352
 30
0.0
 10
100.7508513657288
 20
93.64941292440628
 30
0.0
 10
100.1247454961722
 20
92.89685318626938
 30
0.0
  0
ARC
  5
52
330
40
100
AcDbEntity
  8
52_164-325_TA-MO
  6
Continuous
 62
     7
100
AcDbCircle
 10
144.8714312219
 20
13.0449133162
 30
0.0
 40
86.59453139029348
100
AcDbArc
 50
122.4364740616
 51
131.8799405869
  0
ARC
  5
53
330
40
100
AcDbEntity
  8
52_164-325_TA-MO
  6
Continuous
 62
     7
100
AcDbCircle
 10
68.2431600297
 20
61.3778632505
 30
0.0
 40
41.85205002054316
100
AcDbArc
 50
16.2090664634
 51
34.2800663071
  0
ARC
  5
54
330
40
100
AcDbEntity
  8
52_164-325_TA-MO
  6
Continuous
 62
     7
100
AcDbCircle
 10
133.8866443685
 20
58.0082039106
 30
0.0
 40
50.72544665530852
100
AcDbArc
 50
157.3795544192
 51
162.3281391603
  0
SPLINE
  5
55
330
40
100
AcDbEntity
  8
52_164-325_TA-MO
  6
Continuous
 62
     7
100
AcDbSpline
210
0.0
220
0.0
230
1.0
 70
     8
 71
     3
 72
    16
 73
    12
 74
     0
 42
0.0000000009624367
 43
0.0000000001
 12
1.0
 22
0.0
 32
0.0
 13
1.0
 23
0.0
 33
0.0
 40
0.0
 40
0.0
 40
0.0
 40
0.0
 40
0.2500000000000002
 40
0.2500000000000002
 40
0.3750000000000002
 40
0.3750000000000002
 40
0.5000000000000002
 40
0.5000000000000002
 40
0.7500000000000002
 40
0.7500000000000002
 40
1.0
 40
1.0
 40
1.0
 40
1.0
 10
102.8252704066002
 20
84.9505536526885
 30
0.0
 10
103.1214298226978
 20
85.82653065797629
 30
0.0
 10
103.5355142246726
 20
86.6340278239909
 30
0.0
 10
104.2067981912091
 20
87.80921758022122
 30
0.0
 10
104.4403188431127
 20
88.19526174118116
 30
0.0
 10
104.9119270921995
 20
88.95610459605165
 30
0.0
 10
105.1493140854124
 20
89.32969411246891
 30
0.0
 10
105.855030953872
 20
90.43636855639912
 30
0.0
 10
106.3169996824357
 20
91.15556035610652
 30
0.0
 10
107.179941294976
 20
92.57575232764222
 30
0.0
 10
107.5825381505895
 20
93.27615623250911
 30
0.0
 10
107.9250195252725
 20
93.97557245672112
 30
0.0
  0
ARC
  5
56
330
40
100
AcDbEntity
  8
52_164-325_TA-MO
  6
Continuous
 62
     7
100
AcDbCircle
 10
102.8856039683
 20
86.2369192341
 30
0.0
 40
7.209511755392701
100
AcDbArc
 50
112.5163256384
 51
131.8431924111
  0
ARC
  5
57
330
40
100
AcDbEntity
  8
52_164-325_TA-MO
  6
Continuous
 62
     7
100
AcDbCircle
 10
63.310729684
 20
86.6424876739
 30
0.0
 40
35.11824309526046
100
AcDbArc
 50
359.1630938191
 51
8.1282168284
  0
LINE
  5
58
330
40
100
AcDbEntity
  8
52_164-325_TA-MO
  6
Continuous
 62
     7
100
AcDbLine
 10
87.0633528619
 20
77.5184655918
 30
0.0
 11
108.8925712391
 21
71.6693441562
 31
0.0
  0
LINE
  5
59
330
40
100
AcDbEntity
  8
52_164-325_TA-MO
  6
Continuous
 62
     7
100
AcDbLine
 10
98.4252264724
 20
86.1295418715
 30
0.0
 11
102.8252704066
 21
84.9505536527
 31
0.0
  0
LINE
  5
5A
330
40
100
AcDbEntity
  8
52_164-325_TA-MO
  6
Continuous
 62
     7
100
AcDbLine
 10
108.9352545997
 20
71.6579071842
 30
0.0
 11
108.8925712391
 21
71.6693441562
 31
0.0
  0
LINE
  5
5B
330
40
100
AcDbEntity
  8
52_164-325_TA-MO
  6
Continuous
 62
     7
100
AcDbLine
 10
105.2455427578
 20
57.1174197864
 30
0.0
 11
105.0712254703
 21
57.1641279628
 31
0.0
  0
LINE
  5
5C
330
40
100
AcDbEntity
  8
52_164-325_TA-MO
  6
Continuous
 62
     7
100
AcDbLine
 10
85.5548968763
 20
73.4066818461
 30
0.0
 11
83.1898330946
 21
64.5801436497
 31
0.0
  0
ELLIPSE
  5
5D
330
40
100
AcDbEntity
  8
52_164-325_TA-MO
  6
Continuous
 62
     7
100
AcDbEllipse
 10
88.1680637331
 20
84.4037060005
 30
0.0
 11
-4.424093481661749
 21
-16.49962057756735
 31
0.0
210
0.0
220
0.0
230
1.0
 40
0.0252924954
 41
0.1896167867995223
 42
0.8480922648539722
  0
ELLIPSE
  5
5E
330
40
100
AcDbEntity
  8
52_164-325_TA-MO
  6
Continuous
 62
     7
100
AcDbEllipse
 10
145.3416797587
 20
206.674918654
 30
0.0
 11
-37.20713006125397
 21
-139.0978045055513
 31
0.0
210
0.0
220
0.0
230
1.0
 40
0.0084856303
 41
-0.2242544260050723
 42
-0.0681921262869487
  0
ELLIPSE
  5
5F
330
40
100
AcDbEntity
  8
52_164-325_TA-MO
  6
Continuous
 62
     7
100
AcDbEllipse
 10
114.6535017014
 20
91.9248766493
 30
0.0
 11
-7.325475386158457
 21
-27.37431225315979
 31
0.0
210
0.0
220
0.0
230
1.0
 40
0.0150127185
 41
-0.7331753066537692
 42
-0.7040320318872402
  0
LINE
  5
60
330
40
100
AcDbEntity
  8
52_164-325_TA-MO
  6
Continuous
 62
     7
100
AcDbLine
 10
108.8925712391
 20
71.6693441562
 30
0.0
 11
105.3985141302
 21
58.6293455013
 31
0.0
  0
LINE
  5
61
330
40
100
AcDbEntity
  8
52_164-325_TA-MO
  6
Continuous
 62
     7
100
AcDbLine
 10
108.1405988273
 20
67.9219161285
 30
0.0
 11
105.2455427578
 21
57.1174197864
 31
0.0
  0
LINE
  5
62
330
40
100
AcDbEntity
  8
52_164-325_TA-MO
  6
Continuous
 62
     7
100
AcDbLine
 10
82.5663473317
 20
63.1942918858
 30
0.0
 11
73.7947822706
 21
65.5446256603
 31
0.0
  0
LINE
  5
63
330
40
100
AcDbEntity
  8
52_164-325_TA-MO
  6
Continuous
 62
     7
100
AcDbLine
 10
138.1210624281
 20
68.1787252609
 30
0.0
 11
141.3909837589
 21
68.1787252609
 31
0.0
  0
LINE
  5
64
330
40
100
AcDbEntity
  8
52_164-325_TA-MO
  6
Continuous
 62
     7
100
AcDbLine
 10
141.3909837589
 20
68.1787252609
 30
0.0
 11
143.3548723214
 21
66.1851665187
 31
0.0
  0
SPLINE
  5
65
330
40
100
AcDbEntity
  8
52_164-325_TA-MO
  6
Continuous
 62
     7
100
AcDbSpline
210
0.0
220
0.0
230
1.0
 70
     8
 71
     3
 72
     8
 73
     4
 74
     0
 42
0.0000000027038135
 43
0.0000000001
 12
1.0
 22
0.0
 32
0.0
 13
1.0
 23
0.0
 33
0.0
 40
0.0
 40
0.0
 40
0.0
 40
0.0
 40
1.0
 40
1.0
 40
1.0
 40
1.0
 10
73.7947822706129
 20
65.54462566027163
 30
0.0
 10
74.66108056091068
 20
66.4218161914106
 30
0.0
 10
75.52663124052708
 20
67.29972165646015
 30
0.0
 10
76.39098375887124
 20
68.17872526093782
 30
0.0
  0
LINE
  5
66
330
40
100
AcDbEntity
  8
52_164-325_TA-MO
  6
Continuous
 62
     7
100
AcDbLine
 10
76.3909837589
 20
68.1787252609
 30
0.0
 11
83.9019222293
 21
68.1787252609
 31
0.0
  0
LINE
  5
67
330
40
100
AcDbEntity
  8
52_164-325_TA-MO
  6
Continuous
 62
     7
100
AcDbLine
 10
82.5663473317
 20
63.1942918858
 30
0.0
 11
83.9019222293
 21
68.1787252609
 31
0.0
  0
LINE
  5
68
330
40
100
AcDbEntity
  8
52_164-325_TA-MO
  6
Continuous
 62
     7
100
AcDbLine
 10
138.1210624281
 20
68.1787252609
 30
0.0
 11
139.0319991682
 21
65.6759471369
 31
0.0
  0
LINE
  5
69
330
40
100
AcDbEntity
  8
52_164-325_TA-MO
  6
Continuous
 62
     7
100
AcDbLine
 10
143.3548723214
 20
66.1851665187
 30
0.0
 11
139.6622522645
 21
64.8411627315
 31
0.0
  0
LINE
  5
6A
330
40
100
AcDbEntity
  8
52_164-325_TA-MO
  6
Continuous
 62
     7
100
AcDbLine
 10
112.8460605988
 20
55.0808671688
 30
0.0
 11
105.2455427578
 21
57.1174197864
 31
0.0
  0
LINE
  5
6B
330
40
100
AcDbEntity
  8
52_164-325_TA-MO
  6
Continuous
 62
     7
100
AcDbLine
 10
108.7467337959
 20
67.4231452743
 30
0.0
 11
108.1405988273
 21
67.9219161285
 31
0.0
  0
ARC
  5
6C
330
40
100
AcDbEntity
  8
52_164-325_TA-MO
  6
Continuous
 62
     7
100
AcDbCircle
 10
216.1913820551
 20
74.1706173733
 30
0.0
 40
93.06540180259877
100
AcDbArc
 50
155.0167598462
 51
160.189328453
  0
ARC
  5
6D
330
40
100
AcDbEntity
  8
52_164-325_TA-MO
  6
Continuous
 62
     7
100
AcDbCircle
 10
129.5634755568
 20
116.6879997823
 30
0.0
 40
16.40981049816369
100
AcDbArc
 50
270.0991747763
 51
285.8706459505
  0
ARC
  5
6E
330
40
100
AcDbEntity
  8
52_164-325_TA-MO
  6
Continuous
 62
     7
100
AcDbCircle
 10
131.6352526244
 20
28.5821543613
 30
0.0
 40
72.75017913726654
100
AcDbArc
 50
96.1875002404
 51
103.5236987408
  0
SPLINE
  5
6F
330
40
100
AcDbEntity
  8
52_164-325_TA-MO
  6
Continuous
 62
     7
100
AcDbSpline
210
0.0
220
0.0
230
1.0
 70
     8
 71
     3
 72
    18
 73
    14
 74
     0
 42
0.0000000006797071
 43
0.0000000001
 12
1.0
 22
0.0
 32
0.0
 13
1.0
 23
0.0
 33
0.0
 40
0.0
 40
0.0
 40
0.0
 40
0.0
 40
0.25
 40
0.25
 40
0.5
 40
0.5
 40
0.625
 40
0.625
 40
0.75
 40
0.75
 40
0.875
 40
0.875
 40
1.0
 40
1.0
 40
1.0
 40
1.0
 10
124.0234742096229
 20
100.2782138669134
 30
0.0
 10
123.5977118171232
 20
99.88566798268516
 30
0.0
 10
122.983258901535
 20
99.32998671021812
 30
0.0
 10
121.377793301502
 20
98.05142680892826
 30
0.0
 10
120.4214561557288
 20
97.35018611942952
 30
0.0
 10
118.6698418350453
 20
96.39498264446118
 30
0.0
 10
118.0479166023644
 20
96.1035568624087
 30
0.0
 10
116.709672935715
 20
95.61808771497374
 30
0.0
 10
115.9895712183858
 20
95.4267361964405
 30
0.0
 10
114.5321900294255
 20
95.19719627855602
 30
0.0
 10
113.775383315507
 20
95.15517451131625
 30
0.0
 10
112.2737713639909
 20
95.20900916281623
 30
0.0
 10
111.5377521082739
 20
95.3014431211143
 30
0.0
 10
110.8127398923261
 20
95.43971944591345
 30
0.0
  0
LINE
  5
70
330
40
100
AcDbEntity
  8
52_164-325_TA-MO
  6
Continuous
 62
     7
100
AcDbLine
 10
78.3676182723
 20
100.8157998789
 30
0.0
 11
100.1247454962
 21
92.8968531863
 31
0.0
  0
ARC
  5
71
330
40
100
AcDbEntity
  8
52_164-325_TA-MO
  6
Continuous
 62
     7
100
AcDbCircle
 10
100.4433935828
 20
123.0597660688
 30
0.0
 40
31.54091060104102
100
AcDbArc
 50
226.2435251465
 51
265.6957806304
  0
LINE
  5
72
330
40
100
AcDbEntity
  8
52_164-325_TA-MO
  6
Continuous
 62
     7
100
AcDbLine
 10
76.3909837589
 20
100.2782138669
 30
0.0
 11
76.3909837589
 21
68.1787252609
 31
0.0
  0
LINE
  5
73
330
40
100
AcDbEntity
  8
52_164-325_TA-MO
  6
Continuous
 62
     7
100
AcDbLine
 10
73.3653595691
 20
103.4037060005
 30
0.0
 11
78.3402390617
 21
103.4037060005
 31
0.0
  0
LINE
  5
74
330
40
100
AcDbEntity
  8
52_164-325_TA-MO
  6
Continuous
 62
     7
100
AcDbLine
 10
123.7940588267
 20
100.9085274511
 30
0.0
 11
124.0234742096
 21
100.2782138669
 31
0.0
  0
LINE
  5
75
330
40
100
AcDbEntity
  8
52_164-325_TA-MO
  6
Continuous
 62
     7
100
AcDbLine
 10
128.6338083677
 20
105.7117064898
 30
0.0
 11
129.5918797166
 21
100.2782138669
 31
0.0
  0
LINE
  5
76
330
40
100
AcDbEntity
  8
52_164-325_TA-MO
  6
Continuous
 62
     7
100
AcDbLine
 10
78.6298674852
 20
100.2782138669
 30
0.0
 11
76.3909837589
 21
100.2782138669
 31
0.0
  0
LINE
  5
77
330
40
100
AcDbEntity
  8
52_164-325_TA-MO
  6
Continuous
 62
     7
100
AcDbLine
 10
76.3909837589
 20
100.2782138669
 30
0.0
 11
73.3653595691
 21
103.4037060005
 31
0.0
  0
LINE
  5
78
330
40
100
AcDbEntity
  8
52_164-325_TA-MO
  6
Continuous
 62
     7
100
AcDbLine
 10
129.5918797166
 20
100.2782138669
 30
0.0
 11
124.0234742096
 21
100.2782138669
 31
0.0
  0
LINE
  5
79
330
40
100
AcDbEntity
  8
52_164-325_TA-MO
  6
Continuous
 62
     7
100
AcDbLine
 10
123.7940588267
 20
100.9085274511
 30
0.0
 11
127.5041886239
 21
102.6081017512
 31
0.0
  0
LINE
  5
7A
330
40
100
AcDbEntity
  8
52_164-325_TA-MO
  6
Continuous
 62
     7
100
AcDbLine
 10
127.5041886239
 20
102.6081017512
 30
0.0
 11
128.6338083677
 21
105.7117064898
 31
0.0
  0
LINE
  5
7B
330
40
100
AcDbEntity
  8
52_164-325_TA-MO
  6
Continuous
 62
     7
100
AcDbLine
 10
78.3402390617
 20
103.4037060005
 30
0.0
 11
78.3676182723
 21
100.8157998789
 31
0.0
  0
LINE
  5
7C
330
40
100
AcDbEntity
  8
52_164-325_TA-MO
  6
Continuous
 62
     7
100
AcDbLine
 10
78.3676182723
 20
100.8157998789
 30
0.0
 11
78.6298674852
 21
100.2782138669
 31
0.0
  0
SPLINE
  5
7D
330
40
100
AcDbEntity
  8
52_164-325_TA-MO
  6
Continuous
 62
     7
100
AcDbSpline
210
0.0
220
0.0
230
1.0
 70
     8
 71
     3
 72
   101
 73
    97
 74
     0
 42
0.0000000011276287
 43
0.0000000001
 12
1.0
 22
0.0
 32
0.0
 13
1.0
 23
0.0
 33
0.0
 40
0.0
 40
0.0
 40
0.0
 40
0.0
 40
0.0148425443864457
 40
0.0148425443864457
 40
0.0148425443864457
 40
0.0297691341327757
 40
0.0297691341327757
 40
0.0297691341327757
 40
0.0438664642049513
 40
0.0438664642049513
 40
0.0438664642049513
 40
0.060710793101431
 40
0.060710793101431
 40
0.060710793101431
 40
0.0769416558662307
 40
0.0769416558662307
 40
0.0769416558662307
 40
0.0907487876225943
 40
0.0907487876225943
 40
0.0907487876225943
 40
0.1045023572894811
 40
0.1045023572894811
 40
0.1045023572894811
 40
0.1649131932598769
 40
0.1649131932598769
 40
0.1649131932598769
 40
0.1932777757133851
 40
0.1932777757133851
 40
0.1932777757133851
 40
0.2086645631018227
 40
0.2086645631018227
 40
0.2086645631018227
 40
0.268648891303384
 40
0.268648891303384
 40
0.268648891303384
 40
0.3606518012933523
 40
0.3606518012933523
 40
0.3606518012933523
 40
0.4526546751881466
 40
0.4526546751881466
 40
0.4526546751881466
 40
0.4757062915314796
 40
0.4757062915314796
 40
0.4757062915314796
 40
0.4907651447645956
 40
0.4907651447645956
 40
0.4907651447645956
 40
0.505777586379793
 40
0.505777586379793
 40
0.505777586379793
 40
0.521902182918115
 40
0.521902182918115
 40
0.521902182918115
 40
0.5372712021892673
 40
0.5372712021892673
 40
0.5372712021892673
 40
0.5957408710482471
 40
0.5957408710482471
 40
0.5957408710482471
 40
0.7070365361175458
 40
0.7070365361175458
 40
0.7070365361175458
 40
0.7785440457868749
 40
0.7785440457868749
 40
0.7785440457868749
 40
0.812144461953689
 40
0.812144461953689
 40
0.812144461953689
 40
0.8265828131589738
 40
0.8265828131589738
 40
0.8265828131589738
 40
0.882932096520488
 40
0.882932096520488
 40
0.882932096520488
 40
0.9045152236182554
 40
0.9045152236182554
 40
0.9045152236182554
 40
0.9189470932224627
 40
0.9189470932224627
 40
0.9189470932224627
 40
0.933291681236274
 40
0.933291681236274
 40
0.933291681236274
 40
0.9485668140975834
 40
0.9485668140975834
 40
0.9485668140975834
 40
0.9626114762323106
 40
0.9626114762323106
 40
0.9626114762323106
 40
0.978501198408231
 40
0.978501198408231
 40
0.978501198408231
 40
0.9926756681239188
 40
0.9926756681239188
 40
0.9926756681239188
 40
1.0
 40
1.0
 40
1.0
 40
1.0
 10
111.847608682512
 20
83.08544088140543
 30
0.0
 10
111.8168679019101
 20
83.05656317841576
 30
0.0
 10
111.7899157302143
 20
83.02269410404264
 30
0.0
 10
111.7701102195826
 20
82.98551933477233
 30
0.0
 10
111.7502273756926
 20
82.9481994116562
 30
0.0
 10
111.7371979131948
 20
82.90661518820593
 30
0.0
 10
111.7315306656797
 20
82.86476759561616
 30
0.0
 10
111.7261520913759
 20
82.82505159846144
 30
0.0
 10
111.7266892547872
 20
82.78418765227974
 30
0.0
 10
111.7326863149219
 20
82.74458648861665
 30
0.0
 10
111.7398128126698
 20
82.69752716332766
 30
0.0
 10
111.7555286532747
 20
82.65107636325705
 30
0.0
 10
111.7783761110961
 20
82.6093029838046
 30
0.0
 10
111.8004523283215
 20
82.56893970985796
 30
0.0
 10
111.8290645611492
 20
82.53136322299687
 30
0.0
 10
111.8628864474171
 20
82.5000801067616
 30
0.0
 10
111.8916456524093
 20
82.47347965208921
 30
0.0
 10
111.9253618344447
 20
82.45134225858816
 30
0.0
 10
111.9613843925919
 20
82.43575999852155
 30
0.0
 10
111.99734520624
 20
82.4202044472422
 30
0.0
 10
112.0363127868219
 20
82.41071295671418
 30
0.0
 10
112.0753058910726
 20
82.40649778278538
 30
0.0
 10
112.2474684686558
 20
82.38788692267336
 30
0.0
 10
112.4216577679625
 20
82.40370600052577
 30
0.0
 10
112.5948375100935
 20
82.40370600052577
 30
0.0
 10
112.6756934636149
 20
82.40370600052577
 30
0.0
 10
112.7606732242462
 20
82.40015097705975
 30
0.0
 10
112.8360391541678
 20
82.42923628057554
 30
0.0
 10
112.8777140831032
 20
82.44531951551137
 30
0.0
 10
112.9167133299153
 20
82.46966524206087
 30
0.0
 10
112.950379350729
 20
82.49889967328973
 30
0.0
 10
113.0831891106344
 20
82.614227166668
 30
0.0
 10
113.1998641096521
 20
82.74686808748466
 30
0.0
 10
113.3242560266175
 20
82.87139963024298
 30
0.0
 10
113.5150384785705
 20
83.06239622915813
 30
0.0
 10
113.7059127664253
 20
83.25362552113864
 30
0.0
 10
113.8968517501849
 20
83.44494760948979
 30
0.0
 10
114.0877906890134
 20
83.63626965281952
 30
0.0
 10
114.2788220932102
 20
83.82771226835395
 30
0.0
 10
114.4699194111141
 20
84.01913541725446
 30
0.0
 10
114.5177909518543
 20
84.06708858149419
 30
0.0
 10
114.5700239411011
 20
84.11166716324195
 30
0.0
 10
114.6103114809765
 20
84.16615302536592
 30
0.0
 10
114.636454545934
 20
84.20150955091154
 30
0.0
 10
114.656882116832
 20
84.24190177784008
 30
0.0
 10
114.6696079333431
 20
84.28399400367651
 30
0.0
 10
114.6823164599295
 20
84.32602904092997
 30
0.0
 10
114.6877741172367
 20
84.37070063224138
 30
0.0
 10
114.6868471788302
 20
84.41460598102776
 30
0.0
 10
114.6858546792819
 20
84.4616166977373
 30
0.0
 10
114.6770994483019
 20
84.50931966205437
 30
0.0
 10
114.6598478846074
 20
84.55306011898101
 30
0.0
 10
114.6433870916584
 20
84.59479561714903
 30
0.0
 10
114.6187997933537
 20
84.63391433432912
 30
0.0
 10
114.5891655543156
 20
84.66759638832647
 30
0.0
 10
114.4750244635031
 20
84.79732829671511
 30
0.0
 10
114.3454712767467
 20
84.9126322231469
 30
0.0
 10
114.2233880609798
 20
85.03485123596731
 30
0.0
 10
113.9910233828553
 20
85.26747438073211
 30
0.0
 10
113.7588284621876
 20
85.50013731116647
 30
0.0
 10
113.5268518124283
 20
85.73258756004135
 30
0.0
 10
113.3777973160217
 20
85.88194636327258
 30
0.0
 10
113.2288159821671
 20
86.03123435156004
 30
0.0
 10
113.0799210745191
 20
86.18038454531379
 30
0.0
 10
113.0102162724822
 20
86.25020885894278
 30
0.0
 10
112.9436464102057
 20
86.3307351840477
 30
0.0
 10
112.8533930515299
 20
86.3709936909375
 30
0.0
 10
112.8136658827006
 20
86.38871443311808
 30
0.0
 10
112.7700651917563
 20
86.39915659885992
 30
0.0
 10
112.7266420283947
 20
86.40245222753632
 30
0.0
 10
112.5552025851671
 20
86.41546373341541
 30
0.0
 10
112.382764620316
 20
86.40370600052577
 30
0.0
 10
112.2108251435905
 20
86.40370600052577
 30
0.0
 10
112.145163080175
 20
86.40370600052577
 30
0.0
 10
112.077626657883
 20
86.4063348869645
 30
0.0
 10
112.0144224524397
 20
86.38866102025408
 30
0.0
 10
111.9719952166663
 20
86.37679704214231
 30
0.0
 10
111.9311613769882
 20
86.35701331815345
 30
0.0
 10
111.8954362559545
 20
86.33136497601622
 30
0.0
 10
111.8598274704754
 20
86.30580015533451
 30
0.0
 10
111.827802191404
 20
86.27431929179515
 30
0.0
 10
111.8020509870942
 20
86.23893434201212
 30
0.0
 10
111.7747335367325
 20
86.20139720015196
 30
0.0
 10
111.7541458936113
 20
86.15811295128147
 30
0.0
 10
111.7420859586019
 20
86.11332553499966
 30
0.0
 10
111.7309459077533
 20
86.07195432575467
 30
0.0
 10
111.7265574705671
 20
86.02836095709254
 30
0.0
 10
111.7282112341564
 20
85.98553075438511
 30
0.0
 10
111.7300709745637
 20
85.93736603535376
 30
0.0
 10
111.7404978285961
 20
85.88852257930648
 30
0.0
 10
111.7600404975021
 20
85.844390631531
 30
0.0
 10
111.7775588032075
 20
85.80483017250559
 30
0.0
 10
111.8025915764256
 20
85.76812892781575
 30
0.0
 10
111.8317725576757
 20
85.73610652767083
 30
0.0
 10
111.8470305038825
 20
85.7193628803399
 30
0.0
 10
111.8621876827042
 20
85.7025187918919
 30
0.0
 10
111.8769306128725
 20
85.68531870669558
 30
0.0
  0
SPLINE
  5
7E
330
40
100
AcDbEntity
  8
52_164-325_TA-MO
  6
Continuous
 62
     7
100
AcDbSpline
210
0.0
220
0.0
230
1.0
 70
     8
 71
     3
 72
    42
 73
    38
 74
     0
 42
0.0000000009976189
 43
0.0000000001
 12
1.0
 22
0.0
 32
0.0
 13
1.0
 23
0.0
 33
0.0
 40
0.0
 40
0.0
 40
0.0
 40
0.0
 40
0.0312500000000001
 40
0.0312500000000001
 40
0.0625000000000003
 40
0.0625000000000003
 40
0.1250000000000005
 40
0.1250000000000005
 40
0.2500000000000008
 40
0.2500000000000008
 40
0.3750000000000011
 40
0.3750000000000011
 40
0.4062500000000011
 40
0.4062500000000011
 40
0.4375000000000011
 40
0.4375000000000011
 40
0.468750000000001
 40
0.468750000000001
 40
0.500000000000001
 40
0.500000000000001
 40
0.5312500000000009
 40
0.5312500000000009
 40
0.5625000000000008
 40
0.5625000000000008
 40
0.5937500000000008
 40
0.5937500000000008
 40
0.6250000000000007
 40
0.7500000000000006
 40
0.8750000000000004
 40
0.8750000000000004
 40
0.9062500000000003
 40
0.9062500000000003
 40
0.9375000000000002
 40
0.9375000000000002
 40
0.9687500000000002
 40
0.9687500000000002
 40
1.0
 40
1.0
 40
1.0
 40
1.0
 10
111.8769306128725
 20
85.68531870669558
 30
0.0
 10
111.9436329596243
 20
85.60749930215174
 30
0.0
 10
111.9933040435806
 20
85.51316582456083
 30
0.0
 10
111.9951037534737
 20
85.30697829926373
 30
0.0
 10
111.9538325531424
 20
85.20642210691666
 30
0.0
 10
111.7492318499631
 20
84.97711894324432
 30
0.0
 10
111.5131240666121
 20
84.99896645333847
 30
0.0
 10
110.8999544129961
 20
84.99033071826075
 30
0.0
 10
110.491154283279
 20
84.99039043318383
 30
0.0
 10
109.6735659582378
 20
84.99432215177173
 30
0.0
 10
109.2647743122833
 20
84.99819504952598
 30
0.0
 10
108.7537745370694
 20
85.00054051793971
 30
0.0
 10
108.6515735839958
 20
85.00088482113686
 30
0.0
 10
108.4471726154554
 20
85.0012017501786
 30
0.0
 10
108.3407191806704
 20
85.00706211190513
 30
0.0
 10
108.1564927527033
 20
84.91734374640946
 30
0.0
 10
108.0829371676474
 20
84.835716976624
 30
0.0
 10
108.0146046658864
 20
84.6430031885924
 30
0.0
 10
108.0259837588712
 20
84.537299004584
 30
0.0
 10
108.0259837588712
 20
84.3320691957723
 30
0.0
 10
108.0139863912444
 20
84.22922313520226
 30
0.0
 10
108.0518528599328
 20
84.02473646956828
 30
0.0
 10
108.1152273873819
 20
83.9316263864557
 30
0.0
 10
108.2867079313956
 20
83.81462752056997
 30
0.0
 10
108.3952418806395
 20
83.80627166943215
 30
0.0
 10
108.6050370201109
 20
83.80627166943215
 30
0.0
 10
109.1295248687892
 20
83.80627166943215
 30
0.0
 10
110.0736029964102
 20
83.80627166943214
 30
0.0
 10
110.9127835542956
 20
83.80627166943214
 30
0.0
 10
111.4372714029739
 20
83.80627166943214
 30
0.0
 10
111.5432628903715
 20
83.81614515271568
 30
0.0
 10
111.7506523263164
 20
83.79011942735157
 30
0.0
 10
111.8455439035353
 20
83.73079962796214
 30
0.0
 10
111.9749881829663
 20
83.56849035352244
 30
0.0
 10
112.0029623838068
 20
83.46029266039886
 30
0.0
 10
111.9808800474749
 20
83.25270265910093
 30
0.0
 10
111.9132275715656
 20
83.16746449272236
 30
0.0
 10
111.847608682512
 20
83.08544088140543
 30
0.0
  0
LINE
  5
7F
330
40
100
AcDbEntity
  8
52_164-325_TA-MO
  6
Continuous
 62
     7
100
AcDbLine
 10
145.8459837589
 20
63.4487060005
 30
0.0
 11
145.8459837589
 21
105.3587060005
 31
0.0
  0
LINE
  5
80
330
40
100
AcDbEntity
  8
52_164-325_TA-MO
  6
Continuous
 62
     7
100
AcDbLine
 10
155.3909837589
 20
65.3487060005
 30
0.0
 11
155.3909837589
 21
103.4587060005
 31
0.0
  0
LINE
  5
81
330
40
100
AcDbEntity
  8
52_164-325_TA-MO
  6
Continuous
 62
     7
100
AcDbLine
 10
153.4909837589
 20
63.4487060005
 30
0.0
 11
153.4909837589
 21
105.3587060005
 31
0.0
  0
LINE
  5
82
330
40
100
AcDbEntity
  8
52_164-325_TA-MO
  6
Continuous
 62
     7
100
AcDbLine
 10
71.9359837589
 20
63.4487060005
 30
0.0
 11
71.9359837589
 21
105.3587060005
 31
0.0
  0
LINE
  5
83
330
40
100
AcDbEntity
  8
52_164-325_TA-MO
  6
Continuous
 62
     7
100
AcDbLine
 10
62.3909837589
 20
103.4587060005
 30
0.0
 11
62.3909837589
 21
65.3487060005
 31
0.0
  0
LINE
  5
84
330
40
100
AcDbEntity
  8
52_164-325_TA-MO
  6
Continuous
 62
     7
100
AcDbLine
 10
64.2909837589
 20
105.3587060005
 30
0.0
 11
64.2909837589
 21
63.4487060005
 31
0.0
  0
LINE
  5
85
330
40
100
AcDbEntity
  8
52_164-325_TA-MO
  6
Continuous
 62
     7
100
AcDbLine
 10
79.3029378483
 20
147.5012910406
 30
0.0
 11
139.4432655786
 21
125.6120018677
 31
0.0
  0
LINE
  5
86
330
40
100
AcDbEntity
  8
52_164-325_TA-MO
  6
Continuous
 62
     7
100
AcDbLine
 10
139.3202321212
 20
65.7808553523
 30
0.0
 11
139.6622522645
 21
64.8411627315
 31
0.0
  0
LINE
  5
87
330
40
100
AcDbEntity
  8
52_164-325_TA-MO
  6
Continuous
 62
     7
100
AcDbLine
 10
139.0319991682
 20
65.6759471369
 30
0.0
 11
139.3202321212
 21
65.7808553523
 31
0.0
  0
LINE
  5
88
330
40
100
AcDbEntity
  8
52_164-325_TA-MO
  6
Continuous
 62
     7
100
AcDbLine
 10
112.9047627062
 20
55.1022329886
 30
0.0
 11
112.8460605988
 21
55.0808671688
 31
0.0
  0
LINE
  5
89
330
40
100
AcDbEntity
  8
52_164-325_TA-MO
  6
Continuous
 62
     7
100
AcDbLine
 10
112.8509755158
 20
56.1468338248
 30
0.0
 11
108.7467337959
 21
67.4231452743
 31
0.0
  0
LINE
  5
8A
330
40
100
AcDbEntity
  8
52_164-325_TA-MO
  6
Continuous
 62
     7
100
AcDbLine
 10
112.5627425629
 20
56.0419256094
 30
0.0
 11
112.8509755158
 21
56.1468338248
 31
0.0
  0
LINE
  5
8B
330
40
100
AcDbEntity
  8
52_164-325_TA-MO
  6
Continuous
 62
     7
100
AcDbLine
 10
112.8509755158
 20
56.1468338248
 30
0.0
 11
139.0319991682
 21
65.6759471369
 31
0.0
  0
LINE
  5
8C
330
40
100
AcDbEntity
  8
52_164-325_TA-MO
  6
Continuous
 62
     7
100
AcDbLine
 10
112.9047627062
 20
55.1022329886
 30
0.0
 11
112.5627425629
 21
56.0419256094
 31
0.0
  0
LINE
  5
8D
330
40
100
AcDbEntity
  8
52_164-325_TA-MO
  6
Continuous
 62
     7
100
AcDbLine
 10
105.459454038
 20
58.6130167022
 30
0.0
 11
105.3985141302
 21
58.6293455013
 31
0.0
  0
LINE
  5
8E
330
40
100
AcDbEntity
  8
52_164-325_TA-MO
  6
Continuous
 62
     7
100
AcDbLine
 10
105.0712254703
 20
57.1641279628
 30
0.0
 11
105.459454038
 21
58.6130167022
 31
0.0
  0
LINE
  5
8F
330
40
100
AcDbEntity
  8
52_164-325_TA-MO
  6
Continuous
 62
     7
100
AcDbLine
 10
82.740624633
 20
63.1475944237
 30
0.0
 11
82.5663473317
 21
63.1942918858
 31
0.0
  0
LINE
  5
90
330
40
100
AcDbEntity
  8
52_164-325_TA-MO
  6
Continuous
 62
     7
100
AcDbLine
 10
105.0712254703
 20
57.1641279628
 30
0.0
 11
103.9529562144
 21
57.4637673068
 31
0.0
  0
LINE
  5
91
330
40
100
AcDbEntity
  8
52_164-325_TA-MO
  6
Continuous
 62
     7
100
AcDbLine
 10
83.8586152744
 20
62.8480297341
 30
0.0
 11
82.740624633
 21
63.1475944237
 31
0.0
  0
LINE
  5
92
330
40
100
AcDbEntity
  8
52_164-325_TA-MO
  6
Continuous
 62
     7
100
AcDbLine
 10
83.1288532006
 20
64.5964831631
 30
0.0
 11
82.740624633
 21
63.1475944237
 31
0.0
  0
LINE
  5
93
330
40
100
AcDbEntity
  8
52_164-325_TA-MO
  6
Continuous
 62
     7
100
AcDbLine
 10
83.1898330946
 20
64.5801436497
 30
0.0
 11
105.3985141302
 21
58.6293455013
 31
0.0
  0
LINE
  5
94
330
40
100
AcDbEntity
  8
52_164-325_TA-MO
  6
Continuous
 62
     7
100
AcDbLine
 10
83.1898330946
 20
64.5801436497
 30
0.0
 11
83.1288532006
 21
64.5964831631
 31
0.0
  0
LINE
  5
95
330
40
100
AcDbEntity
  8
52_164-325_TA-MO
  6
Continuous
 62
     7
100
AcDbLine
 10
95.667821622
 20
38.7194197767
 30
0.0
 11
102.4235068511
 21
36.9092393753
 31
0.0
  0
LINE
  5
96
330
40
100
AcDbEntity
  8
52_164-325_TA-MO
  6
Continuous
 62
     7
100
AcDbLine
 10
93.3384502161
 20
30.0260873401
 30
0.0
 11
100.0941354452
 21
28.2159069387
 31
0.0
  0
LINE
  5
97
330
40
100
AcDbEntity
  8
52_164-325_TA-MO
  6
Continuous
 62
     7
100
AcDbLine
 10
121.6278741293
 20
28.9058793765
 30
0.0
 11
149.8186527529
 21
39.1664836763
 31
0.0
  0
LINE
  5
98
330
40
100
AcDbEntity
  8
52_164-325_TA-MO
  6
Continuous
 62
     7
100
AcDbLine
 10
113.5337440212
 20
54.799074579
 30
0.0
 11
139.3752910928
 21
64.2046285204
 31
0.0
  0
LINE
  5
99
330
40
100
AcDbEntity
  8
52_164-325_TA-MO
  6
Continuous
 62
     7
100
AcDbLine
 10
117.798086681
 20
54.0471559131
 30
0.0
 11
136.5919390967
 21
60.8875587796
 31
0.0
  0
LINE
  5
9A
330
40
100
AcDbEntity
  8
52_164-325_TA-MO
  6
Continuous
 62
     7
100
AcDbLine
 10
119.9177734127
 20
33.6043424804
 30
0.0
 11
148.1085520363
 21
43.8649467802
 31
0.0
  0
LINE
  5
9B
330
40
100
AcDbEntity
  8
52_164-325_TA-MO
  6
Continuous
 62
     7
100
AcDbLine
 10
145.8334249994
 20
36.9586871398
 30
0.0
 11
126.0998799629
 21
29.77626413
 31
0.0
  0
LINE
  5
9C
330
40
100
AcDbEntity
  8
52_164-325_TA-MO
  6
Continuous
 62
     7
100
AcDbLine
 10
130.5615089883
 20
22.141817671
 30
0.0
 11
130.5604841059
 21
22.1414446443
 31
0.0
  0
LINE
  5
9D
330
40
100
AcDbEntity
  8
52_164-325_TA-MO
  6
Continuous
 62
     7
100
AcDbLine
 10
136.9173990964
 20
24.4551724826
 30
0.0
 11
136.6983960582
 21
24.3754618955
 31
0.0
  0
LINE
  5
9E
330
40
100
AcDbEntity
  8
52_164-325_TA-MO
  6
Continuous
 62
     7
100
AcDbLine
 10
132.1621377876
 20
22.7243989101
 30
0.0
 11
131.4288113851
 21
22.4574899275
 31
0.0
  0
LINE
  5
9F
330
40
100
AcDbEntity
  8
52_164-325_TA-MO
  6
Continuous
 62
     7
100
AcDbLine
 10
127.6594212131
 20
29.0127650434
 30
0.0
 11
128.5633922535
 21
29.3417835948
 31
0.0
  0
LINE
  5
A0
330
40
100
AcDbEntity
  8
52_164-325_TA-MO
  6
Continuous
 62
     7
100
AcDbLine
 10
129.8318725604
 20
28.3229621255
 30
0.0
 11
132.3844561019
 21
29.2520265551
 31
0.0
  0
LINE
  5
A1
330
40
100
AcDbEntity
  8
52_164-325_TA-MO
  6
Continuous
 62
     7
100
AcDbLine
 10
131.874385759
 20
30.5468866766
 30
0.0
 11
134.0557694883
 21
31.3408454236
 31
0.0
  0
LINE
  5
A2
330
40
100
AcDbEntity
  8
52_164-325_TA-MO
  6
Continuous
 62
     7
100
AcDbLine
 10
134.7683170523
 20
30.1196809837
 30
0.0
 11
138.9758559425
 21
31.6510998992
 31
0.0
  0
LINE
  5
A3
330
40
100
AcDbEntity
  8
52_164-325_TA-MO
  6
Continuous
 62
     7
100
AcDbLine
 10
138.9758559425
 20
31.6510998992
 30
0.0
 11
138.7371531952
 21
33.0447297481
 31
0.0
  0
LINE
  5
A4
330
40
100
AcDbEntity
  8
52_164-325_TA-MO
  6
Continuous
 62
     7
100
AcDbLine
 10
138.7371531952
 20
33.0447297481
 30
0.0
 11
140.9181246095
 21
33.8385384247
 31
0.0
  0
LINE
  5
A5
330
40
100
AcDbEntity
  8
52_164-325_TA-MO
  6
Continuous
 62
     7
100
AcDbLine
 10
141.3596810218
 20
32.5187412718
 30
0.0
 11
143.9105720812
 21
33.4471896883
 31
0.0
  0
LINE
  5
A6
330
40
100
AcDbEntity
  8
52_164-325_TA-MO
  6
Continuous
 62
     7
100
AcDbLine
 10
143.9105720812
 20
33.4471896883
 30
0.0
 11
144.2276074331
 21
35.0430916633
 31
0.0
  0
LINE
  5
A7
330
40
100
AcDbEntity
  8
52_164-325_TA-MO
  6
Continuous
 62
     7
100
AcDbLine
 10
144.2276074331
 20
35.0430916633
 30
0.0
 11
145.130583057
 21
35.3717479127
 31
0.0
  0
LINE
  5
A8
330
40
100
AcDbEntity
  8
52_164-325_TA-MO
  6
Continuous
 62
     7
100
AcDbLine
 10
143.2789575684
 20
26.77059041
 30
0.0
 11
145.7241043446
 21
27.6605510549
 31
0.0
  0
LINE
  5
A9
330
40
100
AcDbEntity
  8
52_164-325_TA-MO
  6
Continuous
 62
     7
100
AcDbLine
 10
145.7241043446
 20
27.6605510549
 30
0.0
 11
143.9105720812
 21
33.4471896883
 31
0.0
  0
LINE
  5
AA
330
40
100
AcDbEntity
  8
52_164-325_TA-MO
  6
Continuous
 62
     7
100
AcDbLine
 10
136.9173990964
 20
24.4551724826
 30
0.0
 11
140.9705079529
 21
25.9303834626
 31
0.0
  0
LINE
  5
AB
330
40
100
AcDbEntity
  8
52_164-325_TA-MO
  6
Continuous
 62
     7
100
AcDbLine
 10
140.9705079529
 20
25.9303834626
 30
0.0
 11
138.9758559425
 21
31.6510998992
 31
0.0
  0
LINE
  5
AC
330
40
100
AcDbEntity
  8
52_164-325_TA-MO
  6
Continuous
 62
     7
100
AcDbLine
 10
132.1621377876
 20
22.7243989101
 30
0.0
 11
134.6020685642
 21
23.6124610864
 31
0.0
  0
LINE
  5
AD
330
40
100
AcDbEntity
  8
52_164-325_TA-MO
  6
Continuous
 62
     7
100
AcDbLine
 10
130.5615089883
 20
22.141817671
 30
0.0
 11
131.4288113851
 21
22.4574899275
 31
0.0
  0
LINE
  5
AE
330
40
100
AcDbEntity
  8
52_164-325_TA-MO
  6
Continuous
 62
     7
100
AcDbLine
 10
131.4288113851
 20
22.4574899275
 30
0.0
 11
128.5633922535
 21
29.3417835948
 31
0.0
  0
LINE
  5
AF
330
40
100
AcDbEntity
  8
52_164-325_TA-MO
  6
Continuous
 62
     7
100
AcDbLine
 10
130.5615089883
 20
22.141817671
 30
0.0
 11
127.6594212131
 21
29.0127650434
 31
0.0
  0
LINE
  5
B0
330
40
100
AcDbEntity
  8
52_164-325_TA-MO
  6
Continuous
 62
     7
100
AcDbLine
 10
132.1621377876
 20
22.7243989101
 30
0.0
 11
129.8318725604
 21
28.3229621255
 31
0.0
  0
LINE
  5
B1
330
40
100
AcDbEntity
  8
52_164-325_TA-MO
  6
Continuous
 62
     7
100
AcDbLine
 10
129.8318725604
 20
28.3229621255
 30
0.0
 11
128.5633922535
 21
29.3417835948
 31
0.0
  0
LINE
  5
B2
330
40
100
AcDbEntity
  8
52_164-325_TA-MO
  6
Continuous
 62
     7
100
AcDbLine
 10
134.6054978878
 20
23.6137092581
 30
0.0
 11
136.6983960582
 21
24.3754618955
 31
0.0
  0
LINE
  5
B3
330
40
100
AcDbEntity
  8
52_164-325_TA-MO
  6
Continuous
 62
     7
100
AcDbLine
 10
136.6983960582
 20
24.3754618955
 30
0.0
 11
134.0557694883
 21
31.3408454236
 31
0.0
  0
LINE
  5
B4
330
40
100
AcDbEntity
  8
52_164-325_TA-MO
  6
Continuous
 62
     7
100
AcDbLine
 10
134.6054978878
 20
23.6137092581
 30
0.0
 11
131.874385759
 21
30.5468866766
 31
0.0
  0
LINE
  5
B5
330
40
100
AcDbEntity
  8
52_164-325_TA-MO
  6
Continuous
 62
     7
100
AcDbLine
 10
136.9173990964
 20
24.4551724826
 30
0.0
 11
134.7683170523
 21
30.1196809837
 31
0.0
  0
LINE
  5
B6
330
40
100
AcDbEntity
  8
52_164-325_TA-MO
  6
Continuous
 62
     7
100
AcDbLine
 10
134.7683170523
 20
30.1196809837
 30
0.0
 11
134.0557694883
 21
31.3408454236
 31
0.0
  0
LINE
  5
B7
330
40
100
AcDbEntity
  8
52_164-325_TA-MO
  6
Continuous
 62
     7
100
AcDbLine
 10
141.1898843113
 20
26.0102299272
 30
0.0
 11
143.2823868919
 21
26.7718385817
 31
0.0
  0
LINE
  5
B8
330
40
100
AcDbEntity
  8
52_164-325_TA-MO
  6
Continuous
 62
     7
100
AcDbLine
 10
143.2823868919
 20
26.7718385817
 30
0.0
 11
140.9181246095
 21
33.8385384247
 31
0.0
  0
LINE
  5
B9
330
40
100
AcDbEntity
  8
52_164-325_TA-MO
  6
Continuous
 62
     7
100
AcDbLine
 10
140.9705079529
 20
25.9303834626
 30
0.0
 11
141.1898843113
 21
26.0102299272
 31
0.0
  0
LINE
  5
BA
330
40
100
AcDbEntity
  8
52_164-325_TA-MO
  6
Continuous
 62
     7
100
AcDbLine
 10
141.1898843113
 20
26.0102299272
 30
0.0
 11
138.7371531952
 21
33.0447297481
 31
0.0
  0
LINE
  5
BB
330
40
100
AcDbEntity
  8
52_164-325_TA-MO
  6
Continuous
 62
     7
100
AcDbLine
 10
146.4576239919
 20
27.9275303728
 30
0.0
 11
147.3239713502
 21
28.2428550238
 31
0.0
  0
LINE
  5
BC
330
40
100
AcDbEntity
  8
52_164-325_TA-MO
  6
Continuous
 62
     7
100
AcDbLine
 10
147.3239713502
 20
28.2428550238
 30
0.0
 11
145.130583057
 21
35.3717479127
 31
0.0
  0
LINE
  5
BD
330
40
100
AcDbEntity
  8
52_164-325_TA-MO
  6
Continuous
 62
     7
100
AcDbLine
 10
145.7241043446
 20
27.6605510549
 30
0.0
 11
146.4576239919
 21
27.9275303728
 31
0.0
  0
LINE
  5
BE
330
40
100
AcDbEntity
  8
52_164-325_TA-MO
  6
Continuous
 62
     7
100
AcDbLine
 10
146.4576239919
 20
27.9275303728
 30
0.0
 11
144.2276074331
 21
35.0430916633
 31
0.0
  0
LINE
  5
BF
330
40
100
AcDbEntity
  8
52_164-325_TA-MO
  6
Continuous
 62
     7
100
AcDbLine
 10
130.5604841059
 20
22.1414446443
 30
0.0
 11
127.8546937597
 21
28.5475302812
 31
0.0
  0
LINE
  5
C0
330
40
100
AcDbEntity
  8
52_164-325_TA-MO
  6
Continuous
 62
     7
100
AcDbLine
 10
143.0749709759
 20
19.6851398805
 30
0.0
 11
139.3162004928
 21
18.3170593072
 31
0.0
  0
LINE
  5
C1
330
40
100
AcDbEntity
  8
52_164-325_TA-MO
  6
Continuous
 62
     7
100
AcDbLine
 10
90.0452574064
 20
149.3391471946
 30
0.0
 11
132.3955225391
 21
133.924911273
 31
0.0
  0
LINE
  5
C2
330
40
100
AcDbEntity
  8
52_164-325_TA-MO
  6
Continuous
 62
     7
100
AcDbLine
 10
102.614494909
 20
52.4685617111
 30
0.0
 11
100.3497393119
 21
53.0754011444
 31
0.0
  0
LINE
  5
C3
330
40
100
AcDbEntity
  8
52_164-325_TA-MO
  6
Continuous
 62
     7
100
AcDbLine
 10
100.3497393119
 20
53.0754011444
 30
0.0
 11
90.3025688419
 21
55.7675323581
 31
0.0
  0
LINE
  5
C4
330
40
100
AcDbEntity
  8
52_164-325_TA-MO
  6
Continuous
 62
     7
100
AcDbLine
 10
90.3025688419
 20
55.7675323581
 30
0.0
 11
82.520153969
 21
57.8528241384
 31
0.0
  0
LINE
  5
C5
330
40
100
AcDbEntity
  8
52_164-325_TA-MO
  6
Continuous
 62
     7
100
AcDbLine
 10
104.3411847821
 20
58.9126560463
 30
0.0
 11
102.614494909
 21
52.4685617111
 31
0.0
  0
LINE
  5
C6
330
40
100
AcDbEntity
  8
52_164-325_TA-MO
  6
Continuous
 62
     7
100
AcDbLine
 10
84.2468438421
 20
64.2969184736
 30
0.0
 11
82.520153969
 21
57.8528241384
 31
0.0
  0
LINE
  5
C7
330
40
100
AcDbEntity
  8
52_164-325_TA-MO
  6
Continuous
 62
     7
100
AcDbLine
 10
92.029258715
 20
62.2116266932
 30
0.0
 11
90.3025688419
 21
55.7675323581
 31
0.0
  0
LINE
  5
C8
330
40
100
AcDbEntity
  8
52_164-325_TA-MO
  6
Continuous
 62
     7
100
AcDbLine
 10
102.076429185
 20
59.5194954796
 30
0.0
 11
100.3497393119
 21
53.0754011444
 31
0.0
  0
LINE
  5
C9
330
40
100
AcDbEntity
  8
52_164-325_TA-MO
  6
Continuous
 62
     7
100
AcDbLine
 10
93.3384502161
 20
30.0260873401
 30
0.0
 11
79.3325257349
 21
33.7789634941
 31
0.0
  0
LINE
  5
CA
330
40
100
AcDbEntity
  8
52_164-325_TA-MO
  6
Continuous
 62
     7
100
AcDbLine
 10
95.667821622
 20
38.7194197767
 30
0.0
 11
81.6618971408
 21
42.4722959307
 31
0.0
  0
LINE
  5
CB
330
40
100
AcDbEntity
  8
52_164-325_TA-MO
  6
Continuous
 62
     7
100
AcDbLine
 10
71.9359837589
 20
63.4487060005
 30
0.0
 11
73.9815101557
 21
65.4942323974
 31
0.0
  0
LINE
  5
CC
330
40
100
AcDbEntity
  8
52_164-325_TA-MO
  6
Continuous
 62
     7
100
AcDbLine
 10
73.8842667428
 20
103.4104230166
 30
0.0
 11
71.9359837589
 21
105.3587060005
 31
0.0
  0
LINE
  5
CD
330
40
100
AcDbEntity
  8
52_164-325_TA-MO
  6
Continuous
 62
     7
100
AcDbLine
 10
77.8146416081
 20
112.7122845256
 30
0.0
 11
77.8146416081
 21
103.4037060005
 31
0.0
  0
LINE
  5
CE
330
40
100
AcDbEntity
  8
52_164-325_TA-MO
  6
Continuous
 62
     7
100
AcDbLine
 10
73.3320980272
 20
122.3251302564
 30
0.0
 11
77.8146416081
 21
112.7122845256
 31
0.0
  0
LINE
  5
CF
330
40
100
AcDbEntity
  8
52_164-325_TA-MO
  6
Continuous
 62
     7
100
AcDbLine
 10
77.5738057789
 20
133.9791265241
 30
0.0
 11
73.3320980272
 21
122.3251302564
 31
0.0
  0
LINE
  5
D0
330
40
100
AcDbEntity
  8
52_164-325_TA-MO
  6
Continuous
 62
     7
100
AcDbLine
 10
131.8321359241
 20
113.472008206
 30
0.0
 11
132.0759777845
 21
114.1419582112
 31
0.0
  0
LINE
  5
D1
330
40
100
AcDbEntity
  8
52_164-325_TA-MO
  6
Continuous
 62
     7
100
AcDbLine
 10
77.0528612459
 20
136.9335497832
 30
0.0
 11
77.5738057789
 21
133.9791265241
 31
0.0
  0
LINE
  5
D2
330
40
100
AcDbEntity
  8
52_164-325_TA-MO
  6
Continuous
 62
     7
100
AcDbLine
 10
132.0759777845
 20
114.1419582112
 30
0.0
 11
134.3741111138
 21
116.0703210403
 31
0.0
  0
LINE
  5
D3
330
40
100
AcDbEntity
  8
52_164-325_TA-MO
  6
Continuous
 62
     7
100
AcDbLine
 10
77.8743675643
 20
139.190619843
 30
0.0
 11
77.0528612459
 21
136.9335497832
 31
0.0
  0
LINE
  5
D4
330
40
100
AcDbEntity
  8
52_164-325_TA-MO
  6
Continuous
 62
     7
100
AcDbLine
 10
134.3741111138
 20
116.0703210403
 30
0.0
 11
135.1956174323
 21
118.3273911002
 31
0.0
  0
LINE
  5
D5
330
40
100
AcDbEntity
  8
52_164-325_TA-MO
  6
Continuous
 62
     7
100
AcDbLine
 10
77.3534230313
 20
142.1450431021
 30
0.0
 11
77.8743675643
 21
139.190619843
 31
0.0
  0
LINE
  5
D6
330
40
100
AcDbEntity
  8
52_164-325_TA-MO
  6
Continuous
 62
     7
100
AcDbLine
 10
135.1956174323
 20
118.3273911002
 30
0.0
 11
137.4937507616
 21
120.2557539292
 31
0.0
  0
LINE
  5
D7
330
40
100
AcDbEntity
  8
52_164-325_TA-MO
  6
Continuous
 62
     7
100
AcDbLine
 10
79.3029378483
 20
147.5012910406
 30
0.0
 11
77.3534230313
 21
142.1450431021
 31
0.0
  0
LINE
  5
D8
330
40
100
AcDbEntity
  8
52_164-325_TA-MO
  6
Continuous
 62
     7
100
AcDbLine
 10
137.4937507616
 20
120.2557539292
 30
0.0
 11
139.4432655786
 21
125.6120018677
 31
0.0
  0
LINE
  5
D9
330
40
100
AcDbEntity
  8
52_164-325_TA-MO
  6
Continuous
 62
     7
100
AcDbLine
 10
108.8963777236
 20
71.6683242117
 30
0.0
 11
108.5150896378
 21
73.0913107203
 31
0.0
  0
LINE
  5
DA
330
40
100
AcDbEntity
  8
52_164-325_TA-MO
  6
Continuous
 62
     7
100
AcDbLine
 10
134.0510537121
 20
100.9034486297
 30
0.0
 11
131.8347517335
 21
113.4727217475
 31
0.0
  0
LINE
  5
DB
330
40
100
AcDbEntity
  8
52_164-325_TA-MO
  6
Continuous
 62
     7
100
AcDbLine
 10
141.3909837589
 20
100.9037060005
 30
0.0
 11
134.0484421827
 21
100.9037060005
 31
0.0
  0
LINE
  5
DC
330
40
100
AcDbEntity
  8
52_164-325_TA-MO
  6
Continuous
 62
     7
100
AcDbLine
 10
145.8459837589
 20
105.3587060005
 30
0.0
 11
141.3909837589
 21
100.9037060005
 31
0.0
  0
LINE
  5
DD
330
40
100
AcDbEntity
  8
52_164-325_TA-MO
  6
Continuous
 62
     7
100
AcDbLine
 10
143.1752254517
 20
66.1194643077
 30
0.0
 11
145.8459837589
 21
63.4487060005
 31
0.0
  0
LINE
  5
DE
330
40
100
AcDbEntity
  8
52_164-325_TA-MO
  6
Continuous
 62
     7
100
AcDbLine
 10
153.4909837589
 20
63.4487060005
 30
0.0
 11
155.3909837589
 21
65.3487060005
 31
0.0
  0
LINE
  5
DF
330
40
100
AcDbEntity
  8
52_164-325_TA-MO
  6
Continuous
 62
     7
100
AcDbLine
 10
155.3909837589
 20
103.4587060005
 30
0.0
 11
153.4909837589
 21
105.3587060005
 31
0.0
  0
LINE
  5
E0
330
40
100
AcDbEntity
  8
52_164-325_TA-MO
  6
Continuous
 62
     7
100
AcDbLine
 10
153.4909837589
 20
105.3587060005
 30
0.0
 11
145.8459837589
 21
105.3587060005
 31
0.0
  0
LINE
  5
E1
330
40
100
AcDbEntity
  8
52_164-325_TA-MO
  6
Continuous
 62
     7
100
AcDbLine
 10
145.8459837589
 20
63.4487060005
 30
0.0
 11
153.4909837589
 21
63.4487060005
 31
0.0
  0
LINE
  5
E2
330
40
100
AcDbEntity
  8
52_164-325_TA-MO
  6
Continuous
 62
     7
100
AcDbLine
 10
64.2909837589
 20
105.3587060005
 30
0.0
 11
62.3909837589
 21
103.4587060005
 31
0.0
  0
LINE
  5
E3
330
40
100
AcDbEntity
  8
52_164-325_TA-MO
  6
Continuous
 62
     7
100
AcDbLine
 10
62.3909837589
 20
65.3487060005
 30
0.0
 11
64.2909837589
 21
63.4487060005
 31
0.0
  0
LINE
  5
E4
330
40
100
AcDbEntity
  8
52_164-325_TA-MO
  6
Continuous
 62
     7
100
AcDbLine
 10
64.2909837589
 20
63.4487060005
 30
0.0
 11
71.9359837589
 21
63.4487060005
 31
0.0
  0
LINE
  5
E5
330
40
100
AcDbEntity
  8
52_164-325_TA-MO
  6
Continuous
 62
     7
100
AcDbLine
 10
71.9359837589
 20
105.3587060005
 30
0.0
 11
64.2909837589
 21
105.3587060005
 31
0.0
  0
LINE
  5
E6
330
40
100
AcDbEntity
  8
52_164-325_TA-MO
  6
Continuous
 62
     7
100
AcDbLine
 10
101.1837410531
 20
37.2414336197
 30
0.0
 11
106.4248267164
 21
56.801431602
 31
0.0
  0
LINE
  5
E7
330
40
100
AcDbEntity
  8
52_164-325_TA-MO
  6
Continuous
 62
     7
100
AcDbLine
 10
100.0941354452
 20
28.2159069387
 30
0.0
 11
102.4235068511
 21
36.9092393753
 31
0.0
  0
LINE
  5
E8
330
40
100
AcDbEntity
  8
52_164-325_TA-MO
  6
Continuous
 62
     7
100
AcDbLine
 10
139.3752910928
 20
64.2046285204
 30
0.0
 11
138.8622608778
 21
65.6141674516
 31
0.0
  0
LINE
  5
E9
330
40
100
AcDbEntity
  8
52_164-325_TA-MO
  6
Continuous
 62
     7
100
AcDbLine
 10
113.0207138062
 20
56.2086135102
 30
0.0
 11
113.5337440212
 21
54.799074579
 31
0.0
  0
LINE
  5
EA
330
40
100
AcDbEntity
  8
52_164-325_TA-MO
  6
Continuous
 62
     7
100
AcDbLine
 10
113.5337440212
 20
54.799074579
 30
0.0
 11
117.798086681
 21
54.0471559131
 31
0.0
  0
LINE
  5
EB
330
40
100
AcDbEntity
  8
52_164-325_TA-MO
  6
Continuous
 62
     7
100
AcDbLine
 10
136.5919390967
 20
60.8875587796
 30
0.0
 11
139.3752910928
 21
64.2046285204
 31
0.0
  0
LINE
  5
EC
330
40
100
AcDbEntity
  8
52_164-325_TA-MO
  6
Continuous
 62
     7
100
AcDbLine
 10
143.4100889324
 20
42.1548460636
 30
0.0
 11
136.5919390967
 21
60.8875587796
 31
0.0
  0
LINE
  5
ED
330
40
100
AcDbEntity
  8
52_164-325_TA-MO
  6
Continuous
 62
     7
100
AcDbLine
 10
117.798086681
 20
54.0471559131
 30
0.0
 11
124.6162365166
 21
35.3144431971
 31
0.0
  0
LINE
  5
EE
330
40
100
AcDbEntity
  8
52_164-325_TA-MO
  6
Continuous
 62
     7
100
AcDbLine
 10
149.8186527529
 20
39.1664836763
 30
0.0
 11
148.1085520363
 21
43.8649467802
 31
0.0
  0
LINE
  5
EF
330
40
100
AcDbEntity
  8
52_164-325_TA-MO
  6
Continuous
 62
     7
100
AcDbLine
 10
119.9177734127
 20
33.6043424804
 30
0.0
 11
121.6278741293
 21
28.9058793765
 31
0.0
  0
LINE
  5
F0
330
40
100
AcDbEntity
  8
52_164-325_TA-MO
  6
Continuous
 62
     7
100
AcDbLine
 10
125.8564909229
 20
30.4449700215
 30
0.0
 11
126.0998799629
 21
29.77626413
 31
0.0
  0
LINE
  5
F1
330
40
100
AcDbEntity
  8
52_164-325_TA-MO
  6
Continuous
 62
     7
100
AcDbLine
 10
145.8334249994
 20
36.9586871398
 30
0.0
 11
145.5900359594
 21
37.6273930313
 31
0.0
  0
LINE
  5
F2
330
40
100
AcDbEntity
  8
52_164-325_TA-MO
  6
Continuous
 62
     7
100
AcDbLine
 10
126.0998799629
 20
29.77626413
 30
0.0
 11
127.8564389402
 21
28.5463082927
 31
0.0
  0
LINE
  5
F3
330
40
100
AcDbEntity
  8
52_164-325_TA-MO
  6
Continuous
 62
     7
100
AcDbLine
 10
145.2789745351
 20
34.889449837
 30
0.0
 11
145.8334249994
 21
36.9586871398
 31
0.0
  0
LINE
  5
F4
330
40
100
AcDbEntity
  8
52_164-325_TA-MO
  6
Continuous
 62
     7
100
AcDbLine
 10
137.0628424865
 20
24.5081095474
 30
0.0
 11
139.3162004928
 21
18.3170593072
 31
0.0
  0
LINE
  5
F5
330
40
100
AcDbEntity
  8
52_164-325_TA-MO
  6
Continuous
 62
     7
100
AcDbLine
 10
143.0749709759
 20
19.6851398805
 30
0.0
 11
140.8216129696
 21
25.8761901207
 31
0.0
  0
LINE
  5
F6
330
40
100
AcDbEntity
  8
52_164-325_TA-MO
  6
Continuous
 62
     7
100
AcDbLine
 10
130.8142238203
 20
128.752716218
 30
0.0
 11
132.3955225391
 21
133.924911273
 31
0.0
  0
LINE
  5
F7
330
40
100
AcDbEntity
  8
52_164-325_TA-MO
  6
Continuous
 62
     7
100
AcDbLine
 10
90.0452574064
 20
149.3391471946
 30
0.0
 11
87.9319796066
 21
144.3605766903
 31
0.0
  0
LINE
  5
F8
330
40
100
AcDbEntity
  8
52_164-325_TA-MO
  6
Continuous
 62
     7
100
AcDbLine
 10
81.6618971408
 20
42.4722959307
 30
0.0
 11
79.3325257349
 21
33.7789634941
 31
0.0
  0
LINE
  5
F9
330
40
100
AcDbEntity
  8
52_164-325_TA-MO
  6
Continuous
 62
     7
100
AcDbLine
 10
93.3384502161
 20
30.0260873401
 30
0.0
 11
95.667821622
 21
38.7194197767
 31
0.0
  0
LINE
  5
FA
330
40
100
AcDbEntity
  8
52_164-325_TA-MO
  6
Continuous
 62
     7
100
AcDbLine
 10
94.428055824
 20
39.0516140211
 30
0.0
 11
98.3306801819
 21
53.6164064077
 31
0.0
  0
LINE
  5
FB
330
40
100
AcDbEntity
  8
52_164-325_TA-MO
  6
Continuous
 62
     7
100
AcDbLine
 10
86.8042872968
 20
56.704894073
 30
0.0
 11
82.9016629389
 21
42.1401016863
 31
0.0
  0
ENDBLK
  5
FD
330
40
100
AcDbEntity
  8
0
100
AcDbBlockEnd
  0
BLOCK
  5
1B6
330
FE
100
AcDbEntity
  8
0
100
AcDbBlockBegin
  2
SE1
 70
     0
 10
0.0
 20
0.0
 30
0.0
  3
SE1
  1

  0
LINE
  5
100
330
FE
100
AcDbEntity
  8
52_164-325_TA-MO
  6
Continuous
 62
     7
100
AcDbLine
 10
237.8902664891
 20
68.1787252609
 30
0.0
 11
237.8902664891
 21
100.9037060005
 31
0.0
  0
LINE
  5
101
330
FE
100
AcDbEntity
  8
52_164-325_TA-MO
  6
Continuous
 62
     7
100
AcDbLine
 10
302.8902664891
 20
68.1787252609
 30
0.0
 11
302.8902664891
 21
100.2782138669
 31
0.0
  0
SPLINE
  5
102
330
FE
100
AcDbEntity
  8
52_164-325_TA-MO
  6
Continuous
 62
     7
100
AcDbSpline
210
0.0
220
0.0
230
1.0
 70
     8
 71
     3
 72
    14
 73
    10
 74
     0
 42
0.0000000006781968
 43
0.0000000001
 12
1.0
 22
0.0
 32
0.0
 13
1.0
 23
0.0
 33
0.0
 40
0.0
 40
0.0
 40
0.0
 40
0.0
 40
0.25
 40
0.25
 40
0.5
 40
0.5
 40
0.75
 40
0.75
 40
1.0
 40
1.0
 40
1.0
 40
1.0
 10
268.4685103556153
 20
95.43971944591345
 30
0.0
 10
267.0203084627564
 20
95.16351439597518
 30
0.0
 10
265.4896360123219
 20
95.07947829974319
 30
0.0
 10
262.5354451300206
 20
95.5469260708005
 30
0.0
 10
261.1727314364693
 20
96.08793970549881
 30
0.0
 10
258.8650743281199
 20
97.34825176034714
 30
0.0
 10
257.8876340741042
 20
98.06365512740042
 30
0.0
 10
256.3012931892453
 20
99.32773283667868
 30
0.0
 10
255.6794445597357
 20
99.88944246411492
 30
0.0
 10
255.2577760383185
 20
100.2782138669133
 30
0.0
  0
SPLINE
  5
103
330
FE
100
AcDbEntity
  8
52_164-325_TA-MO
  6
Continuous
 62
     7
100
AcDbSpline
210
0.0
220
0.0
230
1.0
 70
     8
 71
     3
 72
    20
 73
    16
 74
     0
 42
0.0000000006414959
 43
0.0000000001
 12
1.0
 22
0.0
 32
0.0
 13
1.0
 23
0.0
 33
0.0
 40
0.0
 40
0.0
 40
0.0
 40
0.0
 40
0.2500000000000003
 40
0.2500000000000003
 40
0.3750000000000003
 40
0.3750000000000003
 40
0.5000000000000002
 40
0.5000000000000002
 40
0.6250000000000002
 40
0.6250000000000002
 40
0.7500000000000001
 40
0.7500000000000001
 40
0.8750000000000001
 40
0.8750000000000001
 40
1.0
 40
1.0
 40
1.0
 40
1.0
 10
252.793791457146
 20
77.56666104713248
 30
0.0
 10
253.8650364003679
 20
78.26422276489501
 30
0.0
 10
254.9501011780744
 20
78.95823406022546
 30
0.0
 10
256.6239578942431
 20
79.94775963088966
 30
0.0
 10
257.189603902262
 20
80.26906263722816
 30
0.0
 10
258.35479192202
 20
80.86325402939764
 30
0.0
 10
258.9570230745294
 20
81.14211554403329
 30
0.0
 10
260.2192933605033
 20
81.52472406885678
 30
0.0
 10
260.9031563138143
 20
81.61322160537051
 30
0.0
 10
262.1796869087052
 20
81.31300115299557
 30
0.0
 10
262.7499585690067
 20
80.9481633685942
 30
0.0
 10
263.7544974155558
 20
80.12310393877318
 30
0.0
 10
264.2065388964863
 20
79.65670734436567
 30
0.0
 10
265.0589030592321
 20
78.71883210286941
 30
0.0
 10
265.4612395821291
 20
78.24041134808894
 30
0.0
 10
265.8509864733614
 20
77.76235246623405
 30
0.0
  0
ARC
  5
104
330
FE
100
AcDbEntity
  8
52_164-325_TA-MO
  6
Continuous
 62
     7
100
AcDbCircle
 10
245.5842845315
 20
77.6852323292
 30
0.0
 40
7.210481902044671
100
AcDbArc
 50
331.1467338606
 51
359.0577689058
  0
LINE
  5
105
330
FE
100
AcDbEntity
  8
52_164-325_TA-MO
  6
Continuous
 62
     7
100
AcDbLine
 10
265.8940509477
 20
72.7985565314
 30
0.0
 11
252.7937914571
 21
77.5666610471
 31
0.0
  0
ARC
  5
106
330
FE
100
AcDbEntity
  8
52_164-325_TA-MO
  6
Continuous
 62
     7
100
AcDbCircle
 10
247.6481078655
 20
28.5943010714
 30
0.0
 40
72.73787574496856
100
AcDbArc
 50
76.475679962
 51
83.8131210568
  0
ARC
  5
107
330
FE
100
AcDbEntity
  8
52_164-325_TA-MO
  6
Continuous
 62
     7
100
AcDbCircle
 10
249.4669891084
 20
80.5696044376
 30
0.0
 40
24.12836774558349
100
AcDbArc
 50
38.0458443109
 51
50.9786540436
  0
ARC
  5
108
330
FE
100
AcDbEntity
  8
52_164-325_TA-MO
  6
Continuous
 62
     7
100
AcDbCircle
 10
279.6698552827
 20
121.3056617072
 30
0.0
 40
29.7048490666751
100
AcDbArc
 50
263.2250133193
 51
314.9373695321
  0
ARC
  5
109
330
FE
100
AcDbEntity
  8
52_164-325_TA-MO
  6
Continuous
 62
     7
100
AcDbCircle
 10
310.3094528041
 20
174.1502284683
 30
0.0
 40
89.14038756671788
100
AcDbArc
 50
242.0057759992
 51
247.4781925186
  0
LINE
  5
10A
330
FE
100
AcDbEntity
  8
52_164-325_TA-MO
  6
Continuous
 62
     7
100
AcDbLine
 10
276.1655604769
 20
91.8082384979
 30
0.0
 11
300.9136319756
 21
100.8157998789
 31
0.0
  0
LINE
  5
10B
330
FE
100
AcDbEntity
  8
52_164-325_TA-MO
  6
Continuous
 62
     7
100
AcDbLine
 10
264.6584477982
 20
99.3152096011
 30
0.0
 11
301.4666086398
 21
112.7122845256
 31
0.0
  0
LINE
  5
10C
330
FE
100
AcDbEntity
  8
52_164-325_TA-MO
  6
Continuous
 62
     7
100
AcDbLine
 10
251.7770616241
 20
102.6081017512
 30
0.0
 11
305.9491522208
 21
122.3251302564
 31
0.0
  0
LINE
  5
10D
330
FE
100
AcDbEntity
  8
52_164-325_TA-MO
  6
Continuous
 62
     7
100
AcDbLine
 10
247.2052724635
 20
114.1419582112
 30
0.0
 11
301.707444469
 21
133.9791265241
 31
0.0
  0
LINE
  5
10E
330
FE
100
AcDbEntity
  8
52_164-325_TA-MO
  6
Continuous
 62
     7
100
AcDbLine
 10
244.9071391341
 20
116.0703210403
 30
0.0
 11
302.2283890021
 21
136.9335497832
 31
0.0
  0
LINE
  5
10F
330
FE
100
AcDbEntity
  8
52_164-325_TA-MO
  6
Continuous
 62
     7
100
AcDbLine
 10
244.0856328157
 20
118.3273911002
 30
0.0
 11
301.4068826836
 21
139.190619843
 31
0.0
  0
LINE
  5
110
330
FE
100
AcDbEntity
  8
52_164-325_TA-MO
  6
Continuous
 62
     7
100
AcDbLine
 10
241.7874994863
 20
120.2557539292
 30
0.0
 11
301.9278272166
 21
142.1450431021
 31
0.0
  0
LINE
  5
111
330
FE
100
AcDbEntity
  8
52_164-325_TA-MO
  6
Continuous
 62
     7
100
AcDbLine
 10
265.8064020599
 20
77.6884600111
 30
0.0
 11
265.8509864734
 21
77.7623524662
 31
0.0
  0
LINE
  5
112
330
FE
100
AcDbEntity
  8
52_164-325_TA-MO
  6
Continuous
 62
     7
100
AcDbLine
 10
266.3849875211
 20
74.4602615605
 30
0.0
 11
265.8064020599
 21
77.6884600111
 31
0.0
  0
LINE
  5
113
330
FE
100
AcDbEntity
  8
52_164-325_TA-MO
  6
Continuous
 62
     7
100
AcDbLine
 10
265.8940509477
 20
72.7985565314
 30
0.0
 11
266.3849875211
 21
74.4602615605
 31
0.0
  0
LINE
  5
114
330
FE
100
AcDbEntity
  8
52_164-325_TA-MO
  6
Continuous
 62
     7
100
AcDbLine
 10
266.4272428236
 20
68.918070619
 30
0.0
 11
251.8996458877
 21
74.2056834791
 31
0.0
  0
ARC
  5
115
330
FE
100
AcDbEntity
  8
52_164-325_TA-MO
  6
Continuous
 62
     7
100
AcDbCircle
 10
252.3378812769
 20
63.1798709684
 30
0.0
 40
33.17224021821712
100
AcDbArc
 50
17.8243932178
 51
24.5933753662
  0
LINE
  5
116
330
FE
100
AcDbEntity
  8
52_164-325_TA-MO
  6
Continuous
 62
     7
100
AcDbLine
 10
282.5008763154
 20
76.9853500039
 30
0.0
 11
280.7940360604
 21
78.3211544803
 31
0.0
  0
LINE
  5
117
330
FE
100
AcDbEntity
  8
52_164-325_TA-MO
  6
Continuous
 62
     7
100
AcDbLine
 10
265.7641839734
 20
72.5007668069
 30
0.0
 11
282.5008763154
 21
76.9853500039
 31
0.0
  0
LINE
  5
118
330
FE
100
AcDbEntity
  8
52_164-325_TA-MO
  6
Continuous
 62
     7
100
AcDbLine
 10
265.7641839734
 20
72.5007668069
 30
0.0
 11
265.8940509477
 21
72.7985565314
 31
0.0
  0
ARC
  5
119
330
FE
100
AcDbEntity
  8
52_164-325_TA-MO
  6
Continuous
 62
     7
100
AcDbCircle
 10
331.901581066
 20
102.0319407124
 30
0.0
 40
56.33988409865861
100
AcDbArc
 50
201.5301439806
 51
204.8884268646
  0
LINE
  5
11A
330
FE
100
AcDbEntity
  8
52_164-325_TA-MO
  6
Continuous
 62
     7
100
AcDbLine
 10
266.3849875211
 20
74.4602615605
 30
0.0
 11
280.7940360604
 21
78.3211544803
 31
0.0
  0
SPLINE
  5
11B
330
FE
100
AcDbEntity
  8
52_164-325_TA-MO
  6
Continuous
 62
     7
100
AcDbSpline
210
0.0
220
0.0
230
1.0
 70
     8
 71
     3
 72
    18
 73
    14
 74
     0
 42
0.0000000006221956
 43
0.0000000001
 12
1.0
 22
0.0
 32
0.0
 13
1.0
 23
0.0
 33
0.0
 40
0.0
 40
0.0
 40
0.0
 40
0.0
 40
0.2499999999999998
 40
0.2499999999999998
 40
0.3749999999999998
 40
0.3749999999999998
 40
0.4999999999999998
 40
0.4999999999999998
 40
0.6249999999999998
 40
0.6249999999999998
 40
0.7499999999999998
 40
0.7499999999999998
 40
1.0
 40
1.0
 40
1.0
 40
1.0
 10
279.4928338662936
 20
81.35572836089159
 30
0.0
 10
278.2632919704611
 20
81.89357896691502
 30
0.0
 10
277.0117245988476
 20
82.40778821053519
 30
0.0
 10
275.0814608506324
 20
82.95833925114654
 30
0.0
 10
274.4292417314979
 20
83.10385722510986
 30
0.0
 10
273.0826726053257
 20
83.21098227236098
 30
0.0
 10
272.3985138821179
 20
83.15899181171055
 30
0.0
 10
271.1056631001192
 20
82.7657109109446
 30
0.0
 10
270.5032488702871
 20
82.4315571895806
 30
0.0
 10
269.4057617792745
 20
81.64157594929256
 30
0.0
 10
268.9037194133869
 20
81.18835783620376
 30
0.0
 10
267.4882776760153
 20
79.78387057115366
 30
0.0
 10
266.6411970406712
 20
78.77061513137977
 30
0.0
 10
265.8509864733614
 20
77.76235246623405
 30
0.0
  0
ARC
  5
11C
330
FE
100
AcDbEntity
  8
52_164-325_TA-MO
  6
Continuous
 62
     7
100
AcDbCircle
 10
277.9445869757
 20
73.2225153439
 30
0.0
 40
12.20176783295355
100
AcDbArc
 50
183.3910904104
 51
193.1334525727
  0
LINE
  5
11D
330
FE
100
AcDbEntity
  8
52_164-325_TA-MO
  6
Continuous
 62
     7
100
AcDbLine
 10
265.8064020599
 20
77.6884600111
 30
0.0
 11
279.4928338663
 21
81.3557283609
 31
0.0
  0
LINE
  5
11E
330
FE
100
AcDbEntity
  8
52_164-325_TA-MO
  6
Continuous
 62
     7
100
AcDbLine
 10
287.5435753411
 20
60.7368420685
 30
0.0
 11
287.4201783399
 21
60.7037779417
 31
0.0
  0
LINE
  5
11F
330
FE
100
AcDbEntity
  8
52_164-325_TA-MO
  6
Continuous
 62
     7
100
AcDbLine
 10
283.9178260713
 20
73.3339148858
 30
0.0
 11
286.9217448551
 21
62.1231373626
 31
0.0
  0
ELLIPSE
  5
120
330
FE
100
AcDbEntity
  8
52_164-325_TA-MO
  6
Continuous
 62
     7
100
AcDbEllipse
 10
281.2833872458
 20
84.4037060005
 30
0.0
 11
4.424093481661957
 21
-16.49962057756819
 31
0.0
210
0.0
220
0.0
230
1.0
 40
0.0252924954
 41
-0.8421609894871835
 42
-0.1896167867995313
  0
LINE
  5
121
330
FE
100
AcDbEntity
  8
52_164-325_TA-MO
  6
Continuous
 62
     7
100
AcDbLine
 10
266.0619750589
 20
70.4500304869
 30
0.0
 11
269.5410379578
 21
57.4659909856
 31
0.0
  0
ELLIPSE
  5
122
330
FE
100
AcDbEntity
  8
52_164-325_TA-MO
  6
Continuous
 62
     7
100
AcDbEllipse
 10
236.5223366593
 20
179.6379751969
 30
0.0
 11
30.82734697282917
 21
-115.2471656814596
 31
0.0
210
0.0
220
0.0
230
1.0
 40
0.0084856303
 41
0.278961369021241
 42
0.3234467458019417
  0
ELLIPSE
  5
123
330
FE
100
AcDbEntity
  8
52_164-325_TA-MO
  6
Continuous
 62
     7
100
AcDbEllipse
 10
261.9485147506
 20
84.5637417838
 30
0.0
 11
6.423878342638544
 21
-24.00516586722573
 31
0.0
210
0.0
220
0.0
230
1.0
 40
0.0150127185
 41
0.2335651083084681
 42
0.8568795631165369
  0
LINE
  5
124
330
FE
100
AcDbEntity
  8
52_164-325_TA-MO
  6
Continuous
 62
     7
100
AcDbLine
 10
268.2813780031
 20
61.2326982631
 30
0.0
 11
269.6956646071
 21
55.9545088007
 31
0.0
  0
ARC
  5
125
330
FE
100
AcDbEntity
  8
52_164-325_TA-MO
  6
Continuous
 62
     7
100
AcDbCircle
 10
300.0185040002
 20
-24.1192973822
 30
0.0
 40
109.4679239202603
100
AcDbArc
 50
116.0764736051
 51
122.5255990725
  0
LINE
  5
126
330
FE
100
AcDbEntity
  8
52_164-325_TA-MO
  6
Continuous
 62
     7
100
AcDbLine
 10
241.1601878199
 20
68.1787252609
 30
0.0
 11
240.2492510797
 21
65.6759471369
 31
0.0
  0
LINE
  5
127
330
FE
100
AcDbEntity
  8
52_164-325_TA-MO
  6
Continuous
 62
     7
100
AcDbLine
 10
287.5435753411
 20
60.7368420685
 30
0.0
 11
285.5495287496
 21
68.1787252609
 31
0.0
  0
LINE
  5
128
330
FE
100
AcDbEntity
  8
52_164-325_TA-MO
  6
Continuous
 62
     7
100
AcDbLine
 10
235.9263779265
 20
66.1851665187
 30
0.0
 11
239.6189979835
 21
64.8411627315
 31
0.0
  0
LINE
  5
129
330
FE
100
AcDbEntity
  8
52_164-325_TA-MO
  6
Continuous
 62
     7
100
AcDbLine
 10
287.5435753411
 20
60.7368420685
 30
0.0
 11
305.4864679773
 21
65.5446256603
 31
0.0
  0
SPLINE
  5
12A
330
FE
100
AcDbEntity
  8
52_164-325_TA-MO
  6
Continuous
 62
     7
100
AcDbSpline
210
0.0
220
0.0
230
1.0
 70
     8
 71
     3
 72
     8
 73
     4
 74
     0
 42
0.0000000027038135
 43
0.0000000001
 12
1.0
 22
0.0
 32
0.0
 13
1.0
 23
0.0
 33
0.0
 40
0.0
 40
0.0
 40
0.0
 40
0.0
 40
1.0
 40
1.0
 40
1.0
 40
1.0
 10
305.4864679773285
 20
65.54462566027163
 30
0.0
 10
304.6201696870307
 20
66.4218161914106
 30
0.0
 10
303.7546190074143
 20
67.29972165646015
 30
0.0
 10
302.8902664890701
 20
68.17872526093782
 30
0.0
  0
LINE
  5
12B
330
FE
100
AcDbEntity
  8
52_164-325_TA-MO
  6
Continuous
 62
     7
100
AcDbLine
 10
302.8902664891
 20
68.1787252609
 30
0.0
 11
285.5495287496
 21
68.1787252609
 31
0.0
  0
LINE
  5
12C
330
FE
100
AcDbEntity
  8
52_164-325_TA-MO
  6
Continuous
 62
     7
100
AcDbLine
 10
241.1601878199
 20
68.1787252609
 30
0.0
 11
237.8902664891
 21
68.1787252609
 31
0.0
  0
LINE
  5
12D
330
FE
100
AcDbEntity
  8
52_164-325_TA-MO
  6
Continuous
 62
     7
100
AcDbLine
 10
237.8902664891
 20
68.1787252609
 30
0.0
 11
235.9263779265
 21
66.1851665187
 31
0.0
  0
LINE
  5
12E
330
FE
100
AcDbEntity
  8
52_164-325_TA-MO
  6
Continuous
 62
     7
100
AcDbLine
 10
266.4351896492
 20
55.0808671688
 30
0.0
 11
269.6956646071
 21
55.9545088007
 31
0.0
  0
ARC
  5
12F
330
FE
100
AcDbEntity
  8
52_164-325_TA-MO
  6
Continuous
 62
     7
100
AcDbCircle
 10
163.0898681929
 20
74.1706173733
 30
0.0
 40
93.06540180259877
100
AcDbArc
 50
19.810671547
 51
24.9832401538
  0
ARC
  5
130
330
FE
100
AcDbEntity
  8
52_164-325_TA-MO
  6
Continuous
 62
     7
100
AcDbCircle
 10
249.7177746911
 20
116.6879997823
 30
0.0
 40
16.40981049816369
100
AcDbArc
 50
254.1293540495
 51
269.9008252237
  0
LINE
  5
131
330
FE
100
AcDbEntity
  8
52_164-325_TA-MO
  6
Continuous
 62
     7
100
AcDbLine
 10
300.6513827628
 20
100.2782138669
 30
0.0
 11
302.8902664891
 21
100.2782138669
 31
0.0
  0
LINE
  5
132
330
FE
100
AcDbEntity
  8
52_164-325_TA-MO
  6
Continuous
 62
     7
100
AcDbLine
 10
302.8902664891
 20
100.2782138669
 30
0.0
 11
305.9158906788
 21
103.4037060005
 31
0.0
  0
LINE
  5
133
330
FE
100
AcDbEntity
  8
52_164-325_TA-MO
  6
Continuous
 62
     7
100
AcDbLine
 10
300.9410111863
 20
103.4037060005
 30
0.0
 11
300.9136319756
 21
100.8157998789
 31
0.0
  0
LINE
  5
134
330
FE
100
AcDbEntity
  8
52_164-325_TA-MO
  6
Continuous
 62
     7
100
AcDbLine
 10
300.9136319756
 20
100.8157998789
 30
0.0
 11
300.6513827628
 21
100.2782138669
 31
0.0
  0
LINE
  5
135
330
FE
100
AcDbEntity
  8
52_164-325_TA-MO
  6
Continuous
 62
     7
100
AcDbLine
 10
249.6893705314
 20
100.2782138669
 30
0.0
 11
255.2577760383
 21
100.2782138669
 31
0.0
  0
LINE
  5
136
330
FE
100
AcDbEntity
  8
52_164-325_TA-MO
  6
Continuous
 62
     7
100
AcDbLine
 10
255.4871914212
 20
100.9085274511
 30
0.0
 11
251.7770616241
 21
102.6081017512
 31
0.0
  0
LINE
  5
137
330
FE
100
AcDbEntity
  8
52_164-325_TA-MO
  6
Continuous
 62
     7
100
AcDbLine
 10
251.7770616241
 20
102.6081017512
 30
0.0
 11
250.6474418803
 21
105.7117064898
 31
0.0
  0
LINE
  5
138
330
FE
100
AcDbEntity
  8
52_164-325_TA-MO
  6
Continuous
 62
     7
100
AcDbLine
 10
250.6474418803
 20
105.7117064898
 30
0.0
 11
249.6893705314
 21
100.2782138669
 31
0.0
  0
LINE
  5
139
330
FE
100
AcDbEntity
  8
52_164-325_TA-MO
  6
Continuous
 62
     7
100
AcDbLine
 10
255.4871914212
 20
100.9085274511
 30
0.0
 11
255.2577760383
 21
100.2782138669
 31
0.0
  0
LINE
  5
13A
330
FE
100
AcDbEntity
  8
52_164-325_TA-MO
  6
Continuous
 62
     7
100
AcDbLine
 10
305.9158906788
 20
103.4037060005
 30
0.0
 11
300.9410111863
 21
103.4037060005
 31
0.0
  0
SPLINE
  5
13B
330
FE
100
AcDbEntity
  8
52_164-325_TA-MO
  6
Continuous
 62
     7
100
AcDbSpline
210
0.0
220
0.0
230
1.0
 70
     8
 71
     3
 72
   101
 73
    97
 74
     0
 42
0.0000000011276287
 43
0.0000000001
 12
1.0
 22
0.0
 32
0.0
 13
1.0
 23
0.0
 33
0.0
 40
0.0
 40
0.0
 40
0.0
 40
0.0
 40
0.0148425443869281
 40
0.0148425443869281
 40
0.0148425443869281
 40
0.0297691341357893
 40
0.0297691341357893
 40
0.0297691341357893
 40
0.0438664642134375
 40
0.0438664642134375
 40
0.0438664642134375
 40
0.0607107931145757
 40
0.0607107931145757
 40
0.0607107931145757
 40
0.0769416558818115
 40
0.0769416558818115
 40
0.0769416558818115
 40
0.0907487876353453
 40
0.0907487876353453
 40
0.0907487876353453
 40
0.1045023572983448
 40
0.1045023572983448
 40
0.1045023572983448
 40
0.1649131932740015
 40
0.1649131932740015
 40
0.1649131932740015
 40
0.1932777757284122
 40
0.1932777757284122
 40
0.1932777757284122
 40
0.2086645631073324
 40
0.2086645631073324
 40
0.2086645631073324
 40
0.2686488912834538
 40
0.2686488912834538
 40
0.2686488912834538
 40
0.3606518018103867
 40
0.3606518018103867
 40
0.3606518018103867
 40
0.4526546762423129
 40
0.4526546762423129
 40
0.4526546762423129
 40
0.4757062918680217
 40
0.4757062918680217
 40
0.4757062918680217
 40
0.4907651450668983
 40
0.4907651450668983
 40
0.4907651450668983
 40
0.505777586645882
 40
0.505777586645882
 40
0.505777586645882
 40
0.5219021832195254
 40
0.5219021832195254
 40
0.5219021832195254
 40
0.5372712024529169
 40
0.5372712024529169
 40
0.5372712024529169
 40
0.5957408713845781
 40
0.5957408713845781
 40
0.5957408713845781
 40
0.7070365363051356
 40
0.7070365363051356
 40
0.7070365363051356
 40
0.7785440458274137
 40
0.7785440458274137
 40
0.7785440458274137
 40
0.8121444619209992
 40
0.8121444619209992
 40
0.8121444619209992
 40
0.8265828130904622
 40
0.8265828130904622
 40
0.8265828130904622
 40
0.8829320963333687
 40
0.8829320963333687
 40
0.8829320963333687
 40
0.9045152237255348
 40
0.9045152237255348
 40
0.9045152237255348
 40
0.918947093343118
 40
0.918947093343118
 40
0.918947093343118
 40
0.9332916813680522
 40
0.9332916813680522
 40
0.9332916813680522
 40
0.9485668142208894
 40
0.9485668142208894
 40
0.9485668142208894
 40
0.9626114763523849
 40
0.9626114763523849
 40
0.9626114763523849
 40
0.97850119853764
 40
0.97850119853764
 40
0.97850119853764
 40
0.9926756682285643
 40
0.9926756682285643
 40
0.9926756682285643
 40
1.0
 40
1.0
 40
1.0
 40
1.0
 10
283.364606745637
 20
83.08544088140542
 30
0.0
 10
283.3953475262352
 20
83.05656317841928
 30
0.0
 10
283.4222996979366
 20
83.02269410403886
 30
0.0
 10
283.4421052085659
 20
82.98551933477313
 30
0.0
 10
283.4619880524565
 20
82.94819941165625
 30
0.0
 10
283.4750175149487
 20
82.90661518822856
 30
0.0
 10
283.4806847624664
 20
82.86476759563818
 30
0.0
 10
283.4860633367736
 20
82.82505159847535
 30
0.0
 10
283.4855261733633
 20
82.78418765228986
 30
0.0
 10
283.4795291132274
 20
82.74458648861835
 30
0.0
 10
283.472402615479
 20
82.69752716332451
 30
0.0
 10
283.4566867748759
 20
82.6510763632594
 30
0.0
 10
283.4338393170519
 20
82.60930298380279
 30
0.0
 10
283.4117630998271
 20
82.5689397098576
 30
0.0
 10
283.3831508669907
 20
82.53136322298623
 30
0.0
 10
283.3493289807229
 20
82.50008010675313
 30
0.0
 10
283.3205697757408
 20
82.47347965209194
 30
0.0
 10
283.2868535937198
 20
82.45134225859894
 30
0.0
 10
283.250831035588
 20
82.4357599985349
 30
0.0
 10
283.2148702219578
 20
82.42020444725922
 30
0.0
 10
283.1759026413974
 20
82.4107129567295
 30
0.0
 10
283.1369095371654
 20
82.40649778279499
 30
0.0
 10
282.9647469596026
 20
82.38788692265109
 30
0.0
 10
282.7905576603093
 20
82.40370600052577
 30
0.0
 10
282.6173779181952
 20
82.40370600052577
 30
0.0
 10
282.5365219646848
 20
82.40370600052577
 30
0.0
 10
282.4515422040761
 20
82.40015097703588
 30
0.0
 10
282.3761762741503
 20
82.42923628051032
 30
0.0
 10
282.3345013452414
 20
82.44531951541211
 30
0.0
 10
282.2955020984334
 20
82.46966524192469
 30
0.0
 10
282.2618360776291
 20
82.49889967310814
 30
0.0
 10
282.1290263177376
 20
82.61422716632799
 30
0.0
 10
282.0123513188702
 20
82.74686808711103
 30
0.0
 10
281.8879594019862
 20
82.87139962978779
 30
0.0
 10
281.6971769489628
 20
83.06239622977431
 30
0.0
 10
281.5063026600376
 20
83.25362552282793
 30
0.0
 10
281.3153636752058
 20
83.44494761225367
 30
0.0
 10
281.1244247353048
 20
83.63626965665833
 30
0.0
 10
280.9333933300337
 20
83.8277122732693
 30
0.0
 10
280.7422960110555
 20
84.01913542324414
 30
0.0
 10
280.6944244718184
 20
84.06708858597776
 30
0.0
 10
280.6421914842526
 20
84.11166716642857
 30
0.0
 10
280.6019039459264
 20
84.16615302705122
 30
0.0
 10
280.5757608812091
 20
84.20150955265728
 30
0.0
 10
280.5553333105703
 20
84.24190177960165
 30
0.0
 10
280.5426074942827
 20
84.28399400540724
 30
0.0
 10
280.5298989679206
 20
84.32602904262616
 30
0.0
 10
280.5244413108002
 20
84.37070063385008
 30
0.0
 10
280.5253682493507
 20
84.41460598253542
 30
0.0
 10
280.5263607490575
 20
84.46161669934179
 30
0.0
 10
280.535115980264
 20
84.50931966373547
 30
0.0
 10
280.5523675442083
 20
84.55306012067125
 30
0.0
 10
280.5688283373231
 20
84.59479561866405
 30
0.0
 10
280.593415635738
 20
84.63391433563643
 30
0.0
 10
280.6230498748256
 20
84.66759638945418
 30
0.0
 10
280.7371909662589
 20
84.79732829764005
 30
0.0
 10
280.8667441528278
 20
84.9126322245734
 30
0.0
 10
280.9888273687765
 20
85.03485123757626
 30
0.0
 10
281.2211920466478
 20
85.26747438208866
 30
0.0
 10
281.4533869670631
 20
85.50013731227024
 30
0.0
 10
281.68536361657
 20
85.73258756089238
 30
0.0
 10
281.8344181127067
 20
85.88194636385316
 30
0.0
 10
281.9833994462809
 20
86.03123435185952
 30
0.0
 10
282.1322943536595
 20
86.18038454534344
 30
0.0
 10
282.2019991555642
 20
86.25020885883994
 30
0.0
 10
282.2685690176987
 20
86.33073518378492
 30
0.0
 10
282.3588223761454
 20
86.37099369072618
 30
0.0
 10
282.3985495448535
 20
86.38871443292035
 30
0.0
 10
282.4421502356641
 20
86.39915659871808
 30
0.0
 10
282.4855733989144
 20
86.40245222747258
 30
0.0
 10
282.6570128417409
 20
86.41546373366285
 30
0.0
 10
282.8294508062409
 20
86.40370600052577
 30
0.0
 10
283.0013902825903
 20
86.40370600052577
 30
0.0
 10
283.0670523468965
 20
86.40370600052577
 30
0.0
 10
283.1345887701398
 20
86.40633488712834
 30
0.0
 10
283.1977929764067
 20
86.38866102005908
 30
0.0
 10
283.240220212208
 20
86.3767970418532
 30
0.0
 10
283.2810540518863
 20
86.35701331775164
 30
0.0
 10
283.3167791729057
 20
86.33136497550565
 30
0.0
 10
283.3523879583653
 20
86.30580015471938
 30
0.0
 10
283.3844132374214
 20
86.27431929106453
 30
0.0
 10
283.4101644416632
 20
86.2389343411762
 30
0.0
 10
283.4374818919186
 20
86.20139719925133
 30
0.0
 10
283.4580695349069
 20
86.15811295035411
 30
0.0
 10
283.4701294698024
 20
86.11332553405174
 30
0.0
 10
283.4812695205492
 20
86.07195432477498
 30
0.0
 10
283.4856579576416
 20
86.0283609560781
 30
0.0
 10
283.4840041939534
 20
85.98553075336993
 30
0.0
 10
283.4821444534336
 20
85.9373660343032
 30
0.0
 10
283.471717599245
 20
85.88852257824023
 30
0.0
 10
283.4521749301855
 20
85.84439063048893
 30
0.0
 10
283.4346566243806
 20
85.80483017157141
 30
0.0
 10
283.4096238511059
 20
85.76812892700946
 30
0.0
 10
283.3804428698313
 20
85.73610652696622
 30
0.0
 10
283.3651849238049
 20
85.71936287990056
 30
0.0
 10
283.350027745238
 20
85.70251879165062
 30
0.0
 10
283.3352848152766
 20
85.68531870669558
 30
0.0
  0
SPLINE
  5
13C
330
FE
100
AcDbEntity
  8
52_164-325_TA-MO
  6
Continuous
 62
     7
100
AcDbSpline
210
0.0
220
0.0
230
1.0
 70
     8
 71
     3
 72
    42
 73
    38
 74
     0
 42
0.0000000009976189
 43
0.0000000001
 12
1.0
 22
0.0
 32
0.0
 13
1.0
 23
0.0
 33
0.0
 40
0.0
 40
0.0
 40
0.0
 40
0.0
 40
0.0312500000000003
 40
0.0312500000000003
 40
0.0625000000000006
 40
0.0625000000000006
 40
0.1250000000000012
 40
0.1250000000000012
 40
0.2500000000000035
 40
0.2500000000000035
 40
0.3750000000000058
 40
0.3750000000000058
 40
0.4062500000000056
 40
0.4062500000000056
 40
0.4375000000000053
 40
0.4375000000000053
 40
0.4687500000000051
 40
0.4687500000000051
 40
0.5000000000000049
 40
0.5000000000000049
 40
0.5312500000000047
 40
0.5312500000000047
 40
0.5625000000000043
 40
0.5625000000000043
 40
0.5937500000000041
 40
0.5937500000000041
 40
0.6250000000000038
 40
0.7500000000000018
 40
0.8749999999999999
 40
0.8749999999999999
 40
0.9062499999999999
 40
0.9062499999999999
 40
0.9375
 40
0.9375
 40
0.96875
 40
0.96875
 40
1.0
 40
1.0
 40
1.0
 40
1.0
 10
283.3352848152766
 20
85.68531870669558
 30
0.0
 10
283.2685824685161
 20
85.6074993021416
 30
0.0
 10
283.2189113845549
 20
85.51316582453192
 30
0.0
 10
283.217111674688
 20
85.30697829920221
 30
0.0
 10
283.2583828750443
 20
85.20642210684522
 30
0.0
 10
283.4629835782928
 20
84.97711894317544
 30
0.0
 10
283.6990913616856
 20
84.99896645333654
 30
0.0
 10
284.3122610153802
 20
84.9903307182602
 30
0.0
 10
284.7210611451493
 20
84.9903904331861
 30
0.0
 10
285.538649470295
 20
84.99432215177657
 30
0.0
 10
285.9474411163018
 20
84.99819504952956
 30
0.0
 10
286.458440891581
 20
85.0005405179416
 30
0.0
 10
286.5606418446679
 20
85.00088482113829
 30
0.0
 10
286.7650428132345
 20
85.00120175017878
 30
0.0
 10
286.8714962480029
 20
85.00706211182396
 30
0.0
 10
287.0557226759173
 20
84.91734374601097
 30
0.0
 10
287.1292782608476
 20
84.83571697610253
 30
0.0
 10
287.1976107622888
 20
84.64300318806113
 30
0.0
 10
287.1862316692778
 20
84.53729900403502
 30
0.0
 10
287.1862316692778
 20
84.33206919524068
 30
0.0
 10
287.1982290369494
 20
84.22922313468716
 30
0.0
 10
287.1603625679802
 20
84.02473646904903
 30
0.0
 10
287.0969880404559
 20
83.93162638614754
 30
0.0
 10
286.9255074965782
 20
83.8146275205477
 30
0.0
 10
286.8169735473561
 20
83.80627166943012
 30
0.0
 10
286.6071784080467
 20
83.80627166943012
 30
0.0
 10
286.0826905597731
 20
83.80627166943414
 30
0.0
 10
285.1386124328812
 20
83.80627166943715
 30
0.0
 10
284.2994318756438
 20
83.80627166943113
 30
0.0
 10
283.7749440273703
 20
83.80627166943113
 30
0.0
 10
283.6689525409067
 20
83.81614515252666
 30
0.0
 10
283.4615631030197
 20
83.79011942808661
 30
0.0
 10
283.3666715258068
 20
83.7307996288808
 30
0.0
 10
283.2372272458022
 20
83.56849035488867
 30
0.0
 10
283.2092530445049
 20
83.46029266089546
 30
0.0
 10
283.2313353803397
 20
83.2527026602163
 30
0.0
 10
283.2989878564741
 20
83.16746449285905
 30
0.0
 10
283.364606745637
 20
83.08544088140542
 30
0.0
  0
LINE
  5
13D
330
FE
100
AcDbEntity
  8
52_164-325_TA-MO
  6
Continuous
 62
     7
100
AcDbLine
 10
233.4352664891
 20
63.4487060005
 30
0.0
 11
233.4352664891
 21
105.3587060005
 31
0.0
  0
LINE
  5
13E
330
FE
100
AcDbEntity
  8
52_164-325_TA-MO
  6
Continuous
 62
     7
100
AcDbLine
 10
223.8902664891
 20
65.3487060005
 30
0.0
 11
223.8902664891
 21
103.4587060005
 31
0.0
  0
LINE
  5
13F
330
FE
100
AcDbEntity
  8
52_164-325_TA-MO
  6
Continuous
 62
     7
100
AcDbLine
 10
225.7902664891
 20
63.4487060005
 30
0.0
 11
225.7902664891
 21
105.3587060005
 31
0.0
  0
LINE
  5
140
330
FE
100
AcDbEntity
  8
52_164-325_TA-MO
  6
Continuous
 62
     7
100
AcDbLine
 10
307.3452664891
 20
63.4487060005
 30
0.0
 11
307.3452664891
 21
105.3587060005
 31
0.0
  0
LINE
  5
141
330
FE
100
AcDbEntity
  8
52_164-325_TA-MO
  6
Continuous
 62
     7
100
AcDbLine
 10
316.8902664891
 20
103.4587060005
 30
0.0
 11
316.8902664891
 21
65.3487060005
 31
0.0
  0
LINE
  5
142
330
FE
100
AcDbEntity
  8
52_164-325_TA-MO
  6
Continuous
 62
     7
100
AcDbLine
 10
314.9902664891
 20
105.3587060005
 30
0.0
 11
314.9902664891
 21
63.4487060005
 31
0.0
  0
LINE
  5
143
330
FE
100
AcDbEntity
  8
52_164-325_TA-MO
  6
Continuous
 62
     7
100
AcDbLine
 10
299.9783123996
 20
147.5012910406
 30
0.0
 11
239.8379846693
 21
125.6120018677
 31
0.0
  0
LINE
  5
144
330
FE
100
AcDbEntity
  8
52_164-325_TA-MO
  6
Continuous
 62
     7
100
AcDbLine
 10
266.4302747321
 20
56.1468338248
 30
0.0
 11
268.2813780031
 21
61.2326982631
 31
0.0
  0
LINE
  5
145
330
FE
100
AcDbEntity
  8
52_164-325_TA-MO
  6
Continuous
 62
     7
100
AcDbLine
 10
266.3764875418
 20
55.1022329886
 30
0.0
 11
266.4351896492
 21
55.0808671688
 31
0.0
  0
LINE
  5
146
330
FE
100
AcDbEntity
  8
52_164-325_TA-MO
  6
Continuous
 62
     7
100
AcDbLine
 10
266.7185076851
 20
56.0419256094
 30
0.0
 11
266.4302747321
 21
56.1468338248
 31
0.0
  0
LINE
  5
147
330
FE
100
AcDbEntity
  8
52_164-325_TA-MO
  6
Continuous
 62
     7
100
AcDbLine
 10
240.2492510797
 20
65.6759471369
 30
0.0
 11
239.9610181268
 21
65.7808553523
 31
0.0
  0
LINE
  5
148
330
FE
100
AcDbEntity
  8
52_164-325_TA-MO
  6
Continuous
 62
     7
100
AcDbLine
 10
240.2492510797
 20
65.6759471369
 30
0.0
 11
266.4302747321
 21
56.1468338248
 31
0.0
  0
LINE
  5
149
330
FE
100
AcDbEntity
  8
52_164-325_TA-MO
  6
Continuous
 62
     7
100
AcDbLine
 10
266.3764875418
 20
55.1022329886
 30
0.0
 11
266.7185076851
 21
56.0419256094
 31
0.0
  0
LINE
  5
14A
330
FE
100
AcDbEntity
  8
52_164-325_TA-MO
  6
Continuous
 62
     7
100
AcDbLine
 10
239.9610181268
 20
65.7808553523
 30
0.0
 11
239.6189979835
 21
64.8411627315
 31
0.0
  0
LINE
  5
14B
330
FE
100
AcDbEntity
  8
52_164-325_TA-MO
  6
Continuous
 62
     7
100
AcDbLine
 10
269.5410379578
 20
57.4659909856
 30
0.0
 11
286.9217448551
 21
62.1231373626
 31
0.0
  0
LINE
  5
14C
330
FE
100
AcDbEntity
  8
52_164-325_TA-MO
  6
Continuous
 62
     7
100
AcDbLine
 10
269.8190420075
 20
55.9875676756
 30
0.0
 11
269.6956646071
 21
55.9545088007
 31
0.0
  0
LINE
  5
14D
330
FE
100
AcDbEntity
  8
52_164-325_TA-MO
  6
Continuous
 62
     7
100
AcDbLine
 10
269.4308134399
 20
57.436456415
 30
0.0
 11
269.8190420075
 21
55.9875676756
 31
0.0
  0
LINE
  5
14E
330
FE
100
AcDbEntity
  8
52_164-325_TA-MO
  6
Continuous
 62
     7
100
AcDbLine
 10
287.4201783399
 20
60.7037779417
 30
0.0
 11
284.3828164167
 21
59.8899192672
 31
0.0
  0
LINE
  5
14F
330
FE
100
AcDbEntity
  8
52_164-325_TA-MO
  6
Continuous
 62
     7
100
AcDbLine
 10
272.8564235316
 20
56.801431602
 30
0.0
 11
269.8190420075
 21
55.9875676756
 31
0.0
  0
LINE
  5
150
330
FE
100
AcDbEntity
  8
52_164-325_TA-MO
  6
Continuous
 62
     7
100
AcDbLine
 10
287.0319497723
 20
62.1526666811
 30
0.0
 11
286.9217448551
 21
62.1231373626
 31
0.0
  0
LINE
  5
151
330
FE
100
AcDbEntity
  8
52_164-325_TA-MO
  6
Continuous
 62
     7
100
AcDbLine
 10
287.4201783399
 20
60.7037779417
 30
0.0
 11
287.0319497723
 21
62.1526666811
 31
0.0
  0
LINE
  5
152
330
FE
100
AcDbEntity
  8
52_164-325_TA-MO
  6
Continuous
 62
     7
100
AcDbLine
 10
269.5410379578
 20
57.4659909856
 30
0.0
 11
269.4308134399
 21
57.436456415
 31
0.0
  0
LINE
  5
153
330
FE
100
AcDbEntity
  8
52_164-325_TA-MO
  6
Continuous
 62
     7
100
AcDbLine
 10
290.863667878
 20
40.6621155293
 30
0.0
 11
276.8577433968
 21
36.9092393753
 31
0.0
  0
LINE
  5
154
330
FE
100
AcDbEntity
  8
52_164-325_TA-MO
  6
Continuous
 62
     7
100
AcDbLine
 10
293.193039284
 20
31.9687830927
 30
0.0
 11
279.1871148028
 21
28.2159069387
 31
0.0
  0
LINE
  5
155
330
FE
100
AcDbEntity
  8
52_164-325_TA-MO
  6
Continuous
 62
     7
100
AcDbLine
 10
257.6533761186
 20
28.9058793765
 30
0.0
 11
229.462597495
 21
39.1664836763
 31
0.0
  0
LINE
  5
156
330
FE
100
AcDbEntity
  8
52_164-325_TA-MO
  6
Continuous
 62
     7
100
AcDbLine
 10
265.7475062267
 20
54.799074579
 30
0.0
 11
239.9059591551
 21
64.2046285204
 31
0.0
  0
LINE
  5
157
330
FE
100
AcDbEntity
  8
52_164-325_TA-MO
  6
Continuous
 62
     7
100
AcDbLine
 10
261.483163567
 20
54.0471559131
 30
0.0
 11
242.6893111513
 21
60.8875587796
 31
0.0
  0
LINE
  5
158
330
FE
100
AcDbEntity
  8
52_164-325_TA-MO
  6
Continuous
 62
     7
100
AcDbLine
 10
259.3634768352
 20
33.6043424804
 30
0.0
 11
231.1726982117
 21
43.8649467802
 31
0.0
  0
LINE
  5
159
330
FE
100
AcDbEntity
  8
52_164-325_TA-MO
  6
Continuous
 62
     7
100
AcDbLine
 10
233.4478252486
 20
36.9586871398
 30
0.0
 11
253.1813702851
 21
29.77626413
 31
0.0
  0
LINE
  5
15A
330
FE
100
AcDbEntity
  8
52_164-325_TA-MO
  6
Continuous
 62
     7
100
AcDbLine
 10
238.3141938883
 20
25.9291271854
 30
0.0
 11
238.0951908501
 21
26.0088377726
 31
0.0
  0
LINE
  5
15B
330
FE
100
AcDbEntity
  8
52_164-325_TA-MO
  6
Continuous
 62
     7
100
AcDbLine
 10
233.5589325794
 20
27.659900758
 30
0.0
 11
232.8256061769
 21
27.9268097405
 31
0.0
  0
LINE
  5
15C
330
FE
100
AcDbEntity
  8
52_164-325_TA-MO
  6
Continuous
 62
     7
100
AcDbLine
 10
231.9583037802
 20
28.2424819971
 30
0.0
 11
231.9572788977
 21
28.2428550238
 31
0.0
  0
LINE
  5
15D
330
FE
100
AcDbEntity
  8
52_164-325_TA-MO
  6
Continuous
 62
     7
100
AcDbLine
 10
246.9003413794
 20
29.2507354677
 30
0.0
 11
249.4512324389
 21
28.3222870512
 31
0.0
  0
LINE
  5
15E
330
FE
100
AcDbEntity
  8
52_164-325_TA-MO
  6
Continuous
 62
     7
100
AcDbLine
 10
249.4512324389
 20
28.3222870512
 30
0.0
 11
250.7199216243
 21
29.3410324949
 31
0.0
  0
LINE
  5
15F
330
FE
100
AcDbEntity
  8
52_164-325_TA-MO
  6
Continuous
 62
     7
100
AcDbLine
 10
250.7199216243
 20
29.3410324949
 30
0.0
 11
251.6228972482
 21
29.0123762455
 31
0.0
  0
LINE
  5
160
330
FE
100
AcDbEntity
  8
52_164-325_TA-MO
  6
Continuous
 62
     7
100
AcDbLine
 10
234.1517354043
 20
35.3713591148
 30
0.0
 11
235.0557064447
 21
35.0423405634
 31
0.0
  0
LINE
  5
161
330
FE
100
AcDbEntity
  8
52_164-325_TA-MO
  6
Continuous
 62
     7
100
AcDbLine
 10
235.3725329181
 20
33.446514614
 30
0.0
 11
237.9251164595
 21
32.5174501844
 31
0.0
  0
LINE
  5
162
330
FE
100
AcDbEntity
  8
52_164-325_TA-MO
  6
Continuous
 62
     7
100
AcDbLine
 10
238.3666999502
 20
33.8372374816
 30
0.0
 11
240.5480836795
 21
33.0432787346
 31
0.0
  0
LINE
  5
163
330
FE
100
AcDbEntity
  8
52_164-325_TA-MO
  6
Continuous
 62
     7
100
AcDbLine
 10
240.30897741
 20
31.6497957558
 30
0.0
 11
244.5165163001
 21
30.1183768403
 31
0.0
  0
LINE
  5
164
330
FE
100
AcDbEntity
  8
52_164-325_TA-MO
  6
Continuous
 62
     7
100
AcDbLine
 10
244.5165163001
 20
30.1183768403
 30
0.0
 11
245.2294673864
 21
31.3393944101
 31
0.0
  0
LINE
  5
165
330
FE
100
AcDbEntity
  8
52_164-325_TA-MO
  6
Continuous
 62
     7
100
AcDbLine
 10
245.2294673864
 20
31.3393944101
 30
0.0
 11
247.4104388007
 21
30.5455857335
 31
0.0
  0
LINE
  5
166
330
FE
100
AcDbEntity
  8
52_164-325_TA-MO
  6
Continuous
 62
     7
100
AcDbLine
 10
244.6757523602
 20
23.6137092581
 30
0.0
 11
247.1208991365
 21
22.7237486131
 31
0.0
  0
LINE
  5
167
330
FE
100
AcDbEntity
  8
52_164-325_TA-MO
  6
Continuous
 62
     7
100
AcDbLine
 10
247.1208991365
 20
22.7237486131
 30
0.0
 11
249.4512324389
 21
28.3222870512
 31
0.0
  0
LINE
  5
168
330
FE
100
AcDbEntity
  8
52_164-325_TA-MO
  6
Continuous
 62
     7
100
AcDbLine
 10
238.3141938883
 20
25.9291271854
 30
0.0
 11
242.3673027447
 21
24.4539162054
 31
0.0
  0
LINE
  5
169
330
FE
100
AcDbEntity
  8
52_164-325_TA-MO
  6
Continuous
 62
     7
100
AcDbLine
 10
242.3673027447
 20
24.4539162054
 30
0.0
 11
244.5165163001
 21
30.1183768403
 31
0.0
  0
LINE
  5
16A
330
FE
100
AcDbEntity
  8
52_164-325_TA-MO
  6
Continuous
 62
     7
100
AcDbLine
 10
233.5589325794
 20
27.659900758
 30
0.0
 11
235.998863356
 21
26.7718385817
 31
0.0
  0
LINE
  5
16B
330
FE
100
AcDbEntity
  8
52_164-325_TA-MO
  6
Continuous
 62
     7
100
AcDbLine
 10
231.9572788977
 20
28.2428550238
 30
0.0
 11
234.0022757128
 21
34.889449837
 31
0.0
  0
LINE
  5
16C
330
FE
100
AcDbEntity
  8
52_164-325_TA-MO
  6
Continuous
 62
     7
100
AcDbLine
 10
231.9583037802
 20
28.2424819971
 30
0.0
 11
232.8256061769
 21
27.9268097405
 31
0.0
  0
LINE
  5
16D
330
FE
100
AcDbEntity
  8
52_164-325_TA-MO
  6
Continuous
 62
     7
100
AcDbLine
 10
232.8256061769
 20
27.9268097405
 30
0.0
 11
235.0557064447
 21
35.0423405634
 31
0.0
  0
LINE
  5
16E
330
FE
100
AcDbEntity
  8
52_164-325_TA-MO
  6
Continuous
 62
     7
100
AcDbLine
 10
231.9583037802
 20
28.2424819971
 30
0.0
 11
234.1517354043
 21
35.3713591148
 31
0.0
  0
LINE
  5
16F
330
FE
100
AcDbEntity
  8
52_164-325_TA-MO
  6
Continuous
 62
     7
100
AcDbLine
 10
233.5589325794
 20
27.659900758
 30
0.0
 11
235.3725329181
 21
33.446514614
 31
0.0
  0
LINE
  5
170
330
FE
100
AcDbEntity
  8
52_164-325_TA-MO
  6
Continuous
 62
     7
100
AcDbLine
 10
235.3725329181
 20
33.446514614
 30
0.0
 11
235.0557064447
 21
35.0423405634
 31
0.0
  0
LINE
  5
171
330
FE
100
AcDbEntity
  8
52_164-325_TA-MO
  6
Continuous
 62
     7
100
AcDbLine
 10
236.0022926796
 20
26.77059041
 30
0.0
 11
238.0951908501
 21
26.0088377726
 31
0.0
  0
LINE
  5
172
330
FE
100
AcDbEntity
  8
52_164-325_TA-MO
  6
Continuous
 62
     7
100
AcDbLine
 10
238.0951908501
 20
26.0088377726
 30
0.0
 11
240.5480836795
 21
33.0432787346
 31
0.0
  0
LINE
  5
173
330
FE
100
AcDbEntity
  8
52_164-325_TA-MO
  6
Continuous
 62
     7
100
AcDbLine
 10
236.0022926796
 20
26.77059041
 30
0.0
 11
238.3666999502
 21
33.8372374816
 31
0.0
  0
LINE
  5
174
330
FE
100
AcDbEntity
  8
52_164-325_TA-MO
  6
Continuous
 62
     7
100
AcDbLine
 10
238.3141938883
 20
25.9291271854
 30
0.0
 11
240.30897741
 21
31.6497957558
 31
0.0
  0
LINE
  5
175
330
FE
100
AcDbEntity
  8
52_164-325_TA-MO
  6
Continuous
 62
     7
100
AcDbLine
 10
240.30897741
 20
31.6497957558
 30
0.0
 11
240.5480836795
 21
33.0432787346
 31
0.0
  0
LINE
  5
176
330
FE
100
AcDbEntity
  8
52_164-325_TA-MO
  6
Continuous
 62
     7
100
AcDbLine
 10
242.5866791031
 20
24.3740697409
 30
0.0
 11
244.6791816837
 21
23.6124610864
 31
0.0
  0
LINE
  5
177
330
FE
100
AcDbEntity
  8
52_164-325_TA-MO
  6
Continuous
 62
     7
100
AcDbLine
 10
244.6791816837
 20
23.6124610864
 30
0.0
 11
247.4104388007
 21
30.5455857335
 31
0.0
  0
LINE
  5
178
330
FE
100
AcDbEntity
  8
52_164-325_TA-MO
  6
Continuous
 62
     7
100
AcDbLine
 10
242.3673027447
 20
24.4539162054
 30
0.0
 11
242.5866791031
 21
24.3740697409
 31
0.0
  0
LINE
  5
179
330
FE
100
AcDbEntity
  8
52_164-325_TA-MO
  6
Continuous
 62
     7
100
AcDbLine
 10
242.5866791031
 20
24.3740697409
 30
0.0
 11
245.2294673864
 21
31.3393944101
 31
0.0
  0
LINE
  5
17A
330
FE
100
AcDbEntity
  8
52_164-325_TA-MO
  6
Continuous
 62
     7
100
AcDbLine
 10
247.8544187837
 20
22.4567692953
 30
0.0
 11
248.7207661421
 21
22.1414446443
 31
0.0
  0
LINE
  5
17B
330
FE
100
AcDbEntity
  8
52_164-325_TA-MO
  6
Continuous
 62
     7
100
AcDbLine
 10
248.7207661421
 20
22.1414446443
 30
0.0
 11
251.6228972482
 21
29.0123762455
 31
0.0
  0
LINE
  5
17C
330
FE
100
AcDbEntity
  8
52_164-325_TA-MO
  6
Continuous
 62
     7
100
AcDbLine
 10
247.1208991365
 20
22.7237486131
 30
0.0
 11
247.8544187837
 21
22.4567692953
 31
0.0
  0
LINE
  5
17D
330
FE
100
AcDbEntity
  8
52_164-325_TA-MO
  6
Continuous
 62
     7
100
AcDbLine
 10
247.8544187837
 20
22.4567692953
 30
0.0
 11
250.7199216243
 21
29.3410324949
 31
0.0
  0
LINE
  5
17E
330
FE
100
AcDbEntity
  8
52_164-325_TA-MO
  6
Continuous
 62
     7
100
AcDbLine
 10
236.206279272
 20
19.6851398805
 30
0.0
 11
239.9650497552
 21
18.3170593072
 31
0.0
  0
LINE
  5
17F
330
FE
100
AcDbEntity
  8
52_164-325_TA-MO
  6
Continuous
 62
     7
100
AcDbLine
 10
289.2359928416
 20
149.3391471946
 30
0.0
 11
246.8857277088
 21
133.924911273
 31
0.0
  0
LINE
  5
180
330
FE
100
AcDbEntity
  8
52_164-325_TA-MO
  6
Continuous
 62
     7
100
AcDbLine
 10
294.4963406818
 20
57.2459847051
 30
0.0
 11
285.7212777221
 21
54.8947136715
 31
0.0
  0
LINE
  5
181
330
FE
100
AcDbEntity
  8
52_164-325_TA-MO
  6
Continuous
 62
     7
100
AcDbLine
 10
296.7610962789
 20
57.8528241384
 30
0.0
 11
294.4963406818
 21
57.2459847051
 31
0.0
  0
LINE
  5
182
330
FE
100
AcDbEntity
  8
52_164-325_TA-MO
  6
Continuous
 62
     7
100
AcDbLine
 10
293.1578793764
 20
62.2411903008
 30
0.0
 11
294.4963406818
 21
57.2459847051
 31
0.0
  0
LINE
  5
183
330
FE
100
AcDbEntity
  8
52_164-325_TA-MO
  6
Continuous
 62
     7
100
AcDbLine
 10
295.4226349735
 20
62.8480297341
 30
0.0
 11
296.7610962789
 21
57.8528241384
 31
0.0
  0
LINE
  5
184
330
FE
100
AcDbEntity
  8
52_164-325_TA-MO
  6
Continuous
 62
     7
100
AcDbLine
 10
293.1930392839
 20
31.9687830927
 30
0.0
 11
299.948724513
 21
33.7789634941
 31
0.0
  0
LINE
  5
185
330
FE
100
AcDbEntity
  8
52_164-325_TA-MO
  6
Continuous
 62
     7
100
AcDbLine
 10
290.863667878
 20
40.6621155293
 30
0.0
 11
297.6193531071
 21
42.4722959307
 31
0.0
  0
LINE
  5
186
330
FE
100
AcDbEntity
  8
52_164-325_TA-MO
  6
Continuous
 62
     7
100
AcDbLine
 10
307.3452664891
 20
105.3587060005
 30
0.0
 11
305.3969835052
 21
103.4104230166
 31
0.0
  0
LINE
  5
187
330
FE
100
AcDbEntity
  8
52_164-325_TA-MO
  6
Continuous
 62
     7
100
AcDbLine
 10
305.2997400922
 20
65.4942323974
 30
0.0
 11
307.3452664891
 21
63.4487060005
 31
0.0
  0
LINE
  5
188
330
FE
100
AcDbEntity
  8
52_164-325_TA-MO
  6
Continuous
 62
     7
100
AcDbLine
 10
301.4666086398
 20
103.4037060005
 30
0.0
 11
301.4666086398
 21
112.7122845256
 31
0.0
  0
LINE
  5
189
330
FE
100
AcDbEntity
  8
52_164-325_TA-MO
  6
Continuous
 62
     7
100
AcDbLine
 10
301.4666086398
 20
112.7122845256
 30
0.0
 11
305.9491522208
 21
122.3251302564
 31
0.0
  0
LINE
  5
18A
330
FE
100
AcDbEntity
  8
52_164-325_TA-MO
  6
Continuous
 62
     7
100
AcDbLine
 10
247.2052724635
 20
114.1419582112
 30
0.0
 11
247.4491143238
 21
113.472008206
 31
0.0
  0
LINE
  5
18B
330
FE
100
AcDbEntity
  8
52_164-325_TA-MO
  6
Continuous
 62
     7
100
AcDbLine
 10
305.9491522208
 20
122.3251302564
 30
0.0
 11
301.707444469
 21
133.9791265241
 31
0.0
  0
LINE
  5
18C
330
FE
100
AcDbEntity
  8
52_164-325_TA-MO
  6
Continuous
 62
     7
100
AcDbLine
 10
244.9071391341
 20
116.0703210403
 30
0.0
 11
247.2052724635
 21
114.1419582112
 31
0.0
  0
LINE
  5
18D
330
FE
100
AcDbEntity
  8
52_164-325_TA-MO
  6
Continuous
 62
     7
100
AcDbLine
 10
301.707444469
 20
133.9791265241
 30
0.0
 11
302.2283890021
 21
136.9335497832
 31
0.0
  0
LINE
  5
18E
330
FE
100
AcDbEntity
  8
52_164-325_TA-MO
  6
Continuous
 62
     7
100
AcDbLine
 10
244.0856328157
 20
118.3273911002
 30
0.0
 11
244.9071391341
 21
116.0703210403
 31
0.0
  0
LINE
  5
18F
330
FE
100
AcDbEntity
  8
52_164-325_TA-MO
  6
Continuous
 62
     7
100
AcDbLine
 10
302.2283890021
 20
136.9335497832
 30
0.0
 11
301.4068826836
 21
139.190619843
 31
0.0
  0
LINE
  5
190
330
FE
100
AcDbEntity
  8
52_164-325_TA-MO
  6
Continuous
 62
     7
100
AcDbLine
 10
241.7874994863
 20
120.2557539292
 30
0.0
 11
244.0856328157
 21
118.3273911002
 31
0.0
  0
LINE
  5
191
330
FE
100
AcDbEntity
  8
52_164-325_TA-MO
  6
Continuous
 62
     7
100
AcDbLine
 10
301.4068826836
 20
139.190619843
 30
0.0
 11
301.9278272166
 21
142.1450431021
 31
0.0
  0
LINE
  5
192
330
FE
100
AcDbEntity
  8
52_164-325_TA-MO
  6
Continuous
 62
     7
100
AcDbLine
 10
239.8379846693
 20
125.6120018677
 30
0.0
 11
241.7874994863
 21
120.2557539292
 31
0.0
  0
LINE
  5
193
330
FE
100
AcDbEntity
  8
52_164-325_TA-MO
  6
Continuous
 62
     7
100
AcDbLine
 10
301.9278272166
 20
142.1450431021
 30
0.0
 11
299.9783123996
 21
147.5012910406
 31
0.0
  0
LINE
  5
194
330
FE
100
AcDbEntity
  8
52_164-325_TA-MO
  6
Continuous
 62
     7
100
AcDbLine
 10
247.4464985144
 20
113.4727217475
 30
0.0
 11
245.2301965359
 21
100.9034486297
 31
0.0
  0
LINE
  5
195
330
FE
100
AcDbEntity
  8
52_164-325_TA-MO
  6
Continuous
 62
     7
100
AcDbLine
 10
245.2328080653
 20
100.9037060005
 30
0.0
 11
237.8902664891
 21
100.9037060005
 31
0.0
  0
LINE
  5
196
330
FE
100
AcDbEntity
  8
52_164-325_TA-MO
  6
Continuous
 62
     7
100
AcDbLine
 10
233.4352664891
 20
63.4487060005
 30
0.0
 11
236.1060247963
 21
66.1194643077
 31
0.0
  0
LINE
  5
197
330
FE
100
AcDbEntity
  8
52_164-325_TA-MO
  6
Continuous
 62
     7
100
AcDbLine
 10
237.8902664891
 20
100.9037060005
 30
0.0
 11
233.4352664891
 21
105.3587060005
 31
0.0
  0
LINE
  5
198
330
FE
100
AcDbEntity
  8
52_164-325_TA-MO
  6
Continuous
 62
     7
100
AcDbLine
 10
225.7902664891
 20
105.3587060005
 30
0.0
 11
223.8902664891
 21
103.4587060005
 31
0.0
  0
LINE
  5
199
330
FE
100
AcDbEntity
  8
52_164-325_TA-MO
  6
Continuous
 62
     7
100
AcDbLine
 10
223.8902664891
 20
65.3487060005
 30
0.0
 11
225.7902664891
 21
63.4487060005
 31
0.0
  0
LINE
  5
19A
330
FE
100
AcDbEntity
  8
52_164-325_TA-MO
  6
Continuous
 62
     7
100
AcDbLine
 10
225.7902664891
 20
63.4487060005
 30
0.0
 11
233.4352664891
 21
63.4487060005
 31
0.0
  0
LINE
  5
19B
330
FE
100
AcDbEntity
  8
52_164-325_TA-MO
  6
Continuous
 62
     7
100
AcDbLine
 10
233.4352664891
 20
105.3587060005
 30
0.0
 11
225.7902664891
 21
105.3587060005
 31
0.0
  0
LINE
  5
19C
330
FE
100
AcDbEntity
  8
52_164-325_TA-MO
  6
Continuous
 62
     7
100
AcDbLine
 10
314.9902664891
 20
63.4487060005
 30
0.0
 11
316.8902664891
 21
65.3487060005
 31
0.0
  0
LINE
  5
19D
330
FE
100
AcDbEntity
  8
52_164-325_TA-MO
  6
Continuous
 62
     7
100
AcDbLine
 10
316.8902664891
 20
103.4587060005
 30
0.0
 11
314.9902664891
 21
105.3587060005
 31
0.0
  0
LINE
  5
19E
330
FE
100
AcDbEntity
  8
52_164-325_TA-MO
  6
Continuous
 62
     7
100
AcDbLine
 10
314.9902664891
 20
105.3587060005
 30
0.0
 11
307.3452664891
 21
105.3587060005
 31
0.0
  0
LINE
  5
19F
330
FE
100
AcDbEntity
  8
52_164-325_TA-MO
  6
Continuous
 62
     7
100
AcDbLine
 10
307.3452664891
 20
63.4487060005
 30
0.0
 11
314.9902664891
 21
63.4487060005
 31
0.0
  0
LINE
  5
1A0
330
FE
100
AcDbEntity
  8
52_164-325_TA-MO
  6
Continuous
 62
     7
100
AcDbLine
 10
289.62390208
 20
40.3299212849
 30
0.0
 11
283.994587849
 21
61.3388080067
 31
0.0
  0
LINE
  5
1A1
330
FE
100
AcDbEntity
  8
52_164-325_TA-MO
  6
Continuous
 62
     7
100
AcDbLine
 10
272.4681949639
 20
58.2503203415
 30
0.0
 11
278.0975091949
 21
37.2414336197
 31
0.0
  0
LINE
  5
1A2
330
FE
100
AcDbEntity
  8
52_164-325_TA-MO
  6
Continuous
 62
     7
100
AcDbLine
 10
276.8577433968
 20
36.9092393753
 30
0.0
 11
279.1871148028
 21
28.2159069387
 31
0.0
  0
LINE
  5
1A3
330
FE
100
AcDbEntity
  8
52_164-325_TA-MO
  6
Continuous
 62
     7
100
AcDbLine
 10
293.193039284
 20
31.9687830927
 30
0.0
 11
290.863667878
 21
40.6621155293
 31
0.0
  0
LINE
  5
1A4
330
FE
100
AcDbEntity
  8
52_164-325_TA-MO
  6
Continuous
 62
     7
100
AcDbLine
 10
265.7475062267
 20
54.799074579
 30
0.0
 11
266.2605364417
 21
56.2086135102
 31
0.0
  0
LINE
  5
1A5
330
FE
100
AcDbEntity
  8
52_164-325_TA-MO
  6
Continuous
 62
     7
100
AcDbLine
 10
240.4189893701
 20
65.6141674516
 30
0.0
 11
239.9059591551
 21
64.2046285204
 31
0.0
  0
LINE
  5
1A6
330
FE
100
AcDbEntity
  8
52_164-325_TA-MO
  6
Continuous
 62
     7
100
AcDbLine
 10
239.9059591551
 20
64.2046285204
 30
0.0
 11
242.6893111513
 21
60.8875587796
 31
0.0
  0
LINE
  5
1A7
330
FE
100
AcDbEntity
  8
52_164-325_TA-MO
  6
Continuous
 62
     7
100
AcDbLine
 10
261.483163567
 20
54.0471559131
 30
0.0
 11
265.7475062267
 21
54.799074579
 31
0.0
  0
LINE
  5
1A8
330
FE
100
AcDbEntity
  8
52_164-325_TA-MO
  6
Continuous
 62
     7
100
AcDbLine
 10
254.6650137313
 20
35.3144431971
 30
0.0
 11
261.483163567
 21
54.0471559131
 31
0.0
  0
LINE
  5
1A9
330
FE
100
AcDbEntity
  8
52_164-325_TA-MO
  6
Continuous
 62
     7
100
AcDbLine
 10
242.6893111513
 20
60.8875587796
 30
0.0
 11
235.8711613156
 21
42.1548460636
 31
0.0
  0
LINE
  5
1AA
330
FE
100
AcDbEntity
  8
52_164-325_TA-MO
  6
Continuous
 62
     7
100
AcDbLine
 10
257.6533761186
 20
28.9058793765
 30
0.0
 11
259.3634768352
 21
33.6043424804
 31
0.0
  0
LINE
  5
1AB
330
FE
100
AcDbEntity
  8
52_164-325_TA-MO
  6
Continuous
 62
     7
100
AcDbLine
 10
231.1726982117
 20
43.8649467802
 30
0.0
 11
229.462597495
 21
39.1664836763
 31
0.0
  0
LINE
  5
1AC
330
FE
100
AcDbEntity
  8
52_164-325_TA-MO
  6
Continuous
 62
     7
100
AcDbLine
 10
233.6912142886
 20
37.6273930313
 30
0.0
 11
233.4478252486
 21
36.9586871398
 31
0.0
  0
LINE
  5
1AD
330
FE
100
AcDbEntity
  8
52_164-325_TA-MO
  6
Continuous
 62
     7
100
AcDbLine
 10
253.1813702851
 20
29.77626413
 30
0.0
 11
253.4247593251
 21
30.4449700215
 31
0.0
  0
LINE
  5
1AE
330
FE
100
AcDbEntity
  8
52_164-325_TA-MO
  6
Continuous
 62
     7
100
AcDbLine
 10
233.4478252486
 20
36.9586871398
 30
0.0
 11
234.0028271195
 21
34.8873919591
 31
0.0
  0
LINE
  5
1AF
330
FE
100
AcDbEntity
  8
52_164-325_TA-MO
  6
Continuous
 62
     7
100
AcDbLine
 10
251.4265564882
 20
28.5475302812
 30
0.0
 11
253.1813702851
 21
29.77626413
 31
0.0
  0
LINE
  5
1B0
330
FE
100
AcDbEntity
  8
52_164-325_TA-MO
  6
Continuous
 62
     7
100
AcDbLine
 10
238.4596372783
 20
25.8761901207
 30
0.0
 11
236.206279272
 21
19.6851398805
 31
0.0
  0
LINE
  5
1B1
330
FE
100
AcDbEntity
  8
52_164-325_TA-MO
  6
Continuous
 62
     7
100
AcDbLine
 10
239.9650497552
 20
18.3170593072
 30
0.0
 11
242.2184077615
 21
24.5081095474
 31
0.0
  0
LINE
  5
1B2
330
FE
100
AcDbEntity
  8
52_164-325_TA-MO
  6
Continuous
 62
     7
100
AcDbLine
 10
291.3492706414
 20
144.3605766903
 30
0.0
 11
289.2359928416
 21
149.3391471946
 31
0.0
  0
LINE
  5
1B3
330
FE
100
AcDbEntity
  8
52_164-325_TA-MO
  6
Continuous
 62
     7
100
AcDbLine
 10
246.8857277088
 20
133.924911273
 30
0.0
 11
248.4670264276
 21
128.752716218
 31
0.0
  0
LINE
  5
1B4
330
FE
100
AcDbEntity
  8
52_164-325_TA-MO
  6
Continuous
 62
     7
100
AcDbLine
 10
299.948724513
 20
33.7789634941
 30
0.0
 11
297.6193531071
 21
42.4722959307
 31
0.0
  0
LINE
  5
1B5
330
FE
100
AcDbEntity
  8
52_164-325_TA-MO
  6
Continuous
 62
     7
100
AcDbLine
 10
296.3795873091
 20
42.1401016863
 30
0.0
 11
292.4769629511
 21
56.704894073
 31
0.0
  0
ENDBLK
  5
1B7
330
FE
100
AcDbEntity
  8
0
100
AcDbBlockEnd
  0
BLOCK
  5
299
330
1B8
100
AcDbEntity
  8
0
100
AcDbBlockBegin
  2
SE2
 70
     0
 10
0.0
 20
0.0
 30
0.0
  3
SE2
  1

  0
LINE
  5
1BA
330
1B8
100
AcDbEntity
  8
52_164-325_TA-MO
  6
Continuous
 62
     7
100
AcDbLine
 10
141.3909837589
 20
211.3147697116
 30
0.0
 11
141.3909837589
 21
214.0808166627
 31
0.0
  0
LINE
  5
1BB
330
1B8
100
AcDbEntity
  8
52_164-325_TA-MO
  6
Continuous
 62
     7
100
AcDbLine
 10
141.3909837589
 20
241.5487227606
 30
0.0
 11
141.3909837589
 21
244.3147697116
 31
0.0
  0
LINE
  5
1BC
330
1B8
100
AcDbEntity
  8
52_164-325_TA-MO
  6
Continuous
 62
     7
100
AcDbLine
 10
76.3909837589
 20
224.8147697116
 30
0.0
 11
76.3909837589
 21
211.3147697116
 31
0.0
  0
SPLINE
  5
1BD
330
1B8
100
AcDbEntity
  8
52_164-325_TA-MO
  6
Continuous
 62
     7
100
AcDbSpline
210
0.0
220
0.0
230
1.0
 70
     8
 71
     3
 72
    14
 73
    10
 74
     0
 42
0.0000000008073606
 43
0.0000000001
 12
1.0
 22
0.0
 32
0.0
 13
1.0
 23
0.0
 33
0.0
 40
0.5803250439577214
 40
0.5803250439577214
 40
0.5803250439577214
 40
0.5803250439577214
 40
0.6250000000000002
 40
0.6250000000000002
 40
0.7500000000000001
 40
0.7500000000000001
 40
0.8750000000000001
 40
0.8750000000000001
 40
1.0
 40
1.0
 40
1.0
 40
1.0
 10
118.4371604171629
 20
211.5649713825432
 30
0.0
 10
118.2018846165554
 20
211.5648702214724
 30
0.0
 10
117.9679444295351
 20
211.5692004811471
 30
0.0
 10
117.1015633392362
 20
211.6061048749241
 30
0.0
 10
116.5312916789347
 20
211.6750887250379
 30
0.0
 10
115.5267528323856
 20
211.8740506808276
 30
0.0
 10
115.0747113514551
 20
212.0046362236929
 30
0.0
 10
114.2223471887093
 20
212.3171400246187
 30
0.0
 10
113.8200106658122
 20
212.5001843819572
 30
0.0
 10
113.43026377458
 20
212.7103854728733
 30
0.0
  0
ARC
  5
1BE
330
1B8
100
AcDbEntity
  8
52_164-325_TA-MO
  6
Continuous
 62
     7
100
AcDbCircle
 10
130.6576136775
 20
212.1934751814
 30
0.0
 40
4.213737523594275
100
AcDbArc
 50
160.5835792036
 51
171.7522463804
  0
SPLINE
  5
1BF
330
1B8
100
AcDbEntity
  8
52_164-325_TA-MO
  6
Continuous
 62
     7
100
AcDbSpline
210
0.0
220
0.0
230
1.0
 70
     8
 71
     3
 72
    18
 73
    14
 74
     0
 42
0.0000000005337629
 43
0.0000000001
 12
1.0
 22
0.0
 32
0.0
 13
1.0
 23
0.0
 33
0.0
 40
0.0093076816932672
 40
0.0093076816932672
 40
0.0093076816932672
 40
0.0093076816932672
 40
0.2499999999999997
 40
0.2499999999999997
 40
0.3749999999999997
 40
0.3749999999999997
 40
0.4999999999999997
 40
0.4999999999999997
 40
0.5624999999999997
 40
0.5624999999999997
 40
0.6249999999999998
 40
0.6249999999999998
 40
0.6292899628916226
 40
0.6292899628916226
 40
0.6292899628916226
 40
0.6292899628916226
 10
108.9299033524327
 20
238.4861293418812
 30
0.0
 10
109.7743692173266
 20
239.8530521677679
 30
0.0
 10
110.7522800772339
 20
240.9750914288832
 30
0.0
 10
112.3964563595178
 20
242.3061111394526
 30
0.0
 10
112.9808817672757
 20
242.6905822528534
 30
0.0
 10
114.2230099596418
 20
243.328469921181
 30
0.0
 10
114.8787363694252
 20
243.5838492762272
 30
0.0
 10
116.004558143971
 20
243.8582272571629
 30
0.0
 10
116.4088809774628
 20
243.9320798044311
 30
0.0
 10
117.3077990070027
 20
244.0343149591392
 30
0.0
 10
117.8163154480851
 20
244.0616184902912
 30
0.0
 10
118.3669971581186
 20
244.0646875198399
 30
0.0
 10
118.4023752185676
 20
244.0647801572845
 30
0.0
 10
118.4377517321152
 20
244.0647716207043
 30
0.0
  0
SPLINE
  5
1C0
330
1B8
100
AcDbEntity
  8
52_164-325_TA-MO
  6
Continuous
 62
     7
100
AcDbSpline
210
0.0
220
0.0
230
1.0
 70
     8
 71
     3
 72
     8
 73
     4
 74
     0
 42
0.0000000051857021
 43
0.0000000001
 12
1.0
 22
0.0
 32
0.0
 13
1.0
 23
0.0
 33
0.0
 40
0.0
 40
0.0
 40
0.0
 40
0.0
 40
0.429939188792234
 40
0.429939188792234
 40
0.429939188792234
 40
0.429939188792234
 10
126.4874587907954
 20
242.8315874938975
 30
0.0
 10
126.4959529963418
 20
242.5898292638791
 30
0.0
 10
126.5604669003855
 20
242.3232006639805
 30
0.0
 10
126.6775457735362
 20
242.0330777398838
 30
0.0
  0
ELLIPSE
  5
1C1
330
1B8
100
AcDbEntity
  8
52_164-325_TA-MO
  6
Continuous
 62
     7
100
AcDbEllipse
 10
121.8372456221
 20
227.8147697116
 30
0.0
 11
-1.526556658859590E-13
 21
-14.25000000000002
 31
0.0
210
0.0
220
0.0
230
1.0
 40
0.9396926208
 41
3.141592653589793
 42
4.500275669905471
  0
ELLIPSE
  5
1C2
330
1B8
100
AcDbEntity
  8
52_164-325_TA-MO
  6
Continuous
 62
     7
100
AcDbEllipse
 10
120.6524530912
 20
227.8147697116
 30
0.0
 11
-9.412175899781161E-12
 21
16.24999999999991
 31
0.0
210
0.0
220
0.0
230
1.0
 40
0.9396926208
 41
2.650975524963846
 42
3.533684179487384
  0
ELLIPSE
  5
1C3
330
1B8
100
AcDbEntity
  8
52_164-325_TA-MO
  6
Continuous
 62
     7
100
AcDbEllipse
 10
120.6524530912
 20
227.8147697116
 30
0.0
 11
-4.163336342344337E-14
 21
-16.24999999999996
 31
0.0
210
0.0
220
0.0
230
1.0
 40
0.9396926208
 41
2.749501127691662
 42
4.029808742941523
  0
ELLIPSE
  5
1C4
330
1B8
100
AcDbEntity
  8
52_164-325_TA-MO
  6
Continuous
 62
     7
100
AcDbEllipse
 10
98.018032955
 20
227.8147697116
 30
0.0
 11
2.324529457808922E-13
 21
21.50000000000005
 31
0.0
210
0.0
220
0.0
230
1.0
 40
0.9396926208
 41
2.445637773562769
 42
3.357678358721315
  0
ELLIPSE
  5
1C5
330
1B8
100
AcDbEntity
  8
52_164-325_TA-MO
  6
Continuous
 62
     7
100
AcDbEllipse
 10
98.018032955
 20
227.8147697116
 30
0.0
 11
2.324529457808922E-13
 21
21.50000000000005
 31
0.0
210
0.0
220
0.0
230
1.0
 40
0.9396926208
 41
-0.666409091148201
 42
-0.4056369585445561
  0
ELLIPSE
  5
1C6
330
1B8
100
AcDbEntity
  8
52_164-325_TA-MO
  6
Continuous
 62
     7
100
AcDbEllipse
 10
100.58318403
 20
227.8147697116
 30
0.0
 11
3.955169525227120E-13
 21
29.00000000000004
 31
0.0
210
0.0
220
0.0
230
1.0
 40
0.9396926208
 41
2.176043691982527
 42
4.107141615197085
  0
ELLIPSE
  5
1C7
330
1B8
100
AcDbEntity
  8
52_164-325_TA-MO
  6
Continuous
 62
     7
100
AcDbEllipse
 10
100.58318403
 20
227.8147697116
 30
0.0
 11
3.955169525227120E-13
 21
29.00000000000004
 31
0.0
210
0.0
220
0.0
230
1.0
 40
0.9396926208
 41
-0.9655489616072646
 42
0.9655489616072921
  0
ELLIPSE
  5
1C8
330
1B8
100
AcDbEntity
  8
52_164-325_TA-MO
  6
Continuous
 62
     7
100
AcDbEllipse
 10
104.8248917817
 20
227.8147697116
 30
0.0
 11
5.204170427930421E-15
 21
-29.00000000000003
 31
0.0
210
0.0
220
0.0
230
1.0
 40
0.9396926208
 41
2.176043691982515
 42
3.141592653589793
  0
ELLIPSE
  5
1C9
330
1B8
100
AcDbEntity
  8
52_164-325_TA-MO
  6
Continuous
 62
     7
100
AcDbEllipse
 10
104.8248917817
 20
227.8147697116
 30
0.0
 11
5.204170427930421E-15
 21
-29.00000000000003
 31
0.0
210
0.0
220
0.0
230
1.0
 40
0.9396926208
 41
0.0
 42
0.9655489616072793
  0
ELLIPSE
  5
1CA
330
1B8
100
AcDbEntity
  8
52_164-325_TA-MO
  6
Continuous
 62
     7
100
AcDbEllipse
 10
105.7134861799
 20
227.8147697116
 30
0.0
 11
2.931682674400804E-13
 21
30.49999999999998
 31
0.0
210
0.0
220
0.0
230
1.0
 40
0.9396926208
 41
5.283995172241074
 42
6.283185307179586
  0
ELLIPSE
  5
1CB
330
1B8
100
AcDbEntity
  8
52_164-325_TA-MO
  6
Continuous
 62
     7
100
AcDbEllipse
 10
105.7134861799
 20
227.8147697116
 30
0.0
 11
2.931682674400804E-13
 21
30.49999999999998
 31
0.0
210
0.0
220
0.0
230
1.0
 40
0.9396926208
 41
2.776011046358111
 42
4.140782788528325
  0
ELLIPSE
  5
1CC
330
1B8
100
AcDbEntity
  8
52_164-325_TA-MO
  6
Continuous
 62
     7
100
AcDbEllipse
 10
105.7134861799
 20
227.8147697116
 30
0.0
 11
2.931682674400804E-13
 21
30.49999999999998
 31
0.0
210
0.0
220
0.0
230
1.0
 40
0.9396926208
 41
0.0000000000000003
 42
0.3655816072316997
  0
ELLIPSE
  5
1CD
330
1B8
100
AcDbEntity
  8
52_164-325_TA-MO
  6
Continuous
 62
     7
100
AcDbEllipse
 10
106.5349924983
 20
227.8147697116
 30
0.0
 11
1.942890293094024E-13
 21
-30.50000000000004
 31
0.0
210
0.0
220
0.0
230
1.0
 40
0.9396926208
 41
2.142402518651265
 42
3.141592653589792
  0
ELLIPSE
  5
1CE
330
1B8
100
AcDbEntity
  8
52_164-325_TA-MO
  6
Continuous
 62
     7
100
AcDbEllipse
 10
106.5349924983
 20
227.8147697116
 30
0.0
 11
1.942890293094024E-13
 21
-30.50000000000004
 31
0.0
210
0.0
220
0.0
230
1.0
 40
0.9396926208
 41
0.0
 42
0.9991901349385176
  0
ELLIPSE
  5
1CF
330
1B8
100
AcDbEntity
  8
52_164-325_TA-MO
  6
Continuous
 62
     7
100
AcDbEllipse
 10
107.4235868965
 20
227.8147697116
 30
0.0
 11
1.526556658859590E-13
 21
31.99999999999999
 31
0.0
210
0.0
220
0.0
230
1.0
 40
0.9396926208
 41
5.254125915882897
 42
6.283185307179585
  0
ELLIPSE
  5
1D0
330
1B8
100
AcDbEntity
  8
52_164-325_TA-MO
  6
Continuous
 62
     7
100
AcDbEllipse
 10
107.4235868965
 20
227.8147697116
 30
0.0
 11
1.526556658859590E-13
 21
31.99999999999999
 31
0.0
210
0.0
220
0.0
230
1.0
 40
0.9396926208
 41
2.610420761617433
 42
4.170652044886491
  0
ELLIPSE
  5
1D1
330
1B8
100
AcDbEntity
  8
52_164-325_TA-MO
  6
Continuous
 62
     7
100
AcDbEllipse
 10
107.4235868965
 20
227.8147697116
 30
0.0
 11
1.526556658859590E-13
 21
31.99999999999999
 31
0.0
210
0.0
220
0.0
230
1.0
 40
0.9396926208
 41
0.0
 42
0.5311718919723695
  0
ELLIPSE
  5
1D2
330
1B8
100
AcDbEntity
  8
52_164-325_TA-MO
  6
Continuous
 62
     7
100
AcDbEllipse
 10
97.7882307213
 20
239.8147697116
 30
0.0
 11
-1.804112415015879E-13
 21
-11.49999999999999
 31
0.0
210
0.0
220
0.0
230
1.0
 40
0.9659258263
 41
1.596976265574827
 42
3.141592653589808
  0
ARC
  5
1D3
330
1B8
100
AcDbEntity
  8
52_164-325_TA-MO
  6
Continuous
 62
     7
100
AcDbCircle
 10
118.6464179579
 20
217.23749555
 30
0.0
 40
6.877465210068901
100
AcDbArc
 50
218.6655634935
 51
221.239667789
  0
ELLIPSE
  5
1D4
330
1B8
100
AcDbEntity
  8
52_164-325_TA-MO
  6
Continuous
 62
     7
100
AcDbEllipse
 10
121.8372456221
 20
227.8147697116
 30
0.0
 11
3.989863994746656E-14
 21
14.24999999999998
 31
0.0
210
0.0
220
0.0
230
1.0
 40
0.9396926208
 41
2.406224092082191
 42
3.141592653589793
  0
ELLIPSE
  5
1D5
330
1B8
100
AcDbEntity
  8
52_164-325_TA-MO
  6
Continuous
 62
     7
100
AcDbEllipse
 10
105.0615540406
 20
215.8147697116
 30
0.0
 11
9.020562075079397E-14
 21
9.000000000000002
 31
0.0
210
0.0
220
0.0
230
1.0
 40
0.9659258263
 41
3.141592653589794
 42
4.477943805478981
  0
ARC
  5
1D6
330
1B8
100
AcDbEntity
  8
52_164-325_TA-MO
  6
Continuous
 62
     7
100
AcDbCircle
 10
101.4666854339
 20
212.7411538666
 30
0.0
 40
12.09039876359669
100
AcDbArc
 50
4.6629896505
 51
13.5759222863
  0
ELLIPSE
  5
1D7
330
1B8
100
AcDbEntity
  8
52_164-325_TA-MO
  6
Continuous
 62
     7
100
AcDbEllipse
 10
106.3556492661
 20
215.8147697116
 30
0.0
 11
8.777700788442644E-13
 21
7.999999999999896
 31
0.0
210
0.0
220
0.0
230
1.0
 40
0.9659258263
 41
3.930135168123453
 42
4.312982948103453
  0
LINE
  5
1D8
330
1B8
100
AcDbEntity
  8
52_164-325_TA-MO
  6
Continuous
 62
     7
100
AcDbLine
 10
108.9352545997
 20
238.4282922473
 30
0.0
 11
108.8925712391
 21
240.1158046172
 31
0.0
  0
LINE
  5
1D9
330
1B8
100
AcDbEntity
  8
52_164-325_TA-MO
  6
Continuous
 62
     7
100
AcDbLine
 10
91.7376749068
 20
224.8147697116
 30
0.0
 11
91.7851560249
 21
222.9375751105
 31
0.0
  0
LINE
  5
1DA
330
1B8
100
AcDbEntity
  8
52_164-325_TA-MO
  6
Continuous
 62
     7
100
AcDbLine
 10
105.2455427578
 20
230.8147697116
 30
0.0
 11
105.0712254703
 21
237.7065086609
 31
0.0
  0
LINE
  5
1DB
330
1B8
100
AcDbEntity
  8
52_164-325_TA-MO
  6
Continuous
 62
     7
100
AcDbLine
 10
113.2192751891
 20
215.5791771769
 30
0.0
 11
109.7402122902
 21
215.5791771769
 31
0.0
  0
ELLIPSE
  5
1DC
330
1B8
100
AcDbEntity
  8
52_164-325_TA-MO
  6
Continuous
 62
     7
100
AcDbEllipse
 10
142.7589135886
 20
226.0115021236
 30
0.0
 11
1.588797943809245
 21
-38.68798891093746
 31
0.0
210
0.0
220
0.0
230
1.0
 40
0.796161986
 41
-1.375083095231288
 42
-1.330597718450651
  0
ELLIPSE
  5
1DD
330
1B8
100
AcDbEntity
  8
52_164-325_TA-MO
  6
Continuous
 62
     7
100
AcDbEllipse
 10
117.3327354973
 20
227.8147697116
 30
0.0
 11
-0.2793631369756209
 21
-14.24944275544798
 31
0.0
210
0.0
220
0.0
230
1.0
 40
0.4510991419
 41
4.933345947991191
 42
5.556660402799264
  0
ELLIPSE
  5
1DE
330
1B8
100
AcDbEntity
  8
52_164-325_TA-MO
  6
Continuous
 62
     7
100
AcDbEllipse
 10
145.3416797587
 20
229.9912272332
 30
0.0
 11
-1.917602931447035
 21
-46.69454805044509
 31
0.0
210
0.0
220
0.0
230
1.0
 40
0.7961619865
 41
4.571382691113763
 42
4.727444990831889
  0
ELLIPSE
  5
1DF
330
1B8
100
AcDbEntity
  8
52_164-325_TA-MO
  6
Continuous
 62
     7
100
AcDbEllipse
 10
114.6535017014
 20
227.8147695655
 30
0.0
 11
-0.3185720651016226
 21
16.24936470612037
 31
0.0
210
0.0
220
0.0
230
1.0
 40
0.4510991424
 41
0.850229152128445
 42
0.8793724268951463
  0
LINE
  5
1E0
330
1B8
100
AcDbEntity
  8
52_164-325_TA-MO
  6
Continuous
 62
     7
100
AcDbLine
 10
108.8925712391
 20
240.1158046172
 30
0.0
 11
105.3985141302
 21
240.1158046172
 31
0.0
  0
LINE
  5
1E1
330
1B8
100
AcDbEntity
  8
52_164-325_TA-MO
  6
Continuous
 62
     7
100
AcDbLine
 10
91.7376749068
 20
224.8147697116
 30
0.0
 11
73.7947822706
 21
224.8147697116
 31
0.0
  0
LINE
  5
1E2
330
1B8
100
AcDbEntity
  8
52_164-325_TA-MO
  6
Continuous
 62
     7
100
AcDbLine
 10
82.5663473317
 20
230.8147697116
 30
0.0
 11
73.7947822706
 21
230.8147697116
 31
0.0
  0
ARC
  5
1E3
330
1B8
100
AcDbEntity
  8
52_164-325_TA-MO
  6
Continuous
 62
     7
100
AcDbCircle
 10
49.7235680002
 20
227.8147697116
 30
0.0
 40
24.25743919816491
100
AcDbArc
 50
352.8958471932
 51
7.1041528068
  0
LINE
  5
1E4
330
1B8
100
AcDbEntity
  8
52_164-325_TA-MO
  6
Continuous
 62
     7
100
AcDbLine
 10
112.8460605988
 20
224.8147697116
 30
0.0
 11
112.8460605988
 21
225.128267093
 31
0.0
  0
LINE
  5
1E5
330
1B8
100
AcDbEntity
  8
52_164-325_TA-MO
  6
Continuous
 62
     7
100
AcDbLine
 10
112.8460605988
 20
230.8147697116
 30
0.0
 11
105.2455427578
 21
230.8147697116
 31
0.0
  0
LINE
  5
1E6
330
1B8
100
AcDbEntity
  8
52_164-325_TA-MO
  6
Continuous
 62
     7
100
AcDbLine
 10
112.8460605988
 20
224.8147697116
 30
0.0
 11
109.5855856409
 21
224.8147697116
 31
0.0
  0
LINE
  5
1E7
330
1B8
100
AcDbEntity
  8
52_164-325_TA-MO
  6
Continuous
 62
     7
100
AcDbLine
 10
76.3909837589
 20
244.3147697116
 30
0.0
 11
76.3909837589
 21
230.8147697116
 31
0.0
  0
ARC
  5
1E8
330
1B8
100
AcDbEntity
  8
52_164-325_TA-MO
  6
Continuous
 62
     7
100
AcDbCircle
 10
112.9376507074
 20
254.6981392941
 30
0.0
 40
10.52969173691846
100
AcDbArc
 50
263.4024764217
 51
279.5628859241
  0
ARC
  5
1E9
330
1B8
100
AcDbEntity
  8
52_164-325_TA-MO
  6
Continuous
 62
     7
100
AcDbCircle
 10
109.8831235567
 20
227.822871888
 30
0.0
 40
16.59595757837991
100
AcDbArc
 50
83.6082301302
 51
96.4295381896
  0
ARC
  5
1EA
330
1B8
100
AcDbEntity
  8
52_164-325_TA-MO
  6
Continuous
 62
     7
100
AcDbCircle
 10
112.9539784353
 20
254.7074532199
 30
0.0
 40
10.14183957239172
100
AcDbArc
 50
263.0561867147
 51
279.8385970054
  0
ARC
  5
1EB
330
1B8
100
AcDbEntity
  8
52_164-325_TA-MO
  6
Continuous
 62
     7
100
AcDbCircle
 10
109.8829089613
 20
227.7957248008
 30
0.0
 40
17.02044670250597
100
AcDbArc
 50
82.8742697658
 51
96.2761066161
  0
LINE
  5
1EC
330
1B8
100
AcDbEntity
  8
52_164-325_TA-MO
  6
Continuous
 62
     7
100
AcDbLine
 10
145.8459837589
 20
206.8597697116
 30
0.0
 11
145.8459837589
 21
217.3765725836
 31
0.0
  0
LINE
  5
1ED
330
1B8
100
AcDbEntity
  8
52_164-325_TA-MO
  6
Continuous
 62
     7
100
AcDbLine
 10
145.8459837589
 20
238.2529668397
 30
0.0
 11
145.8459837589
 21
248.7697697116
 31
0.0
  0
LINE
  5
1EE
330
1B8
100
AcDbEntity
  8
52_164-325_TA-MO
  6
Continuous
 62
     7
100
AcDbLine
 10
155.3909837589
 20
208.7597697116
 30
0.0
 11
155.3909837589
 21
246.8697697116
 31
0.0
  0
LINE
  5
1EF
330
1B8
100
AcDbEntity
  8
52_164-325_TA-MO
  6
Continuous
 62
     7
100
AcDbLine
 10
153.4909837589
 20
206.8597697116
 30
0.0
 11
153.4909837589
 21
248.7697697116
 31
0.0
  0
LINE
  5
1F0
330
1B8
100
AcDbEntity
  8
52_164-325_TA-MO
  6
Continuous
 62
     7
100
AcDbLine
 10
71.9359837589
 20
206.8597697116
 30
0.0
 11
71.9359837589
 21
248.7697697116
 31
0.0
  0
LINE
  5
1F1
330
1B8
100
AcDbEntity
  8
52_164-325_TA-MO
  6
Continuous
 62
     7
100
AcDbLine
 10
62.3909837589
 20
246.8697697116
 30
0.0
 11
62.3909837589
 21
208.7597697116
 31
0.0
  0
LINE
  5
1F2
330
1B8
100
AcDbEntity
  8
52_164-325_TA-MO
  6
Continuous
 62
     7
100
AcDbLine
 10
64.2909837589
 20
248.7697697116
 30
0.0
 11
64.2909837589
 21
206.8597697116
 31
0.0
  0
ELLIPSE
  5
1F3
330
1B8
100
AcDbEntity
  8
52_164-325_TA-MO
  6
Continuous
 62
     7
100
AcDbEllipse
 10
109.3731017134
 20
227.8147697116
 30
0.0
 11
-2.740863092043355E-13
 21
31.99999999999996
 31
0.0
210
0.0
220
0.0
230
1.0
 40
0.9396926208
 41
3.141592653589793
 42
4.17065204488648
  0
ELLIPSE
  5
1F4
330
1B8
100
AcDbEntity
  8
52_164-325_TA-MO
  6
Continuous
 62
     7
100
AcDbEllipse
 10
109.3731017134
 20
227.8147697116
 30
0.0
 11
-2.740863092043355E-13
 21
31.99999999999996
 31
0.0
210
0.0
220
0.0
230
1.0
 40
0.9396926208
 41
5.254125915882884
 42
6.283185307179586
  0
LINE
  5
1F5
330
1B8
100
AcDbEntity
  8
52_164-325_TA-MO
  6
Continuous
 62
     7
100
AcDbLine
 10
112.9047627062
 20
224.8147697116
 30
0.0
 11
112.8460605988
 21
224.8147697116
 31
0.0
  0
LINE
  5
1F6
330
1B8
100
AcDbEntity
  8
52_164-325_TA-MO
  6
Continuous
 62
     7
100
AcDbLine
 10
112.9047627062
 20
230.8147697116
 30
0.0
 11
112.8460605988
 21
230.8147697116
 31
0.0
  0
LINE
  5
1F7
330
1B8
100
AcDbEntity
  8
52_164-325_TA-MO
  6
Continuous
 62
     7
100
AcDbLine
 10
112.8460605988
 20
230.5012723303
 30
0.0
 11
112.8460605988
 21
230.8147697116
 31
0.0
  0
ELLIPSE
  5
1F8
330
1B8
100
AcDbEntity
  8
52_164-325_TA-MO
  6
Continuous
 62
     7
100
AcDbEllipse
 10
125.941487342
 20
227.8147697116
 30
0.0
 11
-6.591949208711867E-14
 21
-14.24999999999999
 31
0.0
210
0.0
220
0.0
230
1.0
 40
0.9396926208
 41
2.928195450215277
 42
4.500275669905465
  0
ELLIPSE
  5
1F9
330
1B8
100
AcDbEntity
  8
52_164-325_TA-MO
  6
Continuous
 62
     7
100
AcDbEllipse
 10
125.941487342
 20
227.8147697116
 30
0.0
 11
5.898059818321144E-14
 21
14.25
 31
0.0
210
0.0
220
0.0
230
1.0
 40
0.9396926208
 41
1.782909637274131
 42
3.35498985696432
  0
ELLIPSE
  5
1FA
330
1B8
100
AcDbEntity
  8
52_164-325_TA-MO
  6
Continuous
 62
     7
100
AcDbEllipse
 10
126.2835077796
 20
227.8147696492
 30
0.0
 11
-4.941277838288460E-7
 21
14.55000016577813
 31
0.0
210
0.0
220
0.0
230
1.0
 40
0.9396926303
 41
1.3631211391714
 42
1.385091397031634
  0
ELLIPSE
  5
1FB
330
1B8
100
AcDbEntity
  8
52_164-325_TA-MO
  6
Continuous
 62
     7
100
AcDbEllipse
 10
126.2835077569
 20
227.8147697691
 30
0.0
 11
-4.510918184125190E-7
 21
-14.55000015289305
 31
0.0
210
0.0
220
0.0
230
1.0
 40
0.9396926296
 41
4.898093907181861
 42
4.920064165060597
  0
ELLIPSE
  5
1FC
330
1B8
100
AcDbEntity
  8
52_164-325_TA-MO
  6
Continuous
 62
     7
100
AcDbEllipse
 10
129.7081040035
 20
227.8147697116
 30
0.0
 11
17.15703558391527
 21
-3.504857012881958E-13
 31
0.0
210
0.0
220
0.0
230
1.0
 40
0.8480485996
 41
2.955887757967909
 42
3.327297549211712
  0
LINE
  5
1FD
330
1B8
100
AcDbEntity
  8
52_164-325_TA-MO
  6
Continuous
 62
     7
100
AcDbLine
 10
105.459454038
 20
237.7065086609
 30
0.0
 11
105.3985141302
 21
240.1158046172
 31
0.0
  0
LINE
  5
1FE
330
1B8
100
AcDbEntity
  8
52_164-325_TA-MO
  6
Continuous
 62
     7
100
AcDbLine
 10
105.0712254703
 20
237.7065086609
 30
0.0
 11
105.459454038
 21
237.7065086609
 31
0.0
  0
LINE
  5
1FF
330
1B8
100
AcDbEntity
  8
52_164-325_TA-MO
  6
Continuous
 62
     7
100
AcDbLine
 10
82.6382513227
 20
233.6575373007
 30
0.0
 11
82.5663473317
 21
230.8147697116
 31
0.0
  0
ELLIPSE
  5
200
330
1B8
100
AcDbEntity
  8
52_164-325_TA-MO
  6
Continuous
 62
     7
100
AcDbEllipse
 10
93.9057857444
 20
239.8147697116
 30
0.0
 11
2.879640970121500E-13
 21
11.74999999999998
 31
0.0
210
0.0
220
0.0
230
1.0
 40
0.9659258263
 41
2.26085230695025
 42
4.531985548866077
  0
ELLIPSE
  5
201
330
1B8
100
AcDbEntity
  8
52_164-325_TA-MO
  6
Continuous
 62
     7
100
AcDbEllipse
 10
94.2941736124
 20
239.8147697116
 30
0.0
 11
1.734723475976807E-13
 21
-11.49999999999998
 31
0.0
210
0.0
220
0.0
230
1.0
 40
0.9659258263
 41
1.596976265574797
 42
4.034239932745377
  0
ELLIPSE
  5
202
330
1B8
100
AcDbEntity
  8
52_164-325_TA-MO
  6
Continuous
 62
     7
100
AcDbEllipse
 10
94.2940143121
 20
239.8147697116
 30
0.0
 11
3.191891195797325E-13
 21
11.74999999999997
 31
0.0
210
0.0
220
0.0
230
1.0
 40
0.9659258263
 41
2.280191360500108
 42
3.124488679710141
  0
ELLIPSE
  5
203
330
1B8
100
AcDbEntity
  8
52_164-325_TA-MO
  6
Continuous
 62
     7
100
AcDbEllipse
 10
101.0498588415
 20
215.8147697116
 30
0.0
 11
-9.020562075079397E-14
 21
9.000000000000004
 31
0.0
210
0.0
220
0.0
230
1.0
 40
0.9659258263
 41
2.504503661999081
 42
4.686209041604762
  0
LINE
  5
204
330
1B8
100
AcDbEntity
  8
52_164-325_TA-MO
  6
Continuous
 62
     7
100
AcDbLine
 10
109.4622082404
 20
219.9369698778
 30
0.0
 11
109.5855856409
 21
224.8147697116
 31
0.0
  0
LINE
  5
205
330
1B8
100
AcDbEntity
  8
52_164-325_TA-MO
  6
Continuous
 62
     7
100
AcDbLine
 10
109.8504368081
 20
219.9369698778
 30
0.0
 11
109.4622082404
 21
219.9369698778
 31
0.0
  0
ELLIPSE
  5
206
330
1B8
100
AcDbEntity
  8
52_164-325_TA-MO
  6
Continuous
 62
     7
100
AcDbEllipse
 10
100.6618093896
 20
215.8147697116
 30
0.0
 11
1.804112415015879E-13
 21
-10.00000000000004
 31
0.0
210
0.0
220
0.0
230
1.0
 40
0.9659258263
 41
1.995685724908214
 42
3.901354586097095
  0
ELLIPSE
  5
207
330
1B8
100
AcDbEntity
  8
52_164-325_TA-MO
  6
Continuous
 62
     7
100
AcDbEllipse
 10
101.0500379573
 20
215.8147697116
 30
0.0
 11
-9.714451465470118E-14
 21
-9.999999999999991
 31
0.0
210
0.0
220
0.0
230
1.0
 40
0.9659258263
 41
3.16169019593179
 42
3.901354586097121
  0
LINE
  5
208
330
1B8
100
AcDbEntity
  8
52_164-325_TA-MO
  6
Continuous
 62
     7
100
AcDbLine
 10
109.7402122902
 20
215.5791771769
 30
0.0
 11
109.8504368081
 21
219.9369698778
 31
0.0
  0
ELLIPSE
  5
209
330
1B8
100
AcDbEntity
  8
52_164-325_TA-MO
  6
Continuous
 62
     7
100
AcDbEllipse
 10
101.0498588415
 20
215.8147697116
 30
0.0
 11
-4.163336342344337E-14
 21
-5.9665
 31
0.0
210
0.0
220
0.0
230
1.0
 40
0.9659258263
 41
0.0
 42
3.141592653589793
  0
LINE
  5
20A
330
1B8
100
AcDbEntity
  8
52_164-325_TA-MO
  6
Continuous
 62
     7
100
AcDbLine
 10
102.076429185
 20
247.1738169963
 30
0.0
 11
104.3411847821
 21
236.5167710647
 31
0.0
  0
LINE
  5
20B
330
1B8
100
AcDbEntity
  8
52_164-325_TA-MO
  6
Continuous
 62
     7
100
AcDbLine
 10
92.029258715
 20
250.4718156432
 30
0.0
 11
102.076429185
 21
247.1738169963
 31
0.0
  0
LINE
  5
20C
330
1B8
100
AcDbEntity
  8
52_164-325_TA-MO
  6
Continuous
 62
     7
100
AcDbLine
 10
104.3411847821
 20
236.5167710647
 30
0.0
 11
96.5587699092
 21
229.1577237801
 31
0.0
  0
ELLIPSE
  5
20D
330
1B8
100
AcDbEntity
  8
52_164-325_TA-MO
  6
Continuous
 62
     7
100
AcDbEllipse
 10
95.4205446105
 20
215.8147697116
 30
0.0
 11
4.510281037539698E-14
 21
7.250000000000001
 31
0.0
210
0.0
220
0.0
230
1.0
 40
0.9659258263
 41
3.141592653589793
 42
6.283185307179586
  0
ELLIPSE
  5
20E
330
1B8
100
AcDbEntity
  8
52_164-325_TA-MO
  6
Continuous
 62
     7
100
AcDbEllipse
 10
93.0911732046
 20
215.8147697116
 30
0.0
 11
2.393918396847994E-13
 21
7.249999999999989
 31
0.0
210
0.0
220
0.0
230
1.0
 40
0.9659258263
 41
0.0
 42
6.283185307179586
  0
ELLIPSE
  5
20F
330
1B8
100
AcDbEntity
  8
52_164-325_TA-MO
  6
Continuous
 62
     7
100
AcDbEllipse
 10
135.7232634411
 20
227.8147697116
 30
0.0
 11
-5.551115123125783E-14
 21
14.99999999999999
 31
0.0
210
0.0
220
0.0
230
1.0
 40
0.9396926208
 41
0.0
 42
6.283185307179586
  0
ELLIPSE
  5
210
330
1B8
100
AcDbEntity
  8
52_164-325_TA-MO
  6
Continuous
 62
     7
100
AcDbEllipse
 10
125.941487342
 20
227.8147697116
 30
0.0
 11
-6.071532165918825E-14
 21
13.74999999999999
 31
0.0
210
0.0
220
0.0
230
1.0
 40
0.9396926208
 41
0.0
 42
3.141592653589793
  0
ELLIPSE
  5
211
330
1B8
100
AcDbEntity
  8
52_164-325_TA-MO
  6
Continuous
 62
     7
100
AcDbEllipse
 10
126.454517557
 20
227.8147697116
 30
0.0
 11
-6.071532165918825E-14
 21
13.74999999999999
 31
0.0
210
0.0
220
0.0
230
1.0
 40
0.9396926208
 41
0.0
 42
3.271997698134439
  0
ELLIPSE
  5
212
330
1B8
100
AcDbEntity
  8
52_164-325_TA-MO
  6
Continuous
 62
     7
100
AcDbEllipse
 10
126.454517557
 20
227.8147697116
 30
0.0
 11
-6.071532165918825E-14
 21
13.74999999999999
 31
0.0
210
0.0
220
0.0
230
1.0
 40
0.9396926208
 41
6.152780262634915
 42
6.283185307179586
  0
ELLIPSE
  5
213
330
1B8
100
AcDbEntity
  8
52_164-325_TA-MO
  6
Continuous
 62
     7
100
AcDbEllipse
 10
127.1950128888
 20
227.8147697116
 30
0.0
 11
-8.673617379884035E-15
 21
10.00000000000001
 31
0.0
210
0.0
220
0.0
230
1.0
 40
0.9396926208
 41
0.5219861407758178
 42
2.619606512813974
  0
ELLIPSE
  5
214
330
1B8
100
AcDbEntity
  8
52_164-325_TA-MO
  6
Continuous
 62
     7
100
AcDbEllipse
 10
134.0131627245
 20
227.8147697116
 30
0.0
 11
-5.551115123125783E-14
 21
14.99999999999999
 31
0.0
210
0.0
220
0.0
230
1.0
 40
0.9396926208
 41
0.0000000000000001
 42
3.141592653589793
  0
ELLIPSE
  5
215
330
1B8
100
AcDbEntity
  8
52_164-325_TA-MO
  6
Continuous
 62
     7
100
AcDbEllipse
 10
135.9666524811
 20
227.8147697116
 30
0.0
 11
1.144917494144693E-13
 21
10.49999999999999
 31
0.0
210
0.0
220
0.0
230
1.0
 40
0.9396926208
 41
5.727787235870398
 42
6.283185307179586
  0
ELLIPSE
  5
216
330
1B8
100
AcDbEntity
  8
52_164-325_TA-MO
  6
Continuous
 62
     7
100
AcDbEllipse
 10
135.9666524811
 20
227.8147697116
 30
0.0
 11
1.144917494144693E-13
 21
10.49999999999999
 31
0.0
210
0.0
220
0.0
230
1.0
 40
0.9396926208
 41
5.412712318801314
 42
5.49515795618894
  0
ELLIPSE
  5
217
330
1B8
100
AcDbEntity
  8
52_164-325_TA-MO
  6
Continuous
 62
     7
100
AcDbEllipse
 10
135.9666524811
 20
227.8147697116
 30
0.0
 11
1.144917494144693E-13
 21
10.49999999999999
 31
0.0
210
0.0
220
0.0
230
1.0
 40
0.9396926208
 41
3.929234926766191
 42
4.012065641968086
  0
ELLIPSE
  5
218
330
1B8
100
AcDbEntity
  8
52_164-325_TA-MO
  6
Continuous
 62
     7
100
AcDbEllipse
 10
135.9666524811
 20
227.8147697116
 30
0.0
 11
1.144917494144693E-13
 21
10.49999999999999
 31
0.0
210
0.0
220
0.0
230
1.0
 40
0.9396926208
 41
0.0
 42
3.696872337791499
  0
ELLIPSE
  5
219
330
1B8
100
AcDbEntity
  8
52_164-325_TA-MO
  6
Continuous
 62
     7
100
AcDbEllipse
 10
135.7232634411
 20
227.8147697116
 30
0.0
 11
-3.122502256758253E-14
 21
10.5
 31
0.0
210
0.0
220
0.0
230
1.0
 40
0.9396926208
 41
0.0
 42
3.141592653589796
  0
LINE
  5
21A
330
1B8
100
AcDbEntity
  8
52_164-325_TA-MO
  6
Continuous
 62
     7
100
AcDbLine
 10
131.3785612118
 20
225.6599920888
 30
0.0
 11
130.5604841059
 21
225.4269339235
 31
0.0
  0
LINE
  5
21B
330
1B8
100
AcDbEntity
  8
52_164-325_TA-MO
  6
Continuous
 62
     7
100
AcDbLine
 10
135.0256778999
 20
220.5995487016
 30
0.0
 11
134.6020685642
 21
219.8191590441
 31
0.0
  0
LINE
  5
21C
330
1B8
100
AcDbEntity
  8
52_164-325_TA-MO
  6
Continuous
 62
     7
100
AcDbLine
 10
140.9670563597
 20
219.7656839266
 30
0.0
 11
141.1860593979
 21
218.8951044543
 31
0.0
  0
LINE
  5
21D
330
1B8
100
AcDbEntity
  8
52_164-325_TA-MO
  6
Continuous
 62
     7
100
AcDbLine
 10
145.7223176685
 20
223.6468644398
 30
0.0
 11
146.455644071
 21
223.1960688005
 31
0.0
  0
LINE
  5
21E
330
1B8
100
AcDbEntity
  8
52_164-325_TA-MO
  6
Continuous
 62
     7
100
AcDbLine
 10
146.5058942443
 20
229.9695473345
 30
0.0
 11
147.3239713502
 21
230.2026054998
 31
0.0
  0
LINE
  5
21F
330
1B8
100
AcDbEntity
  8
52_164-325_TA-MO
  6
Continuous
 62
     7
100
AcDbLine
 10
142.8587775562
 20
235.0299907217
 30
0.0
 11
143.2823868919
 21
235.8103803792
 31
0.0
  0
LINE
  5
220
330
1B8
100
AcDbEntity
  8
52_164-325_TA-MO
  6
Continuous
 62
     7
100
AcDbLine
 10
136.9173990964
 20
235.8638554967
 30
0.0
 11
136.6983960582
 21
236.734434969
 31
0.0
  0
LINE
  5
221
330
1B8
100
AcDbEntity
  8
52_164-325_TA-MO
  6
Continuous
 62
     7
100
AcDbLine
 10
132.1621377876
 20
231.9826749835
 30
0.0
 11
131.4288113851
 21
232.4334706228
 31
0.0
  0
ELLIPSE
  5
222
330
1B8
100
AcDbEntity
  8
52_164-325_TA-MO
  6
Continuous
 62
     7
100
AcDbEllipse
 10
138.9422277281
 20
227.8147697116
 30
0.0
 11
1.387778780781446E-14
 21
-1.999999999999988
 31
0.0
210
0.0
220
0.0
230
1.0
 40
0.9396926208
 41
3.141592653589801
 42
6.283185307179586
  0
ELLIPSE
  5
223
330
1B8
100
AcDbEntity
  8
52_164-325_TA-MO
  6
Continuous
 62
     7
100
AcDbEllipse
 10
136.8702949451
 20
227.8147697116
 30
0.0
 11
9.103828801926284E-12
 21
-8.649999999998345
 31
0.0
210
0.0
220
0.0
230
1.0
 40
0.9396926208
 41
5.288010391459233
 42
5.759358348318029
  0
ELLIPSE
  5
224
330
1B8
100
AcDbEntity
  8
52_164-325_TA-MO
  6
Continuous
 62
     7
100
AcDbEllipse
 10
136.3944680284
 20
227.8147697116
 30
0.0
 11
6.023653797981865E-11
 21
-9.624146115362775
 31
0.0
210
0.0
220
0.0
230
1.0
 40
0.9396926208
 41
4.973960184915098
 42
5.235759572714592
  0
ELLIPSE
  5
225
330
1B8
100
AcDbEntity
  8
52_164-325_TA-MO
  6
Continuous
 62
     7
100
AcDbEllipse
 10
136.8702949451
 20
227.8147697116
 30
0.0
 11
-8.118505867571457E-13
 21
-8.649999999999883
 31
0.0
210
0.0
220
0.0
230
1.0
 40
0.9396926208
 41
4.450361409323396
 42
4.973960184921703
  0
LINE
  5
226
330
1B8
100
AcDbEntity
  8
52_164-325_TA-MO
  6
Continuous
 62
     7
100
AcDbLine
 10
129.0194005337
 20
230.0554609236
 30
0.0
 11
127.6594212131
 21
230.3078031941
 31
0.0
  0
ELLIPSE
  5
227
330
1B8
100
AcDbEntity
  8
52_164-325_TA-MO
  6
Continuous
 62
     7
100
AcDbEllipse
 10
136.3944680284
 20
227.8147697117
 30
0.0
 11
8.203854262589516E-11
 21
9.624146115360391
 31
0.0
210
0.0
220
0.0
230
1.0
 40
0.9396926208
 41
1.046969367942712
 42
1.308768755742244
  0
ELLIPSE
  5
228
330
1B8
100
AcDbEntity
  8
52_164-325_TA-MO
  6
Continuous
 62
     7
100
AcDbEllipse
 10
136.8702949451
 20
227.8147697116
 30
0.0
 11
-1.429412144204889E-12
 21
8.650000000000244
 31
0.0
210
0.0
220
0.0
230
1.0
 40
0.9396926208
 41
0.5233705923359118
 42
0.9946639525451296
  0
LINE
  5
229
330
1B8
100
AcDbEntity
  8
52_164-325_TA-MO
  6
Continuous
 62
     7
100
AcDbLine
 10
132.8077307279
 20
235.306876152
 30
0.0
 11
131.874385759
 21
236.1506225548
 31
0.0
  0
ELLIPSE
  5
22A
330
1B8
100
AcDbEntity
  8
52_164-325_TA-MO
  6
Continuous
 62
     7
100
AcDbEllipse
 10
136.3944680284
 20
227.8147697116
 30
0.0
 11
-1.395064619380548E-11
 21
9.624146115381318
 31
0.0
210
0.0
220
0.0
230
1.0
 40
0.9396926208
 41
0.2615712045355001
 42
0.52337059233458
  0
ELLIPSE
  5
22B
330
1B8
100
AcDbEntity
  8
52_164-325_TA-MO
  6
Continuous
 62
     7
100
AcDbEllipse
 10
136.8702949451
 20
227.8147697116
 30
0.0
 11
-4.996003610813204E-13
 21
-8.649999999999579
 31
0.0
210
0.0
220
0.0
230
1.0
 40
0.9396926208
 41
2.997101211305609
 42
3.15437348780405
  0
LINE
  5
22C
330
1B8
100
AcDbEntity
  8
52_164-325_TA-MO
  6
Continuous
 62
     7
100
AcDbLine
 10
138.9599302219
 20
236.2322914988
 30
0.0
 11
138.7371531952
 21
237.110412374
 31
0.0
  0
ELLIPSE
  5
22D
330
1B8
100
AcDbEntity
  8
52_164-325_TA-MO
  6
Continuous
 62
     7
100
AcDbEllipse
 10
136.8702949451
 20
227.8147697116
 30
0.0
 11
-5.204170427930421E-14
 21
8.649999999999871
 31
0.0
210
0.0
220
0.0
230
1.0
 40
0.9396926208
 41
3.128324388398694
 42
3.286084095874028
  0
ELLIPSE
  5
22E
330
1B8
100
AcDbEntity
  8
52_164-325_TA-MO
  6
Continuous
 62
     7
100
AcDbEllipse
 10
136.3944680284
 20
227.8147697116
 30
0.0
 11
7.117917366628035E-11
 21
-9.624146115353604
 31
0.0
210
0.0
220
0.0
230
1.0
 40
0.9396926208
 41
5.759358348311506
 42
6.021157736110966
  0
ELLIPSE
  5
22F
330
1B8
100
AcDbEntity
  8
52_164-325_TA-MO
  6
Continuous
 62
     7
100
AcDbEllipse
 10
138.9422277281
 20
227.8147697116
 30
0.0
 11
3.937822290467352E-12
 21
-8.3325175414504
 31
0.0
210
0.0
220
0.0
230
1.0
 40
0.9396926208
 41
5.235759572720264
 42
5.759358348318602
  0
ELLIPSE
  5
230
330
1B8
100
AcDbEntity
  8
52_164-325_TA-MO
  6
Continuous
 62
     7
100
AcDbEllipse
 10
138.9422277281
 20
227.8147697116
 30
0.0
 11
3.469446951953614E-13
 21
8.332517541452411
 31
0.0
210
0.0
220
0.0
230
1.0
 40
0.9396926208
 41
2.879565082528474
 42
3.403163858126738
  0
ELLIPSE
  5
231
330
1B8
100
AcDbEntity
  8
52_164-325_TA-MO
  6
Continuous
 62
     7
100
AcDbEllipse
 10
138.9422277281
 20
227.8147697116
 30
0.0
 11
-5.481726184086710E-12
 21
-8.332517541450155
 31
0.0
210
0.0
220
0.0
230
1.0
 40
0.9396926208
 41
0.5233705923367128
 42
1.046969367935043
  0
ELLIPSE
  5
232
330
1B8
100
AcDbEntity
  8
52_164-325_TA-MO
  6
Continuous
 62
     7
100
AcDbEllipse
 10
138.9422277281
 20
227.8147697116
 30
0.0
 11
5.204170427930421E-13
 21
8.332517541450637
 31
0.0
210
0.0
220
0.0
230
1.0
 40
0.9396926208
 41
4.450361409323355
 42
4.973960184921685
  0
ELLIPSE
  5
233
330
1B8
100
AcDbEntity
  8
52_164-325_TA-MO
  6
Continuous
 62
     7
100
AcDbEllipse
 10
138.9422277281
 20
227.8147697116
 30
0.0
 11
7.448902605844410E-12
 21
8.332517541452443
 31
0.0
210
0.0
220
0.0
230
1.0
 40
0.9396926208
 41
5.235759572721678
 42
5.759358348319926
  0
ELLIPSE
  5
234
330
1B8
100
AcDbEntity
  8
52_164-325_TA-MO
  6
Continuous
 62
     7
100
AcDbEllipse
 10
138.9422277281
 20
227.8147697116
 30
0.0
 11
4.857225732735060E-14
 21
-8.332517541451603
 31
0.0
210
0.0
220
0.0
230
1.0
 40
0.9396926208
 41
2.879565082528408
 42
3.403163858126702
  0
ELLIPSE
  5
235
330
1B8
100
AcDbEntity
  8
52_164-325_TA-MO
  6
Continuous
 62
     7
100
AcDbEllipse
 10
138.9422277281
 20
227.8147697116
 30
0.0
 11
-5.870304242705515E-12
 21
8.332517541452123
 31
0.0
210
0.0
220
0.0
230
1.0
 40
0.9396926208
 41
0.5233705923353915
 42
1.046969367933651
  0
LINE
  5
236
330
1B8
100
AcDbEntity
  8
52_164-325_TA-MO
  6
Continuous
 62
     7
100
AcDbLine
 10
135.0287725138
 20
235.0318920627
 30
0.0
 11
132.8077307279
 21
235.306876152
 31
0.0
  0
ELLIPSE
  5
237
330
1B8
100
AcDbEntity
  8
52_164-325_TA-MO
  6
Continuous
 62
     7
100
AcDbEllipse
 10
138.9422277281
 20
227.8147697116
 30
0.0
 11
-4.257011410047085E-12
 21
-8.332517541451574
 31
0.0
210
0.0
220
0.0
230
1.0
 40
0.9396926208
 41
4.450361409323806
 42
4.973960184922084
  0
LINE
  5
238
330
1B8
100
AcDbEntity
  8
52_164-325_TA-MO
  6
Continuous
 62
     7
100
AcDbLine
 10
131.3794860634
 20
229.9732204433
 30
0.0
 11
129.0194005337
 21
230.0554609236
 31
0.0
  0
ELLIPSE
  5
239
330
1B8
100
AcDbEntity
  8
52_164-325_TA-MO
  6
Continuous
 62
     7
100
AcDbEllipse
 10
138.942227728
 20
227.8147697117
 30
0.0
 11
2.753353101070388E-11
 21
9.233752652842382
 31
0.0
210
0.0
220
0.0
230
1.0
 40
0.9396926208
 41
1.046969367937312
 42
1.308768755736647
  0
LINE
  5
23A
330
1B8
100
AcDbEntity
  8
52_164-325_TA-MO
  6
Continuous
 62
     7
100
AcDbLine
 10
131.4288113851
 20
232.4334706228
 30
0.0
 11
128.5633922535
 21
232.6287444956
 31
0.0
  0
LINE
  5
23B
330
1B8
100
AcDbEntity
  8
52_164-325_TA-MO
  6
Continuous
 62
     7
100
AcDbLine
 10
131.3794860634
 20
229.9732204433
 30
0.0
 11
130.5615089883
 21
230.2066758877
 31
0.0
  0
LINE
  5
23C
330
1B8
100
AcDbEntity
  8
52_164-325_TA-MO
  6
Continuous
 62
     7
100
AcDbLine
 10
130.5615089883
 20
230.2066758877
 30
0.0
 11
127.6594212131
 21
230.3078031941
 31
0.0
  0
ELLIPSE
  5
23D
330
1B8
100
AcDbEntity
  8
52_164-325_TA-MO
  6
Continuous
 62
     7
100
AcDbEllipse
 10
138.9422277281
 20
227.8147697117
 30
0.0
 11
1.014813233446432E-11
 21
9.233752652845718
 31
0.0
210
0.0
220
0.0
230
1.0
 40
0.9396926208
 41
0.2615712045379996
 42
0.5233705923372044
  0
LINE
  5
23E
330
1B8
100
AcDbEntity
  8
52_164-325_TA-MO
  6
Continuous
 62
     7
100
AcDbLine
 10
136.6983960582
 20
236.734434969
 30
0.0
 11
134.0557694883
 21
237.1115491429
 31
0.0
  0
LINE
  5
23F
330
1B8
100
AcDbEntity
  8
52_164-325_TA-MO
  6
Continuous
 62
     7
100
AcDbLine
 10
135.0287725138
 20
235.0318920627
 30
0.0
 11
134.6054978878
 21
235.812487367
 31
0.0
  0
LINE
  5
240
330
1B8
100
AcDbEntity
  8
52_164-325_TA-MO
  6
Continuous
 62
     7
100
AcDbLine
 10
134.6054978878
 20
235.812487367
 30
0.0
 11
131.874385759
 21
236.1506225548
 31
0.0
  0
ELLIPSE
  5
241
330
1B8
100
AcDbEntity
  8
52_164-325_TA-MO
  6
Continuous
 62
     7
100
AcDbEllipse
 10
138.9422277281
 20
227.8147697117
 30
0.0
 11
-3.163788675486501E-11
 21
9.233752652839176
 31
0.0
210
0.0
220
0.0
230
1.0
 40
0.9396926208
 41
5.759358348315573
 42
6.021157736114844
  0
LINE
  5
242
330
1B8
100
AcDbEntity
  8
52_164-325_TA-MO
  6
Continuous
 62
     7
100
AcDbLine
 10
140.9705079529
 20
235.8628712901
 30
0.0
 11
141.1898843113
 21
236.7333443118
 31
0.0
  0
LINE
  5
243
330
1B8
100
AcDbEntity
  8
52_164-325_TA-MO
  6
Continuous
 62
     7
100
AcDbLine
 10
141.1898843113
 20
236.7333443118
 30
0.0
 11
138.7371531952
 21
237.110412374
 31
0.0
  0
ELLIPSE
  5
244
330
1B8
100
AcDbEntity
  8
52_164-325_TA-MO
  6
Continuous
 62
     7
100
AcDbEllipse
 10
138.9422277281
 20
227.8147697117
 30
0.0
 11
-4.104702688856321E-11
 21
9.233752652841407
 31
0.0
210
0.0
220
0.0
230
1.0
 40
0.9396926208
 41
4.973960184917047
 42
5.23575957271639
  0
LINE
  5
245
330
1B8
100
AcDbEntity
  8
52_164-325_TA-MO
  6
Continuous
 62
     7
100
AcDbLine
 10
145.7241043446
 20
231.9793817643
 30
0.0
 11
146.4576239919
 21
232.4298212129
 31
0.0
  0
LINE
  5
246
330
1B8
100
AcDbEntity
  8
52_164-325_TA-MO
  6
Continuous
 62
     7
100
AcDbLine
 10
146.4576239919
 20
232.4298212129
 30
0.0
 11
145.4030468542
 21
232.522093464
 31
0.0
  0
ELLIPSE
  5
247
330
1B8
100
AcDbEntity
  8
52_164-325_TA-MO
  6
Continuous
 62
     7
100
AcDbEllipse
 10
138.942227728
 20
227.8147697117
 30
0.0
 11
2.560798795236963E-11
 21
-9.233752652853999
 31
0.0
210
0.0
220
0.0
230
1.0
 40
0.9396926208
 41
1.046969367931675
 42
1.308768755730709
  0
LINE
  5
248
330
1B8
100
AcDbEntity
  8
52_164-325_TA-MO
  6
Continuous
 62
     7
100
AcDbLine
 10
146.455644071
 20
223.1960688005
 30
0.0
 11
145.400628095
 21
223.1036886244
 31
0.0
  0
LINE
  5
249
330
1B8
100
AcDbEntity
  8
52_164-325_TA-MO
  6
Continuous
 62
     7
100
AcDbLine
 10
146.5049693927
 20
225.65631898
 30
0.0
 11
147.3229464678
 21
225.4228635356
 31
0.0
  0
ELLIPSE
  5
24A
330
1B8
100
AcDbEntity
  8
52_164-325_TA-MO
  6
Continuous
 62
     7
100
AcDbEllipse
 10
138.9422277281
 20
227.8147697116
 30
0.0
 11
1.512678871051776E-12
 21
-9.233752652849809
 31
0.0
210
0.0
220
0.0
230
1.0
 40
0.9396926208
 41
0.2615712045367537
 42
0.5233705923359042
  0
LINE
  5
24B
330
1B8
100
AcDbEntity
  8
52_164-325_TA-MO
  6
Continuous
 62
     7
100
AcDbLine
 10
141.1860593979
 20
218.8951044543
 30
0.0
 11
138.7331665684
 21
218.5179902804
 31
0.0
  0
LINE
  5
24C
330
1B8
100
AcDbEntity
  8
52_164-325_TA-MO
  6
Continuous
 62
     7
100
AcDbLine
 10
142.8556829424
 20
220.5976473606
 30
0.0
 11
143.2789575684
 21
219.8170520563
 31
0.0
  0
LINE
  5
24D
330
1B8
100
AcDbEntity
  8
52_164-325_TA-MO
  6
Continuous
 62
     7
100
AcDbLine
 10
138.9564446153
 20
219.3967082004
 30
0.0
 11
138.7331665684
 21
218.5179902804
 31
0.0
  0
ELLIPSE
  5
24E
330
1B8
100
AcDbEntity
  8
52_164-325_TA-MO
  6
Continuous
 62
     7
100
AcDbEllipse
 10
138.9422277281
 20
227.8147697117
 30
0.0
 11
-2.105954299835844E-11
 21
-9.233752652855792
 31
0.0
210
0.0
220
0.0
230
1.0
 40
0.9396926208
 41
5.759358348321365
 42
6.021157736120437
  0
LINE
  5
24F
330
1B8
100
AcDbEntity
  8
52_164-325_TA-MO
  6
Continuous
 62
     7
100
AcDbLine
 10
134.6020685642
 20
219.8191590441
 30
0.0
 11
131.8708114472
 21
219.4811129375
 31
0.0
  0
LINE
  5
250
330
1B8
100
AcDbEntity
  8
52_164-325_TA-MO
  6
Continuous
 62
     7
100
AcDbLine
 10
136.9139475032
 20
219.7666681332
 30
0.0
 11
136.6945711448
 21
218.8961951115
 31
0.0
  0
LINE
  5
251
330
1B8
100
AcDbEntity
  8
52_164-325_TA-MO
  6
Continuous
 62
     7
100
AcDbLine
 10
136.6945711448
 20
218.8961951115
 30
0.0
 11
134.0517828615
 21
218.5191270493
 31
0.0
  0
LINE
  5
252
330
1B8
100
AcDbEntity
  8
52_164-325_TA-MO
  6
Continuous
 62
     7
100
AcDbLine
 10
135.0256778999
 20
220.5995487016
 30
0.0
 11
132.8045182042
 21
220.3246370565
 31
0.0
  0
LINE
  5
253
330
1B8
100
AcDbEntity
  8
52_164-325_TA-MO
  6
Continuous
 62
     7
100
AcDbLine
 10
132.8045182042
 20
220.3246370565
 30
0.0
 11
131.8708114472
 21
219.4811129375
 31
0.0
  0
ELLIPSE
  5
254
330
1B8
100
AcDbEntity
  8
52_164-325_TA-MO
  6
Continuous
 62
     7
100
AcDbEllipse
 10
138.942227728
 20
227.8147697116
 30
0.0
 11
3.354608257843950E-11
 21
-9.233752652842167
 31
0.0
210
0.0
220
0.0
230
1.0
 40
0.9396926208
 41
4.973960184917849
 42
5.23575957271718
  0
LINE
  5
255
330
1B8
100
AcDbEntity
  8
52_164-325_TA-MO
  6
Continuous
 62
     7
100
AcDbLine
 10
130.5604841059
 20
225.4269339235
 30
0.0
 11
127.6583529997
 21
225.3259787088
 31
0.0
  0
LINE
  5
256
330
1B8
100
AcDbEntity
  8
52_164-325_TA-MO
  6
Continuous
 62
     7
100
AcDbLine
 10
132.1603511115
 20
223.650157659
 30
0.0
 11
131.4268314642
 21
223.1997182104
 31
0.0
  0
LINE
  5
257
330
1B8
100
AcDbEntity
  8
52_164-325_TA-MO
  6
Continuous
 62
     7
100
AcDbLine
 10
131.4268314642
 20
223.1997182104
 30
0.0
 11
128.5613286237
 21
223.0045986308
 31
0.0
  0
LINE
  5
258
330
1B8
100
AcDbEntity
  8
52_164-325_TA-MO
  6
Continuous
 62
     7
100
AcDbLine
 10
131.3785612118
 20
225.6599920888
 30
0.0
 11
129.0184404438
 21
225.5778915599
 31
0.0
  0
LINE
  5
259
330
1B8
100
AcDbEntity
  8
52_164-325_TA-MO
  6
Continuous
 62
     7
100
AcDbLine
 10
129.0184404438
 20
225.5778915599
 30
0.0
 11
127.6583529997
 21
225.3259787088
 31
0.0
  0
ELLIPSE
  5
25A
330
1B8
100
AcDbEntity
  8
52_164-325_TA-MO
  6
Continuous
 62
     7
100
AcDbEllipse
 10
141.1955857343
 20
227.8147697116
 30
0.0
 11
3.469446951953614E-14
 21
1.999999999999986
 31
0.0
210
0.0
220
0.0
230
1.0
 40
0.9396926208
 41
0.0
 42
6.283185307179586
  0
LINE
  5
25B
330
1B8
100
AcDbEntity
  8
52_164-325_TA-MO
  6
Continuous
 62
     7
100
AcDbLine
 10
84.7849095662
 20
232.455722427
 30
0.0
 11
94.8320800362
 21
229.1577237801
 31
0.0
  0
LINE
  5
25C
330
1B8
100
AcDbEntity
  8
52_164-325_TA-MO
  6
Continuous
 62
     7
100
AcDbLine
 10
94.8320800362
 20
229.1577237801
 30
0.0
 11
102.614494909
 21
236.5167710647
 31
0.0
  0
LINE
  5
25D
330
1B8
100
AcDbEntity
  8
52_164-325_TA-MO
  6
Continuous
 62
     7
100
AcDbLine
 10
102.614494909
 20
236.5167710647
 30
0.0
 11
100.3497393119
 21
247.1738169963
 31
0.0
  0
LINE
  5
25E
330
1B8
100
AcDbEntity
  8
52_164-325_TA-MO
  6
Continuous
 62
     7
100
AcDbLine
 10
100.3497393119
 20
247.1738169963
 30
0.0
 11
90.3025688419
 21
250.4718156432
 31
0.0
  0
LINE
  5
25F
330
1B8
100
AcDbEntity
  8
52_164-325_TA-MO
  6
Continuous
 62
     7
100
AcDbLine
 10
90.3025688419
 20
250.4718156432
 30
0.0
 11
86.6995148181
 21
247.0647697116
 31
0.0
  0
LINE
  5
260
330
1B8
100
AcDbEntity
  8
52_164-325_TA-MO
  6
Continuous
 62
     7
100
AcDbLine
 10
84.7201896022
 20
232.7602690323
 30
0.0
 11
84.7849095662
 21
232.455722427
 31
0.0
  0
ELLIPSE
  5
261
330
1B8
100
AcDbEntity
  8
52_164-325_TA-MO
  6
Continuous
 62
     7
100
AcDbEllipse
 10
92.5674837394
 20
239.8147697116
 30
0.0
 11
2.081668171172169E-14
 21
-5.966499999999998
 31
0.0
210
0.0
220
0.0
230
1.0
 40
0.9659258263
 41
0.0132624571259346
 42
3.128330196463859
  0
LINE
  5
262
330
1B8
100
AcDbEntity
  8
52_164-325_TA-MO
  6
Continuous
 62
     7
100
AcDbLine
 10
104.3411847821
 20
236.5167710647
 30
0.0
 11
102.614494909
 21
236.5167710647
 31
0.0
  0
LINE
  5
263
330
1B8
100
AcDbEntity
  8
52_164-325_TA-MO
  6
Continuous
 62
     7
100
AcDbLine
 10
96.5587699092
 20
229.1577237801
 30
0.0
 11
94.8320800362
 21
229.1577237801
 31
0.0
  0
LINE
  5
264
330
1B8
100
AcDbEntity
  8
52_164-325_TA-MO
  6
Continuous
 62
     7
100
AcDbLine
 10
92.029258715
 20
250.4718156432
 30
0.0
 11
90.3025688419
 21
250.4718156432
 31
0.0
  0
LINE
  5
265
330
1B8
100
AcDbEntity
  8
52_164-325_TA-MO
  6
Continuous
 62
     7
100
AcDbLine
 10
102.076429185
 20
247.1738169963
 30
0.0
 11
100.3497393119
 21
247.1738169963
 31
0.0
  0
ELLIPSE
  5
266
330
1B8
100
AcDbEntity
  8
52_164-325_TA-MO
  6
Continuous
 62
     7
100
AcDbEllipse
 10
86.3354879755
 20
239.8147697116
 30
0.0
 11
8.673617379884035E-14
 21
7.249999999999996
 31
0.0
210
0.0
220
0.0
230
1.0
 40
0.9659258263
 41
0.0
 42
6.283185307179586
  0
ELLIPSE
  5
267
330
1B8
100
AcDbEntity
  8
52_164-325_TA-MO
  6
Continuous
 62
     7
100
AcDbEllipse
 10
88.6648593814
 20
239.8147697116
 30
0.0
 11
1.144917494144693E-13
 21
7.249999999999993
 31
0.0
210
0.0
220
0.0
230
1.0
 40
0.9659258263
 41
3.141592653589795
 42
6.283185307179586
  0
LINE
  5
268
330
1B8
100
AcDbEntity
  8
52_164-325_TA-MO
  6
Continuous
 62
     7
100
AcDbLine
 10
71.9359837589
 20
206.8597697116
 30
0.0
 11
76.3909837589
 21
211.3147697116
 31
0.0
  0
LINE
  5
269
330
1B8
100
AcDbEntity
  8
52_164-325_TA-MO
  6
Continuous
 62
     7
100
AcDbLine
 10
76.3909837589
 20
244.3147697116
 30
0.0
 11
71.9359837589
 21
248.7697697116
 31
0.0
  0
LINE
  5
26A
330
1B8
100
AcDbEntity
  8
52_164-325_TA-MO
  6
Continuous
 62
     7
100
AcDbLine
 10
120.6524530912
 20
244.0647697116
 30
0.0
 11
118.4377123211
 21
244.0647697116
 31
0.0
  0
LINE
  5
26B
330
1B8
100
AcDbEntity
  8
52_164-325_TA-MO
  6
Continuous
 62
     7
100
AcDbLine
 10
118.4371113881
 20
211.5647697116
 30
0.0
 11
120.6524530912
 21
211.5647697116
 31
0.0
  0
LINE
  5
26C
330
1B8
100
AcDbEntity
  8
52_164-325_TA-MO
  6
Continuous
 62
     7
100
AcDbLine
 10
80.8447709978
 20
244.3147697116
 30
0.0
 11
76.3909837589
 21
244.3147697116
 31
0.0
  0
LINE
  5
26D
330
1B8
100
AcDbEntity
  8
52_164-325_TA-MO
  6
Continuous
 62
     7
100
AcDbLine
 10
104.8248917817
 20
256.8147697116
 30
0.0
 11
100.58318403
 21
256.8147697116
 31
0.0
  0
LINE
  5
26E
330
1B8
100
AcDbEntity
  8
52_164-325_TA-MO
  6
Continuous
 62
     7
100
AcDbLine
 10
100.58318403
 20
198.8147697116
 30
0.0
 11
104.8248917817
 21
198.8147697116
 31
0.0
  0
LINE
  5
26F
330
1B8
100
AcDbEntity
  8
52_164-325_TA-MO
  6
Continuous
 62
     7
100
AcDbLine
 10
106.5349924983
 20
258.3147697116
 30
0.0
 11
105.7134861799
 21
258.3147697116
 31
0.0
  0
LINE
  5
270
330
1B8
100
AcDbEntity
  8
52_164-325_TA-MO
  6
Continuous
 62
     7
100
AcDbLine
 10
105.7134861799
 20
197.3147697116
 30
0.0
 11
106.5349924983
 21
197.3147697116
 31
0.0
  0
LINE
  5
271
330
1B8
100
AcDbEntity
  8
52_164-325_TA-MO
  6
Continuous
 62
     7
100
AcDbLine
 10
109.3731017134
 20
259.8147697116
 30
0.0
 11
107.4235868965
 21
259.8147697116
 31
0.0
  0
LINE
  5
272
330
1B8
100
AcDbEntity
  8
52_164-325_TA-MO
  6
Continuous
 62
     7
100
AcDbLine
 10
107.4235868965
 20
195.8147697116
 30
0.0
 11
109.3731017134
 21
195.8147697116
 31
0.0
  0
LINE
  5
273
330
1B8
100
AcDbEntity
  8
52_164-325_TA-MO
  6
Continuous
 62
     7
100
AcDbLine
 10
97.7882307213
 20
251.3147697116
 30
0.0
 11
94.2941736124
 21
251.3147697116
 31
0.0
  0
LINE
  5
274
330
1B8
100
AcDbEntity
  8
52_164-325_TA-MO
  6
Continuous
 62
     7
100
AcDbLine
 10
101.0498588415
 20
206.8147697116
 30
0.0
 11
105.0615540406
 21
206.8147697116
 31
0.0
  0
LINE
  5
275
330
1B8
100
AcDbEntity
  8
52_164-325_TA-MO
  6
Continuous
 62
     7
100
AcDbLine
 10
108.0260965087
 20
244.3147697116
 30
0.0
 11
108.0106288065
 21
244.3147697116
 31
0.0
  0
LINE
  5
276
330
1B8
100
AcDbEntity
  8
52_164-325_TA-MO
  6
Continuous
 62
     7
100
AcDbLine
 10
141.3909837589
 20
244.3147697116
 30
0.0
 11
114.6866740729
 21
244.3147697116
 31
0.0
  0
LINE
  5
277
330
1B8
100
AcDbEntity
  8
52_164-325_TA-MO
  6
Continuous
 62
     7
100
AcDbLine
 10
112.7446480693
 20
211.3147697116
 30
0.0
 11
141.3909837589
 21
211.3147697116
 31
0.0
  0
LINE
  5
278
330
1B8
100
AcDbEntity
  8
52_164-325_TA-MO
  6
Continuous
 62
     7
100
AcDbLine
 10
76.3909837589
 20
211.3147697116
 30
0.0
 11
87.6004562268
 21
211.3147697116
 31
0.0
  0
LINE
  5
279
330
1B8
100
AcDbEntity
  8
52_164-325_TA-MO
  6
Continuous
 62
     7
100
AcDbLine
 10
114.685408526
 20
244.7147697116
 30
0.0
 11
108.0261221335
 21
244.7147697116
 31
0.0
  0
LINE
  5
27A
330
1B8
100
AcDbEntity
  8
52_164-325_TA-MO
  6
Continuous
 62
     7
100
AcDbLine
 10
108.0259837589
 20
244.7183106486
 30
0.0
 11
108.0259837589
 21
244.3147057153
 31
0.0
  0
LINE
  5
27B
330
1B8
100
AcDbEntity
  8
52_164-325_TA-MO
  6
Continuous
 62
     7
100
AcDbLine
 10
114.6869489391
 20
244.3147583483
 30
0.0
 11
114.6869489391
 21
244.7147356151
 31
0.0
  0
LINE
  5
27C
330
1B8
100
AcDbEntity
  8
52_164-325_TA-MO
  6
Continuous
 62
     7
100
AcDbLine
 10
111.7278774669
 20
244.6392893059
 30
0.0
 11
111.7278774669
 21
244.2374050733
 31
0.0
  0
LINE
  5
27D
330
1B8
100
AcDbEntity
  8
52_164-325_TA-MO
  6
Continuous
 62
     7
100
AcDbLine
 10
145.8459837589
 20
248.7697697116
 30
0.0
 11
141.3909837589
 21
244.3147697116
 31
0.0
  0
LINE
  5
27E
330
1B8
100
AcDbEntity
  8
52_164-325_TA-MO
  6
Continuous
 62
     7
100
AcDbLine
 10
141.3909837589
 20
211.3147697116
 30
0.0
 11
145.8459837589
 21
206.8597697116
 31
0.0
  0
LINE
  5
27F
330
1B8
100
AcDbEntity
  8
52_164-325_TA-MO
  6
Continuous
 62
     7
100
AcDbLine
 10
153.4909837589
 20
206.8597697116
 30
0.0
 11
155.3909837589
 21
208.7597697116
 31
0.0
  0
LINE
  5
280
330
1B8
100
AcDbEntity
  8
52_164-325_TA-MO
  6
Continuous
 62
     7
100
AcDbLine
 10
155.3909837589
 20
246.8697697116
 30
0.0
 11
153.4909837589
 21
248.7697697116
 31
0.0
  0
LINE
  5
281
330
1B8
100
AcDbEntity
  8
52_164-325_TA-MO
  6
Continuous
 62
     7
100
AcDbLine
 10
153.4909837589
 20
248.7697697116
 30
0.0
 11
145.8459837589
 21
248.7697697116
 31
0.0
  0
LINE
  5
282
330
1B8
100
AcDbEntity
  8
52_164-325_TA-MO
  6
Continuous
 62
     7
100
AcDbLine
 10
145.8459837589
 20
206.8597697116
 30
0.0
 11
153.4909837589
 21
206.8597697116
 31
0.0
  0
LINE
  5
283
330
1B8
100
AcDbEntity
  8
52_164-325_TA-MO
  6
Continuous
 62
     7
100
AcDbLine
 10
64.2909837589
 20
248.7697697116
 30
0.0
 11
62.3909837589
 21
246.8697697116
 31
0.0
  0
LINE
  5
284
330
1B8
100
AcDbEntity
  8
52_164-325_TA-MO
  6
Continuous
 62
     7
100
AcDbLine
 10
62.3909837589
 20
208.7597697116
 30
0.0
 11
64.2909837589
 21
206.8597697116
 31
0.0
  0
LINE
  5
285
330
1B8
100
AcDbEntity
  8
52_164-325_TA-MO
  6
Continuous
 62
     7
100
AcDbLine
 10
64.2909837589
 20
206.8597697116
 30
0.0
 11
71.9359837589
 21
206.8597697116
 31
0.0
  0
LINE
  5
286
330
1B8
100
AcDbEntity
  8
52_164-325_TA-MO
  6
Continuous
 62
     7
100
AcDbLine
 10
71.9359837589
 20
248.7697697116
 30
0.0
 11
64.2909837589
 21
248.7697697116
 31
0.0
  0
LINE
  5
287
330
1B8
100
AcDbEntity
  8
52_164-325_TA-MO
  6
Continuous
 62
     7
100
AcDbLine
 10
125.941487342
 20
242.0647697116
 30
0.0
 11
121.8372456221
 21
242.0647697116
 31
0.0
  0
LINE
  5
288
330
1B8
100
AcDbEntity
  8
52_164-325_TA-MO
  6
Continuous
 62
     7
100
AcDbLine
 10
121.8372456221
 20
213.5647697116
 30
0.0
 11
125.941487342
 21
213.5647697116
 31
0.0
  0
LINE
  5
289
330
1B8
100
AcDbEntity
  8
52_164-325_TA-MO
  6
Continuous
 62
     7
100
AcDbLine
 10
99.3988667327
 20
209.8482697116
 30
0.0
 11
101.0498588415
 21
209.8482697116
 31
0.0
  0
LINE
  5
28A
330
1B8
100
AcDbEntity
  8
52_164-325_TA-MO
  6
Continuous
 62
     7
100
AcDbLine
 10
101.0498588415
 20
221.7812697116
 30
0.0
 11
99.3988667327
 21
221.7812697116
 31
0.0
  0
LINE
  5
28B
330
1B8
100
AcDbEntity
  8
52_164-325_TA-MO
  6
Continuous
 62
     7
100
AcDbLine
 10
95.4205446105
 20
223.0647697116
 30
0.0
 11
93.0911732046
 21
223.0647697116
 31
0.0
  0
LINE
  5
28C
330
1B8
100
AcDbEntity
  8
52_164-325_TA-MO
  6
Continuous
 62
     7
100
AcDbLine
 10
93.0911732046
 20
208.5647697116
 30
0.0
 11
95.4205446105
 21
208.5647697116
 31
0.0
  0
LINE
  5
28D
330
1B8
100
AcDbEntity
  8
52_164-325_TA-MO
  6
Continuous
 62
     7
100
AcDbLine
 10
126.454517557
 20
241.5647697116
 30
0.0
 11
125.941487342
 21
241.5647697116
 31
0.0
  0
LINE
  5
28E
330
1B8
100
AcDbEntity
  8
52_164-325_TA-MO
  6
Continuous
 62
     7
100
AcDbLine
 10
125.941487342
 20
214.0647697116
 30
0.0
 11
126.454517557
 21
214.0647697116
 31
0.0
  0
LINE
  5
28F
330
1B8
100
AcDbEntity
  8
52_164-325_TA-MO
  6
Continuous
 62
     7
100
AcDbLine
 10
135.7232634411
 20
242.8147697116
 30
0.0
 11
134.0131627245
 21
242.8147697116
 31
0.0
  0
LINE
  5
290
330
1B8
100
AcDbEntity
  8
52_164-325_TA-MO
  6
Continuous
 62
     7
100
AcDbLine
 10
134.0131627245
 20
212.8147697116
 30
0.0
 11
135.7232634411
 21
212.8147697116
 31
0.0
  0
LINE
  5
291
330
1B8
100
AcDbEntity
  8
52_164-325_TA-MO
  6
Continuous
 62
     7
100
AcDbLine
 10
135.7232634411
 20
217.3147697116
 30
0.0
 11
135.9666524811
 21
217.3147697116
 31
0.0
  0
LINE
  5
292
330
1B8
100
AcDbEntity
  8
52_164-325_TA-MO
  6
Continuous
 62
     7
100
AcDbLine
 10
135.9666524811
 20
238.3147697116
 30
0.0
 11
135.7232634411
 21
238.3147697116
 31
0.0
  0
LINE
  5
293
330
1B8
100
AcDbEntity
  8
52_164-325_TA-MO
  6
Continuous
 62
     7
100
AcDbLine
 10
138.0406882077
 20
219.254909107
 30
0.0
 11
140.0696638426
 21
219.5690831636
 31
0.0
  0
LINE
  5
294
330
1B8
100
AcDbEntity
  8
52_164-325_TA-MO
  6
Continuous
 62
     7
100
AcDbLine
 10
140.0696638426
 20
236.0604562597
 30
0.0
 11
138.0406882077
 21
236.3746303163
 31
0.0
  0
LINE
  5
295
330
1B8
100
AcDbEntity
  8
52_164-325_TA-MO
  6
Continuous
 62
     7
100
AcDbLine
 10
138.9422277281
 20
225.8147697116
 30
0.0
 11
141.1955857343
 21
225.8147697116
 31
0.0
  0
LINE
  5
296
330
1B8
100
AcDbEntity
  8
52_164-325_TA-MO
  6
Continuous
 62
     7
100
AcDbLine
 10
141.1955857343
 20
229.8147697116
 30
0.0
 11
138.9422277281
 21
229.8147697116
 31
0.0
  0
LINE
  5
297
330
1B8
100
AcDbEntity
  8
52_164-325_TA-MO
  6
Continuous
 62
     7
100
AcDbLine
 10
88.6648593814
 20
247.0647697116
 30
0.0
 11
86.3354879755
 21
247.0647697116
 31
0.0
  0
LINE
  5
298
330
1B8
100
AcDbEntity
  8
52_164-325_TA-MO
  6
Continuous
 62
     7
100
AcDbLine
 10
86.3354879755
 20
232.5647697116
 30
0.0
 11
88.6648593814
 21
232.5647697116
 31
0.0
  0
ENDBLK
  5
29A
330
1B8
100
AcDbEntity
  8
0
100
AcDbBlockEnd
  0
BLOCK
  5
314
330
29B
100
AcDbEntity
  8
0
100
AcDbBlockBegin
  2
SE3
 70
     0
 10
0.0
 20
0.0
 30
0.0
  3
SE3
  1

  0
ELLIPSE
  5
29D
330
29B
100
AcDbEntity
  8
52_164-325_TA-MO
  6
Continuous
 62
     7
100
AcDbEllipse
 10
259.9732262677
 20
227.8147697116
 30
0.0
 11
-1.367726433100404E-15
 21
21.50000000000002
 31
0.0
210
0.0
220
0.0
230
1.0
 40
0.3420201433
 41
-0.132864899015666
 42
3.274457552605459
  0
ELLIPSE
  5
29E
330
29B
100
AcDbEntity
  8
52_164-325_TA-MO
  6
Continuous
 62
     7
100
AcDbEllipse
 10
252.9255316118
 20
227.8147697116
 30
0.0
 11
1.624606646841443E-15
 21
29.00000000000001
 31
0.0
210
0.0
220
0.0
230
1.0
 40
0.3420201433
 41
-0.3725269658526549
 42
3.514119619442448
  0
ELLIPSE
  5
29F
330
29B
100
AcDbEntity
  8
52_164-325_TA-MO
  6
Continuous
 62
     7
100
AcDbEllipse
 10
241.2715353441
 20
227.8147697116
 30
0.0
 11
-1.844840305112172E-15
 21
29.00000000000001
 31
0.0
210
0.0
220
0.0
230
1.0
 40
0.3420201433
 41
0.0
 42
3.141592653589793
  0
ELLIPSE
  5
2A0
330
29B
100
AcDbEntity
  8
52_164-325_TA-MO
  6
Continuous
 62
     7
100
AcDbEllipse
 10
238.8301423
 20
227.8147697116
 30
0.0
 11
-1.940263079514525E-15
 21
30.50000000000001
 31
0.0
210
0.0
220
0.0
230
1.0
 40
0.3420201433
 41
6.071468878017348
 42
6.283185307179586
  0
ELLIPSE
  5
2A1
330
29B
100
AcDbEntity
  8
52_164-325_TA-MO
  6
Continuous
 62
     7
100
AcDbEllipse
 10
238.8301423
 20
227.8147697116
 30
0.0
 11
-1.940263079514525E-15
 21
30.50000000000001
 31
0.0
210
0.0
220
0.0
230
1.0
 40
0.3420201433
 41
0.0
 42
3.353309082752031
  0
ELLIPSE
  5
2A2
330
29B
100
AcDbEntity
  8
52_164-325_TA-MO
  6
Continuous
 62
     7
100
AcDbEllipse
 10
236.5730722401
 20
227.8147697116
 30
0.0
 11
-1.940263079514525E-15
 21
30.50000000000001
 31
0.0
210
0.0
220
0.0
230
1.0
 40
0.3420201433
 41
0.0
 42
3.141592653589793
  0
ELLIPSE
  5
2A3
330
29B
100
AcDbEntity
  8
52_164-325_TA-MO
  6
Continuous
 62
     7
100
AcDbEllipse
 10
234.1316791961
 20
227.8147697116
 30
0.0
 11
-2.035685853916879E-15
 21
32.00000000000001
 31
0.0
210
0.0
220
0.0
230
1.0
 40
0.3420201433
 41
6.071468878017348
 42
6.283185307179586
  0
ELLIPSE
  5
2A4
330
29B
100
AcDbEntity
  8
52_164-325_TA-MO
  6
Continuous
 62
     7
100
AcDbEllipse
 10
234.1316791961
 20
227.8147697116
 30
0.0
 11
-2.035685853916879E-15
 21
32.00000000000001
 31
0.0
210
0.0
220
0.0
230
1.0
 40
0.3420201433
 41
0.0
 42
3.353309082752027
  0
ELLIPSE
  5
2A5
330
29B
100
AcDbEntity
  8
52_164-325_TA-MO
  6
Continuous
 62
     7
100
AcDbEllipse
 10
290.6873344813
 20
239.8147697116
 30
0.0
 11
-1.003148872225428E-15
 21
-11.50000000000001
 31
0.0
210
0.0
220
0.0
230
1.0
 40
0.2588190451
 41
3.141592653589793
 42
3.99496431727983
  0
ELLIPSE
  5
2A6
330
29B
100
AcDbEntity
  8
52_164-325_TA-MO
  6
Continuous
 62
     7
100
AcDbEllipse
 10
290.5656632302
 20
215.8147697116
 30
0.0
 11
2.896910305539493E-15
 21
8.999999999999993
 31
0.0
210
0.0
220
0.0
230
1.0
 40
0.2588190451
 41
2.508975476668937
 42
3.141592653589794
  0
ELLIPSE
  5
2A7
330
29B
100
AcDbEntity
  8
52_164-325_TA-MO
  6
Continuous
 62
     7
100
AcDbEllipse
 10
288.8926306227
 20
215.8147697116
 30
0.0
 11
-2.243644939456028E-15
 21
8.000000000000011
 31
0.0
210
0.0
220
0.0
230
1.0
 40
0.2588190451
 41
-3.447948290981882
 42
-3.296916989089562
  0
LINE
  5
2A8
330
29B
100
AcDbEntity
  8
52_164-325_TA-MO
  6
Continuous
 62
     7
100
AcDbLine
 10
304.5952356432
 20
224.8147697116
 30
0.0
 11
304.6282997701
 21
219.9361949499
 31
0.0
  0
LINE
  5
2A9
330
29B
100
AcDbEntity
  8
52_164-325_TA-MO
  6
Continuous
 62
     7
100
AcDbLine
 10
297.8929396472
 20
240.1158046172
 30
0.0
 11
300.751934062
 21
240.1158046172
 31
0.0
  0
LINE
  5
2AA
330
29B
100
AcDbEntity
  8
52_164-325_TA-MO
  6
Continuous
 62
     7
100
AcDbLine
 10
297.9401999588
 20
215.5791771769
 30
0.0
 11
303.2089403492
 21
215.5791771769
 31
0.0
  0
LINE
  5
2AB
330
29B
100
AcDbEntity
  8
52_164-325_TA-MO
  6
Continuous
 62
     7
100
AcDbLine
 10
304.5952356432
 20
224.8147697116
 30
0.0
 11
301.6675140513
 21
224.8147697116
 31
0.0
  0
LINE
  5
2AC
330
29B
100
AcDbEntity
  8
52_164-325_TA-MO
  6
Continuous
 62
     7
100
AcDbLine
 10
302.137785826
 20
230.8147697116
 30
0.0
 11
301.6675140513
 21
230.8147697116
 31
0.0
  0
LINE
  5
2AD
330
29B
100
AcDbEntity
  8
52_164-325_TA-MO
  6
Continuous
 62
     7
100
AcDbLine
 10
310.2512105429
 20
224.8147697116
 30
0.0
 11
310.2512105429
 21
225.128267093
 31
0.0
  0
LINE
  5
2AE
330
29B
100
AcDbEntity
  8
52_164-325_TA-MO
  6
Continuous
 62
     7
100
AcDbLine
 10
310.2512105429
 20
224.8147697116
 30
0.0
 11
309.377568911
 21
224.8147697116
 31
0.0
  0
CIRCLE
  5
2AF
330
29B
100
AcDbEntity
  8
52_164-325_TA-MO
  6
Continuous
 62
     7
100
AcDbCircle
 10
280.9283717112
 20
227.8147697116
 30
0.0
 40
19.05499999999999
  0
CIRCLE
  5
2B0
330
29B
100
AcDbEntity
  8
52_164-325_TA-MO
  6
Continuous
 62
     7
100
AcDbCircle
 10
280.9283717112
 20
227.8147697116
 30
0.0
 40
20.955
  0
ELLIPSE
  5
2B1
330
29B
100
AcDbEntity
  8
52_164-325_TA-MO
  6
Continuous
 62
     7
100
AcDbEllipse
 10
228.7754312576
 20
227.8147697116
 30
0.0
 11
-2.035685853916879E-15
 21
32.00000000000001
 31
0.0
210
0.0
220
0.0
230
1.0
 40
0.3420201433
 41
0.0
 42
3.141592653589793
  0
ELLIPSE
  5
2B2
330
29B
100
AcDbEntity
  8
52_164-325_TA-MO
  6
Continuous
 62
     7
100
AcDbEllipse
 10
314.7693814559
 20
227.8147697116
 30
0.0
 11
-3.562007043123888E-14
 21
14.54999999999855
 31
0.0
210
0.0
220
0.0
230
1.0
 40
0.3159597133
 41
1.478365521262114
 42
1.756501222416792
  0
LINE
  5
2B3
330
29B
100
AcDbEntity
  8
52_164-325_TA-MO
  6
Continuous
 62
     7
100
AcDbLine
 10
302.1844832881
 20
237.7049277798
 30
0.0
 11
302.137785826
 21
230.8147697116
 31
0.0
  0
ELLIPSE
  5
2B4
330
29B
100
AcDbEntity
  8
52_164-325_TA-MO
  6
Continuous
 62
     7
100
AcDbEllipse
 10
305.1761791913
 20
239.8147697116
 30
0.0
 11
6.191415504422125E-15
 21
11.74999999999998
 31
0.0
210
0.0
220
0.0
230
1.0
 40
0.2588190451
 41
1.751336522564726
 42
3.57632540209126
  0
LINE
  5
2B5
330
29B
100
AcDbEntity
  8
52_164-325_TA-MO
  6
Continuous
 62
     7
100
AcDbLine
 10
300.7355945487
 20
237.7049277798
 30
0.0
 11
302.1844832881
 21
237.7049277798
 31
0.0
  0
ELLIPSE
  5
2B6
330
29B
100
AcDbEntity
  8
52_164-325_TA-MO
  6
Continuous
 62
     7
100
AcDbEllipse
 10
303.7273331362
 20
239.8147697116
 30
0.0
 11
7.670468507658605E-15
 21
-11.49999999999998
 31
0.0
210
0.0
220
0.0
230
1.0
 40
0.2588190451
 41
2.756329700567433
 42
4.686209041604774
  0
ELLIPSE
  5
2B7
330
29B
100
AcDbEntity
  8
52_164-325_TA-MO
  6
Continuous
 62
     7
100
AcDbEllipse
 10
303.7272904518
 20
239.8147697116
 30
0.0
 11
2.721968552468511E-15
 21
11.74999999999999
 31
0.0
210
0.0
220
0.0
230
1.0
 40
0.2588190451
 41
3.382121219144405
 42
3.57632540209126
  0
LINE
  5
2B8
330
29B
100
AcDbEntity
  8
52_164-325_TA-MO
  6
Continuous
 62
     7
100
AcDbLine
 10
300.751934062
 20
240.1158046172
 30
0.0
 11
300.7355945487
 21
237.7049277798
 31
0.0
  0
ELLIPSE
  5
2B9
330
29B
100
AcDbEntity
  8
52_164-325_TA-MO
  6
Continuous
 62
     7
100
AcDbEllipse
 10
305.5375135377
 20
215.8147697116
 30
0.0
 11
-5.725366464141221E-16
 21
9.000000000000002
 31
0.0
210
0.0
220
0.0
230
1.0
 40
0.2588190451
 41
1.596976265574815
 42
3.987644126388124
  0
LINE
  5
2BA
330
29B
100
AcDbEntity
  8
52_164-325_TA-MO
  6
Continuous
 62
     7
100
AcDbLine
 10
309.357009622
 20
221.7812697116
 30
0.0
 11
309.377568911
 21
224.8147697116
 31
0.0
  0
ELLIPSE
  5
2BB
330
29B
100
AcDbEntity
  8
52_164-325_TA-MO
  6
Continuous
 62
     7
100
AcDbEllipse
 10
306.986450271
 20
215.8147697116
 30
0.0
 11
4.105598781302641E-15
 21
-10.00000000000004
 31
0.0
210
0.0
220
0.0
230
1.0
 40
0.2588190451
 41
2.210116478548501
 42
4.287584636199501
  0
ELLIPSE
  5
2BC
330
29B
100
AcDbEntity
  8
52_164-325_TA-MO
  6
Continuous
 62
     7
100
AcDbEllipse
 10
305.5375615316
 20
215.8147697116
 30
0.0
 11
-6.302742074558203E-15
 21
-10.0
 31
0.0
210
0.0
220
0.0
230
1.0
 40
0.2588190451
 41
2.2101164785485
 42
2.857898740242523
  0
LINE
  5
2BD
330
29B
100
AcDbEntity
  8
52_164-325_TA-MO
  6
Continuous
 62
     7
100
AcDbLine
 10
303.1794110306
 20
219.9361949499
 30
0.0
 11
303.2089403492
 21
215.5791771769
 31
0.0
  0
LINE
  5
2BE
330
29B
100
AcDbEntity
  8
52_164-325_TA-MO
  6
Continuous
 62
     7
100
AcDbLine
 10
304.6282997701
 20
219.9361949499
 30
0.0
 11
303.1794110306
 21
219.9361949499
 31
0.0
  0
ELLIPSE
  5
2BF
330
29B
100
AcDbEntity
  8
52_164-325_TA-MO
  6
Continuous
 62
     7
100
AcDbEllipse
 10
305.5375135377
 20
215.8147697116
 30
0.0
 11
-3.795599889810953E-16
 21
5.966499999999998
 31
0.0
210
0.0
220
0.0
230
1.0
 40
0.2588190451
 41
0.0
 42
0.5177028104998733
  0
ELLIPSE
  5
2C0
330
29B
100
AcDbEntity
  8
52_164-325_TA-MO
  6
Continuous
 62
     7
100
AcDbEllipse
 10
305.5375135377
 20
215.8147697116
 30
0.0
 11
-3.795599889810953E-16
 21
5.966499999999998
 31
0.0
210
0.0
220
0.0
230
1.0
 40
0.2588190451
 41
0.8082554268058851
 42
3.141592653589793
  0
LINE
  5
2C1
330
29B
100
AcDbEntity
  8
52_164-325_TA-MO
  6
Continuous
 62
     7
100
AcDbLine
 10
301.0351592382
 20
243.1127683586
 30
0.0
 11
303.1204510185
 21
250.4718156432
 31
0.0
  0
LINE
  5
2C2
330
29B
100
AcDbEntity
  8
52_164-325_TA-MO
  6
Continuous
 62
     7
100
AcDbLine
 10
301.3430955025
 20
237.7049277798
 30
0.0
 11
301.0351592382
 21
243.1127683586
 31
0.0
  0
LINE
  5
2C3
330
29B
100
AcDbEntity
  8
52_164-325_TA-MO
  6
Continuous
 62
     7
100
AcDbLine
 10
304.3341298852
 20
229.1577237801
 30
0.0
 11
303.3841392526
 21
230.3215109703
 31
0.0
  0
ELLIPSE
  5
2C4
330
29B
100
AcDbEntity
  8
52_164-325_TA-MO
  6
Continuous
 62
     7
100
AcDbEllipse
 10
326.5464002595
 20
215.8147697116
 30
0.0
 11
-4.612100762780429E-16
 21
7.250000000000002
 31
0.0
210
0.0
220
0.0
230
1.0
 40
0.2588190451
 41
0.0
 42
3.141592653589793
  0
ELLIPSE
  5
2C5
330
29B
100
AcDbEntity
  8
52_164-325_TA-MO
  6
Continuous
 62
     7
100
AcDbEllipse
 10
335.2397326961
 20
215.8147697116
 30
0.0
 11
-4.612100762780430E-16
 21
7.250000000000003
 31
0.0
210
0.0
220
0.0
230
1.0
 40
0.2588190451
 41
0.0
 42
6.283185307179586
  0
ELLIPSE
  5
2C6
330
29B
100
AcDbEntity
  8
52_164-325_TA-MO
  6
Continuous
 62
     7
100
AcDbEllipse
 10
331.2958961854
 20
227.8147697116
 30
0.0
 11
-9.542277440235365E-16
 21
15.0
 31
0.0
210
0.0
220
0.0
230
1.0
 40
0.3420201433
 41
4.337182252696326
 42
5.415615699921539
  0
ELLIPSE
  5
2C7
330
29B
100
AcDbEntity
  8
52_164-325_TA-MO
  6
Continuous
 62
     7
100
AcDbEllipse
 10
305.8302261621
 20
227.8147697116
 30
0.0
 11
-8.747087653549083E-16
 21
13.74999999999999
 31
0.0
210
0.0
220
0.0
230
1.0
 40
0.3420201433
 41
4.258126176400566
 42
4.810214320650481
  0
ELLIPSE
  5
2C8
330
29B
100
AcDbEntity
  8
52_164-325_TA-MO
  6
Continuous
 62
     7
100
AcDbEllipse
 10
307.8647203654
 20
227.8147697116
 30
0.0
 11
-6.361518293490247E-16
 21
10.0
 31
0.0
210
0.0
220
0.0
230
1.0
 40
0.3420201433
 41
4.064693762849421
 42
4.984448906384621
  0
ELLIPSE
  5
2C9
330
29B
100
AcDbEntity
  8
52_164-325_TA-MO
  6
Continuous
 62
     7
100
AcDbEllipse
 10
326.5974330814
 20
227.8147697116
 30
0.0
 11
-6.361518293490245E-16
 21
10.0
 31
0.0
210
0.0
220
0.0
230
1.0
 40
0.3420201433
 41
4.217424948667795
 42
5.207353012101581
  0
ELLIPSE
  5
2CA
330
29B
100
AcDbEntity
  8
52_164-325_TA-MO
  6
Continuous
 62
     7
100
AcDbEllipse
 10
326.5974330814
 20
227.8147697116
 30
0.0
 11
-9.542277440235365E-16
 21
15.0
 31
0.0
210
0.0
220
0.0
230
1.0
 40
0.3420201433
 41
4.390175748386451
 42
5.034602212382927
  0
LINE
  5
2CB
330
29B
100
AcDbEntity
  8
52_164-325_TA-MO
  6
Continuous
 62
     7
100
AcDbLine
 10
342.8928773516
 20
225.6599920888
 30
0.0
 11
343.1906330674
 21
225.4269339235
 31
0.0
  0
LINE
  5
2CC
330
29B
100
AcDbEntity
  8
52_164-325_TA-MO
  6
Continuous
 62
     7
100
AcDbLine
 10
341.5654354362
 20
220.5995487016
 30
0.0
 11
341.7196166253
 21
219.8191590441
 31
0.0
  0
ELLIPSE
  5
2CD
330
29B
100
AcDbEntity
  8
52_164-325_TA-MO
  6
Continuous
 62
     7
100
AcDbEllipse
 10
334.447339342
 20
227.8147697116
 30
0.0
 11
-4.643556202293975E-13
 21
-8.649999999998302
 31
0.0
210
0.0
220
0.0
230
1.0
 40
0.3420201433
 41
0.7363767207998715
 42
0.9847504507903228
  0
ELLIPSE
  5
2CE
330
29B
100
AcDbEntity
  8
52_164-325_TA-MO
  6
Continuous
 62
     7
100
AcDbEllipse
 10
334.447339342
 20
227.8147697116
 30
0.0
 11
2.136695304410858E-14
 21
-8.649999999999885
 31
0.0
210
0.0
220
0.0
230
1.0
 40
0.3420201433
 41
1.309225122257971
 42
1.832823897856275
  0
LINE
  5
2CF
330
29B
100
AcDbEntity
  8
52_164-325_TA-MO
  6
Continuous
 62
     7
100
AcDbLine
 10
337.3048312202
 20
230.0554609236
 30
0.0
 11
336.3553757848
 21
230.2985692241
 31
0.0
  0
ELLIPSE
  5
2D0
330
29B
100
AcDbEntity
  8
52_164-325_TA-MO
  6
Continuous
 62
     7
100
AcDbEllipse
 10
334.447339342
 20
227.8147697116
 30
0.0
 11
6.189977380277813E-14
 21
8.650000000000214
 31
0.0
210
0.0
220
0.0
230
1.0
 40
0.3420201433
 41
-0.9842249708849033
 42
-0.5233705923360654
  0
LINE
  5
2D1
330
29B
100
AcDbEntity
  8
52_164-325_TA-MO
  6
Continuous
 62
     7
100
AcDbLine
 10
335.9259917919
 20
235.306876152
 30
0.0
 11
335.7082050217
 21
235.4679531874
 31
0.0
  0
ELLIPSE
  5
2D2
330
29B
100
AcDbEntity
  8
52_164-325_TA-MO
  6
Continuous
 62
     7
100
AcDbEllipse
 10
340.1399278777
 20
227.8147697116
 30
0.0
 11
-2.284534242012309E-13
 21
-8.332517541450384
 31
0.0
210
0.0
220
0.0
230
1.0
 40
0.3420201433
 41
0.5238269588605531
 42
0.9823112504851914
  0
ELLIPSE
  5
2D3
330
29B
100
AcDbEntity
  8
52_164-325_TA-MO
  6
Continuous
 62
     7
100
AcDbEllipse
 10
340.1399278777
 20
227.8147697116
 30
0.0
 11
2.492701059129524E-13
 21
8.332517541452072
 31
0.0
210
0.0
220
0.0
230
1.0
 40
0.3420201433
 41
-0.9817829652220658
 42
-0.5233705923360459
  0
LINE
  5
2D4
330
29B
100
AcDbEntity
  8
52_164-325_TA-MO
  6
Continuous
 62
     7
100
AcDbLine
 10
341.5643090889
 20
235.0318920627
 30
0.0
 11
335.9259917919
 21
235.306876152
 31
0.0
  0
ELLIPSE
  5
2D5
330
29B
100
AcDbEntity
  8
52_164-325_TA-MO
  6
Continuous
 62
     7
100
AcDbEllipse
 10
340.1399278777
 20
227.8147697116
 30
0.0
 11
-3.416439489182841E-14
 21
-8.33251754145166
 31
0.0
210
0.0
220
0.0
230
1.0
 40
0.3420201433
 41
1.309225122257994
 42
1.832823897856259
  0
LINE
  5
2D6
330
29B
100
AcDbEntity
  8
52_164-325_TA-MO
  6
Continuous
 62
     7
100
AcDbLine
 10
342.8925407331
 20
229.9732204433
 30
0.0
 11
337.3048312202
 21
230.0554609236
 31
0.0
  0
ELLIPSE
  5
2D7
330
29B
100
AcDbEntity
  8
52_164-325_TA-MO
  6
Continuous
 62
     7
100
AcDbEllipse
 10
340.1399278777
 20
227.8147697117
 30
0.0
 11
-1.638166368186292E-12
 21
9.233752652842119
 31
0.0
210
0.0
220
0.0
230
1.0
 40
0.3420201433
 41
-1.308768755733904
 42
-1.04696936793458
  0
LINE
  5
2D8
330
29B
100
AcDbEntity
  8
52_164-325_TA-MO
  6
Continuous
 62
     7
100
AcDbLine
 10
342.8745877842
 20
232.4334706228
 30
0.0
 11
336.1553597856
 21
232.6240623868
 31
0.0
  0
LINE
  5
2D9
330
29B
100
AcDbEntity
  8
52_164-325_TA-MO
  6
Continuous
 62
     7
100
AcDbLine
 10
342.8925407331
 20
229.9732204433
 30
0.0
 11
343.1902600407
 21
230.2066758877
 31
0.0
  0
LINE
  5
2DA
330
29B
100
AcDbEntity
  8
52_164-325_TA-MO
  6
Continuous
 62
     7
100
AcDbLine
 10
343.1902600407
 20
230.2066758877
 30
0.0
 11
336.3548746637
 21
230.307279789
 31
0.0
  0
ELLIPSE
  5
2DB
330
29B
100
AcDbEntity
  8
52_164-325_TA-MO
  6
Continuous
 62
     7
100
AcDbEllipse
 10
340.1399278777
 20
227.8147697117
 30
0.0
 11
-5.279433435611358E-13
 21
9.233752652845741
 31
0.0
210
0.0
220
0.0
230
1.0
 40
0.3420201433
 41
-0.523370592336196
 42
-0.2615712045369962
  0
LINE
  5
2DC
330
29B
100
AcDbEntity
  8
52_164-325_TA-MO
  6
Continuous
 62
     7
100
AcDbLine
 10
340.9566158162
 20
236.734434969
 30
0.0
 11
335.341634025
 21
237.0384367819
 31
0.0
  0
LINE
  5
2DD
330
29B
100
AcDbEntity
  8
52_164-325_TA-MO
  6
Continuous
 62
     7
100
AcDbLine
 10
341.5643090889
 20
235.0318920627
 30
0.0
 11
341.7183684536
 21
235.812487367
 31
0.0
  0
LINE
  5
2DE
330
29B
100
AcDbEntity
  8
52_164-325_TA-MO
  6
Continuous
 62
     7
100
AcDbLine
 10
341.7183684536
 20
235.812487367
 30
0.0
 11
335.569780142
 21
236.1123576773
 31
0.0
  0
ELLIPSE
  5
2DF
330
29B
100
AcDbEntity
  8
52_164-325_TA-MO
  6
Continuous
 62
     7
100
AcDbEllipse
 10
340.1399278777
 20
227.8147697117
 30
0.0
 11
7.499879484861677E-13
 21
-9.233752652855546
 31
0.0
210
0.0
220
0.0
230
1.0
 40
0.3420201433
 41
0.2620275710612603
 42
0.5238269588603152
  0
LINE
  5
2E0
330
29B
100
AcDbEntity
  8
52_164-325_TA-MO
  6
Continuous
 62
     7
100
AcDbLine
 10
341.7196166253
 20
219.8191590441
 30
0.0
 11
336.843055441
 21
219.5813871006
 31
0.0
  0
LINE
  5
2E1
330
29B
100
AcDbEntity
  8
52_164-325_TA-MO
  6
Continuous
 62
     7
100
AcDbLine
 10
340.9580079709
 20
218.8961951115
 30
0.0
 11
336.9634219306
 21
218.6799480751
 31
0.0
  0
LINE
  5
2E2
330
29B
100
AcDbEntity
  8
52_164-325_TA-MO
  6
Continuous
 62
     7
100
AcDbLine
 10
341.5654354362
 20
220.5995487016
 30
0.0
 11
336.7011276439
 21
220.3623742105
 31
0.0
  0
ELLIPSE
  5
2E3
330
29B
100
AcDbEntity
  8
52_164-325_TA-MO
  6
Continuous
 62
     7
100
AcDbEllipse
 10
340.1399278777
 20
227.8147697116
 30
0.0
 11
-1.727197175208714E-12
 21
-9.233752652842018
 31
0.0
210
0.0
220
0.0
230
1.0
 40
0.3420201433
 41
1.047425734459054
 42
1.309225122258383
  0
LINE
  5
2E4
330
29B
100
AcDbEntity
  8
52_164-325_TA-MO
  6
Continuous
 62
     7
100
AcDbLine
 10
343.1906330674
 20
225.4269339235
 30
0.0
 11
336.3551187866
 21
225.3264990987
 31
0.0
  0
LINE
  5
2E5
330
29B
100
AcDbEntity
  8
52_164-325_TA-MO
  6
Continuous
 62
     7
100
AcDbLine
 10
342.8753084165
 20
223.1997182104
 30
0.0
 11
336.1557984968
 21
223.0092682069
 31
0.0
  0
LINE
  5
2E6
330
29B
100
AcDbEntity
  8
52_164-325_TA-MO
  6
Continuous
 62
     7
100
AcDbLine
 10
342.8928773516
 20
225.6599920888
 30
0.0
 11
337.3051806643
 21
225.5778915599
 31
0.0
  0
LINE
  5
2E7
330
29B
100
AcDbEntity
  8
52_164-325_TA-MO
  6
Continuous
 62
     7
100
AcDbLine
 10
337.3051806643
 20
225.5778915599
 30
0.0
 11
336.3556161477
 21
225.3351593895
 31
0.0
  0
ELLIPSE
  5
2E8
330
29B
100
AcDbEntity
  8
52_164-325_TA-MO
  6
Continuous
 62
     7
100
AcDbEllipse
 10
346.3309781179
 20
227.8147697116
 30
0.0
 11
-1.272303658698042E-16
 21
1.999999999999989
 31
0.0
210
0.0
220
0.0
230
1.0
 40
0.3420201433
 41
3.141592653589793
 42
6.283185307179586
  0
ELLIPSE
  5
2E9
330
29B
100
AcDbEntity
  8
52_164-325_TA-MO
  6
Continuous
 62
     7
100
AcDbEllipse
 10
223.700048478
 20
227.8147697116
 30
0.0
 11
-1.433511237700438E-15
 21
22.53410540636743
 31
0.0
210
0.0
220
0.0
230
1.0
 40
0.3420201433
 41
0.4584971531629036
 42
2.683095500426893
  0
LINE
  5
2EA
330
29B
100
AcDbEntity
  8
52_164-325_TA-MO
  6
Continuous
 62
     7
100
AcDbLine
 10
308.0860930067
 20
232.455722427
 30
0.0
 11
310.7782242203
 21
229.1577237801
 31
0.0
  0
LINE
  5
2EB
330
29B
100
AcDbEntity
  8
52_164-325_TA-MO
  6
Continuous
 62
     7
100
AcDbLine
 10
310.7782242203
 20
229.1577237801
 30
0.0
 11
312.1073578022
 21
233.8482697116
 31
0.0
  0
LINE
  5
2EC
330
29B
100
AcDbEntity
  8
52_164-325_TA-MO
  6
Continuous
 62
     7
100
AcDbLine
 10
312.3359717689
 20
245.7812697116
 30
0.0
 11
312.2566765674
 21
247.1738169963
 31
0.0
  0
LINE
  5
2ED
330
29B
100
AcDbEntity
  8
52_164-325_TA-MO
  6
Continuous
 62
     7
100
AcDbLine
 10
312.2566765674
 20
247.1738169963
 30
0.0
 11
309.5645453537
 21
250.4718156432
 31
0.0
  0
LINE
  5
2EE
330
29B
100
AcDbEntity
  8
52_164-325_TA-MO
  6
Continuous
 62
     7
100
AcDbLine
 10
309.5645453537
 20
250.4718156432
 30
0.0
 11
307.4792535734
 21
243.1127683586
 31
0.0
  0
LINE
  5
2EF
330
29B
100
AcDbEntity
  8
52_164-325_TA-MO
  6
Continuous
 62
     7
100
AcDbLine
 10
307.4792535734
 20
243.1127683586
 30
0.0
 11
308.0860930067
 21
232.455722427
 31
0.0
  0
ELLIPSE
  5
2F0
330
29B
100
AcDbEntity
  8
52_164-325_TA-MO
  6
Continuous
 62
     7
100
AcDbEllipse
 10
310.1714274714
 20
239.8147697116
 30
0.0
 11
3.849006940934710E-15
 21
-5.966499999999996
 31
0.0
210
0.0
220
0.0
230
1.0
 40
0.2588190451
 41
3.141592653589793
 42
6.283185307179584
  0
LINE
  5
2F1
330
29B
100
AcDbEntity
  8
52_164-325_TA-MO
  6
Continuous
 62
     7
100
AcDbLine
 10
304.3341298852
 20
229.1577237801
 30
0.0
 11
310.7782242203
 21
229.1577237801
 31
0.0
  0
LINE
  5
2F2
330
29B
100
AcDbEntity
  8
52_164-325_TA-MO
  6
Continuous
 62
     7
100
AcDbLine
 10
302.8053780464
 20
232.455722427
 30
0.0
 11
308.0860930067
 21
232.455722427
 31
0.0
  0
LINE
  5
2F3
330
29B
100
AcDbEntity
  8
52_164-325_TA-MO
  6
Continuous
 62
     7
100
AcDbLine
 10
301.0351592382
 20
243.1127683586
 30
0.0
 11
307.4792535734
 21
243.1127683586
 31
0.0
  0
LINE
  5
2F4
330
29B
100
AcDbEntity
  8
52_164-325_TA-MO
  6
Continuous
 62
     7
100
AcDbLine
 10
303.1204510185
 20
250.4718156432
 30
0.0
 11
309.5645453537
 21
250.4718156432
 31
0.0
  0
ELLIPSE
  5
2F5
330
29B
100
AcDbEntity
  8
52_164-325_TA-MO
  6
Continuous
 62
     7
100
AcDbEllipse
 10
333.4295522946
 20
239.8147697116
 30
0.0
 11
-4.612100762780430E-16
 21
7.250000000000003
 31
0.0
210
0.0
220
0.0
230
1.0
 40
0.2588190451
 41
0.0
 42
6.283185307179586
  0
ELLIPSE
  5
2F6
330
29B
100
AcDbEntity
  8
52_164-325_TA-MO
  6
Continuous
 62
     7
100
AcDbEllipse
 10
324.736219858
 20
239.8147697116
 30
0.0
 11
-4.612100762780430E-16
 21
7.250000000000003
 31
0.0
210
0.0
220
0.0
230
1.0
 40
0.2588190451
 41
0.0
 42
3.141592653589793
  0
LINE
  5
2F7
330
29B
100
AcDbEntity
  8
52_164-325_TA-MO
  6
Continuous
 62
     7
100
AcDbLine
 10
260.9473673989
 20
206.5042613311
 30
0.0
 11
269.8939541175
 21
210.0003470893
 31
0.0
  0
LINE
  5
2F8
330
29B
100
AcDbEntity
  8
52_164-325_TA-MO
  6
Continuous
 62
     7
100
AcDbLine
 10
269.8939541175
 20
245.629192334
 30
0.0
 11
260.9473673989
 21
249.1252780922
 31
0.0
  0
LINE
  5
2F9
330
29B
100
AcDbEntity
  8
52_164-325_TA-MO
  6
Continuous
 62
     7
100
AcDbLine
 10
256.5356010108
 20
200.8038628911
 30
0.0
 11
261.8249753312
 21
206.8472069359
 31
0.0
  0
LINE
  5
2FA
330
29B
100
AcDbEntity
  8
52_164-325_TA-MO
  6
Continuous
 62
     7
100
AcDbLine
 10
261.8249753312
 20
248.7823324874
 30
0.0
 11
256.5356010108
 21
254.8256765322
 31
0.0
  0
LINE
  5
2FB
330
29B
100
AcDbEntity
  8
52_164-325_TA-MO
  6
Continuous
 62
     7
100
AcDbLine
 10
241.2715353441
 20
198.8147697116
 30
0.0
 11
252.9255316118
 21
198.8147697116
 31
0.0
  0
LINE
  5
2FC
330
29B
100
AcDbEntity
  8
52_164-325_TA-MO
  6
Continuous
 62
     7
100
AcDbLine
 10
252.9255316118
 20
256.8147697116
 30
0.0
 11
241.2715353441
 21
256.8147697116
 31
0.0
  0
LINE
  5
2FD
330
29B
100
AcDbEntity
  8
52_164-325_TA-MO
  6
Continuous
 62
     7
100
AcDbLine
 10
241.0222241431
 20
197.9957838515
 30
0.0
 11
242.3254385645
 21
198.8147697116
 31
0.0
  0
LINE
  5
2FE
330
29B
100
AcDbEntity
  8
52_164-325_TA-MO
  6
Continuous
 62
     7
100
AcDbLine
 10
242.3254385645
 20
256.8147697116
 30
0.0
 11
241.0222241431
 21
257.6337555718
 31
0.0
  0
LINE
  5
2FF
330
29B
100
AcDbEntity
  8
52_164-325_TA-MO
  6
Continuous
 62
     7
100
AcDbLine
 10
236.5730722401
 20
197.3147697116
 30
0.0
 11
238.8301423
 21
197.3147697116
 31
0.0
  0
LINE
  5
300
330
29B
100
AcDbEntity
  8
52_164-325_TA-MO
  6
Continuous
 62
     7
100
AcDbLine
 10
238.8301423
 20
258.3147697116
 30
0.0
 11
236.5730722401
 21
258.3147697116
 31
0.0
  0
LINE
  5
301
330
29B
100
AcDbEntity
  8
52_164-325_TA-MO
  6
Continuous
 62
     7
100
AcDbLine
 10
236.4315683429
 20
196.5292763502
 30
0.0
 11
237.6814876961
 21
197.3147697116
 31
0.0
  0
LINE
  5
302
330
29B
100
AcDbEntity
  8
52_164-325_TA-MO
  6
Continuous
 62
     7
100
AcDbLine
 10
237.6814876961
 20
258.3147697116
 30
0.0
 11
236.4315683429
 21
259.1002630731
 31
0.0
  0
LINE
  5
303
330
29B
100
AcDbEntity
  8
52_164-325_TA-MO
  6
Continuous
 62
     7
100
AcDbLine
 10
228.7754312576
 20
195.8147697116
 30
0.0
 11
234.1316791961
 21
195.8147697116
 31
0.0
  0
LINE
  5
304
330
29B
100
AcDbEntity
  8
52_164-325_TA-MO
  6
Continuous
 62
     7
100
AcDbLine
 10
234.1316791961
 20
259.8147697116
 30
0.0
 11
228.7754312576
 21
259.8147697116
 31
0.0
  0
LINE
  5
305
330
29B
100
AcDbEntity
  8
52_164-325_TA-MO
  6
Continuous
 62
     7
100
AcDbLine
 10
303.7273331362
 20
251.3147697116
 30
0.0
 11
290.6873344813
 21
251.3147697116
 31
0.0
  0
LINE
  5
306
330
29B
100
AcDbEntity
  8
52_164-325_TA-MO
  6
Continuous
 62
     7
100
AcDbLine
 10
290.2268808567
 20
251.1763259021
 30
0.0
 11
285.4376581842
 21
248.278844587
 31
0.0
  0
LINE
  5
307
330
29B
100
AcDbEntity
  8
52_164-325_TA-MO
  6
Continuous
 62
     7
100
AcDbLine
 10
290.5656632302
 20
206.8147697116
 30
0.0
 11
305.5375135377
 21
206.8147697116
 31
0.0
  0
LINE
  5
308
330
29B
100
AcDbEntity
  8
52_164-325_TA-MO
  6
Continuous
 62
     7
100
AcDbLine
 10
288.5723150578
 20
207.9110784488
 30
0.0
 11
290.2053082196
 21
206.9231170409
 31
0.0
  0
LINE
  5
309
330
29B
100
AcDbEntity
  8
52_164-325_TA-MO
  6
Continuous
 62
     7
100
AcDbLine
 10
287.1823324562
 20
207.8147697116
 30
0.0
 11
288.7315029652
 21
207.8147697116
 31
0.0
  0
LINE
  5
30A
330
29B
100
AcDbEntity
  8
52_164-325_TA-MO
  6
Continuous
 62
     7
100
AcDbLine
 10
325.4804120596
 20
221.7812697116
 30
0.0
 11
305.5375135377
 21
221.7812697116
 31
0.0
  0
LINE
  5
30B
330
29B
100
AcDbEntity
  8
52_164-325_TA-MO
  6
Continuous
 62
     7
100
AcDbLine
 10
305.5375135377
 20
209.8482697116
 30
0.0
 11
325.4804120596
 21
209.8482697116
 31
0.0
  0
LINE
  5
30C
330
29B
100
AcDbEntity
  8
52_164-325_TA-MO
  6
Continuous
 62
     7
100
AcDbLine
 10
326.5464002595
 20
208.5647697116
 30
0.0
 11
335.2397326961
 21
208.5647697116
 31
0.0
  0
LINE
  5
30D
330
29B
100
AcDbEntity
  8
52_164-325_TA-MO
  6
Continuous
 62
     7
100
AcDbLine
 10
335.2397326961
 20
223.0647697116
 30
0.0
 11
326.5464002595
 21
223.0647697116
 31
0.0
  0
LINE
  5
30E
330
29B
100
AcDbEntity
  8
52_164-325_TA-MO
  6
Continuous
 62
     7
100
AcDbLine
 10
342.9065061449
 20
225.8147697116
 30
0.0
 11
346.3309781179
 21
225.8147697116
 31
0.0
  0
LINE
  5
30F
330
29B
100
AcDbEntity
  8
52_164-325_TA-MO
  6
Continuous
 62
     7
100
AcDbLine
 10
346.3309781179
 20
229.8147697116
 30
0.0
 11
342.9065061449
 21
229.8147697116
 31
0.0
  0
LINE
  5
310
330
29B
100
AcDbEntity
  8
52_164-325_TA-MO
  6
Continuous
 62
     7
100
AcDbLine
 10
324.736219858
 20
232.5647697116
 30
0.0
 11
333.4295522946
 21
232.5647697116
 31
0.0
  0
LINE
  5
311
330
29B
100
AcDbEntity
  8
52_164-325_TA-MO
  6
Continuous
 62
     7
100
AcDbLine
 10
333.4295522946
 20
247.0647697116
 30
0.0
 11
324.736219858
 21
247.0647697116
 31
0.0
  0
LINE
  5
312
330
29B
100
AcDbEntity
  8
52_164-325_TA-MO
  6
Continuous
 62
     7
100
AcDbLine
 10
323.6702316582
 20
245.7812697116
 30
0.0
 11
310.1714274714
 21
245.7812697116
 31
0.0
  0
LINE
  5
313
330
29B
100
AcDbEntity
  8
52_164-325_TA-MO
  6
Continuous
 62
     7
100
AcDbLine
 10
310.1714274714
 20
233.8482697116
 30
0.0
 11
323.6702316582
 21
233.8482697116
 31
0.0
  0
ENDBLK
  5
315
330
29B
100
AcDbEntity
  8
0
100
AcDbBlockEnd
  0
ENDSEC
  0
SECTION
  2
ENTITIES
  0
INSERT
  5
41
330
1F
100
AcDbEntity
  8
Default
100
AcDbBlockReference
  2
SE
 10
0.0
 20
0.0
 30
0.0
  0
INSERT
  5
FF
330
1F
100
AcDbEntity
  8
Default
100
AcDbBlockReference
  2
SE1
 10
0.0
 20
0.0
 30
0.0
  0
INSERT
  5
1B9
330
1F
100
AcDbEntity
  8
Default
100
AcDbBlockReference
  2
SE2
 10
0.0
 20
0.0
 30
0.0
  0
INSERT
  5
29C
330
1F
100
AcDbEntity
  8
Default
100
AcDbBlockReference
  2
SE3
 10
0.0
 20
0.0
 30
0.0
  0
ENDSEC
  0
SECTION
  2
OBJECTS
  0
DICTIONARY
  5
C
330
0
100
AcDbDictionary
281
     1
  3
ACAD_GROUP
350
D
  3
ACAD_LAYOUT
350
1A
  3
ACAD_MATERIAL
350
3B
  3
ACAD_MLEADERSTYLE
350
318
  3
ACAD_MLINESTYLE
350
17
  3
ACAD_PLOTSETTINGS
350
19
  3
ACAD_PLOTSTYLENAME
350
E
  3
ACAD_VISUALSTYLE
350
2A
  3
AcDbVariableDictionary
350
316
  0
DICTIONARY
  5
D
102
{ACAD_REACTORS
330
C
102
}
330
C
100
AcDbDictionary
281
     1
  0
DICTIONARY
  5
1A
102
{ACAD_REACTORS
330
C
102
}
330
C
100
AcDbDictionary
281
     1
  3
Layout1
350
1E
  3
Model
350
22
  0
DICTIONARY
  5
3B
102
{ACAD_REACTORS
330
C
102
}
330
C
100
AcDbDictionary
281
     1
  3
ByBlock
350
3D
  3
ByLayer
350
3C
  3
Global
350
3E
  0
DICTIONARY
  5
318
102
{ACAD_REACTORS
330
C
102
}
330
C
100
AcDbDictionary
281
     1
  0
DICTIONARY
  5
17
102
{ACAD_REACTORS
330
C
102
}
330
C
100
AcDbDictionary
281
     1
  3
Standard
350
18
  0
DICTIONARY
  5
19
102
{ACAD_REACTORS
330
C
102
}
330
C
100
AcDbDictionary
281
     1
  0
ACDBDICTIONARYWDFLT
  5
E
102
{ACAD_REACTORS
330
C
102
}
330
C
100
AcDbDictionary
281
     1
  3
Normal
350
F
100
AcDbDictionaryWithDefault
340
F
  0
DICTIONARY
  5
2A
102
{ACAD_REACTORS
330
C
102
}
330
C
100
AcDbDictionary
281
     1
  3
2dWireframe
350
2F
  3
3D Hidden
350
31
  3
3dWireframe
350
30
  3
Basic
350
32
  3
Brighten
350
36
  3
ColorChange
350
3A
  3
Conceptual
350
34
  3
Dim
350
35
  3
Facepattern
350
39
  3
Flat
350
2B
  3
FlatWithEdges
350
2C
  3
Gouraud
350
2D
  3
GouraudWithEdges
350
2E
  3
Linepattern
350
38
  3
Realistic
350
33
  3
Thicken
350
37
  0
DICTIONARY
  5
316
102
{ACAD_REACTORS
330
C
102
}
330
C
100
AcDbDictionary
281
     1
  3
DIMASSOC
350
31B
  3
HIDETEXT
350
31C
  3
PSOLHEIGHT
350
31A
  3
PSOLWIDTH
350
319
  0
LAYOUT
  5
1E
102
{ACAD_REACTORS
330
1A
102
}
330
1A
100
AcDbPlotSettings
  1

  2
none_device
  4

  6

 40
0.0
 41
0.0
 42
0.0
 43
0.0
 44
0.0
 45
0.0
 46
0.0
 47
0.0
 48
0.0
 49
0.0
140
0.0
141
0.0
142
1.0
143
1.0
 70
   688
 72
     0
 73
     0
 74
     5
  7

 75
    16
147
1.0
148
0.0
149
0.0
100
AcDbLayout
  1
Layout1
 70
     1
 71
     1
 10
0.0
 20
0.0
 11
420.0
 21
297.0
 12
0.0
 22
0.0
 32
0.0
 14
0.0
 24
0.0
 34
0.0
 15
420.0
 25
297.0
 35
0.0
146
0.0
 13
0.0
 23
0.0
 33
0.0
 16
1.0
 26
0.0
 36
0.0
 17
0.0
 27
1.0
 37
0.0
 76
     0
330
1B
  0
LAYOUT
  5
22
102
{ACAD_REACTORS
330
1A
102
}
330
1A
100
AcDbPlotSettings
  1

  2
none_device
  4

  6

 40
0.0
 41
0.0
 42
0.0
 43
0.0
 44
0.0
 45
0.0
 46
0.0
 47
0.0
 48
0.0
 49
0.0
140
0.0
141
0.0
142
1.0
143
1.0
 70
  1712
 72
     0
 73
     0
 74
     0
  7

 75
     0
147
1.0
148
0.0
149
0.0
100
AcDbLayout
  1
Model
 70
     1
 71
     0
 10
0.0
 20
0.0
 11
420.0
 21
297.0
 12
0.0
 22
0.0
 32
0.0
 14
0.0
 24
0.0
 34
0.0
 15
420.0
 25
297.0
 35
0.0
146
0.0
 13
0.0
 23
0.0
 33
0.0
 16
1.0
 26
0.0
 36
0.0
 17
0.0
 27
1.0
 37
0.0
 76
     0
330
1F
331
29
  0
MATERIAL
  5
3D
102
{ACAD_REACTORS
330
3B
102
}
102
{ACAD_XDICTIONARY
360
33F
102
}
330
3B
100
AcDbMaterial
  1
ByBlock
  0
MATERIAL
  5
3C
102
{ACAD_REACTORS
330
3B
102
}
102
{ACAD_XDICTIONARY
360
33D
102
}
330
3B
100
AcDbMaterial
  1
ByLayer
  0
MATERIAL
  5
3E
102
{ACAD_REACTORS
330
3B
102
}
102
{ACAD_XDICTIONARY
360
341
102
}
330
3B
100
AcDbMaterial
  1
Global
  0
MLINESTYLE
  5
18
102
{ACAD_REACTORS
330
17
102
}
330
17
100
AcDbMlineStyle
  2
Standard
 70
     0
  3

 62
   256
 51
90.0
 52
90.0
 71
     2
 49
0.5
 62
   256
  6
BYLAYER
 49
-0.5
 62
   256
  6
BYLAYER
  0
ACDBPLACEHOLDER
  5
F
102
{ACAD_REACTORS
330
E
102
}
330
E
  0
VISUALSTYLE
  5
2F
102
{ACAD_REACTORS
330
2A
102
}
102
{ACAD_XDICTIONARY
360
325
102
}
330
2A
100
AcDbVisualStyle
  2
2dWireframe
 70
     4
 71
     0
 72
     2
 73
     0
 90
        0
 40
-0.6
 41
-30.0
 62
     5
 63
     7
 74
     1
 91
        4
 64
     7
 65
   257
 75
     1
175
     1
 42
1.0
 92
        0
 66
   257
 43
1.0
 76
     1
 77
     6
 78
     2
 67
     7
 79
     5
170
     0
171
     0
290
     0
174
     0
 93
        1
 44
0.0
173
     0
291
     0
 45
0.0
1001
ACAD
1000
AcDbSavedByObjectVersion
1070
     0
  0
VISUALSTYLE
  5
31
102
{ACAD_REACTORS
330
2A
102
}
102
{ACAD_XDICTIONARY
360
329
102
}
330
2A
100
AcDbVisualStyle
  2
3D Hidden
 70
     6
 71
     1
 72
     2
 73
     2
 90
        0
 40
-0.6
 41
-30.0
 62
     5
 63
     7
 74
     2
 91
        2
 64
     7
 65
   257
 75
     2
175
     1
 42
40.0
 92
        0
 66
   257
 43
1.0
 76
     1
 77
     6
 78
     2
 67
     7
 79
     3
170
     0
171
     0
290
     0
174
     0
 93
        1
 44
0.0
173
     0
291
     0
 45
0.0
1001
ACAD
1000
AcDbSavedByObjectVersion
1070
     0
  0
VISUALSTYLE
  5
30
102
{ACAD_REACTORS
330
2A
102
}
102
{ACAD_XDICTIONARY
360
327
102
}
330
2A
100
AcDbVisualStyle
  2
3dWireframe
 70
     5
 71
     0
 72
     2
 73
     0
 90
        0
 40
-0.6
 41
-30.0
 62
     5
 63
     7
 74
     1
 91
        4
 64
     7
 65
   257
 75
     1
175
     1
 42
1.0
 92
        0
 66
   257
 43
1.0
 76
     1
 77
     6
 78
     2
 67
     7
 79
     5
170
     0
171
     0
290
     0
174
     0
 93
        1
 44
0.0
173
     0
291
     0
 45
0.0
1001
ACAD
1000
AcDbSavedByObjectVersion
1070
     0
  0
VISUALSTYLE
  5
32
102
{ACAD_REACTORS
330
2A
102
}
102
{ACAD_XDICTIONARY
360
32B
102
}
330
2A
100
AcDbVisualStyle
  2
Basic
 70
     7
 71
     1
 72
     0
 73
     1
 90
        0
 40
-0.6
 41
-30.0
 62
     5
 63
     7
 74
     0
 91
        4
 64
     7
 65
   257
 75
     1
175
     1
 42
1.0
 92
        8
 66
     7
 43
1.0
 76
     1
 77
     6
 78
     2
 67
     7
 79
     5
170
     0
171
     0
290
     0
174
     0
 93
        1
 44
0.0
173
     0
291
     1
 45
0.0
1001
ACAD
1000
AcDbSavedByObjectVersion
1070
     0
  0
VISUALSTYLE
  5
36
102
{ACAD_REACTORS
330
2A
102
}
102
{ACAD_XDICTIONARY
360
333
102
}
330
2A
100
AcDbVisualStyle
  2
Brighten
 70
    12
 71
     2
 72
     2
 73
     0
 90
        0
 40
-0.6
 41
-30.0
 62
     5
 63
     7
 74
     1
 91
        4
 64
     7
 65
   257
 75
     1
175
     1
 42
1.0
 92
        8
 66
     7
 43
1.0
 76
     1
 77
     6
 78
     2
 67
     7
 79
     5
170
     0
171
     0
290
     0
174
     0
 93
        1
 44
50.0
173
     0
291
     1
 45
0.0
1001
ACAD
1000
AcDbSavedByObjectVersion
1070
     0
  0
VISUALSTYLE
  5
3A
102
{ACAD_REACTORS
330
2A
102
}
102
{ACAD_XDICTIONARY
360
33B
102
}
330
2A
100
AcDbVisualStyle
  2
ColorChange
 70
    16
 71
     2
 72
     2
 73
     3
 90
        0
 40
-0.6
 41
-30.0
 62
     5
 63
     8
 74
     1
 91
        4
 64
     7
 65
   257
 75
     1
175
     1
 42
1.0
 92
        8
 66
     8
 43
1.0
 76
     1
 77
     6
 78
     2
 67
     7
 79
     5
170
     0
171
     0
290
     0
174
     0
 93
        1
 44
0.0
173
     0
291
     1
 45
0.0
1001
ACAD
1000
AcDbSavedByObjectVersion
1070
     0
  0
VISUALSTYLE
  5
34
102
{ACAD_REACTORS
330
2A
102
}
102
{ACAD_XDICTIONARY
360
32F
102
}
330
2A
100
AcDbVisualStyle
  2
Conceptual
 70
     9
 71
     3
 72
     2
 73
     0
 90
        0
 40
-0.6
 41
-30.0
 62
     5
 63
     7
 74
     2
 91
        2
 64
     7
 65
   257
 75
     1
175
     1
 42
40.0
 92
        8
 66
     7
 43
1.0
 76
     1
 77
     6
 78
     2
 67
     7
 79
     3
170
     0
171
     0
290
     0
174
     0
 93
        1
 44
0.0
173
     0
291
     0
 45
0.0
1001
ACAD
1000
AcDbSavedByObjectVersion
1070
     0
  0
VISUALSTYLE
  5
35
102
{ACAD_REACTORS
330
2A
102
}
102
{ACAD_XDICTIONARY
360
331
102
}
330
2A
100
AcDbVisualStyle
  2
Dim
 70
    11
 71
     2
 72
     2
 73
     0
 90
        0
 40
-0.6
 41
-30.0
 62
     5
 63
     7
 74
     1
 91
        4
 64
     7
 65
   257
 75
     1
175
     1
 42
1.0
 92
        8
 66
     7
 43
1.0
 76
     1
 77
     6
 78
     2
 67
     7
 79
     5
170
     0
171
     0
290
     0
174
     0
 93
        1
 44
-50.0
173
     0
291
     1
 45
0.0
1001
ACAD
1000
AcDbSavedByObjectVersion
1070
     0
  0
VISUALSTYLE
  5
39
102
{ACAD_REACTORS
330
2A
102
}
102
{ACAD_XDICTIONARY
360
339
102
}
330
2A
100
AcDbVisualStyle
  2
Facepattern
 70
    15
 71
     2
 72
     2
 73
     0
 90
        0
 40
-0.6
 41
-30.0
 62
     5
 63
     7
 74
     1
 91
        4
 64
     7
 65
   257
 75
     1
175
     1
 42
1.0
 92
        8
 66
     7
 43
1.0
 76
     1
 77
     6
 78
     2
 67
     7
 79
     5
170
     0
171
     0
290
     0
174
     0
 93
        1
 44
0.0
173
     0
291
     1
 45
0.0
1001
ACAD
1000
AcDbSavedByObjectVersion
1070
     0
  0
VISUALSTYLE
  5
2B
102
{ACAD_REACTORS
330
2A
102
}
102
{ACAD_XDICTIONARY
360
31D
102
}
330
2A
100
AcDbVisualStyle
  2
Flat
 70
     0
 71
     2
 72
     1
 73
     1
 90
        2
 40
-0.6
 41
30.0
 62
     5
 63
     7
 74
     0
 91
        4
 64
     7
 65
   257
 75
     1
175
     1
 42
1.0
 92
        8
 66
     7
 43
1.0
 76
     1
 77
     6
 78
     2
 67
     7
 79
     5
170
     0
171
     0
290
     0
174
     0
 93
       13
 44
0.0
173
     0
291
     1
 45
0.0
1001
ACAD
1000
AcDbSavedByObjectVersion
1070
     0
  0
VISUALSTYLE
  5
2C
102
{ACAD_REACTORS
330
2A
102
}
102
{ACAD_XDICTIONARY
360
31F
102
}
330
2A
100
AcDbVisualStyle
  2
FlatWithEdges
 70
     1
 71
     2
 72
     1
 73
     1
 90
        2
 40
-0.6
 41
30.0
 62
     5
 63
     7
 74
     1
 91
        4
 64
     7
 65
   257
 75
     1
175
     1
 42
1.0
 92
        0
 66
   257
 43
1.0
 76
     1
 77
     6
 78
     2
 67
     7
 79
     5
170
     0
171
     0
290
     0
174
     0
 93
       13
 44
0.0
173
     0
291
     1
 45
0.0
1001
ACAD
1000
AcDbSavedByObjectVersion
1070
     0
  0
VISUALSTYLE
  5
2D
102
{ACAD_REACTORS
330
2A
102
}
102
{ACAD_XDICTIONARY
360
321
102
}
330
2A
100
AcDbVisualStyle
  2
Gouraud
 70
     2
 71
     2
 72
     2
 73
     1
 90
        2
 40
-0.6
 41
30.0
 62
     5
 63
     7
 74
     0
 91
        4
 64
     7
 65
   257
 75
     1
175
     1
 42
1.0
 92
        0
 66
     7
 43
1.0
 76
     1
 77
     6
 78
     2
 67
     7
 79
     5
170
     0
171
     0
290
     0
174
     0
 93
       13
 44
0.0
173
     0
291
     1
 45
0.0
1001
ACAD
1000
AcDbSavedByObjectVersion
1070
     0
  0
VISUALSTYLE
  5
2E
102
{ACAD_REACTORS
330
2A
102
}
102
{ACAD_XDICTIONARY
360
323
102
}
330
2A
100
AcDbVisualStyle
  2
GouraudWithEdges
 70
     3
 71
     2
 72
     2
 73
     1
 90
        2
 40
-0.6
 41
30.0
 62
     5
 63
     7
 74
     1
 91
        4
 64
     7
 65
   257
 75
     1
175
     1
 42
1.0
 92
        0
 66
   257
 43
1.0
 76
     1
 77
     6
 78
     2
 67
     7
 79
     5
170
     0
171
     0
290
     0
174
     0
 93
       13
 44
0.0
173
     0
291
     1
 45
0.0
1001
ACAD
1000
AcDbSavedByObjectVersion
1070
     0
  0
VISUALSTYLE
  5
38
102
{ACAD_REACTORS
330
2A
102
}
102
{ACAD_XDICTIONARY
360
337
102
}
330
2A
100
AcDbVisualStyle
  2
Linepattern
 70
    14
 71
     2
 72
     2
 73
     0
 90
        0
 40
-0.6
 41
-30.0
 62
     5
 63
     7
 74
     1
 91
        4
 64
     7
 65
   257
 75
     7
175
     7
 42
1.0
 92
        8
 66
     7
 43
1.0
 76
     1
 77
     6
 78
     2
 67
     7
 79
     5
170
     0
171
     0
290
     0
174
     0
 93
        1
 44
0.0
173
     0
291
     1
 45
0.0
1001
ACAD
1000
AcDbSavedByObjectVersion
1070
     0
  0
VISUALSTYLE
  5
33
102
{ACAD_REACTORS
330
2A
102
}
102
{ACAD_XDICTIONARY
360
32D
102
}
330
2A
100
AcDbVisualStyle
  2
Realistic
 70
     8
 71
     2
 72
     2
 73
     0
 90
        0
 40
-0.6
 41
-30.0
 62
     5
 63
     7
 74
     1
 91
        0
 64
     7
 65
   257
 75
     1
175
     1
 42
1.0
 92
        8
 66
     8
 43
1.0
 76
     1
 77
     6
 78
     2
 67
     7
 79
     5
170
     0
171
     0
290
     0
174
     0
 93
       13
 44
0.0
173
     0
291
     0
 45
0.0
1001
ACAD
1000
AcDbSavedByObjectVersion
1070
     0
  0
VISUALSTYLE
  5
37
102
{ACAD_REACTORS
330
2A
102
}
102
{ACAD_XDICTIONARY
360
335
102
}
330
2A
100
AcDbVisualStyle
  2
Thicken
 70
    13
 71
     2
 72
     2
 73
     0
 90
        0
 40
-0.6
 41
-30.0
 62
     5
 63
     7
 74
     1
 91
        4
 64
     7
 65
   257
 75
     1
175
     1
 42
1.0
 92
       12
 66
     7
 43
1.0
 76
     1
 77
     6
 78
     2
 67
     7
 79
     5
170
     0
171
     0
290
     0
174
     0
 93
        1
 44
0.0
173
     0
291
     1
 45
0.0
1001
ACAD
1000
AcDbSavedByObjectVersion
1070
     0
  0
DICTIONARYVAR
  5
31B
102
{ACAD_REACTORS
330
316
102
}
330
316
100
DictionaryVariables
280
     0
  1
2
  0
DICTIONARYVAR
  5
31C
102
{ACAD_REACTORS
330
316
102
}
330
316
100
DictionaryVariables
280
     0
  1
1
  0
DICTIONARYVAR
  5
31A
102
{ACAD_REACTORS
330
316
102
}
330
316
100
DictionaryVariables
280
     0
  1
80.000000
  0
DICTIONARYVAR
  5
319
102
{ACAD_REACTORS
330
316
102
}
330
316
100
DictionaryVariables
280
     0
  1
5.000000
  0
DICTIONARY
  5
33F
330
3D
100
AcDbDictionary
280
     1
281
     1
  3
ACAD_XREC_ROUNDTRIP
360
340
  0
DICTIONARY
  5
33D
330
3C
100
AcDbDictionary
280
     1
281
     1
  3
ACAD_XREC_ROUNDTRIP
360
33E
  0
DICTIONARY
  5
341
330
3E
100
AcDbDictionary
280
     1
281
     1
  3
ACAD_XREC_ROUNDTRIP
360
342
  0
DICTIONARY
  5
325
330
2F
100
AcDbDictionary
280
     1
281
     1
  3
ACAD_XREC_ROUNDTRIP
360
326
  0
DICTIONARY
  5
329
330
31
100
AcDbDictionary
280
     1
281
     1
  3
ACAD_XREC_ROUNDTRIP
360
32A
  0
DICTIONARY
  5
327
330
30
100
AcDbDictionary
280
     1
281
     1
  3
ACAD_XREC_ROUNDTRIP
360
328
  0
DICTIONARY
  5
32B
330
32
100
AcDbDictionary
280
     1
281
     1
  3
ACAD_XREC_ROUNDTRIP
360
32C
  0
DICTIONARY
  5
333
330
36
100
AcDbDictionary
280
     1
281
     1
  3
ACAD_XREC_ROUNDTRIP
360
334
  0
DICTIONARY
  5
33B
330
3A
100
AcDbDictionary
280
     1
281
     1
  3
ACAD_XREC_ROUNDTRIP
360
33C
  0
DICTIONARY
  5
32F
330
34
100
AcDbDictionary
280
     1
281
     1
  3
ACAD_XREC_ROUNDTRIP
360
330
  0
DICTIONARY
  5
331
330
35
100
AcDbDictionary
280
     1
281
     1
  3
ACAD_XREC_ROUNDTRIP
360
332
  0
DICTIONARY
  5
339
330
39
100
AcDbDictionary
280
     1
281
     1
  3
ACAD_XREC_ROUNDTRIP
360
33A
  0
DICTIONARY
  5
31D
330
2B
100
AcDbDictionary
280
     1
281
     1
  3
ACAD_XREC_ROUNDTRIP
360
31E
  0
DICTIONARY
  5
31F
330
2C
100
AcDbDictionary
280
     1
281
     1
  3
ACAD_XREC_ROUNDTRIP
360
320
  0
DICTIONARY
  5
321
330
2D
100
AcDbDictionary
280
     1
281
     1
  3
ACAD_XREC_ROUNDTRIP
360
322
  0
DICTIONARY
  5
323
330
2E
100
AcDbDictionary
280
     1
281
     1
  3
ACAD_XREC_ROUNDTRIP
360
324
  0
DICTIONARY
  5
337
330
38
100
AcDbDictionary
280
     1
281
     1
  3
ACAD_XREC_ROUNDTRIP
360
338
  0
DICTIONARY
  5
32D
330
33
100
AcDbDictionary
280
     1
281
     1
  3
ACAD_XREC_ROUNDTRIP
360
32E
  0
DICTIONARY
  5
335
330
37
100
AcDbDictionary
280
     1
281
     1
  3
ACAD_XREC_ROUNDTRIP
360
336
  0
XRECORD
  5
340
102
{ACAD_REACTORS
330
33F
102
}
330
33F
100
AcDbXrecord
280
     1
102
MATERIAL
148
0.0
149
0.0
149
0.0
 93
        0
 94
      127
282
     0
 72
     1
 77
     1
171
     1
175
     1
179
     1
273
     0
  0
XRECORD
  5
33E
102
{ACAD_REACTORS
330
33D
102
}
330
33D
100
AcDbXrecord
280
     1
102
MATERIAL
148
0.0
149
0.0
149
0.0
 93
        0
 94
      127
282
     0
 72
     1
 77
     1
171
     1
175
     1
179
     1
273
     0
  0
XRECORD
  5
342
102
{ACAD_REACTORS
330
341
102
}
330
341
100
AcDbXrecord
280
     1
102
MATERIAL
148
0.0
149
0.0
149
0.0
 93
        0
 94
      127
282
     0
 72
     1
 77
     1
171
     1
175
     1
179
     1
273
     0
  0
XRECORD
  5
326
102
{ACAD_REACTORS
330
325
102
}
330
325
100
AcDbXrecord
280
     1
102
RTVSPropertyOp0
 70
     1
102
RTVSPropertyOp1
 70
     1
102
RTVSPropertyOp2
 70
     1
102
RTVSPropertyOp3
 70
     1
102
RTVSPropertyOp4
 70
     1
102
RTVSPropertyOp5
 70
     1
102
RTVSPropertyOp6
 70
     1
102
RTVSPropertyOp7
 70
     1
102
RTVSPropertyOp8
 70
     1
102
RTVSPropertyOp9
 70
     1
102
RTVSPropertyOp10
 70
     1
102
RTVSPropertyOp11
 70
     1
102
RTVSPropertyOp12
 70
     1
102
RTVSPropertyOp13
 70
     1
102
RTVSPropertyOp14
 70
     1
102
RTVSPropertyOp15
 70
     1
102
RTVSPropertyOp16
 70
     1
102
RTVSPropertyOp17
 70
     1
102
RTVSPropertyOp18
 70
     1
102
RTVSPropertyOp19
 70
     1
102
RTVSPropertyOp20
 70
     1
102
RTVSPropertyOp21
 70
     1
102
RTVSPropertyOp22
 70
     1
102
RTVSPropertyOp23
 70
     1
102
RTVSPropertyOp24
 70
     1
102
RTVSPropertyOp25
 70
     1
102
RTVSPropertyOp26
 70
     1
102
RTVSPropertyOp27
 70
     1
102
RTVSPropertyOp28
 70
     1
102
RTVSPropertyOp29
 70
     1
102
RTVSPropertyOp30
 70
     1
102
RTVSPropertyOp31
 70
     1
102
RTVSPropertyOp32
 70
     1
  0
XRECORD
  5
32A
102
{ACAD_REACTORS
330
329
102
}
330
329
100
AcDbXrecord
280
     1
102
RTVSPropertyOp0
 70
     1
102
RTVSPropertyOp1
 70
     1
102
RTVSPropertyOp2
 70
     1
102
RTVSPropertyOp3
 70
     1
102
RTVSPropertyOp4
 70
     1
102
RTVSPropertyOp5
 70
     1
102
RTVSPropertyOp6
 70
     1
102
RTVSPropertyOp7
 70
     1
102
RTVSPropertyOp8
 70
     1
102
RTVSPropertyOp9
 70
     1
102
RTVSPropertyOp10
 70
     1
102
RTVSPropertyOp11
 70
     1
102
RTVSPropertyOp12
 70
     1
102
RTVSPropertyOp13
 70
     1
102
RTVSPropertyOp14
 70
     1
102
RTVSPropertyOp15
 70
     1
102
RTVSPropertyOp16
 70
     1
102
RTVSPropertyOp17
 70
     1
102
RTVSPropertyOp18
 70
     1
102
RTVSPropertyOp19
 70
     1
102
RTVSPropertyOp20
 70
     1
102
RTVSPropertyOp21
 70
     1
102
RTVSPropertyOp22
 70
     1
102
RTVSPropertyOp23
 70
     1
102
RTVSPropertyOp24
 70
     1
102
RTVSPropertyOp25
 70
     1
102
RTVSPropertyOp26
 70
     1
102
RTVSPropertyOp27
 70
     1
102
RTVSPropertyOp28
 70
     1
102
RTVSPropertyOp29
 70
     1
102
RTVSPropertyOp30
 70
     1
102
RTVSPropertyOp31
 70
     1
102
RTVSPropertyOp32
 70
     1
  0
XRECORD
  5
328
102
{ACAD_REACTORS
330
327
102
}
330
327
100
AcDbXrecord
280
     1
102
RTVSPropertyOp0
 70
     1
102
RTVSPropertyOp1
 70
     1
102
RTVSPropertyOp2
 70
     1
102
RTVSPropertyOp3
 70
     1
102
RTVSPropertyOp4
 70
     1
102
RTVSPropertyOp5
 70
     1
102
RTVSPropertyOp6
 70
     1
102
RTVSPropertyOp7
 70
     1
102
RTVSPropertyOp8
 70
     1
102
RTVSPropertyOp9
 70
     1
102
RTVSPropertyOp10
 70
     1
102
RTVSPropertyOp11
 70
     1
102
RTVSPropertyOp12
 70
     1
102
RTVSPropertyOp13
 70
     1
102
RTVSPropertyOp14
 70
     1
102
RTVSPropertyOp15
 70
     1
102
RTVSPropertyOp16
 70
     1
102
RTVSPropertyOp17
 70
     1
102
RTVSPropertyOp18
 70
     1
102
RTVSPropertyOp19
 70
     1
102
RTVSPropertyOp20
 70
     1
102
RTVSPropertyOp21
 70
     1
102
RTVSPropertyOp22
 70
     1
102
RTVSPropertyOp23
 70
     1
102
RTVSPropertyOp24
 70
     1
102
RTVSPropertyOp25
 70
     1
102
RTVSPropertyOp26
 70
     1
102
RTVSPropertyOp27
 70
     1
102
RTVSPropertyOp28
 70
     1
102
RTVSPropertyOp29
 70
     1
102
RTVSPropertyOp30
 70
     1
102
RTVSPropertyOp31
 70
     1
102
RTVSPropertyOp32
 70
     1
  0
XRECORD
  5
32C
102
{ACAD_REACTORS
330
32B
102
}
330
32B
100
AcDbXrecord
280
     1
102
RTVSPropertyOp0
 70
     1
102
RTVSPropertyOp1
 70
     1
102
RTVSPropertyOp2
 70
     1
102
RTVSPropertyOp3
 70
     1
102
RTVSPropertyOp4
 70
     1
102
RTVSPropertyOp5
 70
     1
102
RTVSPropertyOp6
 70
     1
102
RTVSPropertyOp7
 70
     1
102
RTVSPropertyOp8
 70
     1
102
RTVSPropertyOp9
 70
     1
102
RTVSPropertyOp10
 70
     1
102
RTVSPropertyOp11
 70
     1
102
RTVSPropertyOp12
 70
     1
102
RTVSPropertyOp13
 70
     1
102
RTVSPropertyOp14
 70
     1
102
RTVSPropertyOp15
 70
     1
102
RTVSPropertyOp16
 70
     1
102
RTVSPropertyOp17
 70
     1
102
RTVSPropertyOp18
 70
     1
102
RTVSPropertyOp19
 70
     1
102
RTVSPropertyOp20
 70
     1
102
RTVSPropertyOp21
 70
     1
102
RTVSPropertyOp22
 70
     1
102
RTVSPropertyOp23
 70
     1
102
RTVSPropertyOp24
 70
     1
102
RTVSPropertyOp25
 70
     1
102
RTVSPropertyOp26
 70
     1
102
RTVSPropertyOp27
 70
     1
102
RTVSPropertyOp28
 70
     1
102
RTVSPropertyOp29
 70
     1
102
RTVSPropertyOp30
 70
     1
102
RTVSPropertyOp31
 70
     1
102
RTVSPropertyOp32
 70
     1
  0
XRECORD
  5
334
102
{ACAD_REACTORS
330
333
102
}
330
333
100
AcDbXrecord
280
     1
102
RTVSPropertyOp0
 70
     1
102
RTVSPropertyOp1
 70
     1
102
RTVSPropertyOp2
 70
     1
102
RTVSPropertyOp3
 70
     1
102
RTVSPropertyOp4
 70
     1
102
RTVSPropertyOp5
 70
     1
102
RTVSPropertyOp6
 70
     1
102
RTVSPropertyOp7
 70
     1
102
RTVSPropertyOp8
 70
     1
102
RTVSPropertyOp9
 70
     1
102
RTVSPropertyOp10
 70
     1
102
RTVSPropertyOp11
 70
     1
102
RTVSPropertyOp12
 70
     1
102
RTVSPropertyOp13
 70
     1
102
RTVSPropertyOp14
 70
     1
102
RTVSPropertyOp15
 70
     1
102
RTVSPropertyOp16
 70
     1
102
RTVSPropertyOp17
 70
     1
102
RTVSPropertyOp18
 70
     1
102
RTVSPropertyOp19
 70
     1
102
RTVSPropertyOp20
 70
     1
102
RTVSPropertyOp21
 70
     1
102
RTVSPropertyOp22
 70
     1
102
RTVSPropertyOp23
 70
     1
102
RTVSPropertyOp24
 70
     1
102
RTVSPropertyOp25
 70
     1
102
RTVSPropertyOp26
 70
     1
102
RTVSPropertyOp27
 70
     1
102
RTVSPropertyOp28
 70
     1
102
RTVSPropertyOp29
 70
     1
102
RTVSPropertyOp30
 70
     1
102
RTVSPropertyOp31
 70
     1
102
RTVSPropertyOp32
 70
     1
  0
XRECORD
  5
33C
102
{ACAD_REACTORS
330
33B
102
}
330
33B
100
AcDbXrecord
280
     1
102
RTVSPropertyOp0
 70
     1
102
RTVSPropertyOp1
 70
     1
102
RTVSPropertyOp2
 70
     1
102
RTVSPropertyOp3
 70
     1
102
RTVSPropertyOp4
 70
     1
102
RTVSPropertyOp5
 70
     1
102
RTVSPropertyOp6
 70
     1
102
RTVSPropertyOp7
 70
     1
102
RTVSPropertyOp8
 70
     1
102
RTVSPropertyOp9
 70
     1
102
RTVSPropertyOp10
 70
     1
102
RTVSPropertyOp11
 70
     1
102
RTVSPropertyOp12
 70
     1
102
RTVSPropertyOp13
 70
     1
102
RTVSPropertyOp14
 70
     1
102
RTVSPropertyOp15
 70
     1
102
RTVSPropertyOp16
 70
     1
102
RTVSPropertyOp17
 70
     1
102
RTVSPropertyOp18
 70
     1
102
RTVSPropertyOp19
 70
     1
102
RTVSPropertyOp20
 70
     1
102
RTVSPropertyOp21
 70
     1
102
RTVSPropertyOp22
 70
     1
102
RTVSPropertyOp23
 70
     1
102
RTVSPropertyOp24
 70
     1
102
RTVSPropertyOp25
 70
     1
102
RTVSPropertyOp26
 70
     1
102
RTVSPropertyOp27
 70
     1
102
RTVSPropertyOp28
 70
     1
102
RTVSPropertyOp29
 70
     1
102
RTVSPropertyOp30
 70
     1
102
RTVSPropertyOp31
 70
     1
102
RTVSPropertyOp32
 70
     1
  0
XRECORD
  5
330
102
{ACAD_REACTORS
330
32F
102
}
330
32F
100
AcDbXrecord
280
     1
102
RTVSPropertyOp0
 70
     1
102
RTVSPropertyOp1
 70
     1
102
RTVSPropertyOp2
 70
     1
102
RTVSPropertyOp3
 70
     1
102
RTVSPropertyOp4
 70
     1
102
RTVSPropertyOp5
 70
     1
102
RTVSPropertyOp6
 70
     1
102
RTVSPropertyOp7
 70
     1
102
RTVSPropertyOp8
 70
     1
102
RTVSPropertyOp9
 70
     1
102
RTVSPropertyOp10
 70
     1
102
RTVSPropertyOp11
 70
     1
102
RTVSPropertyOp12
 70
     1
102
RTVSPropertyOp13
 70
     1
102
RTVSPropertyOp14
 70
     1
102
RTVSPropertyOp15
 70
     1
102
RTVSPropertyOp16
 70
     1
102
RTVSPropertyOp17
 70
     1
102
RTVSPropertyOp18
 70
     1
102
RTVSPropertyOp19
 70
     1
102
RTVSPropertyOp20
 70
     1
102
RTVSPropertyOp21
 70
     1
102
RTVSPropertyOp22
 70
     1
102
RTVSPropertyOp23
 70
     1
102
RTVSPropertyOp24
 70
     1
102
RTVSPropertyOp25
 70
     1
102
RTVSPropertyOp26
 70
     1
102
RTVSPropertyOp27
 70
     1
102
RTVSPropertyOp28
 70
     1
102
RTVSPropertyOp29
 70
     1
102
RTVSPropertyOp30
 70
     1
102
RTVSPropertyOp31
 70
     1
102
RTVSPropertyOp32
 70
     1
  0
XRECORD
  5
332
102
{ACAD_REACTORS
330
331
102
}
330
331
100
AcDbXrecord
280
     1
102
RTVSPropertyOp0
 70
     1
102
RTVSPropertyOp1
 70
     1
102
RTVSPropertyOp2
 70
     1
102
RTVSPropertyOp3
 70
     1
102
RTVSPropertyOp4
 70
     1
102
RTVSPropertyOp5
 70
     1
102
RTVSPropertyOp6
 70
     1
102
RTVSPropertyOp7
 70
     1
102
RTVSPropertyOp8
 70
     1
102
RTVSPropertyOp9
 70
     1
102
RTVSPropertyOp10
 70
     1
102
RTVSPropertyOp11
 70
     1
102
RTVSPropertyOp12
 70
     1
102
RTVSPropertyOp13
 70
     1
102
RTVSPropertyOp14
 70
     1
102
RTVSPropertyOp15
 70
     1
102
RTVSPropertyOp16
 70
     1
102
RTVSPropertyOp17
 70
     1
102
RTVSPropertyOp18
 70
     1
102
RTVSPropertyOp19
 70
     1
102
RTVSPropertyOp20
 70
     1
102
RTVSPropertyOp21
 70
     1
102
RTVSPropertyOp22
 70
     1
102
RTVSPropertyOp23
 70
     1
102
RTVSPropertyOp24
 70
     1
102
RTVSPropertyOp25
 70
     1
102
RTVSPropertyOp26
 70
     1
102
RTVSPropertyOp27
 70
     1
102
RTVSPropertyOp28
 70
     1
102
RTVSPropertyOp29
 70
     1
102
RTVSPropertyOp30
 70
     1
102
RTVSPropertyOp31
 70
     1
102
RTVSPropertyOp32
 70
     1
  0
XRECORD
  5
33A
102
{ACAD_REACTORS
330
339
102
}
330
339
100
AcDbXrecord
280
     1
102
RTVSPropertyOp0
 70
     1
102
RTVSPropertyOp1
 70
     1
102
RTVSPropertyOp2
 70
     1
102
RTVSPropertyOp3
 70
     1
102
RTVSPropertyOp4
 70
     1
102
RTVSPropertyOp5
 70
     1
102
RTVSPropertyOp6
 70
     1
102
RTVSPropertyOp7
 70
     1
102
RTVSPropertyOp8
 70
     1
102
RTVSPropertyOp9
 70
     1
102
RTVSPropertyOp10
 70
     1
102
RTVSPropertyOp11
 70
     1
102
RTVSPropertyOp12
 70
     1
102
RTVSPropertyOp13
 70
     1
102
RTVSPropertyOp14
 70
     1
102
RTVSPropertyOp15
 70
     1
102
RTVSPropertyOp16
 70
     1
102
RTVSPropertyOp17
 70
     1
102
RTVSPropertyOp18
 70
     1
102
RTVSPropertyOp19
 70
     1
102
RTVSPropertyOp20
 70
     1
102
RTVSPropertyOp21
 70
     1
102
RTVSPropertyOp22
 70
     1
102
RTVSPropertyOp23
 70
     1
102
RTVSPropertyOp24
 70
     1
102
RTVSPropertyOp25
 70
     1
102
RTVSPropertyOp26
 70
     1
102
RTVSPropertyOp27
 70
     1
102
RTVSPropertyOp28
 70
     1
102
RTVSPropertyOp29
 70
     1
102
RTVSPropertyOp30
 70
     1
102
RTVSPropertyOp31
 70
     1
102
RTVSPropertyOp32
 70
     1
  0
XRECORD
  5
31E
102
{ACAD_REACTORS
330
31D
102
}
330
31D
100
AcDbXrecord
280
     1
102
RTVSPropertyOp0
 70
     1
102
RTVSPropertyOp1
 70
     1
102
RTVSPropertyOp2
 70
     1
102
RTVSPropertyOp3
 70
     1
102
RTVSPropertyOp4
 70
     1
102
RTVSPropertyOp5
 70
     1
102
RTVSPropertyOp6
 70
     1
102
RTVSPropertyOp7
 70
     1
102
RTVSPropertyOp8
 70
     1
102
RTVSPropertyOp9
 70
     1
102
RTVSPropertyOp10
 70
     1
102
RTVSPropertyOp11
 70
     1
102
RTVSPropertyOp12
 70
     1
102
RTVSPropertyOp13
 70
     1
102
RTVSPropertyOp14
 70
     1
102
RTVSPropertyOp15
 70
     1
102
RTVSPropertyOp16
 70
     1
102
RTVSPropertyOp17
 70
     1
102
RTVSPropertyOp18
 70
     1
102
RTVSPropertyOp19
 70
     1
102
RTVSPropertyOp20
 70
     1
102
RTVSPropertyOp21
 70
     1
102
RTVSPropertyOp22
 70
     1
102
RTVSPropertyOp23
 70
     1
102
RTVSPropertyOp24
 70
     1
102
RTVSPropertyOp25
 70
     1
102
RTVSPropertyOp26
 70
     1
102
RTVSPropertyOp27
 70
     1
102
RTVSPropertyOp28
 70
     1
102
RTVSPropertyOp29
 70
     1
102
RTVSPropertyOp30
 70
     1
102
RTVSPropertyOp31
 70
     1
102
RTVSPropertyOp32
 70
     1
  0
XRECORD
  5
320
102
{ACAD_REACTORS
330
31F
102
}
330
31F
100
AcDbXrecord
280
     1
102
RTVSPropertyOp0
 70
     1
102
RTVSPropertyOp1
 70
     1
102
RTVSPropertyOp2
 70
     1
102
RTVSPropertyOp3
 70
     1
102
RTVSPropertyOp4
 70
     1
102
RTVSPropertyOp5
 70
     1
102
RTVSPropertyOp6
 70
     1
102
RTVSPropertyOp7
 70
     1
102
RTVSPropertyOp8
 70
     1
102
RTVSPropertyOp9
 70
     1
102
RTVSPropertyOp10
 70
     1
102
RTVSPropertyOp11
 70
     1
102
RTVSPropertyOp12
 70
     1
102
RTVSPropertyOp13
 70
     1
102
RTVSPropertyOp14
 70
     1
102
RTVSPropertyOp15
 70
     1
102
RTVSPropertyOp16
 70
     1
102
RTVSPropertyOp17
 70
     1
102
RTVSPropertyOp18
 70
     1
102
RTVSPropertyOp19
 70
     1
102
RTVSPropertyOp20
 70
     1
102
RTVSPropertyOp21
 70
     1
102
RTVSPropertyOp22
 70
     1
102
RTVSPropertyOp23
 70
     1
102
RTVSPropertyOp24
 70
     1
102
RTVSPropertyOp25
 70
     1
102
RTVSPropertyOp26
 70
     1
102
RTVSPropertyOp27
 70
     1
102
RTVSPropertyOp28
 70
     1
102
RTVSPropertyOp29
 70
     1
102
RTVSPropertyOp30
 70
     1
102
RTVSPropertyOp31
 70
     1
102
RTVSPropertyOp32
 70
     1
  0
XRECORD
  5
322
102
{ACAD_REACTORS
330
321
102
}
330
321
100
AcDbXrecord
280
     1
102
RTVSPropertyOp0
 70
     1
102
RTVSPropertyOp1
 70
     1
102
RTVSPropertyOp2
 70
     1
102
RTVSPropertyOp3
 70
     1
102
RTVSPropertyOp4
 70
     1
102
RTVSPropertyOp5
 70
     1
102
RTVSPropertyOp6
 70
     1
102
RTVSPropertyOp7
 70
     1
102
RTVSPropertyOp8
 70
     1
102
RTVSPropertyOp9
 70
     1
102
RTVSPropertyOp10
 70
     1
102
RTVSPropertyOp11
 70
     1
102
RTVSPropertyOp12
 70
     1
102
RTVSPropertyOp13
 70
     1
102
RTVSPropertyOp14
 70
     1
102
RTVSPropertyOp15
 70
     1
102
RTVSPropertyOp16
 70
     1
102
RTVSPropertyOp17
 70
     1
102
RTVSPropertyOp18
 70
     1
102
RTVSPropertyOp19
 70
     1
102
RTVSPropertyOp20
 70
     1
102
RTVSPropertyOp21
 70
     1
102
RTVSPropertyOp22
 70
     1
102
RTVSPropertyOp23
 70
     1
102
RTVSPropertyOp24
 70
     1
102
RTVSPropertyOp25
 70
     1
102
RTVSPropertyOp26
 70
     1
102
RTVSPropertyOp27
 70
     1
102
RTVSPropertyOp28
 70
     1
102
RTVSPropertyOp29
 70
     1
102
RTVSPropertyOp30
 70
     1
102
RTVSPropertyOp31
 70
     1
102
RTVSPropertyOp32
 70
     1
  0
XRECORD
  5
324
102
{ACAD_REACTORS
330
323
102
}
330
323
100
AcDbXrecord
280
     1
102
RTVSPropertyOp0
 70
     1
102
RTVSPropertyOp1
 70
     1
102
RTVSPropertyOp2
 70
     1
102
RTVSPropertyOp3
 70
     1
102
RTVSPropertyOp4
 70
     1
102
RTVSPropertyOp5
 70
     1
102
RTVSPropertyOp6
 70
     1
102
RTVSPropertyOp7
 70
     1
102
RTVSPropertyOp8
 70
     1
102
RTVSPropertyOp9
 70
     1
102
RTVSPropertyOp10
 70
     1
102
RTVSPropertyOp11
 70
     1
102
RTVSPropertyOp12
 70
     1
102
RTVSPropertyOp13
 70
     1
102
RTVSPropertyOp14
 70
     1
102
RTVSPropertyOp15
 70
     1
102
RTVSPropertyOp16
 70
     1
102
RTVSPropertyOp17
 70
     1
102
RTVSPropertyOp18
 70
     1
102
RTVSPropertyOp19
 70
     1
102
RTVSPropertyOp20
 70
     1
102
RTVSPropertyOp21
 70
     1
102
RTVSPropertyOp22
 70
     1
102
RTVSPropertyOp23
 70
     1
102
RTVSPropertyOp24
 70
     1
102
RTVSPropertyOp25
 70
     1
102
RTVSPropertyOp26
 70
     1
102
RTVSPropertyOp27
 70
     1
102
RTVSPropertyOp28
 70
     1
102
RTVSPropertyOp29
 70
     1
102
RTVSPropertyOp30
 70
     1
102
RTVSPropertyOp31
 70
     1
102
RTVSPropertyOp32
 70
     1
  0
XRECORD
  5
338
102
{ACAD_REACTORS
330
337
102
}
330
337
100
AcDbXrecord
280
     1
102
RTVSPropertyOp0
 70
     1
102
RTVSPropertyOp1
 70
     1
102
RTVSPropertyOp2
 70
     1
102
RTVSPropertyOp3
 70
     1
102
RTVSPropertyOp4
 70
     1
102
RTVSPropertyOp5
 70
     1
102
RTVSPropertyOp6
 70
     1
102
RTVSPropertyOp7
 70
     1
102
RTVSPropertyOp8
 70
     1
102
RTVSPropertyOp9
 70
     1
102
RTVSPropertyOp10
 70
     1
102
RTVSPropertyOp11
 70
     1
102
RTVSPropertyOp12
 70
     1
102
RTVSPropertyOp13
 70
     1
102
RTVSPropertyOp14
 70
     1
102
RTVSPropertyOp15
 70
     1
102
RTVSPropertyOp16
 70
     1
102
RTVSPropertyOp17
 70
     1
102
RTVSPropertyOp18
 70
     1
102
RTVSPropertyOp19
 70
     1
102
RTVSPropertyOp20
 70
     1
102
RTVSPropertyOp21
 70
     1
102
RTVSPropertyOp22
 70
     1
102
RTVSPropertyOp23
 70
     1
102
RTVSPropertyOp24
 70
     1
102
RTVSPropertyOp25
 70
     1
102
RTVSPropertyOp26
 70
     1
102
RTVSPropertyOp27
 70
     1
102
RTVSPropertyOp28
 70
     1
102
RTVSPropertyOp29
 70
     1
102
RTVSPropertyOp30
 70
     1
102
RTVSPropertyOp31
 70
     1
102
RTVSPropertyOp32
 70
     1
  0
XRECORD
  5
32E
102
{ACAD_REACTORS
330
32D
102
}
330
32D
100
AcDbXrecord
280
     1
102
RTVSPropertyOp0
 70
     1
102
RTVSPropertyOp1
 70
     1
102
RTVSPropertyOp2
 70
     1
102
RTVSPropertyOp3
 70
     1
102
RTVSPropertyOp4
 70
     1
102
RTVSPropertyOp5
 70
     1
102
RTVSPropertyOp6
 70
     1
102
RTVSPropertyOp7
 70
     1
102
RTVSPropertyOp8
 70
     1
102
RTVSPropertyOp9
 70
     1
102
RTVSPropertyOp10
 70
     1
102
RTVSPropertyOp11
 70
     1
102
RTVSPropertyOp12
 70
     1
102
RTVSPropertyOp13
 70
     1
102
RTVSPropertyOp14
 70
     1
102
RTVSPropertyOp15
 70
     1
102
RTVSPropertyOp16
 70
     1
102
RTVSPropertyOp17
 70
     1
102
RTVSPropertyOp18
 70
     1
102
RTVSPropertyOp19
 70
     1
102
RTVSPropertyOp20
 70
     1
102
RTVSPropertyOp21
 70
     1
102
RTVSPropertyOp22
 70
     1
102
RTVSPropertyOp23
 70
     1
102
RTVSPropertyOp24
 70
     1
102
RTVSPropertyOp25
 70
     1
102
RTVSPropertyOp26
 70
     1
102
RTVSPropertyOp27
 70
     1
102
RTVSPropertyOp28
 70
     1
102
RTVSPropertyOp29
 70
     1
102
RTVSPropertyOp30
 70
     1
102
RTVSPropertyOp31
 70
     1
102
RTVSPropertyOp32
 70
     1
  0
XRECORD
  5
336
102
{ACAD_REACTORS
330
335
102
}
330
335
100
AcDbXrecord
280
     1
102
RTVSPropertyOp0
 70
     1
102
RTVSPropertyOp1
 70
     1
102
RTVSPropertyOp2
 70
     1
102
RTVSPropertyOp3
 70
     1
102
RTVSPropertyOp4
 70
     1
102
RTVSPropertyOp5
 70
     1
102
RTVSPropertyOp6
 70
     1
102
RTVSPropertyOp7
 70
     1
102
RTVSPropertyOp8
 70
     1
102
RTVSPropertyOp9
 70
     1
102
RTVSPropertyOp10
 70
     1
102
RTVSPropertyOp11
 70
     1
102
RTVSPropertyOp12
 70
     1
102
RTVSPropertyOp13
 70
     1
102
RTVSPropertyOp14
 70
     1
102
RTVSPropertyOp15
 70
     1
102
RTVSPropertyOp16
 70
     1
102
RTVSPropertyOp17
 70
     1
102
RTVSPropertyOp18
 70
     1
102
RTVSPropertyOp19
 70
     1
102
RTVSPropertyOp20
 70
     1
102
RTVSPropertyOp21
 70
     1
102
RTVSPropertyOp22
 70
     1
102
RTVSPropertyOp23
 70
     1
102
RTVSPropertyOp24
 70
     1
102
RTVSPropertyOp25
 70
     1
102
RTVSPropertyOp26
 70
     1
102
RTVSPropertyOp27
 70
     1
102
RTVSPropertyOp28
 70
     1
102
RTVSPropertyOp29
 70
     1
102
RTVSPropertyOp30
 70
     1
102
RTVSPropertyOp31
 70
     1
102
RTVSPropertyOp32
 70
     1
  0
ENDSEC
  0
EOF
