  0
SECTION
  2
HEADER
  9
$ACADVER
  1
AC1015
  9
$ACADMAINTVER
 70
     6
  9
$DWGCODEPAGE
  3
ANSI_1252
  9
$INSBASE
 10
0.0
 20
0.0
 30
0.0
  9
$EXTMIN
 10
0.0
 20
0.0
 30
0.0
  9
$EXTMAX
 10
420.0
 20
297.0
 30
0.0
  9
$LIMMIN
 10
0.0
 20
0.0
  9
$LIMMAX
 10
420.0
 20
297.0
  9
$ORTHOMODE
 70
     0
  9
$REGENMODE
 70
     1
  9
$FILLMODE
 70
     1
  9
$QTEXTMODE
 70
     0
  9
$MIRRTEXT
 70
     1
  9
$LTSCALE
 40
1.0
  9
$ATTMODE
 70
     1
  9
$TEXTSIZE
 40
2.5
  9
$TRACEWID
 40
1.0
  9
$TEXTSTYLE
  7
Standard
  9
$CLAYER
  8
0
  9
$CELTYPE
  6
ByLayer
  9
$CECOLOR
 62
   256
  9
$CELTSCALE
 40
1.0
  9
$DISPSILH
 70
     0
  9
$DIMSCALE
 40
1.0
  9
$DIMASZ
 40
2.5
  9
$DIMEXO
 40
0.625
  9
$DIMDLI
 40
3.75
  9
$DIMRND
 40
0.0
  9
$DIMDLE
 40
0.0
  9
$DIMEXE
 40
1.25
  9
$DIMTP
 40
0.0
  9
$DIMTM
 40
0.0
  9
$DIMTXT
 40
2.5
  9
$DIMCEN
 40
2.5
  9
$DIMTSZ
 40
0.0
  9
$DIMTOL
 70
     0
  9
$DIMLIM
 70
     0
  9
$DIMTIH
 70
     0
  9
$DIMTOH
 70
     0
  9
$DIMSE1
 70
     0
  9
$DIMSE2
 70
     0
  9
$DIMTAD
 70
     1
  9
$DIMZIN
 70
     8
  9
$DIMBLK
  1

  9
$DIMASO
 70
     1
  9
$DIMSHO
 70
     1
  9
$DIMPOST
  1

  9
$DIMAPOST
  1

  9
$DIMALT
 70
     0
  9
$DIMALTD
 70
     3
  9
$DIMALTF
 40
0.0393700787
  9
$DIMLFAC
 40
1.0
  9
$DIMTOFL
 70
     1
  9
$DIMTVP
 40
0.0
  9
$DIMTIX
 70
     0
  9
$DIMSOXD
 70
     0
  9
$DIMSAH
 70
     0
  9
$DIMBLK1
  1

  9
$DIMBLK2
  1

  9
$DIMSTYLE
  2
ISO-25
  9
$DIMCLRD
 70
     0
  9
$DIMCLRE
 70
     0
  9
$DIMCLRT
 70
     0
  9
$DIMTFAC
 40
1.0
  9
$DIMGAP
 40
0.625
  9
$DIMJUST
 70
     0
  9
$DIMSD1
 70
     0
  9
$DIMSD2
 70
     0
  9
$DIMTOLJ
 70
     0
  9
$DIMTZIN
 70
     8
  9
$DIMALTZ
 70
     0
  9
$DIMALTTZ
 70
     0
  9
$DIMUPT
 70
     0
  9
$DIMDEC
 70
     2
  9
$DIMTDEC
 70
     2
  9
$DIMALTU
 70
     2
  9
$DIMALTTD
 70
     3
  9
$DIMTXSTY
  7
Standard
  9
$DIMAUNIT
 70
     0
  9
$DIMADEC
 70
     0
  9
$DIMALTRND
 40
0.0
  9
$DIMAZIN
 70
     0
  9
$DIMDSEP
 70
    44
  9
$DIMATFIT
 70
     3
  9
$DIMFRAC
 70
     0
  9
$DIMLDRBLK
  1

  9
$DIMLUNIT
 70
     2
  9
$DIMLWD
 70
    -2
  9
$DIMLWE
 70
    -2
  9
$DIMTMOVE
 70
     0
  9
$LUNITS
 70
     2
  9
$LUPREC
 70
     4
  9
$SKETCHINC
 40
1.0
  9
$FILLETRAD
 40
10.0
  9
$AUNITS
 70
     0
  9
$AUPREC
 70
     0
  9
$MENU
  1
.
  9
$ELEVATION
 40
0.0
  9
$PELEVATION
 40
0.0
  9
$THICKNESS
 40
0.0
  9
$LIMCHECK
 70
     0
  9
$CHAMFERA
 40
10.0
  9
$CHAMFERB
 40
10.0
  9
$CHAMFERC
 40
20.0
  9
$CHAMFERD
 40
0.0
  9
$SKPOLY
 70
     0
  9
$TDCREATE
 40
2456801.57024794
  9
$TDUCREATE
 40
2456801.486914606
  9
$TDUPDATE
 40
2456801.570248727
  9
$TDUUPDATE
 40
2456801.486915394
  9
$TDINDWG
 40
0.0000000116
  9
$TDUSRTIMER
 40
0.0000000116
  9
$USRTIMER
 70
     1
  9
$ANGBASE
 50
0.0
  9
$ANGDIR
 70
     0
  9
$PDMODE
 70
     0
  9
$PDSIZE
 40
0.0
  9
$PLINEWID
 40
0.0
  9
$SPLFRAME
 70
     0
  9
$SPLINETYPE
 70
     6
  9
$SPLINESEGS
 70
     8
  9
$HANDSEED
  5
350
  9
$SURFTAB1
 70
     6
  9
$SURFTAB2
 70
     6
  9
$SURFTYPE
 70
     6
  9
$SURFU
 70
     6
  9
$SURFV
 70
     6
  9
$UCSBASE
  2

  9
$UCSNAME
  2

  9
$UCSORG
 10
0.0
 20
0.0
 30
0.0
  9
$UCSXDIR
 10
1.0
 20
0.0
 30
0.0
  9
$UCSYDIR
 10
0.0
 20
1.0
 30
0.0
  9
$UCSORTHOREF
  2

  9
$UCSORTHOVIEW
 70
     0
  9
$UCSORGTOP
 10
0.0
 20
0.0
 30
0.0
  9
$UCSORGBOTTOM
 10
0.0
 20
0.0
 30
0.0
  9
$UCSORGLEFT
 10
0.0
 20
0.0
 30
0.0
  9
$UCSORGRIGHT
 10
0.0
 20
0.0
 30
0.0
  9
$UCSORGFRONT
 10
0.0
 20
0.0
 30
0.0
  9
$UCSORGBACK
 10
0.0
 20
0.0
 30
0.0
  9
$PUCSBASE
  2

  9
$PUCSNAME
  2

  9
$PUCSORG
 10
0.0
 20
0.0
 30
0.0
  9
$PUCSXDIR
 10
1.0
 20
0.0
 30
0.0
  9
$PUCSYDIR
 10
0.0
 20
1.0
 30
0.0
  9
$PUCSORTHOREF
  2

  9
$PUCSORTHOVIEW
 70
     0
  9
$PUCSORGTOP
 10
0.0
 20
0.0
 30
0.0
  9
$PUCSORGBOTTOM
 10
0.0
 20
0.0
 30
0.0
  9
$PUCSORGLEFT
 10
0.0
 20
0.0
 30
0.0
  9
$PUCSORGRIGHT
 10
0.0
 20
0.0
 30
0.0
  9
$PUCSORGFRONT
 10
0.0
 20
0.0
 30
0.0
  9
$PUCSORGBACK
 10
0.0
 20
0.0
 30
0.0
  9
$USERI1
 70
     0
  9
$USERI2
 70
     0
  9
$USERI3
 70
     0
  9
$USERI4
 70
     0
  9
$USERI5
 70
     0
  9
$USERR1
 40
0.0
  9
$USERR2
 40
0.0
  9
$USERR3
 40
0.0
  9
$USERR4
 40
0.0
  9
$USERR5
 40
0.0
  9
$WORLDVIEW
 70
     1
  9
$SHADEDGE
 70
     3
  9
$SHADEDIF
 70
    70
  9
$TILEMODE
 70
     1
  9
$MAXACTVP
 70
    64
  9
$PINSBASE
 10
0.0
 20
0.0
 30
0.0
  9
$PLIMCHECK
 70
     0
  9
$PEXTMIN
 10
0.0
 20
0.0
 30
0.0
  9
$PEXTMAX
 10
420.0
 20
297.0
 30
0.0
  9
$PLIMMIN
 10
0.0
 20
0.0
  9
$PLIMMAX
 10
420.0
 20
297.0
  9
$UNITMODE
 70
     0
  9
$VISRETAIN
 70
     1
  9
$PLINEGEN
 70
     0
  9
$PSLTSCALE
 70
     1
  9
$TREEDEPTH
 70
  3020
  9
$CMLSTYLE
  2
Standard
  9
$CMLJUST
 70
     0
  9
$CMLSCALE
 40
20.0
  9
$PROXYGRAPHICS
 70
     1
  9
$MEASUREMENT
 70
     1
  9
$CELWEIGHT
370
    -1
  9
$ENDCAPS
280
     0
  9
$JOINSTYLE
280
     0
  9
$LWDISPLAY
290
     0
  9
$INSUNITS
 70
     4
  9
$HYPERLINKBASE
  1

  9
$STYLESHEET
  1

  9
$XEDIT
290
     1
  9
$CEPSNTYPE
380
     0
  9
$PSTYLEMODE
290
     1
  9
$FINGERPRINTGUID
  2
{FFB21DD6-C2E2-4998-A018-00F56353E869}
  9
$VERSIONGUID
  2
{FAEB1C32-E019-11D5-929B-00C0DF256EC4}
  9
$EXTNAMES
290
     1
  9
$PSVPSCALE
 40
0.0
  9
$OLESTARTUP
290
     0
  0
ENDSEC
  0
SECTION
  2
CLASSES
  0
CLASS
  1
ACDBDICTIONARYWDFLT
  2
AcDbDictionaryWithDefault
  3
ObjectDBX Classes
 90
        0
280
     0
281
     0
  0
CLASS
  1
VISUALSTYLE
  2
AcDbVisualStyle
  3
ObjectDBX Classes
 90
     4095
280
     0
281
     0
  0
CLASS
  1
MATERIAL
  2
AcDbMaterial
  3
ObjectDBX Classes
 90
     1153
280
     0
281
     0
  0
CLASS
  1
DICTIONARYVAR
  2
AcDbDictionaryVar
  3
ObjectDBX Classes
 90
        0
280
     0
281
     0
  0
CLASS
  1
ACDBPLACEHOLDER
  2
AcDbPlaceHolder
  3
ObjectDBX Classes
 90
        0
280
     0
281
     0
  0
CLASS
  1
LAYOUT
  2
AcDbLayout
  3
ObjectDBX Classes
 90
        0
280
     0
281
     0
  0
ENDSEC
  0
SECTION
  2
TABLES
  0
TABLE
  2
VPORT
  5
8
330
0
100
AcDbSymbolTable
 70
     1
  0
VPORT
  5
29
330
8
100
AcDbSymbolTableRecord
100
AcDbViewportTableRecord
  2
*Active
 70
     0
 10
0.0
 20
0.0
 11
1.0
 21
1.0
 12
344.1869158879
 22
148.5
 13
0.0
 23
0.0
 14
10.0
 24
10.0
 15
10.0
 25
10.0
 16
0.0
 26
0.0
 36
1.0
 17
0.0
 27
0.0
 37
0.0
 40
297.0
 41
1.9729729729
 42
50.0
 43
0.0
 44
0.0
 50
0.0
 51
0.0
 71
     0
 72
   100
 73
     1
 74
     3
 75
     0
 76
     0
 77
     0
 78
     0
281
     0
 65
     1
110
0.0
120
0.0
130
0.0
111
1.0
121
0.0
131
0.0
112
0.0
122
1.0
132
0.0
 79
     0
146
0.0
  0
ENDTAB
  0
TABLE
  2
LTYPE
  5
5
330
0
100
AcDbSymbolTable
 70
     1
  0
LTYPE
  5
14
330
5
100
AcDbSymbolTableRecord
100
AcDbLinetypeTableRecord
  2
ByBlock
 70
     0
  3

 72
    65
 73
     0
 40
0.0
  0
LTYPE
  5
15
330
5
100
AcDbSymbolTableRecord
100
AcDbLinetypeTableRecord
  2
ByLayer
 70
     0
  3

 72
    65
 73
     0
 40
0.0
  0
LTYPE
  5
16
330
5
100
AcDbSymbolTableRecord
100
AcDbLinetypeTableRecord
  2
Continuous
 70
     0
  3
Solid line
 72
    65
 73
     0
 40
0.0
  0
ENDTAB
  0
TABLE
  2
LAYER
  5
2
330
0
100
AcDbSymbolTable
 70
     6
  0
LAYER
  5
10
330
2
100
AcDbSymbolTableRecord
100
AcDbLayerTableRecord
  2
0
 70
     0
 62
     7
  6
Continuous
370
    -3
390
F
  0
LAYER
  5
3F
330
2
100
AcDbSymbolTableRecord
100
AcDbLayerTableRecord
  2
Default
 70
     0
 62
     7
  6
Continuous
370
    -3
390
F
  0
LAYER
  5
42
330
2
100
AcDbSymbolTableRecord
100
AcDbLayerTableRecord
  2
DV1_0
 70
     0
 62
     7
  6
Continuous
370
    -3
390
F
  0
LAYER
  5
100
330
2
100
AcDbSymbolTableRecord
100
AcDbLayerTableRecord
  2
DV2_0
 70
     0
 62
     7
  6
Continuous
370
    -3
390
F
  0
LAYER
  5
1CB
330
2
100
AcDbSymbolTableRecord
100
AcDbLayerTableRecord
  2
DV3_0
 70
     0
 62
     7
  6
Continuous
370
    -3
390
F
  0
LAYER
  5
29B
330
2
100
AcDbSymbolTableRecord
100
AcDbLayerTableRecord
  2
DV4_0
 70
     0
 62
     7
  6
Continuous
370
    -3
390
F
  0
ENDTAB
  0
TABLE
  2
STYLE
  5
3
330
0
100
AcDbSymbolTable
 70
     1
  0
STYLE
  5
11
330
3
100
AcDbSymbolTableRecord
100
AcDbTextStyleTableRecord
  2
Standard
 70
     0
 40
0.0
 41
1.0
 50
0.0
 71
     0
 42
2.5
  3
txt
  4

  0
ENDTAB
  0
TABLE
  2
VIEW
  5
6
330
0
100
AcDbSymbolTable
 70
     0
  0
ENDTAB
  0
TABLE
  2
UCS
  5
7
330
0
100
AcDbSymbolTable
 70
     0
  0
ENDTAB
  0
TABLE
  2
APPID
  5
9
330
0
100
AcDbSymbolTable
 70
     1
  0
APPID
  5
12
330
9
100
AcDbSymbolTableRecord
100
AcDbRegAppTableRecord
  2
ACAD
 70
     0
  0
ENDTAB
  0
TABLE
  2
DIMSTYLE
  5
A
330
0
100
AcDbSymbolTable
 70
     1
100
AcDbDimStyleTable
  0
DIMSTYLE
105
27
330
A
100
AcDbSymbolTableRecord
100
AcDbDimStyleTableRecord
  2
ISO-25
 70
     0
 41
2.5
 42
0.625
 43
3.75
 44
1.25
 73
     0
 74
     0
 77
     1
 78
     8
140
2.5
141
2.5
143
0.0393700787
147
0.625
171
     3
172
     1
178
     0
271
     2
272
     2
274
     3
278
    44
283
     0
284
     8
340
11
  0
ENDTAB
  0
TABLE
  2
BLOCK_RECORD
  5
1
330
0
100
AcDbSymbolTable
 70
     5
  0
BLOCK_RECORD
  5
1F
330
1
100
AcDbSymbolTableRecord
100
AcDbBlockTableRecord
  2
*Model_Space
340
22
  0
BLOCK_RECORD
  5
1B
330
1
100
AcDbSymbolTableRecord
100
AcDbBlockTableRecord
  2
*Paper_Space
340
1E
  0
BLOCK_RECORD
  5
40
330
1
100
AcDbSymbolTableRecord
100
AcDbBlockTableRecord
  2
SE
340
0
102
{BLKREFS
331
41
102
}
  0
BLOCK_RECORD
  5
FE
330
1
100
AcDbSymbolTableRecord
100
AcDbBlockTableRecord
  2
SE1
340
0
102
{BLKREFS
331
FF
102
}
  0
BLOCK_RECORD
  5
1C9
330
1
100
AcDbSymbolTableRecord
100
AcDbBlockTableRecord
  2
SE2
340
0
102
{BLKREFS
331
1CA
102
}
  0
BLOCK_RECORD
  5
299
330
1
100
AcDbSymbolTableRecord
100
AcDbBlockTableRecord
  2
SE3
340
0
102
{BLKREFS
331
29A
102
}
  0
ENDTAB
  0
ENDSEC
  0
SECTION
  2
BLOCKS
  0
BLOCK
  5
20
330
1F
100
AcDbEntity
  8
0
100
AcDbBlockBegin
  2
*Model_Space
 70
     0
 10
0.0
 20
0.0
 30
0.0
  3
*Model_Space
  1

  0
ENDBLK
  5
21
330
1F
100
AcDbEntity
  8
0
100
AcDbBlockEnd
  0
BLOCK
  5
1C
330
1B
100
AcDbEntity
 67
     1
  8
0
100
AcDbBlockBegin
  2
*Paper_Space
 70
     0
 10
0.0
 20
0.0
 30
0.0
  3
*Paper_Space
  1

  0
ENDBLK
  5
1D
330
1B
100
AcDbEntity
 67
     1
  8
0
100
AcDbBlockEnd
  0
BLOCK
  5
FC
330
40
100
AcDbEntity
  8
0
100
AcDbBlockBegin
  2
SE
 70
     0
 10
0.0
 20
0.0
 30
0.0
  3
SE
  1

  0
LINE
  5
43
330
40
100
AcDbEntity
  8
DV1_0
 62
     7
100
AcDbLine
 10
128.0881231424
 20
33.9176621544
 30
0.0
 11
130.528053919
 21
34.8057243307
 31
0.0
  0
LINE
  5
44
330
40
100
AcDbEntity
  8
DV1_0
 62
     7
100
AcDbLine
 10
125.7578579152
 20
39.5162253698
 30
0.0
 11
128.3104414566
 21
40.4452897994
 31
0.0
  0
LINE
  5
45
330
40
100
AcDbEntity
  8
DV1_0
 62
     7
100
AcDbLine
 10
141.7594103541
 20
48.1519503841
 30
0.0
 11
122.0258653176
 21
40.9695273743
 31
0.0
  0
LINE
  5
46
330
40
100
AcDbEntity
  8
DV1_0
 62
     7
100
AcDbLine
 10
128.0881231424
 20
33.9176621544
 30
0.0
 11
127.3547967398
 21
33.6507531719
 31
0.0
  0
LINE
  5
47
330
40
100
AcDbEntity
  8
DV1_0
 62
     7
100
AcDbLine
 10
126.4874943431
 20
33.3350809153
 30
0.0
 11
127.3547967398
 21
33.6507531719
 31
0.0
  0
LINE
  5
48
330
40
100
AcDbEntity
  8
DV1_0
 62
     7
100
AcDbLine
 10
127.3547967398
 20
33.6507531719
 30
0.0
 11
124.4893776083
 21
40.5350468391
 31
0.0
  0
LINE
  5
49
330
40
100
AcDbEntity
  8
DV1_0
 62
     7
100
AcDbLine
 10
123.5854065679
 20
40.2060282878
 30
0.0
 11
124.4893776083
 21
40.5350468391
 31
0.0
  0
LINE
  5
4A
330
40
100
AcDbEntity
  8
DV1_0
 62
     7
100
AcDbLine
 10
126.4874943431
 20
33.3350809153
 30
0.0
 11
123.5854065679
 21
40.2060282878
 31
0.0
  0
LINE
  5
4B
330
40
100
AcDbEntity
  8
DV1_0
 62
     7
100
AcDbLine
 10
128.0881231424
 20
33.9176621544
 30
0.0
 11
125.7578579152
 21
39.5162253698
 31
0.0
  0
LINE
  5
4C
330
40
100
AcDbEntity
  8
DV1_0
 62
     7
100
AcDbLine
 10
125.7578579152
 20
39.5162253698
 30
0.0
 11
124.4893776083
 21
40.5350468391
 31
0.0
  0
LINE
  5
4D
330
40
100
AcDbEntity
  8
DV1_0
 62
     7
100
AcDbLine
 10
132.8433844512
 20
35.648435727
 30
0.0
 11
136.8964933077
 21
37.123646707
 31
0.0
  0
LINE
  5
4E
330
40
100
AcDbEntity
  8
DV1_0
 62
     7
100
AcDbLine
 10
130.6943024071
 20
41.312944228
 30
0.0
 11
134.9018412972
 21
42.8443631435
 31
0.0
  0
LINE
  5
4F
330
40
100
AcDbEntity
  8
DV1_0
 62
     7
100
AcDbLine
 10
132.8433844512
 20
35.648435727
 30
0.0
 11
132.624381413
 21
35.5687251399
 31
0.0
  0
LINE
  5
50
330
40
100
AcDbEntity
  8
DV1_0
 62
     7
100
AcDbLine
 10
130.5314832425
 20
34.8069725024
 30
0.0
 11
132.624381413
 21
35.5687251399
 31
0.0
  0
LINE
  5
51
330
40
100
AcDbEntity
  8
DV1_0
 62
     7
100
AcDbLine
 10
132.624381413
 20
35.5687251399
 30
0.0
 11
129.9817548431
 21
42.5341086679
 31
0.0
  0
LINE
  5
52
330
40
100
AcDbEntity
  8
DV1_0
 62
     7
100
AcDbLine
 10
127.8003711138
 20
41.7401499209
 30
0.0
 11
129.9817548431
 21
42.5341086679
 31
0.0
  0
LINE
  5
53
330
40
100
AcDbEntity
  8
DV1_0
 62
     7
100
AcDbLine
 10
130.5314832425
 20
34.8069725024
 30
0.0
 11
127.8003711138
 21
41.7401499209
 31
0.0
  0
LINE
  5
54
330
40
100
AcDbEntity
  8
DV1_0
 62
     7
100
AcDbLine
 10
132.8433844512
 20
35.648435727
 30
0.0
 11
130.6943024071
 21
41.312944228
 31
0.0
  0
LINE
  5
55
330
40
100
AcDbEntity
  8
DV1_0
 62
     7
100
AcDbLine
 10
130.6943024071
 20
41.312944228
 30
0.0
 11
129.9817548431
 21
42.5341086679
 31
0.0
  0
LINE
  5
56
330
40
100
AcDbEntity
  8
DV1_0
 62
     7
100
AcDbLine
 10
139.2049429231
 20
37.9638536543
 30
0.0
 11
141.6500896994
 21
38.8538142993
 31
0.0
  0
LINE
  5
57
330
40
100
AcDbEntity
  8
DV1_0
 62
     7
100
AcDbLine
 10
137.2856663765
 20
43.7120045161
 30
0.0
 11
139.836557436
 21
44.6404529326
 31
0.0
  0
LINE
  5
58
330
40
100
AcDbEntity
  8
DV1_0
 62
     7
100
AcDbLine
 10
136.8964933077
 20
37.123646707
 30
0.0
 11
134.9018412972
 21
42.8443631435
 31
0.0
  0
LINE
  5
59
330
40
100
AcDbEntity
  8
DV1_0
 62
     7
100
AcDbLine
 10
134.9018412972
 20
42.8443631435
 30
0.0
 11
134.66313855
 21
44.2379929924
 31
0.0
  0
LINE
  5
5A
330
40
100
AcDbEntity
  8
DV1_0
 62
     7
100
AcDbLine
 10
136.8964933077
 20
37.123646707
 30
0.0
 11
137.115869666
 21
37.2034931715
 31
0.0
  0
LINE
  5
5B
330
40
100
AcDbEntity
  8
DV1_0
 62
     7
100
AcDbLine
 10
137.115869666
 20
37.2034931715
 30
0.0
 11
139.2083722467
 21
37.965101826
 31
0.0
  0
LINE
  5
5C
330
40
100
AcDbEntity
  8
DV1_0
 62
     7
100
AcDbLine
 10
139.2083722467
 20
37.965101826
 30
0.0
 11
136.8441099643
 21
45.031801669
 31
0.0
  0
LINE
  5
5D
330
40
100
AcDbEntity
  8
DV1_0
 62
     7
100
AcDbLine
 10
134.66313855
 20
44.2379929924
 30
0.0
 11
136.8441099643
 21
45.031801669
 31
0.0
  0
LINE
  5
5E
330
40
100
AcDbEntity
  8
DV1_0
 62
     7
100
AcDbLine
 10
137.115869666
 20
37.2034931715
 30
0.0
 11
134.66313855
 21
44.2379929924
 31
0.0
  0
LINE
  5
5F
330
40
100
AcDbEntity
  8
DV1_0
 62
     7
100
AcDbLine
 10
141.6500896994
 20
38.8538142993
 30
0.0
 11
139.836557436
 21
44.6404529326
 31
0.0
  0
LINE
  5
60
330
40
100
AcDbEntity
  8
DV1_0
 62
     7
100
AcDbLine
 10
139.836557436
 20
44.6404529326
 30
0.0
 11
140.1535927878
 21
46.2363549076
 31
0.0
  0
LINE
  5
61
330
40
100
AcDbEntity
  8
DV1_0
 62
     7
100
AcDbLine
 10
141.6500896994
 20
38.8538142993
 30
0.0
 11
142.3836093467
 21
39.1207936171
 31
0.0
  0
LINE
  5
62
330
40
100
AcDbEntity
  8
DV1_0
 62
     7
100
AcDbLine
 10
142.3836093467
 20
39.1207936171
 30
0.0
 11
143.249956705
 21
39.4361182681
 31
0.0
  0
LINE
  5
63
330
40
100
AcDbEntity
  8
DV1_0
 62
     7
100
AcDbLine
 10
143.249956705
 20
39.4361182681
 30
0.0
 11
141.0565684118
 21
46.565011157
 31
0.0
  0
LINE
  5
64
330
40
100
AcDbEntity
  8
DV1_0
 62
     7
100
AcDbLine
 10
140.1535927878
 20
46.2363549076
 30
0.0
 11
141.0565684118
 21
46.565011157
 31
0.0
  0
LINE
  5
65
330
40
100
AcDbEntity
  8
DV1_0
 62
     7
100
AcDbLine
 10
142.3836093467
 20
39.1207936171
 30
0.0
 11
140.1535927878
 21
46.2363549076
 31
0.0
  0
LINE
  5
66
330
40
100
AcDbEntity
  8
DV1_0
 62
     7
100
AcDbLine
 10
126.4874943431
 20
33.3350809153
 30
0.0
 11
126.4864694606
 21
33.3347078886
 31
0.0
  0
LINE
  5
67
330
40
100
AcDbEntity
  8
DV1_0
 62
     7
100
AcDbLine
 10
126.4864694606
 20
33.3347078886
 30
0.0
 11
123.7806791145
 21
39.7407935256
 31
0.0
  0
LINE
  5
68
330
40
100
AcDbEntity
  8
DV1_0
 62
     7
100
AcDbLine
 10
137.6779291297
 20
34.5133904848
 30
0.0
 11
133.9191586466
 21
33.1453099115
 31
0.0
  0
LINE
  5
69
330
40
100
AcDbEntity
  8
DV1_0
 62
     7
100
AcDbLine
 10
117.6946424811
 20
39.7123445156
 30
0.0
 11
145.8854211047
 21
49.9729488153
 31
0.0
  0
LINE
  5
6A
330
40
100
AcDbEntity
  8
DV1_0
 62
     7
100
AcDbLine
 10
111.1396030179
 20
61.3769229245
 30
0.0
 11
136.9811500895
 21
70.7824768659
 31
0.0
  0
LINE
  5
6B
330
40
100
AcDbEntity
  8
DV1_0
 62
     7
100
AcDbLine
 10
115.4039456777
 20
60.6250042586
 30
0.0
 11
134.1977980934
 21
67.4654071251
 31
0.0
  0
LINE
  5
6C
330
40
100
AcDbEntity
  8
DV1_0
 62
     7
100
AcDbLine
 10
115.9845417645
 20
44.4108076195
 30
0.0
 11
144.175320388
 21
54.6714119193
 31
0.0
  0
LINE
  5
6D
330
40
100
AcDbEntity
  8
DV1_0
 62
     7
100
AcDbLine
 10
110.4568345126
 20
62.7246821703
 30
0.0
 11
136.9379661849
 21
72.3630258688
 31
0.0
  0
LINE
  5
6E
330
40
100
AcDbEntity
  8
DV1_0
 62
     7
100
AcDbLine
 10
110.4568345126
 20
62.7246821703
 30
0.0
 11
109.9765938878
 21
62.5498888777
 31
0.0
  0
LINE
  5
6F
330
40
100
AcDbEntity
  8
DV1_0
 62
     7
100
AcDbLine
 10
138.0909837589
 20
74.1629784873
 30
0.0
 11
138.0909837589
 21
94.7537060005
 31
0.0
  0
SPLINE
  5
70
330
40
100
AcDbEntity
  8
DV1_0
 62
     7
100
AcDbSpline
210
0.0
220
0.0
230
1.0
 70
     8
 71
     3
 72
     8
 73
     4
 74
     0
 42
0.0000000040375004
 43
0.0000000001
 12
1.0
 22
0.0
 32
0.0
 13
1.0
 23
0.0
 33
0.0
 40
0.0
 40
0.0
 40
0.0
 40
0.0
 40
1.0
 40
1.0
 40
1.0
 40
1.0
 10
138.0909837588712
 20
74.1629784873068
 30
0.0
 10
138.6716602455696
 20
73.57610595998196
 30
0.0
 10
139.2528550990801
 20
72.98974676177392
 30
0.0
 10
139.8343703813191
 20
72.40370600052577
 30
0.0
  0
LINE
  5
71
330
40
100
AcDbEntity
  8
DV1_0
 62
     7
100
AcDbLine
 10
128.5565379323
 20
82.7636425083
 30
0.0
 11
110.1615041435
 21
76.0683977508
 31
0.0
  0
SPLINE
  5
72
330
40
100
AcDbEntity
  8
DV1_0
 62
     7
100
AcDbSpline
210
0.0
220
0.0
230
1.0
 70
     8
 71
     3
 72
    14
 73
    10
 74
     0
 42
0.0000000009080324
 43
0.0000000001
 12
1.0
 22
0.0
 32
0.0
 13
1.0
 23
0.0
 33
0.0
 40
0.0
 40
0.0
 40
0.0
 40
0.0
 40
0.2499999999999999
 40
0.2499999999999999
 40
0.4999999999999999
 40
0.4999999999999999
 40
0.7499999999999999
 40
0.7499999999999999
 40
1.0
 40
1.0
 40
1.0
 40
1.0
 10
127.2608394148366
 20
93.72424783026935
 30
0.0
 10
127.0588274575878
 20
93.25653888733558
 30
0.0
 10
126.801029962322
 20
92.63560969475775
 30
0.0
 10
126.2870971355505
 20
91.1703761090082
 30
0.0
 10
126.0237188004806
 20
90.30998509951141
 30
0.0
 10
125.6762945400053
 20
88.41154524892568
 30
0.0
 10
125.5978215234203
 20
87.34973042707969
 30
0.0
 10
125.8731721477574
 20
85.20935220467973
 30
0.0
 10
126.2329535785304
 20
84.14497997578275
 30
0.0
 10
126.7424328444408
 20
83.16754002693402
 30
0.0
  0
LINE
  5
73
330
40
100
AcDbEntity
  8
DV1_0
 62
     7
100
AcDbLine
 10
126.7424328444
 20
83.1675400269
 30
0.0
 11
128.5565379323
 21
82.7636425083
 31
0.0
  0
ARC
  5
74
330
40
100
AcDbEntity
  8
DV1_0
 62
     7
100
AcDbCircle
 10
157.6932874838
 20
100.9257312234
 30
0.0
 40
34.33382648238689
100
AcDbArc
 50
211.9369196962
 51
231.5056098982
  0
LINE
  5
75
330
40
100
AcDbEntity
  8
DV1_0
 62
     7
100
AcDbLine
 10
136.3909837589
 20
74.1629784873
 30
0.0
 11
138.0909837589
 21
74.1629784873
 31
0.0
  0
ARC
  5
76
330
40
100
AcDbEntity
  8
DV1_0
 62
     7
100
AcDbCircle
 10
148.7695885545
 20
137.1083871167
 30
0.0
 40
72.82959955325632
100
AcDbArc
 50
215.8571691002
 51
221.4827388914
  0
LINE
  5
77
330
40
100
AcDbEntity
  8
DV1_0
 62
     7
100
AcDbLine
 10
84.6909837589
 20
74.4980258119
 30
0.0
 11
84.6909837589
 21
94.7537060005
 31
0.0
  0
LINE
  5
78
330
40
100
AcDbEntity
  8
DV1_0
 62
     7
100
AcDbLine
 10
84.6909837589
 20
74.4980258119
 30
0.0
 11
85.9293721012
 21
74.4980258119
 31
0.0
  0
LINE
  5
79
330
40
100
AcDbEntity
  8
DV1_0
 62
     7
100
AcDbLine
 10
81.8204837589
 20
71.1832060005
 30
0.0
 11
81.8204837589
 21
97.6242060005
 31
0.0
  0
SPLINE
  5
7A
330
40
100
AcDbEntity
  8
DV1_0
 62
     7
100
AcDbSpline
210
0.0
220
0.0
230
1.0
 70
     8
 71
     3
 72
     8
 73
     4
 74
     0
 42
0.0000000035923194
 43
0.0000000001
 12
1.0
 22
0.0
 32
0.0
 13
1.0
 23
0.0
 33
0.0
 40
0.0
 40
0.0
 40
0.0
 40
0.0
 40
1.0
 40
1.0
 40
1.0
 40
1.0
 10
82.75908410188761
 20
72.49383365930336
 30
0.0
 10
83.40503631625754
 20
73.15996340887577
 30
0.0
 10
84.04942050399758
 20
73.82768520309679
 30
0.0
 10
84.69098375887123
 20
74.49802581186634
 30
0.0
  0
LINE
  5
7B
330
40
100
AcDbEntity
  8
DV1_0
 62
     7
100
AcDbLine
 10
90.6442464863
 20
96.9242894821
 30
0.0
 11
97.9548008246
 21
94.263465307
 31
0.0
  0
ARC
  5
7C
330
40
100
AcDbEntity
  8
DV1_0
 62
     7
100
AcDbCircle
 10
100.156972597
 20
81.3793696309
 30
0.0
 40
8.961472568818785
100
AcDbArc
 50
1.1323434693
 51
28.8676565307
  0
ARC
  5
7D
330
40
100
AcDbEntity
  8
DV1_0
 62
     7
100
AcDbCircle
 10
99.5288946752
 20
91.8206654317
 30
0.0
 40
7.979192256391166
100
AcDbArc
 50
340.8651889027
 51
355.432047765
  0
ARC
  5
7E
330
40
100
AcDbEntity
  8
DV1_0
 62
     7
100
AcDbCircle
 10
127.499973379
 20
58.14935256
 30
0.0
 40
39.05292096191478
100
AcDbArc
 50
97.0210110893
 51
120.5648254888
  0
LINE
  5
7F
330
40
100
AcDbEntity
  8
DV1_0
 62
     7
100
AcDbLine
 10
126.7077090253
 20
95.2439610857
 30
0.0
 11
122.7264054101
 21
96.9094310494
 31
0.0
  0
LINE
  5
80
330
40
100
AcDbEntity
  8
DV1_0
 62
     7
100
AcDbLine
 10
126.7077090253
 20
95.2439610857
 30
0.0
 11
107.3381664609
 21
88.1940241409
 31
0.0
  0
LINE
  5
81
330
40
100
AcDbEntity
  8
DV1_0
 62
     7
100
AcDbLine
 10
127.2608394148
 20
93.7242478303
 30
0.0
 11
126.7077090253
 21
95.2439610857
 31
0.0
  0
LINE
  5
82
330
40
100
AcDbEntity
  8
DV1_0
 62
     7
100
AcDbLine
 10
126.7424328444
 20
83.1675400269
 30
0.0
 11
110.2895818398
 21
77.1791919924
 31
0.0
  0
LINE
  5
83
330
40
100
AcDbEntity
  8
DV1_0
 62
     7
100
AcDbLine
 10
97.3504553524
 20
92.0080172994
 30
0.0
 11
107.0097136153
 21
89.4198268484
 31
0.0
  0
SPLINE
  5
84
330
40
100
AcDbEntity
  8
DV1_0
 62
     7
100
AcDbSpline
210
0.0
220
0.0
230
1.0
 70
     8
 71
     3
 72
    18
 73
    14
 74
     0
 42
0.0000000006879477
 43
0.0000000001
 12
1.0
 22
0.0
 32
0.0
 13
1.0
 23
0.0
 33
0.0
 40
0.0
 40
0.0
 40
0.0
 40
0.0
 40
0.2500000000000003
 40
0.2500000000000003
 40
0.3750000000000002
 40
0.3750000000000002
 40
0.5000000000000001
 40
0.5000000000000001
 40
0.625
 40
0.625
 40
0.75
 40
0.75
 40
1.0
 40
1.0
 40
1.0
 40
1.0
 10
108.5441117016366
 20
95.14627846552337
 30
0.0
 10
108.7883361594832
 20
96.05773655066305
 30
0.0
 10
108.6145949938791
 20
97.01498777462966
 30
0.0
 10
107.5181246502179
 20
98.3136942815853
 30
0.0
 10
107.0115157430545
 20
98.71923446692348
 30
0.0
 10
105.7830147803124
 20
99.3750776774687
 30
0.0
 10
105.0571761481074
 20
99.62459912793375
 30
0.0
 10
103.5781742345984
 20
99.87696176276646
 30
0.0
 10
102.8231157645735
 20
99.87877379719873
 30
0.0
 10
101.4882406073065
 20
99.64928809298165
 30
0.0
 10
100.8986651729265
 20
99.4210200041975
 30
0.0
 10
99.43989650072568
 20
98.51019479178755
 30
0.0
 10
98.84746582067899
 20
97.59493642635383
 30
0.0
 10
98.57348097329447
 20
96.57241105541075
 30
0.0
  0
LINE
  5
85
330
40
100
AcDbEntity
  8
DV1_0
 62
     7
100
AcDbLine
 10
85.1909837589
 20
71.7361616725
 30
0.0
 11
84.6394447079
 21
69.6786851448
 31
0.0
  0
LINE
  5
86
330
40
100
AcDbEntity
  8
DV1_0
 62
     7
100
AcDbLine
 10
84.6394447079
 20
69.6786851448
 30
0.0
 11
106.8544221883
 21
63.7261998691
 31
0.0
  0
LINE
  5
87
330
40
100
AcDbEntity
  8
DV1_0
 62
     7
100
AcDbLine
 10
85.1909837589
 20
71.7423230026
 30
0.0
 11
85.1909837589
 21
71.7361616725
 31
0.0
  0
LINE
  5
88
330
40
100
AcDbEntity
  8
DV1_0
 62
     7
100
AcDbLine
 10
88.158067197
 20
82.815629144
 30
0.0
 11
110.3743612017
 21
76.8627911066
 31
0.0
  0
LINE
  5
89
330
40
100
AcDbEntity
  8
DV1_0
 62
     7
100
AcDbLine
 10
126.0341810363
 20
98.4098066418
 30
0.0
 11
82.2772765099
 21
114.336017433
 31
0.0
  0
ARC
  5
8A
330
40
100
AcDbEntity
  8
DV1_0
 62
     7
100
AcDbCircle
 10
151.8699285717
 20
79.0255169492
 30
0.0
 40
37.47317770316553
100
AcDbArc
 50
121.5248812888
 51
125.2718641946
  0
ARC
  5
8B
330
40
100
AcDbEntity
  8
DV1_0
 62
     7
100
AcDbCircle
 10
204.8156184105
 20
77.9883397488
 30
0.0
 40
81.01494856952263
100
AcDbArc
 50
157.0184274234
 51
160.0698365207
  0
ARC
  5
8C
330
40
100
AcDbEntity
  8
DV1_0
 62
     7
100
AcDbCircle
 10
130.656908163
 20
103.9765513005
 30
0.0
 40
10.25270389158798
100
AcDbArc
 50
270.5063822181
 51
295.9006938959
  0
LINE
  5
8D
330
40
100
AcDbEntity
  8
DV1_0
 62
     7
100
AcDbLine
 10
130.2307880311
 20
109.61941575
 30
0.0
 11
86.3708851952
 21
125.5831148601
 31
0.0
  0
LINE
  5
8E
330
40
100
AcDbEntity
  8
DV1_0
 62
     7
100
AcDbLine
 10
133.2175939231
 20
111.7579247577
 30
0.0
 11
85.7631165734
 21
129.0299419956
 31
0.0
  0
LINE
  5
8F
330
40
100
AcDbEntity
  8
DV1_0
 62
     7
100
AcDbLine
 10
134.0094804283
 20
113.9336150494
 30
0.0
 11
86.5550030786
 21
131.2056322873
 31
0.0
  0
LINE
  5
90
330
40
100
AcDbEntity
  8
DV1_0
 62
     7
100
AcDbLine
 10
87.4531783298
 20
138.205245329
 30
0.0
 11
137.8207028039
 21
119.8729656467
 31
0.0
  0
LINE
  5
91
330
40
100
AcDbEntity
  8
DV1_0
 62
     7
100
AcDbLine
 10
136.3842182019
 20
115.9262566394
 30
0.0
 11
86.0166937278
 21
134.2585363217
 31
0.0
  0
LINE
  5
92
330
40
100
AcDbEntity
  8
DV1_0
 62
     7
100
AcDbLine
 10
127.2608394148
 20
93.7242478303
 30
0.0
 11
130.7475207595
 21
93.7242478303
 31
0.0
  0
LINE
  5
93
330
40
100
AcDbEntity
  8
DV1_0
 62
     7
100
AcDbLine
 10
130.7475207595
 20
93.7242478303
 30
0.0
 11
128.6527520685
 21
105.6042714239
 31
0.0
  0
LINE
  5
94
330
40
100
AcDbEntity
  8
DV1_0
 62
     7
100
AcDbLine
 10
128.6527520685
 20
105.6042714239
 30
0.0
 11
126.0341810363
 21
98.4098066418
 31
0.0
  0
LINE
  5
95
330
40
100
AcDbEntity
  8
DV1_0
 62
     7
100
AcDbLine
 10
126.0341810363
 20
98.4098066418
 30
0.0
 11
122.7264054101
 21
96.9094310494
 31
0.0
  0
LINE
  5
96
330
40
100
AcDbEntity
  8
DV1_0
 62
     7
100
AcDbLine
 10
106.4920755251
 20
62.3739037123
 30
0.0
 11
105.3166768816
 21
62.6888508296
 31
0.0
  0
LINE
  5
97
330
40
100
AcDbEntity
  8
DV1_0
 62
     7
100
AcDbLine
 10
85.2223359416
 20
68.0731132569
 30
0.0
 11
85.1909837589
 21
68.0815140489
 31
0.0
  0
LINE
  5
98
330
40
100
AcDbEntity
  8
DV1_0
 62
     7
100
AcDbLine
 10
88.158067197
 20
82.815629144
 30
0.0
 11
97.3504553524
 21
92.0080172994
 31
0.0
  0
LINE
  5
99
330
40
100
AcDbEntity
  8
DV1_0
 62
     7
100
AcDbLine
 10
85.1335788164
 20
71.5280848408
 30
0.0
 11
85.1909837589
 21
71.7423230026
 31
0.0
  0
LINE
  5
9A
330
40
100
AcDbEntity
  8
DV1_0
 62
     7
100
AcDbLine
 10
85.1909837589
 20
71.7423230026
 30
0.0
 11
88.158067197
 21
82.815629144
 31
0.0
  0
LINE
  5
9B
330
40
100
AcDbEntity
  8
DV1_0
 62
     7
100
AcDbLine
 10
97.3504553524
 20
92.0080172994
 30
0.0
 11
98.5734809733
 21
96.5724110554
 31
0.0
  0
LINE
  5
9C
330
40
100
AcDbEntity
  8
DV1_0
 62
     7
100
AcDbLine
 10
108.5441117016
 20
95.1462784655
 30
0.0
 11
107.0097136153
 21
89.4198268484
 31
0.0
  0
LINE
  5
9D
330
40
100
AcDbEntity
  8
DV1_0
 62
     7
100
AcDbLine
 10
107.0097136153
 20
89.4198268484
 30
0.0
 11
110.3743612017
 21
76.8627911066
 31
0.0
  0
LINE
  5
9E
330
40
100
AcDbEntity
  8
DV1_0
 62
     7
100
AcDbLine
 10
106.8544221883
 20
63.7261998691
 30
0.0
 11
106.4920755251
 21
62.3739037123
 31
0.0
  0
LINE
  5
9F
330
40
100
AcDbEntity
  8
DV1_0
 62
     7
100
AcDbLine
 10
110.3743612017
 20
76.8627911066
 30
0.0
 11
106.8544221883
 21
63.7261998691
 31
0.0
  0
SPLINE
  5
A0
330
40
100
AcDbEntity
  8
DV1_0
 62
     7
100
AcDbSpline
210
0.0
220
0.0
230
1.0
 70
     8
 71
     3
 72
   107
 73
   103
 74
     0
 42
0.0000000011283669
 43
0.0000000001
 12
1.0
 22
0.0
 32
0.0
 13
1.0
 23
0.0
 33
0.0
 40
0.0
 40
0.0
 40
0.0
 40
0.0
 40
0.0213045980908185
 40
0.0213045980908185
 40
0.0213045980908185
 40
0.0360238308374698
 40
0.0360238308374698
 40
0.0360238308374698
 40
0.0506129384686652
 40
0.0506129384686652
 40
0.0506129384686652
 40
0.0669009760189078
 40
0.0669009760189078
 40
0.0669009760189078
 40
0.081495350985732
 40
0.081495350985732
 40
0.081495350985732
 40
0.0974919689313986
 40
0.0974919689313986
 40
0.0974919689313986
 40
0.1126648670852552
 40
0.1126648670852552
 40
0.1126648670852552
 40
0.1774209450470019
 40
0.1774209450470019
 40
0.1774209450470019
 40
0.192827099474471
 40
0.192827099474471
 40
0.192827099474471
 40
0.2083411061795792
 40
0.2083411061795792
 40
0.2083411061795792
 40
0.2658269440548146
 40
0.2658269440548146
 40
0.2658269440548146
 40
0.3854863970371629
 40
0.3854863970371629
 40
0.3854863970371629
 40
0.4314769614281762
 40
0.4314769614281762
 40
0.4314769614281762
 40
0.4596350223637929
 40
0.4596350223637929
 40
0.4596350223637929
 40
0.4795970382418883
 40
0.4795970382418883
 40
0.4795970382418883
 40
0.4931920154549697
 40
0.4931920154549697
 40
0.4931920154549697
 40
0.5067030208006977
 40
0.5067030208006977
 40
0.5067030208006977
 40
0.5219244435637572
 40
0.5219244435637572
 40
0.5219244435637572
 40
0.5368994826658878
 40
0.5368994826658878
 40
0.5368994826658878
 40
0.5985702545868595
 40
0.5985702545868595
 40
0.5985702545868595
 40
0.7127650066028292
 40
0.7127650066028292
 40
0.7127650066028292
 40
0.769994591412405
 40
0.769994591412405
 40
0.769994591412405
 40
0.7985147681282803
 40
0.7985147681282803
 40
0.7985147681282803
 40
0.8136946026867297
 40
0.8136946026867297
 40
0.8136946026867297
 40
0.8289459002396291
 40
0.8289459002396291
 40
0.8289459002396291
 40
0.8867278085955147
 40
0.8867278085955147
 40
0.8867278085955147
 40
0.9090416216584322
 40
0.9090416216584322
 40
0.9090416216584322
 40
0.9223922775120648
 40
0.9223922775120648
 40
0.9223922775120648
 40
0.9357154131818977
 40
0.9357154131818977
 40
0.9357154131818977
 40
0.9500745696771277
 40
0.9500745696771277
 40
0.9500745696771277
 40
0.9657499923040299
 40
0.9657499923040299
 40
0.9657499923040299
 40
0.9812293405940744
 40
0.9812293405940744
 40
0.9812293405940744
 40
0.9954145550675515
 40
0.9954145550675515
 40
0.9954145550675515
 40
1.0
 40
1.0
 40
1.0
 40
1.0
 10
119.8769306128725
 20
85.68531870669558
 30
0.0
 10
119.8362353973706
 20
85.73279645811444
 30
0.0
 10
119.7910617690332
 20
85.7788174544118
 30
0.0
 10
119.7641512871586
 20
85.83543435808257
 30
0.0
 10
119.7454742013382
 20
85.87472903789056
 30
0.0
 10
119.7339612203917
 20
85.91810667950855
 30
0.0
 10
119.7298244476662
 20
85.96136787073998
 30
0.0
 10
119.7257086310467
 20
86.00440990898157
 30
0.0
 10
119.7279362878461
 20
86.04851150888742
 30
0.0
 10
119.7366867332285
 20
86.09065063323472
 30
0.0
 10
119.7464021336136
 20
86.13743664777712
 30
0.0
 10
119.765004874823
 20
86.1830497645132
 30
0.0
 10
119.7908797959265
 20
86.22272876708888
 30
0.0
 10
119.8141840358755
 20
86.25846564888491
 30
0.0
 10
119.8437507193717
 20
86.2903817361412
 30
0.0
 10
119.8766612745979
 20
86.3170355672794
 30
0.0
 10
119.9125871634699
 20
86.34613147796526
 30
0.0
 10
119.954137792072
 20
86.36921850989381
 30
0.0
 10
119.9978327990343
 20
86.38361293751143
 30
0.0
 10
120.0394156916248
 20
86.39731157218706
 30
0.0
 10
120.0837884979422
 20
86.40361446560262
 30
0.0
 10
120.1276107957788
 20
86.40370496866741
 30
0.0
 10
120.3166618257019
 20
86.40409540226983
 30
0.0
 10
120.5049323789546
 20
86.40370600052577
 30
0.0
 10
120.6921916882145
 20
86.40370600052577
 30
0.0
 10
120.7362305746932
 20
86.40370600052577
 30
0.0
 10
120.7810997274556
 20
86.39732262675724
 30
0.0
 10
120.8231445160071
 20
86.38290023898371
 30
0.0
 10
120.8653931262532
 20
86.36840793539858
 30
0.0
 10
120.9057032422731
 20
86.34537748396922
 30
0.0
 10
120.9407491767491
 20
86.3166673060486
 30
0.0
 10
121.0720092067611
 20
86.2091370355092
 30
0.0
 10
121.1828590944683
 20
86.07726887761223
 30
0.0
 10
121.30305597246
 20
85.95683544613429
 30
0.0
 10
121.553246638985
 20
85.70615239182534
 30
0.0
 10
121.8031433253555
 20
85.45569536239492
 30
0.0
 10
122.0528099080107
 20
85.2056538344497
 30
0.0
 10
122.1487707855578
 20
85.1095488443879
 30
0.0
 10
122.2446992510558
 20
85.0135036141244
 30
0.0
 10
122.3405984210855
 20
84.91752925740619
 30
0.0
 10
122.3993135800916
 20
84.85876806465052
 30
0.0
 10
122.4580180551881
 20
84.80003313974417
 30
0.0
 10
122.5167125011295
 20
84.74132707565315
 30
0.0
 10
122.5582152930178
 20
84.69981606858126
 30
0.0
 10
122.6023229217978
 20
84.65897023051853
 30
0.0
 10
122.632761416999
 20
84.60805705387642
 30
0.0
 10
122.6535447743979
 20
84.57329361568824
 30
0.0
 10
122.6688976836627
 20
84.53437721805052
 30
0.0
 10
122.6775448474055
 20
84.49475226566844
 30
0.0
 10
122.6861647354941
 20
84.4552523018407
 30
0.0
 10
122.6886393177847
 20
84.41418592163657
 30
0.0
 10
122.6859138733699
 20
84.3742910743926
 30
0.0
 10
122.6828551568945
 20
84.32951781617365
 30
0.0
 10
122.6725215461657
 20
84.28495289524076
 30
0.0
 10
122.6552820511114
 20
84.24452571354558
 30
0.0
 10
122.6382960943706
 20
84.20469308751674
 30
0.0
 10
122.6142844158455
 20
84.1679148730811
 30
0.0
 10
122.5859330285911
 20
84.13624246758843
 30
0.0
 10
122.467909858343
 20
84.0043943265407
 30
0.0
 10
122.3362571345747
 20
83.88523888652803
 30
0.0
 10
122.2102067392347
 20
83.75893781462443
 30
0.0
 10
121.9768852326401
 20
83.52515230128606
 30
0.0
 10
121.741224238339
 20
83.28896998253843
 30
0.0
 10
121.5038530672788
 20
83.05123633307308
 30
0.0
 10
121.3848476745948
 20
82.93204921282396
 30
0.0
 10
121.2653672337943
 20
82.81242722939297
 30
0.0
 10
121.1454887261969
 20
82.69247625816503
 30
0.0
 10
121.0857420424601
 20
82.6326934590168
 30
0.0
 10
121.0272040326211
 20
82.57143520519348
 30
0.0
 10
120.9658488028281
 20
82.51297814747743
 30
0.0
 10
120.9335885301226
 20
82.48224171914292
 30
0.0
 10
120.8962125925979
 20
82.45591117532453
 30
0.0
 10
120.8556968926472
 20
82.43749035272593
 30
0.0
 10
120.8150413833441
 20
82.41900596456435
 30
0.0
 10
120.7702750436708
 20
82.40816918443828
 30
0.0
 10
120.7256033402034
 20
82.40488395998747
 30
0.0
 10
120.5543499439486
 20
82.39228972692744
 30
0.0
 10
120.3814182168508
 20
82.40370600052577
 30
0.0
 10
120.2086807173986
 20
82.40370600052577
 30
0.0
 10
120.1421574042535
 20
82.40370600052577
 30
0.0
 10
120.0737768327621
 20
82.4011519954791
 30
0.0
 10
120.009419760946
 20
82.41889449754802
 30
0.0
 10
119.9707426295525
 20
82.4295573363691
 30
0.0
 10
119.9331637273597
 20
82.446841869667
 30
0.0
 10
119.9002031433726
 20
82.46993719800574
 30
0.0
 10
119.8672586517641
 20
82.49302125048946
 30
0.0
 10
119.8383227515915
 20
82.52244197646961
 30
0.0
 10
119.813947910771
 20
82.55454073561724
 30
0.0
 10
119.7876984053714
 20
82.58910820449935
 30
0.0
 10
119.7661782119431
 20
82.6280223760391
 30
0.0
 10
119.7516332985839
 20
82.66894693627759
 30
0.0
 10
119.7357978060302
 20
82.71350275815978
 30
0.0
 10
119.7279361445972
 20
82.76152297096556
 30
0.0
 10
119.7278778110513
 20
82.80876844397933
 30
0.0
 10
119.7278202987591
 20
82.85534876767392
 30
0.0
 10
119.7355569992469
 20
82.90284578889634
 30
0.0
 10
119.7521891425532
 20
82.9462262100192
 30
0.0
 10
119.7674631378916
 20
82.98606427164503
 30
0.0
 10
119.7906004182543
 20
83.02338461639131
 30
0.0
 10
119.8185794207733
 20
83.05540134523547
 30
0.0
 10
119.8277470218509
 20
83.06589194788133
 30
0.0
 10
119.8374647108965
 20
83.0759116959484
 30
0.0
 10
119.847608682512
 20
83.08544088140543
 30
0.0
  0
SPLINE
  5
A1
330
40
100
AcDbEntity
  8
DV1_0
 62
     7
100
AcDbSpline
210
0.0
220
0.0
230
1.0
 70
     8
 71
     3
 72
    44
 73
    40
 74
     0
 42
0.0000000009976436
 43
0.0000000001
 12
1.0
 22
0.0
 32
0.0
 13
1.0
 23
0.0
 33
0.0
 40
0.0
 40
0.0
 40
0.0
 40
0.0
 40
0.0312500000000001
 40
0.0312500000000001
 40
0.0625000000000002
 40
0.0625000000000002
 40
0.0937500000000003
 40
0.0937500000000003
 40
0.1250000000000004
 40
0.1250000000000004
 40
0.2500000000000004
 40
0.2500000000000004
 40
0.3750000000000003
 40
0.3750000000000003
 40
0.4062500000000003
 40
0.4062500000000003
 40
0.4375000000000003
 40
0.4375000000000003
 40
0.4687500000000003
 40
0.4687500000000003
 40
0.5000000000000003
 40
0.5000000000000003
 40
0.5312500000000003
 40
0.5312500000000003
 40
0.5625000000000003
 40
0.5625000000000003
 40
0.5937500000000003
 40
0.5937500000000003
 40
0.6250000000000003
 40
0.6250000000000003
 40
0.7500000000000002
 40
0.7500000000000002
 40
0.8750000000000002
 40
0.8750000000000002
 40
0.9375000000000001
 40
0.9375000000000001
 40
0.9687500000000001
 40
0.9687500000000001
 40
1.0
 40
1.0
 40
1.0
 40
1.0
 10
119.847608682512
 20
83.08544088140543
 30
0.0
 10
119.9114727220334
 20
83.16527093080714
 30
0.0
 10
119.9790699049248
 20
83.2484648492504
 30
0.0
 10
120.0036505878864
 20
83.45458410306553
 30
0.0
 10
119.9778340215231
 20
83.56218662845372
 30
0.0
 10
119.8507791262282
 20
83.72680402120271
 30
0.0
 10
119.7578720285705
 20
83.78654497555107
 30
0.0
 10
119.5550900608698
 20
83.81709087334038
 30
0.0
 10
119.4503795669869
 20
83.80627166943242
 30
0.0
 10
118.9328924418504
 20
83.80627166943242
 30
0.0
 10
118.5172500531763
 20
83.80627166943268
 30
0.0
 10
117.6865366810056
 20
83.80627166943268
 30
0.0
 10
117.2709458921854
 20
83.8062716694325
 30
0.0
 10
116.7511631058842
 20
83.8062716694325
 30
0.0
 10
116.6471626145247
 20
83.80627166943236
 30
0.0
 10
116.4393087121824
 20
83.80627166943236
 30
0.0
 10
116.3307421103977
 20
83.80264950325984
 30
0.0
 10
116.1485948402757
 20
83.89728968803998
 30
0.0
 10
116.075389989386
 20
83.98273875397392
 30
0.0
 10
116.013281367607
 20
84.17948072626095
 30
0.0
 10
116.0259837588796
 20
84.28526896347647
 30
0.0
 10
116.0259837588796
 20
84.49021946144809
 30
0.0
 10
116.0134648602125
 20
84.59405882093988
 30
0.0
 10
116.0586227517478
 20
84.7960800661196
 30
0.0
 10
116.1245729864622
 20
84.88563814640958
 30
0.0
 10
116.2967175987201
 20
84.99609212517956
 30
0.0
 10
116.4053413820362
 20
85.00120635546956
 30
0.0
 10
116.6130732714253
 20
85.00098536130122
 30
0.0
 10
116.7169731340468
 20
85.00067460218622
 30
0.0
 10
117.2366417666911
 20
84.99843856247385
 30
0.0
 10
117.6519736974432
 20
84.99447728790666
 30
0.0
 10
118.4803781414432
 20
84.99039292905495
 30
0.0
 10
118.8941091731506
 20
84.9902754112852
 30
0.0
 10
119.511818603473
 20
84.99893469776742
 30
0.0
 10
119.747087559052
 20
84.97672713124959
 30
0.0
 10
119.9514447423323
 20
85.20276577978582
 30
0.0
 10
119.9939157151928
 20
85.30258642833637
 30
0.0
 10
119.9945171002947
 20
85.50829688519333
 30
0.0
 10
119.9445550865761
 20
85.60642348737467
 30
0.0
 10
119.8769306128725
 20
85.68531870669558
 30
0.0
  0
LINE
  5
A2
330
40
100
AcDbEntity
  8
DV1_0
 62
     7
100
AcDbLine
 10
82.7590841019
 20
72.4938336593
 30
0.0
 11
83.1105879256
 21
71.5280848408
 31
0.0
  0
LINE
  5
A3
330
40
100
AcDbEntity
  8
DV1_0
 62
     7
100
AcDbLine
 10
110.4568345126
 20
62.7246821703
 30
0.0
 11
108.2273660981
 21
68.8500962965
 31
0.0
  0
LINE
  5
A4
330
40
100
AcDbEntity
  8
DV1_0
 62
     7
100
AcDbLine
 10
106.4920755251
 20
62.3739037123
 30
0.0
 11
109.5058953763
 21
61.566353117
 31
0.0
  0
LINE
  5
A5
330
40
100
AcDbEntity
  8
DV1_0
 62
     7
100
AcDbLine
 10
85.1480410043
 20
94.4472362564
 30
0.0
 11
88.0309097342
 21
102.367852995
 31
0.0
  0
LINE
  5
A6
330
40
100
AcDbEntity
  8
DV1_0
 62
     7
100
AcDbLine
 10
85.1480410043
 20
94.4472362564
 30
0.0
 11
89.7426728434
 21
94.4472362564
 31
0.0
  0
LINE
  5
A7
330
40
100
AcDbEntity
  8
DV1_0
 62
     7
100
AcDbLine
 10
89.7426728434
 20
94.4472362564
 30
0.0
 11
90.6442464863
 21
96.9242894821
 31
0.0
  0
SPLINE
  5
A8
330
40
100
AcDbEntity
  8
DV1_0
 62
     7
100
AcDbSpline
210
0.0
220
0.0
230
1.0
 70
     8
 71
     3
 72
     8
 73
     4
 74
     0
 42
0.0000000016560657
 43
0.0000000001
 12
1.0
 22
0.0
 32
0.0
 13
1.0
 23
0.0
 33
0.0
 40
0.0
 40
0.0
 40
0.0
 40
0.0
 40
1.0
 40
1.0
 40
1.0
 40
1.0
 10
90.64424648631827
 20
96.92428948214726
 30
0.0
 10
89.76435872106268
 20
98.73439378182728
 30
0.0
 10
88.89587749185978
 20
100.5502982584798
 30
0.0
 10
88.03090973419526
 20
102.3678529950426
 30
0.0
  0
LINE
  5
A9
330
40
100
AcDbEntity
  8
DV1_0
 62
     7
100
AcDbLine
 10
137.5608669373
 20
72.4037060005
 30
0.0
 11
139.8343703813
 21
72.4037060005
 31
0.0
  0
LINE
  5
AA
330
40
100
AcDbEntity
  8
DV1_0
 62
     7
100
AcDbLine
 10
136.3909837589
 20
74.1629784873
 30
0.0
 11
136.3909837589
 21
73.6343780938
 31
0.0
  0
LINE
  5
AB
330
40
100
AcDbEntity
  8
DV1_0
 62
     7
100
AcDbLine
 10
136.3909837589
 20
73.6343780938
 30
0.0
 11
136.838911769
 21
72.4037060005
 31
0.0
  0
LINE
  5
AC
330
40
100
AcDbEntity
  8
DV1_0
 62
     7
100
AcDbLine
 10
136.838911769
 20
72.4037060005
 30
0.0
 11
137.0497339284
 21
72.4037060005
 31
0.0
  0
LINE
  5
AD
330
40
100
AcDbEntity
  8
DV1_0
 62
     7
100
AcDbLine
 10
148.3909837589
 20
72.6832060005
 30
0.0
 11
148.3909837589
 21
96.1242060005
 31
0.0
  0
LINE
  5
AE
330
40
100
AcDbEntity
  8
DV1_0
 62
     7
100
AcDbLine
 10
146.8909837589
 20
71.1832060005
 30
0.0
 11
146.8909837589
 21
97.6242060005
 31
0.0
  0
LINE
  5
AF
330
40
100
AcDbEntity
  8
DV1_0
 62
     7
100
AcDbLine
 10
140.9614837589
 20
71.1832060005
 30
0.0
 11
140.9614837589
 21
97.6242060005
 31
0.0
  0
LINE
  5
B0
330
40
100
AcDbEntity
  8
DV1_0
 62
     7
100
AcDbLine
 10
74.1909837589
 20
72.6832060005
 30
0.0
 11
74.1909837589
 21
96.1242060005
 31
0.0
  0
LINE
  5
B1
330
40
100
AcDbEntity
  8
DV1_0
 62
     7
100
AcDbLine
 10
75.6909837589
 20
71.1832060005
 30
0.0
 11
75.6909837589
 21
97.6242060005
 31
0.0
  0
LINE
  5
B2
330
40
100
AcDbEntity
  8
DV1_0
 62
     7
100
AcDbLine
 10
85.1909837589
 20
68.0815140489
 30
0.0
 11
85.1909837589
 21
69.5309007015
 31
0.0
  0
LINE
  5
B3
330
40
100
AcDbEntity
  8
DV1_0
 62
     7
100
AcDbLine
 10
85.1335788164
 20
71.5280848408
 30
0.0
 11
83.1105879256
 21
71.5280848408
 31
0.0
  0
LINE
  5
B4
330
40
100
AcDbEntity
  8
DV1_0
 62
     7
100
AcDbLine
 10
83.1105879256
 20
71.5280848408
 30
0.0
 11
83.2361135579
 21
71.1832060005
 31
0.0
  0
LINE
  5
B5
330
40
100
AcDbEntity
  8
DV1_0
 62
     7
100
AcDbLine
 10
109.9765938878
 20
62.5498888777
 30
0.0
 11
109.5058953763
 21
61.566353117
 31
0.0
  0
LINE
  5
B6
330
40
100
AcDbEntity
  8
DV1_0
 62
     7
100
AcDbLine
 10
137.3359547558
 20
72.5078818621
 30
0.0
 11
137.0497339284
 21
72.4037060005
 31
0.0
  0
LINE
  5
B7
330
40
100
AcDbEntity
  8
DV1_0
 62
     7
100
AcDbLine
 10
137.5608669373
 20
72.4037060005
 30
0.0
 11
137.3359547558
 21
72.5078818621
 31
0.0
  0
LINE
  5
B8
330
40
100
AcDbEntity
  8
DV1_0
 62
     7
100
AcDbLine
 10
95.8801573975
 20
44.1494883334
 30
0.0
 11
102.4199231955
 21
42.3971633691
 31
0.0
  0
LINE
  5
B9
330
40
100
AcDbEntity
  8
DV1_0
 62
     7
100
AcDbLine
 10
94.7905517896
 20
35.1239616524
 30
0.0
 11
100.0905517896
 21
33.7038309325
 31
0.0
  0
LINE
  5
BA
330
40
100
AcDbEntity
  8
DV1_0
 62
     7
100
AcDbLine
 10
103.7378807065
 20
56.7967032892
 30
0.0
 11
101.4731251093
 21
57.4035427225
 31
0.0
  0
LINE
  5
BB
330
40
100
AcDbEntity
  8
DV1_0
 62
     7
100
AcDbLine
 10
101.4731251093
 20
57.4035427225
 30
0.0
 11
91.4259546393
 21
60.0956739362
 31
0.0
  0
LINE
  5
BC
330
40
100
AcDbEntity
  8
DV1_0
 62
     7
100
AcDbLine
 10
91.4259546393
 20
60.0956739362
 30
0.0
 11
83.6435397665
 21
62.1809657165
 31
0.0
  0
LINE
  5
BD
330
40
100
AcDbEntity
  8
DV1_0
 62
     7
100
AcDbLine
 10
103.2848584251
 20
64.1650235065
 30
0.0
 11
105.5496140222
 21
63.5581840732
 31
0.0
  0
LINE
  5
BE
330
40
100
AcDbEntity
  8
DV1_0
 62
     7
100
AcDbLine
 10
85.4552730822
 20
68.9424465005
 30
0.0
 11
93.237687955
 21
66.8571547202
 31
0.0
  0
LINE
  5
BF
330
40
100
AcDbEntity
  8
DV1_0
 62
     7
100
AcDbLine
 10
93.237687955
 20
66.8571547202
 30
0.0
 11
103.2848584251
 21
64.1650235065
 31
0.0
  0
LINE
  5
C0
330
40
100
AcDbEntity
  8
DV1_0
 62
     7
100
AcDbLine
 10
105.5496140222
 20
63.5581840732
 30
0.0
 11
103.7378807065
 21
56.7967032892
 31
0.0
  0
LINE
  5
C1
330
40
100
AcDbEntity
  8
DV1_0
 62
     7
100
AcDbLine
 10
85.4552730822
 20
68.9424465005
 30
0.0
 11
83.6435397665
 21
62.1809657165
 31
0.0
  0
LINE
  5
C2
330
40
100
AcDbEntity
  8
DV1_0
 62
     7
100
AcDbLine
 10
93.237687955
 20
66.8571547202
 30
0.0
 11
91.4259546393
 21
60.0956739362
 31
0.0
  0
LINE
  5
C3
330
40
100
AcDbEntity
  8
DV1_0
 62
     7
100
AcDbLine
 10
103.2848584251
 20
64.1650235065
 30
0.0
 11
101.4731251093
 21
57.4035427225
 31
0.0
  0
LINE
  5
C4
330
40
100
AcDbEntity
  8
DV1_0
 62
     7
100
AcDbLine
 10
96.990513673
 20
43.3343311758
 30
0.0
 11
82.9845891918
 21
47.0872073298
 31
0.0
  0
LINE
  5
C5
330
40
100
AcDbEntity
  8
DV1_0
 62
     7
100
AcDbLine
 10
94.6611422671
 20
34.6409987392
 30
0.0
 11
80.6552177859
 21
38.3938748932
 31
0.0
  0
LINE
  5
C6
330
40
100
AcDbEntity
  8
DV1_0
 62
     7
100
AcDbLine
 10
97.3286640362
 20
141.0491380064
 30
0.0
 11
132.0836608317
 21
128.3993536808
 31
0.0
  0
LINE
  5
C7
330
40
100
AcDbEntity
  8
DV1_0
 62
     7
100
AcDbLine
 10
122.0258653176
 20
40.9695273743
 30
0.0
 11
123.7824242949
 21
39.7395715371
 31
0.0
  0
LINE
  5
C8
330
40
100
AcDbEntity
  8
DV1_0
 62
     7
100
AcDbLine
 10
141.2049598899
 20
46.0827130813
 30
0.0
 11
141.7594103541
 21
48.1519503841
 31
0.0
  0
LINE
  5
C9
330
40
100
AcDbEntity
  8
DV1_0
 62
     7
100
AcDbLine
 10
121.9232592746
 20
41.2514351605
 30
0.0
 11
122.0258653176
 21
40.9695273743
 31
0.0
  0
LINE
  5
CA
330
40
100
AcDbEntity
  8
DV1_0
 62
     7
100
AcDbLine
 10
141.7594103541
 20
48.1519503841
 30
0.0
 11
141.6568043111
 21
48.4338581704
 31
0.0
  0
LINE
  5
CB
330
40
100
AcDbEntity
  8
DV1_0
 62
     7
100
AcDbLine
 10
132.9888278412
 20
35.7013727917
 30
0.0
 11
133.9191586466
 21
33.1453099115
 31
0.0
  0
LINE
  5
CC
330
40
100
AcDbEntity
  8
DV1_0
 62
     7
100
AcDbLine
 10
137.6779291297
 20
34.5133904848
 30
0.0
 11
136.7475983244
 21
37.069453365
 31
0.0
  0
LINE
  5
CD
330
40
100
AcDbEntity
  8
DV1_0
 62
     7
100
AcDbLine
 10
136.9811500895
 20
70.7824768659
 30
0.0
 11
136.4681198745
 21
72.1920157971
 31
0.0
  0
LINE
  5
CE
330
40
100
AcDbEntity
  8
DV1_0
 62
     7
100
AcDbLine
 10
110.6265728029
 20
62.7864618557
 30
0.0
 11
111.1396030179
 21
61.3769229245
 31
0.0
  0
LINE
  5
CF
330
40
100
AcDbEntity
  8
DV1_0
 62
     7
100
AcDbLine
 10
111.1396030179
 20
61.3769229245
 30
0.0
 11
115.4039456777
 21
60.6250042586
 31
0.0
  0
LINE
  5
D0
330
40
100
AcDbEntity
  8
DV1_0
 62
     7
100
AcDbLine
 10
134.1977980934
 20
67.4654071251
 30
0.0
 11
136.9811500895
 21
70.7824768659
 31
0.0
  0
LINE
  5
D1
330
40
100
AcDbEntity
  8
DV1_0
 62
     7
100
AcDbLine
 10
139.4768572841
 20
52.9613112026
 30
0.0
 11
134.1977980934
 21
67.4654071251
 31
0.0
  0
LINE
  5
D2
330
40
100
AcDbEntity
  8
DV1_0
 62
     7
100
AcDbLine
 10
115.4039456777
 20
60.6250042586
 30
0.0
 11
120.6830048684
 21
46.1209083361
 31
0.0
  0
LINE
  5
D3
330
40
100
AcDbEntity
  8
DV1_0
 62
     7
100
AcDbLine
 10
145.8854211047
 20
49.9729488153
 30
0.0
 11
144.175320388
 21
54.6714119193
 31
0.0
  0
LINE
  5
D4
330
40
100
AcDbEntity
  8
DV1_0
 62
     7
100
AcDbLine
 10
115.9845417645
 20
44.4108076195
 30
0.0
 11
117.6946424811
 21
39.7123445156
 31
0.0
  0
LINE
  5
D5
330
40
100
AcDbEntity
  8
DV1_0
 62
     7
100
AcDbLine
 10
140.9614837589
 20
97.6242060005
 30
0.0
 11
138.0909837589
 21
94.7537060005
 31
0.0
  0
LINE
  5
D6
330
40
100
AcDbEntity
  8
DV1_0
 62
     7
100
AcDbLine
 10
139.7458070284
 20
72.398882731
 30
0.0
 11
140.9614837589
 21
71.1832060005
 31
0.0
  0
LINE
  5
D7
330
40
100
AcDbEntity
  8
DV1_0
 62
     7
100
AcDbLine
 10
136.3909837589
 20
73.8658477332
 30
0.0
 11
136.3217804234
 21
74.0559823349
 31
0.0
  0
LINE
  5
D8
330
40
100
AcDbEntity
  8
DV1_0
 62
     7
100
AcDbLine
 10
136.9379661849
 20
72.3630258688
 30
0.0
 11
136.9231598278
 21
72.4037060005
 31
0.0
  0
LINE
  5
D9
330
40
100
AcDbEntity
  8
DV1_0
 62
     7
100
AcDbLine
 10
138.0909837589
 20
94.7537060005
 30
0.0
 11
135.1217627461
 21
94.7537060005
 31
0.0
  0
LINE
  5
DA
330
40
100
AcDbEntity
  8
DV1_0
 62
     7
100
AcDbLine
 10
136.3205408393
 20
74.0537060005
 30
0.0
 11
136.3909837589
 21
74.0537060005
 31
0.0
  0
LINE
  5
DB
330
40
100
AcDbEntity
  8
DV1_0
 62
     7
100
AcDbLine
 10
85.2595868689
 20
94.7537060005
 30
0.0
 11
84.6909837589
 21
94.7537060005
 31
0.0
  0
LINE
  5
DC
330
40
100
AcDbEntity
  8
DV1_0
 62
     7
100
AcDbLine
 10
81.8204837589
 20
71.1832060005
 30
0.0
 11
82.8583581666
 21
72.2210804082
 31
0.0
  0
LINE
  5
DD
330
40
100
AcDbEntity
  8
DV1_0
 62
     7
100
AcDbLine
 10
84.6909837589
 20
94.7537060005
 30
0.0
 11
81.8204837589
 21
97.6242060005
 31
0.0
  0
LINE
  5
DE
330
40
100
AcDbEntity
  8
DV1_0
 62
     7
100
AcDbLine
 10
82.2772765099
 20
114.336017433
 30
0.0
 11
87.9522352211
 21
102.1660292032
 31
0.0
  0
LINE
  5
DF
330
40
100
AcDbEntity
  8
DV1_0
 62
     7
100
AcDbLine
 10
86.3708851952
 20
125.5831148601
 30
0.0
 11
82.2772765099
 21
114.336017433
 31
0.0
  0
LINE
  5
E0
330
40
100
AcDbEntity
  8
DV1_0
 62
     7
100
AcDbLine
 10
135.1360863628
 20
94.7499226842
 30
0.0
 11
132.277315333
 21
110.9628188515
 31
0.0
  0
LINE
  5
E1
330
40
100
AcDbEntity
  8
DV1_0
 62
     7
100
AcDbLine
 10
85.7631165734
 20
129.0299419956
 30
0.0
 11
86.3708851952
 21
125.5831148601
 31
0.0
  0
LINE
  5
E2
330
40
100
AcDbEntity
  8
DV1_0
 62
     7
100
AcDbLine
 10
132.2652104427
 20
110.9587801306
 30
0.0
 11
133.2175939231
 21
111.7579247577
 31
0.0
  0
LINE
  5
E3
330
40
100
AcDbEntity
  8
DV1_0
 62
     7
100
AcDbLine
 10
86.5550030786
 20
131.2056322873
 30
0.0
 11
85.7631165734
 21
129.0299419956
 31
0.0
  0
LINE
  5
E4
330
40
100
AcDbEntity
  8
DV1_0
 62
     7
100
AcDbLine
 10
133.2175939231
 20
111.7579247577
 30
0.0
 11
134.0094804283
 21
113.9336150494
 31
0.0
  0
LINE
  5
E5
330
40
100
AcDbEntity
  8
DV1_0
 62
     7
100
AcDbLine
 10
86.0166937278
 20
134.2585363217
 30
0.0
 11
86.5550030786
 21
131.2056322873
 31
0.0
  0
LINE
  5
E6
330
40
100
AcDbEntity
  8
DV1_0
 62
     7
100
AcDbLine
 10
134.0094804283
 20
113.9336150494
 30
0.0
 11
136.3842182019
 21
115.9262566394
 31
0.0
  0
LINE
  5
E7
330
40
100
AcDbEntity
  8
DV1_0
 62
     7
100
AcDbLine
 10
87.4531783298
 20
138.205245329
 30
0.0
 11
86.0166937278
 21
134.2585363217
 31
0.0
  0
LINE
  5
E8
330
40
100
AcDbEntity
  8
DV1_0
 62
     7
100
AcDbLine
 10
136.3842182019
 20
115.9262566394
 30
0.0
 11
137.8207028039
 21
119.8729656467
 31
0.0
  0
LINE
  5
E9
330
40
100
AcDbEntity
  8
DV1_0
 62
     7
100
AcDbLine
 10
146.8909837589
 20
71.1832060005
 30
0.0
 11
148.3909837589
 21
72.6832060005
 31
0.0
  0
LINE
  5
EA
330
40
100
AcDbEntity
  8
DV1_0
 62
     7
100
AcDbLine
 10
148.3909837589
 20
96.1242060005
 30
0.0
 11
146.8909837589
 21
97.6242060005
 31
0.0
  0
LINE
  5
EB
330
40
100
AcDbEntity
  8
DV1_0
 62
     7
100
AcDbLine
 10
146.8909837589
 20
97.6242060005
 30
0.0
 11
140.9614837589
 21
97.6242060005
 31
0.0
  0
LINE
  5
EC
330
40
100
AcDbEntity
  8
DV1_0
 62
     7
100
AcDbLine
 10
140.9614837589
 20
71.1832060005
 30
0.0
 11
146.8909837589
 21
71.1832060005
 31
0.0
  0
LINE
  5
ED
330
40
100
AcDbEntity
  8
DV1_0
 62
     7
100
AcDbLine
 10
75.6909837589
 20
97.6242060005
 30
0.0
 11
74.1909837589
 21
96.1242060005
 31
0.0
  0
LINE
  5
EE
330
40
100
AcDbEntity
  8
DV1_0
 62
     7
100
AcDbLine
 10
74.1909837589
 20
72.6832060005
 30
0.0
 11
75.6909837589
 21
71.1832060005
 31
0.0
  0
LINE
  5
EF
330
40
100
AcDbEntity
  8
DV1_0
 62
     7
100
AcDbLine
 10
81.8204837589
 20
97.6242060005
 30
0.0
 11
75.6909837589
 21
97.6242060005
 31
0.0
  0
LINE
  5
F0
330
40
100
AcDbEntity
  8
DV1_0
 62
     7
100
AcDbLine
 10
75.6909837589
 20
71.1832060005
 30
0.0
 11
81.8204837589
 21
71.1832060005
 31
0.0
  0
LINE
  5
F1
330
40
100
AcDbEntity
  8
DV1_0
 62
     7
100
AcDbLine
 10
83.2361135579
 20
71.1832060005
 30
0.0
 11
85.0427552652
 21
71.1832060005
 31
0.0
  0
LINE
  5
F2
330
40
100
AcDbEntity
  8
DV1_0
 62
     7
100
AcDbLine
 10
101.1801573975
 20
42.7293576135
 30
0.0
 11
106.4471249653
 21
62.3859481784
 31
0.0
  0
LINE
  5
F3
330
40
100
AcDbEntity
  8
DV1_0
 62
     7
100
AcDbLine
 10
100.0905517896
 20
33.7038309325
 30
0.0
 11
102.4199231955
 21
42.3971633691
 31
0.0
  0
LINE
  5
F4
330
40
100
AcDbEntity
  8
DV1_0
 62
     7
100
AcDbLine
 10
86.6970391816
 20
69.1273543672
 30
0.0
 11
86.567629659
 21
68.6443914541
 31
0.0
  0
LINE
  5
F5
330
40
100
AcDbEntity
  8
DV1_0
 62
     7
100
AcDbLine
 10
104.4372574454
 20
63.8562391197
 30
0.0
 11
104.5666669679
 21
64.3392020328
 31
0.0
  0
LINE
  5
F6
330
40
100
AcDbEntity
  8
DV1_0
 62
     7
100
AcDbLine
 10
95.750747875
 20
43.6665254202
 30
0.0
 11
99.5683287902
 21
57.913931358
 31
0.0
  0
LINE
  5
F7
330
40
100
AcDbEntity
  8
DV1_0
 62
     7
100
AcDbLine
 10
88.0419359051
 20
61.0024190232
 30
0.0
 11
84.2243549898
 21
46.7550130854
 31
0.0
  0
LINE
  5
F8
330
40
100
AcDbEntity
  8
DV1_0
 62
     7
100
AcDbLine
 10
82.9845891918
 20
47.0872073298
 30
0.0
 11
80.6552177859
 21
38.3938748932
 31
0.0
  0
LINE
  5
F9
330
40
100
AcDbEntity
  8
DV1_0
 62
     7
100
AcDbLine
 10
94.6611422671
 20
34.6409987392
 30
0.0
 11
96.990513673
 21
43.3343311758
 31
0.0
  0
ARC
  5
FA
330
40
100
AcDbEntity
  8
DV1_0
 62
     7
100
AcDbCircle
 10
6843.6027410777
 20
-2817.5136824488
 30
0.0
 40
7366.499024987503
100
AcDbArc
 50
156.3202579773
 51
156.3674101496
  0
ARC
  5
FB
330
40
100
AcDbEntity
  8
DV1_0
 62
     7
100
AcDbCircle
 10
-6937.5896311114
 20
2198.4301337245
 30
0.0
 40
7366.499024987502
100
AcDbArc
 50
343.6325898504
 51
343.6797420227
  0
ENDBLK
  5
FD
330
40
100
AcDbEntity
  8
0
100
AcDbBlockEnd
  0
BLOCK
  5
1C7
330
FE
100
AcDbEntity
  8
0
100
AcDbBlockBegin
  2
SE1
 70
     0
 10
0.0
 20
0.0
 30
0.0
  3
SE1
  1

  0
LINE
  5
101
330
FE
100
AcDbEntity
  8
DV2_0
 62
     7
100
AcDbLine
 10
237.5218398938
 20
48.1519503841
 30
0.0
 11
257.2553849303
 21
40.9695273743
 31
0.0
  0
LINE
  5
102
330
FE
100
AcDbEntity
  8
DV2_0
 62
     7
100
AcDbLine
 10
236.0323184254
 20
39.4357452414
 30
0.0
 11
236.0312935429
 21
39.4361182681
 31
0.0
  0
LINE
  5
103
330
FE
100
AcDbEntity
  8
DV2_0
 62
     7
100
AcDbLine
 10
236.0312935429
 20
39.4361182681
 30
0.0
 11
238.076290358
 21
46.0827130813
 31
0.0
  0
LINE
  5
104
330
FE
100
AcDbEntity
  8
DV2_0
 62
     7
100
AcDbLine
 10
237.6329472247
 20
38.8531640023
 30
0.0
 11
240.0728780013
 21
37.965101826
 31
0.0
  0
LINE
  5
105
330
FE
100
AcDbEntity
  8
DV2_0
 62
     7
100
AcDbLine
 10
239.4465475633
 20
44.6397778583
 30
0.0
 11
241.9991311048
 21
43.7107134287
 31
0.0
  0
LINE
  5
106
330
FE
100
AcDbEntity
  8
DV2_0
 62
     7
100
AcDbLine
 10
237.6329472247
 20
38.8531640023
 30
0.0
 11
236.8996208222
 21
39.1200729849
 31
0.0
  0
LINE
  5
107
330
FE
100
AcDbEntity
  8
DV2_0
 62
     7
100
AcDbLine
 10
236.0323184254
 20
39.4357452414
 30
0.0
 11
236.8996208222
 21
39.1200729849
 31
0.0
  0
LINE
  5
108
330
FE
100
AcDbEntity
  8
DV2_0
 62
     7
100
AcDbLine
 10
236.8996208222
 20
39.1200729849
 30
0.0
 11
239.12972109
 21
46.2356038077
 31
0.0
  0
LINE
  5
109
330
FE
100
AcDbEntity
  8
DV2_0
 62
     7
100
AcDbLine
 10
238.2257500496
 20
46.5646223591
 30
0.0
 11
239.12972109
 21
46.2356038077
 31
0.0
  0
LINE
  5
10A
330
FE
100
AcDbEntity
  8
DV2_0
 62
     7
100
AcDbLine
 10
236.0323184254
 20
39.4357452414
 30
0.0
 11
238.2257500496
 21
46.5646223591
 31
0.0
  0
LINE
  5
10B
330
FE
100
AcDbEntity
  8
DV2_0
 62
     7
100
AcDbLine
 10
237.6329472247
 20
38.8531640023
 30
0.0
 11
239.4465475633
 21
44.6397778583
 31
0.0
  0
LINE
  5
10C
330
FE
100
AcDbEntity
  8
DV2_0
 62
     7
100
AcDbLine
 10
239.4465475633
 20
44.6397778583
 30
0.0
 11
239.12972109
 21
46.2356038077
 31
0.0
  0
LINE
  5
10D
330
FE
100
AcDbEntity
  8
DV2_0
 62
     7
100
AcDbLine
 10
242.3882085335
 20
37.1223904298
 30
0.0
 11
246.44131739
 21
35.6471794498
 31
0.0
  0
LINE
  5
10E
330
FE
100
AcDbEntity
  8
DV2_0
 62
     7
100
AcDbLine
 10
244.3829920552
 20
42.8430590001
 30
0.0
 11
248.5905309454
 21
41.3116400846
 31
0.0
  0
LINE
  5
10F
330
FE
100
AcDbEntity
  8
DV2_0
 62
     7
100
AcDbLine
 10
242.3882085335
 20
37.1223904298
 30
0.0
 11
242.1692054953
 21
37.2021010169
 31
0.0
  0
LINE
  5
110
330
FE
100
AcDbEntity
  8
DV2_0
 62
     7
100
AcDbLine
 10
240.0763073248
 20
37.9638536543
 30
0.0
 11
242.1692054953
 21
37.2021010169
 31
0.0
  0
LINE
  5
111
330
FE
100
AcDbEntity
  8
DV2_0
 62
     7
100
AcDbLine
 10
242.1692054953
 20
37.2021010169
 30
0.0
 11
244.6220983247
 21
44.2365419789
 31
0.0
  0
LINE
  5
112
330
FE
100
AcDbEntity
  8
DV2_0
 62
     7
100
AcDbLine
 10
242.4407145954
 20
45.0305007259
 30
0.0
 11
244.6220983247
 21
44.2365419789
 31
0.0
  0
LINE
  5
113
330
FE
100
AcDbEntity
  8
DV2_0
 62
     7
100
AcDbLine
 10
240.0763073248
 20
37.9638536543
 30
0.0
 11
242.4407145954
 21
45.0305007259
 31
0.0
  0
LINE
  5
114
330
FE
100
AcDbEntity
  8
DV2_0
 62
     7
100
AcDbLine
 10
242.3882085335
 20
37.1223904298
 30
0.0
 11
244.3829920552
 21
42.8430590001
 31
0.0
  0
LINE
  5
115
330
FE
100
AcDbEntity
  8
DV2_0
 62
     7
100
AcDbLine
 10
244.3829920552
 20
42.8430590001
 30
0.0
 11
244.6220983247
 21
44.2365419789
 31
0.0
  0
LINE
  5
116
330
FE
100
AcDbEntity
  8
DV2_0
 62
     7
100
AcDbLine
 10
248.7497670054
 20
34.8069725024
 30
0.0
 11
251.1949137817
 21
33.9170118575
 31
0.0
  0
LINE
  5
117
330
FE
100
AcDbEntity
  8
DV2_0
 62
     7
100
AcDbLine
 10
250.9743560247
 20
40.443998712
 30
0.0
 11
253.5252470841
 21
39.5155502955
 31
0.0
  0
LINE
  5
118
330
FE
100
AcDbEntity
  8
DV2_0
 62
     7
100
AcDbLine
 10
246.44131739
 20
35.6471794498
 30
0.0
 11
248.5905309454
 21
41.3116400846
 31
0.0
  0
LINE
  5
119
330
FE
100
AcDbEntity
  8
DV2_0
 62
     7
100
AcDbLine
 10
248.5905309454
 20
41.3116400846
 30
0.0
 11
249.3034820316
 21
42.5326576544
 31
0.0
  0
LINE
  5
11A
330
FE
100
AcDbEntity
  8
DV2_0
 62
     7
100
AcDbLine
 10
246.44131739
 20
35.6471794498
 30
0.0
 11
246.6606937483
 21
35.5673329852
 31
0.0
  0
LINE
  5
11B
330
FE
100
AcDbEntity
  8
DV2_0
 62
     7
100
AcDbLine
 10
246.6606937483
 20
35.5673329852
 30
0.0
 11
248.753196329
 21
34.8057243307
 31
0.0
  0
LINE
  5
11C
330
FE
100
AcDbEntity
  8
DV2_0
 62
     7
100
AcDbLine
 10
248.753196329
 20
34.8057243307
 30
0.0
 11
251.484453446
 21
41.7388489778
 31
0.0
  0
LINE
  5
11D
330
FE
100
AcDbEntity
  8
DV2_0
 62
     7
100
AcDbLine
 10
249.3034820316
 20
42.5326576544
 30
0.0
 11
251.484453446
 21
41.7388489778
 31
0.0
  0
LINE
  5
11E
330
FE
100
AcDbEntity
  8
DV2_0
 62
     7
100
AcDbLine
 10
246.6606937483
 20
35.5673329852
 30
0.0
 11
249.3034820316
 21
42.5326576544
 31
0.0
  0
LINE
  5
11F
330
FE
100
AcDbEntity
  8
DV2_0
 62
     7
100
AcDbLine
 10
251.1949137817
 20
33.9170118575
 30
0.0
 11
253.5252470841
 21
39.5155502955
 31
0.0
  0
LINE
  5
120
330
FE
100
AcDbEntity
  8
DV2_0
 62
     7
100
AcDbLine
 10
253.5252470841
 20
39.5155502955
 30
0.0
 11
254.7939362695
 21
40.5342957393
 31
0.0
  0
LINE
  5
121
330
FE
100
AcDbEntity
  8
DV2_0
 62
     7
100
AcDbLine
 10
251.1949137817
 20
33.9170118575
 30
0.0
 11
251.928433429
 21
33.6500325396
 31
0.0
  0
LINE
  5
122
330
FE
100
AcDbEntity
  8
DV2_0
 62
     7
100
AcDbLine
 10
251.928433429
 20
33.6500325396
 30
0.0
 11
252.7947807873
 21
33.3347078886
 31
0.0
  0
LINE
  5
123
330
FE
100
AcDbEntity
  8
DV2_0
 62
     7
100
AcDbLine
 10
252.7947807873
 20
33.3347078886
 30
0.0
 11
255.6969118935
 21
40.2056394899
 31
0.0
  0
LINE
  5
124
330
FE
100
AcDbEntity
  8
DV2_0
 62
     7
100
AcDbLine
 10
254.7939362695
 20
40.5342957393
 30
0.0
 11
255.6969118935
 21
40.2056394899
 31
0.0
  0
LINE
  5
125
330
FE
100
AcDbEntity
  8
DV2_0
 62
     7
100
AcDbLine
 10
251.928433429
 20
33.6500325396
 30
0.0
 11
254.7939362695
 21
40.5342957393
 31
0.0
  0
LINE
  5
126
330
FE
100
AcDbEntity
  8
DV2_0
 62
     7
100
AcDbLine
 10
241.6033211182
 20
34.5133904848
 30
0.0
 11
245.3620916014
 21
33.1453099115
 31
0.0
  0
LINE
  5
127
330
FE
100
AcDbEntity
  8
DV2_0
 62
     7
100
AcDbLine
 10
261.5866077668
 20
39.7123445156
 30
0.0
 11
233.3958291433
 21
49.9729488153
 31
0.0
  0
LINE
  5
128
330
FE
100
AcDbEntity
  8
DV2_0
 62
     7
100
AcDbLine
 10
268.14164723
 20
61.3769229245
 30
0.0
 11
242.3001001584
 21
70.7824768659
 31
0.0
  0
LINE
  5
129
330
FE
100
AcDbEntity
  8
DV2_0
 62
     7
100
AcDbLine
 10
263.8773045703
 20
60.6250042586
 30
0.0
 11
245.0834521545
 21
67.4654071251
 31
0.0
  0
LINE
  5
12A
330
FE
100
AcDbEntity
  8
DV2_0
 62
     7
100
AcDbLine
 10
263.2967084835
 20
44.4108076195
 30
0.0
 11
235.1059298599
 21
54.6714119193
 31
0.0
  0
LINE
  5
12B
330
FE
100
AcDbEntity
  8
DV2_0
 62
     7
100
AcDbLine
 10
268.8244157354
 20
62.7246821703
 30
0.0
 11
242.343284063
 21
72.3630258688
 31
0.0
  0
LINE
  5
12C
330
FE
100
AcDbEntity
  8
DV2_0
 62
     7
100
AcDbLine
 10
242.442338479
 20
72.4037060005
 30
0.0
 11
242.2315163196
 21
72.4037060005
 31
0.0
  0
LINE
  5
12D
330
FE
100
AcDbEntity
  8
DV2_0
 62
     7
100
AcDbLine
 10
241.1902664891
 20
74.1629784873
 30
0.0
 11
241.1902664891
 21
94.7537060005
 31
0.0
  0
LINE
  5
12E
330
FE
100
AcDbEntity
  8
DV2_0
 62
     7
100
AcDbLine
 10
268.8244157354
 20
62.7246821703
 30
0.0
 11
269.2727758141
 21
63.9565413623
 31
0.0
  0
LINE
  5
12F
330
FE
100
AcDbEntity
  8
DV2_0
 62
     7
100
AcDbLine
 10
266.3094833657
 20
75.0156993374
 30
0.0
 11
265.725443721
 21
77.3038227845
 31
0.0
  0
LINE
  5
130
330
FE
100
AcDbEntity
  8
DV2_0
 62
     7
100
AcDbLine
 10
265.725443721
 20
77.3038227845
 30
0.0
 11
250.7247123156
 21
82.7636425083
 31
0.0
  0
LINE
  5
131
330
FE
100
AcDbEntity
  8
DV2_0
 62
     7
100
AcDbLine
 10
242.8902664891
 20
73.6343780938
 30
0.0
 11
242.442338479
 21
72.4037060005
 31
0.0
  0
SPLINE
  5
132
330
FE
100
AcDbEntity
  8
DV2_0
 62
     7
100
AcDbSpline
210
0.0
220
0.0
230
1.0
 70
     8
 71
     3
 72
    14
 73
    10
 74
     0
 42
0.0000000009080376
 43
0.0000000001
 12
1.0
 22
0.0
 32
0.0
 13
1.0
 23
0.0
 33
0.0
 40
0.0
 40
0.0
 40
0.0
 40
0.0
 40
0.2500000000000001
 40
0.2500000000000001
 40
0.5000000000000001
 40
0.5000000000000001
 40
0.7500000000000002
 40
0.7500000000000002
 40
1.0
 40
1.0
 40
1.0
 40
1.0
 10
252.5388174035005
 20
83.167540026934
 30
0.0
 10
253.0485181305638
 20
84.14540485073248
 30
0.0
 10
253.408648422746
 20
85.21237667961302
 30
0.0
 10
253.6832241564188
 20
87.34955094160395
 30
0.0
 10
253.6048461098159
 20
88.41199116525824
 30
0.0
 10
253.2577740619182
 20
90.30881227977645
 30
0.0
 10
252.9941821766501
 20
91.17055153163096
 30
0.0
 10
252.4785347152164
 20
92.64015617564067
 30
0.0
 10
252.2217659938405
 20
93.25805953792973
 30
0.0
 10
252.0204108331048
 20
93.72424783026935
 30
0.0
  0
LINE
  5
133
330
FE
100
AcDbEntity
  8
DV2_0
 62
     7
100
AcDbLine
 10
252.0204108331
 20
93.7242478303
 30
0.0
 11
248.5337294885
 21
93.7242478303
 31
0.0
  0
ARC
  5
134
330
FE
100
AcDbEntity
  8
DV2_0
 62
     7
100
AcDbCircle
 10
221.5879627641
 20
100.9257312234
 30
0.0
 40
34.3338264823901
100
AcDbArc
 50
308.4943901018
 51
328.0630803038
  0
LINE
  5
135
330
FE
100
AcDbEntity
  8
DV2_0
 62
     7
100
AcDbLine
 10
250.7247123156
 20
82.7636425083
 30
0.0
 11
252.5388174035
 21
83.1675400269
 31
0.0
  0
LINE
  5
136
330
FE
100
AcDbEntity
  8
DV2_0
 62
     7
100
AcDbLine
 10
294.1332092437
 20
94.4472362564
 30
0.0
 11
289.5385774045
 21
94.4472362564
 31
0.0
  0
LINE
  5
137
330
FE
100
AcDbEntity
  8
DV2_0
 62
     7
100
AcDbLine
 10
294.5902664891
 20
74.4980258119
 30
0.0
 11
294.5902664891
 21
94.7537060005
 31
0.0
  0
LINE
  5
138
330
FE
100
AcDbEntity
  8
DV2_0
 62
     7
100
AcDbLine
 10
297.4607664891
 20
71.1832060005
 30
0.0
 11
297.4607664891
 21
97.6242060005
 31
0.0
  0
LINE
  5
139
330
FE
100
AcDbEntity
  8
DV2_0
 62
     7
100
AcDbLine
 10
282.890730395
 20
82.6803024639
 30
0.0
 11
286.9283074986
 21
67.6118595738
 31
0.0
  0
LINE
  5
13A
330
FE
100
AcDbEntity
  8
DV2_0
 62
     7
100
AcDbLine
 10
269.5416426254
 20
62.9531167619
 30
0.0
 11
266.3094833657
 21
75.0156993374
 31
0.0
  0
ARC
  5
13B
330
FE
100
AcDbEntity
  8
DV2_0
 62
     7
100
AcDbCircle
 10
509.3922686453
 20
145.2347307495
 30
0.0
 40
251.9741945987672
100
AcDbArc
 50
194.2723463824
 51
194.9222975595
  0
LINE
  5
13C
330
FE
100
AcDbEntity
  8
DV2_0
 62
     7
100
AcDbLine
 10
265.1952999474
 20
83.1152070678
 30
0.0
 11
268.7794004713
 21
89.3455106985
 31
0.0
  0
LINE
  5
13D
330
FE
100
AcDbEntity
  8
DV2_0
 62
     7
100
AcDbLine
 10
268.7794004713
 20
89.3455106985
 30
0.0
 11
252.5735412227
 21
95.2439610857
 31
0.0
  0
LINE
  5
13E
330
FE
100
AcDbEntity
  8
DV2_0
 62
     7
100
AcDbLine
 10
266.021703612
 20
79.9534113046
 30
0.0
 11
265.5677676826
 21
78.2592993526
 31
0.0
  0
LINE
  5
13F
330
FE
100
AcDbEntity
  8
DV2_0
 62
     7
100
AcDbLine
 10
265.5075756067
 20
78.0225001765
 30
0.0
 11
282.890730395
 21
82.6803024639
 31
0.0
  0
LINE
  5
140
330
FE
100
AcDbEntity
  8
DV2_0
 62
     7
100
AcDbLine
 10
274.1332500184
 20
91.6453548345
 30
0.0
 11
288.6370037616
 21
96.9242894821
 31
0.0
  0
SPLINE
  5
141
330
FE
100
AcDbEntity
  8
DV2_0
 62
     7
100
AcDbSpline
210
0.0
220
0.0
230
1.0
 70
     8
 71
     3
 72
     8
 73
     4
 74
     0
 42
0.0000000016560657
 43
0.0000000001
 12
1.0
 22
0.0
 32
0.0
 13
1.0
 23
0.0
 33
0.0
 40
0.0
 40
0.0
 40
0.0
 40
0.0
 40
1.0
 40
1.0
 40
1.0
 40
1.0
 10
288.6370037616231
 20
96.92428948214726
 30
0.0
 10
289.5168915268786
 20
98.73439378182728
 30
0.0
 10
290.3853727560816
 20
100.5502982584798
 30
0.0
 10
291.2503405137461
 20
102.3678529950426
 30
0.0
  0
LINE
  5
142
330
FE
100
AcDbEntity
  8
DV2_0
 62
     7
100
AcDbLine
 10
253.2470692117
 20
98.4098066418
 30
0.0
 11
256.5548448379
 21
96.9094310494
 31
0.0
  0
ARC
  5
143
330
FE
100
AcDbEntity
  8
DV2_0
 62
     7
100
AcDbCircle
 10
201.9160653977
 20
86.9777068841
 30
0.0
 40
66.13791691363875
100
AcDbArc
 50
5.991187223
 51
7.7750467325
  0
ARC
  5
144
330
FE
100
AcDbEntity
  8
DV2_0
 62
     7
100
AcDbCircle
 10
632.169999571
 20
229.215839294
 30
0.0
 40
383.5569738964114
100
AcDbArc
 50
200.4649554522
 51
201.0185553625
  0
SPLINE
  5
145
330
FE
100
AcDbEntity
  8
DV2_0
 62
     7
100
AcDbSpline
210
0.0
220
0.0
230
1.0
 70
     8
 71
     3
 72
    20
 73
    16
 74
     0
 42
0.0000000005481631
 43
0.0000000001
 12
1.0
 22
0.0
 32
0.0
 13
1.0
 23
0.0
 33
0.0
 40
0.3140223570627069
 40
0.3140223570627069
 40
0.3140223570627069
 40
0.3140223570627069
 40
0.3749999999999992
 40
0.3749999999999992
 40
0.4374999999999992
 40
0.4374999999999992
 40
0.4999999999999992
 40
0.4999999999999992
 40
0.6249999999999994
 40
0.6249999999999994
 40
0.7499999999999996
 40
0.7499999999999996
 40
0.8749999999999998
 40
0.8749999999999998
 40
1.0
 40
1.0
 40
1.0
 40
1.0
 10
280.3609009446058
 20
87.39604880541854
 30
0.0
 10
280.7969929507082
 20
87.23540707953336
 30
0.0
 10
281.252505724611
 20
87.10871735994427
 30
0.0
 10
282.1964630787947
 20
87.04849483860563
 30
0.0
 10
282.6838976764508
 20
87.13993461772877
 30
0.0
 10
283.5495547669169
 20
87.53289717305546
 30
0.0
 10
283.9335861995769
 20
87.81475436574277
 30
0.0
 10
284.9881770288968
 20
88.71843125635137
 30
0.0
 10
285.5821953032609
 20
89.40030696015798
 30
0.0
 10
286.6790444400091
 20
90.70051964081473
 30
0.0
 10
287.1708686407205
 20
91.32474914477902
 30
0.0
 10
288.066759578638
 20
92.48110014898884
 30
0.0
 10
288.463108232581
 20
93.0059747915962
 30
0.0
 10
289.1140001737842
 20
93.87395118808472
 30
0.0
 10
289.3726846907218
 20
94.22302423849423
 30
0.0
 10
289.5385774045002
 20
94.44723625636709
 30
0.0
  0
LINE
  5
146
330
FE
100
AcDbEntity
  8
DV2_0
 62
     7
100
AcDbLine
 10
289.5385774045
 20
94.4472362564
 30
0.0
 11
288.6370037616
 21
96.9242894821
 31
0.0
  0
LINE
  5
147
330
FE
100
AcDbEntity
  8
DV2_0
 62
     7
100
AcDbLine
 10
274.1332500184
 20
91.6453548345
 30
0.0
 11
274.341990852
 21
90.8819083683
 31
0.0
  0
LINE
  5
148
330
FE
100
AcDbEntity
  8
DV2_0
 62
     7
100
AcDbLine
 10
294.2384949828
 20
71.1832060005
 30
0.0
 11
294.64180554
 21
69.6786851448
 31
0.0
  0
ARC
  5
149
330
FE
100
AcDbEntity
  8
DV2_0
 62
     7
100
AcDbCircle
 10
248.8851518767
 20
46.7082758585
 30
0.0
 40
50.78366048855115
100
AcDbArc
 50
68.2629731327
 51
81.3135650851
  0
LINE
  5
14A
330
FE
100
AcDbEntity
  8
DV2_0
 62
     7
100
AcDbLine
 10
268.7794004713
 20
89.3455106985
 30
0.0
 11
268.8526464468
 21
89.4615504719
 31
0.0
  0
LINE
  5
14B
330
FE
100
AcDbEntity
  8
DV2_0
 62
     7
100
AcDbLine
 10
265.3772823375
 20
78.4947209373
 30
0.0
 11
252.5388174035
 21
83.1675400269
 31
0.0
  0
LINE
  5
14C
330
FE
100
AcDbEntity
  8
DV2_0
 62
     7
100
AcDbLine
 10
265.725443721
 20
77.3038227845
 30
0.0
 11
265.5075756067
 21
78.0225001765
 31
0.0
  0
LINE
  5
14D
330
FE
100
AcDbEntity
  8
DV2_0
 62
     7
100
AcDbLine
 10
265.5075756067
 20
78.0225001765
 30
0.0
 11
265.5677676826
 21
78.2592993526
 31
0.0
  0
LINE
  5
14E
330
FE
100
AcDbEntity
  8
DV2_0
 62
     7
100
AcDbLine
 10
250.6284981795
 20
105.6042714239
 30
0.0
 11
253.2470692117
 21
98.4098066418
 31
0.0
  0
LINE
  5
14F
330
FE
100
AcDbEntity
  8
DV2_0
 62
     7
100
AcDbLine
 10
253.2470692117
 20
98.4098066418
 30
0.0
 11
297.0039737381
 21
114.336017433
 31
0.0
  0
LINE
  5
150
330
FE
100
AcDbEntity
  8
DV2_0
 62
     7
100
AcDbLine
 10
248.5337294885
 20
93.7242478303
 30
0.0
 11
250.6284981795
 21
105.6042714239
 31
0.0
  0
ARC
  5
151
330
FE
100
AcDbEntity
  8
DV2_0
 62
     7
100
AcDbCircle
 10
174.4671393694
 20
77.9889322405
 30
0.0
 40
81.01332936011451
100
AcDbArc
 50
19.9301329779
 51
22.981603078
  0
ARC
  5
152
330
FE
100
AcDbEntity
  8
DV2_0
 62
     7
100
AcDbCircle
 10
227.4113216762
 20
79.0255169492
 30
0.0
 40
37.47317770316553
100
AcDbArc
 50
54.7281358054
 51
58.4751187112
  0
ARC
  5
153
330
FE
100
AcDbEntity
  8
DV2_0
 62
     7
100
AcDbCircle
 10
248.624342085
 20
103.9765513005
 30
0.0
 40
10.25270389158798
100
AcDbArc
 50
244.0993061041
 51
269.4936177819
  0
LINE
  5
154
330
FE
100
AcDbEntity
  8
DV2_0
 62
     7
100
AcDbLine
 10
249.0504622169
 20
109.61941575
 30
0.0
 11
292.9103650527
 21
125.5831148601
 31
0.0
  0
LINE
  5
155
330
FE
100
AcDbEntity
  8
DV2_0
 62
     7
100
AcDbLine
 10
246.0636563249
 20
111.7579247577
 30
0.0
 11
293.5181336745
 21
129.0299419956
 31
0.0
  0
LINE
  5
156
330
FE
100
AcDbEntity
  8
DV2_0
 62
     7
100
AcDbLine
 10
245.2717698197
 20
113.9336150494
 30
0.0
 11
292.7262471694
 21
131.2056322873
 31
0.0
  0
LINE
  5
157
330
FE
100
AcDbEntity
  8
DV2_0
 62
     7
100
AcDbLine
 10
291.8280719182
 20
138.205245329
 30
0.0
 11
241.460547444
 21
119.8729656467
 31
0.0
  0
LINE
  5
158
330
FE
100
AcDbEntity
  8
DV2_0
 62
     7
100
AcDbLine
 10
242.897032046
 20
115.9262566394
 30
0.0
 11
293.2645565201
 21
134.2585363217
 31
0.0
  0
LINE
  5
159
330
FE
100
AcDbEntity
  8
DV2_0
 62
     7
100
AcDbLine
 10
252.0204108331
 20
93.7242478303
 30
0.0
 11
252.5735412227
 21
95.2439610857
 31
0.0
  0
LINE
  5
15A
330
FE
100
AcDbEntity
  8
DV2_0
 62
     7
100
AcDbLine
 10
252.5735412227
 20
95.2439610857
 30
0.0
 11
256.5548448379
 21
96.9094310494
 31
0.0
  0
LINE
  5
15B
330
FE
100
AcDbEntity
  8
DV2_0
 62
     7
100
AcDbLine
 10
269.0741725176
 20
89.8485668328
 30
0.0
 11
273.8854234521
 21
91.1377376352
 31
0.0
  0
SPLINE
  5
15C
330
FE
100
AcDbEntity
  8
DV2_0
 62
     7
100
AcDbSpline
210
0.0
220
0.0
230
1.0
 70
     8
 71
     3
 72
    16
 73
    12
 74
     0
 42
0.0000000014181105
 43
0.0000000001
 12
1.0
 22
0.0
 32
0.0
 13
1.0
 23
0.0
 33
0.0
 40
0.0
 40
0.0
 40
0.0
 40
0.0
 40
0.2499999999999997
 40
0.2499999999999997
 40
0.4999999999999994
 40
0.4999999999999994
 40
0.6249999999999997
 40
0.6249999999999997
 40
0.7499999999999998
 40
0.7499999999999998
 40
1.0
 40
1.0
 40
1.0
 40
1.0
 10
272.820757741629
 20
95.11112415972426
 30
0.0
 10
272.6523318079709
 20
95.56112956247104
 30
0.0
 10
272.3215153230684
 20
95.993980293931
 30
0.0
 10
271.3857539709467
 20
96.72091698831287
 30
0.0
 10
270.7714756841908
 20
97.01689867486284
 30
0.0
 10
269.7201375240899
 20
97.22064139862225
 30
0.0
 10
269.3486050639241
 20
97.2459178289507
 30
0.0
 10
268.653988564489
 20
97.18814051647318
 30
0.0
 10
268.3341850552777
 20
97.10471385164279
 30
0.0
 10
267.586244986769
 20
96.72937476939195
 30
0.0
 10
267.3923763254055
 20
96.3248825348986
 30
0.0
 10
267.4459667125687
 20
95.92511362226172
 30
0.0
  0
LINE
  5
15D
330
FE
100
AcDbEntity
  8
DV2_0
 62
     7
100
AcDbLine
 10
267.4459667126
 20
95.9251136223
 30
0.0
 11
269.0741725176
 21
89.8485668328
 31
0.0
  0
LINE
  5
15E
330
FE
100
AcDbEntity
  8
DV2_0
 62
     7
100
AcDbLine
 10
265.9156671937
 20
80.3491446052
 30
0.0
 11
266.021703612
 21
79.9534113046
 31
0.0
  0
LINE
  5
15F
330
FE
100
AcDbEntity
  8
DV2_0
 62
     7
100
AcDbLine
 10
266.021703612
 20
79.9534113046
 30
0.0
 11
281.4765168326
 21
84.0945160263
 31
0.0
  0
SPLINE
  5
160
330
FE
100
AcDbEntity
  8
DV2_0
 62
     7
100
AcDbSpline
210
0.0
220
0.0
230
1.0
 70
     8
 71
     3
 72
     8
 73
     4
 74
     0
 42
0.0000000246360256
 43
0.0000000001
 12
1.0
 22
0.0
 32
0.0
 13
1.0
 23
0.0
 33
0.0
 40
0.9442383692167791
 40
0.9442383692167791
 40
0.9442383692167791
 40
0.9442383692167791
 40
1.0
 40
1.0
 40
1.0
 40
1.0
 10
273.9064416045441
 20
91.1333152017541
 30
0.0
 10
273.8986739038387
 20
91.13784853154276
 30
0.0
 10
273.8916472807367
 20
91.13940530510548
 30
0.0
 10
273.8854234520804
 20
91.13773763524321
 30
0.0
  0
LINE
  5
161
330
FE
100
AcDbEntity
  8
DV2_0
 62
     7
100
AcDbLine
 10
269.0741725176
 20
89.8485668328
 30
0.0
 11
269.0627178125
 21
89.8177671018
 31
0.0
  0
LINE
  5
162
330
FE
100
AcDbEntity
  8
DV2_0
 62
     7
100
AcDbLine
 10
265.1952999474
 20
83.1152070678
 30
0.0
 11
280.6307093432
 21
87.2511125502
 31
0.0
  0
LINE
  5
163
330
FE
100
AcDbEntity
  8
DV2_0
 62
     7
100
AcDbLine
 10
269.5416426254
 20
62.9531167619
 30
0.0
 11
286.9283074986
 21
67.6118595738
 31
0.0
  0
LINE
  5
164
330
FE
100
AcDbEntity
  8
DV2_0
 62
     7
100
AcDbLine
 10
287.2906541618
 20
66.259563417
 30
0.0
 11
284.3605181677
 21
65.4744358437
 31
0.0
  0
LINE
  5
165
330
FE
100
AcDbEntity
  8
DV2_0
 62
     7
100
AcDbLine
 10
272.8341252826
 20
62.3859481784
 30
0.0
 11
269.9039892886
 21
61.6008206051
 31
0.0
  0
LINE
  5
166
330
FE
100
AcDbEntity
  8
DV2_0
 62
     7
100
AcDbLine
 10
269.9039892886
 20
61.6008206051
 30
0.0
 11
269.7753548716
 21
61.566353117
 31
0.0
  0
LINE
  5
167
330
FE
100
AcDbEntity
  8
DV2_0
 62
     7
100
AcDbLine
 10
294.0902664891
 20
68.0815140489
 30
0.0
 11
287.2906541618
 21
66.259563417
 31
0.0
  0
ARC
  5
168
330
FE
100
AcDbEntity
  8
DV2_0
 62
     7
100
AcDbCircle
 10
-525.4867189803
 20
-168.0609738873
 30
0.0
 40
835.3126256353861
100
AcDbArc
 50
17.9801437848
 51
18.2754378455
  0
LINE
  5
169
330
FE
100
AcDbEntity
  8
DV2_0
 62
     7
100
AcDbLine
 10
272.8207577416
 20
95.1111241597
 30
0.0
 11
273.8854234521
 21
91.1377376352
 31
0.0
  0
LINE
  5
16A
330
FE
100
AcDbEntity
  8
DV2_0
 62
     7
100
AcDbLine
 10
281.4765168326
 20
84.0945160263
 30
0.0
 11
282.890730395
 21
82.6803024639
 31
0.0
  0
LINE
  5
16B
330
FE
100
AcDbEntity
  8
DV2_0
 62
     7
100
AcDbLine
 10
280.6307093432
 20
87.2511125502
 30
0.0
 11
281.4765168326
 21
84.0945160263
 31
0.0
  0
LINE
  5
16C
330
FE
100
AcDbEntity
  8
DV2_0
 62
     7
100
AcDbLine
 10
265.9156671937
 20
80.3491446052
 30
0.0
 11
265.3193732708
 21
78.7108405166
 31
0.0
  0
LINE
  5
16D
330
FE
100
AcDbEntity
  8
DV2_0
 62
     7
100
AcDbLine
 10
265.3994839234
 20
78.4118634909
 30
0.0
 11
265.5677676826
 21
78.2592993526
 31
0.0
  0
LINE
  5
16E
330
FE
100
AcDbEntity
  8
DV2_0
 62
     7
100
AcDbLine
 10
265.3994839234
 20
78.4118634909
 30
0.0
 11
265.3193732708
 21
78.7108405166
 31
0.0
  0
SPLINE
  5
16F
330
FE
100
AcDbEntity
  8
DV2_0
 62
     7
100
AcDbSpline
210
0.0
220
0.0
230
1.0
 70
     8
 71
     3
 72
   107
 73
   103
 74
     0
 42
0.0000000011283669
 43
0.0000000001
 12
1.0
 22
0.0
 32
0.0
 13
1.0
 23
0.0
 33
0.0
 40
0.0
 40
0.0
 40
0.0
 40
0.0
 40
0.0213045980551131
 40
0.0213045980551131
 40
0.0213045980551131
 40
0.036023830778547
 40
0.036023830778547
 40
0.036023830778547
 40
0.0506129383867206
 40
0.0506129383867206
 40
0.0506129383867206
 40
0.0669009759080996
 40
0.0669009759080996
 40
0.0669009759080996
 40
0.0814953508517156
 40
0.0814953508517156
 40
0.0814953508517156
 40
0.0974919687743679
 40
0.0974919687743679
 40
0.0974919687743679
 40
0.1126648668981597
 40
0.1126648668981597
 40
0.1126648668981597
 40
0.1774209447513014
 40
0.1774209447513014
 40
0.1774209447513014
 40
0.1928270991548889
 40
0.1928270991548889
 40
0.1928270991548889
 40
0.2083411058367119
 40
0.2083411058367119
 40
0.2083411058367119
 40
0.2658269436299761
 40
0.2658269436299761
 40
0.2658269436299761
 40
0.3854863962765794
 40
0.3854863962765794
 40
0.3854863962765794
 40
0.4314769608848799
 40
0.4314769608848799
 40
0.4314769608848799
 40
0.4596350228188222
 40
0.4596350228188222
 40
0.4596350228188222
 40
0.4795970369627407
 40
0.4795970369627407
 40
0.4795970369627407
 40
0.4931920139782955
 40
0.4931920139782955
 40
0.4931920139782955
 40
0.5067030191419265
 40
0.5067030191419265
 40
0.5067030191419265
 40
0.5219244417749637
 40
0.5219244417749637
 40
0.5219244417749637
 40
0.5368994809608469
 40
0.5368994809608469
 40
0.5368994809608469
 40
0.5985702523152121
 40
0.5985702523152121
 40
0.5985702523152121
 40
0.7127650052295873
 40
0.7127650052295873
 40
0.7127650052295873
 40
0.7699945908126821
 40
0.7699945908126821
 40
0.7699945908126821
 40
0.7985147675162302
 40
0.7985147675162302
 40
0.7985147675162302
 40
0.8136946021041024
 40
0.8136946021041024
 40
0.8136946021041024
 40
0.8289458996948347
 40
0.8289458996948347
 40
0.8289458996948347
 40
0.886727808058132
 40
0.886727808058132
 40
0.886727808058132
 40
0.9090416216956223
 40
0.9090416216956223
 40
0.9090416216956223
 40
0.9223922776599119
 40
0.9223922776599119
 40
0.9223922776599119
 40
0.935715413440487
 40
0.935715413440487
 40
0.935715413440487
 40
0.9500745700449721
 40
0.9500745700449721
 40
0.9500745700449721
 40
0.9657499926430543
 40
0.9657499926430543
 40
0.9657499926430543
 40
0.9812293410081466
 40
0.9812293410081466
 40
0.9812293410081466
 40
0.9954145554046839
 40
0.9954145554046839
 40
0.9954145554046839
 40
1.0
 40
1.0
 40
1.0
 40
1.0
 10
259.4043196350689
 20
85.68531870669558
 30
0.0
 10
259.4450148505694
 20
85.73279645811286
 30
0.0
 10
259.4901884789053
 20
85.77881745440834
 30
0.0
 10
259.51709896078
 20
85.83543435807675
 30
0.0
 10
259.5357760466014
 20
85.87472903788502
 30
0.0
 10
259.5472890275481
 20
85.91810667950067
 30
0.0
 10
259.5514258002744
 20
85.96136787073267
 30
0.0
 10
259.5555416168946
 20
86.00440990897388
 30
0.0
 10
259.5533139600951
 20
86.04851150888868
 30
0.0
 10
259.5445635147126
 20
86.09065063323564
 30
0.0
 10
259.5348481143288
 20
86.13743664777105
 30
0.0
 10
259.5162453731166
 20
86.1830497645149
 30
0.0
 10
259.4903704520174
 20
86.22272876708499
 30
0.0
 10
259.4670662120678
 20
86.25846564888283
 30
0.0
 10
259.4374995285863
 20
86.2903817361249
 30
0.0
 10
259.40458897336
 20
86.31703556726595
 30
0.0
 10
259.3686630844834
 20
86.34613147795861
 30
0.0
 10
259.3271124558734
 20
86.36921850989295
 30
0.0
 10
259.2834174489037
 20
86.38361293751255
 30
0.0
 10
259.2418345563284
 20
86.3973115721827
 30
0.0
 10
259.1974617499772
 20
86.40361446560318
 30
0.0
 10
259.1536394521569
 20
86.40370496866743
 30
0.0
 10
258.964588422248
 20
86.40409540226756
 30
0.0
 10
258.7763178690557
 20
86.40370600052577
 30
0.0
 10
258.58905855981
 20
86.40370600052577
 30
0.0
 10
258.5450196733289
 20
86.40370600052577
 30
0.0
 10
258.5001505205333
 20
86.3973226267676
 30
0.0
 10
258.4581057319779
 20
86.38290023899867
 30
0.0
 10
258.4158571217266
 20
86.36840793541771
 30
0.0
 10
258.3755470056997
 20
86.34537748399029
 30
0.0
 10
258.3405010712185
 20
86.31666730607014
 30
0.0
 10
258.2092410411771
 20
86.20913703552408
 30
0.0
 10
258.098391153473
 20
86.07726887761217
 30
0.0
 10
257.9781942754619
 20
85.95683544611471
 30
0.0
 10
257.7280036092416
 20
85.70615239211115
 30
0.0
 10
257.4781069231721
 20
85.45569536298245
 30
0.0
 10
257.2284403408205
 20
85.20565383534085
 30
0.0
 10
257.1324794626675
 20
85.10954884467206
 30
0.0
 10
257.0365509965698
 20
85.01350361380813
 30
0.0
 10
256.9406518259349
 20
84.91752925648456
 30
0.0
 10
256.8819366647539
 20
84.85876806155248
 30
0.0
 10
256.8232321874531
 20
84.80003313444134
 30
0.0
 10
256.7645377393383
 20
84.74132706817805
 30
0.0
 10
256.7230349509861
 20
84.69981606464421
 30
0.0
 10
256.6789273265412
 20
84.65897022978372
 30
0.0
 10
256.648488833327
 20
84.60805705786503
 30
0.0
 10
256.6277054758184
 20
84.57329362044932
 30
0.0
 10
256.6123525661882
 20
84.53437722365126
 30
0.0
 10
256.603705401913
 20
84.49475227197895
 30
0.0
 10
256.5950855132888
 20
84.45525230883739
 30
0.0
 10
256.5926109303803
 20
84.41418592926179
 30
0.0
 10
256.5953363740183
 20
84.37429108248942
 30
0.0
 10
256.5983950896374
 20
84.32951782457279
 30
0.0
 10
256.6087286992797
 20
84.28495290378861
 30
0.0
 10
256.625968193233
 20
84.24452572198061
 30
0.0
 10
256.6429541491175
 20
84.2046930953047
 30
0.0
 10
256.6669658269932
 20
84.16791488003295
 30
0.0
 10
256.6953172137757
 20
84.13624247381597
 30
0.0
 10
256.8133403802692
 20
84.0043943317523
 30
0.0
 10
256.9449931047533
 20
83.88523889515764
 30
0.0
 10
257.0710434987058
 20
83.75893782464516
 30
0.0
 10
257.3043650067085
 20
83.5251523098974
 30
0.0
 10
257.5400260024543
 20
83.28896998969999
 30
0.0
 10
257.7773971749824
 20
83.05123633876192
 30
0.0
 10
257.8964025690748
 20
82.93204921710097
 30
0.0
 10
258.0158830113038
 20
82.81242723223852
 30
0.0
 10
258.1357615203313
 20
82.69247625957898
 30
0.0
 10
258.1955082039476
 20
82.63269346055114
 30
0.0
 10
258.2540462139413
 20
82.57143520713485
 30
0.0
 10
258.3154014433017
 20
82.51297814920336
 30
0.0
 10
258.3476617158564
 20
82.48224172068252
 30
0.0
 10
258.3850376532375
 20
82.45591117660676
 30
0.0
 10
258.4255533530808
 20
82.43749035373227
 30
0.0
 10
258.4662088622928
 20
82.41900596528622
 30
0.0
 10
258.5109752019045
 20
82.40816918486112
 30
0.0
 10
258.555646905386
 20
82.40488396016045
 30
0.0
 10
258.7269003012502
 20
82.39228972617515
 30
0.0
 10
258.8998320281375
 20
82.40370600052577
 30
0.0
 10
259.072569527274
 20
82.40370600052577
 30
0.0
 10
259.1390928420019
 20
82.40370600052577
 30
0.0
 10
259.2074734151416
 20
82.40115199520088
 30
0.0
 10
259.2718304884247
 20
82.41889449794206
 30
0.0
 10
259.3105076200425
 20
82.42955733698592
 30
0.0
 10
259.3480865224246
 20
82.44684187062693
 30
0.0
 10
259.3810471064828
 20
82.46993719934686
 30
0.0
 10
259.4139915981675
 20
82.49302125221527
 30
0.0
 10
259.442927498338
 20
82.52244197862407
 30
0.0
 10
259.4673023391061
 20
82.55454073816645
 30
0.0
 10
259.4935518444248
 20
82.58910820744117
 30
0.0
 10
259.5150720376531
 20
82.62802237941617
 30
0.0
 10
259.5296169506966
 20
82.66894694004546
 30
0.0
 10
259.5454524427636
 20
82.71350276195061
 30
0.0
 10
259.5533141037216
 20
82.76152297467016
 30
0.0
 10
259.5533724368944
 20
82.80876844754137
 30
0.0
 10
259.5534299488193
 20
82.85534877138036
 30
0.0
 10
259.5456932478085
 20
82.90284579269041
 30
0.0
 10
259.5290611039559
 20
82.94622621375453
 30
0.0
 10
259.5137871082642
 20
82.98606427493982
 30
0.0
 10
259.4906498276948
 20
83.0233846191711
 30
0.0
 10
259.4626708251143
 20
83.05540134758569
 30
0.0
 10
259.4535032246422
 20
83.0658919493747
 30
0.0
 10
259.4437855362857
 20
83.07591169666152
 30
0.0
 10
259.4336415654293
 20
83.08544088140543
 30
0.0
  0
SPLINE
  5
170
330
FE
100
AcDbEntity
  8
DV2_0
 62
     7
100
AcDbSpline
210
0.0
220
0.0
230
1.0
 70
     8
 71
     3
 72
    44
 73
    40
 74
     0
 42
0.0000000009976436
 43
0.0000000001
 12
1.0
 22
0.0
 32
0.0
 13
1.0
 23
0.0
 33
0.0
 40
0.0
 40
0.0
 40
0.0
 40
0.0
 40
0.0312499999999999
 40
0.0312499999999999
 40
0.0624999999999998
 40
0.0624999999999998
 40
0.0937499999999997
 40
0.0937499999999997
 40
0.1249999999999996
 40
0.1249999999999996
 40
0.2499999999999997
 40
0.2499999999999997
 40
0.3749999999999997
 40
0.3749999999999997
 40
0.4062499999999998
 40
0.4062499999999998
 40
0.4374999999999998
 40
0.4374999999999998
 40
0.4687499999999998
 40
0.4687499999999998
 40
0.4999999999999998
 40
0.4999999999999998
 40
0.5312499999999998
 40
0.5312499999999998
 40
0.5624999999999998
 40
0.5624999999999998
 40
0.5937499999999998
 40
0.5937499999999998
 40
0.6249999999999998
 40
0.6249999999999998
 40
0.7499999999999997
 40
0.7499999999999997
 40
0.8749999999999998
 40
0.8749999999999998
 40
0.9374999999999999
 40
0.9374999999999999
 40
0.96875
 40
0.96875
 40
1.0
 40
1.0
 40
1.0
 40
1.0
 10
259.4336415654293
 20
83.08544088140543
 30
0.0
 10
259.3697775259294
 20
83.16527093078027
 30
0.0
 10
259.3021803430589
 20
83.24846484918564
 30
0.0
 10
259.2775996600532
 20
83.45458410292704
 30
0.0
 10
259.303416226358
 20
83.56218662829522
 30
0.0
 10
259.430471121533
 20
83.72680402105192
 30
0.0
 10
259.5233782191247
 20
83.7865449754335
 30
0.0
 10
259.7261601867309
 20
83.81709087336822
 30
0.0
 10
259.8308706805855
 20
83.80627166943219
 30
0.0
 10
260.3483578055465
 20
83.80627166943219
 30
0.0
 10
260.7640001940758
 20
83.80627166943216
 30
0.0
 10
261.5947135659743
 20
83.80627166943216
 30
0.0
 10
262.0103043546565
 20
83.80627166943253
 30
0.0
 10
262.5300871407863
 20
83.80627166943253
 30
0.0
 10
262.6340876321128
 20
83.80627166943208
 30
0.0
 10
262.8419415343865
 20
83.80627166943208
 30
0.0
 10
262.9505081361281
 20
83.80264950296298
 30
0.0
 10
263.1326554065698
 20
83.89728968703443
 30
0.0
 10
263.2058602577361
 20
83.98273875272751
 30
0.0
 10
263.2679688802588
 20
84.17948072465165
 30
0.0
 10
263.2552664890715
 20
84.28526896193355
 30
0.0
 10
263.2552664890715
 20
84.49021945984792
 30
0.0
 10
263.2677853876879
 20
84.59405881912573
 30
0.0
 10
263.2226274969592
 20
84.79608006469834
 30
0.0
 10
263.1566772625981
 20
84.8856381451809
 30
0.0
 10
262.9845326507797
 20
84.99609212469117
 30
0.0
 10
262.8759088674977
 20
85.00120635547094
 30
0.0
 10
262.6681769780582
 20
85.00098536130658
 30
0.0
 10
262.5642771154174
 20
85.00067460219132
 30
0.0
 10
262.0446084826433
 20
84.99843856248494
 30
0.0
 10
261.62927655178
 20
84.99447728791647
 30
0.0
 10
260.8008721075747
 20
84.99039292905651
 30
0.0
 10
260.3871410757818
 20
84.99027541127812
 30
0.0
 10
259.7694316452984
 20
84.99893469775
 30
0.0
 10
259.5341626896405
 20
84.97672713071044
 30
0.0
 10
259.3298055057482
 20
85.20276577948898
 30
0.0
 10
259.287334532803
 20
85.30258642787724
 30
0.0
 10
259.2867331475863
 20
85.50829688515834
 30
0.0
 10
259.3366951612967
 20
85.60642348729473
 30
0.0
 10
259.4043196350689
 20
85.68531870669558
 30
0.0
  0
LINE
  5
171
330
FE
100
AcDbEntity
  8
DV2_0
 62
     7
100
AcDbLine
 10
296.5221661461
 20
72.4938336593
 30
0.0
 11
296.1706623223
 21
71.5280848408
 31
0.0
  0
LINE
  5
172
330
FE
100
AcDbEntity
  8
DV2_0
 62
     7
100
AcDbLine
 10
294.0902664891
 20
68.0815140489
 30
0.0
 11
294.0902664891
 21
71.5280848408
 31
0.0
  0
LINE
  5
173
330
FE
100
AcDbEntity
  8
DV2_0
 62
     7
100
AcDbLine
 10
294.0902664891
 20
71.5280848408
 30
0.0
 11
296.1706623223
 21
71.5280848408
 31
0.0
  0
SPLINE
  5
174
330
FE
100
AcDbEntity
  8
DV2_0
 62
     7
100
AcDbSpline
210
0.0
220
0.0
230
1.0
 70
     8
 71
     3
 72
     8
 73
     4
 74
     0
 42
0.0000000035923194
 43
0.0000000001
 12
1.0
 22
0.0
 32
0.0
 13
1.0
 23
0.0
 33
0.0
 40
0.0
 40
0.0
 40
0.0
 40
0.0
 40
1.0
 40
1.0
 40
1.0
 40
1.0
 10
296.5221661460537
 20
72.49383365930336
 30
0.0
 10
295.8762139316838
 20
73.15996340887577
 30
0.0
 10
295.2318297439438
 20
73.82768520309679
 30
0.0
 10
294.5902664890702
 20
74.49802581186634
 30
0.0
  0
LINE
  5
175
330
FE
100
AcDbEntity
  8
DV2_0
 62
     7
100
AcDbLine
 10
294.5902664891
 20
74.4980258119
 30
0.0
 11
285.0831648162
 21
74.4980258119
 31
0.0
  0
LINE
  5
176
330
FE
100
AcDbEntity
  8
DV2_0
 62
     7
100
AcDbLine
 10
268.8244157354
 20
62.7246821703
 30
0.0
 11
269.3046563601
 21
62.5498888777
 31
0.0
  0
LINE
  5
177
330
FE
100
AcDbEntity
  8
DV2_0
 62
     7
100
AcDbLine
 10
269.3046563601
 20
62.5498888777
 30
0.0
 11
269.7753548716
 21
61.566353117
 31
0.0
  0
LINE
  5
178
330
FE
100
AcDbEntity
  8
DV2_0
 62
     7
100
AcDbLine
 10
294.1332092437
 20
94.4472362564
 30
0.0
 11
291.2503405137
 21
102.367852995
 31
0.0
  0
LINE
  5
179
330
FE
100
AcDbEntity
  8
DV2_0
 62
     7
100
AcDbLine
 10
242.8902664891
 20
74.1629784873
 30
0.0
 11
242.8902664891
 21
73.6343780938
 31
0.0
  0
LINE
  5
17A
330
FE
100
AcDbEntity
  8
DV2_0
 62
     7
100
AcDbLine
 10
241.7203833106
 20
72.4037060005
 30
0.0
 11
239.4468798666
 21
72.4037060005
 31
0.0
  0
LINE
  5
17B
330
FE
100
AcDbEntity
  8
DV2_0
 62
     7
100
AcDbLine
 10
241.7203833106
 20
72.4037060005
 30
0.0
 11
241.9452954921
 21
72.5078818621
 31
0.0
  0
LINE
  5
17C
330
FE
100
AcDbEntity
  8
DV2_0
 62
     7
100
AcDbLine
 10
241.9452954921
 20
72.5078818621
 30
0.0
 11
242.2315163196
 21
72.4037060005
 31
0.0
  0
LINE
  5
17D
330
FE
100
AcDbEntity
  8
DV2_0
 62
     7
100
AcDbLine
 10
242.8902664891
 20
74.1629784873
 30
0.0
 11
241.1902664891
 21
74.1629784873
 31
0.0
  0
SPLINE
  5
17E
330
FE
100
AcDbEntity
  8
DV2_0
 62
     7
100
AcDbSpline
210
0.0
220
0.0
230
1.0
 70
     8
 71
     3
 72
     8
 73
     4
 74
     0
 42
0.0000000040375004
 43
0.0000000001
 12
1.0
 22
0.0
 32
0.0
 13
1.0
 23
0.0
 33
0.0
 40
0.0
 40
0.0
 40
0.0
 40
0.0
 40
1.0
 40
1.0
 40
1.0
 40
1.0
 10
241.1902664890701
 20
74.1629784873068
 30
0.0
 10
240.6095900023718
 20
73.57610595998196
 30
0.0
 10
240.0283951488613
 20
72.98974676177392
 30
0.0
 10
239.4468798666223
 20
72.40370600052577
 30
0.0
  0
LINE
  5
17F
330
FE
100
AcDbEntity
  8
DV2_0
 62
     7
100
AcDbLine
 10
230.8902664891
 20
72.6832060005
 30
0.0
 11
230.8902664891
 21
96.1242060005
 31
0.0
  0
LINE
  5
180
330
FE
100
AcDbEntity
  8
DV2_0
 62
     7
100
AcDbLine
 10
232.3902664891
 20
71.1832060005
 30
0.0
 11
232.3902664891
 21
97.6242060005
 31
0.0
  0
LINE
  5
181
330
FE
100
AcDbEntity
  8
DV2_0
 62
     7
100
AcDbLine
 10
238.3197664891
 20
71.1832060005
 30
0.0
 11
238.3197664891
 21
97.6242060005
 31
0.0
  0
LINE
  5
182
330
FE
100
AcDbEntity
  8
DV2_0
 62
     7
100
AcDbLine
 10
305.0902664891
 20
72.6832060005
 30
0.0
 11
305.0902664891
 21
96.1242060005
 31
0.0
  0
LINE
  5
183
330
FE
100
AcDbEntity
  8
DV2_0
 62
     7
100
AcDbLine
 10
303.5902664891
 20
71.1832060005
 30
0.0
 11
303.5902664891
 21
97.6242060005
 31
0.0
  0
LINE
  5
184
330
FE
100
AcDbEntity
  8
DV2_0
 62
     7
100
AcDbLine
 10
294.0902664891
 20
69.5309007015
 30
0.0
 11
294.64180554
 21
69.6786851448
 31
0.0
  0
LINE
  5
185
330
FE
100
AcDbEntity
  8
DV2_0
 62
     7
100
AcDbLine
 10
296.1706623223
 20
71.5280848408
 30
0.0
 11
296.0451366901
 21
71.1832060005
 31
0.0
  0
LINE
  5
186
330
FE
100
AcDbEntity
  8
DV2_0
 62
     7
100
AcDbLine
 10
287.2906541618
 20
66.259563417
 30
0.0
 11
286.9283074986
 21
67.6118595738
 31
0.0
  0
LINE
  5
187
330
FE
100
AcDbEntity
  8
DV2_0
 62
     7
100
AcDbLine
 10
269.5416426254
 20
62.9531167619
 30
0.0
 11
269.9039892886
 21
61.6008206051
 31
0.0
  0
LINE
  5
188
330
FE
100
AcDbEntity
  8
DV2_0
 62
     7
100
AcDbLine
 10
290.8672515336
 20
46.1500395231
 30
0.0
 11
276.8613270524
 21
42.3971633691
 31
0.0
  0
LINE
  5
189
330
FE
100
AcDbEntity
  8
DV2_0
 62
     7
100
AcDbLine
 10
293.1966229395
 20
37.4567070865
 30
0.0
 11
279.1906984583
 21
33.7038309325
 31
0.0
  0
LINE
  5
18A
330
FE
100
AcDbEntity
  8
DV2_0
 62
     7
100
AcDbLine
 10
293.3729548843
 20
61.5741262832
 30
0.0
 11
285.9393143428
 21
59.5822883033
 31
0.0
  0
LINE
  5
18B
330
FE
100
AcDbEntity
  8
DV2_0
 62
     7
100
AcDbLine
 10
295.6377104815
 20
62.1809657165
 30
0.0
 11
293.3729548843
 21
61.5741262832
 31
0.0
  0
LINE
  5
18C
330
FE
100
AcDbEntity
  8
DV2_0
 62
     7
100
AcDbLine
 10
291.7941587092
 20
67.4662738236
 30
0.0
 11
293.3729548843
 21
61.5741262832
 31
0.0
  0
LINE
  5
18D
330
FE
100
AcDbEntity
  8
DV2_0
 62
     7
100
AcDbLine
 10
294.0589143064
 20
68.0731132569
 30
0.0
 11
295.6377104815
 21
62.1809657165
 31
0.0
  0
LINE
  5
18E
330
FE
100
AcDbEntity
  8
DV2_0
 62
     7
100
AcDbLine
 10
290.9966610561
 20
45.6670766099
 30
0.0
 11
296.2966610561
 21
47.0872073298
 31
0.0
  0
LINE
  5
18F
330
FE
100
AcDbEntity
  8
DV2_0
 62
     7
100
AcDbLine
 10
284.6201079809
 20
34.6409987392
 30
0.0
 11
298.6260324621
 21
38.3938748932
 31
0.0
  0
LINE
  5
190
330
FE
100
AcDbEntity
  8
DV2_0
 62
     7
100
AcDbLine
 10
281.9525862117
 20
141.0491380064
 30
0.0
 11
247.1975894162
 21
128.3993536808
 31
0.0
  0
LINE
  5
191
330
FE
100
AcDbEntity
  8
DV2_0
 62
     7
100
AcDbLine
 10
237.5218398938
 20
48.1519503841
 30
0.0
 11
238.0768417648
 21
46.0806552035
 31
0.0
  0
LINE
  5
192
330
FE
100
AcDbEntity
  8
DV2_0
 62
     7
100
AcDbLine
 10
255.5005711335
 20
39.7407935256
 30
0.0
 11
257.2553849303
 21
40.9695273743
 31
0.0
  0
LINE
  5
193
330
FE
100
AcDbEntity
  8
DV2_0
 62
     7
100
AcDbLine
 10
237.6244459368
 20
48.4338581704
 30
0.0
 11
237.5218398938
 21
48.1519503841
 31
0.0
  0
LINE
  5
194
330
FE
100
AcDbEntity
  8
DV2_0
 62
     7
100
AcDbLine
 10
257.2553849303
 20
40.9695273743
 30
0.0
 11
257.3579909733
 21
41.2514351605
 31
0.0
  0
LINE
  5
195
330
FE
100
AcDbEntity
  8
DV2_0
 62
     7
100
AcDbLine
 10
242.5336519236
 20
37.069453365
 30
0.0
 11
241.6033211182
 21
34.5133904848
 31
0.0
  0
LINE
  5
196
330
FE
100
AcDbEntity
  8
DV2_0
 62
     7
100
AcDbLine
 10
245.3620916014
 20
33.1453099115
 30
0.0
 11
246.2924224067
 21
35.7013727917
 31
0.0
  0
LINE
  5
197
330
FE
100
AcDbEntity
  8
DV2_0
 62
     7
100
AcDbLine
 10
268.14164723
 20
61.3769229245
 30
0.0
 11
268.654677445
 21
62.7864618557
 31
0.0
  0
LINE
  5
198
330
FE
100
AcDbEntity
  8
DV2_0
 62
     7
100
AcDbLine
 10
242.8131303734
 20
72.1920157971
 30
0.0
 11
242.3001001584
 21
70.7824768659
 31
0.0
  0
LINE
  5
199
330
FE
100
AcDbEntity
  8
DV2_0
 62
     7
100
AcDbLine
 10
242.3001001584
 20
70.7824768659
 30
0.0
 11
245.0834521545
 21
67.4654071251
 31
0.0
  0
LINE
  5
19A
330
FE
100
AcDbEntity
  8
DV2_0
 62
     7
100
AcDbLine
 10
263.8773045703
 20
60.6250042586
 30
0.0
 11
268.14164723
 21
61.3769229245
 31
0.0
  0
LINE
  5
19B
330
FE
100
AcDbEntity
  8
DV2_0
 62
     7
100
AcDbLine
 10
258.5982453795
 20
46.1209083361
 30
0.0
 11
263.8773045703
 21
60.6250042586
 31
0.0
  0
LINE
  5
19C
330
FE
100
AcDbEntity
  8
DV2_0
 62
     7
100
AcDbLine
 10
245.0834521545
 20
67.4654071251
 30
0.0
 11
239.8043929638
 21
52.9613112026
 31
0.0
  0
LINE
  5
19D
330
FE
100
AcDbEntity
  8
DV2_0
 62
     7
100
AcDbLine
 10
261.5866077668
 20
39.7123445156
 30
0.0
 11
263.2967084835
 21
44.4108076195
 31
0.0
  0
LINE
  5
19E
330
FE
100
AcDbEntity
  8
DV2_0
 62
     7
100
AcDbLine
 10
235.1059298599
 20
54.6714119193
 30
0.0
 11
233.3958291433
 21
49.9729488153
 31
0.0
  0
LINE
  5
19F
330
FE
100
AcDbEntity
  8
DV2_0
 62
     7
100
AcDbLine
 10
238.3197664891
 20
71.1832060005
 30
0.0
 11
239.5354432195
 21
72.398882731
 31
0.0
  0
LINE
  5
1A0
330
FE
100
AcDbEntity
  8
DV2_0
 62
     7
100
AcDbLine
 10
241.1902664891
 20
94.7537060005
 30
0.0
 11
238.3197664891
 21
97.6242060005
 31
0.0
  0
LINE
  5
1A1
330
FE
100
AcDbEntity
  8
DV2_0
 62
     7
100
AcDbLine
 10
242.3580904201
 20
72.4037060005
 30
0.0
 11
242.343284063
 21
72.3630258688
 31
0.0
  0
LINE
  5
1A2
330
FE
100
AcDbEntity
  8
DV2_0
 62
     7
100
AcDbLine
 10
242.9594698246
 20
74.0559823349
 30
0.0
 11
242.8902664891
 21
73.8658477332
 31
0.0
  0
LINE
  5
1A3
330
FE
100
AcDbEntity
  8
DV2_0
 62
     7
100
AcDbLine
 10
242.8902664891
 20
74.0537060005
 30
0.0
 11
242.9607094087
 21
74.0537060005
 31
0.0
  0
LINE
  5
1A4
330
FE
100
AcDbEntity
  8
DV2_0
 62
     7
100
AcDbLine
 10
244.1594875018
 20
94.7537060005
 30
0.0
 11
241.1902664891
 21
94.7537060005
 31
0.0
  0
LINE
  5
1A5
330
FE
100
AcDbEntity
  8
DV2_0
 62
     7
100
AcDbLine
 10
294.5902664891
 20
94.7537060005
 30
0.0
 11
294.0216633791
 21
94.7537060005
 31
0.0
  0
LINE
  5
1A6
330
FE
100
AcDbEntity
  8
DV2_0
 62
     7
100
AcDbLine
 10
297.4607664891
 20
97.6242060005
 30
0.0
 11
294.5902664891
 21
94.7537060005
 31
0.0
  0
LINE
  5
1A7
330
FE
100
AcDbEntity
  8
DV2_0
 62
     7
100
AcDbLine
 10
296.4228920814
 20
72.2210804082
 30
0.0
 11
297.4607664891
 21
71.1832060005
 31
0.0
  0
LINE
  5
1A8
330
FE
100
AcDbEntity
  8
DV2_0
 62
     7
100
AcDbLine
 10
291.3290150268
 20
102.1660292032
 30
0.0
 11
297.0039737381
 21
114.336017433
 31
0.0
  0
LINE
  5
1A9
330
FE
100
AcDbEntity
  8
DV2_0
 62
     7
100
AcDbLine
 10
297.0039737381
 20
114.336017433
 30
0.0
 11
292.9103650527
 21
125.5831148601
 31
0.0
  0
LINE
  5
1AA
330
FE
100
AcDbEntity
  8
DV2_0
 62
     7
100
AcDbLine
 10
247.0039349149
 20
110.9628188515
 30
0.0
 11
244.1451638852
 21
94.7499226842
 31
0.0
  0
LINE
  5
1AB
330
FE
100
AcDbEntity
  8
DV2_0
 62
     7
100
AcDbLine
 10
246.0636563249
 20
111.7579247577
 30
0.0
 11
247.0160398052
 21
110.9587801306
 31
0.0
  0
LINE
  5
1AC
330
FE
100
AcDbEntity
  8
DV2_0
 62
     7
100
AcDbLine
 10
292.9103650527
 20
125.5831148601
 30
0.0
 11
293.5181336745
 21
129.0299419956
 31
0.0
  0
LINE
  5
1AD
330
FE
100
AcDbEntity
  8
DV2_0
 62
     7
100
AcDbLine
 10
245.2717698197
 20
113.9336150494
 30
0.0
 11
246.0636563249
 21
111.7579247577
 31
0.0
  0
LINE
  5
1AE
330
FE
100
AcDbEntity
  8
DV2_0
 62
     7
100
AcDbLine
 10
293.5181336745
 20
129.0299419956
 30
0.0
 11
292.7262471694
 21
131.2056322873
 31
0.0
  0
LINE
  5
1AF
330
FE
100
AcDbEntity
  8
DV2_0
 62
     7
100
AcDbLine
 10
242.897032046
 20
115.9262566394
 30
0.0
 11
245.2717698197
 21
113.9336150494
 31
0.0
  0
LINE
  5
1B0
330
FE
100
AcDbEntity
  8
DV2_0
 62
     7
100
AcDbLine
 10
292.7262471694
 20
131.2056322873
 30
0.0
 11
293.2645565201
 21
134.2585363217
 31
0.0
  0
LINE
  5
1B1
330
FE
100
AcDbEntity
  8
DV2_0
 62
     7
100
AcDbLine
 10
241.460547444
 20
119.8729656467
 30
0.0
 11
242.897032046
 21
115.9262566394
 31
0.0
  0
LINE
  5
1B2
330
FE
100
AcDbEntity
  8
DV2_0
 62
     7
100
AcDbLine
 10
293.2645565201
 20
134.2585363217
 30
0.0
 11
291.8280719182
 21
138.205245329
 31
0.0
  0
LINE
  5
1B3
330
FE
100
AcDbEntity
  8
DV2_0
 62
     7
100
AcDbLine
 10
280.6307093432
 20
87.2511125502
 30
0.0
 11
273.9150438169
 21
91.1284038496
 31
0.0
  0
LINE
  5
1B4
330
FE
100
AcDbEntity
  8
DV2_0
 62
     7
100
AcDbLine
 10
269.0521465116
 20
89.8238704453
 30
0.0
 11
268.8453823448
 21
89.4657444032
 31
0.0
  0
LINE
  5
1B5
330
FE
100
AcDbEntity
  8
DV2_0
 62
     7
100
AcDbLine
 10
232.3902664891
 20
97.6242060005
 30
0.0
 11
230.8902664891
 21
96.1242060005
 31
0.0
  0
LINE
  5
1B6
330
FE
100
AcDbEntity
  8
DV2_0
 62
     7
100
AcDbLine
 10
230.8902664891
 20
72.6832060005
 30
0.0
 11
232.3902664891
 21
71.1832060005
 31
0.0
  0
LINE
  5
1B7
330
FE
100
AcDbEntity
  8
DV2_0
 62
     7
100
AcDbLine
 10
232.3902664891
 20
71.1832060005
 30
0.0
 11
238.3197664891
 21
71.1832060005
 31
0.0
  0
LINE
  5
1B8
330
FE
100
AcDbEntity
  8
DV2_0
 62
     7
100
AcDbLine
 10
238.3197664891
 20
97.6242060005
 30
0.0
 11
232.3902664891
 21
97.6242060005
 31
0.0
  0
LINE
  5
1B9
330
FE
100
AcDbEntity
  8
DV2_0
 62
     7
100
AcDbLine
 10
303.5902664891
 20
71.1832060005
 30
0.0
 11
305.0902664891
 21
72.6832060005
 31
0.0
  0
LINE
  5
1BA
330
FE
100
AcDbEntity
  8
DV2_0
 62
     7
100
AcDbLine
 10
305.0902664891
 20
96.1242060005
 30
0.0
 11
303.5902664891
 21
97.6242060005
 31
0.0
  0
LINE
  5
1BB
330
FE
100
AcDbEntity
  8
DV2_0
 62
     7
100
AcDbLine
 10
297.4607664891
 20
71.1832060005
 30
0.0
 11
303.5902664891
 21
71.1832060005
 31
0.0
  0
LINE
  5
1BC
330
FE
100
AcDbEntity
  8
DV2_0
 62
     7
100
AcDbLine
 10
303.5902664891
 20
97.6242060005
 30
0.0
 11
297.4607664891
 21
97.6242060005
 31
0.0
  0
LINE
  5
1BD
330
FE
100
AcDbEntity
  8
DV2_0
 62
     7
100
AcDbLine
 10
294.0902664891
 20
71.1832060005
 30
0.0
 11
296.0451366901
 21
71.1832060005
 31
0.0
  0
LINE
  5
1BE
330
FE
100
AcDbEntity
  8
DV2_0
 62
     7
100
AcDbLine
 10
289.6274857355
 20
45.8178452787
 30
0.0
 11
283.9981715046
 21
66.8267320005
 31
0.0
  0
LINE
  5
1BF
330
FE
100
AcDbEntity
  8
DV2_0
 62
     7
100
AcDbLine
 10
272.4717786195
 20
63.7382443353
 30
0.0
 11
278.1010928504
 21
42.7293576135
 31
0.0
  0
LINE
  5
1C0
330
FE
100
AcDbEntity
  8
DV2_0
 62
     7
100
AcDbLine
 10
276.8613270524
 20
42.3971633691
 30
0.0
 11
279.1906984583
 21
33.7038309325
 31
0.0
  0
LINE
  5
1C1
330
FE
100
AcDbEntity
  8
DV2_0
 62
     7
100
AcDbLine
 10
293.1966229395
 20
37.4567070865
 30
0.0
 11
290.8672515336
 21
46.1500395231
 31
0.0
  0
LINE
  5
1C2
330
FE
100
AcDbEntity
  8
DV2_0
 62
     7
100
AcDbLine
 10
295.0568952581
 20
46.7550130854
 30
0.0
 11
291.2393143428
 21
61.0024190232
 31
0.0
  0
LINE
  5
1C3
330
FE
100
AcDbEntity
  8
DV2_0
 62
     7
100
AcDbLine
 10
284.4906984583
 20
35.1239616524
 30
0.0
 11
284.6201079809
 21
34.6409987392
 31
0.0
  0
LINE
  5
1C4
330
FE
100
AcDbEntity
  8
DV2_0
 62
     7
100
AcDbLine
 10
298.6260324621
 20
38.3938748932
 30
0.0
 11
296.2966610561
 21
47.0872073298
 31
0.0
  0
ARC
  5
1C5
330
FE
100
AcDbEntity
  8
DV2_0
 62
     7
100
AcDbCircle
 10
7316.8708813593
 20
2198.4301337245
 30
0.0
 40
7366.499024987502
100
AcDbArc
 50
196.3202579773
 51
196.3674101496
  0
ARC
  5
1C6
330
FE
100
AcDbEntity
  8
DV2_0
 62
     7
100
AcDbCircle
 10
-6464.3214908298
 20
-2817.5136824488
 30
0.0
 40
7366.499024987502
100
AcDbArc
 50
23.6325898504
 51
23.6797420227
  0
ENDBLK
  5
1C8
330
FE
100
AcDbEntity
  8
0
100
AcDbBlockEnd
  0
BLOCK
  5
297
330
1C9
100
AcDbEntity
  8
0
100
AcDbBlockBegin
  2
SE2
 70
     0
 10
0.0
 20
0.0
 30
0.0
  3
SE2
  1

  0
ELLIPSE
  5
1CC
330
1C9
100
AcDbEntity
  8
DV3_0
 62
     7
100
AcDbEllipse
 10
134.8682130828
 20
227.8147697116
 30
0.0
 11
-5.127842594987442E-12
 21
8.332517541452027
 31
0.0
210
0.0
220
0.0
230
1.0
 40
0.9396926208
 41
0.5233705923354758
 42
1.046969367933736
  0
ELLIPSE
  5
1CD
330
1C9
100
AcDbEntity
  8
DV3_0
 62
     7
100
AcDbEllipse
 10
132.7962802999
 20
227.8147697116
 30
0.0
 11
1.700029006457271E-12
 21
8.649999999999689
 31
0.0
210
0.0
220
0.0
230
1.0
 40
0.9396926208
 41
0.523370592336266
 42
0.9946639525455025
  0
ELLIPSE
  5
1CE
330
1C9
100
AcDbEntity
  8
DV3_0
 62
     7
100
AcDbEllipse
 10
131.8926378359
 20
227.8147697116
 30
0.0
 11
8.673617379884035E-14
 21
10.49999999999999
 31
0.0
210
0.0
220
0.0
230
1.0
 40
0.9396926208
 41
5.727787235870395
 42
6.283185307179586
  0
ELLIPSE
  5
1CF
330
1C9
100
AcDbEntity
  8
DV3_0
 62
     7
100
AcDbEllipse
 10
131.8926378359
 20
227.8147697116
 30
0.0
 11
8.673617379884035E-14
 21
10.49999999999999
 31
0.0
210
0.0
220
0.0
230
1.0
 40
0.9396926208
 41
5.412712318801312
 42
5.495157956188939
  0
ELLIPSE
  5
1D0
330
1C9
100
AcDbEntity
  8
DV3_0
 62
     7
100
AcDbEllipse
 10
131.8926378359
 20
227.8147697116
 30
0.0
 11
8.673617379884035E-14
 21
10.49999999999999
 31
0.0
210
0.0
220
0.0
230
1.0
 40
0.9396926208
 41
3.929234926766189
 42
4.012065641968083
  0
ELLIPSE
  5
1D1
330
1C9
100
AcDbEntity
  8
DV3_0
 62
     7
100
AcDbEllipse
 10
131.8926378359
 20
227.8147697116
 30
0.0
 11
8.673617379884035E-14
 21
10.49999999999999
 31
0.0
210
0.0
220
0.0
230
1.0
 40
0.9396926208
 41
0.0
 42
3.696872337791496
  0
LINE
  5
1D2
330
1C9
100
AcDbEntity
  8
DV3_0
 62
     7
100
AcDbLine
 10
128.0881231424
 20
231.9826749835
 30
0.0
 11
127.3547967398
 21
232.4334706228
 31
0.0
  0
LINE
  5
1D3
330
1C9
100
AcDbEntity
  8
DV3_0
 62
     7
100
AcDbLine
 10
127.3054714182
 20
229.9732204433
 30
0.0
 11
124.9453858885
 21
230.0554609236
 31
0.0
  0
LINE
  5
1D4
330
1C9
100
AcDbEntity
  8
DV3_0
 62
     7
100
AcDbLine
 10
124.9453858885
 20
230.0554609236
 30
0.0
 11
123.5854065679
 21
230.3078031941
 31
0.0
  0
LINE
  5
1D5
330
1C9
100
AcDbEntity
  8
DV3_0
 62
     7
100
AcDbLine
 10
127.3054714182
 20
229.9732204433
 30
0.0
 11
126.4874943431
 21
230.2066758877
 31
0.0
  0
ELLIPSE
  5
1D6
330
1C9
100
AcDbEntity
  8
DV3_0
 62
     7
100
AcDbEllipse
 10
134.8682130828
 20
227.8147697117
 30
0.0
 11
2.504940699310509E-11
 21
9.233752652841817
 31
0.0
210
0.0
220
0.0
230
1.0
 40
0.9396926208
 41
1.046969367937071
 42
1.308768755736435
  0
LINE
  5
1D7
330
1C9
100
AcDbEntity
  8
DV3_0
 62
     7
100
AcDbLine
 10
127.3547967398
 20
232.4334706228
 30
0.0
 11
124.4893776083
 21
232.6287444956
 31
0.0
  0
ELLIPSE
  5
1D8
330
1C9
100
AcDbEntity
  8
DV3_0
 62
     7
100
AcDbEllipse
 10
132.3204533831
 20
227.8147697117
 30
0.0
 11
8.345581170576823E-11
 21
9.624146115360805
 31
0.0
210
0.0
220
0.0
230
1.0
 40
0.9396926208
 41
1.046969367942838
 42
1.308768755742351
  0
LINE
  5
1D9
330
1C9
100
AcDbEntity
  8
DV3_0
 62
     7
100
AcDbLine
 10
126.4874943431
 20
230.2066758877
 30
0.0
 11
123.5854065679
 21
230.3078031941
 31
0.0
  0
ELLIPSE
  5
1DA
330
1C9
100
AcDbEntity
  8
DV3_0
 62
     7
100
AcDbEllipse
 10
134.8682130828
 20
227.8147697116
 30
0.0
 11
4.267419750902945E-13
 21
-8.3325175414497
 31
0.0
210
0.0
220
0.0
230
1.0
 40
0.9396926208
 41
2.879565082528334
 42
3.403163858126677
  0
ELLIPSE
  5
1DB
330
1C9
100
AcDbEntity
  8
DV3_0
 62
     7
100
AcDbEllipse
 10
132.7962802999
 20
227.8147697116
 30
0.0
 11
-2.480654570646834E-13
 21
-8.649999999999098
 31
0.0
210
0.0
220
0.0
230
1.0
 40
0.9396926208
 41
2.997101211305598
 42
3.154373487803529
  0
LINE
  5
1DC
330
1C9
100
AcDbEntity
  8
DV3_0
 62
     7
100
AcDbLine
 10
132.8433844512
 20
235.8638554967
 30
0.0
 11
132.624381413
 21
236.734434969
 31
0.0
  0
LINE
  5
1DD
330
1C9
100
AcDbEntity
  8
DV3_0
 62
     7
100
AcDbLine
 10
130.9547578685
 20
235.0318920627
 30
0.0
 11
128.7337160826
 21
235.306876152
 31
0.0
  0
LINE
  5
1DE
330
1C9
100
AcDbEntity
  8
DV3_0
 62
     7
100
AcDbLine
 10
128.7337160826
 20
235.306876152
 30
0.0
 11
127.8003711138
 21
236.1506225548
 31
0.0
  0
LINE
  5
1DF
330
1C9
100
AcDbEntity
  8
DV3_0
 62
     7
100
AcDbLine
 10
130.9547578685
 20
235.0318920627
 30
0.0
 11
130.5314832425
 21
235.812487367
 31
0.0
  0
ELLIPSE
  5
1E0
330
1C9
100
AcDbEntity
  8
DV3_0
 62
     7
100
AcDbEllipse
 10
134.8682130828
 20
227.8147697117
 30
0.0
 11
3.459732500488144E-11
 21
9.233752652838474
 31
0.0
210
0.0
220
0.0
230
1.0
 40
0.9396926208
 41
0.2615712045405811
 42
0.5233705923399032
  0
LINE
  5
1E1
330
1C9
100
AcDbEntity
  8
DV3_0
 62
     7
100
AcDbLine
 10
132.624381413
 20
236.734434969
 30
0.0
 11
129.9817548431
 21
237.1115491429
 31
0.0
  0
ELLIPSE
  5
1E2
330
1C9
100
AcDbEntity
  8
DV3_0
 62
     7
100
AcDbEllipse
 10
132.3204533831
 20
227.8147697117
 30
0.0
 11
8.655749728081474E-11
 21
9.62414611534885
 31
0.0
210
0.0
220
0.0
230
1.0
 40
0.9396926208
 41
0.26157120454573
 42
0.5233705923452954
  0
LINE
  5
1E3
330
1C9
100
AcDbEntity
  8
DV3_0
 62
     7
100
AcDbLine
 10
130.5314832425
 20
235.812487367
 30
0.0
 11
127.8003711138
 21
236.1506225548
 31
0.0
  0
ELLIPSE
  5
1E4
330
1C9
100
AcDbEntity
  8
DV3_0
 62
     7
100
AcDbEllipse
 10
134.8682130828
 20
227.8147697116
 30
0.0
 11
5.655198531684391E-13
 21
8.332517541451276
 31
0.0
210
0.0
220
0.0
230
1.0
 40
0.9396926208
 41
5.235759572720833
 42
5.759358348319126
  0
LINE
  5
1E5
330
1C9
100
AcDbEntity
  8
DV3_0
 62
     7
100
AcDbLine
 10
138.7847629109
 20
235.0299907217
 30
0.0
 11
139.2083722467
 21
235.8103803792
 31
0.0
  0
LINE
  5
1E6
330
1C9
100
AcDbEntity
  8
DV3_0
 62
     7
100
AcDbLine
 10
134.8859155767
 20
236.2322914988
 30
0.0
 11
134.66313855
 21
237.110412374
 31
0.0
  0
LINE
  5
1E7
330
1C9
100
AcDbEntity
  8
DV3_0
 62
     7
100
AcDbLine
 10
136.8964933077
 20
235.8628712901
 30
0.0
 11
137.115869666
 21
236.7333443118
 31
0.0
  0
ELLIPSE
  5
1E8
330
1C9
100
AcDbEntity
  8
DV3_0
 62
     7
100
AcDbEllipse
 10
134.8682130828
 20
227.8147697117
 30
0.0
 11
-2.796374243274613E-11
 21
9.23375265284
 31
0.0
210
0.0
220
0.0
230
1.0
 40
0.9396926208
 41
5.759358348315947
 42
6.021157736115242
  0
LINE
  5
1E9
330
1C9
100
AcDbEntity
  8
DV3_0
 62
     7
100
AcDbLine
 10
137.115869666
 20
236.7333443118
 30
0.0
 11
134.66313855
 21
237.110412374
 31
0.0
  0
ELLIPSE
  5
1EA
330
1C9
100
AcDbEntity
  8
DV3_0
 62
     7
100
AcDbEllipse
 10
134.8682130828
 20
227.8147697116
 30
0.0
 11
-2.189221026682731E-12
 21
8.33251754145102
 31
0.0
210
0.0
220
0.0
230
1.0
 40
0.9396926208
 41
4.450361409323062
 42
4.973960184921363
  0
LINE
  5
1EB
330
1C9
100
AcDbEntity
  8
DV3_0
 62
     7
100
AcDbLine
 10
142.4318795991
 20
229.9695473345
 30
0.0
 11
143.249956705
 21
230.2026054998
 31
0.0
  0
LINE
  5
1EC
330
1C9
100
AcDbEntity
  8
DV3_0
 62
     7
100
AcDbLine
 10
141.6500896994
 20
231.9793817643
 30
0.0
 11
142.3836093467
 21
232.4298212129
 31
0.0
  0
ELLIPSE
  5
1ED
330
1C9
100
AcDbEntity
  8
DV3_0
 62
     7
100
AcDbEllipse
 10
134.8682130828
 20
227.8147697116
 30
0.0
 11
2.349509475862987E-11
 21
9.233752652853704
 31
0.0
210
0.0
220
0.0
230
1.0
 40
0.9396926208
 41
4.973960184924215
 42
5.235759572723255
  0
LINE
  5
1EE
330
1C9
100
AcDbEntity
  8
DV3_0
 62
     7
100
AcDbLine
 10
142.3836093467
 20
232.4298212129
 30
0.0
 11
141.3290322089
 21
232.522093464
 31
0.0
  0
ELLIPSE
  5
1EF
330
1C9
100
AcDbEntity
  8
DV3_0
 62
     7
100
AcDbEllipse
 10
134.8682130828
 20
227.8147697116
 30
0.0
 11
-4.069661274641589E-12
 21
-8.332517541450434
 31
0.0
210
0.0
220
0.0
230
1.0
 40
0.9396926208
 41
0.5233705923365433
 42
1.046969367934868
  0
LINE
  5
1F0
330
1C9
100
AcDbEntity
  8
DV3_0
 62
     7
100
AcDbLine
 10
141.6483030233
 20
223.6468644398
 30
0.0
 11
142.3816294258
 21
223.1960688005
 31
0.0
  0
LINE
  5
1F1
330
1C9
100
AcDbEntity
  8
DV3_0
 62
     7
100
AcDbLine
 10
142.4309547475
 20
225.65631898
 30
0.0
 11
143.2489318225
 21
225.4228635356
 31
0.0
  0
ELLIPSE
  5
1F2
330
1C9
100
AcDbEntity
  8
DV3_0
 62
     7
100
AcDbEllipse
 10
134.8682130828
 20
227.8147697117
 30
0.0
 11
2.191302694853903E-11
 21
-9.233752652853875
 31
0.0
210
0.0
220
0.0
230
1.0
 40
0.9396926208
 41
1.046969367932047
 42
1.308768755731079
  0
LINE
  5
1F3
330
1C9
100
AcDbEntity
  8
DV3_0
 62
     7
100
AcDbLine
 10
142.3816294258
 20
223.1960688005
 30
0.0
 11
141.3266134498
 21
223.1036886244
 31
0.0
  0
ELLIPSE
  5
1F4
330
1C9
100
AcDbEntity
  8
DV3_0
 62
     7
100
AcDbEllipse
 10
134.8682130828
 20
227.8147697117
 30
0.0
 11
2.602085213965211E-13
 21
8.332517541453672
 31
0.0
210
0.0
220
0.0
230
1.0
 40
0.9396926208
 41
2.879565082528492
 42
3.403163858126714
  0
ELLIPSE
  5
1F5
330
1C9
100
AcDbEntity
  8
DV3_0
 62
     7
100
AcDbEllipse
 10
132.7962802999
 20
227.8147697116
 30
0.0
 11
3.469446951953615E-15
 21
8.649999999998617
 31
0.0
210
0.0
220
0.0
230
1.0
 40
0.9396926208
 41
3.128324388398234
 42
3.286084095874088
  0
LINE
  5
1F6
330
1C9
100
AcDbEntity
  8
DV3_0
 62
     7
100
AcDbLine
 10
136.8930417144
 20
219.7656839266
 30
0.0
 11
137.1120447526
 21
218.8951044543
 31
0.0
  0
LINE
  5
1F7
330
1C9
100
AcDbEntity
  8
DV3_0
 62
     7
100
AcDbLine
 10
138.7816682971
 20
220.5976473606
 30
0.0
 11
139.2049429231
 21
219.8170520563
 31
0.0
  0
ELLIPSE
  5
1F8
330
1C9
100
AcDbEntity
  8
DV3_0
 62
     7
100
AcDbEllipse
 10
134.8682130828
 20
227.8147697117
 30
0.0
 11
1.270511473805414E-11
 21
-9.233752652853756
 31
0.0
210
0.0
220
0.0
230
1.0
 40
0.9396926208
 41
0.2615712045355696
 42
0.5233705923346446
  0
LINE
  5
1F9
330
1C9
100
AcDbEntity
  8
DV3_0
 62
     7
100
AcDbLine
 10
137.1120447526
 20
218.8951044543
 30
0.0
 11
134.6591519232
 21
218.5179902804
 31
0.0
  0
LINE
  5
1FA
330
1C9
100
AcDbEntity
  8
DV3_0
 62
     7
100
AcDbLine
 10
134.8824299701
 20
219.3967082004
 30
0.0
 11
134.6591519232
 21
218.5179902804
 31
0.0
  0
ELLIPSE
  5
1FB
330
1C9
100
AcDbEntity
  8
DV3_0
 62
     7
100
AcDbEllipse
 10
134.8682130828
 20
227.8147697116
 30
0.0
 11
-2.865763182313685E-12
 21
-8.332517541451669
 31
0.0
210
0.0
220
0.0
230
1.0
 40
0.9396926208
 41
5.235759572721124
 42
5.759358348319386
  0
ELLIPSE
  5
1FC
330
1C9
100
AcDbEntity
  8
DV3_0
 62
     7
100
AcDbEllipse
 10
132.7962802999
 20
227.8147697116
 30
0.0
 11
-4.276093368282829E-12
 21
-8.650000000000723
 31
0.0
210
0.0
220
0.0
230
1.0
 40
0.9396926208
 41
5.288010391460825
 42
5.759358348319539
  0
LINE
  5
1FD
330
1C9
100
AcDbEntity
  8
DV3_0
 62
     7
100
AcDbLine
 10
130.9516632547
 20
220.5995487016
 30
0.0
 11
130.528053919
 21
219.8191590441
 31
0.0
  0
LINE
  5
1FE
330
1C9
100
AcDbEntity
  8
DV3_0
 62
     7
100
AcDbLine
 10
132.839932858
 20
219.7666681332
 30
0.0
 11
132.6205564996
 21
218.8961951115
 31
0.0
  0
ELLIPSE
  5
1FF
330
1C9
100
AcDbEntity
  8
DV3_0
 62
     7
100
AcDbEllipse
 10
134.8682130828
 20
227.8147697116
 30
0.0
 11
4.292052824261816E-11
 21
-9.233752652835012
 31
0.0
210
0.0
220
0.0
230
1.0
 40
0.9396926208
 41
5.759358348314302
 42
6.021157736113655
  0
LINE
  5
200
330
1C9
100
AcDbEntity
  8
DV3_0
 62
     7
100
AcDbLine
 10
130.528053919
 20
219.8191590441
 30
0.0
 11
127.796796802
 21
219.4811129375
 31
0.0
  0
ELLIPSE
  5
201
330
1C9
100
AcDbEntity
  8
DV3_0
 62
     7
100
AcDbEllipse
 10
132.3204533831
 20
227.8147697116
 30
0.0
 11
3.207677179428714E-11
 21
-9.624146115366397
 31
0.0
210
0.0
220
0.0
230
1.0
 40
0.9396926208
 41
5.759358348315667
 42
6.021157736114946
  0
LINE
  5
202
330
1C9
100
AcDbEntity
  8
DV3_0
 62
     7
100
AcDbLine
 10
132.6205564996
 20
218.8961951115
 30
0.0
 11
129.9777682163
 21
218.5191270493
 31
0.0
  0
LINE
  5
203
330
1C9
100
AcDbEntity
  8
DV3_0
 62
     7
100
AcDbLine
 10
130.9516632547
 20
220.5995487016
 30
0.0
 11
128.730503559
 21
220.3246370565
 31
0.0
  0
LINE
  5
204
330
1C9
100
AcDbEntity
  8
DV3_0
 62
     7
100
AcDbLine
 10
128.730503559
 20
220.3246370565
 30
0.0
 11
127.796796802
 21
219.4811129375
 31
0.0
  0
ELLIPSE
  5
205
330
1C9
100
AcDbEntity
  8
DV3_0
 62
     7
100
AcDbEllipse
 10
134.8682130828
 20
227.8147697116
 30
0.0
 11
1.221245327087672E-12
 21
-8.332517541451427
 31
0.0
210
0.0
220
0.0
230
1.0
 40
0.9396926208
 41
4.450361409323183
 42
4.973960184921459
  0
ELLIPSE
  5
206
330
1C9
100
AcDbEntity
  8
DV3_0
 62
     7
100
AcDbEllipse
 10
132.7962802999
 20
227.8147697116
 30
0.0
 11
4.236194728335363E-12
 21
-8.649999999999968
 31
0.0
210
0.0
220
0.0
230
1.0
 40
0.9396926208
 41
4.450361409322853
 42
4.973960184921152
  0
LINE
  5
207
330
1C9
100
AcDbEntity
  8
DV3_0
 62
     7
100
AcDbLine
 10
127.3045465666
 20
225.6599920888
 30
0.0
 11
126.4864694606
 21
225.4269339235
 31
0.0
  0
LINE
  5
208
330
1C9
100
AcDbEntity
  8
DV3_0
 62
     7
100
AcDbLine
 10
128.0863364662
 20
223.650157659
 30
0.0
 11
127.352816819
 21
223.1997182104
 31
0.0
  0
ELLIPSE
  5
209
330
1C9
100
AcDbEntity
  8
DV3_0
 62
     7
100
AcDbEllipse
 10
134.8682130828
 20
227.8147697116
 30
0.0
 11
4.103661854770735E-11
 21
-9.233752652840467
 31
0.0
210
0.0
220
0.0
230
1.0
 40
0.9396926208
 41
4.973960184916999
 42
5.235759572716375
  0
LINE
  5
20A
330
1C9
100
AcDbEntity
  8
DV3_0
 62
     7
100
AcDbLine
 10
126.4864694606
 20
225.4269339235
 30
0.0
 11
123.5843383545
 21
225.3259787088
 31
0.0
  0
ELLIPSE
  5
20B
330
1C9
100
AcDbEntity
  8
DV3_0
 62
     7
100
AcDbEllipse
 10
132.3204533831
 20
227.8147697117
 30
0.0
 11
-8.151465613615017E-12
 21
-9.624146115379403
 31
0.0
210
0.0
220
0.0
230
1.0
 40
0.9396926208
 41
4.973960184922552
 42
5.235759572721616
  0
LINE
  5
20C
330
1C9
100
AcDbEntity
  8
DV3_0
 62
     7
100
AcDbLine
 10
127.352816819
 20
223.1997182104
 30
0.0
 11
124.4873139784
 21
223.0045986308
 31
0.0
  0
LINE
  5
20D
330
1C9
100
AcDbEntity
  8
DV3_0
 62
     7
100
AcDbLine
 10
127.3045465666
 20
225.6599920888
 30
0.0
 11
124.9444257985
 21
225.5778915599
 31
0.0
  0
LINE
  5
20E
330
1C9
100
AcDbEntity
  8
DV3_0
 62
     7
100
AcDbLine
 10
124.9444257985
 20
225.5778915599
 30
0.0
 11
123.5843383545
 21
225.3259787088
 31
0.0
  0
ELLIPSE
  5
20F
330
1C9
100
AcDbEntity
  8
DV3_0
 62
     7
100
AcDbEllipse
 10
131.7900317929
 20
227.8147697116
 30
0.0
 11
-3.295974604355933E-14
 21
10.5
 31
0.0
210
0.0
220
0.0
230
1.0
 40
0.9396926208
 41
0.0
 42
3.141592653589793
  0
ELLIPSE
  5
210
330
1C9
100
AcDbEntity
  8
DV3_0
 62
     7
100
AcDbEllipse
 10
134.8682130828
 20
227.8147697116
 30
0.0
 11
6.938893903907228E-15
 21
1.999999999999985
 31
0.0
210
0.0
220
0.0
230
1.0
 40
0.9396926208
 41
0.0
 42
3.141592653589793
  0
ELLIPSE
  5
211
330
1C9
100
AcDbEntity
  8
DV3_0
 62
     7
100
AcDbEllipse
 10
135.7985438881
 20
227.8147697116
 30
0.0
 11
2.428612866367530E-14
 21
1.999999999999987
 31
0.0
210
0.0
220
0.0
230
1.0
 40
0.9396926208
 41
0.0
 42
6.283185307179586
  0
ELLIPSE
  5
212
330
1C9
100
AcDbEntity
  8
DV3_0
 62
     7
100
AcDbEllipse
 10
131.7900317929
 20
227.8147697116
 30
0.0
 11
-2.775557561562892E-14
 21
-15.0
 31
0.0
210
0.0
220
0.0
230
1.0
 40
0.9396926208
 41
0.0
 42
6.283185307179586
  0
ELLIPSE
  5
213
330
1C9
100
AcDbEntity
  8
DV3_0
 62
     7
100
AcDbEllipse
 10
124.0603765537
 20
227.8147697116
 30
0.0
 11
-1.474514954580286E-13
 21
13.74999999999998
 31
0.0
210
0.0
220
0.0
230
1.0
 40
0.9396926208
 41
0.0000000000000007
 42
3.170534607126875
  0
ELLIPSE
  5
214
330
1C9
100
AcDbEntity
  8
DV3_0
 62
     7
100
AcDbEllipse
 10
124.0603765537
 20
227.8147697116
 30
0.0
 11
-1.474514954580286E-13
 21
13.74999999999998
 31
0.0
210
0.0
220
0.0
230
1.0
 40
0.9396926208
 41
6.254243353642485
 42
6.283185307179586
  0
ELLIPSE
  5
215
330
1C9
100
AcDbEntity
  8
DV3_0
 62
     7
100
AcDbEllipse
 10
124.8008718855
 20
227.8147697116
 30
0.0
 11
-1.387778780781446E-14
 21
10.00000000000001
 31
0.0
210
0.0
220
0.0
230
1.0
 40
0.9396926208
 41
0.9820380890309388
 42
2.159554564558849
  0
ELLIPSE
  5
216
330
1C9
100
AcDbEntity
  8
DV3_0
 62
     7
100
AcDbEllipse
 10
130.0799310763
 20
227.8147697116
 30
0.0
 11
-3.469446951953615E-15
 21
-15.0
 31
0.0
210
0.0
220
0.0
230
1.0
 40
0.9396926208
 41
3.141592653589793
 42
6.283185307179586
  0
ELLIPSE
  5
217
330
1C9
100
AcDbEntity
  8
DV3_0
 62
     7
100
AcDbEllipse
 10
123.5473463387
 20
227.8147697116
 30
0.0
 11
1.812786032395764E-13
 21
-14.25000000000002
 31
0.0
210
0.0
220
0.0
230
1.0
 40
0.9396926208
 41
-1.35868301631568
 42
0.1335966395216353
  0
ELLIPSE
  5
218
330
1C9
100
AcDbEntity
  8
DV3_0
 62
     7
100
AcDbEllipse
 10
123.5473463387
 20
227.8147697116
 30
0.0
 11
1.812786032395764E-13
 21
-14.25000000000002
 31
0.0
210
0.0
220
0.0
230
1.0
 40
0.9396926208
 41
3.007996014068128
 42
4.500275669905447
  0
LINE
  5
219
330
1C9
100
AcDbEntity
  8
DV3_0
 62
     7
100
AcDbLine
 10
110.4568345126
 20
230.8147697116
 30
0.0
 11
109.9765938878
 21
230.8147697116
 31
0.0
  0
ELLIPSE
  5
21A
330
1C9
100
AcDbEntity
  8
DV3_0
 62
     7
100
AcDbEllipse
 10
123.5473463387
 20
227.8147697116
 30
0.0
 11
-6.717716660720185E-12
 21
14.7499999999991
 31
0.0
210
0.0
220
0.0
230
1.0
 40
0.9396926208
 41
1.365977445295932
 42
1.775615208293
  0
ELLIPSE
  5
21B
330
1C9
100
AcDbEntity
  8
DV3_0
 62
     7
100
AcDbEllipse
 10
123.5473463387
 20
227.8147697116
 30
0.0
 11
3.556183125752455E-14
 21
-13.74999999999999
 31
0.0
210
0.0
220
0.0
230
1.0
 40
0.9396926208
 41
3.141592653589794
 42
6.283185307179586
  0
LINE
  5
21C
330
1C9
100
AcDbEntity
  8
DV3_0
 62
     7
100
AcDbLine
 10
109.7396076225
 20
215.6147697116
 30
0.0
 11
109.7396076225
 21
218.1293595363
 31
0.0
  0
ARC
  5
21D
330
1C9
100
AcDbEntity
  8
DV3_0
 62
     7
100
AcDbCircle
 10
120.2972207129
 20
221.0430409427
 30
0.0
 40
9.117477852017256
100
AcDbArc
 50
216.539000872
 51
222.3201269454
  0
ELLIPSE
  5
21E
330
1C9
100
AcDbEntity
  8
DV3_0
 62
     7
100
AcDbEllipse
 10
119.2242117271
 20
227.8147697116
 30
0.0
 11
1.962405932198763E-13
 21
14.25000000000001
 31
0.0
210
0.0
220
0.0
230
1.0
 40
0.9396926208
 41
2.704495149658063
 42
3.141592653589793
  0
ELLIPSE
  5
21F
330
1C9
100
AcDbEntity
  8
DV3_0
 62
     7
100
AcDbEllipse
 10
119.2242117271
 20
227.8147697116
 30
0.0
 11
-5.464378949326943E-14
 21
-14.24999999999997
 31
0.0
210
0.0
220
0.0
230
1.0
 40
0.9396926208
 41
3.141592653589797
 42
3.884993228698427
  0
ELLIPSE
  5
220
330
1C9
100
AcDbEntity
  8
DV3_0
 62
     7
100
AcDbEllipse
 10
114.5133858329
 20
227.8147697116
 30
0.0
 11
2.046973701652632E-13
 21
14.24999999999953
 31
0.0
210
0.0
220
0.0
230
1.0
 40
0.4512372348
 41
0.7434005751086419
 42
1.358683016315698
  0
LINE
  5
221
330
1C9
100
AcDbEntity
  8
DV3_0
 62
     7
100
AcDbLine
 10
84.6909837589
 20
217.4647697116
 30
0.0
 11
84.6909837589
 21
224.8147697116
 31
0.0
  0
LINE
  5
222
330
1C9
100
AcDbEntity
  8
DV3_0
 62
     7
100
AcDbLine
 10
84.6909837589
 20
230.8147697116
 30
0.0
 11
84.6909837589
 21
233.4477209579
 31
0.0
  0
LINE
  5
223
330
1C9
100
AcDbEntity
  8
DV3_0
 62
     7
100
AcDbLine
 10
81.8204837589
 20
214.5942697116
 30
0.0
 11
81.8204837589
 21
236.010139657
 31
0.0
  0
ELLIPSE
  5
224
330
1C9
100
AcDbEntity
  8
DV3_0
 62
     7
100
AcDbEllipse
 10
75.8868085164
 20
227.8147697116
 30
0.0
 11
-4.857225732735060E-14
 21
-17.84040147234984
 31
0.0
210
0.0
220
0.0
230
1.0
 40
0.3907731371
 41
1.401835919852009
 42
1.739756733737811
  0
LINE
  5
225
330
1C9
100
AcDbEntity
  8
DV3_0
 62
     7
100
AcDbLine
 10
109.7396076225
 20
215.6147697116
 30
0.0
 11
112.9717668823
 21
215.6147697116
 31
0.0
  0
ELLIPSE
  5
226
330
1C9
100
AcDbEntity
  8
DV3_0
 62
     7
100
AcDbEllipse
 10
116.2944941687
 20
227.8147697116
 30
0.0
 11
1.019150042136374E-14
 21
-14.24999999999998
 31
0.0
210
0.0
220
0.0
230
1.0
 40
0.4512372348
 41
4.924502290863916
 42
5.740142605286511
  0
LINE
  5
227
330
1C9
100
AcDbEntity
  8
DV3_0
 62
     7
100
AcDbLine
 10
109.3772609594
 20
224.8147697116
 30
0.0
 11
109.3772609594
 21
218.1293595363
 31
0.0
  0
ELLIPSE
  5
228
330
1C9
100
AcDbEntity
  8
DV3_0
 62
     7
100
AcDbEllipse
 10
114.9968427556
 20
227.8147697116
 30
0.0
 11
6.852157730108388E-14
 21
13.25
 31
0.0
210
0.0
220
0.0
230
1.0
 40
0.9396926208
 41
3.064940639725284
 42
3.080640093156765
  0
ELLIPSE
  5
229
330
1C9
100
AcDbEntity
  8
DV3_0
 62
     7
100
AcDbEllipse
 10
105.0838522895
 20
215.6147697116
 30
0.0
 11
-2.949029909160572E-14
 21
8.999999999999982
 31
0.0
210
0.0
220
0.0
230
1.0
 40
0.9659258263
 41
3.141592653589793
 42
4.623234368723288
  0
ELLIPSE
  5
22A
330
1C9
100
AcDbEntity
  8
DV3_0
 62
     7
100
AcDbEllipse
 10
114.9968427556
 20
227.8147697116
 30
0.0
 11
1.530893467549532E-13
 21
-13.25000000000002
 31
0.0
210
0.0
220
0.0
230
1.0
 40
0.9396926208
 41
3.202545214022837
 42
3.521992414336401
  0
ELLIPSE
  5
22B
330
1C9
100
AcDbEntity
  8
DV3_0
 62
     7
100
AcDbEllipse
 10
95.7462751859
 20
240.0147697116
 30
0.0
 11
9.714451465470120E-14
 21
-11.49999999999998
 31
0.0
210
0.0
220
0.0
230
1.0
 40
0.9659258263
 41
3.55328290681007
 42
4.032801835933494
  0
ELLIPSE
  5
22C
330
1C9
100
AcDbEntity
  8
DV3_0
 62
     7
100
AcDbEllipse
 10
95.7462751859
 20
240.0147697116
 30
0.0
 11
9.714451465470120E-14
 21
-11.49999999999998
 31
0.0
210
0.0
220
0.0
230
1.0
 40
0.9659258263
 41
1.570796326794886
 42
3.526855606612145
  0
ELLIPSE
  5
22D
330
1C9
100
AcDbEntity
  8
DV3_0
 62
     7
100
AcDbEllipse
 10
99.2662141993
 20
240.0147697116
 30
0.0
 11
-7.285838599102590E-14
 21
-11.5
 31
0.0
210
0.0
220
0.0
230
1.0
 40
0.9659258263
 41
1.570796326794903
 42
3.141592653589793
  0
ELLIPSE
  5
22E
330
1C9
100
AcDbEntity
  8
DV3_0
 62
     7
100
AcDbEllipse
 10
104.3600530984
 20
227.8147697116
 30
0.0
 11
5.724587470723463E-14
 21
23.50000000000002
 31
0.0
210
0.0
220
0.0
230
1.0
 40
0.9396926208
 41
2.53635307590989
 42
4.060885045934889
  0
ELLIPSE
  5
22F
330
1C9
100
AcDbEntity
  8
DV3_0
 62
     7
100
AcDbEllipse
 10
104.3600530984
 20
227.8147697116
 30
0.0
 11
5.724587470723463E-14
 21
23.50000000000002
 31
0.0
210
0.0
220
0.0
230
1.0
 40
0.9396926208
 41
2.031945715122483
 42
2.173582384957165
  0
ELLIPSE
  5
230
330
1C9
100
AcDbEntity
  8
DV3_0
 62
     7
100
AcDbEllipse
 10
104.3600530984
 20
227.8147697116
 30
0.0
 11
5.724587470723463E-14
 21
23.50000000000002
 31
0.0
210
0.0
220
0.0
230
1.0
 40
0.9396926208
 41
-0.9192923923450912
 42
0.1093938423513759
  0
ELLIPSE
  5
231
330
1C9
100
AcDbEntity
  8
DV3_0
 62
     7
100
AcDbEllipse
 10
108.4536617837
 20
227.8147697116
 30
0.0
 11
-1.196959198423997E-13
 21
23.49999999999997
 31
0.0
210
0.0
220
0.0
230
1.0
 40
0.9396926208
 41
3.141592653589787
 42
4.056008036681157
  0
ELLIPSE
  5
232
330
1C9
100
AcDbEntity
  8
DV3_0
 62
     7
100
AcDbEllipse
 10
108.4536617837
 20
227.8147697116
 30
0.0
 11
-1.196959198423997E-13
 21
23.49999999999997
 31
0.0
210
0.0
220
0.0
230
1.0
 40
0.9396926208
 41
-0.9144153830913729
 42
-0.0000000000000047
  0
ELLIPSE
  5
233
330
1C9
100
AcDbEntity
  8
DV3_0
 62
     7
100
AcDbEllipse
 10
109.4903552482
 20
227.8147697116
 30
0.0
 11
1.162264728904461E-13
 21
25.24999999999998
 31
0.0
210
0.0
220
0.0
230
1.0
 40
0.9396926208
 41
5.344583217753643
 42
6.283185307179586
  0
ELLIPSE
  5
234
330
1C9
100
AcDbEntity
  8
DV3_0
 62
     7
100
AcDbEllipse
 10
109.4903552482
 20
227.8147697116
 30
0.0
 11
1.162264728904461E-13
 21
25.24999999999998
 31
0.0
210
0.0
220
0.0
230
1.0
 40
0.9396926208
 41
2.71085497381113
 42
4.080194743015744
  0
ELLIPSE
  5
235
330
1C9
100
AcDbEntity
  8
DV3_0
 62
     7
100
AcDbEllipse
 10
109.4903552482
 20
227.8147697116
 30
0.0
 11
1.162264728904461E-13
 21
25.24999999999998
 31
0.0
210
0.0
220
0.0
230
1.0
 40
0.9396926208
 41
0.0
 42
0.3674511900781426
  0
ELLIPSE
  5
236
330
1C9
100
AcDbEntity
  8
DV3_0
 62
     7
100
AcDbEllipse
 10
110.2822417534
 20
227.8147697116
 30
0.0
 11
7.546047120499111E-14
 21
25.24999999999998
 31
0.0
210
0.0
220
0.0
230
1.0
 40
0.9396926208
 41
5.347578527076315
 42
6.283185307179586
  0
ELLIPSE
  5
237
330
1C9
100
AcDbEntity
  8
DV3_0
 62
     7
100
AcDbEllipse
 10
110.2822417534
 20
227.8147697116
 30
0.0
 11
7.546047120499111E-14
 21
25.24999999999998
 31
0.0
210
0.0
220
0.0
230
1.0
 40
0.9396926208
 41
3.141592653589793
 42
4.077199433693067
  0
ELLIPSE
  5
238
330
1C9
100
AcDbEntity
  8
DV3_0
 62
     7
100
AcDbEllipse
 10
112.6369405668
 20
227.8147697116
 30
0.0
 11
-1.118896642005041E-13
 21
26.8000000000003
 31
0.0
210
0.0
220
0.0
230
1.0
 40
0.9396926208
 41
3.141592653589793
 42
4.12384284930043
  0
ELLIPSE
  5
239
330
1C9
100
AcDbEntity
  8
DV3_0
 62
     7
100
AcDbEllipse
 10
112.6369405668
 20
227.8147697116
 30
0.0
 11
-1.118896642005041E-13
 21
26.8000000000003
 31
0.0
210
0.0
220
0.0
230
1.0
 40
0.9396926208
 41
5.300935111468939
 42
6.283185307179586
  0
ELLIPSE
  5
23A
330
1C9
100
AcDbEntity
  8
DV3_0
 62
     7
100
AcDbEllipse
 10
111.2004559649
 20
227.8147697116
 30
0.0
 11
2.801578413702543E-13
 21
-26.80000000000035
 31
0.0
210
0.0
220
0.0
230
1.0
 40
0.9396926208
 41
5.687310405725606
 42
6.283185307179586
  0
ELLIPSE
  5
23B
330
1C9
100
AcDbEntity
  8
DV3_0
 62
     7
100
AcDbEllipse
 10
111.2004559649
 20
227.8147697116
 30
0.0
 11
2.801578413702543E-13
 21
-26.80000000000035
 31
0.0
210
0.0
220
0.0
230
1.0
 40
0.9396926208
 41
2.164686722311746
 42
3.627448690937392
  0
ELLIPSE
  5
23C
330
1C9
100
AcDbEntity
  8
DV3_0
 62
     7
100
AcDbEllipse
 10
111.2004559649
 20
227.8147697116
 30
0.0
 11
2.801578413702543E-13
 21
-26.80000000000035
 31
0.0
210
0.0
220
0.0
230
1.0
 40
0.9396926208
 41
0.0
 42
0.9769059312780275
  0
ELLIPSE
  5
23D
330
1C9
100
AcDbEntity
  8
DV3_0
 62
     7
100
AcDbEllipse
 10
106.377947515
 20
215.6147697116
 30
0.0
 11
1.301042606982605E-13
 21
7.999999999999993
 31
0.0
210
0.0
220
0.0
230
1.0
 40
0.9659258263
 41
3.930135168122954
 42
4.594137763126089
  0
ELLIPSE
  5
23E
330
1C9
100
AcDbEntity
  8
DV3_0
 62
     7
100
AcDbEllipse
 10
101.0462751859
 20
215.6147697116
 30
0.0
 11
1.908195823574488E-13
 21
9.000000000000014
 31
0.0
210
0.0
220
0.0
230
1.0
 40
0.9659258263
 41
2.504503661999125
 42
4.71238898038471
  0
LINE
  5
23F
330
1C9
100
AcDbEntity
  8
DV3_0
 62
     7
100
AcDbLine
 10
91.9905960862
 20
224.8147697116
 30
0.0
 11
91.9905960862
 21
222.7752658881
 31
0.0
  0
ELLIPSE
  5
240
330
1C9
100
AcDbEntity
  8
DV3_0
 62
     7
100
AcDbEllipse
 10
100.5282606827
 20
215.6147697116
 30
0.0
 11
-1.387778780781446E-13
 21
-9.500000000000018
 31
0.0
210
0.0
220
0.0
230
1.0
 40
0.9659258263
 41
1.838682570724791
 42
3.844203088746897
  0
LINE
  5
241
330
1C9
100
AcDbEntity
  8
DV3_0
 62
     7
100
AcDbLine
 10
109.3772609594
 20
224.8147697116
 30
0.0
 11
109.5058953763
 21
224.8147697116
 31
0.0
  0
ELLIPSE
  5
242
330
1C9
100
AcDbEntity
  8
DV3_0
 62
     7
100
AcDbEllipse
 10
169.846839546
 20
227.8147697116
 30
0.0
 11
60.54404234175037
 21
1.102365192911746E-12
 31
0.0
210
0.0
220
0.0
230
1.0
 40
0.6054552707
 41
3.059660611745254
 42
3.223524695434305
  0
LINE
  5
243
330
1C9
100
AcDbEntity
  8
DV3_0
 62
     7
100
AcDbLine
 10
106.4920755251
 20
230.8147697116
 30
0.0
 11
106.4920755251
 21
238.2615092052
 31
0.0
  0
ELLIPSE
  5
244
330
1C9
100
AcDbEntity
  8
DV3_0
 62
     7
100
AcDbEllipse
 10
95.2695064116
 20
240.0147697116
 30
0.0
 11
4.614364446098307E-13
 21
11.74999999999997
 31
0.0
210
0.0
220
0.0
230
1.0
 40
0.9659258263
 41
2.272754248573675
 42
4.562615998047099
  0
LINE
  5
245
330
1C9
100
AcDbEntity
  8
DV3_0
 62
     7
100
AcDbLine
 10
85.1909837589
 20
233.2296085848
 30
0.0
 11
85.1909837589
 21
224.8147697116
 31
0.0
  0
LINE
  5
246
330
1C9
100
AcDbEntity
  8
DV3_0
 62
     7
100
AcDbLine
 10
85.1909837589
 20
224.8147697116
 30
0.0
 11
91.9905960862
 21
224.8147697116
 31
0.0
  0
ELLIPSE
  5
247
330
1C9
100
AcDbEntity
  8
DV3_0
 62
     7
100
AcDbEllipse
 10
88.5835911078
 20
227.8147697121
 30
0.0
 11
1.328208376616402E-10
 21
13.22049999901403
 31
0.0
210
0.0
220
0.0
230
1.0
 40
0.2679491924
 41
1.278929322139757
 42
1.341881992547349
  0
LINE
  5
248
330
1C9
100
AcDbEntity
  8
DV3_0
 62
     7
100
AcDbLine
 10
106.8544221883
 20
240.0147697116
 30
0.0
 11
106.8544221883
 21
238.2615092052
 31
0.0
  0
LINE
  5
249
330
1C9
100
AcDbEntity
  8
DV3_0
 62
     7
100
AcDbLine
 10
106.8544221883
 20
238.2615092052
 30
0.0
 11
106.4920755251
 21
238.2615092052
 31
0.0
  0
LINE
  5
24A
330
1C9
100
AcDbEntity
  8
DV3_0
 62
     7
100
AcDbLine
 10
110.3743612017
 20
238.5090333767
 30
0.0
 11
110.3743612017
 21
240.0147697116
 31
0.0
  0
LINE
  5
24B
330
1C9
100
AcDbEntity
  8
DV3_0
 62
     7
100
AcDbLine
 10
110.3743612017
 20
240.0147697116
 30
0.0
 11
106.8544221883
 21
240.0147697116
 31
0.0
  0
LINE
  5
24C
330
1C9
100
AcDbEntity
  8
DV3_0
 62
     7
100
AcDbLine
 10
82.7590841019
 20
224.8147697116
 30
0.0
 11
83.1105879256
 21
224.8147697116
 31
0.0
  0
LINE
  5
24D
330
1C9
100
AcDbEntity
  8
DV3_0
 62
     7
100
AcDbLine
 10
82.7590841019
 20
230.8147697116
 30
0.0
 11
83.1105879256
 21
230.8147697116
 31
0.0
  0
LINE
  5
24E
330
1C9
100
AcDbEntity
  8
DV3_0
 62
     7
100
AcDbLine
 10
85.1909837589
 20
224.8147697116
 30
0.0
 11
83.1105879256
 21
224.8147697116
 31
0.0
  0
LINE
  5
24F
330
1C9
100
AcDbEntity
  8
DV3_0
 62
     7
100
AcDbLine
 10
110.4568345126
 20
224.8147697116
 30
0.0
 11
109.9765938878
 21
224.8147697116
 31
0.0
  0
LINE
  5
250
330
1C9
100
AcDbEntity
  8
DV3_0
 62
     7
100
AcDbLine
 10
109.9765938878
 20
224.8147697116
 30
0.0
 11
109.5058953763
 21
224.8147697116
 31
0.0
  0
LINE
  5
251
330
1C9
100
AcDbEntity
  8
DV3_0
 62
     7
100
AcDbLine
 10
106.4920755251
 20
230.8147697116
 30
0.0
 11
109.5058953763
 21
230.8147697116
 31
0.0
  0
LINE
  5
252
330
1C9
100
AcDbEntity
  8
DV3_0
 62
     7
100
AcDbLine
 10
148.3909837589
 20
216.0942697116
 30
0.0
 11
148.3909837589
 21
239.5352697116
 31
0.0
  0
LINE
  5
253
330
1C9
100
AcDbEntity
  8
DV3_0
 62
     7
100
AcDbLine
 10
146.8909837589
 20
214.5942697116
 30
0.0
 11
146.8909837589
 21
241.0352697116
 31
0.0
  0
LINE
  5
254
330
1C9
100
AcDbEntity
  8
DV3_0
 62
     7
100
AcDbLine
 10
140.9614837589
 20
214.5942697116
 30
0.0
 11
140.9614837589
 21
216.4243649743
 31
0.0
  0
LINE
  5
255
330
1C9
100
AcDbEntity
  8
DV3_0
 62
     7
100
AcDbLine
 10
140.9614837589
 20
239.205174449
 30
0.0
 11
140.9614837589
 21
241.0352697116
 31
0.0
  0
LINE
  5
256
330
1C9
100
AcDbEntity
  8
DV3_0
 62
     7
100
AcDbLine
 10
74.1909837589
 20
216.0942697116
 30
0.0
 11
74.1909837589
 21
239.5352697116
 31
0.0
  0
LINE
  5
257
330
1C9
100
AcDbEntity
  8
DV3_0
 62
     7
100
AcDbLine
 10
75.6909837589
 20
214.5942697116
 30
0.0
 11
75.6909837589
 21
241.0352697116
 31
0.0
  0
LINE
  5
258
330
1C9
100
AcDbEntity
  8
DV3_0
 62
     7
100
AcDbLine
 10
85.1335788164
 20
230.8147697116
 30
0.0
 11
83.1105879256
 21
230.8147697116
 31
0.0
  0
ELLIPSE
  5
259
330
1C9
100
AcDbEntity
  8
DV3_0
 62
     7
100
AcDbEllipse
 10
78.4242450758
 20
227.8147697116
 30
0.0
 11
-5.551115123125783E-14
 21
13.22050000000079
 31
0.0
210
0.0
220
0.0
230
1.0
 40
0.3639702343
 41
4.483474646114878
 42
4.94130331465449
  0
LINE
  5
25A
330
1C9
100
AcDbEntity
  8
DV3_0
 62
     7
100
AcDbLine
 10
109.9765938878
 20
230.8147697116
 30
0.0
 11
109.5058953763
 21
230.8147697116
 31
0.0
  0
ELLIPSE
  5
25B
330
1C9
100
AcDbEntity
  8
DV3_0
 62
     7
100
AcDbEllipse
 10
95.6318530747
 20
240.0147697116
 30
0.0
 11
2.081668171172169E-14
 21
11.74999999999998
 31
0.0
210
0.0
220
0.0
230
1.0
 40
0.9659258263
 41
2.291137178145392
 42
3.125629044966433
  0
ELLIPSE
  5
25C
330
1C9
100
AcDbEntity
  8
DV3_0
 62
     7
100
AcDbEllipse
 10
100.8906073459
 20
215.6147697116
 30
0.0
 11
-7.979727989493313E-14
 21
-9.499999999999995
 31
0.0
210
0.0
220
0.0
230
1.0
 40
0.9659258263
 41
3.161337561233061
 42
3.844203088746892
  0
LINE
  5
25D
330
1C9
100
AcDbEntity
  8
DV3_0
 62
     7
100
AcDbLine
 10
109.7396076225
 20
218.1293595363
 30
0.0
 11
109.3772609594
 21
218.1293595363
 31
0.0
  0
ELLIPSE
  5
25E
330
1C9
100
AcDbEntity
  8
DV3_0
 62
     7
100
AcDbEllipse
 10
101.0462751859
 20
215.6147697116
 30
0.0
 11
-2.393918396847994E-13
 21
-5.966500000000008
 31
0.0
210
0.0
220
0.0
230
1.0
 40
0.9659258263
 41
0.0
 42
3.141592653589793
  0
ELLIPSE
  5
25F
330
1C9
100
AcDbEntity
  8
DV3_0
 62
     7
100
AcDbEllipse
 10
95.416960955
 20
215.6147697116
 30
0.0
 11
5.551115123125783E-14
 21
7.25
 31
0.0
210
0.0
220
0.0
230
1.0
 40
0.9659258263
 41
3.141592653589793
 42
6.283185307179586
  0
ELLIPSE
  5
260
330
1C9
100
AcDbEntity
  8
DV3_0
 62
     7
100
AcDbEllipse
 10
93.087589549
 20
215.6147697116
 30
0.0
 11
8.326672684688674E-14
 21
-7.250000000000006
 31
0.0
210
0.0
220
0.0
230
1.0
 40
0.9659258263
 41
0.0
 42
6.283185307179586
  0
LINE
  5
261
330
1C9
100
AcDbEntity
  8
DV3_0
 62
     7
100
AcDbLine
 10
85.9082953636
 20
232.655722427
 30
0.0
 11
95.9554658336
 21
229.3577237801
 31
0.0
  0
LINE
  5
262
330
1C9
100
AcDbEntity
  8
DV3_0
 62
     7
100
AcDbLine
 10
95.9554658336
 20
229.3577237801
 30
0.0
 11
103.7378807065
 21
236.7167710647
 31
0.0
  0
LINE
  5
263
330
1C9
100
AcDbEntity
  8
DV3_0
 62
     7
100
AcDbLine
 10
103.7378807065
 20
236.7167710647
 30
0.0
 11
101.4731251093
 21
247.3738169963
 31
0.0
  0
LINE
  5
264
330
1C9
100
AcDbEntity
  8
DV3_0
 62
     7
100
AcDbLine
 10
101.4731251093
 20
247.3738169963
 30
0.0
 11
91.4259546393
 21
250.6718156432
 31
0.0
  0
LINE
  5
265
330
1C9
100
AcDbEntity
  8
DV3_0
 62
     7
100
AcDbLine
 10
91.4259546393
 20
250.6718156432
 30
0.0
 11
87.8229006155
 21
247.2647697116
 31
0.0
  0
LINE
  5
266
330
1C9
100
AcDbEntity
  8
DV3_0
 62
     7
100
AcDbLine
 10
85.8318013093
 20
233.0156732539
 30
0.0
 11
85.9082953636
 21
232.655722427
 31
0.0
  0
LINE
  5
267
330
1C9
100
AcDbEntity
  8
DV3_0
 62
     7
100
AcDbLine
 10
103.2848584251
 20
247.3738169963
 30
0.0
 11
105.5496140222
 21
236.7167710647
 31
0.0
  0
LINE
  5
268
330
1C9
100
AcDbEntity
  8
DV3_0
 62
     7
100
AcDbLine
 10
105.5496140222
 20
236.7167710647
 30
0.0
 11
97.7671991493
 21
229.3577237801
 31
0.0
  0
LINE
  5
269
330
1C9
100
AcDbEntity
  8
DV3_0
 62
     7
100
AcDbLine
 10
93.237687955
 20
250.6718156432
 30
0.0
 11
103.2848584251
 21
247.3738169963
 31
0.0
  0
LINE
  5
26A
330
1C9
100
AcDbEntity
  8
DV3_0
 62
     7
100
AcDbLine
 10
105.5496140222
 20
236.7167710647
 30
0.0
 11
103.7378807065
 21
236.7167710647
 31
0.0
  0
LINE
  5
26B
330
1C9
100
AcDbEntity
  8
DV3_0
 62
     7
100
AcDbLine
 10
97.7671991493
 20
229.3577237801
 30
0.0
 11
95.9554658336
 21
229.3577237801
 31
0.0
  0
LINE
  5
26C
330
1C9
100
AcDbEntity
  8
DV3_0
 62
     7
100
AcDbLine
 10
93.237687955
 20
250.6718156432
 30
0.0
 11
91.4259546393
 21
250.6718156432
 31
0.0
  0
LINE
  5
26D
330
1C9
100
AcDbEntity
  8
DV3_0
 62
     7
100
AcDbLine
 10
103.2848584251
 20
247.3738169963
 30
0.0
 11
101.4731251093
 21
247.3738169963
 31
0.0
  0
ELLIPSE
  5
26E
330
1C9
100
AcDbEntity
  8
DV3_0
 62
     7
100
AcDbEllipse
 10
93.8051323477
 20
240.0147697116
 30
0.0
 11
-2.081668171172169E-14
 21
-5.966499999999998
 31
0.0
210
0.0
220
0.0
230
1.0
 40
0.9659258263
 41
0.0284820145626764
 42
3.113110639027284
  0
ELLIPSE
  5
26F
330
1C9
100
AcDbEntity
  8
DV3_0
 62
     7
100
AcDbEllipse
 10
89.9875514324
 20
240.0147697116
 30
0.0
 11
1.387778780781446E-13
 21
-7.250000000000004
 31
0.0
210
0.0
220
0.0
230
1.0
 40
0.9659258263
 41
0.0
 42
3.141592653589793
  0
ELLIPSE
  5
270
330
1C9
100
AcDbEntity
  8
DV3_0
 62
     7
100
AcDbEllipse
 10
87.6581800265
 20
240.0147697116
 30
0.0
 11
1.908195823574488E-13
 21
7.249999999999991
 31
0.0
210
0.0
220
0.0
230
1.0
 40
0.9659258263
 41
0.0
 42
6.283185307179586
  0
LINE
  5
271
330
1C9
100
AcDbEntity
  8
DV3_0
 62
     7
100
AcDbLine
 10
131.7900317929
 20
217.3147697116
 30
0.0
 11
131.8926378359
 21
217.3147697116
 31
0.0
  0
LINE
  5
272
330
1C9
100
AcDbEntity
  8
DV3_0
 62
     7
100
AcDbLine
 10
131.8926378359
 20
238.3147697116
 30
0.0
 11
131.7900317929
 21
238.3147697116
 31
0.0
  0
LINE
  5
273
330
1C9
100
AcDbEntity
  8
DV3_0
 62
     7
100
AcDbLine
 10
135.9956491974
 20
236.0604562597
 30
0.0
 11
133.9666735625
 21
236.3746303163
 31
0.0
  0
LINE
  5
274
330
1C9
100
AcDbEntity
  8
DV3_0
 62
     7
100
AcDbLine
 10
133.9666735625
 20
219.254909107
 30
0.0
 11
135.9956491974
 21
219.5690831636
 31
0.0
  0
LINE
  5
275
330
1C9
100
AcDbEntity
  8
DV3_0
 62
     7
100
AcDbLine
 10
134.8682130828
 20
225.8147697116
 30
0.0
 11
135.7985438881
 21
225.8147697116
 31
0.0
  0
LINE
  5
276
330
1C9
100
AcDbEntity
  8
DV3_0
 62
     7
100
AcDbLine
 10
135.7985438881
 20
229.8147697116
 30
0.0
 11
134.8682130828
 21
229.8147697116
 31
0.0
  0
LINE
  5
277
330
1C9
100
AcDbEntity
  8
DV3_0
 62
     7
100
AcDbLine
 10
124.0603765537
 20
241.5647697116
 30
0.0
 11
123.5473463387
 21
241.5647697116
 31
0.0
  0
LINE
  5
278
330
1C9
100
AcDbEntity
  8
DV3_0
 62
     7
100
AcDbLine
 10
123.5473463387
 20
214.0647697116
 30
0.0
 11
124.0603765537
 21
214.0647697116
 31
0.0
  0
LINE
  5
279
330
1C9
100
AcDbEntity
  8
DV3_0
 62
     7
100
AcDbLine
 10
131.7900317929
 20
242.8147697116
 30
0.0
 11
130.0799310763
 21
242.8147697116
 31
0.0
  0
LINE
  5
27A
330
1C9
100
AcDbEntity
  8
DV3_0
 62
     7
100
AcDbLine
 10
130.0799310763
 20
212.8147697116
 30
0.0
 11
131.7900317929
 21
212.8147697116
 31
0.0
  0
LINE
  5
27B
330
1C9
100
AcDbEntity
  8
DV3_0
 62
     7
100
AcDbLine
 10
140.9614837589
 20
241.0352697116
 30
0.0
 11
139.9624405097
 21
240.0362264625
 31
0.0
  0
LINE
  5
27C
330
1C9
100
AcDbEntity
  8
DV3_0
 62
     7
100
AcDbLine
 10
139.9624405097
 20
215.5933129608
 30
0.0
 11
140.9614837589
 21
214.5942697116
 31
0.0
  0
LINE
  5
27D
330
1C9
100
AcDbEntity
  8
DV3_0
 62
     7
100
AcDbLine
 10
123.5473463387
 20
242.0647697116
 30
0.0
 11
119.2242117271
 21
242.0647697116
 31
0.0
  0
LINE
  5
27E
330
1C9
100
AcDbEntity
  8
DV3_0
 62
     7
100
AcDbLine
 10
119.2242117271
 20
213.5647697116
 30
0.0
 11
123.5473463387
 21
213.5647697116
 31
0.0
  0
LINE
  5
27F
330
1C9
100
AcDbEntity
  8
DV3_0
 62
     7
100
AcDbLine
 10
84.6909837589
 20
217.4647697116
 30
0.0
 11
86.3164563964
 21
217.4647697116
 31
0.0
  0
LINE
  5
280
330
1C9
100
AcDbEntity
  8
DV3_0
 62
     7
100
AcDbLine
 10
81.8204837589
 20
214.5942697116
 30
0.0
 11
84.6909837589
 21
217.4647697116
 31
0.0
  0
LINE
  5
281
330
1C9
100
AcDbEntity
  8
DV3_0
 62
     7
100
AcDbLine
 10
99.2662141993
 20
251.5147697116
 30
0.0
 11
95.7462751859
 21
251.5147697116
 31
0.0
  0
LINE
  5
282
330
1C9
100
AcDbEntity
  8
DV3_0
 62
     7
100
AcDbLine
 10
108.4536617837
 20
251.3147697116
 30
0.0
 11
104.3600530984
 21
251.3147697116
 31
0.0
  0
LINE
  5
283
330
1C9
100
AcDbEntity
  8
DV3_0
 62
     7
100
AcDbLine
 10
104.3600530984
 20
204.3147697116
 30
0.0
 11
108.4536617837
 21
204.3147697116
 31
0.0
  0
LINE
  5
284
330
1C9
100
AcDbEntity
  8
DV3_0
 62
     7
100
AcDbLine
 10
110.2822417534
 20
253.0647697116
 30
0.0
 11
109.4903552482
 21
253.0647697116
 31
0.0
  0
LINE
  5
285
330
1C9
100
AcDbEntity
  8
DV3_0
 62
     7
100
AcDbLine
 10
109.4903552482
 20
202.5647697116
 30
0.0
 11
110.2822417534
 21
202.5647697116
 31
0.0
  0
LINE
  5
286
330
1C9
100
AcDbEntity
  8
DV3_0
 62
     7
100
AcDbLine
 10
112.6369405668
 20
254.6147697116
 30
0.0
 11
111.2004559649
 21
254.6147697116
 31
0.0
  0
LINE
  5
287
330
1C9
100
AcDbEntity
  8
DV3_0
 62
     7
100
AcDbLine
 10
111.2004559649
 20
201.0147697116
 30
0.0
 11
112.6369405668
 21
201.0147697116
 31
0.0
  0
LINE
  5
288
330
1C9
100
AcDbEntity
  8
DV3_0
 62
     7
100
AcDbLine
 10
101.0462751859
 20
206.6147697116
 30
0.0
 11
105.0838522895
 21
206.6147697116
 31
0.0
  0
LINE
  5
289
330
1C9
100
AcDbEntity
  8
DV3_0
 62
     7
100
AcDbLine
 10
146.8909837589
 20
214.5942697116
 30
0.0
 11
148.3909837589
 21
216.0942697116
 31
0.0
  0
LINE
  5
28A
330
1C9
100
AcDbEntity
  8
DV3_0
 62
     7
100
AcDbLine
 10
148.3909837589
 20
239.5352697116
 30
0.0
 11
146.8909837589
 21
241.0352697116
 31
0.0
  0
LINE
  5
28B
330
1C9
100
AcDbEntity
  8
DV3_0
 62
     7
100
AcDbLine
 10
146.8909837589
 20
241.0352697116
 30
0.0
 11
140.9614837589
 21
241.0352697116
 31
0.0
  0
LINE
  5
28C
330
1C9
100
AcDbEntity
  8
DV3_0
 62
     7
100
AcDbLine
 10
140.9614837589
 20
214.5942697116
 30
0.0
 11
146.8909837589
 21
214.5942697116
 31
0.0
  0
LINE
  5
28D
330
1C9
100
AcDbEntity
  8
DV3_0
 62
     7
100
AcDbLine
 10
75.6909837589
 20
241.0352697116
 30
0.0
 11
74.1909837589
 21
239.5352697116
 31
0.0
  0
LINE
  5
28E
330
1C9
100
AcDbEntity
  8
DV3_0
 62
     7
100
AcDbLine
 10
74.1909837589
 20
216.0942697116
 30
0.0
 11
75.6909837589
 21
214.5942697116
 31
0.0
  0
LINE
  5
28F
330
1C9
100
AcDbEntity
  8
DV3_0
 62
     7
100
AcDbLine
 10
80.7249396714
 20
241.0352697116
 30
0.0
 11
75.6909837589
 21
241.0352697116
 31
0.0
  0
LINE
  5
290
330
1C9
100
AcDbEntity
  8
DV3_0
 62
     7
100
AcDbLine
 10
75.6909837589
 20
214.5942697116
 30
0.0
 11
81.8204837589
 21
214.5942697116
 31
0.0
  0
LINE
  5
291
330
1C9
100
AcDbEntity
  8
DV3_0
 62
     7
100
AcDbLine
 10
99.3952830771
 20
209.6482697116
 30
0.0
 11
101.0462751859
 21
209.6482697116
 31
0.0
  0
LINE
  5
292
330
1C9
100
AcDbEntity
  8
DV3_0
 62
     7
100
AcDbLine
 10
101.0462751859
 20
221.5812697116
 30
0.0
 11
99.3952830771
 21
221.5812697116
 31
0.0
  0
LINE
  5
293
330
1C9
100
AcDbEntity
  8
DV3_0
 62
     7
100
AcDbLine
 10
95.416960955
 20
222.8647697116
 30
0.0
 11
93.087589549
 21
222.8647697116
 31
0.0
  0
LINE
  5
294
330
1C9
100
AcDbEntity
  8
DV3_0
 62
     7
100
AcDbLine
 10
93.087589549
 20
208.3647697116
 30
0.0
 11
95.416960955
 21
208.3647697116
 31
0.0
  0
LINE
  5
295
330
1C9
100
AcDbEntity
  8
DV3_0
 62
     7
100
AcDbLine
 10
89.9875514324
 20
247.2647697116
 30
0.0
 11
87.6581800265
 21
247.2647697116
 31
0.0
  0
LINE
  5
296
330
1C9
100
AcDbEntity
  8
DV3_0
 62
     7
100
AcDbLine
 10
87.6581800265
 20
232.7647697116
 30
0.0
 11
89.9875514324
 21
232.7647697116
 31
0.0
  0
ENDBLK
  5
298
330
1C9
100
AcDbEntity
  8
0
100
AcDbBlockEnd
  0
BLOCK
  5
321
330
299
100
AcDbEntity
  8
0
100
AcDbBlockBegin
  2
SE3
 70
     0
 10
0.0
 20
0.0
 30
0.0
  3
SE3
  1

  0
ELLIPSE
  5
29C
330
299
100
AcDbEntity
  8
DV4_0
 62
     7
100
AcDbEllipse
 10
328.9466646334
 20
227.8147697116
 30
0.0
 11
2.284534242012308E-13
 21
8.332517541451992
 31
0.0
210
0.0
220
0.0
230
1.0
 40
0.3420201433
 41
-0.9817829652220649
 42
-0.5233705923360441
  0
ELLIPSE
  5
29D
330
299
100
AcDbEntity
  8
DV4_0
 62
     7
100
AcDbEllipse
 10
323.2540760977
 20
227.8147697116
 30
0.0
 11
-8.381699817927363E-14
 21
8.649999999999665
 31
0.0
210
0.0
220
0.0
230
1.0
 40
0.3420201433
 41
-0.9842249708849415
 42
-0.9615441657359698
  0
LINE
  5
29E
330
299
100
AcDbEntity
  8
DV4_0
 62
     7
100
AcDbLine
 10
331.6992774888
 20
229.9732204433
 30
0.0
 11
326.1115679758
 21
230.0554609236
 31
0.0
  0
LINE
  5
29F
330
299
100
AcDbEntity
  8
DV4_0
 62
     7
100
AcDbLine
 10
326.1115679758
 20
230.0554609236
 30
0.0
 11
325.5545613776
 21
230.1980826017
 31
0.0
  0
LINE
  5
2A0
330
299
100
AcDbEntity
  8
DV4_0
 62
     7
100
AcDbLine
 10
331.6992774888
 20
229.9732204433
 30
0.0
 11
331.9969967964
 21
230.2066758877
 31
0.0
  0
ELLIPSE
  5
2A1
330
299
100
AcDbEntity
  8
DV4_0
 62
     7
100
AcDbEllipse
 10
328.9466646334
 20
227.8147697117
 30
0.0
 11
-1.818577609687880E-12
 21
9.233752652841323
 31
0.0
210
0.0
220
0.0
230
1.0
 40
0.3420201433
 41
-1.308768755733936
 42
-1.04696936793459
  0
LINE
  5
2A2
330
299
100
AcDbEntity
  8
DV4_0
 62
     7
100
AcDbLine
 10
331.6813245399
 20
232.4334706228
 30
0.0
 11
325.3501673811
 21
232.6130547076
 31
0.0
  0
LINE
  5
2A3
330
299
100
AcDbEntity
  8
DV4_0
 62
     7
100
AcDbLine
 10
331.9969967964
 20
230.2066758877
 30
0.0
 11
325.5487375225
 21
230.3015820274
 31
0.0
  0
LINE
  5
2A4
330
299
100
AcDbEntity
  8
DV4_0
 62
     7
100
AcDbLine
 10
330.3710458445
 20
235.0318920627
 30
0.0
 11
330.1799263084
 21
235.0412130762
 31
0.0
  0
LINE
  5
2A5
330
299
100
AcDbEntity
  8
DV4_0
 62
     7
100
AcDbLine
 10
330.3710458445
 20
235.0318920627
 30
0.0
 11
330.5251052093
 21
235.812487367
 31
0.0
  0
ELLIPSE
  5
2A6
330
299
100
AcDbEntity
  8
DV4_0
 62
     7
100
AcDbEllipse
 10
328.9466646334
 20
227.8147697117
 30
0.0
 11
-1.617349686474570E-12
 21
9.233752652838449
 31
0.0
210
0.0
220
0.0
230
1.0
 40
0.3420201433
 41
-0.5233705923364376
 42
-0.4723372520711795
  0
LINE
  5
2A7
330
299
100
AcDbEntity
  8
DV4_0
 62
     7
100
AcDbLine
 10
330.5251052093
 20
235.812487367
 30
0.0
 11
330.3453304069
 21
235.8212550911
 31
0.0
  0
ELLIPSE
  5
2A8
330
299
100
AcDbEntity
  8
DV4_0
 62
     7
100
AcDbEllipse
 10
328.9466646334
 20
227.8147697116
 30
0.0
 11
1.254301648980378E-13
 21
-8.332517541451711
 31
0.0
210
0.0
220
0.0
230
1.0
 40
0.3420201433
 41
0.7208305599282011
 42
0.9823112504851027
  0
ELLIPSE
  5
2A9
330
299
100
AcDbEntity
  8
DV4_0
 62
     7
100
AcDbEllipse
 10
323.2540760977
 20
227.8147697116
 30
0.0
 11
2.572893457769544E-13
 21
-8.650000000000661
 31
0.0
210
0.0
220
0.0
230
1.0
 40
0.3420201433
 41
0.9615441657358968
 42
0.9847504507901598
  0
ELLIPSE
  5
2AA
330
299
100
AcDbEntity
  8
DV4_0
 62
     7
100
AcDbEllipse
 10
328.9466646334
 20
227.8147697116
 30
0.0
 11
-2.028660708401397E-14
 21
-8.332517541451416
 31
0.0
210
0.0
220
0.0
230
1.0
 40
0.3420201433
 41
1.309225122257986
 42
1.832823897856266
  0
ELLIPSE
  5
2AB
330
299
100
AcDbEntity
  8
DV4_0
 62
     7
100
AcDbEllipse
 10
323.2540760977
 20
227.8147697116
 30
0.0
 11
-2.720530428324201E-14
 21
-8.649999999999906
 31
0.0
210
0.0
220
0.0
230
1.0
 40
0.3420201433
 41
1.309225122257973
 42
1.832823897856276
  0
LINE
  5
2AC
330
299
100
AcDbEntity
  8
DV4_0
 62
     7
100
AcDbLine
 10
331.6996141072
 20
225.6599920888
 30
0.0
 11
331.9973698231
 21
225.4269339235
 31
0.0
  0
ELLIPSE
  5
2AD
330
299
100
AcDbEntity
  8
DV4_0
 62
     7
100
AcDbEllipse
 10
328.9466646334
 20
227.8147697116
 30
0.0
 11
-2.115775233827519E-12
 21
-9.233752652840304
 31
0.0
210
0.0
220
0.0
230
1.0
 40
0.3420201433
 41
1.04742573445911
 42
1.309225122258482
  0
LINE
  5
2AE
330
299
100
AcDbEntity
  8
DV4_0
 62
     7
100
AcDbLine
 10
331.9973698231
 20
225.4269339235
 30
0.0
 11
325.5489805143
 21
225.3321871606
 31
0.0
  0
LINE
  5
2AF
330
299
100
AcDbEntity
  8
DV4_0
 62
     7
100
AcDbLine
 10
331.6820451722
 20
223.1997182104
 30
0.0
 11
325.3506039684
 21
223.0202671769
 31
0.0
  0
LINE
  5
2B0
330
299
100
AcDbEntity
  8
DV4_0
 62
     7
100
AcDbLine
 10
331.6996141072
 20
225.6599920888
 30
0.0
 11
326.11191742
 21
225.5778915599
 31
0.0
  0
LINE
  5
2B1
330
299
100
AcDbEntity
  8
DV4_0
 62
     7
100
AcDbLine
 10
326.11191742
 20
225.5778915599
 30
0.0
 11
325.5547823024
 21
225.4354740475
 31
0.0
  0
ELLIPSE
  5
2B2
330
299
100
AcDbEntity
  8
DV4_0
 62
     7
100
AcDbEllipse
 10
331.5027275136
 20
227.8147697116
 30
0.0
 11
-1.272303658698042E-16
 21
1.999999999999988
 31
0.0
210
0.0
220
0.0
230
1.0
 40
0.3420201433
 41
3.467771875943123
 42
5.957006084826256
  0
ELLIPSE
  5
2B3
330
299
100
AcDbEntity
  8
DV4_0
 62
     7
100
AcDbEllipse
 10
320.4894310463
 20
227.8147697116
 30
0.0
 11
-9.542277440235367E-16
 21
15.0
 31
0.0
210
0.0
220
0.0
230
1.0
 40
0.3420201433
 41
4.37608540523071
 42
5.048692555538671
  0
ELLIPSE
  5
2B4
330
299
100
AcDbEntity
  8
DV4_0
 62
     7
100
AcDbEllipse
 10
299.2523778166
 20
227.8147697116
 30
0.0
 11
-8.747087653549083E-16
 21
13.74999999999999
 31
0.0
210
0.0
220
0.0
230
1.0
 40
0.3420201433
 41
4.402575082774395
 42
4.824840671034637
  0
ELLIPSE
  5
2B5
330
299
100
AcDbEntity
  8
DV4_0
 62
     7
100
AcDbEllipse
 10
301.2868720199
 20
227.8147697116
 30
0.0
 11
4.105598781302639E-15
 21
-10.0
 31
0.0
210
0.0
220
0.0
230
1.0
 40
0.3420201433
 41
0.8977767015680272
 42
1.725710607268679
  0
ELLIPSE
  5
2B6
330
299
100
AcDbEntity
  8
DV4_0
 62
     7
100
AcDbEllipse
 10
315.7909679424
 20
227.8147697116
 30
0.0
 11
7.575045733256254E-15
 21
-10.00000000000001
 31
0.0
210
0.0
220
0.0
230
1.0
 40
0.3420201433
 41
0.8977767015680275
 42
2.243815952021765
  0
ELLIPSE
  5
2B7
330
299
100
AcDbEntity
  8
DV4_0
 62
     7
100
AcDbEllipse
 10
315.7909679424
 20
227.8147697116
 30
0.0
 11
-9.542277440235365E-16
 21
15.0
 31
0.0
210
0.0
220
0.0
230
1.0
 40
0.3420201433
 41
4.361065105564604
 42
5.048692555538671
  0
LINE
  5
2B8
330
299
100
AcDbEntity
  8
DV4_0
 62
     7
100
AcDbLine
 10
297.720218138
 20
219.0968514789
 30
0.0
 11
297.720218138
 21
215.6147697116
 31
0.0
  0
LINE
  5
2B9
330
299
100
AcDbEntity
  8
DV4_0
 62
     7
100
AcDbLine
 10
286.0216634023
 20
215.6147697116
 30
0.0
 11
297.720218138
 21
215.6147697116
 31
0.0
  0
LINE
  5
2BA
330
299
100
AcDbEntity
  8
DV4_0
 62
     7
100
AcDbLine
 10
303.7312571066
 20
224.8147697116
 30
0.0
 11
303.7312571066
 21
221.5812697116
 31
0.0
  0
ELLIPSE
  5
2BB
330
299
100
AcDbEntity
  8
DV4_0
 62
     7
100
AcDbEllipse
 10
284.9811466538
 20
215.6147697116
 30
0.0
 11
-1.439898384402525E-15
 21
8.999999999999993
 31
0.0
210
0.0
220
0.0
230
1.0
 40
0.2588190451
 41
1.671647974279319
 42
3.141592653589793
  0
ELLIPSE
  5
2BC
330
299
100
AcDbEntity
  8
DV4_0
 62
     7
100
AcDbEllipse
 10
271.7193840275
 20
227.8147697116
 30
0.0
 11
-6.361518293490241E-16
 21
9.999999999999993
 31
0.0
210
0.0
220
0.0
230
1.0
 40
0.3420201433
 41
2.130619061500233
 42
3.141592653589793
  0
ELLIPSE
  5
2BD
330
299
100
AcDbEntity
  8
DV4_0
 62
     7
100
AcDbEllipse
 10
271.7193840275
 20
227.8147697116
 30
0.0
 11
-2.370875305325833E-15
 21
10.00000000000002
 31
0.0
210
0.0
220
0.0
230
1.0
 40
0.3420201433
 41
0.1914401106637689
 42
1.010973592089559
  0
ELLIPSE
  5
2BE
330
299
100
AcDbEntity
  8
DV4_0
 62
     7
100
AcDbEllipse
 10
274.6181556379
 20
240.0147697116
 30
0.0
 11
3.180759146745130E-16
 21
-5.000000000000012
 31
0.0
210
0.0
220
0.0
230
1.0
 40
0.2588190451
 41
3.296916989089568
 42
4.71238898038469
  0
SPLINE
  5
2BF
330
299
100
AcDbEntity
  8
DV4_0
 62
     7
100
AcDbSpline
210
0.0
220
0.0
230
1.0
 70
     8
 71
     3
 72
    14
 73
    10
 74
     0
 42
0.000000000826802
 43
0.0000000001
 12
1.0
 22
0.0
 32
0.0
 13
1.0
 23
0.0
 33
0.0
 40
0.4847409916625322
 40
0.4847409916625322
 40
0.4847409916625322
 40
0.4847409916625322
 40
0.5000000000000001
 40
0.5000000000000001
 40
0.625
 40
0.625
 40
0.75
 40
0.75
 40
1.0
 40
1.0
 40
1.0
 40
1.0
 10
265.6329390522163
 20
245.0144964977351
 30
0.0
 10
265.6139416588334
 20
245.0146546258705
 30
0.0
 10
265.5967004806099
 20
245.012255077957
 30
0.0
 10
265.4551159489976
 20
244.9662292153069
 30
0.0
 10
265.4533039145654
 20
244.749917590867
 30
0.0
 10
265.6827896187824
 20
244.089263191958
 30
0.0
 10
265.9110577075666
 20
243.6473896739683
 30
0.0
 10
266.8218829199765
 20
242.2015599502155
 30
0.0
 10
267.7371412854102
 20
241.0690442198675
 30
0.0
 10
268.7596666563533
 20
240.0147697116482
 30
0.0
  0
LINE
  5
2C0
330
299
100
AcDbEntity
  8
DV4_0
 62
     7
100
AcDbLine
 10
293.5959160393
 20
240.2062765186
 30
0.0
 11
295.653392567
 21
240.1918187614
 31
0.0
  0
ELLIPSE
  5
2C1
330
299
100
AcDbEntity
  8
DV4_0
 62
     7
100
AcDbEllipse
 10
298.629458824
 20
240.0147697116
 30
0.0
 11
4.201021555704992E-15
 21
-11.5
 31
0.0
210
0.0
220
0.0
230
1.0
 40
0.2588190451
 41
2.756329700567429
 42
4.696992802592884
  0
ELLIPSE
  5
2C2
330
299
100
AcDbEntity
  8
DV4_0
 62
     7
100
AcDbEllipse
 10
338.0223427185
 20
240.0147697116
 30
0.0
 11
-44.43258800929712
 21
-2.826587214482589E-15
 31
0.0
210
0.0
220
0.0
230
1.0
 40
0.2588190451
 41
6.266531771585978
 42
6.283185307179586
  0
ELLIPSE
  5
2C3
330
299
100
AcDbEntity
  8
DV4_0
 62
     7
100
AcDbEllipse
 10
285.4928675865
 20
240.0147697116
 30
0.0
 11
-1.003148872225429E-15
 21
-11.5
 31
0.0
210
0.0
220
0.0
230
1.0
 40
0.2588190451
 41
3.141592653589793
 42
4.631988932582063
  0
ELLIPSE
  5
2C4
330
299
100
AcDbEntity
  8
DV4_0
 62
     7
100
AcDbEllipse
 10
259.0335336469
 20
227.8147697116
 30
0.0
 11
-4.964403750923822E-15
 21
23.50000000000001
 31
0.0
210
0.0
220
0.0
230
1.0
 40
0.3420201433
 41
-0.3725269658526655
 42
3.514119619442464
  0
ELLIPSE
  5
2C5
330
299
100
AcDbEntity
  8
DV4_0
 62
     7
100
AcDbEllipse
 10
247.7864362199
 20
227.8147697116
 30
0.0
 11
-1.494956798970208E-15
 21
23.50000000000001
 31
0.0
210
0.0
220
0.0
230
1.0
 40
0.3420201433
 41
-0.0000000000000002
 42
3.141592653589793
  0
ELLIPSE
  5
2C6
330
299
100
AcDbEntity
  8
DV4_0
 62
     7
100
AcDbEllipse
 10
244.9381443351
 20
227.8147697116
 30
0.0
 11
-1.606283369106287E-15
 21
25.25
 31
0.0
210
0.0
220
0.0
230
1.0
 40
0.3420201433
 41
6.071468878017352
 42
6.283185307179586
  0
ELLIPSE
  5
2C7
330
299
100
AcDbEntity
  8
DV4_0
 62
     7
100
AcDbEllipse
 10
244.9381443351
 20
227.8147697116
 30
0.0
 11
-1.606283369106287E-15
 21
25.25
 31
0.0
210
0.0
220
0.0
230
1.0
 40
0.3420201433
 41
0.0
 42
3.353309082752028
  0
ELLIPSE
  5
2C8
330
299
100
AcDbEntity
  8
DV4_0
 62
     7
100
AcDbEllipse
 10
242.7624540434
 20
227.8147697116
 30
0.0
 11
1.606283369106286E-15
 21
-25.24999999999999
 31
0.0
210
0.0
220
0.0
230
1.0
 40
0.3420201433
 41
3.141592653589793
 42
6.283185307179586
  0
ELLIPSE
  5
2C9
330
299
100
AcDbEntity
  8
DV4_0
 62
     7
100
AcDbEllipse
 10
236.2929722239
 20
227.8147697116
 30
0.0
 11
-1.704886902655405E-15
 21
26.80000000000031
 31
0.0
210
0.0
220
0.0
230
1.0
 40
0.3420201433
 41
0.0
 42
3.141592653589793
  0
ELLIPSE
  5
2CA
330
299
100
AcDbEntity
  8
DV4_0
 62
     7
100
AcDbEllipse
 10
240.2396812312
 20
227.8147697116
 30
0.0
 11
-1.704886902655405E-15
 21
26.80000000000031
 31
0.0
210
0.0
220
0.0
230
1.0
 40
0.3420201433
 41
6.071468878017343
 42
6.283185307179586
  0
ELLIPSE
  5
2CB
330
299
100
AcDbEntity
  8
DV4_0
 62
     7
100
AcDbEllipse
 10
240.2396812312
 20
227.8147697116
 30
0.0
 11
-1.704886902655405E-15
 21
26.80000000000031
 31
0.0
210
0.0
220
0.0
230
1.0
 40
0.3420201433
 41
0.0
 42
3.353309082752031
  0
ELLIPSE
  5
2CC
330
299
100
AcDbEntity
  8
DV4_0
 62
     7
100
AcDbEllipse
 10
274.8389254778
 20
215.6147697116
 30
0.0
 11
2.443047256627958E-15
 21
2.499999999999947
 31
0.0
210
0.0
220
0.0
230
1.0
 40
0.2588190451
 41
1.658062789394623
 42
2.870328899863843
  0
ELLIPSE
  5
2CD
330
299
100
AcDbEntity
  8
DV4_0
 62
     7
100
AcDbEllipse
 10
283.3081140463
 20
215.6147697116
 30
0.0
 11
-7.524059448501736E-17
 21
7.999999999999993
 31
0.0
210
0.0
220
0.0
230
1.0
 40
0.2588190451
 41
1.698200806863774
 42
2.98626831809004
  0
SPLINE
  5
2CE
330
299
100
AcDbEntity
  8
DV4_0
 62
     7
100
AcDbSpline
210
0.0
220
0.0
230
1.0
 70
     8
 71
     3
 72
    10
 73
     6
 74
     0
 42
0.0000000025627421
 43
0.0000000001
 12
1.0
 22
0.0
 32
0.0
 13
1.0
 23
0.0
 33
0.0
 40
0.749197296224012
 40
0.749197296224012
 40
0.749197296224012
 40
0.749197296224012
 40
0.75
 40
0.75
 40
1.0
 40
1.0
 40
1.0
 40
1.0
 10
274.3449729180907
 20
216.3543606630193
 30
0.0
 10
274.3446516464718
 20
216.3533729781546
 30
0.0
 10
274.3443307737134
 20
216.3523851315382
 30
0.0
 10
274.2441997727424
 20
216.04368445111
 30
0.0
 10
274.1868632961665
 20
215.7270724025594
 30
0.0
 10
274.1943400765209
 20
215.396880354779
 30
0.0
  0
ELLIPSE
  5
2CF
330
299
100
AcDbEntity
  8
DV4_0
 62
     7
100
AcDbEllipse
 10
280.1515175224
 20
215.6147697116
 30
0.0
 11
1.659482881491789E-15
 21
8.000000000000007
 31
0.0
210
0.0
220
0.0
230
1.0
 40
0.2588190451
 41
1.659918528126392
 42
3.141592653589793
  0
ELLIPSE
  5
2D0
330
299
100
AcDbEntity
  8
DV4_0
 62
     7
100
AcDbEllipse
 10
300.0495895439
 20
215.6147697116
 30
0.0
 11
-5.725366464141223E-16
 21
9.000000000000005
 31
0.0
210
0.0
220
0.0
230
1.0
 40
0.2588190451
 41
1.570796326794897
 42
3.987644126388129
  0
LINE
  5
2D1
330
299
100
AcDbEntity
  8
DV4_0
 62
     7
100
AcDbLine
 10
299.0725142948
 20
224.8147697116
 30
0.0
 11
299.0725142948
 21
219.0968514789
 31
0.0
  0
ELLIPSE
  5
2D2
330
299
100
AcDbEntity
  8
DV4_0
 62
     7
100
AcDbEllipse
 10
301.3601746287
 20
215.6147697116
 30
0.0
 11
7.543238141788803E-15
 21
-9.500000000000027
 31
0.0
210
0.0
220
0.0
230
1.0
 40
0.2588190451
 41
2.24984450878025
 42
4.337106974793317
  0
LINE
  5
2D3
330
299
100
AcDbEntity
  8
DV4_0
 62
     7
100
AcDbLine
 10
303.7312571066
 20
224.8147697116
 30
0.0
 11
303.7657245948
 21
224.8147697116
 31
0.0
  0
ELLIPSE
  5
2D4
330
299
100
AcDbEntity
  8
DV4_0
 62
     7
100
AcDbEllipse
 10
319.9340318556
 20
227.8147697116
 30
0.0
 11
3.450962193525330E-12
 21
-36.65670954406347
 31
0.0
210
0.0
220
0.0
230
1.0
 40
0.4425581961
 41
4.670284545229881
 42
4.794321022229198
  0
ELLIPSE
  5
2D5
330
299
100
AcDbEntity
  8
DV4_0
 62
     7
100
AcDbEllipse
 10
299.9510956685
 20
240.0147697116
 30
0.0
 11
9.660862456375742E-15
 21
11.74999999999995
 31
0.0
210
0.0
220
0.0
230
1.0
 40
0.2588190451
 41
2.048605149089699
 42
3.576325402091264
  0
LINE
  5
2D6
330
299
100
AcDbEntity
  8
DV4_0
 62
     7
100
AcDbLine
 10
297.2505636628
 20
234.6117142775
 30
0.0
 11
297.2505636628
 21
224.8147697116
 31
0.0
  0
LINE
  5
2D7
330
299
100
AcDbEntity
  8
DV4_0
 62
     7
100
AcDbLine
 10
297.2505636628
 20
224.8147697116
 30
0.0
 11
299.0725142948
 21
224.8147697116
 31
0.0
  0
LINE
  5
2D8
330
299
100
AcDbEntity
  8
DV4_0
 62
     7
100
AcDbLine
 10
270.2476811138
 20
215.3968803548
 30
0.0
 11
274.1943400765
 21
215.3968803548
 31
0.0
  0
LINE
  5
2D9
330
299
100
AcDbEntity
  8
DV4_0
 62
     7
100
AcDbLine
 10
275.8350800202
 20
240.0147697116
 30
0.0
 11
273.3240604124
 21
240.0147697116
 31
0.0
  0
LINE
  5
2DA
330
299
100
AcDbEntity
  8
DV4_0
 62
     7
100
AcDbLine
 10
293.5897547092
 20
231.6188465811
 30
0.0
 11
293.5897547092
 21
240.0147697116
 31
0.0
  0
LINE
  5
2DB
330
299
100
AcDbEntity
  8
DV4_0
 62
     7
100
AcDbLine
 10
293.5897547092
 20
240.0147697116
 30
0.0
 11
286.0216634023
 21
240.0147697116
 31
0.0
  0
LINE
  5
2DC
330
299
100
AcDbEntity
  8
DV4_0
 62
     7
100
AcDbLine
 10
273.3240604124
 20
240.0147697116
 30
0.0
 11
268.7596666564
 21
240.0147697116
 31
0.0
  0
LINE
  5
2DD
330
299
100
AcDbEntity
  8
DV4_0
 62
     7
100
AcDbLine
 10
268.7596666564
 20
240.0147697116
 30
0.0
 11
271.0686124048
 21
237.6320821037
 31
0.0
  0
ELLIPSE
  5
2DE
330
299
100
AcDbEntity
  8
DV4_0
 62
     7
100
AcDbEllipse
 10
292.1560936247
 20
227.8147693126
 30
0.0
 11
-110.8275617947684
 21
7.239034087987945E-8
 31
0.0
210
0.0
220
0.0
230
1.0
 40
0.0902302662
 41
-1.388765496202899
 42
-1.379356212708965
  0
LINE
  5
2DF
330
299
100
AcDbEntity
  8
DV4_0
 62
     7
100
AcDbLine
 10
273.3240604124
 20
238.6293926787
 30
0.0
 11
273.3240604124
 21
240.0147697116
 31
0.0
  0
LINE
  5
2E0
330
299
100
AcDbEntity
  8
DV4_0
 62
     7
100
AcDbLine
 10
297.2505636628
 20
224.8147697116
 30
0.0
 11
293.803992871
 21
224.8147697116
 31
0.0
  0
LINE
  5
2E1
330
299
100
AcDbEntity
  8
DV4_0
 62
     7
100
AcDbLine
 10
267.9463988161
 20
230.3147697116
 30
0.0
 11
262.9642247167
 21
230.3147697116
 31
0.0
  0
ARC
  5
2E2
330
299
100
AcDbEntity
  8
DV4_0
 62
     7
100
AcDbCircle
 10
248.035622641
 20
227.8147697116
 30
0.0
 40
15.13648439810149
100
AcDbArc
 50
350.4932471711
 51
9.5067528289
  0
LINE
  5
2E3
330
299
100
AcDbEntity
  8
DV4_0
 62
     7
100
AcDbLine
 10
267.9463988161
 20
225.3147697116
 30
0.0
 11
262.9642247167
 21
225.3147697116
 31
0.0
  0
CIRCLE
  5
2E4
330
299
100
AcDbEntity
  8
DV4_0
 62
     7
100
AcDbCircle
 10
280.9283717112
 20
227.8147697116
 30
0.0
 40
11.7205
  0
CIRCLE
  5
2E5
330
299
100
AcDbEntity
  8
DV4_0
 62
     7
100
AcDbCircle
 10
280.9283717112
 20
227.8147697116
 30
0.0
 40
13.2205
  0
ARC
  5
2E6
330
299
100
AcDbEntity
  8
DV4_0
 62
     7
100
AcDbCircle
 10
280.9283717112
 20
227.8147697116
 30
0.0
 40
17.7205
100
AcDbArc
 50
32.9337865536
 51
44.3688849108
  0
LINE
  5
2E7
330
299
100
AcDbEntity
  8
DV4_0
 62
     7
100
AcDbLine
 10
295.8011770103
 20
237.4488645206
 30
0.0
 11
295.653392567
 21
240.1918187614
 31
0.0
  0
ELLIPSE
  5
2E8
330
299
100
AcDbEntity
  8
DV4_0
 62
     7
100
AcDbEllipse
 10
337.5646542737
 20
240.0147697116
 30
0.0
 11
-45.39851383558617
 21
-2.888034762623514E-15
 31
0.0
210
0.0
220
0.0
230
1.0
 40
0.2588190451
 41
0.4028931526272324
 42
0.4778088222948074
  0
LINE
  5
2E9
330
299
100
AcDbEntity
  8
DV4_0
 62
     7
100
AcDbLine
 10
295.8011770103
 20
235.4078123352
 30
0.0
 11
295.8011770103
 21
237.4488645206
 31
0.0
  0
ELLIPSE
  5
2EA
330
299
100
AcDbEntity
  8
DV4_0
 62
     7
100
AcDbEllipse
 10
298.5987995117
 20
240.0147697116
 30
0.0
 11
-4.216925351438719E-15
 21
11.75000000000001
 31
0.0
210
0.0
220
0.0
230
1.0
 40
0.2588190451
 41
3.365801357632825
 42
3.576325402091263
  0
ELLIPSE
  5
2EB
330
299
100
AcDbEntity
  8
DV4_0
 62
     7
100
AcDbEllipse
 10
298.5987995117
 20
240.0147697116
 30
0.0
 11
-5.884404421478479E-16
 21
9.250000000000005
 31
0.0
210
0.0
220
0.0
230
1.0
 40
0.2588190451
 41
2.87783013031518
 42
3.116014938643808
  0
ELLIPSE
  5
2EC
330
299
100
AcDbEntity
  8
DV4_0
 62
     7
100
AcDbEllipse
 10
298.5987995117
 20
240.0147697116
 30
0.0
 11
-5.884404421478479E-16
 21
9.250000000000005
 31
0.0
210
0.0
220
0.0
230
1.0
 40
0.2588190451
 41
0.25708621180742
 42
2.149859756772473
  0
LINE
  5
2ED
330
299
100
AcDbEntity
  8
DV4_0
 62
     7
100
AcDbLine
 10
299.0725142948
 20
219.0968514789
 30
0.0
 11
297.720218138
 21
219.0968514789
 31
0.0
  0
ELLIPSE
  5
2EE
330
299
100
AcDbEntity
  8
DV4_0
 62
     7
100
AcDbEllipse
 10
300.0078784719
 20
215.6147697116
 30
0.0
 11
-9.803996617979268E-15
 21
-9.500000000000009
 31
0.0
210
0.0
220
0.0
230
1.0
 40
0.2588190451
 41
2.249844508780249
 42
2.863010005786594
  0
ELLIPSE
  5
2EF
330
299
100
AcDbEntity
  8
DV4_0
 62
     7
100
AcDbEllipse
 10
300.0495895439
 20
215.6147697116
 30
0.0
 11
-3.795599889810952E-16
 21
5.966499999999995
 31
0.0
210
0.0
220
0.0
230
1.0
 40
0.2588190451
 41
0.0
 42
0.5007597462417248
  0
ELLIPSE
  5
2F0
330
299
100
AcDbEntity
  8
DV4_0
 62
     7
100
AcDbEllipse
 10
300.0495895439
 20
215.6147697116
 30
0.0
 11
-3.795599889810952E-16
 21
5.966499999999995
 31
0.0
210
0.0
220
0.0
230
1.0
 40
0.2588190451
 41
0.9476347090828993
 42
3.141592653589793
  0
ELLIPSE
  5
2F1
330
299
100
AcDbEntity
  8
DV4_0
 62
     7
100
AcDbEllipse
 10
321.0584762657
 20
215.6147697116
 30
0.0
 11
-4.612100762780429E-16
 21
7.250000000000002
 31
0.0
210
0.0
220
0.0
230
1.0
 40
0.2588190451
 41
0.0
 42
3.141592653589793
  0
ELLIPSE
  5
2F2
330
299
100
AcDbEntity
  8
DV4_0
 62
     7
100
AcDbEllipse
 10
329.7518087023
 20
215.6147697116
 30
0.0
 11
-4.612100762780430E-16
 21
7.250000000000003
 31
0.0
210
0.0
220
0.0
230
1.0
 40
0.2588190451
 41
0.0
 42
6.283185307179586
  0
LINE
  5
2F3
330
299
100
AcDbEntity
  8
DV4_0
 62
     7
100
AcDbLine
 10
303.7579514285
 20
232.655722427
 30
0.0
 11
306.4500826422
 21
229.3577237801
 31
0.0
  0
LINE
  5
2F4
330
299
100
AcDbEntity
  8
DV4_0
 62
     7
100
AcDbLine
 10
306.4500826422
 20
229.3577237801
 30
0.0
 11
307.7792162241
 21
234.0482697116
 31
0.0
  0
LINE
  5
2F5
330
299
100
AcDbEntity
  8
DV4_0
 62
     7
100
AcDbLine
 10
308.0078301908
 20
245.9812697116
 30
0.0
 11
307.9285349892
 21
247.3738169963
 31
0.0
  0
LINE
  5
2F6
330
299
100
AcDbEntity
  8
DV4_0
 62
     7
100
AcDbLine
 10
307.9285349892
 20
247.3738169963
 30
0.0
 11
305.2364037756
 21
250.6718156432
 31
0.0
  0
LINE
  5
2F7
330
299
100
AcDbEntity
  8
DV4_0
 62
     7
100
AcDbLine
 10
305.2364037756
 20
250.6718156432
 30
0.0
 11
303.1511119952
 21
243.3127683586
 31
0.0
  0
LINE
  5
2F8
330
299
100
AcDbEntity
  8
DV4_0
 62
     7
100
AcDbLine
 10
303.1511119952
 20
243.3127683586
 30
0.0
 11
303.7579514285
 21
232.655722427
 31
0.0
  0
LINE
  5
2F9
330
299
100
AcDbEntity
  8
DV4_0
 62
     7
100
AcDbLine
 10
299.6886018582
 20
229.3577237801
 30
0.0
 11
297.8143755514
 21
231.6537470172
 31
0.0
  0
LINE
  5
2FA
330
299
100
AcDbEntity
  8
DV4_0
 62
     7
100
AcDbLine
 10
296.8741327626
 20
234.8041662416
 30
0.0
 11
296.3896312112
 21
243.3127683586
 31
0.0
  0
LINE
  5
2FB
330
299
100
AcDbEntity
  8
DV4_0
 62
     7
100
AcDbLine
 10
296.3896312112
 20
243.3127683586
 30
0.0
 11
298.4749229916
 21
250.6718156432
 31
0.0
  0
LINE
  5
2FC
330
299
100
AcDbEntity
  8
DV4_0
 62
     7
100
AcDbLine
 10
299.6886018582
 20
229.3577237801
 30
0.0
 11
306.4500826422
 21
229.3577237801
 31
0.0
  0
LINE
  5
2FD
330
299
100
AcDbEntity
  8
DV4_0
 62
     7
100
AcDbLine
 10
297.5802945237
 20
232.655722427
 30
0.0
 11
303.7579514285
 21
232.655722427
 31
0.0
  0
LINE
  5
2FE
330
299
100
AcDbEntity
  8
DV4_0
 62
     7
100
AcDbLine
 10
296.3896312112
 20
243.3127683586
 30
0.0
 11
303.1511119952
 21
243.3127683586
 31
0.0
  0
LINE
  5
2FF
330
299
100
AcDbEntity
  8
DV4_0
 62
     7
100
AcDbLine
 10
298.4749229916
 20
250.6718156432
 30
0.0
 11
305.2364037756
 21
250.6718156432
 31
0.0
  0
ELLIPSE
  5
300
330
299
100
AcDbEntity
  8
DV4_0
 62
     7
100
AcDbEllipse
 10
305.8739025212
 20
240.0147697116
 30
0.0
 11
3.795599889810953E-16
 21
-5.966499999999997
 31
0.0
210
0.0
220
0.0
230
1.0
 40
0.2588190451
 41
3.141592653589793
 42
6.283185307179586
  0
ELLIPSE
  5
301
330
299
100
AcDbEntity
  8
DV4_0
 62
     7
100
AcDbEllipse
 10
320.121308459
 20
240.0147697116
 30
0.0
 11
4.612100762780427E-16
 21
-7.249999999999997
 31
0.0
210
0.0
220
0.0
230
1.0
 40
0.2588190451
 41
3.141592653589793
 42
6.283185307179586
  0
ELLIPSE
  5
302
330
299
100
AcDbEntity
  8
DV4_0
 62
     7
100
AcDbEllipse
 10
328.8146408956
 20
240.0147697116
 30
0.0
 11
4.612100762780432E-16
 21
-7.250000000000006
 31
0.0
210
0.0
220
0.0
230
1.0
 40
0.2588190451
 41
0.0
 42
6.283185307179586
  0
ELLIPSE
  5
303
330
299
100
AcDbEntity
  8
DV4_0
 62
     7
100
AcDbEllipse
 10
230.6078318682
 20
227.8147697116
 30
0.0
 11
-1.176419517479222E-15
 21
18.49274753611972
 31
0.0
210
0.0
220
0.0
230
1.0
 40
0.3420201433
 41
0.1633185120018864
 42
2.978274141587907
  0
LINE
  5
304
330
299
100
AcDbEntity
  8
DV4_0
 62
     7
100
AcDbLine
 10
282.9877984814
 20
207.7110784488
 30
0.0
 11
284.6207916432
 21
206.7231170409
 31
0.0
  0
LINE
  5
305
330
299
100
AcDbEntity
  8
DV4_0
 62
     7
100
AcDbLine
 10
261.9589347116
 20
205.9266210812
 30
0.0
 11
272.3281773044
 21
217.7739392472
 31
0.0
  0
LINE
  5
306
330
299
100
AcDbEntity
  8
DV4_0
 62
     7
100
AcDbLine
 10
266.0621882732
 20
245.0147697116
 30
0.0
 11
261.9589347116
 21
249.7029183421
 31
0.0
  0
LINE
  5
307
330
299
100
AcDbEntity
  8
DV4_0
 62
     7
100
AcDbLine
 10
271.7193840275
 20
217.8147697116
 30
0.0
 11
272.2807350254
 21
217.8147697116
 31
0.0
  0
LINE
  5
308
330
299
100
AcDbEntity
  8
DV4_0
 62
     7
100
AcDbLine
 10
274.5174508519
 20
245.0147697116
 30
0.0
 11
265.633356668
 21
245.0147697116
 31
0.0
  0
LINE
  5
309
330
299
100
AcDbEntity
  8
DV4_0
 62
     7
100
AcDbLine
 10
298.629458824
 20
251.5147697116
 30
0.0
 11
285.4928675865
 21
251.5147697116
 31
0.0
  0
LINE
  5
30A
330
299
100
AcDbEntity
  8
DV4_0
 62
     7
100
AcDbLine
 10
285.0324139619
 20
251.3763259021
 30
0.0
 11
274.4179584098
 21
244.954576751
 31
0.0
  0
LINE
  5
30B
330
299
100
AcDbEntity
  8
DV4_0
 62
     7
100
AcDbLine
 10
247.7864362199
 20
204.3147697116
 30
0.0
 11
259.0335336469
 21
204.3147697116
 31
0.0
  0
LINE
  5
30C
330
299
100
AcDbEntity
  8
DV4_0
 62
     7
100
AcDbLine
 10
259.0335336469
 20
251.3147697116
 30
0.0
 11
247.7864362199
 21
251.3147697116
 31
0.0
  0
LINE
  5
30D
330
299
100
AcDbEntity
  8
DV4_0
 62
     7
100
AcDbLine
 10
246.7529006151
 20
203.1285601061
 30
0.0
 11
248.6404612433
 21
204.3147697116
 31
0.0
  0
LINE
  5
30E
330
299
100
AcDbEntity
  8
DV4_0
 62
     7
100
AcDbLine
 10
248.6404612433
 20
251.3147697116
 30
0.0
 11
246.7529006151
 21
252.5009793172
 31
0.0
  0
LINE
  5
30F
330
299
100
AcDbEntity
  8
DV4_0
 62
     7
100
AcDbLine
 10
242.7624540434
 20
202.5647697116
 30
0.0
 11
244.9381443351
 21
202.5647697116
 31
0.0
  0
LINE
  5
310
330
299
100
AcDbEntity
  8
DV4_0
 62
     7
100
AcDbLine
 10
244.9381443351
 20
253.0647697116
 30
0.0
 11
242.7624540434
 21
253.0647697116
 31
0.0
  0
LINE
  5
311
330
299
100
AcDbEntity
  8
DV4_0
 62
     7
100
AcDbLine
 10
242.1658383917
 20
201.6131690214
 30
0.0
 11
243.6800766749
 21
202.5647697116
 31
0.0
  0
LINE
  5
312
330
299
100
AcDbEntity
  8
DV4_0
 62
     7
100
AcDbLine
 10
243.6800766749
 20
253.0647697116
 30
0.0
 11
242.1658383917
 21
254.0163704019
 31
0.0
  0
LINE
  5
313
330
299
100
AcDbEntity
  8
DV4_0
 62
     7
100
AcDbLine
 10
236.2929722239
 20
201.0147697116
 30
0.0
 11
240.2396812312
 21
201.0147697116
 31
0.0
  0
LINE
  5
314
330
299
100
AcDbEntity
  8
DV4_0
 62
     7
100
AcDbLine
 10
240.2396812312
 20
254.6147697116
 30
0.0
 11
236.2929722239
 21
254.6147697116
 31
0.0
  0
LINE
  5
315
330
299
100
AcDbEntity
  8
DV4_0
 62
     7
100
AcDbLine
 10
268.2502873956
 20
213.1147697116
 30
0.0
 11
274.7506230598
 21
213.1147697116
 31
0.0
  0
LINE
  5
316
330
299
100
AcDbEntity
  8
DV4_0
 62
     7
100
AcDbLine
 10
280.1515175224
 20
207.6147697116
 30
0.0
 11
283.1469863888
 21
207.6147697116
 31
0.0
  0
LINE
  5
317
330
299
100
AcDbEntity
  8
DV4_0
 62
     7
100
AcDbLine
 10
274.6655495925
 20
213.2061871016
 30
0.0
 11
279.5967146894
 21
207.9073053596
 31
0.0
  0
LINE
  5
318
330
299
100
AcDbEntity
  8
DV4_0
 62
     7
100
AcDbLine
 10
284.9811466538
 20
206.6147697116
 30
0.0
 11
300.0495895439
 21
206.6147697116
 31
0.0
  0
LINE
  5
319
330
299
100
AcDbEntity
  8
DV4_0
 62
     7
100
AcDbLine
 10
319.9924880658
 20
221.5812697116
 30
0.0
 11
300.0495895439
 21
221.5812697116
 31
0.0
  0
LINE
  5
31A
330
299
100
AcDbEntity
  8
DV4_0
 62
     7
100
AcDbLine
 10
300.0495895439
 20
209.6482697116
 30
0.0
 11
319.9924880658
 21
209.6482697116
 31
0.0
  0
LINE
  5
31B
330
299
100
AcDbEntity
  8
DV4_0
 62
     7
100
AcDbLine
 10
321.0584762657
 20
208.3647697116
 30
0.0
 11
329.7518087023
 21
208.3647697116
 31
0.0
  0
LINE
  5
31C
330
299
100
AcDbEntity
  8
DV4_0
 62
     7
100
AcDbLine
 10
329.7518087023
 20
222.8647697116
 30
0.0
 11
321.0584762657
 21
222.8647697116
 31
0.0
  0
LINE
  5
31D
330
299
100
AcDbEntity
  8
DV4_0
 62
     7
100
AcDbLine
 10
319.0553202591
 20
245.9812697116
 30
0.0
 11
305.8739025212
 21
245.9812697116
 31
0.0
  0
LINE
  5
31E
330
299
100
AcDbEntity
  8
DV4_0
 62
     7
100
AcDbLine
 10
305.8739025212
 20
234.0482697116
 30
0.0
 11
319.0553202591
 21
234.0482697116
 31
0.0
  0
LINE
  5
31F
330
299
100
AcDbEntity
  8
DV4_0
 62
     7
100
AcDbLine
 10
320.121308459
 20
232.7647697116
 30
0.0
 11
328.8146408956
 21
232.7647697116
 31
0.0
  0
LINE
  5
320
330
299
100
AcDbEntity
  8
DV4_0
 62
     7
100
AcDbLine
 10
328.8146408956
 20
247.2647697116
 30
0.0
 11
320.121308459
 21
247.2647697116
 31
0.0
  0
ENDBLK
  5
322
330
299
100
AcDbEntity
  8
0
100
AcDbBlockEnd
  0
ENDSEC
  0
SECTION
  2
ENTITIES
  0
INSERT
  5
41
330
1F
100
AcDbEntity
  8
Default
100
AcDbBlockReference
  2
SE
 10
0.0
 20
0.0
 30
0.0
  0
INSERT
  5
FF
330
1F
100
AcDbEntity
  8
Default
100
AcDbBlockReference
  2
SE1
 10
0.0
 20
0.0
 30
0.0
  0
INSERT
  5
1CA
330
1F
100
AcDbEntity
  8
Default
100
AcDbBlockReference
  2
SE2
 10
0.0
 20
0.0
 30
0.0
  0
INSERT
  5
29A
330
1F
100
AcDbEntity
  8
Default
100
AcDbBlockReference
  2
SE3
 10
0.0
 20
0.0
 30
0.0
  0
ENDSEC
  0
SECTION
  2
OBJECTS
  0
DICTIONARY
  5
C
330
0
100
AcDbDictionary
281
     1
  3
ACAD_GROUP
350
D
  3
ACAD_LAYOUT
350
1A
  3
ACAD_MATERIAL
350
3B
  3
ACAD_MLEADERSTYLE
350
325
  3
ACAD_MLINESTYLE
350
17
  3
ACAD_PLOTSETTINGS
350
19
  3
ACAD_PLOTSTYLENAME
350
E
  3
ACAD_VISUALSTYLE
350
2A
  3
AcDbVariableDictionary
350
323
  0
DICTIONARY
  5
D
102
{ACAD_REACTORS
330
C
102
}
330
C
100
AcDbDictionary
281
     1
  0
DICTIONARY
  5
1A
102
{ACAD_REACTORS
330
C
102
}
330
C
100
AcDbDictionary
281
     1
  3
Layout1
350
1E
  3
Model
350
22
  0
DICTIONARY
  5
3B
102
{ACAD_REACTORS
330
C
102
}
330
C
100
AcDbDictionary
281
     1
  3
ByBlock
350
3D
  3
ByLayer
350
3C
  3
Global
350
3E
  0
DICTIONARY
  5
325
102
{ACAD_REACTORS
330
C
102
}
330
C
100
AcDbDictionary
281
     1
  0
DICTIONARY
  5
17
102
{ACAD_REACTORS
330
C
102
}
330
C
100
AcDbDictionary
281
     1
  3
Standard
350
18
  0
DICTIONARY
  5
19
102
{ACAD_REACTORS
330
C
102
}
330
C
100
AcDbDictionary
281
     1
  0
ACDBDICTIONARYWDFLT
  5
E
102
{ACAD_REACTORS
330
C
102
}
330
C
100
AcDbDictionary
281
     1
  3
Normal
350
F
100
AcDbDictionaryWithDefault
340
F
  0
DICTIONARY
  5
2A
102
{ACAD_REACTORS
330
C
102
}
330
C
100
AcDbDictionary
281
     1
  3
2dWireframe
350
2F
  3
3D Hidden
350
31
  3
3dWireframe
350
30
  3
Basic
350
32
  3
Brighten
350
36
  3
ColorChange
350
3A
  3
Conceptual
350
34
  3
Dim
350
35
  3
Facepattern
350
39
  3
Flat
350
2B
  3
FlatWithEdges
350
2C
  3
Gouraud
350
2D
  3
GouraudWithEdges
350
2E
  3
Linepattern
350
38
  3
Realistic
350
33
  3
Thicken
350
37
  0
DICTIONARY
  5
323
102
{ACAD_REACTORS
330
C
102
}
330
C
100
AcDbDictionary
281
     1
  3
DIMASSOC
350
328
  3
HIDETEXT
350
329
  3
PSOLHEIGHT
350
327
  3
PSOLWIDTH
350
326
  0
LAYOUT
  5
1E
102
{ACAD_REACTORS
330
1A
102
}
330
1A
100
AcDbPlotSettings
  1

  2
none_device
  4

  6

 40
0.0
 41
0.0
 42
0.0
 43
0.0
 44
0.0
 45
0.0
 46
0.0
 47
0.0
 48
0.0
 49
0.0
140
0.0
141
0.0
142
1.0
143
1.0
 70
   688
 72
     0
 73
     0
 74
     5
  7

 75
    16
147
1.0
148
0.0
149
0.0
100
AcDbLayout
  1
Layout1
 70
     1
 71
     1
 10
0.0
 20
0.0
 11
420.0
 21
297.0
 12
0.0
 22
0.0
 32
0.0
 14
0.0
 24
0.0
 34
0.0
 15
420.0
 25
297.0
 35
0.0
146
0.0
 13
0.0
 23
0.0
 33
0.0
 16
1.0
 26
0.0
 36
0.0
 17
0.0
 27
1.0
 37
0.0
 76
     0
330
1B
  0
LAYOUT
  5
22
102
{ACAD_REACTORS
330
1A
102
}
330
1A
100
AcDbPlotSettings
  1

  2
none_device
  4

  6

 40
0.0
 41
0.0
 42
0.0
 43
0.0
 44
0.0
 45
0.0
 46
0.0
 47
0.0
 48
0.0
 49
0.0
140
0.0
141
0.0
142
1.0
143
1.0
 70
  1712
 72
     0
 73
     0
 74
     0
  7

 75
     0
147
1.0
148
0.0
149
0.0
100
AcDbLayout
  1
Model
 70
     1
 71
     0
 10
0.0
 20
0.0
 11
420.0
 21
297.0
 12
0.0
 22
0.0
 32
0.0
 14
0.0
 24
0.0
 34
0.0
 15
420.0
 25
297.0
 35
0.0
146
0.0
 13
0.0
 23
0.0
 33
0.0
 16
1.0
 26
0.0
 36
0.0
 17
0.0
 27
1.0
 37
0.0
 76
     0
330
1F
331
29
  0
MATERIAL
  5
3D
102
{ACAD_REACTORS
330
3B
102
}
102
{ACAD_XDICTIONARY
360
34C
102
}
330
3B
100
AcDbMaterial
  1
ByBlock
  0
MATERIAL
  5
3C
102
{ACAD_REACTORS
330
3B
102
}
102
{ACAD_XDICTIONARY
360
34A
102
}
330
3B
100
AcDbMaterial
  1
ByLayer
  0
MATERIAL
  5
3E
102
{ACAD_REACTORS
330
3B
102
}
102
{ACAD_XDICTIONARY
360
34E
102
}
330
3B
100
AcDbMaterial
  1
Global
  0
MLINESTYLE
  5
18
102
{ACAD_REACTORS
330
17
102
}
330
17
100
AcDbMlineStyle
  2
Standard
 70
     0
  3

 62
   256
 51
90.0
 52
90.0
 71
     2
 49
0.5
 62
   256
  6
BYLAYER
 49
-0.5
 62
   256
  6
BYLAYER
  0
ACDBPLACEHOLDER
  5
F
102
{ACAD_REACTORS
330
E
102
}
330
E
  0
VISUALSTYLE
  5
2F
102
{ACAD_REACTORS
330
2A
102
}
102
{ACAD_XDICTIONARY
360
332
102
}
330
2A
100
AcDbVisualStyle
  2
2dWireframe
 70
     4
 71
     0
 72
     2
 73
     0
 90
        0
 40
-0.6
 41
-30.0
 62
     5
 63
     7
 74
     1
 91
        4
 64
     7
 65
   257
 75
     1
175
     1
 42
1.0
 92
        0
 66
   257
 43
1.0
 76
     1
 77
     6
 78
     2
 67
     7
 79
     5
170
     0
171
     0
290
     0
174
     0
 93
        1
 44
0.0
173
     0
291
     0
 45
0.0
1001
ACAD
1000
AcDbSavedByObjectVersion
1070
     0
  0
VISUALSTYLE
  5
31
102
{ACAD_REACTORS
330
2A
102
}
102
{ACAD_XDICTIONARY
360
336
102
}
330
2A
100
AcDbVisualStyle
  2
3D Hidden
 70
     6
 71
     1
 72
     2
 73
     2
 90
        0
 40
-0.6
 41
-30.0
 62
     5
 63
     7
 74
     2
 91
        2
 64
     7
 65
   257
 75
     2
175
     1
 42
40.0
 92
        0
 66
   257
 43
1.0
 76
     1
 77
     6
 78
     2
 67
     7
 79
     3
170
     0
171
     0
290
     0
174
     0
 93
        1
 44
0.0
173
     0
291
     0
 45
0.0
1001
ACAD
1000
AcDbSavedByObjectVersion
1070
     0
  0
VISUALSTYLE
  5
30
102
{ACAD_REACTORS
330
2A
102
}
102
{ACAD_XDICTIONARY
360
334
102
}
330
2A
100
AcDbVisualStyle
  2
3dWireframe
 70
     5
 71
     0
 72
     2
 73
     0
 90
        0
 40
-0.6
 41
-30.0
 62
     5
 63
     7
 74
     1
 91
        4
 64
     7
 65
   257
 75
     1
175
     1
 42
1.0
 92
        0
 66
   257
 43
1.0
 76
     1
 77
     6
 78
     2
 67
     7
 79
     5
170
     0
171
     0
290
     0
174
     0
 93
        1
 44
0.0
173
     0
291
     0
 45
0.0
1001
ACAD
1000
AcDbSavedByObjectVersion
1070
     0
  0
VISUALSTYLE
  5
32
102
{ACAD_REACTORS
330
2A
102
}
102
{ACAD_XDICTIONARY
360
338
102
}
330
2A
100
AcDbVisualStyle
  2
Basic
 70
     7
 71
     1
 72
     0
 73
     1
 90
        0
 40
-0.6
 41
-30.0
 62
     5
 63
     7
 74
     0
 91
        4
 64
     7
 65
   257
 75
     1
175
     1
 42
1.0
 92
        8
 66
     7
 43
1.0
 76
     1
 77
     6
 78
     2
 67
     7
 79
     5
170
     0
171
     0
290
     0
174
     0
 93
        1
 44
0.0
173
     0
291
     1
 45
0.0
1001
ACAD
1000
AcDbSavedByObjectVersion
1070
     0
  0
VISUALSTYLE
  5
36
102
{ACAD_REACTORS
330
2A
102
}
102
{ACAD_XDICTIONARY
360
340
102
}
330
2A
100
AcDbVisualStyle
  2
Brighten
 70
    12
 71
     2
 72
     2
 73
     0
 90
        0
 40
-0.6
 41
-30.0
 62
     5
 63
     7
 74
     1
 91
        4
 64
     7
 65
   257
 75
     1
175
     1
 42
1.0
 92
        8
 66
     7
 43
1.0
 76
     1
 77
     6
 78
     2
 67
     7
 79
     5
170
     0
171
     0
290
     0
174
     0
 93
        1
 44
50.0
173
     0
291
     1
 45
0.0
1001
ACAD
1000
AcDbSavedByObjectVersion
1070
     0
  0
VISUALSTYLE
  5
3A
102
{ACAD_REACTORS
330
2A
102
}
102
{ACAD_XDICTIONARY
360
348
102
}
330
2A
100
AcDbVisualStyle
  2
ColorChange
 70
    16
 71
     2
 72
     2
 73
     3
 90
        0
 40
-0.6
 41
-30.0
 62
     5
 63
     8
 74
     1
 91
        4
 64
     7
 65
   257
 75
     1
175
     1
 42
1.0
 92
        8
 66
     8
 43
1.0
 76
     1
 77
     6
 78
     2
 67
     7
 79
     5
170
     0
171
     0
290
     0
174
     0
 93
        1
 44
0.0
173
     0
291
     1
 45
0.0
1001
ACAD
1000
AcDbSavedByObjectVersion
1070
     0
  0
VISUALSTYLE
  5
34
102
{ACAD_REACTORS
330
2A
102
}
102
{ACAD_XDICTIONARY
360
33C
102
}
330
2A
100
AcDbVisualStyle
  2
Conceptual
 70
     9
 71
     3
 72
     2
 73
     0
 90
        0
 40
-0.6
 41
-30.0
 62
     5
 63
     7
 74
     2
 91
        2
 64
     7
 65
   257
 75
     1
175
     1
 42
40.0
 92
        8
 66
     7
 43
1.0
 76
     1
 77
     6
 78
     2
 67
     7
 79
     3
170
     0
171
     0
290
     0
174
     0
 93
        1
 44
0.0
173
     0
291
     0
 45
0.0
1001
ACAD
1000
AcDbSavedByObjectVersion
1070
     0
  0
VISUALSTYLE
  5
35
102
{ACAD_REACTORS
330
2A
102
}
102
{ACAD_XDICTIONARY
360
33E
102
}
330
2A
100
AcDbVisualStyle
  2
Dim
 70
    11
 71
     2
 72
     2
 73
     0
 90
        0
 40
-0.6
 41
-30.0
 62
     5
 63
     7
 74
     1
 91
        4
 64
     7
 65
   257
 75
     1
175
     1
 42
1.0
 92
        8
 66
     7
 43
1.0
 76
     1
 77
     6
 78
     2
 67
     7
 79
     5
170
     0
171
     0
290
     0
174
     0
 93
        1
 44
-50.0
173
     0
291
     1
 45
0.0
1001
ACAD
1000
AcDbSavedByObjectVersion
1070
     0
  0
VISUALSTYLE
  5
39
102
{ACAD_REACTORS
330
2A
102
}
102
{ACAD_XDICTIONARY
360
346
102
}
330
2A
100
AcDbVisualStyle
  2
Facepattern
 70
    15
 71
     2
 72
     2
 73
     0
 90
        0
 40
-0.6
 41
-30.0
 62
     5
 63
     7
 74
     1
 91
        4
 64
     7
 65
   257
 75
     1
175
     1
 42
1.0
 92
        8
 66
     7
 43
1.0
 76
     1
 77
     6
 78
     2
 67
     7
 79
     5
170
     0
171
     0
290
     0
174
     0
 93
        1
 44
0.0
173
     0
291
     1
 45
0.0
1001
ACAD
1000
AcDbSavedByObjectVersion
1070
     0
  0
VISUALSTYLE
  5
2B
102
{ACAD_REACTORS
330
2A
102
}
102
{ACAD_XDICTIONARY
360
32A
102
}
330
2A
100
AcDbVisualStyle
  2
Flat
 70
     0
 71
     2
 72
     1
 73
     1
 90
        2
 40
-0.6
 41
30.0
 62
     5
 63
     7
 74
     0
 91
        4
 64
     7
 65
   257
 75
     1
175
     1
 42
1.0
 92
        8
 66
     7
 43
1.0
 76
     1
 77
     6
 78
     2
 67
     7
 79
     5
170
     0
171
     0
290
     0
174
     0
 93
       13
 44
0.0
173
     0
291
     1
 45
0.0
1001
ACAD
1000
AcDbSavedByObjectVersion
1070
     0
  0
VISUALSTYLE
  5
2C
102
{ACAD_REACTORS
330
2A
102
}
102
{ACAD_XDICTIONARY
360
32C
102
}
330
2A
100
AcDbVisualStyle
  2
FlatWithEdges
 70
     1
 71
     2
 72
     1
 73
     1
 90
        2
 40
-0.6
 41
30.0
 62
     5
 63
     7
 74
     1
 91
        4
 64
     7
 65
   257
 75
     1
175
     1
 42
1.0
 92
        0
 66
   257
 43
1.0
 76
     1
 77
     6
 78
     2
 67
     7
 79
     5
170
     0
171
     0
290
     0
174
     0
 93
       13
 44
0.0
173
     0
291
     1
 45
0.0
1001
ACAD
1000
AcDbSavedByObjectVersion
1070
     0
  0
VISUALSTYLE
  5
2D
102
{ACAD_REACTORS
330
2A
102
}
102
{ACAD_XDICTIONARY
360
32E
102
}
330
2A
100
AcDbVisualStyle
  2
Gouraud
 70
     2
 71
     2
 72
     2
 73
     1
 90
        2
 40
-0.6
 41
30.0
 62
     5
 63
     7
 74
     0
 91
        4
 64
     7
 65
   257
 75
     1
175
     1
 42
1.0
 92
        0
 66
     7
 43
1.0
 76
     1
 77
     6
 78
     2
 67
     7
 79
     5
170
     0
171
     0
290
     0
174
     0
 93
       13
 44
0.0
173
     0
291
     1
 45
0.0
1001
ACAD
1000
AcDbSavedByObjectVersion
1070
     0
  0
VISUALSTYLE
  5
2E
102
{ACAD_REACTORS
330
2A
102
}
102
{ACAD_XDICTIONARY
360
330
102
}
330
2A
100
AcDbVisualStyle
  2
GouraudWithEdges
 70
     3
 71
     2
 72
     2
 73
     1
 90
        2
 40
-0.6
 41
30.0
 62
     5
 63
     7
 74
     1
 91
        4
 64
     7
 65
   257
 75
     1
175
     1
 42
1.0
 92
        0
 66
   257
 43
1.0
 76
     1
 77
     6
 78
     2
 67
     7
 79
     5
170
     0
171
     0
290
     0
174
     0
 93
       13
 44
0.0
173
     0
291
     1
 45
0.0
1001
ACAD
1000
AcDbSavedByObjectVersion
1070
     0
  0
VISUALSTYLE
  5
38
102
{ACAD_REACTORS
330
2A
102
}
102
{ACAD_XDICTIONARY
360
344
102
}
330
2A
100
AcDbVisualStyle
  2
Linepattern
 70
    14
 71
     2
 72
     2
 73
     0
 90
        0
 40
-0.6
 41
-30.0
 62
     5
 63
     7
 74
     1
 91
        4
 64
     7
 65
   257
 75
     7
175
     7
 42
1.0
 92
        8
 66
     7
 43
1.0
 76
     1
 77
     6
 78
     2
 67
     7
 79
     5
170
     0
171
     0
290
     0
174
     0
 93
        1
 44
0.0
173
     0
291
     1
 45
0.0
1001
ACAD
1000
AcDbSavedByObjectVersion
1070
     0
  0
VISUALSTYLE
  5
33
102
{ACAD_REACTORS
330
2A
102
}
102
{ACAD_XDICTIONARY
360
33A
102
}
330
2A
100
AcDbVisualStyle
  2
Realistic
 70
     8
 71
     2
 72
     2
 73
     0
 90
        0
 40
-0.6
 41
-30.0
 62
     5
 63
     7
 74
     1
 91
        0
 64
     7
 65
   257
 75
     1
175
     1
 42
1.0
 92
        8
 66
     8
 43
1.0
 76
     1
 77
     6
 78
     2
 67
     7
 79
     5
170
     0
171
     0
290
     0
174
     0
 93
       13
 44
0.0
173
     0
291
     0
 45
0.0
1001
ACAD
1000
AcDbSavedByObjectVersion
1070
     0
  0
VISUALSTYLE
  5
37
102
{ACAD_REACTORS
330
2A
102
}
102
{ACAD_XDICTIONARY
360
342
102
}
330
2A
100
AcDbVisualStyle
  2
Thicken
 70
    13
 71
     2
 72
     2
 73
     0
 90
        0
 40
-0.6
 41
-30.0
 62
     5
 63
     7
 74
     1
 91
        4
 64
     7
 65
   257
 75
     1
175
     1
 42
1.0
 92
       12
 66
     7
 43
1.0
 76
     1
 77
     6
 78
     2
 67
     7
 79
     5
170
     0
171
     0
290
     0
174
     0
 93
        1
 44
0.0
173
     0
291
     1
 45
0.0
1001
ACAD
1000
AcDbSavedByObjectVersion
1070
     0
  0
DICTIONARYVAR
  5
328
102
{ACAD_REACTORS
330
323
102
}
330
323
100
DictionaryVariables
280
     0
  1
2
  0
DICTIONARYVAR
  5
329
102
{ACAD_REACTORS
330
323
102
}
330
323
100
DictionaryVariables
280
     0
  1
1
  0
DICTIONARYVAR
  5
327
102
{ACAD_REACTORS
330
323
102
}
330
323
100
DictionaryVariables
280
     0
  1
80.000000
  0
DICTIONARYVAR
  5
326
102
{ACAD_REACTORS
330
323
102
}
330
323
100
DictionaryVariables
280
     0
  1
5.000000
  0
DICTIONARY
  5
34C
330
3D
100
AcDbDictionary
280
     1
281
     1
  3
ACAD_XREC_ROUNDTRIP
360
34D
  0
DICTIONARY
  5
34A
330
3C
100
AcDbDictionary
280
     1
281
     1
  3
ACAD_XREC_ROUNDTRIP
360
34B
  0
DICTIONARY
  5
34E
330
3E
100
AcDbDictionary
280
     1
281
     1
  3
ACAD_XREC_ROUNDTRIP
360
34F
  0
DICTIONARY
  5
332
330
2F
100
AcDbDictionary
280
     1
281
     1
  3
ACAD_XREC_ROUNDTRIP
360
333
  0
DICTIONARY
  5
336
330
31
100
AcDbDictionary
280
     1
281
     1
  3
ACAD_XREC_ROUNDTRIP
360
337
  0
DICTIONARY
  5
334
330
30
100
AcDbDictionary
280
     1
281
     1
  3
ACAD_XREC_ROUNDTRIP
360
335
  0
DICTIONARY
  5
338
330
32
100
AcDbDictionary
280
     1
281
     1
  3
ACAD_XREC_ROUNDTRIP
360
339
  0
DICTIONARY
  5
340
330
36
100
AcDbDictionary
280
     1
281
     1
  3
ACAD_XREC_ROUNDTRIP
360
341
  0
DICTIONARY
  5
348
330
3A
100
AcDbDictionary
280
     1
281
     1
  3
ACAD_XREC_ROUNDTRIP
360
349
  0
DICTIONARY
  5
33C
330
34
100
AcDbDictionary
280
     1
281
     1
  3
ACAD_XREC_ROUNDTRIP
360
33D
  0
DICTIONARY
  5
33E
330
35
100
AcDbDictionary
280
     1
281
     1
  3
ACAD_XREC_ROUNDTRIP
360
33F
  0
DICTIONARY
  5
346
330
39
100
AcDbDictionary
280
     1
281
     1
  3
ACAD_XREC_ROUNDTRIP
360
347
  0
DICTIONARY
  5
32A
330
2B
100
AcDbDictionary
280
     1
281
     1
  3
ACAD_XREC_ROUNDTRIP
360
32B
  0
DICTIONARY
  5
32C
330
2C
100
AcDbDictionary
280
     1
281
     1
  3
ACAD_XREC_ROUNDTRIP
360
32D
  0
DICTIONARY
  5
32E
330
2D
100
AcDbDictionary
280
     1
281
     1
  3
ACAD_XREC_ROUNDTRIP
360
32F
  0
DICTIONARY
  5
330
330
2E
100
AcDbDictionary
280
     1
281
     1
  3
ACAD_XREC_ROUNDTRIP
360
331
  0
DICTIONARY
  5
344
330
38
100
AcDbDictionary
280
     1
281
     1
  3
ACAD_XREC_ROUNDTRIP
360
345
  0
DICTIONARY
  5
33A
330
33
100
AcDbDictionary
280
     1
281
     1
  3
ACAD_XREC_ROUNDTRIP
360
33B
  0
DICTIONARY
  5
342
330
37
100
AcDbDictionary
280
     1
281
     1
  3
ACAD_XREC_ROUNDTRIP
360
343
  0
XRECORD
  5
34D
102
{ACAD_REACTORS
330
34C
102
}
330
34C
100
AcDbXrecord
280
     1
102
MATERIAL
148
0.0
149
0.0
149
0.0
 93
        0
 94
      127
282
     0
 72
     1
 77
     1
171
     1
175
     1
179
     1
273
     0
  0
XRECORD
  5
34B
102
{ACAD_REACTORS
330
34A
102
}
330
34A
100
AcDbXrecord
280
     1
102
MATERIAL
148
0.0
149
0.0
149
0.0
 93
        0
 94
      127
282
     0
 72
     1
 77
     1
171
     1
175
     1
179
     1
273
     0
  0
XRECORD
  5
34F
102
{ACAD_REACTORS
330
34E
102
}
330
34E
100
AcDbXrecord
280
     1
102
MATERIAL
148
0.0
149
0.0
149
0.0
 93
        0
 94
      127
282
     0
 72
     1
 77
     1
171
     1
175
     1
179
     1
273
     0
  0
XRECORD
  5
333
102
{ACAD_REACTORS
330
332
102
}
330
332
100
AcDbXrecord
280
     1
102
RTVSPropertyOp0
 70
     1
102
RTVSPropertyOp1
 70
     1
102
RTVSPropertyOp2
 70
     1
102
RTVSPropertyOp3
 70
     1
102
RTVSPropertyOp4
 70
     1
102
RTVSPropertyOp5
 70
     1
102
RTVSPropertyOp6
 70
     1
102
RTVSPropertyOp7
 70
     1
102
RTVSPropertyOp8
 70
     1
102
RTVSPropertyOp9
 70
     1
102
RTVSPropertyOp10
 70
     1
102
RTVSPropertyOp11
 70
     1
102
RTVSPropertyOp12
 70
     1
102
RTVSPropertyOp13
 70
     1
102
RTVSPropertyOp14
 70
     1
102
RTVSPropertyOp15
 70
     1
102
RTVSPropertyOp16
 70
     1
102
RTVSPropertyOp17
 70
     1
102
RTVSPropertyOp18
 70
     1
102
RTVSPropertyOp19
 70
     1
102
RTVSPropertyOp20
 70
     1
102
RTVSPropertyOp21
 70
     1
102
RTVSPropertyOp22
 70
     1
102
RTVSPropertyOp23
 70
     1
102
RTVSPropertyOp24
 70
     1
102
RTVSPropertyOp25
 70
     1
102
RTVSPropertyOp26
 70
     1
102
RTVSPropertyOp27
 70
     1
102
RTVSPropertyOp28
 70
     1
102
RTVSPropertyOp29
 70
     1
102
RTVSPropertyOp30
 70
     1
102
RTVSPropertyOp31
 70
     1
102
RTVSPropertyOp32
 70
     1
  0
XRECORD
  5
337
102
{ACAD_REACTORS
330
336
102
}
330
336
100
AcDbXrecord
280
     1
102
RTVSPropertyOp0
 70
     1
102
RTVSPropertyOp1
 70
     1
102
RTVSPropertyOp2
 70
     1
102
RTVSPropertyOp3
 70
     1
102
RTVSPropertyOp4
 70
     1
102
RTVSPropertyOp5
 70
     1
102
RTVSPropertyOp6
 70
     1
102
RTVSPropertyOp7
 70
     1
102
RTVSPropertyOp8
 70
     1
102
RTVSPropertyOp9
 70
     1
102
RTVSPropertyOp10
 70
     1
102
RTVSPropertyOp11
 70
     1
102
RTVSPropertyOp12
 70
     1
102
RTVSPropertyOp13
 70
     1
102
RTVSPropertyOp14
 70
     1
102
RTVSPropertyOp15
 70
     1
102
RTVSPropertyOp16
 70
     1
102
RTVSPropertyOp17
 70
     1
102
RTVSPropertyOp18
 70
     1
102
RTVSPropertyOp19
 70
     1
102
RTVSPropertyOp20
 70
     1
102
RTVSPropertyOp21
 70
     1
102
RTVSPropertyOp22
 70
     1
102
RTVSPropertyOp23
 70
     1
102
RTVSPropertyOp24
 70
     1
102
RTVSPropertyOp25
 70
     1
102
RTVSPropertyOp26
 70
     1
102
RTVSPropertyOp27
 70
     1
102
RTVSPropertyOp28
 70
     1
102
RTVSPropertyOp29
 70
     1
102
RTVSPropertyOp30
 70
     1
102
RTVSPropertyOp31
 70
     1
102
RTVSPropertyOp32
 70
     1
  0
XRECORD
  5
335
102
{ACAD_REACTORS
330
334
102
}
330
334
100
AcDbXrecord
280
     1
102
RTVSPropertyOp0
 70
     1
102
RTVSPropertyOp1
 70
     1
102
RTVSPropertyOp2
 70
     1
102
RTVSPropertyOp3
 70
     1
102
RTVSPropertyOp4
 70
     1
102
RTVSPropertyOp5
 70
     1
102
RTVSPropertyOp6
 70
     1
102
RTVSPropertyOp7
 70
     1
102
RTVSPropertyOp8
 70
     1
102
RTVSPropertyOp9
 70
     1
102
RTVSPropertyOp10
 70
     1
102
RTVSPropertyOp11
 70
     1
102
RTVSPropertyOp12
 70
     1
102
RTVSPropertyOp13
 70
     1
102
RTVSPropertyOp14
 70
     1
102
RTVSPropertyOp15
 70
     1
102
RTVSPropertyOp16
 70
     1
102
RTVSPropertyOp17
 70
     1
102
RTVSPropertyOp18
 70
     1
102
RTVSPropertyOp19
 70
     1
102
RTVSPropertyOp20
 70
     1
102
RTVSPropertyOp21
 70
     1
102
RTVSPropertyOp22
 70
     1
102
RTVSPropertyOp23
 70
     1
102
RTVSPropertyOp24
 70
     1
102
RTVSPropertyOp25
 70
     1
102
RTVSPropertyOp26
 70
     1
102
RTVSPropertyOp27
 70
     1
102
RTVSPropertyOp28
 70
     1
102
RTVSPropertyOp29
 70
     1
102
RTVSPropertyOp30
 70
     1
102
RTVSPropertyOp31
 70
     1
102
RTVSPropertyOp32
 70
     1
  0
XRECORD
  5
339
102
{ACAD_REACTORS
330
338
102
}
330
338
100
AcDbXrecord
280
     1
102
RTVSPropertyOp0
 70
     1
102
RTVSPropertyOp1
 70
     1
102
RTVSPropertyOp2
 70
     1
102
RTVSPropertyOp3
 70
     1
102
RTVSPropertyOp4
 70
     1
102
RTVSPropertyOp5
 70
     1
102
RTVSPropertyOp6
 70
     1
102
RTVSPropertyOp7
 70
     1
102
RTVSPropertyOp8
 70
     1
102
RTVSPropertyOp9
 70
     1
102
RTVSPropertyOp10
 70
     1
102
RTVSPropertyOp11
 70
     1
102
RTVSPropertyOp12
 70
     1
102
RTVSPropertyOp13
 70
     1
102
RTVSPropertyOp14
 70
     1
102
RTVSPropertyOp15
 70
     1
102
RTVSPropertyOp16
 70
     1
102
RTVSPropertyOp17
 70
     1
102
RTVSPropertyOp18
 70
     1
102
RTVSPropertyOp19
 70
     1
102
RTVSPropertyOp20
 70
     1
102
RTVSPropertyOp21
 70
     1
102
RTVSPropertyOp22
 70
     1
102
RTVSPropertyOp23
 70
     1
102
RTVSPropertyOp24
 70
     1
102
RTVSPropertyOp25
 70
     1
102
RTVSPropertyOp26
 70
     1
102
RTVSPropertyOp27
 70
     1
102
RTVSPropertyOp28
 70
     1
102
RTVSPropertyOp29
 70
     1
102
RTVSPropertyOp30
 70
     1
102
RTVSPropertyOp31
 70
     1
102
RTVSPropertyOp32
 70
     1
  0
XRECORD
  5
341
102
{ACAD_REACTORS
330
340
102
}
330
340
100
AcDbXrecord
280
     1
102
RTVSPropertyOp0
 70
     1
102
RTVSPropertyOp1
 70
     1
102
RTVSPropertyOp2
 70
     1
102
RTVSPropertyOp3
 70
     1
102
RTVSPropertyOp4
 70
     1
102
RTVSPropertyOp5
 70
     1
102
RTVSPropertyOp6
 70
     1
102
RTVSPropertyOp7
 70
     1
102
RTVSPropertyOp8
 70
     1
102
RTVSPropertyOp9
 70
     1
102
RTVSPropertyOp10
 70
     1
102
RTVSPropertyOp11
 70
     1
102
RTVSPropertyOp12
 70
     1
102
RTVSPropertyOp13
 70
     1
102
RTVSPropertyOp14
 70
     1
102
RTVSPropertyOp15
 70
     1
102
RTVSPropertyOp16
 70
     1
102
RTVSPropertyOp17
 70
     1
102
RTVSPropertyOp18
 70
     1
102
RTVSPropertyOp19
 70
     1
102
RTVSPropertyOp20
 70
     1
102
RTVSPropertyOp21
 70
     1
102
RTVSPropertyOp22
 70
     1
102
RTVSPropertyOp23
 70
     1
102
RTVSPropertyOp24
 70
     1
102
RTVSPropertyOp25
 70
     1
102
RTVSPropertyOp26
 70
     1
102
RTVSPropertyOp27
 70
     1
102
RTVSPropertyOp28
 70
     1
102
RTVSPropertyOp29
 70
     1
102
RTVSPropertyOp30
 70
     1
102
RTVSPropertyOp31
 70
     1
102
RTVSPropertyOp32
 70
     1
  0
XRECORD
  5
349
102
{ACAD_REACTORS
330
348
102
}
330
348
100
AcDbXrecord
280
     1
102
RTVSPropertyOp0
 70
     1
102
RTVSPropertyOp1
 70
     1
102
RTVSPropertyOp2
 70
     1
102
RTVSPropertyOp3
 70
     1
102
RTVSPropertyOp4
 70
     1
102
RTVSPropertyOp5
 70
     1
102
RTVSPropertyOp6
 70
     1
102
RTVSPropertyOp7
 70
     1
102
RTVSPropertyOp8
 70
     1
102
RTVSPropertyOp9
 70
     1
102
RTVSPropertyOp10
 70
     1
102
RTVSPropertyOp11
 70
     1
102
RTVSPropertyOp12
 70
     1
102
RTVSPropertyOp13
 70
     1
102
RTVSPropertyOp14
 70
     1
102
RTVSPropertyOp15
 70
     1
102
RTVSPropertyOp16
 70
     1
102
RTVSPropertyOp17
 70
     1
102
RTVSPropertyOp18
 70
     1
102
RTVSPropertyOp19
 70
     1
102
RTVSPropertyOp20
 70
     1
102
RTVSPropertyOp21
 70
     1
102
RTVSPropertyOp22
 70
     1
102
RTVSPropertyOp23
 70
     1
102
RTVSPropertyOp24
 70
     1
102
RTVSPropertyOp25
 70
     1
102
RTVSPropertyOp26
 70
     1
102
RTVSPropertyOp27
 70
     1
102
RTVSPropertyOp28
 70
     1
102
RTVSPropertyOp29
 70
     1
102
RTVSPropertyOp30
 70
     1
102
RTVSPropertyOp31
 70
     1
102
RTVSPropertyOp32
 70
     1
  0
XRECORD
  5
33D
102
{ACAD_REACTORS
330
33C
102
}
330
33C
100
AcDbXrecord
280
     1
102
RTVSPropertyOp0
 70
     1
102
RTVSPropertyOp1
 70
     1
102
RTVSPropertyOp2
 70
     1
102
RTVSPropertyOp3
 70
     1
102
RTVSPropertyOp4
 70
     1
102
RTVSPropertyOp5
 70
     1
102
RTVSPropertyOp6
 70
     1
102
RTVSPropertyOp7
 70
     1
102
RTVSPropertyOp8
 70
     1
102
RTVSPropertyOp9
 70
     1
102
RTVSPropertyOp10
 70
     1
102
RTVSPropertyOp11
 70
     1
102
RTVSPropertyOp12
 70
     1
102
RTVSPropertyOp13
 70
     1
102
RTVSPropertyOp14
 70
     1
102
RTVSPropertyOp15
 70
     1
102
RTVSPropertyOp16
 70
     1
102
RTVSPropertyOp17
 70
     1
102
RTVSPropertyOp18
 70
     1
102
RTVSPropertyOp19
 70
     1
102
RTVSPropertyOp20
 70
     1
102
RTVSPropertyOp21
 70
     1
102
RTVSPropertyOp22
 70
     1
102
RTVSPropertyOp23
 70
     1
102
RTVSPropertyOp24
 70
     1
102
RTVSPropertyOp25
 70
     1
102
RTVSPropertyOp26
 70
     1
102
RTVSPropertyOp27
 70
     1
102
RTVSPropertyOp28
 70
     1
102
RTVSPropertyOp29
 70
     1
102
RTVSPropertyOp30
 70
     1
102
RTVSPropertyOp31
 70
     1
102
RTVSPropertyOp32
 70
     1
  0
XRECORD
  5
33F
102
{ACAD_REACTORS
330
33E
102
}
330
33E
100
AcDbXrecord
280
     1
102
RTVSPropertyOp0
 70
     1
102
RTVSPropertyOp1
 70
     1
102
RTVSPropertyOp2
 70
     1
102
RTVSPropertyOp3
 70
     1
102
RTVSPropertyOp4
 70
     1
102
RTVSPropertyOp5
 70
     1
102
RTVSPropertyOp6
 70
     1
102
RTVSPropertyOp7
 70
     1
102
RTVSPropertyOp8
 70
     1
102
RTVSPropertyOp9
 70
     1
102
RTVSPropertyOp10
 70
     1
102
RTVSPropertyOp11
 70
     1
102
RTVSPropertyOp12
 70
     1
102
RTVSPropertyOp13
 70
     1
102
RTVSPropertyOp14
 70
     1
102
RTVSPropertyOp15
 70
     1
102
RTVSPropertyOp16
 70
     1
102
RTVSPropertyOp17
 70
     1
102
RTVSPropertyOp18
 70
     1
102
RTVSPropertyOp19
 70
     1
102
RTVSPropertyOp20
 70
     1
102
RTVSPropertyOp21
 70
     1
102
RTVSPropertyOp22
 70
     1
102
RTVSPropertyOp23
 70
     1
102
RTVSPropertyOp24
 70
     1
102
RTVSPropertyOp25
 70
     1
102
RTVSPropertyOp26
 70
     1
102
RTVSPropertyOp27
 70
     1
102
RTVSPropertyOp28
 70
     1
102
RTVSPropertyOp29
 70
     1
102
RTVSPropertyOp30
 70
     1
102
RTVSPropertyOp31
 70
     1
102
RTVSPropertyOp32
 70
     1
  0
XRECORD
  5
347
102
{ACAD_REACTORS
330
346
102
}
330
346
100
AcDbXrecord
280
     1
102
RTVSPropertyOp0
 70
     1
102
RTVSPropertyOp1
 70
     1
102
RTVSPropertyOp2
 70
     1
102
RTVSPropertyOp3
 70
     1
102
RTVSPropertyOp4
 70
     1
102
RTVSPropertyOp5
 70
     1
102
RTVSPropertyOp6
 70
     1
102
RTVSPropertyOp7
 70
     1
102
RTVSPropertyOp8
 70
     1
102
RTVSPropertyOp9
 70
     1
102
RTVSPropertyOp10
 70
     1
102
RTVSPropertyOp11
 70
     1
102
RTVSPropertyOp12
 70
     1
102
RTVSPropertyOp13
 70
     1
102
RTVSPropertyOp14
 70
     1
102
RTVSPropertyOp15
 70
     1
102
RTVSPropertyOp16
 70
     1
102
RTVSPropertyOp17
 70
     1
102
RTVSPropertyOp18
 70
     1
102
RTVSPropertyOp19
 70
     1
102
RTVSPropertyOp20
 70
     1
102
RTVSPropertyOp21
 70
     1
102
RTVSPropertyOp22
 70
     1
102
RTVSPropertyOp23
 70
     1
102
RTVSPropertyOp24
 70
     1
102
RTVSPropertyOp25
 70
     1
102
RTVSPropertyOp26
 70
     1
102
RTVSPropertyOp27
 70
     1
102
RTVSPropertyOp28
 70
     1
102
RTVSPropertyOp29
 70
     1
102
RTVSPropertyOp30
 70
     1
102
RTVSPropertyOp31
 70
     1
102
RTVSPropertyOp32
 70
     1
  0
XRECORD
  5
32B
102
{ACAD_REACTORS
330
32A
102
}
330
32A
100
AcDbXrecord
280
     1
102
RTVSPropertyOp0
 70
     1
102
RTVSPropertyOp1
 70
     1
102
RTVSPropertyOp2
 70
     1
102
RTVSPropertyOp3
 70
     1
102
RTVSPropertyOp4
 70
     1
102
RTVSPropertyOp5
 70
     1
102
RTVSPropertyOp6
 70
     1
102
RTVSPropertyOp7
 70
     1
102
RTVSPropertyOp8
 70
     1
102
RTVSPropertyOp9
 70
     1
102
RTVSPropertyOp10
 70
     1
102
RTVSPropertyOp11
 70
     1
102
RTVSPropertyOp12
 70
     1
102
RTVSPropertyOp13
 70
     1
102
RTVSPropertyOp14
 70
     1
102
RTVSPropertyOp15
 70
     1
102
RTVSPropertyOp16
 70
     1
102
RTVSPropertyOp17
 70
     1
102
RTVSPropertyOp18
 70
     1
102
RTVSPropertyOp19
 70
     1
102
RTVSPropertyOp20
 70
     1
102
RTVSPropertyOp21
 70
     1
102
RTVSPropertyOp22
 70
     1
102
RTVSPropertyOp23
 70
     1
102
RTVSPropertyOp24
 70
     1
102
RTVSPropertyOp25
 70
     1
102
RTVSPropertyOp26
 70
     1
102
RTVSPropertyOp27
 70
     1
102
RTVSPropertyOp28
 70
     1
102
RTVSPropertyOp29
 70
     1
102
RTVSPropertyOp30
 70
     1
102
RTVSPropertyOp31
 70
     1
102
RTVSPropertyOp32
 70
     1
  0
XRECORD
  5
32D
102
{ACAD_REACTORS
330
32C
102
}
330
32C
100
AcDbXrecord
280
     1
102
RTVSPropertyOp0
 70
     1
102
RTVSPropertyOp1
 70
     1
102
RTVSPropertyOp2
 70
     1
102
RTVSPropertyOp3
 70
     1
102
RTVSPropertyOp4
 70
     1
102
RTVSPropertyOp5
 70
     1
102
RTVSPropertyOp6
 70
     1
102
RTVSPropertyOp7
 70
     1
102
RTVSPropertyOp8
 70
     1
102
RTVSPropertyOp9
 70
     1
102
RTVSPropertyOp10
 70
     1
102
RTVSPropertyOp11
 70
     1
102
RTVSPropertyOp12
 70
     1
102
RTVSPropertyOp13
 70
     1
102
RTVSPropertyOp14
 70
     1
102
RTVSPropertyOp15
 70
     1
102
RTVSPropertyOp16
 70
     1
102
RTVSPropertyOp17
 70
     1
102
RTVSPropertyOp18
 70
     1
102
RTVSPropertyOp19
 70
     1
102
RTVSPropertyOp20
 70
     1
102
RTVSPropertyOp21
 70
     1
102
RTVSPropertyOp22
 70
     1
102
RTVSPropertyOp23
 70
     1
102
RTVSPropertyOp24
 70
     1
102
RTVSPropertyOp25
 70
     1
102
RTVSPropertyOp26
 70
     1
102
RTVSPropertyOp27
 70
     1
102
RTVSPropertyOp28
 70
     1
102
RTVSPropertyOp29
 70
     1
102
RTVSPropertyOp30
 70
     1
102
RTVSPropertyOp31
 70
     1
102
RTVSPropertyOp32
 70
     1
  0
XRECORD
  5
32F
102
{ACAD_REACTORS
330
32E
102
}
330
32E
100
AcDbXrecord
280
     1
102
RTVSPropertyOp0
 70
     1
102
RTVSPropertyOp1
 70
     1
102
RTVSPropertyOp2
 70
     1
102
RTVSPropertyOp3
 70
     1
102
RTVSPropertyOp4
 70
     1
102
RTVSPropertyOp5
 70
     1
102
RTVSPropertyOp6
 70
     1
102
RTVSPropertyOp7
 70
     1
102
RTVSPropertyOp8
 70
     1
102
RTVSPropertyOp9
 70
     1
102
RTVSPropertyOp10
 70
     1
102
RTVSPropertyOp11
 70
     1
102
RTVSPropertyOp12
 70
     1
102
RTVSPropertyOp13
 70
     1
102
RTVSPropertyOp14
 70
     1
102
RTVSPropertyOp15
 70
     1
102
RTVSPropertyOp16
 70
     1
102
RTVSPropertyOp17
 70
     1
102
RTVSPropertyOp18
 70
     1
102
RTVSPropertyOp19
 70
     1
102
RTVSPropertyOp20
 70
     1
102
RTVSPropertyOp21
 70
     1
102
RTVSPropertyOp22
 70
     1
102
RTVSPropertyOp23
 70
     1
102
RTVSPropertyOp24
 70
     1
102
RTVSPropertyOp25
 70
     1
102
RTVSPropertyOp26
 70
     1
102
RTVSPropertyOp27
 70
     1
102
RTVSPropertyOp28
 70
     1
102
RTVSPropertyOp29
 70
     1
102
RTVSPropertyOp30
 70
     1
102
RTVSPropertyOp31
 70
     1
102
RTVSPropertyOp32
 70
     1
  0
XRECORD
  5
331
102
{ACAD_REACTORS
330
330
102
}
330
330
100
AcDbXrecord
280
     1
102
RTVSPropertyOp0
 70
     1
102
RTVSPropertyOp1
 70
     1
102
RTVSPropertyOp2
 70
     1
102
RTVSPropertyOp3
 70
     1
102
RTVSPropertyOp4
 70
     1
102
RTVSPropertyOp5
 70
     1
102
RTVSPropertyOp6
 70
     1
102
RTVSPropertyOp7
 70
     1
102
RTVSPropertyOp8
 70
     1
102
RTVSPropertyOp9
 70
     1
102
RTVSPropertyOp10
 70
     1
102
RTVSPropertyOp11
 70
     1
102
RTVSPropertyOp12
 70
     1
102
RTVSPropertyOp13
 70
     1
102
RTVSPropertyOp14
 70
     1
102
RTVSPropertyOp15
 70
     1
102
RTVSPropertyOp16
 70
     1
102
RTVSPropertyOp17
 70
     1
102
RTVSPropertyOp18
 70
     1
102
RTVSPropertyOp19
 70
     1
102
RTVSPropertyOp20
 70
     1
102
RTVSPropertyOp21
 70
     1
102
RTVSPropertyOp22
 70
     1
102
RTVSPropertyOp23
 70
     1
102
RTVSPropertyOp24
 70
     1
102
RTVSPropertyOp25
 70
     1
102
RTVSPropertyOp26
 70
     1
102
RTVSPropertyOp27
 70
     1
102
RTVSPropertyOp28
 70
     1
102
RTVSPropertyOp29
 70
     1
102
RTVSPropertyOp30
 70
     1
102
RTVSPropertyOp31
 70
     1
102
RTVSPropertyOp32
 70
     1
  0
XRECORD
  5
345
102
{ACAD_REACTORS
330
344
102
}
330
344
100
AcDbXrecord
280
     1
102
RTVSPropertyOp0
 70
     1
102
RTVSPropertyOp1
 70
     1
102
RTVSPropertyOp2
 70
     1
102
RTVSPropertyOp3
 70
     1
102
RTVSPropertyOp4
 70
     1
102
RTVSPropertyOp5
 70
     1
102
RTVSPropertyOp6
 70
     1
102
RTVSPropertyOp7
 70
     1
102
RTVSPropertyOp8
 70
     1
102
RTVSPropertyOp9
 70
     1
102
RTVSPropertyOp10
 70
     1
102
RTVSPropertyOp11
 70
     1
102
RTVSPropertyOp12
 70
     1
102
RTVSPropertyOp13
 70
     1
102
RTVSPropertyOp14
 70
     1
102
RTVSPropertyOp15
 70
     1
102
RTVSPropertyOp16
 70
     1
102
RTVSPropertyOp17
 70
     1
102
RTVSPropertyOp18
 70
     1
102
RTVSPropertyOp19
 70
     1
102
RTVSPropertyOp20
 70
     1
102
RTVSPropertyOp21
 70
     1
102
RTVSPropertyOp22
 70
     1
102
RTVSPropertyOp23
 70
     1
102
RTVSPropertyOp24
 70
     1
102
RTVSPropertyOp25
 70
     1
102
RTVSPropertyOp26
 70
     1
102
RTVSPropertyOp27
 70
     1
102
RTVSPropertyOp28
 70
     1
102
RTVSPropertyOp29
 70
     1
102
RTVSPropertyOp30
 70
     1
102
RTVSPropertyOp31
 70
     1
102
RTVSPropertyOp32
 70
     1
  0
XRECORD
  5
33B
102
{ACAD_REACTORS
330
33A
102
}
330
33A
100
AcDbXrecord
280
     1
102
RTVSPropertyOp0
 70
     1
102
RTVSPropertyOp1
 70
     1
102
RTVSPropertyOp2
 70
     1
102
RTVSPropertyOp3
 70
     1
102
RTVSPropertyOp4
 70
     1
102
RTVSPropertyOp5
 70
     1
102
RTVSPropertyOp6
 70
     1
102
RTVSPropertyOp7
 70
     1
102
RTVSPropertyOp8
 70
     1
102
RTVSPropertyOp9
 70
     1
102
RTVSPropertyOp10
 70
     1
102
RTVSPropertyOp11
 70
     1
102
RTVSPropertyOp12
 70
     1
102
RTVSPropertyOp13
 70
     1
102
RTVSPropertyOp14
 70
     1
102
RTVSPropertyOp15
 70
     1
102
RTVSPropertyOp16
 70
     1
102
RTVSPropertyOp17
 70
     1
102
RTVSPropertyOp18
 70
     1
102
RTVSPropertyOp19
 70
     1
102
RTVSPropertyOp20
 70
     1
102
RTVSPropertyOp21
 70
     1
102
RTVSPropertyOp22
 70
     1
102
RTVSPropertyOp23
 70
     1
102
RTVSPropertyOp24
 70
     1
102
RTVSPropertyOp25
 70
     1
102
RTVSPropertyOp26
 70
     1
102
RTVSPropertyOp27
 70
     1
102
RTVSPropertyOp28
 70
     1
102
RTVSPropertyOp29
 70
     1
102
RTVSPropertyOp30
 70
     1
102
RTVSPropertyOp31
 70
     1
102
RTVSPropertyOp32
 70
     1
  0
XRECORD
  5
343
102
{ACAD_REACTORS
330
342
102
}
330
342
100
AcDbXrecord
280
     1
102
RTVSPropertyOp0
 70
     1
102
RTVSPropertyOp1
 70
     1
102
RTVSPropertyOp2
 70
     1
102
RTVSPropertyOp3
 70
     1
102
RTVSPropertyOp4
 70
     1
102
RTVSPropertyOp5
 70
     1
102
RTVSPropertyOp6
 70
     1
102
RTVSPropertyOp7
 70
     1
102
RTVSPropertyOp8
 70
     1
102
RTVSPropertyOp9
 70
     1
102
RTVSPropertyOp10
 70
     1
102
RTVSPropertyOp11
 70
     1
102
RTVSPropertyOp12
 70
     1
102
RTVSPropertyOp13
 70
     1
102
RTVSPropertyOp14
 70
     1
102
RTVSPropertyOp15
 70
     1
102
RTVSPropertyOp16
 70
     1
102
RTVSPropertyOp17
 70
     1
102
RTVSPropertyOp18
 70
     1
102
RTVSPropertyOp19
 70
     1
102
RTVSPropertyOp20
 70
     1
102
RTVSPropertyOp21
 70
     1
102
RTVSPropertyOp22
 70
     1
102
RTVSPropertyOp23
 70
     1
102
RTVSPropertyOp24
 70
     1
102
RTVSPropertyOp25
 70
     1
102
RTVSPropertyOp26
 70
     1
102
RTVSPropertyOp27
 70
     1
102
RTVSPropertyOp28
 70
     1
102
RTVSPropertyOp29
 70
     1
102
RTVSPropertyOp30
 70
     1
102
RTVSPropertyOp31
 70
     1
102
RTVSPropertyOp32
 70
     1
  0
ENDSEC
  0
EOF
