  0
SECTION
  2
HEADER
  9
$ACADVER
  1
AC1015
  9
$ACADMAINTVER
 70
     6
  9
$DWGCODEPAGE
  3
ANSI_1252
  9
$INSBASE
 10
0.0
 20
0.0
 30
0.0
  9
$EXTMIN
 10
0.0
 20
0.0
 30
0.0
  9
$EXTMAX
 10
841.0
 20
594.0
 30
0.0
  9
$LIMMIN
 10
0.0
 20
0.0
  9
$LIMMAX
 10
841.0
 20
594.0
  9
$ORTHOMODE
 70
     0
  9
$REGENMODE
 70
     1
  9
$FILLMODE
 70
     1
  9
$QTEXTMODE
 70
     0
  9
$MIRRTEXT
 70
     1
  9
$LTSCALE
 40
1.0
  9
$ATTMODE
 70
     1
  9
$TEXTSIZE
 40
2.5
  9
$TRACEWID
 40
1.0
  9
$TEXTSTYLE
  7
Standard
  9
$CLAYER
  8
0
  9
$CELTYPE
  6
ByLayer
  9
$CECOLOR
 62
   256
  9
$CELTSCALE
 40
1.0
  9
$DISPSILH
 70
     0
  9
$DIMSCALE
 40
1.0
  9
$DIMASZ
 40
2.5
  9
$DIMEXO
 40
0.625
  9
$DIMDLI
 40
3.75
  9
$DIMRND
 40
0.0
  9
$DIMDLE
 40
0.0
  9
$DIMEXE
 40
1.25
  9
$DIMTP
 40
0.0
  9
$DIMTM
 40
0.0
  9
$DIMTXT
 40
2.5
  9
$DIMCEN
 40
2.5
  9
$DIMTSZ
 40
0.0
  9
$DIMTOL
 70
     0
  9
$DIMLIM
 70
     0
  9
$DIMTIH
 70
     0
  9
$DIMTOH
 70
     0
  9
$DIMSE1
 70
     0
  9
$DIMSE2
 70
     0
  9
$DIMTAD
 70
     1
  9
$DIMZIN
 70
     8
  9
$DIMBLK
  1

  9
$DIMASO
 70
     1
  9
$DIMSHO
 70
     1
  9
$DIMPOST
  1

  9
$DIMAPOST
  1

  9
$DIMALT
 70
     0
  9
$DIMALTD
 70
     3
  9
$DIMALTF
 40
0.0393700787
  9
$DIMLFAC
 40
1.0
  9
$DIMTOFL
 70
     1
  9
$DIMTVP
 40
0.0
  9
$DIMTIX
 70
     0
  9
$DIMSOXD
 70
     0
  9
$DIMSAH
 70
     0
  9
$DIMBLK1
  1

  9
$DIMBLK2
  1

  9
$DIMSTYLE
  2
ISO-25
  9
$DIMCLRD
 70
     0
  9
$DIMCLRE
 70
     0
  9
$DIMCLRT
 70
     0
  9
$DIMTFAC
 40
1.0
  9
$DIMGAP
 40
0.625
  9
$DIMJUST
 70
     0
  9
$DIMSD1
 70
     0
  9
$DIMSD2
 70
     0
  9
$DIMTOLJ
 70
     0
  9
$DIMTZIN
 70
     8
  9
$DIMALTZ
 70
     0
  9
$DIMALTTZ
 70
     0
  9
$DIMUPT
 70
     0
  9
$DIMDEC
 70
     2
  9
$DIMTDEC
 70
     2
  9
$DIMALTU
 70
     2
  9
$DIMALTTD
 70
     3
  9
$DIMTXSTY
  7
Standard
  9
$DIMAUNIT
 70
     0
  9
$DIMADEC
 70
     0
  9
$DIMALTRND
 40
0.0
  9
$DIMAZIN
 70
     0
  9
$DIMDSEP
 70
    44
  9
$DIMATFIT
 70
     3
  9
$DIMFRAC
 70
     0
  9
$DIMLDRBLK
  1

  9
$DIMLUNIT
 70
     2
  9
$DIMLWD
 70
    -2
  9
$DIMLWE
 70
    -2
  9
$DIMTMOVE
 70
     0
  9
$LUNITS
 70
     2
  9
$LUPREC
 70
     4
  9
$SKETCHINC
 40
1.0
  9
$FILLETRAD
 40
10.0
  9
$AUNITS
 70
     0
  9
$AUPREC
 70
     0
  9
$MENU
  1
.
  9
$ELEVATION
 40
0.0
  9
$PELEVATION
 40
0.0
  9
$THICKNESS
 40
0.0
  9
$LIMCHECK
 70
     0
  9
$CHAMFERA
 40
10.0
  9
$CHAMFERB
 40
10.0
  9
$CHAMFERC
 40
20.0
  9
$CHAMFERD
 40
0.0
  9
$SKPOLY
 70
     0
  9
$TDCREATE
 40
2456322.690930694
  9
$TDUCREATE
 40
2456322.649264028
  9
$TDUPDATE
 40
2456322.690931886
  9
$TDUUPDATE
 40
2456322.64926522
  9
$TDINDWG
 40
0.0000000116
  9
$TDUSRTIMER
 40
0.0000000116
  9
$USRTIMER
 70
     1
  9
$ANGBASE
 50
0.0
  9
$ANGDIR
 70
     0
  9
$PDMODE
 70
     0
  9
$PDSIZE
 40
0.0
  9
$PLINEWID
 40
0.0
  9
$SPLFRAME
 70
     0
  9
$SPLINETYPE
 70
     6
  9
$SPLINESEGS
 70
     8
  9
$HANDSEED
  5
474
  9
$SURFTAB1
 70
     6
  9
$SURFTAB2
 70
     6
  9
$SURFTYPE
 70
     6
  9
$SURFU
 70
     6
  9
$SURFV
 70
     6
  9
$UCSBASE
  2

  9
$UCSNAME
  2

  9
$UCSORG
 10
0.0
 20
0.0
 30
0.0
  9
$UCSXDIR
 10
1.0
 20
0.0
 30
0.0
  9
$UCSYDIR
 10
0.0
 20
1.0
 30
0.0
  9
$UCSORTHOREF
  2

  9
$UCSORTHOVIEW
 70
     0
  9
$UCSORGTOP
 10
0.0
 20
0.0
 30
0.0
  9
$UCSORGBOTTOM
 10
0.0
 20
0.0
 30
0.0
  9
$UCSORGLEFT
 10
0.0
 20
0.0
 30
0.0
  9
$UCSORGRIGHT
 10
0.0
 20
0.0
 30
0.0
  9
$UCSORGFRONT
 10
0.0
 20
0.0
 30
0.0
  9
$UCSORGBACK
 10
0.0
 20
0.0
 30
0.0
  9
$PUCSBASE
  2

  9
$PUCSNAME
  2

  9
$PUCSORG
 10
0.0
 20
0.0
 30
0.0
  9
$PUCSXDIR
 10
1.0
 20
0.0
 30
0.0
  9
$PUCSYDIR
 10
0.0
 20
1.0
 30
0.0
  9
$PUCSORTHOREF
  2

  9
$PUCSORTHOVIEW
 70
     0
  9
$PUCSORGTOP
 10
0.0
 20
0.0
 30
0.0
  9
$PUCSORGBOTTOM
 10
0.0
 20
0.0
 30
0.0
  9
$PUCSORGLEFT
 10
0.0
 20
0.0
 30
0.0
  9
$PUCSORGRIGHT
 10
0.0
 20
0.0
 30
0.0
  9
$PUCSORGFRONT
 10
0.0
 20
0.0
 30
0.0
  9
$PUCSORGBACK
 10
0.0
 20
0.0
 30
0.0
  9
$USERI1
 70
     0
  9
$USERI2
 70
     0
  9
$USERI3
 70
     0
  9
$USERI4
 70
     0
  9
$USERI5
 70
     0
  9
$USERR1
 40
0.0
  9
$USERR2
 40
0.0
  9
$USERR3
 40
0.0
  9
$USERR4
 40
0.0
  9
$USERR5
 40
0.0
  9
$WORLDVIEW
 70
     1
  9
$SHADEDGE
 70
     3
  9
$SHADEDIF
 70
    70
  9
$TILEMODE
 70
     1
  9
$MAXACTVP
 70
    64
  9
$PINSBASE
 10
0.0
 20
0.0
 30
0.0
  9
$PLIMCHECK
 70
     0
  9
$PEXTMIN
 10
0.0
 20
0.0
 30
0.0
  9
$PEXTMAX
 10
841.0
 20
594.0
 30
0.0
  9
$PLIMMIN
 10
0.0
 20
0.0
  9
$PLIMMAX
 10
841.0
 20
594.0
  9
$UNITMODE
 70
     0
  9
$VISRETAIN
 70
     1
  9
$PLINEGEN
 70
     0
  9
$PSLTSCALE
 70
     1
  9
$TREEDEPTH
 70
  3020
  9
$CMLSTYLE
  2
Standard
  9
$CMLJUST
 70
     0
  9
$CMLSCALE
 40
20.0
  9
$PROXYGRAPHICS
 70
     1
  9
$MEASUREMENT
 70
     1
  9
$CELWEIGHT
370
    -1
  9
$ENDCAPS
280
     0
  9
$JOINSTYLE
280
     0
  9
$LWDISPLAY
290
     0
  9
$INSUNITS
 70
     4
  9
$HYPERLINKBASE
  1

  9
$STYLESHEET
  1

  9
$XEDIT
290
     1
  9
$CEPSNTYPE
380
     0
  9
$PSTYLEMODE
290
     1
  9
$FINGERPRINTGUID
  2
{E0B624A5-A884-49B4-A58F-1DA537D304FB}
  9
$VERSIONGUID
  2
{FAEB1C32-E019-11D5-929B-00C0DF256EC4}
  9
$EXTNAMES
290
     1
  9
$PSVPSCALE
 40
0.0
  9
$OLESTARTUP
290
     0
  0
ENDSEC
  0
SECTION
  2
CLASSES
  0
CLASS
  1
ACDBDICTIONARYWDFLT
  2
AcDbDictionaryWithDefault
  3
ObjectDBX Classes
 90
        0
280
     0
281
     0
  0
CLASS
  1
VISUALSTYLE
  2
AcDbVisualStyle
  3
ObjectDBX Classes
 90
     4095
280
     0
281
     0
  0
CLASS
  1
MATERIAL
  2
AcDbMaterial
  3
ObjectDBX Classes
 90
     1153
280
     0
281
     0
  0
CLASS
  1
DICTIONARYVAR
  2
AcDbDictionaryVar
  3
ObjectDBX Classes
 90
        0
280
     0
281
     0
  0
CLASS
  1
ACDBPLACEHOLDER
  2
AcDbPlaceHolder
  3
ObjectDBX Classes
 90
        0
280
     0
281
     0
  0
CLASS
  1
LAYOUT
  2
AcDbLayout
  3
ObjectDBX Classes
 90
        0
280
     0
281
     0
  0
ENDSEC
  0
SECTION
  2
TABLES
  0
TABLE
  2
VPORT
  5
8
330
0
100
AcDbSymbolTable
 70
     1
  0
VPORT
  5
29
330
8
100
AcDbSymbolTableRecord
100
AcDbViewportTableRecord
  2
*Active
 70
     0
 10
0.0
 20
0.0
 11
1.0
 21
1.0
 12
344.1869158879
 22
148.5
 13
0.0
 23
0.0
 14
10.0
 24
10.0
 15
10.0
 25
10.0
 16
0.0
 26
0.0
 36
1.0
 17
0.0
 27
0.0
 37
0.0
 40
297.0
 41
1.9729729729
 42
50.0
 43
0.0
 44
0.0
 50
0.0
 51
0.0
 71
     0
 72
   100
 73
     1
 74
     3
 75
     0
 76
     0
 77
     0
 78
     0
281
     0
 65
     1
110
0.0
120
0.0
130
0.0
111
1.0
121
0.0
131
0.0
112
0.0
122
1.0
132
0.0
 79
     0
146
0.0
  0
ENDTAB
  0
TABLE
  2
LTYPE
  5
5
330
0
100
AcDbSymbolTable
 70
     1
  0
LTYPE
  5
14
330
5
100
AcDbSymbolTableRecord
100
AcDbLinetypeTableRecord
  2
ByBlock
 70
     0
  3

 72
    65
 73
     0
 40
0.0
  0
LTYPE
  5
15
330
5
100
AcDbSymbolTableRecord
100
AcDbLinetypeTableRecord
  2
ByLayer
 70
     0
  3

 72
    65
 73
     0
 40
0.0
  0
LTYPE
  5
16
330
5
100
AcDbSymbolTableRecord
100
AcDbLinetypeTableRecord
  2
Continuous
 70
     0
  3
Solid line
 72
    65
 73
     0
 40
0.0
  0
ENDTAB
  0
TABLE
  2
LAYER
  5
2
330
0
100
AcDbSymbolTable
 70
     3
  0
LAYER
  5
10
330
2
100
AcDbSymbolTableRecord
100
AcDbLayerTableRecord
  2
0
 70
     0
 62
     7
  6
Continuous
370
    -3
390
F
  0
LAYER
  5
3F
330
2
100
AcDbSymbolTableRecord
100
AcDbLayerTableRecord
  2
Default
 70
     0
 62
     7
  6
Continuous
370
    -3
390
F
  0
LAYER
  5
42
330
2
100
AcDbSymbolTableRecord
100
AcDbLayerTableRecord
  2
22202-001032_TA-
 70
     0
 62
     7
  6
Continuous
370
    -3
390
F
  0
ENDTAB
  0
TABLE
  2
STYLE
  5
3
330
0
100
AcDbSymbolTable
 70
     1
  0
STYLE
  5
11
330
3
100
AcDbSymbolTableRecord
100
AcDbTextStyleTableRecord
  2
Standard
 70
     0
 40
0.0
 41
1.0
 50
0.0
 71
     0
 42
2.5
  3
txt
  4

  0
ENDTAB
  0
TABLE
  2
VIEW
  5
6
330
0
100
AcDbSymbolTable
 70
     0
  0
ENDTAB
  0
TABLE
  2
UCS
  5
7
330
0
100
AcDbSymbolTable
 70
     0
  0
ENDTAB
  0
TABLE
  2
APPID
  5
9
330
0
100
AcDbSymbolTable
 70
     1
  0
APPID
  5
12
330
9
100
AcDbSymbolTableRecord
100
AcDbRegAppTableRecord
  2
ACAD
 70
     0
  0
ENDTAB
  0
TABLE
  2
DIMSTYLE
  5
A
330
0
100
AcDbSymbolTable
 70
     1
100
AcDbDimStyleTable
  0
DIMSTYLE
105
27
330
A
100
AcDbSymbolTableRecord
100
AcDbDimStyleTableRecord
  2
ISO-25
 70
     0
 41
2.5
 42
0.625
 43
3.75
 44
1.25
 73
     0
 74
     0
 77
     1
 78
     8
140
2.5
141
2.5
143
0.0393700787
147
0.625
171
     3
172
     1
178
     0
271
     2
272
     2
274
     3
278
    44
283
     0
284
     8
340
11
  0
ENDTAB
  0
TABLE
  2
BLOCK_RECORD
  5
1
330
0
100
AcDbSymbolTable
 70
     5
  0
BLOCK_RECORD
  5
1F
330
1
100
AcDbSymbolTableRecord
100
AcDbBlockTableRecord
  2
*Model_Space
340
22
  0
BLOCK_RECORD
  5
1B
330
1
100
AcDbSymbolTableRecord
100
AcDbBlockTableRecord
  2
*Paper_Space
340
1E
  0
BLOCK_RECORD
  5
40
330
1
100
AcDbSymbolTableRecord
100
AcDbBlockTableRecord
  2
SE
340
0
102
{BLKREFS
331
41
102
}
  0
BLOCK_RECORD
  5
179
330
1
100
AcDbSymbolTableRecord
100
AcDbBlockTableRecord
  2
SE1
340
0
102
{BLKREFS
331
17A
102
}
  0
BLOCK_RECORD
  5
2A6
330
1
100
AcDbSymbolTableRecord
100
AcDbBlockTableRecord
  2
SE2
340
0
102
{BLKREFS
331
2A7
102
}
  0
BLOCK_RECORD
  5
3A1
330
1
100
AcDbSymbolTableRecord
100
AcDbBlockTableRecord
  2
SE3
340
0
102
{BLKREFS
331
3A2
102
}
  0
ENDTAB
  0
ENDSEC
  0
SECTION
  2
BLOCKS
  0
BLOCK
  5
20
330
1F
100
AcDbEntity
  8
0
100
AcDbBlockBegin
  2
*Model_Space
 70
     0
 10
0.0
 20
0.0
 30
0.0
  3
*Model_Space
  1

  0
ENDBLK
  5
21
330
1F
100
AcDbEntity
  8
0
100
AcDbBlockEnd
  0
BLOCK
  5
1C
330
1B
100
AcDbEntity
 67
     1
  8
0
100
AcDbBlockBegin
  2
*Paper_Space
 70
     0
 10
0.0
 20
0.0
 30
0.0
  3
*Paper_Space
  1

  0
ENDBLK
  5
1D
330
1B
100
AcDbEntity
 67
     1
  8
0
100
AcDbBlockEnd
  0
BLOCK
  5
177
330
40
100
AcDbEntity
  8
0
100
AcDbBlockBegin
  2
SE
 70
     0
 10
0.0
 20
0.0
 30
0.0
  3
SE
  1

  0
LINE
  5
43
330
40
100
AcDbEntity
  8
22202-001032_TA-
  6
Continuous
 62
     7
100
AcDbLine
 10
263.7013209714
 20
421.6432521771
 30
0.0
 11
266.8804522249
 21
419.807779892
 31
0.0
  0
LINE
  5
44
330
40
100
AcDbEntity
  8
22202-001032_TA-
  6
Continuous
 62
     7
100
AcDbLine
 10
272.557705892
 20
447.4511483388
 30
0.0
 11
275.4610186214
 21
445.7749199529
 31
0.0
  0
LINE
  5
45
330
40
100
AcDbEntity
  8
22202-001032_TA-
  6
Continuous
 62
     7
100
AcDbLine
 10
263.7013209714
 20
421.6432521771
 30
0.0
 11
261.3925252918
 21
422.9762359841
 31
0.0
  0
LINE
  5
46
330
40
100
AcDbEntity
  8
22202-001032_TA-
  6
Continuous
 62
     7
100
AcDbLine
 10
261.3925252918
 20
422.9762359841
 30
0.0
 11
245.1958095741
 21
432.3274141637
 31
0.0
  0
LINE
  5
47
330
40
100
AcDbEntity
  8
22202-001032_TA-
  6
Continuous
 62
     7
100
AcDbLine
 10
249.1172502108
 20
464.6875286036
 30
0.0
 11
261.5506406808
 21
457.5091072688
 31
0.0
  0
LINE
  5
48
330
40
100
AcDbEntity
  8
22202-001032_TA-
  6
Continuous
 62
     7
100
AcDbLine
 10
255.2920731888
 20
456.0840971983
 30
0.0
 11
269.5733448213
 21
447.8388011769
 31
0.0
  0
LINE
  5
49
330
40
100
AcDbEntity
  8
22202-001032_TA-
  6
Continuous
 62
     7
100
AcDbLine
 10
261.00333692
 20
456.561149348
 30
0.0
 11
261.5506406808
 21
457.5091072688
 31
0.0
  0
ELLIPSE
  5
4A
330
40
100
AcDbEntity
  8
22202-001032_TA-
  6
Continuous
 62
     7
100
AcDbEllipse
 10
208.2862494165
 20
385.0479466776
 30
0.0
 11
44.9999999984673
 21
77.94228634057839
 31
0.0
210
0.0
220
0.0
230
1.0
 40
0.9426414911
 41
5.990729472020572
 42
6.166252345702984
  0
ELLIPSE
  5
4B
330
40
100
AcDbEntity
  8
22202-001032_TA-
  6
Continuous
 62
     7
100
AcDbEllipse
 10
178.8891940205
 20
462.8460420037
 30
0.0
 11
50.00000000023132
 21
86.6025403783361
 31
0.0
210
0.0
220
0.0
230
1.0
 40
0.9426414911
 41
4.779673745726871
 42
5.054014237062923
  0
LINE
  5
4C
330
40
100
AcDbEntity
  8
22202-001032_TA-
  6
Continuous
 62
     7
100
AcDbLine
 10
269.5733448213
 20
447.8388011769
 30
0.0
 11
261.00333692
 21
456.561149348
 31
0.0
  0
LINE
  5
4D
330
40
100
AcDbEntity
  8
22202-001032_TA-
  6
Continuous
 62
     7
100
AcDbLine
 10
252.237528411
 20
461.6220912503
 30
0.0
 11
261.00333692
 21
456.561149348
 31
0.0
  0
ELLIPSE
  5
4E
330
40
100
AcDbEntity
  8
22202-001032_TA-
  6
Continuous
 62
     7
100
AcDbEllipse
 10
198.888919409
 20
390.473497685
 30
0.0
 11
45.00000000071436
 21
77.94228634141498
 31
0.0
210
0.0
220
0.0
230
1.0
 40
0.608761429
 41
5.990729472038817
 42
6.166252345719385
  0
ELLIPSE
  5
4F
330
40
100
AcDbEntity
  8
22202-001032_TA-
  6
Continuous
 62
     7
100
AcDbEllipse
 10
189.2331166172
 20
456.873975508
 30
0.0
 11
49.99999999995315
 21
86.60254037841091
 31
0.0
210
0.0
220
0.0
230
1.0
 40
0.608761429
 41
4.779673745724096
 42
5.054014237060327
  0
LINE
  5
50
330
40
100
AcDbEntity
  8
22202-001032_TA-
  6
Continuous
 62
     7
100
AcDbLine
 10
261.3925252918
 20
422.9762359841
 30
0.0
 11
269.5733448213
 21
447.8388011769
 31
0.0
  0
LINE
  5
51
330
40
100
AcDbEntity
  8
22202-001032_TA-
  6
Continuous
 62
     7
100
AcDbLine
 10
210.0039526401
 20
452.6454422379
 30
0.0
 11
245.1958095741
 21
432.3274141637
 31
0.0
  0
LINE
  5
52
330
40
100
AcDbEntity
  8
22202-001032_TA-
  6
Continuous
 62
     7
100
AcDbLine
 10
223.5190721983
 20
475.7636167025
 30
0.0
 11
255.6577157636
 21
457.2083621887
 31
0.0
  0
LINE
  5
53
330
40
100
AcDbEntity
  8
22202-001032_TA-
  6
Continuous
 62
     7
100
AcDbLine
 10
204.8077691966
 20
489.0056755003
 30
0.0
 11
224.7677103019
 21
477.4817981302
 31
0.0
  0
LINE
  5
54
330
40
100
AcDbEntity
  8
22202-001032_TA-
  6
Continuous
 62
     7
100
AcDbLine
 10
197.041856248
 20
489.7148756294
 30
0.0
 11
204.8077691966
 21
489.0056755003
 31
0.0
  0
LINE
  5
55
330
40
100
AcDbEntity
  8
22202-001032_TA-
  6
Continuous
 62
     7
100
AcDbLine
 10
197.041856248
 20
489.7148756294
 30
0.0
 11
223.0076582215
 21
474.7235128703
 31
0.0
  0
ELLIPSE
  5
56
330
40
100
AcDbEntity
  8
22202-001032_TA-
  6
Continuous
 62
     7
100
AcDbEllipse
 10
208.9041128053
 20
445.5169205636
 30
0.0
 11
50.0000000000049
 21
86.6025403784638
 31
0.0
210
0.0
220
0.0
230
1.0
 40
0.0261769483
 41
1.229171070118849
 42
1.503511561455069
  0
ELLIPSE
  5
57
330
40
100
AcDbEntity
  8
22202-001032_TA-
  6
Continuous
 62
     7
100
AcDbEllipse
 10
181.0180545598
 20
400.7912463162
 30
0.0
 11
45.0000000005446
 21
77.94228634156418
 31
0.0
210
0.0
220
0.0
230
1.0
 40
0.0261769483
 41
0.1169329614616241
 42
0.2924558351421395
  0
ELLIPSE
  5
58
330
40
100
AcDbEntity
  8
22202-001032_TA-
  6
Continuous
 62
     7
100
AcDbEllipse
 10
165.812855206
 20
409.5699722562
 30
0.0
 11
45.00000000038789
 21
77.94228634166389
 31
0.0
210
0.0
220
0.0
230
1.0
 40
0.5664062369
 41
0.1169329614604308
 42
0.2924558351409415
  0
ELLIPSE
  5
59
330
40
100
AcDbEntity
  8
22202-001032_TA-
  6
Continuous
 62
     7
100
AcDbEllipse
 10
225.6409311435
 20
435.8539139907
 30
0.0
 11
49.99999999998455
 21
86.6025403784077
 31
0.0
210
0.0
220
0.0
230
1.0
 40
0.5664062369
 41
1.229171070119181
 42
1.50351156145538
  0
LINE
  5
5A
330
40
100
AcDbEntity
  8
22202-001032_TA-
  6
Continuous
 62
     7
100
AcDbLine
 10
180.0614062203
 20
469.9327794736
 30
0.0
 11
181.4486953276
 21
469.131827734
 31
0.0
  0
LINE
  5
5B
330
40
100
AcDbEntity
  8
22202-001032_TA-
  6
Continuous
 62
     7
100
AcDbLine
 10
181.4486953276
 20
469.131827734
 30
0.0
 11
197.041856248
 21
489.7148756294
 31
0.0
  0
LINE
  5
5C
330
40
100
AcDbEntity
  8
22202-001032_TA-
  6
Continuous
 62
     7
100
AcDbLine
 10
204.8077691966
 20
489.0056755003
 30
0.0
 11
205.3550729574
 21
489.9536334212
 31
0.0
  0
LINE
  5
5D
330
40
100
AcDbEntity
  8
22202-001032_TA-
  6
Continuous
 62
     7
100
AcDbLine
 10
210.0680673918
 20
452.6084255687
 30
0.0
 11
181.4486953276
 21
469.131827734
 31
0.0
  0
LINE
  5
5E
330
40
100
AcDbEntity
  8
22202-001032_TA-
  6
Continuous
 62
     7
100
AcDbLine
 10
205.3550729574
 20
489.9536334212
 30
0.0
 11
225.4727213332
 21
478.3387037159
 31
0.0
  0
LINE
  5
5F
330
40
100
AcDbEntity
  8
22202-001032_TA-
  6
Continuous
 62
     7
100
AcDbLine
 10
158.3116425078
 20
482.4900114078
 30
0.0
 11
180.0614062203
 21
469.9327794736
 31
0.0
  0
LINE
  5
60
330
40
100
AcDbEntity
  8
22202-001032_TA-
  6
Continuous
 62
     7
100
AcDbLine
 10
176.3115396853
 20
503.0188983067
 30
0.0
 11
196.174313761
 21
491.5511203472
 31
0.0
  0
ELLIPSE
  5
61
330
40
100
AcDbEntity
  8
22202-001032_TA-
  6
Continuous
 62
     7
100
AcDbEllipse
 10
237.7982753804
 20
428.8348680228
 30
0.0
 11
50.00000000008431
 21
86.60254037841112
 31
0.0
210
0.0
220
0.0
230
1.0
 40
0.9588197349
 41
1.229171070120014
 42
1.503511561456063
  0
ELLIPSE
  5
62
330
40
100
AcDbEntity
  8
22202-001032_TA-
  6
Continuous
 62
     7
100
AcDbEllipse
 10
154.7680533209
 20
415.9466915978
 30
0.0
 11
44.99999999830287
 21
77.94228634278321
 31
0.0
210
0.0
220
0.0
230
1.0
 40
0.9588197349
 41
0.1169329614344592
 42
0.2924558351150375
  0
LINE
  5
63
330
40
100
AcDbEntity
  8
22202-001032_TA-
  6
Continuous
 62
     7
100
AcDbLine
 10
190.7419504631
 20
498.390523627
 30
0.0
 11
189.2084347663
 21
499.2758993273
 31
0.0
  0
ARC
  5
64
330
40
100
AcDbEntity
  8
22202-001032_TA-
  6
Continuous
 62
     7
100
AcDbCircle
 10
46.8785691537
 20
468.8744723367
 30
0.0
 40
110.586649770507
100
AcDbArc
 50
345.3682838502
 51
345.7463432228
  0
LINE
  5
65
330
40
100
AcDbEntity
  8
22202-001032_TA-
  6
Continuous
 62
     7
100
AcDbLine
 10
153.8788373536
 20
440.9397320907
 30
0.0
 11
154.220122516
 21
440.7426910103
 31
0.0
  0
LINE
  5
66
330
40
100
AcDbEntity
  8
22202-001032_TA-
  6
Continuous
 62
     7
100
AcDbLine
 10
178.3322294022
 20
435.305486666
 30
0.0
 11
175.1591968464
 21
428.6535108091
 31
0.0
  0
LINE
  5
67
330
40
100
AcDbEntity
  8
22202-001032_TA-
  6
Continuous
 62
     7
100
AcDbLine
 10
175.1591968464
 20
428.6535108091
 30
0.0
 11
229.9072896841
 21
397.0446846717
 31
0.0
  0
LINE
  5
68
330
40
100
AcDbEntity
  8
22202-001032_TA-
  6
Continuous
 62
     7
100
AcDbLine
 10
175.1591968464
 20
428.6535108091
 30
0.0
 11
173.3415644062
 21
429.7029213877
 31
0.0
  0
LINE
  5
69
330
40
100
AcDbEntity
  8
22202-001032_TA-
  6
Continuous
 62
     7
100
AcDbLine
 10
156.8999311212
 20
472.1044681346
 30
0.0
 11
161.7169833518
 21
469.3233417325
 31
0.0
  0
LINE
  5
6A
330
40
100
AcDbEntity
  8
22202-001032_TA-
  6
Continuous
 62
     7
100
AcDbLine
 10
184.4266108162
 20
456.2119322028
 30
0.0
 11
256.3097216442
 21
414.710198816
 31
0.0
  0
LINE
  5
6B
330
40
100
AcDbEntity
  8
22202-001032_TA-
  6
Continuous
 62
     7
100
AcDbLine
 10
152.31295659
 20
452.2360986165
 30
0.0
 11
156.5875522537
 21
449.7681596595
 31
0.0
  0
LINE
  5
6C
330
40
100
AcDbEntity
  8
22202-001032_TA-
  6
Continuous
 62
     7
100
AcDbLine
 10
176.9803414894
 20
437.9943773047
 30
0.0
 11
241.3966961755
 21
400.8035775865
 31
0.0
  0
LINE
  5
6D
330
40
100
AcDbEntity
  8
22202-001032_TA-
  6
Continuous
 62
     7
100
AcDbLine
 10
161.7169833518
 20
469.3233417325
 30
0.0
 11
184.2245734223
 21
456.3285785465
 31
0.0
  0
LINE
  5
6E
330
40
100
AcDbEntity
  8
22202-001032_TA-
  6
Continuous
 62
     7
100
AcDbLine
 10
184.2245734223
 20
456.3285785465
 30
0.0
 11
184.4266108162
 21
456.2119322028
 31
0.0
  0
LINE
  5
6F
330
40
100
AcDbEntity
  8
22202-001032_TA-
  6
Continuous
 62
     7
100
AcDbLine
 10
154.220122516
 20
440.7426910103
 30
0.0
 11
161.7169833518
 21
469.3233417325
 31
0.0
  0
LINE
  5
70
330
40
100
AcDbEntity
  8
22202-001032_TA-
  6
Continuous
 62
     7
100
AcDbLine
 10
176.9803414894
 20
437.9943773047
 30
0.0
 11
184.4266108162
 21
456.2119322028
 31
0.0
  0
LINE
  5
71
330
40
100
AcDbEntity
  8
22202-001032_TA-
  6
Continuous
 62
     7
100
AcDbLine
 10
154.220122516
 20
440.7426910103
 30
0.0
 11
173.3415644062
 21
429.7029213877
 31
0.0
  0
LINE
  5
72
330
40
100
AcDbEntity
  8
22202-001032_TA-
  6
Continuous
 62
     7
100
AcDbLine
 10
173.3415644062
 20
429.7029213877
 30
0.0
 11
184.2245734223
 21
456.3285785465
 31
0.0
  0
ELLIPSE
  5
73
330
40
100
AcDbEntity
  8
22202-001032_TA-
  6
Continuous
 62
     7
100
AcDbEllipse
 10
177.3974850769
 20
435.4441382654
 30
0.0
 11
0.9999999999999072
 21
1.732050807568927
 31
0.0
210
0.0
220
0.0
230
1.0
 40
0.4461978131
 41
4.886921905584124
 42
6.283185307179586
  0
LINE
  5
74
330
40
100
AcDbEntity
  8
22202-001032_TA-
  6
Continuous
 62
     7
100
AcDbLine
 10
198.0883855064
 20
494.8564251777
 30
0.0
 11
255.4192672369
 21
461.7564251778
 31
0.0
  0
LINE
  5
75
330
40
100
AcDbEntity
  8
22202-001032_TA-
  6
Continuous
 62
     7
100
AcDbLine
 10
197.3099626541
 20
495.3081572478
 30
0.0
 11
256.1996901114
 21
461.3081572478
 31
0.0
  0
LINE
  5
76
330
40
100
AcDbEntity
  8
22202-001032_TA-
  6
Continuous
 62
     7
100
AcDbLine
 10
198.4099626541
 20
497.2134131361
 30
0.0
 11
257.2996901114
 21
463.2134131361
 31
0.0
  0
LINE
  5
77
330
40
100
AcDbEntity
  8
22202-001032_TA-
  6
Continuous
 62
     7
100
AcDbLine
 10
204.3920134616
 20
503.5746290683
 30
0.0
 11
259.8176393038
 21
471.5746290683
 31
0.0
  0
LINE
  5
78
330
40
100
AcDbEntity
  8
22202-001032_TA-
  6
Continuous
 62
     7
100
AcDbLine
 10
238.8945723449
 20
519.3348140452
 30
0.0
 11
256.2150804206
 21
509.3348140452
 31
0.0
  0
LINE
  5
79
330
40
100
AcDbEntity
  8
22202-001032_TA-
  6
Continuous
 62
     7
100
AcDbLine
 10
257.1510133359
 20
539.855897407
 30
0.0
 11
264.8586394296
 21
535.405897407
 31
0.0
  0
LINE
  5
7A
330
40
100
AcDbEntity
  8
22202-001032_TA-
  6
Continuous
 62
     7
100
AcDbLine
 10
260.2385133359
 20
545.2036042754
 30
0.0
 11
267.9461394296
 21
540.7536042754
 31
0.0
  0
LINE
  5
7B
330
40
100
AcDbEntity
  8
22202-001032_TA-
  6
Continuous
 62
     7
100
AcDbLine
 10
268.6386893748
 20
557.7031359673
 30
0.0
 11
274.5709633907
 21
554.2781359673
 31
0.0
  0
LINE
  5
7C
330
40
100
AcDbEntity
  8
22202-001032_TA-
  6
Continuous
 62
     7
100
AcDbLine
 10
258.2862235909
 20
422.9221392459
 30
0.0
 11
163.0234291746
 21
477.9221392459
 31
0.0
  0
SPLINE
  5
7D
330
40
100
AcDbEntity
  8
22202-001032_TA-
  6
Continuous
 62
     7
100
AcDbSpline
210
0.0
220
0.0
230
1.0
 70
     8
 71
     3
 72
    12
 73
     8
 74
     0
 42
0.0000000072974482
 43
0.0000000001
 12
1.0
 22
0.0
 32
0.0
 13
1.0
 23
0.0
 33
0.0
 40
0.4999999999999999
 40
0.4999999999999999
 40
0.4999999999999999
 40
0.4999999999999999
 40
0.6249999999999996
 40
0.6249999999999996
 40
0.7499999999999991
 40
0.7499999999999991
 40
1.0
 40
1.0
 40
1.0
 40
1.0
 10
155.6335052279129
 20
438.9224155078091
 30
0.0
 10
155.6335069368983
 20
438.9224195594012
 30
0.0
 10
155.6277678349521
 20
438.9088169906515
 30
0.0
 10
155.6045902389589
 20
438.8540227271472
 30
0.0
 10
155.5870281239222
 20
438.8125421385278
 30
0.0
 10
155.5184614361143
 20
438.6512644228488
 30
0.0
 10
155.4515413639907
 20
438.4944493658319
 30
0.0
 10
155.3639947022093
 20
438.2924902612214
 30
0.0
  0
LINE
  5
7E
330
40
100
AcDbEntity
  8
22202-001032_TA-
  6
Continuous
 62
     7
100
AcDbLine
 10
155.3639947022
 20
438.2924902612
 30
0.0
 11
226.8176966362
 21
397.038676215
 31
0.0
  0
LINE
  5
7F
330
40
100
AcDbEntity
  8
22202-001032_TA-
  6
Continuous
 62
     7
100
AcDbLine
 10
125.7594285627
 20
456.4869741423
 30
0.0
 11
125.8368771903
 21
456.5316891283
 31
0.0
  0
LINE
  5
80
330
40
100
AcDbEntity
  8
22202-001032_TA-
  6
Continuous
 62
     7
100
AcDbLine
 10
125.7594285627
 20
456.4869741423
 30
0.0
 11
121.4891541106
 21
454.0215300378
 31
0.0
  0
LINE
  5
81
330
40
100
AcDbEntity
  8
22202-001032_TA-
  6
Continuous
 62
     7
100
AcDbLine
 10
121.4891541106
 20
454.0215300378
 30
0.0
 11
118.3135136007
 21
452.1880731346
 31
0.0
  0
LINE
  5
82
330
40
100
AcDbEntity
  8
22202-001032_TA-
  6
Continuous
 62
     7
100
AcDbLine
 10
118.3135136007
 20
452.1880731346
 30
0.0
 11
109.1553024694
 21
446.9005774727
 31
0.0
  0
LINE
  5
83
330
40
100
AcDbEntity
  8
22202-001032_TA-
  6
Continuous
 62
     7
100
AcDbLine
 10
109.1553024694
 20
446.9005774727
 30
0.0
 11
105.8335938733
 21
444.9827881205
 31
0.0
  0
LINE
  5
84
330
40
100
AcDbEntity
  8
22202-001032_TA-
  6
Continuous
 62
     7
100
AcDbLine
 10
105.8335938733
 20
444.9827881205
 30
0.0
 11
100.9456571943
 21
442.1607365631
 31
0.0
  0
LINE
  5
85
330
40
100
AcDbEntity
  8
22202-001032_TA-
  6
Continuous
 62
     7
100
AcDbLine
 10
100.9456571943
 20
442.1607365631
 30
0.0
 11
100.7221404805
 21
442.0316891283
 31
0.0
  0
LINE
  5
86
330
40
100
AcDbEntity
  8
22202-001032_TA-
  6
Continuous
 62
     7
100
AcDbLine
 10
96.4456571942
 20
449.9549651971
 30
0.0
 11
101.3335938733
 21
452.7770167546
 31
0.0
  0
LINE
  5
87
330
40
100
AcDbEntity
  8
22202-001032_TA-
  6
Continuous
 62
     7
100
AcDbLine
 10
104.6553024694
 20
454.6948061067
 30
0.0
 11
113.8135136006
 21
459.9823017686
 31
0.0
  0
LINE
  5
88
330
40
100
AcDbEntity
  8
22202-001032_TA-
  6
Continuous
 62
     7
100
AcDbLine
 10
116.9891541106
 20
461.8157586719
 30
0.0
 11
121.2594285627
 21
464.2812027764
 31
0.0
  0
LINE
  5
89
330
40
100
AcDbEntity
  8
22202-001032_TA-
  6
Continuous
 62
     7
100
AcDbLine
 10
121.2594285627
 20
464.2812027764
 30
0.0
 11
121.3368771903
 21
464.3259177623
 31
0.0
  0
LINE
  5
8A
330
40
100
AcDbEntity
  8
22202-001032_TA-
  6
Continuous
 62
     7
100
AcDbLine
 10
121.2594285627
 20
464.2812027764
 30
0.0
 11
125.7594285627
 21
456.4869741423
 31
0.0
  0
LINE
  5
8B
330
40
100
AcDbEntity
  8
22202-001032_TA-
  6
Continuous
 62
     7
100
AcDbLine
 10
121.4891541106
 20
454.0215300378
 30
0.0
 11
116.9891541106
 21
461.8157586719
 31
0.0
  0
LINE
  5
8C
330
40
100
AcDbEntity
  8
22202-001032_TA-
  6
Continuous
 62
     7
100
AcDbLine
 10
116.9891541106
 20
461.8157586719
 30
0.0
 11
113.8135136006
 21
459.9823017686
 31
0.0
  0
LINE
  5
8D
330
40
100
AcDbEntity
  8
22202-001032_TA-
  6
Continuous
 62
     7
100
AcDbLine
 10
113.8135136006
 20
459.9823017686
 30
0.0
 11
118.3135136007
 21
452.1880731346
 31
0.0
  0
LINE
  5
8E
330
40
100
AcDbEntity
  8
22202-001032_TA-
  6
Continuous
 62
     7
100
AcDbLine
 10
109.1553024694
 20
446.9005774727
 30
0.0
 11
104.6553024694
 21
454.6948061067
 31
0.0
  0
LINE
  5
8F
330
40
100
AcDbEntity
  8
22202-001032_TA-
  6
Continuous
 62
     7
100
AcDbLine
 10
104.6553024694
 20
454.6948061067
 30
0.0
 11
101.3335938733
 21
452.7770167546
 31
0.0
  0
LINE
  5
90
330
40
100
AcDbEntity
  8
22202-001032_TA-
  6
Continuous
 62
     7
100
AcDbLine
 10
101.3335938733
 20
452.7770167546
 30
0.0
 11
105.8335938733
 21
444.9827881205
 31
0.0
  0
LINE
  5
91
330
40
100
AcDbEntity
  8
22202-001032_TA-
  6
Continuous
 62
     7
100
AcDbLine
 10
100.9456571943
 20
442.1607365631
 30
0.0
 11
96.4456571942
 21
449.9549651971
 31
0.0
  0
LINE
  5
92
330
40
100
AcDbEntity
  8
22202-001032_TA-
  6
Continuous
 62
     7
100
AcDbLine
 10
96.4456571942
 20
449.9549651971
 30
0.0
 11
96.2221404805
 21
449.8259177623
 31
0.0
  0
LINE
  5
93
330
40
100
AcDbEntity
  8
22202-001032_TA-
  6
Continuous
 62
     7
100
AcDbLine
 10
95.9692547976
 20
459.2639286137
 30
0.0
 11
113.2897628732
 21
469.2639286137
 31
0.0
  0
LINE
  5
94
330
40
100
AcDbEntity
  8
22202-001032_TA-
  6
Continuous
 62
     7
100
AcDbLine
 10
98.1405360897
 20
461.9031590982
 30
0.0
 11
109.9184815811
 21
468.7031590983
 31
0.0
  0
LINE
  5
95
330
40
100
AcDbEntity
  8
22202-001032_TA-
  6
Continuous
 62
     7
100
AcDbLine
 10
98.9788046801
 20
465.8512353097
 30
0.0
 11
106.0802129907
 21
469.9512353095
 31
0.0
  0
LINE
  5
96
330
40
100
AcDbEntity
  8
22202-001032_TA-
  6
Continuous
 62
     7
100
AcDbLine
 10
97.9395741953
 20
465.8512353097
 30
0.0
 11
106.5998282331
 21
470.8512353097
 31
0.0
  0
LINE
  5
97
330
40
100
AcDbEntity
  8
22202-001032_TA-
  6
Continuous
 62
     7
100
AcDbLine
 10
90.750824658
 20
473.8025147512
 30
0.0
 11
103.3081930128
 21
481.0525147512
 31
0.0
  0
LINE
  5
98
330
40
100
AcDbEntity
  8
22202-001032_TA-
  6
Continuous
 62
     7
100
AcDbLine
 10
95.750824658
 20
465.1422607134
 30
0.0
 11
108.3081930129
 21
472.3922607134
 31
0.0
  0
LINE
  5
99
330
40
100
AcDbEntity
  8
22202-001032_TA-
  6
Continuous
 62
     7
100
AcDbLine
 10
96.9548263827
 20
423.1942122593
 30
0.0
 11
108.7548263827
 21
423.1942122593
 31
0.0
  0
LINE
  5
9A
330
40
100
AcDbEntity
  8
22202-001032_TA-
  6
Continuous
 62
     7
100
AcDbLine
 10
96.9548263827
 20
430.1770549718
 30
0.0
 11
108.7548263827
 21
430.1770549718
 31
0.0
  0
LINE
  5
9B
330
40
100
AcDbEntity
  8
22202-001032_TA-
  6
Continuous
 62
     7
100
AcDbLine
 10
109.8545598442
 20
423.0942122593
 30
0.0
 11
109.8713461727
 21
423.0942122593
 31
0.0
  0
LINE
  5
9C
330
40
100
AcDbEntity
  8
22202-001032_TA-
  6
Continuous
 62
     7
100
AcDbLine
 10
95.8383065928
 20
423.0942122593
 30
0.0
 11
95.8550929213
 21
423.0942122593
 31
0.0
  0
LINE
  5
9D
330
40
100
AcDbEntity
  8
22202-001032_TA-
  6
Continuous
 62
     7
100
AcDbLine
 10
95.8550929213
 20
423.0942122593
 30
0.0
 11
109.8545598442
 21
423.0942122593
 31
0.0
  0
LINE
  5
9E
330
40
100
AcDbEntity
  8
22202-001032_TA-
  6
Continuous
 62
     7
100
AcDbLine
 10
112.9545686439
 20
486.0445020494
 30
0.0
 11
124.9057192162
 21
492.9445020494
 31
0.0
  0
LINE
  5
9F
330
40
100
AcDbEntity
  8
22202-001032_TA-
  6
Continuous
 62
     7
100
AcDbLine
 10
117.4545686439
 20
478.2502734153
 30
0.0
 11
129.4057192162
 21
485.1502734153
 31
0.0
  0
LINE
  5
A0
330
40
100
AcDbEntity
  8
22202-001032_TA-
  6
Continuous
 62
     7
100
AcDbLine
 10
130.1262963528
 20
482.102197204
 30
0.0
 11
119.7339915073
 21
476.102197204
 31
0.0
  0
LINE
  5
A1
330
40
100
AcDbEntity
  8
22202-001032_TA-
  6
Continuous
 62
     7
100
AcDbLine
 10
70.6866271969
 20
409.0942122593
 30
0.0
 11
70.6866271969
 21
333.0942122593
 31
0.0
  0
LINE
  5
A2
330
40
100
AcDbEntity
  8
22202-001032_TA-
  6
Continuous
 62
     7
100
AcDbLine
 10
85.2548263827
 20
431.8942122593
 30
0.0
 11
85.2548263827
 21
310.2942122593
 31
0.0
  0
LINE
  5
A3
330
40
100
AcDbEntity
  8
22202-001032_TA-
  6
Continuous
 62
     7
100
AcDbLine
 10
84.8957845487
 20
425.043285948
 30
0.0
 11
84.8957845487
 21
317.1451385706
 31
0.0
  0
LINE
  5
A4
330
40
100
AcDbEntity
  8
22202-001032_TA-
  6
Continuous
 62
     7
100
AcDbLine
 10
79.3548263827
 20
421.8442122593
 30
0.0
 11
79.3548263827
 21
320.3442122593
 31
0.0
  0
LINE
  5
A5
330
40
100
AcDbEntity
  8
22202-001032_TA-
  6
Continuous
 62
     7
100
AcDbLine
 10
71.3548263827
 20
421.8442122593
 30
0.0
 11
71.3548263827
 21
320.3442122593
 31
0.0
  0
ARC
  5
A6
330
40
100
AcDbEntity
  8
22202-001032_TA-
  6
Continuous
 62
     7
100
AcDbCircle
 10
171.6383425581
 20
384.4469697208
 30
0.0
 40
108.4139693735846
100
AcDbArc
 50
173.6283727344
 51
186.3716272656
  0
ARC
  5
A7
330
40
100
AcDbEntity
  8
22202-001032_TA-
  6
Continuous
 62
     7
100
AcDbCircle
 10
183.8298933862
 20
359.7234367509
 30
0.0
 40
120.6055415483025
100
AcDbArc
 50
173.9592114438
 51
186.0407885562
  0
SPLINE
  5
A8
330
40
100
AcDbEntity
  8
22202-001032_TA-
  6
Continuous
 62
     7
100
AcDbSpline
210
0.0
220
0.0
230
1.0
 70
     8
 71
     3
 72
    11
 73
     7
 74
     0
 42
0.0000000051275794
 43
0.0000000001
 12
1.0
 22
0.0
 32
0.0
 13
1.0
 23
0.0
 33
0.0
 40
0.0
 40
0.0
 40
0.0
 40
0.0
 40
0.25
 40
0.25
 40
0.5
 40
0.5400757066332053
 40
0.5400757066332053
 40
0.5400757066332053
 40
0.5400757066332053
 10
63.89404665672471
 20
347.0313399404286
 30
0.0
 10
63.6840791453088
 20
346.9212298319256
 30
0.0
 10
63.51358717407593
 20
346.8111197234225
 30
0.0
 10
63.28064913450926
 20
346.5908995064164
 30
0.0
 10
63.20902366512382
 20
346.4631384362905
 30
0.0
 10
63.22050543031804
 20
346.3353773661646
 30
0.0
 10
63.22364918261932
 20
346.3177264045416
 30
0.0
  0
LINE
  5
A9
330
40
100
AcDbEntity
  8
22202-001032_TA-
  6
Continuous
 62
     7
100
AcDbLine
 10
65.5552516497
 20
409.0942122593
 30
0.0
 11
65.5552516497
 21
333.0942122593
 31
0.0
  0
LINE
  5
AA
330
40
100
AcDbEntity
  8
22202-001032_TA-
  6
Continuous
 62
     7
100
AcDbLine
 10
44.2033723577
 20
396.4784058802
 30
0.0
 11
63.8940466567
 21
396.4784058802
 31
0.0
  0
LINE
  5
AB
330
40
100
AcDbEntity
  8
22202-001032_TA-
  6
Continuous
 62
     7
100
AcDbLine
 10
44.2033723577
 20
372.4155335613
 30
0.0
 11
63.8940466567
 21
372.4155335613
 31
0.0
  0
LINE
  5
AC
330
40
100
AcDbEntity
  8
22202-001032_TA-
  6
Continuous
 62
     7
100
AcDbLine
 10
44.2033723577
 20
347.0313399404
 30
0.0
 11
63.8940466567
 21
347.0313399404
 31
0.0
  0
LINE
  5
AD
330
40
100
AcDbEntity
  8
22202-001032_TA-
  6
Continuous
 62
     7
100
AcDbLine
 10
44.2033723577
 20
345.7100186384
 30
0.0
 11
63.3307446016
 21
345.7100186384
 31
0.0
  0
SPLINE
  5
AE
330
40
100
AcDbEntity
  8
22202-001032_TA-
  6
Continuous
 62
     7
100
AcDbSpline
210
0.0
220
0.0
230
1.0
 70
     8
 71
     3
 72
    10
 73
     6
 74
     0
 42
0.0000000029637699
 43
0.0000000001
 12
1.0
 22
0.0
 32
0.0
 13
1.0
 23
0.0
 33
0.0
 40
0.0
 40
0.0
 40
0.0
 40
0.0
 40
0.25
 40
0.25
 40
0.4606067343833155
 40
0.4606067343833155
 40
0.4606067343833155
 40
0.4606067343833155
 10
44.2033723576512
 20
396.4784058801823
 30
0.0
 10
43.77175508384656
 20
396.3687512915874
 30
0.0
 10
43.41995370675758
 20
396.2588180411822
 30
0.0
 10
42.97668911902561
 20
396.0562520940757
 30
0.0
 10
42.85372370277185
 20
395.9635537829092
 30
0.0
 10
42.81957365524294
 20
395.8707690802958
 30
0.0
  0
SPLINE
  5
AF
330
40
100
AcDbEntity
  8
22202-001032_TA-
  6
Continuous
 62
     7
100
AcDbSpline
210
0.0
220
0.0
230
1.0
 70
     8
 71
     3
 72
    14
 73
    10
 74
     0
 42
0.0000000030800896
 43
0.0000000001
 12
1.0
 22
0.0
 32
0.0
 13
1.0
 23
0.0
 33
0.0
 40
0.0
 40
0.0
 40
0.0
 40
0.0
 40
0.2500000000000001
 40
0.2500000000000001
 40
0.5
 40
0.5
 40
0.75
 40
0.75
 40
1.0
 40
1.0
 40
1.0
 40
1.0
 10
44.2033723576512
 20
345.7100186383919
 30
0.0
 10
43.77218926349033
 20
345.819562921415
 30
0.0
 10
43.4175981833538
 20
345.9303208437007
 30
0.0
 10
42.93596731077631
 20
346.1511477171429
 30
0.0
 10
42.80907253674315
 20
346.261450342316
 30
0.0
 10
42.81051201731329
 20
346.4818073293257
 30
0.0
 10
42.93877903535964
 20
346.5918617565638
 30
0.0
 10
43.41995370629942
 20
346.8117521012808
 30
0.0
 10
43.77175508417503
 20
346.9216853519171
 30
0.0
 10
44.2033723576512
 20
347.0313399404286
 30
0.0
  0
ARC
  5
B0
330
40
100
AcDbEntity
  8
22202-001032_TA-
  6
Continuous
 62
     7
100
AcDbCircle
 10
101.8316933747
 20
359.7234367509
 30
0.0
 40
59.00942894728945
100
AcDbArc
 50
167.5794324109
 51
192.4205675891
  0
ARC
  5
B1
330
40
100
AcDbEntity
  8
22202-001032_TA-
  6
Continuous
 62
     7
100
AcDbCircle
 10
95.9254429583
 20
384.4469697208
 30
0.0
 40
53.10299467334748
100
AcDbArc
 50
166.9049041276
 51
193.0950958724
  0
LINE
  5
B2
330
40
100
AcDbEntity
  8
22202-001032_TA-
  6
Continuous
 62
     7
100
AcDbLine
 10
42.3548263827
 20
394.5942122593
 30
0.0
 11
42.3548263827
 21
347.5942122593
 31
0.0
  0
LINE
  5
B3
330
40
100
AcDbEntity
  8
22202-001032_TA-
  6
Continuous
 62
     7
100
AcDbLine
 10
95.7858338092
 20
424.5942122593
 30
0.0
 11
95.8383065928
 21
424.5942122593
 31
0.0
  0
LINE
  5
B4
330
40
100
AcDbEntity
  8
22202-001032_TA-
  6
Continuous
 62
     7
100
AcDbLine
 10
95.8383065928
 20
424.5942122593
 30
0.0
 11
96.9548263827
 21
424.5942122593
 31
0.0
  0
LINE
  5
B5
330
40
100
AcDbEntity
  8
22202-001032_TA-
  6
Continuous
 62
     7
100
AcDbLine
 10
108.7548263827
 20
424.5942122593
 30
0.0
 11
109.8713461727
 21
424.5942122593
 31
0.0
  0
LINE
  5
B6
330
40
100
AcDbEntity
  8
22202-001032_TA-
  6
Continuous
 62
     7
100
AcDbLine
 10
109.8713461727
 20
424.5942122593
 30
0.0
 11
109.9238189563
 21
424.5942122593
 31
0.0
  0
ARC
  5
B7
330
40
100
AcDbEntity
  8
22202-001032_TA-
  6
Continuous
 62
     7
100
AcDbCircle
 10
123.5437002189
 20
540.4407096596
 30
0.0
 40
106.6753095659688
100
AcDbArc
 50
261.384664549
 51
266.0282230619
  0
LINE
  5
B8
330
40
100
AcDbEntity
  8
22202-001032_TA-
  6
Continuous
 62
     7
100
AcDbLine
 10
116.1548263827
 20
434.0216032246
 30
0.0
 11
118.8841929824
 21
432.3102956076
 31
0.0
  0
LINE
  5
B9
330
40
100
AcDbEntity
  8
22202-001032_TA-
  6
Continuous
 62
     7
100
AcDbLine
 10
132.5138721924
 20
440.1793945684
 30
0.0
 11
124.7138721924
 21
453.6893908675
 31
0.0
  0
LINE
  5
BA
330
40
100
AcDbEntity
  8
22202-001032_TA-
  6
Continuous
 62
     7
100
AcDbLine
 10
128.8980239082
 20
456.1051119869
 30
0.0
 11
136.3980239082
 21
443.1147309302
 31
0.0
  0
LINE
  5
BB
330
40
100
AcDbEntity
  8
22202-001032_TA-
  6
Continuous
 62
     7
100
AcDbLine
 10
191.3050737737
 20
350.0942122593
 30
0.0
 11
199.1767696493
 21
363.7283894575
 31
0.0
  0
SPLINE
  5
BC
330
40
100
AcDbEntity
  8
22202-001032_TA-
  6
Continuous
 62
     7
100
AcDbSpline
210
0.0
220
0.0
230
1.0
 70
     8
 71
     3
 72
    20
 73
    16
 74
     0
 42
0.000000000289924
 43
0.0000000001
 12
1.0
 22
0.0
 32
0.0
 13
1.0
 23
0.0
 33
0.0
 40
0.0
 40
0.0
 40
0.0
 40
0.0
 40
0.125
 40
0.125
 40
0.2499999999999999
 40
0.2499999999999999
 40
0.3749999999999999
 40
0.3749999999999999
 40
0.4999999999999999
 40
0.4999999999999999
 40
0.6249999999999999
 40
0.6249999999999999
 40
0.7499999999999999
 40
0.7499999999999999
 40
1.0
 40
1.0
 40
1.0
 40
1.0
 10
149.5741195928184
 20
389.7314870140552
 30
0.0
 10
150.0070774104834
 20
388.5827675270627
 30
0.0
 10
150.4293885123016
 20
387.3814150547155
 30
0.0
 10
151.197384801567
 20
384.8601336637057
 30
0.0
 10
151.5467109389234
 20
383.5290360108027
 30
0.0
 10
152.0446514922548
 20
380.7782118395698
 30
0.0
 10
152.1956067153552
 20
379.3611015145781
 30
0.0
 10
152.0999309268322
 20
376.4186594643166
 30
0.0
 10
151.8447163970008
 20
374.9629043954953
 30
0.0
 10
150.8277399925787
 20
372.1265786598432
 30
0.0
 10
150.0975374756254
 20
370.8195315262591
 30
0.0
 10
148.3485515687105
 20
368.3662742757787
 30
0.0
 10
147.3620989630299
 20
367.2554333379377
 30
0.0
 10
144.2373881427127
 20
364.1061531527855
 30
0.0
 10
141.9337384980625
 20
362.2380510797195
 30
0.0
 10
139.6031771267759
 20
360.4701957094724
 30
0.0
  0
LINE
  5
BD
330
40
100
AcDbEntity
  8
22202-001032_TA-
  6
Continuous
 62
     7
100
AcDbLine
 10
139.6031771268
 20
360.4701957095
 30
0.0
 11
139.5689633566
 21
360.3473352667
 31
0.0
  0
LINE
  5
BE
330
40
100
AcDbEntity
  8
22202-001032_TA-
  6
Continuous
 62
     7
100
AcDbLine
 10
139.5689633566
 20
360.3473352667
 30
0.0
 11
182.8916774095
 21
335.3349546462
 31
0.0
  0
LINE
  5
BF
330
40
100
AcDbEntity
  8
22202-001032_TA-
  6
Continuous
 62
     7
100
AcDbLine
 10
216.9499653947
 20
389.5603975719
 30
0.0
 11
215.3183032745
 21
388.1471318268
 31
0.0
  0
SPLINE
  5
C0
330
40
100
AcDbEntity
  8
22202-001032_TA-
  6
Continuous
 62
     7
100
AcDbSpline
210
0.0
220
0.0
230
1.0
 70
     8
 71
     3
 72
    16
 73
    12
 74
     0
 42
0.0000000003861844
 43
0.0000000001
 12
1.0
 22
0.0
 32
0.0
 13
1.0
 23
0.0
 33
0.0
 40
0.0
 40
0.0
 40
0.0
 40
0.0
 40
0.2500000000000001
 40
0.2500000000000001
 40
0.5000000000000002
 40
0.5000000000000002
 40
0.7500000000000003
 40
0.7500000000000003
 40
0.8750000000000001
 40
0.8750000000000001
 40
1.0
 40
1.0
 40
1.0
 40
1.0
 10
221.1768595510987
 20
384.7646927833995
 30
0.0
 10
219.5194355409568
 20
383.6272836426073
 30
0.0
 10
217.8385263976625
 20
382.4402791936596
 30
0.0
 10
214.4887315102882
 20
379.9301458969544
 30
0.0
 10
212.8169845150635
 20
378.6106540070452
 30
0.0
 10
209.5883982708418
 20
375.7062755548897
 30
0.0
 10
208.0076020551065
 20
374.109422538171
 30
0.0
 10
206.0953711294955
 20
371.3532555260466
 30
0.0
 10
205.5391060778149
 20
370.367170979602
 30
0.0
 10
204.7061253767036
 20
368.3094441536286
 30
0.0
 10
204.426040184843
 20
367.2144995687624
 30
0.0
 10
204.2922599896934
 20
366.1385521164395
 30
0.0
  0
LINE
  5
C1
330
40
100
AcDbEntity
  8
22202-001032_TA-
  6
Continuous
 62
     7
100
AcDbLine
 10
199.2877164031
 20
369.0679044994
 30
0.0
 11
197.9701551596
 21
366.1201498708
 31
0.0
  0
ARC
  5
C2
330
40
100
AcDbEntity
  8
22202-001032_TA-
  6
Continuous
 62
     7
100
AcDbCircle
 10
126.4086466046
 20
732.4006923691
 30
0.0
 40
373.2056876837875
100
AcDbArc
 50
280.528746658
 51
281.0548231501
  0
LINE
  5
C3
330
40
100
AcDbEntity
  8
22202-001032_TA-
  6
Continuous
 62
     7
100
AcDbLine
 10
213.6627964529
 20
350.2435527973
 30
0.0
 11
214.8004708721
 21
350.2435527973
 31
0.0
  0
LINE
  5
C4
330
40
100
AcDbEntity
  8
22202-001032_TA-
  6
Continuous
 62
     7
100
AcDbLine
 10
225.65867396
 20
389.5603975719
 30
0.0
 11
225.65867396
 21
350.0942122593
 31
0.0
  0
LINE
  5
C5
330
40
100
AcDbEntity
  8
22202-001032_TA-
  6
Continuous
 62
     7
100
AcDbLine
 10
230.8548263827
 20
392.9116364886
 30
0.0
 11
230.8548263827
 21
347.0942122593
 31
0.0
  0
ELLIPSE
  5
C6
330
40
100
AcDbEntity
  8
22202-001032_TA-
  6
Continuous
 62
     7
100
AcDbEllipse
 10
198.903062308
 20
371.0942122593
 30
0.0
 11
14.73813769879363
 21
-20.99048368189913
 31
0.0
210
0.0
220
0.0
230
1.0
 40
0.0428911118
 41
0.0892244050415696
 42
1.172282897098736
  0
LINE
  5
C7
330
40
100
AcDbEntity
  8
22202-001032_TA-
  6
Continuous
 62
     7
100
AcDbLine
 10
205.4519335987
 20
363.5314828442
 30
0.0
 11
204.9310232198
 21
362.7138173355
 31
0.0
  0
ELLIPSE
  5
C8
330
40
100
AcDbEntity
  8
22202-001032_TA-
  6
Continuous
 62
     7
100
AcDbEllipse
 10
156.6489309127
 20
371.0942122598
 30
0.0
 11
119.2652865194514
 21
-20.97208171480156
 31
0.0
210
0.0
220
0.0
230
1.0
 40
0.0090763362
 41
1.150819031156826
 42
1.248518901681303
  0
ELLIPSE
  5
C9
330
40
100
AcDbEntity
  8
22202-001032_TA-
  6
Continuous
 62
     7
100
AcDbEllipse
 10
174.5016081677
 20
368.0269335923
 30
0.0
 11
28.45027730218889
 21
-4.96455945760002
 31
0.0
210
0.0
220
0.0
230
1.0
 40
0.0458834576
 41
0.7941774525947867
 42
1.009900263510588
  0
SPLINE
  5
CA
330
40
100
AcDbEntity
  8
22202-001032_TA-
  6
Continuous
 62
     7
100
AcDbSpline
210
0.0
220
0.0
230
1.0
 70
     8
 71
     2
 72
    12
 73
     9
 74
     0
 42
0.0000000010202456
 43
0.0000000001
 12
1.0
 22
0.0
 32
0.0
 13
1.0
 23
0.0
 33
0.0
 40
0.0
 40
0.0
 40
0.0
 40
0.1023503189522545
 40
0.1023503189522545
 40
0.4396584718580404
 40
0.4396584718580404
 40
0.7769666247638263
 40
0.7769666247638263
 40
1.0
 40
1.0
 40
1.0
 10
189.8269806456893
 20
366.4914868495275
 30
0.0
 10
190.7224094745531
 20
366.2861707883959
 30
0.0
 10
191.5479146042016
 20
366.0892342636517
 30
0.0
 10
194.2414763302254
 20
365.4466450580181
 30
0.0
 10
196.0367270849329
 20
364.9332871269755
 30
0.0
 10
197.7623412906588
 20
364.4398419989864
 30
0.0
 10
198.5607618664601
 20
364.0935588100237
 30
0.0
 10
199.0549597137312
 20
363.8792201372511
 30
0.0
 10
199.1771477311657
 20
363.7283663166642
 30
0.0
  0
ARC
  5
CB
330
40
100
AcDbEntity
  8
22202-001032_TA-
  6
Continuous
 62
     7
100
AcDbCircle
 10
111.8464356813
 20
452.3375378283
 30
0.0
 40
49.85062064512643
100
AcDbArc
 50
323.1392777123
 51
337.9685098002
  0
ARC
  5
CC
330
40
100
AcDbEntity
  8
22202-001032_TA-
  6
Continuous
 62
     7
100
AcDbCircle
 10
90.0651391532
 20
430.4494186466
 30
0.0
 40
58.55768677096279
100
AcDbArc
 50
329.1857701938
 51
341.3486624252
  0
LINE
  5
CD
330
40
100
AcDbEntity
  8
22202-001032_TA-
  6
Continuous
 62
     7
100
AcDbLine
 10
140.3563954486
 20
400.4528818432
 30
0.0
 11
140.8418090796
 21
399.1032158584
 31
0.0
  0
LINE
  5
CE
330
40
100
AcDbEntity
  8
22202-001032_TA-
  6
Continuous
 62
     7
100
AcDbLine
 10
140.8418090796
 20
399.1032158584
 30
0.0
 11
197.9701551596
 21
366.1201498708
 31
0.0
  0
ELLIPSE
  5
CF
330
40
100
AcDbEntity
  8
22202-001032_TA-
  6
Continuous
 62
     7
100
AcDbEllipse
 10
171.8548263769
 20
383.2185679152
 30
0.0
 11
32.25944629687761
 21
-18.62500000309569
 31
0.0
210
0.0
220
0.0
230
1.0
 40
0.0699268119
 41
0.595747719335543
 42
0.6824312538187771
  0
LINE
  5
D0
330
40
100
AcDbEntity
  8
22202-001032_TA-
  6
Continuous
 62
     7
100
AcDbLine
 10
140.1930840927
 20
442.4190586034
 30
0.0
 11
150.2593090546
 21
448.2307962949
 31
0.0
  0
LINE
  5
D1
330
40
100
AcDbEntity
  8
22202-001032_TA-
  6
Continuous
 62
     7
100
AcDbLine
 10
140.1930840927
 20
442.4190586034
 30
0.0
 11
151.7317215393
 21
422.4335522957
 31
0.0
  0
LINE
  5
D2
330
40
100
AcDbEntity
  8
22202-001032_TA-
  6
Continuous
 62
     7
100
AcDbLine
 10
136.3980239082
 20
443.1147309302
 30
0.0
 11
151.1743725641
 21
451.6458598043
 31
0.0
  0
LINE
  5
D3
330
40
100
AcDbEntity
  8
22202-001032_TA-
  6
Continuous
 62
     7
100
AcDbLine
 10
136.3980239082
 20
443.1147309302
 30
0.0
 11
140.1930840927
 21
442.4190586034
 31
0.0
  0
LINE
  5
D4
330
40
100
AcDbEntity
  8
22202-001032_TA-
  6
Continuous
 62
     7
100
AcDbLine
 10
139.6031771268
 20
400.4807934775
 30
0.0
 11
139.6031771268
 21
360.4701957095
 31
0.0
  0
ELLIPSE
  5
D5
330
40
100
AcDbEntity
  8
22202-001032_TA-
  6
Continuous
 62
     7
100
AcDbEllipse
 10
110.2303482464
 20
371.09421226
 30
0.0
 11
3.712308238590367E-12
 21
63.99999999923098
 31
0.0
210
0.0
220
0.0
230
1.0
 40
0.0087268678
 41
0.5809575612982063
 42
0.738026814987154
  0
SPLINE
  5
D6
330
40
100
AcDbEntity
  8
22202-001032_TA-
  6
Continuous
 62
     7
100
AcDbSpline
210
0.0
220
0.0
230
1.0
 70
     8
 71
     3
 72
    20
 73
    16
 74
     0
 42
0.0000000004433467
 43
0.0000000001
 12
1.0
 22
0.0
 32
0.0
 13
1.0
 23
0.0
 33
0.0
 40
0.0
 40
0.0
 40
0.0
 40
0.0
 40
0.1250000000000004
 40
0.1250000000000004
 40
0.2500000000000008
 40
0.2500000000000008
 40
0.3750000000000012
 40
0.3750000000000012
 40
0.5000000000000016
 40
0.5000000000000016
 40
0.6250000000000011
 40
0.6250000000000011
 40
0.7500000000000008
 40
0.7500000000000008
 40
1.0
 40
1.0
 40
1.0
 40
1.0
 10
109.8545598441913
 20
418.4412596240522
 30
0.0
 10
109.8472566852453
 20
417.6801548760327
 30
0.0
 10
109.6950117889945
 20
416.9146152977233
 30
0.0
 10
109.1238942513378
 20
415.3773223391717
 30
0.0
 10
108.7014665059555
 20
414.6057064770029
 30
0.0
 10
107.5780010630966
 20
413.1671734960424
 30
0.0
 10
106.8660427338449
 20
412.4807048036821
 30
0.0
 10
105.0828160054194
 20
411.41009196026
 30
0.0
 10
103.9933375878124
 20
411.0450214439177
 30
0.0
 10
101.7245879470901
 20
411.0433435555354
 30
0.0
 10
100.6352386454532
 20
411.406471369824
 30
0.0
 10
98.84931728998123
 20
412.4758657587184
 30
0.0
 10
98.1408742406592
 20
413.1566491823598
 30
0.0
 10
96.44174402727506
 20
415.328449514149
 30
0.0
 10
95.86968629740892
 20
416.9203988659003
 30
0.0
 10
95.85509292129288
 20
418.4412596240522
 30
0.0
  0
ELLIPSE
  5
D7
330
40
100
AcDbEntity
  8
22202-001032_TA-
  6
Continuous
 62
     7
100
AcDbEllipse
 10
95.479304519
 20
371.0942122592
 30
0.0
 11
-1.526556658859590E-13
 21
64.00000000008384
 31
0.0
210
0.0
220
0.0
230
1.0
 40
0.0087268678
 41
-0.7380268149765756
 42
-0.5809575612893418
  0
LINE
  5
D8
330
40
100
AcDbEntity
  8
22202-001032_TA-
  6
Continuous
 62
     7
100
AcDbLine
 10
95.6548263827
 20
434.96908995
 30
0.0
 11
95.6548263827
 21
307.0942122593
 31
0.0
  0
LINE
  5
D9
330
40
100
AcDbEntity
  8
22202-001032_TA-
  6
Continuous
 62
     7
100
AcDbLine
 10
116.1548263827
 20
434.0216032246
 30
0.0
 11
116.1548263827
 21
307.0942122593
 31
0.0
  0
LINE
  5
DA
330
40
100
AcDbEntity
  8
22202-001032_TA-
  6
Continuous
 62
     7
100
AcDbLine
 10
133.6548263827
 20
424.3052714671
 30
0.0
 11
133.6548263827
 21
317.1978419701
 31
0.0
  0
LINE
  5
DB
330
40
100
AcDbEntity
  8
22202-001032_TA-
  6
Continuous
 62
     7
100
AcDbLine
 10
135.2730501079
 20
408.3008456204
 30
0.0
 11
135.2730501079
 21
332.5942122593
 31
0.0
  0
LINE
  5
DC
330
40
100
AcDbEntity
  8
22202-001032_TA-
  6
Continuous
 62
     7
100
AcDbLine
 10
155.3639947022
 20
438.2924902612
 30
0.0
 11
158.0568557256
 21
433.6377662245
 31
0.0
  0
LINE
  5
DD
330
40
100
AcDbEntity
  8
22202-001032_TA-
  6
Continuous
 62
     7
100
AcDbLine
 10
158.0568557256
 20
433.6377662245
 30
0.0
 11
222.0412255531
 21
396.6963730806
 31
0.0
  0
LINE
  5
DE
330
40
100
AcDbEntity
  8
22202-001032_TA-
  6
Continuous
 62
     7
100
AcDbLine
 10
155.8871797108
 20
348.4827503472
 30
0.0
 11
171.4414106798
 21
339.5025109102
 31
0.0
  0
LINE
  5
DF
330
40
100
AcDbEntity
  8
22202-001032_TA-
  6
Continuous
 62
     7
100
AcDbLine
 10
139.5689633566
 20
360.3473352667
 30
0.0
 11
139.6031771268
 21
360.3089758016
 31
0.0
  0
ARC
  5
E0
330
40
100
AcDbEntity
  8
22202-001032_TA-
  6
Continuous
 62
     7
100
AcDbCircle
 10
411.6012443798
 20
717.7098279981
 30
0.0
 40
449.1306243623884
100
AcDbArc
 50
232.7272390057
 51
235.2948487485
  0
ARC
  5
E1
330
40
100
AcDbEntity
  8
22202-001032_TA-
  6
Continuous
 62
     7
100
AcDbCircle
 10
290.6748354534
 20
529.9592465415
 30
0.0
 40
198.9302303785215
100
AcDbArc
 50
221.1321982294
 51
224.8222129737
  0
LINE
  5
E2
330
40
100
AcDbEntity
  8
22202-001032_TA-
  6
Continuous
 62
     7
100
AcDbLine
 10
149.5741195928
 20
389.7314870141
 30
0.0
 11
189.8269806457
 21
366.4914868495
 31
0.0
  0
LINE
  5
E3
330
40
100
AcDbEntity
  8
22202-001032_TA-
  6
Continuous
 62
     7
100
AcDbLine
 10
85.3548263827
 20
306.0942122593
 30
0.0
 11
85.3548263827
 21
436.0942122593
 31
0.0
  0
LINE
  5
E4
330
40
100
AcDbEntity
  8
22202-001032_TA-
  6
Continuous
 62
     7
100
AcDbLine
 10
94.6548263827
 20
435.9710185925
 30
0.0
 11
94.6548263827
 21
306.0942122593
 31
0.0
  0
LINE
  5
E5
330
40
100
AcDbEntity
  8
22202-001032_TA-
  6
Continuous
 62
     7
100
AcDbLine
 10
139.6031771268
 20
360.3089758016
 30
0.0
 11
139.6031771268
 21
340.0942122593
 31
0.0
  0
LINE
  5
E6
330
40
100
AcDbEntity
  8
22202-001032_TA-
  6
Continuous
 62
     7
100
AcDbLine
 10
131.3417627686
 20
436.3272503966
 30
0.0
 11
132.5138721924
 21
440.1793945684
 31
0.0
  0
LINE
  5
E7
330
40
100
AcDbEntity
  8
22202-001032_TA-
  6
Continuous
 62
     7
100
AcDbLine
 10
132.5138721924
 20
440.1793945684
 30
0.0
 11
118.8841929824
 21
432.3102956076
 31
0.0
  0
LINE
  5
E8
330
40
100
AcDbEntity
  8
22202-001032_TA-
  6
Continuous
 62
     7
100
AcDbLine
 10
118.8841929824
 20
432.3102956076
 30
0.0
 11
121.9809735802
 21
430.9227962388
 31
0.0
  0
LINE
  5
E9
330
40
100
AcDbEntity
  8
22202-001032_TA-
  6
Continuous
 62
     7
100
AcDbLine
 10
145.5475073233
 20
411.7221790686
 30
0.0
 11
131.3417627686
 21
436.3272503966
 31
0.0
  0
LINE
  5
EA
330
40
100
AcDbEntity
  8
22202-001032_TA-
  6
Continuous
 62
     7
100
AcDbLine
 10
131.3417627686
 20
436.3272503966
 30
0.0
 11
121.9809735802
 21
430.9227962388
 31
0.0
  0
ARC
  5
EB
330
40
100
AcDbEntity
  8
22202-001032_TA-
  6
Continuous
 62
     7
100
AcDbCircle
 10
245.8242492974
 20
635.7868475877
 30
0.0
 40
239.3876280751022
100
AcDbArc
 50
238.8464325538
 51
242.0586065424
  0
ARC
  5
EC
330
40
100
AcDbEntity
  8
22202-001032_TA-
  6
Continuous
 62
     7
100
AcDbCircle
 10
4861.5741025104
 20
894.2659603243
 30
0.0
 40
4751.219183604426
100
AcDbArc
 50
185.6766201766
 51
185.8706044813
  0
LINE
  5
ED
330
40
100
AcDbEntity
  8
22202-001032_TA-
  6
Continuous
 62
     7
100
AcDbLine
 10
135.2730501079
 20
408.3008456204
 30
0.0
 11
139.6031771268
 21
400.4807934775
 31
0.0
  0
LINE
  5
EE
330
40
100
AcDbEntity
  8
22202-001032_TA-
  6
Continuous
 62
     7
100
AcDbLine
 10
139.6031771268
 20
400.4807934775
 30
0.0
 11
140.3563954486
 21
400.4528818432
 31
0.0
  0
LINE
  5
EF
330
40
100
AcDbEntity
  8
22202-001032_TA-
  6
Continuous
 62
     7
100
AcDbLine
 10
128.8980239082
 20
456.1051119869
 30
0.0
 11
124.7138721924
 21
453.6893908675
 31
0.0
  0
LINE
  5
F0
330
40
100
AcDbEntity
  8
22202-001032_TA-
  6
Continuous
 62
     7
100
AcDbLine
 10
145.5475073233
 20
411.7221790686
 30
0.0
 11
151.7317215393
 21
422.4335522957
 31
0.0
  0
LINE
  5
F1
330
40
100
AcDbEntity
  8
22202-001032_TA-
  6
Continuous
 62
     7
100
AcDbLine
 10
95.6548263827
 20
434.96908995
 30
0.0
 11
107.5637406813
 21
434.96908995
 31
0.0
  0
LINE
  5
F2
330
40
100
AcDbEntity
  8
22202-001032_TA-
  6
Continuous
 62
     7
100
AcDbLine
 10
107.5637406813
 20
434.96908995
 30
0.0
 11
103.7451454785
 21
441.5830908547
 31
0.0
  0
LINE
  5
F3
330
40
100
AcDbEntity
  8
22202-001032_TA-
  6
Continuous
 62
     7
100
AcDbLine
 10
103.7451454785
 20
441.5830908547
 30
0.0
 11
94.0247511847
 21
435.9710185925
 31
0.0
  0
LINE
  5
F4
330
40
100
AcDbEntity
  8
22202-001032_TA-
  6
Continuous
 62
     7
100
AcDbLine
 10
94.0247511847
 20
435.9710185925
 30
0.0
 11
94.6548263827
 21
435.9710185925
 31
0.0
  0
LINE
  5
F5
330
40
100
AcDbEntity
  8
22202-001032_TA-
  6
Continuous
 62
     7
100
AcDbLine
 10
94.6548263827
 20
435.9710185925
 30
0.0
 11
95.6548263827
 21
434.96908995
 31
0.0
  0
LINE
  5
F6
330
40
100
AcDbEntity
  8
22202-001032_TA-
  6
Continuous
 62
     7
100
AcDbLine
 10
209.8895008481
 20
391.281452369
 30
0.0
 11
197.7108923373
 21
370.1874836628
 31
0.0
  0
ELLIPSE
  5
F7
330
40
100
AcDbEntity
  8
22202-001032_TA-
  6
Continuous
 62
     7
100
AcDbEllipse
 10
192.6394360736
 20
371.2185679123
 30
0.0
 11
20.78460969081875
 21
-11.99999999999593
 31
0.0
210
0.0
220
0.0
230
1.0
 40
0.0699268119
 41
1.016531038232826
 42
1.364862507752934
  0
ELLIPSE
  5
F8
330
40
100
AcDbEntity
  8
22202-001032_TA-
  6
Continuous
 62
     7
100
AcDbEllipse
 10
192.8548263828
 20
371.0942122593
 30
0.0
 11
36.48413814754336
 21
-20.96150528102716
 31
0.0
210
0.0
220
0.0
230
1.0
 40
0.0348354973
 41
1.272007366146043
 42
1.413597013888115
  0
LINE
  5
F9
330
40
100
AcDbEntity
  8
22202-001032_TA-
  6
Continuous
 62
     7
100
AcDbLine
 10
209.8895008481
 20
391.281452369
 30
0.0
 11
221.1768595511
 21
384.7646927834
 31
0.0
  0
LINE
  5
FA
330
40
100
AcDbEntity
  8
22202-001032_TA-
  6
Continuous
 62
     7
100
AcDbLine
 10
239.5548263827
 20
395.0942122593
 30
0.0
 11
239.5548263827
 21
347.0942122593
 31
0.0
  0
LINE
  5
FB
330
40
100
AcDbEntity
  8
22202-001032_TA-
  6
Continuous
 62
     7
100
AcDbLine
 10
241.2213872405
 20
346.3442122593
 30
0.0
 11
253.188265525
 21
346.3442122593
 31
0.0
  0
ARC
  5
FC
330
40
100
AcDbEntity
  8
22202-001032_TA-
  6
Continuous
 62
     7
100
AcDbCircle
 10
198.4341564951
 20
358.7192122593
 30
0.0
 40
56.13513232065181
100
AcDbArc
 50
347.2645244266
 51
12.7354755734
  0
ARC
  5
FD
330
40
100
AcDbEntity
  8
22202-001032_TA-
  6
Continuous
 62
     7
100
AcDbCircle
 10
295.9754962704
 20
358.7192122593
 30
0.0
 40
56.13513232065102
100
AcDbArc
 50
167.2645244266
 51
192.7354755734
  0
LINE
  5
FE
330
40
100
AcDbEntity
  8
22202-001032_TA-
  6
Continuous
 62
     7
100
AcDbLine
 10
241.2213872405
 20
371.0942122593
 30
0.0
 11
253.188265525
 21
371.0942122593
 31
0.0
  0
ARC
  5
FF
330
40
100
AcDbEntity
  8
22202-001032_TA-
  6
Continuous
 62
     7
100
AcDbCircle
 10
198.4341564951
 20
383.4692122593
 30
0.0
 40
56.13513232065142
100
AcDbArc
 50
347.2645244266
 51
12.7354755734
  0
ARC
  5
100
330
40
100
AcDbEntity
  8
22202-001032_TA-
  6
Continuous
 62
     7
100
AcDbCircle
 10
295.9754962704
 20
383.4692122593
 30
0.0
 40
56.13513232065072
100
AcDbArc
 50
167.2645244266
 51
192.7354755734
  0
LINE
  5
101
330
40
100
AcDbEntity
  8
22202-001032_TA-
  6
Continuous
 62
     7
100
AcDbLine
 10
241.2213872405
 20
395.8442122593
 30
0.0
 11
253.188265525
 21
395.8442122593
 31
0.0
  0
LINE
  5
102
330
40
100
AcDbEntity
  8
22202-001032_TA-
  6
Continuous
 62
     7
100
AcDbLine
 10
253.188265525
 20
395.8442122593
 30
0.0
 11
254.58184555
 21
395.8442122593
 31
0.0
  0
LINE
  5
103
330
40
100
AcDbEntity
  8
22202-001032_TA-
  6
Continuous
 62
     7
100
AcDbLine
 10
241.2213872405
 20
395.8442122593
 30
0.0
 11
239.8278071254
 21
395.8442122593
 31
0.0
  0
LINE
  5
104
330
40
100
AcDbEntity
  8
22202-001032_TA-
  6
Continuous
 62
     7
100
AcDbLine
 10
253.188265525
 20
346.3442122593
 30
0.0
 11
254.58184555
 21
346.3442122593
 31
0.0
  0
LINE
  5
105
330
40
100
AcDbEntity
  8
22202-001032_TA-
  6
Continuous
 62
     7
100
AcDbLine
 10
241.2213872405
 20
346.3442122593
 30
0.0
 11
239.8278071254
 21
346.3442122593
 31
0.0
  0
LINE
  5
106
330
40
100
AcDbEntity
  8
22202-001032_TA-
  6
Continuous
 62
     7
100
AcDbLine
 10
214.8004708721
 20
350.2435527973
 30
0.0
 11
214.8548263827
 21
350.0942122593
 31
0.0
  0
LINE
  5
107
330
40
100
AcDbEntity
  8
22202-001032_TA-
  6
Continuous
 62
     7
100
AcDbLine
 10
214.8548263827
 20
350.0942122593
 30
0.0
 11
191.3050737737
 21
350.0942122593
 31
0.0
  0
LINE
  5
108
330
40
100
AcDbEntity
  8
22202-001032_TA-
  6
Continuous
 62
     7
100
AcDbLine
 10
213.6627964529
 20
350.2435527973
 30
0.0
 11
204.9310232198
 21
362.7138173355
 31
0.0
  0
LINE
  5
109
330
40
100
AcDbEntity
  8
22202-001032_TA-
  6
Continuous
 62
     7
100
AcDbLine
 10
204.9310232198
 20
362.7138173355
 30
0.0
 11
199.1772737549
 21
363.7283586064
 31
0.0
  0
LINE
  5
10A
330
40
100
AcDbEntity
  8
22202-001032_TA-
  6
Continuous
 62
     7
100
AcDbLine
 10
231.5382512282
 20
397.2446413596
 30
0.0
 11
232.1571147035
 21
395.0942122593
 31
0.0
  0
ELLIPSE
  5
10B
330
40
100
AcDbEntity
  8
22202-001032_TA-
  6
Continuous
 62
     7
100
AcDbEllipse
 10
211.0417497134
 20
469.408456209
 30
0.0
 11
-20.05766854904227
 21
72.46468212840963
 31
0.0
210
0.0
220
0.0
230
1.0
 40
0.0987395105
 41
3.019219043627916
 42
3.209422104234807
  0
LINE
  5
10C
330
40
100
AcDbEntity
  8
22202-001032_TA-
  6
Continuous
 62
     7
100
AcDbLine
 10
230.0760057907
 20
397.2439329144
 30
0.0
 11
231.3227802236
 21
392.9116364886
 31
0.0
  0
ELLIPSE
  5
10D
330
40
100
AcDbEntity
  8
22202-001032_TA-
  6
Continuous
 62
     7
100
AcDbEllipse
 10
239.0639796659
 20
371.0942122593
 30
0.0
 11
7.040303230492165
 21
-23.98121442738967
 31
0.0
210
0.0
220
0.0
230
1.0
 40
0.1348517143
 41
3.102024122529051
 42
3.531799553833578
  0
LINE
  5
10E
330
40
100
AcDbEntity
  8
22202-001032_TA-
  6
Continuous
 62
     7
100
AcDbLine
 10
224.6040032891
 20
397.0679151308
 30
0.0
 11
222.0412255531
 21
396.6963730806
 31
0.0
  0
ELLIPSE
  5
10F
330
40
100
AcDbEntity
  8
22202-001032_TA-
  6
Continuous
 62
     7
100
AcDbEllipse
 10
169.0163013382
 20
378.3020983152
 30
0.0
 11
54.59843049150575
 21
20.50255422019972
 31
0.0
210
0.0
220
0.0
230
1.0
 40
0.0892439862
 41
-0.3799441254718783
 42
-0.2764377060101513
  0
LINE
  5
110
330
40
100
AcDbEntity
  8
22202-001032_TA-
  6
Continuous
 62
     7
100
AcDbLine
 10
220.3996536108
 20
395.5354328325
 30
0.0
 11
224.6040032891
 21
397.0679151308
 31
0.0
  0
LINE
  5
111
330
40
100
AcDbEntity
  8
22202-001032_TA-
  6
Continuous
 62
     7
100
AcDbLine
 10
230.0760057907
 20
397.2439329144
 30
0.0
 11
229.9072896841
 21
397.0446846717
 31
0.0
  0
LINE
  5
112
330
40
100
AcDbEntity
  8
22202-001032_TA-
  6
Continuous
 62
     7
100
AcDbLine
 10
227.5926966362
 20
398.3810155909
 30
0.0
 11
226.8176966362
 21
397.038676215
 31
0.0
  0
SPLINE
  5
113
330
40
100
AcDbEntity
  8
22202-001032_TA-
  6
Continuous
 62
     7
100
AcDbSpline
210
0.0
220
0.0
230
1.0
 70
     8
 71
     3
 72
     8
 73
     4
 74
     0
 42
0.0000000045169429
 43
0.0000000001
 12
1.0
 22
0.0
 32
0.0
 13
1.0
 23
0.0
 33
0.0
 40
0.0
 40
0.0
 40
0.0
 40
0.0
 40
1.0
 40
1.0
 40
1.0
 40
1.0
 10
226.8176966361954
 20
397.0386762150391
 30
0.0
 10
226.0797923960947
 20
397.0479768443772
 30
0.0
 10
225.3418829970379
 20
397.0577021260927
 30
0.0
 10
224.6040032891112
 20
397.0679151307966
 30
0.0
  0
LINE
  5
114
330
40
100
AcDbEntity
  8
22202-001032_TA-
  6
Continuous
 62
     7
100
AcDbLine
 10
220.3996536108
 20
395.5354328325
 30
0.0
 11
216.9499653947
 21
389.5603975719
 31
0.0
  0
LINE
  5
115
330
40
100
AcDbEntity
  8
22202-001032_TA-
  6
Continuous
 62
     7
100
AcDbLine
 10
216.9499653947
 20
389.5603975719
 30
0.0
 11
225.65867396
 21
389.5603975719
 31
0.0
  0
SPLINE
  5
116
330
40
100
AcDbEntity
  8
22202-001032_TA-
  6
Continuous
 62
     7
100
AcDbSpline
210
0.0
220
0.0
230
1.0
 70
     8
 71
     3
 72
     8
 73
     4
 74
     0
 42
0.0000000016172786
 43
0.0000000001
 12
1.0
 22
0.0
 32
0.0
 13
1.0
 23
0.0
 33
0.0
 40
0.0
 40
0.0
 40
0.0
 40
0.0
 40
1.0
 40
1.0
 40
1.0
 40
1.0
 10
225.6586739600355
 20
389.5603975719065
 30
0.0
 10
227.3816248405993
 20
390.6916365849959
 30
0.0
 10
229.1151487395764
 20
391.8067544327889
 30
0.0
 10
230.8548263827421
 20
392.9116364885585
 30
0.0
  0
LINE
  5
117
330
40
100
AcDbEntity
  8
22202-001032_TA-
  6
Continuous
 62
     7
100
AcDbLine
 10
230.8548263827
 20
392.9116364886
 30
0.0
 11
231.3227802236
 21
392.9116364886
 31
0.0
  0
SPLINE
  5
118
330
40
100
AcDbEntity
  8
22202-001032_TA-
  6
Continuous
 62
     7
100
AcDbSpline
210
0.0
220
0.0
230
1.0
 70
    11
 71
     3
 72
    88
 73
    84
 74
     0
 42
0.0000000002630395
 43
0.0000000001
 12
1.0
 22
0.0
 32
0.0
 13
1.0
 23
0.0
 33
0.0
 40
0.0
 40
0.0
 40
0.0
 40
0.0
 40
0.015625
 40
0.015625
 40
0.0312499999999999
 40
0.0312499999999999
 40
0.0468749999999999
 40
0.0468749999999999
 40
0.0624999999999998
 40
0.0624999999999998
 40
0.1249999999999995
 40
0.1249999999999995
 40
0.1874999999999993
 40
0.1874999999999993
 40
0.2031249999999992
 40
0.2031249999999992
 40
0.2187499999999992
 40
0.2187499999999992
 40
0.2343749999999991
 40
0.2343749999999991
 40
0.2499999999999991
 40
0.2499999999999991
 40
0.2656249999999991
 40
0.2656249999999991
 40
0.281249999999999
 40
0.281249999999999
 40
0.2968749999999989
 40
0.2968749999999989
 40
0.3124999999999989
 40
0.3124999999999989
 40
0.3749999999999987
 40
0.3749999999999987
 40
0.4374999999999984
 40
0.4374999999999984
 40
0.4687499999999983
 40
0.4687499999999983
 40
0.4999999999999981
 40
0.4999999999999981
 40
0.5156249999999981
 40
0.5156249999999981
 40
0.531249999999998
 40
0.531249999999998
 40
0.562499999999998
 40
0.562499999999998
 40
0.5781249999999981
 40
0.5781249999999981
 40
0.5937499999999981
 40
0.5937499999999981
 40
0.6093749999999982
 40
0.6093749999999982
 40
0.6249999999999982
 40
0.6249999999999982
 40
0.6874999999999987
 40
0.6874999999999987
 40
0.7187499999999988
 40
0.7187499999999988
 40
0.7343749999999988
 40
0.7343749999999988
 40
0.7499999999999989
 40
0.7499999999999989
 40
0.765624999999999
 40
0.765624999999999
 40
0.781249999999999
 40
0.781249999999999
 40
0.8124999999999991
 40
0.8124999999999991
 40
0.8749999999999992
 40
0.8749999999999992
 40
0.8906249999999994
 40
0.8906249999999994
 40
0.9062499999999997
 40
0.9062499999999997
 40
0.9218749999999997
 40
0.9218749999999997
 40
0.9374999999999998
 40
0.9374999999999998
 40
0.9531249999999998
 40
0.9531249999999998
 40
0.9687499999999999
 40
0.9687499999999999
 40
0.9843749999999999
 40
0.9843749999999999
 40
1.0
 40
1.0
 40
1.0
 40
1.0
 10
166.7230221013965
 20
354.527851403018
 30
0.0
 10
166.8619641343981
 20
354.6774813012416
 30
0.0
 10
166.9548942706759
 20
354.8726066104888
 30
0.0
 10
166.9607043719465
 20
355.2750418671917
 30
0.0
 10
166.88260353284
 20
355.4704293592287
 30
0.0
 10
166.6310601784658
 20
355.77188582233
 30
0.0
 10
166.4477082410492
 20
355.8705087133898
 30
0.0
 10
166.0511430784443
 20
355.9074000146692
 30
0.0
 10
165.8509825503522
 20
355.8929890176971
 30
0.0
 10
164.8523198520355
 20
355.8929890176971
 30
0.0
 10
164.0490694519383
 20
355.8929890176918
 30
0.0
 10
162.4365327307654
 20
355.8929890176918
 30
0.0
 10
161.6267931324658
 20
355.8929890176969
 30
0.0
 10
160.6106244204754
 20
355.8929890176969
 30
0.0
 10
160.4072615749599
 20
355.8929890176965
 30
0.0
 10
160.0002780463508
 20
355.8929890176965
 30
0.0
 10
159.7928469386854
 20
355.8679443760636
 30
0.0
 10
159.4010866780776
 20
355.9713154251947
 30
0.0
 10
159.230141098879
 20
356.1040664747852
 30
0.0
 10
159.0146633794149
 20
356.4495307188729
 30
0.0
 10
159.0068141503245
 20
356.6599088638295
 30
0.0
 10
159.0068141503245
 20
357.0631243607009
 30
0.0
 10
159.0068141503313
 20
357.264745868243
 30
0.0
 10
159.0068141503313
 20
357.6680143525443
 30
0.0
 10
159.07098294364
 20
357.8717036679996
 30
0.0
 10
159.3430119701515
 20
358.1684036671171
 30
0.0
 10
159.5355649364675
 20
358.2656420958043
 30
0.0
 10
159.929394549502
 20
358.3059887964518
 30
0.0
 10
160.1275533396219
 20
358.297168108549
 30
0.0
 10
161.1153046770927
 20
358.3124163869823
 30
0.0
 10
161.9038177213301
 20
358.3130871468952
 30
0.0
 10
163.4757046213206
 20
358.3062043556378
 30
0.0
 10
164.2597731925589
 20
358.2986518307319
 30
0.0
 10
165.4306341019656
 20
358.2919070255186
 30
0.0
 10
165.8226330265134
 20
358.2708954166147
 30
0.0
 10
166.5942049474393
 20
358.3127729341012
 30
0.0
 10
166.9393868736345
 20
358.6641892568958
 30
0.0
 10
166.965676349125
 20
359.249125044484
 30
0.0
 10
166.9007986661504
 20
359.4432398812635
 30
0.0
 10
166.6576919060871
 20
359.7418397708865
 30
0.0
 10
166.5091220149073
 20
359.8818717096079
 30
0.0
 10
166.3446400184714
 20
360.4451177047876
 30
0.0
 10
166.5577172676014
 20
360.9054185410201
 30
0.0
 10
167.116495207943
 20
361.1103229982591
 30
0.0
 10
167.3162482559846
 20
361.0967396525211
 30
0.0
 10
167.708279343629
 20
361.0981905126101
 30
0.0
 10
167.9039863996958
 20
361.0963346902479
 30
0.0
 10
168.2949125104748
 20
361.0939417241225
 30
0.0
 10
168.4947577266689
 20
361.1081164846079
 30
0.0
 10
168.848091867013
 20
360.9501185470781
 30
0.0
 10
168.9755315112576
 20
360.7988757474841
 30
0.0
 10
169.6575108212366
 20
360.1171356945411
 30
0.0
 10
170.1987520496503
 20
359.5768562166501
 30
0.0
 10
171.0017612496945
 20
358.7754471760582
 30
0.0
 10
171.2680952909478
 20
358.5096741093392
 30
0.0
 10
171.665151943174
 20
358.1133858873883
 30
0.0
 10
171.7970894322729
 20
357.9816924363936
 30
0.0
 10
172.0601253904445
 20
357.7191024221568
 30
0.0
 10
172.2058067846837
 20
357.5977106561398
 30
0.0
 10
172.3627369168638
 20
357.2547899818357
 30
0.0
 10
172.3785608406892
 20
357.051273333159
 30
0.0
 10
172.2701400837502
 20
356.6698954462294
 30
0.0
 10
172.1250935846265
 20
356.5243835795388
 30
0.0
 10
171.712516429311
 20
356.1120092867013
 30
0.0
 10
171.4372241637812
 20
355.8372601828141
 30
0.0
 10
170.6108791690081
 20
355.0132636983408
 30
0.0
 10
170.0593527125557
 20
354.464261920448
 30
0.0
 10
169.3699691627009
 20
353.7775465628827
 30
0.0
 10
169.2320941271977
 20
353.6401807579578
 30
0.0
 10
168.9563678422843
 20
353.3653818614027
 30
0.0
 10
168.8203748354373
 20
353.2130545687078
 30
0.0
 10
168.4662739505677
 20
353.0766030272575
 30
0.0
 10
168.2766318106932
 20
353.0942122592913
 30
0.0
 10
167.9083523717158
 20
353.0942122592914
 30
0.0
 10
167.7238277902337
 20
353.0942122592904
 30
0.0
 10
167.3540296915683
 20
353.0942122592904
 30
0.0
 10
167.1668064056681
 20
353.0744677188436
 30
0.0
 10
166.8058416503583
 20
353.1783798958691
 30
0.0
 10
166.6460317558652
 20
353.2990682110787
 30
0.0
 10
166.4416873482911
 20
353.6234848468997
 30
0.0
 10
166.4039175400079
 20
353.8251624097484
 30
0.0
 10
166.4646458505148
 20
354.2189242855536
 30
0.0
 10
166.5840800683949
 20
354.3782215047945
 30
0.0
 10
166.7230221013965
 20
354.527851403018
 30
0.0
  0
LINE
  5
119
330
40
100
AcDbEntity
  8
22202-001032_TA-
  6
Continuous
 62
     7
100
AcDbLine
 10
143.4743725641
 20
464.9826510226
 30
0.0
 11
127.885915296
 21
455.9826510226
 31
0.0
  0
LINE
  5
11A
330
40
100
AcDbEntity
  8
22202-001032_TA-
  6
Continuous
 62
     7
100
AcDbLine
 10
254.8548263827
 20
347.0942122593
 30
0.0
 11
254.8548263827
 21
395.0942122593
 31
0.0
  0
LINE
  5
11B
330
40
100
AcDbEntity
  8
22202-001032_TA-
  6
Continuous
 62
     7
100
AcDbLine
 10
109.8713461727
 20
423.0942122593
 30
0.0
 11
109.8713461727
 21
424.5942122593
 31
0.0
  0
LINE
  5
11C
330
40
100
AcDbEntity
  8
22202-001032_TA-
  6
Continuous
 62
     7
100
AcDbLine
 10
95.8383065928
 20
424.5942122593
 30
0.0
 11
95.8383065928
 21
423.0942122593
 31
0.0
  0
ARC
  5
11D
330
40
100
AcDbEntity
  8
22202-001032_TA-
  6
Continuous
 62
     7
100
AcDbCircle
 10
209.9006520057
 20
384.1158709072
 30
0.0
 40
90.0
100
AcDbArc
 50
43.2435149523
 51
59.6180253071
  0
ARC
  5
11E
330
40
100
AcDbEntity
  8
22202-001032_TA-
  6
Continuous
 62
     7
100
AcDbCircle
 10
153.6090007597
 20
416.6158709072
 30
0.0
 40
89.99999999999999
100
AcDbArc
 50
60.3819746929
 51
66.6997651778
  0
ARC
  5
11F
330
40
100
AcDbEntity
  8
22202-001032_TA-
  6
Continuous
 62
     7
100
AcDbCircle
 10
177.1121727372
 20
463.8720057199
 30
0.0
 40
100.0
100
AcDbArc
 50
333.8551330795
 51
349.5736853826
  0
LINE
  5
120
330
40
100
AcDbEntity
  8
22202-001032_TA-
  6
Continuous
 62
     7
100
AcDbLine
 10
189.2084347663
 20
499.2758993273
 30
0.0
 11
189.0902683685
 21
499.0712291226
 31
0.0
  0
LINE
  5
121
330
40
100
AcDbEntity
  8
22202-001032_TA-
  6
Continuous
 62
     7
100
AcDbLine
 10
155.4797333685
 20
445.5447673204
 30
0.0
 11
154.0464603067
 21
441.6068819472
 31
0.0
  0
LINE
  5
122
330
40
100
AcDbEntity
  8
22202-001032_TA-
  6
Continuous
 62
     7
100
AcDbLine
 10
231.5382512282
 20
397.2446413596
 30
0.0
 11
236.7672896531
 21
403.4763666883
 31
0.0
  0
LINE
  5
123
330
40
100
AcDbEntity
  8
22202-001032_TA-
  6
Continuous
 62
     7
100
AcDbLine
 10
156.8999311212
 20
472.1044681346
 30
0.0
 11
152.31295659
 21
452.2360986165
 31
0.0
  0
LINE
  5
124
330
40
100
AcDbEntity
  8
22202-001032_TA-
  6
Continuous
 62
     7
100
AcDbLine
 10
241.3966961755
 20
400.8035775865
 30
0.0
 11
256.3097216442
 21
414.710198816
 31
0.0
  0
LINE
  5
125
330
40
100
AcDbEntity
  8
22202-001032_TA-
  6
Continuous
 62
     7
100
AcDbLine
 10
240.6193053537
 20
433.1221392459
 30
0.0
 11
241.4193053537
 21
434.507779892
 31
0.0
  0
LINE
  5
126
330
40
100
AcDbEntity
  8
22202-001032_TA-
  6
Continuous
 62
     7
100
AcDbLine
 10
181.4903474118
 20
469.107779892
 30
0.0
 11
180.6903474118
 21
467.7221392459
 31
0.0
  0
LINE
  5
127
330
40
100
AcDbEntity
  8
22202-001032_TA-
  6
Continuous
 62
     7
100
AcDbLine
 10
256.1996901114
 20
461.3081572478
 30
0.0
 11
257.2996901114
 21
463.2134131361
 31
0.0
  0
LINE
  5
128
330
40
100
AcDbEntity
  8
22202-001032_TA-
  6
Continuous
 62
     7
100
AcDbLine
 10
198.4099626541
 20
497.2134131361
 30
0.0
 11
197.3099626541
 21
495.3081572478
 31
0.0
  0
LINE
  5
129
330
40
100
AcDbEntity
  8
22202-001032_TA-
  6
Continuous
 62
     7
100
AcDbLine
 10
255.5676393038
 20
464.2134131361
 30
0.0
 11
259.8176393038
 21
471.5746290683
 31
0.0
  0
LINE
  5
12A
330
40
100
AcDbEntity
  8
22202-001032_TA-
  6
Continuous
 62
     7
100
AcDbLine
 10
204.3920134616
 20
503.5746290683
 30
0.0
 11
200.1420134616
 21
496.2134131361
 31
0.0
  0
LINE
  5
12B
330
40
100
AcDbEntity
  8
22202-001032_TA-
  6
Continuous
 62
     7
100
AcDbLine
 10
240.7650804206
 20
482.5746290683
 30
0.0
 11
256.2150804206
 21
509.3348140452
 31
0.0
  0
LINE
  5
12C
330
40
100
AcDbEntity
  8
22202-001032_TA-
  6
Continuous
 62
     7
100
AcDbLine
 10
238.8945723449
 20
519.3348140452
 30
0.0
 11
223.4445723449
 21
492.5746290683
 31
0.0
  0
LINE
  5
12D
330
40
100
AcDbEntity
  8
22202-001032_TA-
  6
Continuous
 62
     7
100
AcDbLine
 10
251.0189279979
 20
512.3348140452
 30
0.0
 11
264.4689279979
 21
535.630897407
 31
0.0
  0
LINE
  5
12E
330
40
100
AcDbEntity
  8
22202-001032_TA-
  6
Continuous
 62
     7
100
AcDbLine
 10
257.5407247676
 20
539.630897407
 30
0.0
 11
244.0907247676
 21
516.3348140452
 31
0.0
  0
LINE
  5
12F
330
40
100
AcDbEntity
  8
22202-001032_TA-
  6
Continuous
 62
     7
100
AcDbLine
 10
264.8586394296
 20
535.405897407
 30
0.0
 11
267.9461394296
 21
540.7536042754
 31
0.0
  0
LINE
  5
130
330
40
100
AcDbEntity
  8
22202-001032_TA-
  6
Continuous
 62
     7
100
AcDbLine
 10
260.2385133359
 20
545.2036042754
 30
0.0
 11
257.1510133359
 21
539.855897407
 31
0.0
  0
LINE
  5
131
330
40
100
AcDbEntity
  8
22202-001032_TA-
  6
Continuous
 62
     7
100
AcDbLine
 10
267.0584633907
 20
541.2661042754
 30
0.0
 11
274.5709633907
 21
554.2781359673
 31
0.0
  0
LINE
  5
132
330
40
100
AcDbEntity
  8
22202-001032_TA-
  6
Continuous
 62
     7
100
AcDbLine
 10
268.6386893748
 20
557.7031359673
 30
0.0
 11
261.1261893748
 21
544.6911042754
 31
0.0
  0
LINE
  5
133
330
40
100
AcDbEntity
  8
22202-001032_TA-
  6
Continuous
 62
     7
100
AcDbLine
 10
254.2362235909
 20
415.9073334753
 30
0.0
 11
258.2862235909
 21
422.9221392459
 31
0.0
  0
LINE
  5
134
330
40
100
AcDbEntity
  8
22202-001032_TA-
  6
Continuous
 62
     7
100
AcDbLine
 10
163.0234291746
 20
477.9221392459
 30
0.0
 11
158.9734291746
 21
470.9073334753
 31
0.0
  0
LINE
  5
135
330
40
100
AcDbEntity
  8
22202-001032_TA-
  6
Continuous
 62
     7
100
AcDbLine
 10
156.0683619642
 20
439.6756094674
 30
0.0
 11
155.593709113
 21
438.8534866132
 31
0.0
  0
LINE
  5
136
330
40
100
AcDbEntity
  8
22202-001032_TA-
  6
Continuous
 62
     7
100
AcDbLine
 10
125.8368771903
 20
456.5316891283
 30
0.0
 11
121.3368771903
 21
464.3259177623
 31
0.0
  0
LINE
  5
137
330
40
100
AcDbEntity
  8
22202-001032_TA-
  6
Continuous
 62
     7
100
AcDbLine
 10
96.2221404805
 20
449.8259177623
 30
0.0
 11
100.7221404805
 21
442.0316891283
 31
0.0
  0
LINE
  5
138
330
40
100
AcDbEntity
  8
22202-001032_TA-
  6
Continuous
 62
     7
100
AcDbLine
 10
117.4397628732
 20
462.0759177623
 30
0.0
 11
113.2897628732
 21
469.2639286137
 31
0.0
  0
LINE
  5
139
330
40
100
AcDbEntity
  8
22202-001032_TA-
  6
Continuous
 62
     7
100
AcDbLine
 10
95.9692547976
 20
459.2639286137
 30
0.0
 11
100.1192547976
 21
452.0759177623
 31
0.0
  0
LINE
  5
13A
330
40
100
AcDbEntity
  8
22202-001032_TA-
  6
Continuous
 62
     7
100
AcDbLine
 10
106.5998282331
 20
470.8512353097
 30
0.0
 11
106.3596358543
 21
471.2672607134
 31
0.0
  0
LINE
  5
13B
330
40
100
AcDbEntity
  8
22202-001032_TA-
  6
Continuous
 62
     7
100
AcDbLine
 10
97.6993818165
 20
466.2672607134
 30
0.0
 11
97.9395741953
 21
465.8512353097
 31
0.0
  0
LINE
  5
13C
330
40
100
AcDbEntity
  8
22202-001032_TA-
  6
Continuous
 62
     7
100
AcDbLine
 10
110.5184815811
 20
467.6639286137
 30
0.0
 11
109.9184815811
 21
468.7031590983
 31
0.0
  0
LINE
  5
13D
330
40
100
AcDbEntity
  8
22202-001032_TA-
  6
Continuous
 62
     7
100
AcDbLine
 10
98.1405360897
 20
461.9031590982
 30
0.0
 11
98.7405360897
 21
460.8639286137
 31
0.0
  0
LINE
  5
13E
330
40
100
AcDbEntity
  8
22202-001032_TA-
  6
Continuous
 62
     7
100
AcDbLine
 10
107.5802129907
 20
467.3531590981
 30
0.0
 11
106.0802129907
 21
469.9512353095
 31
0.0
  0
LINE
  5
13F
330
40
100
AcDbEntity
  8
22202-001032_TA-
  6
Continuous
 62
     7
100
AcDbLine
 10
98.9788046801
 20
465.8512353097
 30
0.0
 11
100.4788046801
 21
463.2531590984
 31
0.0
  0
LINE
  5
140
330
40
100
AcDbEntity
  8
22202-001032_TA-
  6
Continuous
 62
     7
100
AcDbLine
 10
97.9395741953
 20
465.8512353097
 30
0.0
 11
98.9788046801
 21
465.8512353097
 31
0.0
  0
LINE
  5
141
330
40
100
AcDbEntity
  8
22202-001032_TA-
  6
Continuous
 62
     7
100
AcDbLine
 10
106.0802129907
 20
469.9512353095
 30
0.0
 11
106.5998282331
 21
470.8512353097
 31
0.0
  0
LINE
  5
142
330
40
100
AcDbEntity
  8
22202-001032_TA-
  6
Continuous
 62
     7
100
AcDbLine
 10
108.3081930129
 20
472.3922607134
 30
0.0
 11
103.3081930128
 21
481.0525147512
 31
0.0
  0
LINE
  5
143
330
40
100
AcDbEntity
  8
22202-001032_TA-
  6
Continuous
 62
     7
100
AcDbLine
 10
90.750824658
 20
473.8025147512
 30
0.0
 11
95.750824658
 21
465.1422607134
 31
0.0
  0
LINE
  5
144
330
40
100
AcDbEntity
  8
22202-001032_TA-
  6
Continuous
 62
     7
100
AcDbLine
 10
96.9548263827
 20
423.1942122593
 30
0.0
 11
97.0548263827
 21
423.0942122593
 31
0.0
  0
LINE
  5
145
330
40
100
AcDbEntity
  8
22202-001032_TA-
  6
Continuous
 62
     7
100
AcDbLine
 10
108.6548263827
 20
423.0942122593
 30
0.0
 11
108.7548263827
 21
423.1942122593
 31
0.0
  0
LINE
  5
146
330
40
100
AcDbEntity
  8
22202-001032_TA-
  6
Continuous
 62
     7
100
AcDbLine
 10
108.7548263827
 20
423.1942122593
 30
0.0
 11
108.7548263827
 21
430.1770549718
 31
0.0
  0
LINE
  5
147
330
40
100
AcDbEntity
  8
22202-001032_TA-
  6
Continuous
 62
     7
100
AcDbLine
 10
96.9548263827
 20
430.1770549718
 30
0.0
 11
96.9548263827
 21
423.1942122593
 31
0.0
  0
LINE
  5
148
330
40
100
AcDbEntity
  8
22202-001032_TA-
  6
Continuous
 62
     7
100
AcDbLine
 10
129.4057192162
 20
485.1502734153
 30
0.0
 11
124.9057192162
 21
492.9445020494
 31
0.0
  0
LINE
  5
149
330
40
100
AcDbEntity
  8
22202-001032_TA-
  6
Continuous
 62
     7
100
AcDbLine
 10
112.9545686439
 20
486.0445020494
 30
0.0
 11
117.4545686439
 21
478.2502734153
 31
0.0
  0
LINE
  5
14A
330
40
100
AcDbEntity
  8
22202-001032_TA-
  6
Continuous
 62
     7
100
AcDbLine
 10
119.1000169111
 20
479.2002734153
 30
0.0
 11
120.6000169111
 21
476.602197204
 31
0.0
  0
LINE
  5
14B
330
40
100
AcDbEntity
  8
22202-001032_TA-
  6
Continuous
 62
     7
100
AcDbLine
 10
129.260270949
 20
481.602197204
 30
0.0
 11
127.760270949
 21
484.2002734153
 31
0.0
  0
LINE
  5
14C
330
40
100
AcDbEntity
  8
22202-001032_TA-
  6
Continuous
 62
     7
100
AcDbLine
 10
119.7339915073
 20
476.102197204
 30
0.0
 11
130.4839915073
 21
457.4826510226
 31
0.0
  0
LINE
  5
14D
330
40
100
AcDbEntity
  8
22202-001032_TA-
  6
Continuous
 62
     7
100
AcDbLine
 10
140.8762963528
 20
463.4826510226
 30
0.0
 11
130.1262963528
 21
482.102197204
 31
0.0
  0
LINE
  5
14E
330
40
100
AcDbEntity
  8
22202-001032_TA-
  6
Continuous
 62
     7
100
AcDbLine
 10
85.2548263827
 20
310.2942122593
 30
0.0
 11
85.3548263827
 21
310.2942122593
 31
0.0
  0
LINE
  5
14F
330
40
100
AcDbEntity
  8
22202-001032_TA-
  6
Continuous
 62
     7
100
AcDbLine
 10
85.3548263827
 20
431.8942122593
 30
0.0
 11
85.2548263827
 21
431.8942122593
 31
0.0
  0
LINE
  5
150
330
40
100
AcDbEntity
  8
22202-001032_TA-
  6
Continuous
 62
     7
100
AcDbLine
 10
65.5552516497
 20
333.0942122593
 30
0.0
 11
70.6866271969
 21
333.0942122593
 31
0.0
  0
LINE
  5
151
330
40
100
AcDbEntity
  8
22202-001032_TA-
  6
Continuous
 62
     7
100
AcDbLine
 10
70.6866271969
 20
409.0942122593
 30
0.0
 11
65.5552516497
 21
409.0942122593
 31
0.0
  0
LINE
  5
152
330
40
100
AcDbEntity
  8
22202-001032_TA-
  6
Continuous
 62
     7
100
AcDbLine
 10
85.2548263827
 20
431.8942122593
 30
0.0
 11
84.8957845487
 21
425.043285948
 31
0.0
  0
LINE
  5
153
330
40
100
AcDbEntity
  8
22202-001032_TA-
  6
Continuous
 62
     7
100
AcDbLine
 10
84.8957845487
 20
317.1451385706
 30
0.0
 11
85.2548263827
 21
310.2942122593
 31
0.0
  0
LINE
  5
154
330
40
100
AcDbEntity
  8
22202-001032_TA-
  6
Continuous
 62
     7
100
AcDbLine
 10
84.8957845487
 20
425.043285948
 30
0.0
 11
79.3548263827
 21
421.8442122593
 31
0.0
  0
LINE
  5
155
330
40
100
AcDbEntity
  8
22202-001032_TA-
  6
Continuous
 62
     7
100
AcDbLine
 10
79.3548263827
 20
320.3442122593
 30
0.0
 11
84.8957845487
 21
317.1451385706
 31
0.0
  0
LINE
  5
156
330
40
100
AcDbEntity
  8
22202-001032_TA-
  6
Continuous
 62
     7
100
AcDbLine
 10
71.3548263827
 20
320.3442122593
 30
0.0
 11
79.3548263827
 21
320.3442122593
 31
0.0
  0
LINE
  5
157
330
40
100
AcDbEntity
  8
22202-001032_TA-
  6
Continuous
 62
     7
100
AcDbLine
 10
79.3548263827
 20
421.8442122593
 30
0.0
 11
71.3548263827
 21
421.8442122593
 31
0.0
  0
LINE
  5
158
330
40
100
AcDbEntity
  8
22202-001032_TA-
  6
Continuous
 62
     7
100
AcDbLine
 10
71.3548263827
 20
421.8442122593
 30
0.0
 11
70.6866271969
 21
409.0942122593
 31
0.0
  0
LINE
  5
159
330
40
100
AcDbEntity
  8
22202-001032_TA-
  6
Continuous
 62
     7
100
AcDbLine
 10
70.6866271969
 20
333.0942122593
 30
0.0
 11
71.3548263827
 21
320.3442122593
 31
0.0
  0
LINE
  5
15A
330
40
100
AcDbEntity
  8
22202-001032_TA-
  6
Continuous
 62
     7
100
AcDbLine
 10
65.5552516497
 20
409.0942122593
 30
0.0
 11
63.3307446016
 21
396.4784058802
 31
0.0
  0
LINE
  5
15B
330
40
100
AcDbEntity
  8
22202-001032_TA-
  6
Continuous
 62
     7
100
AcDbLine
 10
63.2189191553
 20
346.3442122593
 30
0.0
 11
65.5552516497
 21
333.0942122593
 31
0.0
  0
LINE
  5
15C
330
40
100
AcDbEntity
  8
22202-001032_TA-
  6
Continuous
 62
     7
100
AcDbLine
 10
42.8225721549
 20
395.8793332064
 30
0.0
 11
42.3548263827
 21
394.5942122593
 31
0.0
  0
LINE
  5
15D
330
40
100
AcDbEntity
  8
22202-001032_TA-
  6
Continuous
 62
     7
100
AcDbLine
 10
42.3548263827
 20
347.5942122593
 30
0.0
 11
42.8273463506
 21
346.2959743174
 31
0.0
  0
LINE
  5
15E
330
40
100
AcDbEntity
  8
22202-001032_TA-
  6
Continuous
 62
     7
100
AcDbLine
 10
125.2713327337
 20
454.0112408611
 30
0.0
 11
124.3213327337
 21
455.6566891283
 31
0.0
  0
LINE
  5
15F
330
40
100
AcDbEntity
  8
22202-001032_TA-
  6
Continuous
 62
     7
100
AcDbLine
 10
102.2376849372
 20
442.9066891283
 30
0.0
 11
103.1876849372
 21
441.2612408611
 31
0.0
  0
LINE
  5
160
330
40
100
AcDbEntity
  8
22202-001032_TA-
  6
Continuous
 62
     7
100
AcDbLine
 10
151.1743725641
 20
451.6458598043
 30
0.0
 11
143.4743725641
 21
464.9826510226
 31
0.0
  0
LINE
  5
161
330
40
100
AcDbEntity
  8
22202-001032_TA-
  6
Continuous
 62
     7
100
AcDbLine
 10
127.885915296
 20
455.9826510226
 30
0.0
 11
128.085915296
 21
455.6362408611
 31
0.0
  0
LINE
  5
162
330
40
100
AcDbEntity
  8
22202-001032_TA-
  6
Continuous
 62
     7
100
AcDbLine
 10
182.8916774095
 20
335.3349546462
 30
0.0
 11
191.4129387655
 21
350.0942122593
 31
0.0
  0
LINE
  5
163
330
40
100
AcDbEntity
  8
22202-001032_TA-
  6
Continuous
 62
     7
100
AcDbLine
 10
214.8548263827
 20
350.0942122593
 30
0.0
 11
225.65867396
 21
350.0942122593
 31
0.0
  0
LINE
  5
164
330
40
100
AcDbEntity
  8
22202-001032_TA-
  6
Continuous
 62
     7
100
AcDbLine
 10
225.65867396
 20
350.0942122593
 30
0.0
 11
230.8548263827
 21
347.0942122593
 31
0.0
  0
LINE
  5
165
330
40
100
AcDbEntity
  8
22202-001032_TA-
  6
Continuous
 62
     7
100
AcDbLine
 10
239.5548263827
 20
395.0942122593
 30
0.0
 11
232.1571147035
 21
395.0942122593
 31
0.0
  0
LINE
  5
166
330
40
100
AcDbEntity
  8
22202-001032_TA-
  6
Continuous
 62
     7
100
AcDbLine
 10
230.8548263827
 20
347.0942122593
 30
0.0
 11
239.5548263827
 21
347.0942122593
 31
0.0
  0
LINE
  5
167
330
40
100
AcDbEntity
  8
22202-001032_TA-
  6
Continuous
 62
     7
100
AcDbLine
 10
154.0608314547
 20
441.6463663519
 30
0.0
 11
150.2593090546
 21
448.2307962949
 31
0.0
  0
LINE
  5
168
330
40
100
AcDbEntity
  8
22202-001032_TA-
  6
Continuous
 62
     7
100
AcDbLine
 10
155.6335052183
 20
438.9224154896
 30
0.0
 11
154.7637917265
 21
440.4288034453
 31
0.0
  0
LINE
  5
169
330
40
100
AcDbEntity
  8
22202-001032_TA-
  6
Continuous
 62
     7
100
AcDbLine
 10
150.2593090546
 20
448.2307962949
 30
0.0
 11
151.1743725641
 21
451.6458598043
 31
0.0
  0
LINE
  5
16A
330
40
100
AcDbEntity
  8
22202-001032_TA-
  6
Continuous
 62
     7
100
AcDbLine
 10
95.6548263827
 20
307.0942122593
 30
0.0
 11
116.1548263827
 21
307.0942122593
 31
0.0
  0
LINE
  5
16B
330
40
100
AcDbEntity
  8
22202-001032_TA-
  6
Continuous
 62
     7
100
AcDbLine
 10
116.1548263827
 20
307.0942122593
 30
0.0
 11
133.6548263827
 21
317.1978419701
 31
0.0
  0
LINE
  5
16C
330
40
100
AcDbEntity
  8
22202-001032_TA-
  6
Continuous
 62
     7
100
AcDbLine
 10
133.6548263827
 20
317.1978419701
 30
0.0
 11
135.2730501079
 21
332.5942122593
 31
0.0
  0
LINE
  5
16D
330
40
100
AcDbEntity
  8
22202-001032_TA-
  6
Continuous
 62
     7
100
AcDbLine
 10
135.2730501079
 20
332.5942122593
 30
0.0
 11
139.6031771268
 21
340.0942122593
 31
0.0
  0
LINE
  5
16E
330
40
100
AcDbEntity
  8
22202-001032_TA-
  6
Continuous
 62
     7
100
AcDbLine
 10
171.4414106798
 20
339.5025109102
 30
0.0
 11
182.8916774095
 21
335.3349546462
 31
0.0
  0
LINE
  5
16F
330
40
100
AcDbEntity
  8
22202-001032_TA-
  6
Continuous
 62
     7
100
AcDbLine
 10
94.2381288747
 20
436.0942122593
 30
0.0
 11
85.3548263827
 21
436.0942122593
 31
0.0
  0
LINE
  5
170
330
40
100
AcDbEntity
  8
22202-001032_TA-
  6
Continuous
 62
     7
100
AcDbLine
 10
85.3548263827
 20
306.0942122593
 30
0.0
 11
94.6548263827
 21
306.0942122593
 31
0.0
  0
LINE
  5
171
330
40
100
AcDbEntity
  8
22202-001032_TA-
  6
Continuous
 62
     7
100
AcDbLine
 10
94.6548263827
 20
306.0942122593
 30
0.0
 11
95.6548263827
 21
307.0942122593
 31
0.0
  0
LINE
  5
172
330
40
100
AcDbEntity
  8
22202-001032_TA-
  6
Continuous
 62
     7
100
AcDbLine
 10
139.6031771268
 20
340.0942122593
 30
0.0
 11
170.4165538803
 21
340.0942122593
 31
0.0
  0
LINE
  5
173
330
40
100
AcDbEntity
  8
22202-001032_TA-
  6
Continuous
 62
     7
100
AcDbLine
 10
239.8278040584
 20
395.8442122593
 30
0.0
 11
239.5548263827
 21
395.0942122593
 31
0.0
  0
LINE
  5
174
330
40
100
AcDbEntity
  8
22202-001032_TA-
  6
Continuous
 62
     7
100
AcDbLine
 10
239.5548263827
 20
347.0942122593
 30
0.0
 11
239.8278040584
 21
346.3442122593
 31
0.0
  0
LINE
  5
175
330
40
100
AcDbEntity
  8
22202-001032_TA-
  6
Continuous
 62
     7
100
AcDbLine
 10
254.581848707
 20
346.3442122593
 30
0.0
 11
254.8548263827
 21
347.0942122593
 31
0.0
  0
LINE
  5
176
330
40
100
AcDbEntity
  8
22202-001032_TA-
  6
Continuous
 62
     7
100
AcDbLine
 10
254.8548263827
 20
395.0942122593
 30
0.0
 11
254.581848707
 21
395.8442122593
 31
0.0
  0
ENDBLK
  5
178
330
40
100
AcDbEntity
  8
0
100
AcDbBlockEnd
  0
BLOCK
  5
2A4
330
179
100
AcDbEntity
  8
0
100
AcDbBlockBegin
  2
SE1
 70
     0
 10
0.0
 20
0.0
 30
0.0
  3
SE1
  1

  0
LINE
  5
17B
330
179
100
AcDbEntity
  8
22202-001032_TA-
  6
Continuous
 62
     7
100
AcDbLine
 10
346.3113138374
 20
420.7388776699
 30
0.0
 11
343.1321825838
 21
418.9034053848
 31
0.0
  0
LINE
  5
17C
330
179
100
AcDbEntity
  8
22202-001032_TA-
  6
Continuous
 62
     7
100
AcDbLine
 10
337.4549289168
 20
446.5467738316
 30
0.0
 11
334.5516161874
 21
444.8705454458
 31
0.0
  0
ELLIPSE
  5
17D
330
179
100
AcDbEntity
  8
22202-001032_TA-
  6
Continuous
 62
     7
100
AcDbEllipse
 10
455.2445814873
 20
415.0423170924
 30
0.0
 11
-45.00000000118872
 21
77.94228633904891
 31
0.0
210
0.0
220
0.0
230
1.0
 40
0.9588197349
 41
5.990729472015048
 42
6.16625234569743
  0
ELLIPSE
  5
17E
330
179
100
AcDbEntity
  8
22202-001032_TA-
  6
Continuous
 62
     7
100
AcDbEllipse
 10
372.2143594284
 20
427.9304935157
 30
0.0
 11
-50.00000000010192
 21
86.60254037837444
 31
0.0
210
0.0
220
0.0
230
1.0
 40
0.9588197349
 41
4.779673745723096
 42
5.054014237059213
  0
LINE
  5
17F
330
179
100
AcDbEntity
  8
22202-001032_TA-
  6
Continuous
 62
     7
100
AcDbLine
 10
419.2706843457
 20
497.4861491198
 30
0.0
 11
420.8042000425
 21
498.3715248201
 31
0.0
  0
LINE
  5
180
330
179
100
AcDbEntity
  8
22202-001032_TA-
  6
Continuous
 62
     7
100
AcDbLine
 10
429.9512285885
 20
469.0284049664
 30
0.0
 11
451.700992301
 21
481.5856369006
 31
0.0
  0
LINE
  5
181
330
179
100
AcDbEntity
  8
22202-001032_TA-
  6
Continuous
 62
     7
100
AcDbLine
 10
413.8383210478
 20
490.6467458401
 30
0.0
 11
433.7010951234
 21
502.1145237995
 31
0.0
  0
LINE
  5
182
330
179
100
AcDbEntity
  8
22202-001032_TA-
  6
Continuous
 62
     7
100
AcDbLine
 10
385.2449245069
 20
476.577423623
 30
0.0
 11
405.2048656122
 21
488.1013009931
 31
0.0
  0
LINE
  5
183
330
179
100
AcDbEntity
  8
22202-001032_TA-
  6
Continuous
 62
     7
100
AcDbLine
 10
387.0049765873
 20
473.8191383631
 30
0.0
 11
412.9707785607
 21
488.8105011222
 31
0.0
  0
LINE
  5
184
330
179
100
AcDbEntity
  8
22202-001032_TA-
  6
Continuous
 62
     7
100
AcDbLine
 10
412.9707785607
 20
488.8105011222
 30
0.0
 11
405.2048656122
 21
488.1013009931
 31
0.0
  0
LINE
  5
185
330
179
100
AcDbEntity
  8
22202-001032_TA-
  6
Continuous
 62
     7
100
AcDbLine
 10
405.2048656122
 20
488.1013009931
 30
0.0
 11
404.6575618514
 21
489.049258914
 31
0.0
  0
LINE
  5
186
330
179
100
AcDbEntity
  8
22202-001032_TA-
  6
Continuous
 62
     7
100
AcDbLine
 10
428.5639394812
 20
468.2274532269
 30
0.0
 11
412.9707785607
 21
488.8105011222
 31
0.0
  0
LINE
  5
187
330
179
100
AcDbEntity
  8
22202-001032_TA-
  6
Continuous
 62
     7
100
AcDbLine
 10
429.9512285885
 20
469.0284049664
 30
0.0
 11
428.5639394812
 21
468.2274532269
 31
0.0
  0
ELLIPSE
  5
188
330
179
100
AcDbEntity
  8
22202-001032_TA-
  6
Continuous
 62
     7
100
AcDbEllipse
 10
384.3717036653
 20
434.9495394834
 30
0.0
 11
-50.00000000000417
 21
86.60254037846207
 31
0.0
210
0.0
220
0.0
230
1.0
 40
0.5664062369
 41
4.779673745724378
 42
5.054014237060425
  0
ELLIPSE
  5
189
330
179
100
AcDbEntity
  8
22202-001032_TA-
  6
Continuous
 62
     7
100
AcDbEllipse
 10
444.199779602
 20
408.6655977508
 30
0.0
 11
-44.99999999969972
 21
77.94228633980211
 31
0.0
210
0.0
220
0.0
230
1.0
 40
0.5664062369
 41
5.990729472033272
 42
6.166252345715731
  0
ELLIPSE
  5
18A
330
179
100
AcDbEntity
  8
22202-001032_TA-
  6
Continuous
 62
     7
100
AcDbEllipse
 10
428.9945802481
 20
399.8868718107
 30
0.0
 11
-44.9999999996195
 21
77.94228633994194
 31
0.0
210
0.0
220
0.0
230
1.0
 40
0.0261769483
 41
-0.2924558351452777
 42
-0.116932961462898
  0
ELLIPSE
  5
18B
330
179
100
AcDbEntity
  8
22202-001032_TA-
  6
Continuous
 62
     7
100
AcDbEllipse
 10
401.1085220035
 20
444.6125460564
 30
0.0
 11
-49.99999999997344
 21
86.60254037840721
 31
0.0
210
0.0
220
0.0
230
1.0
 40
0.0261769483
 41
-1.503511561455166
 42
-1.229171070117941
  0
LINE
  5
18C
330
179
100
AcDbEntity
  8
22202-001032_TA-
  6
Continuous
 62
     7
100
AcDbLine
 10
428.5639394812
 20
468.2274532269
 30
0.0
 11
399.9445674169
 21
451.7040510615
 31
0.0
  0
LINE
  5
18D
330
179
100
AcDbEntity
  8
22202-001032_TA-
  6
Continuous
 62
     7
100
AcDbLine
 10
384.5399134755
 20
477.4343292087
 30
0.0
 11
404.6575618514
 21
489.049258914
 31
0.0
  0
LINE
  5
18E
330
179
100
AcDbEntity
  8
22202-001032_TA-
  6
Continuous
 62
     7
100
AcDbLine
 10
364.8168252346
 20
431.4230396565
 30
0.0
 11
400.0086821687
 21
451.7410677307
 31
0.0
  0
LINE
  5
18F
330
179
100
AcDbEntity
  8
22202-001032_TA-
  6
Continuous
 62
     7
100
AcDbLine
 10
354.3549190452
 20
456.3039876816
 30
0.0
 11
386.4935626104
 21
474.8592421953
 31
0.0
  0
LINE
  5
190
330
179
100
AcDbEntity
  8
22202-001032_TA-
  6
Continuous
 62
     7
100
AcDbLine
 10
349.0092978888
 20
455.6567748408
 30
0.0
 11
357.7751063978
 21
460.7177167431
 31
0.0
  0
LINE
  5
191
330
179
100
AcDbEntity
  8
22202-001032_TA-
  6
Continuous
 62
     7
100
AcDbLine
 10
340.4392899875
 20
446.9344266697
 30
0.0
 11
349.0092978888
 21
455.6567748408
 31
0.0
  0
LINE
  5
192
330
179
100
AcDbEntity
  8
22202-001032_TA-
  6
Continuous
 62
     7
100
AcDbLine
 10
340.4392899875
 20
446.9344266697
 30
0.0
 11
354.72056162
 21
455.1797226911
 31
0.0
  0
ELLIPSE
  5
193
330
179
100
AcDbEntity
  8
22202-001032_TA-
  6
Continuous
 62
     7
100
AcDbEllipse
 10
420.7795181916
 20
455.9696010009
 30
0.0
 11
-49.99999999994905
 21
86.60254037841779
 31
0.0
210
0.0
220
0.0
230
1.0
 40
0.608761429
 41
1.229171070119376
 42
1.503511561455597
  0
ELLIPSE
  5
194
330
179
100
AcDbEntity
  8
22202-001032_TA-
  6
Continuous
 62
     7
100
AcDbEllipse
 10
411.1237153999
 20
389.5691231777
 30
0.0
 11
-45.00000000075786
 21
77.94228634148195
 31
0.0
210
0.0
220
0.0
230
1.0
 40
0.608761429
 41
0.1169329614601967
 42
0.292455835140687
  0
ELLIPSE
  5
195
330
179
100
AcDbEntity
  8
22202-001032_TA-
  6
Continuous
 62
     7
100
AcDbEllipse
 10
401.7263853935
 20
384.1435721689
 30
0.0
 11
-45.00000000223063
 21
77.94228634060833
 31
0.0
210
0.0
220
0.0
230
1.0
 40
0.9426414911
 41
0.1169329614414431
 42
0.2924558351219698
  0
ELLIPSE
  5
196
330
179
100
AcDbEntity
  8
22202-001032_TA-
  6
Continuous
 62
     7
100
AcDbEllipse
 10
431.1234407882
 20
461.9416674965
 30
0.0
 11
-49.99999999979754
 21
86.60254037850918
 31
0.0
210
0.0
220
0.0
230
1.0
 40
0.9426414911
 41
1.229171070121103
 42
1.503511561457314
  0
LINE
  5
197
330
179
100
AcDbEntity
  8
22202-001032_TA-
  6
Continuous
 62
     7
100
AcDbLine
 10
346.3113138374
 20
420.7388776699
 30
0.0
 11
348.620109517
 21
422.071861477
 31
0.0
  0
LINE
  5
198
330
179
100
AcDbEntity
  8
22202-001032_TA-
  6
Continuous
 62
     7
100
AcDbLine
 10
348.620109517
 20
422.071861477
 30
0.0
 11
340.4392899875
 21
446.9344266697
 31
0.0
  0
LINE
  5
199
330
179
100
AcDbEntity
  8
22202-001032_TA-
  6
Continuous
 62
     7
100
AcDbLine
 10
349.0092978888
 20
455.6567748408
 30
0.0
 11
348.461994128
 21
456.6047327616
 31
0.0
  0
LINE
  5
19A
330
179
100
AcDbEntity
  8
22202-001032_TA-
  6
Continuous
 62
     7
100
AcDbLine
 10
364.8168252346
 20
431.4230396565
 30
0.0
 11
348.620109517
 21
422.071861477
 31
0.0
  0
LINE
  5
19B
330
179
100
AcDbEntity
  8
22202-001032_TA-
  6
Continuous
 62
     7
100
AcDbLine
 10
348.461994128
 20
456.6047327616
 30
0.0
 11
360.895384598
 21
463.7831540964
 31
0.0
  0
LINE
  5
19C
330
179
100
AcDbEntity
  8
22202-001032_TA-
  6
Continuous
 62
     7
100
AcDbLine
 10
380.1053451247
 20
396.1403101645
 30
0.0
 11
456.1337974552
 21
440.0353575835
 31
0.0
  0
SPLINE
  5
19D
330
179
100
AcDbEntity
  8
22202-001032_TA-
  6
Continuous
 62
     7
100
AcDbSpline
210
0.0
220
0.0
230
1.0
 70
     8
 71
     3
 72
    14
 73
    10
 74
     0
 42
0.0000000068653568
 43
0.0000000001
 12
1.0
 22
0.0
 32
0.0
 13
1.0
 23
0.0
 33
0.0
 40
0.0
 40
0.0
 40
0.0
 40
0.0
 40
0.1250000000000009
 40
0.1250000000000009
 40
0.2500000000000018
 40
0.2500000000000018
 40
0.5000000000000012
 40
0.5000000000000012
 40
0.5009623323097842
 40
0.5009623323097842
 40
0.5009623323097842
 40
0.5009623323097842
 10
456.133797455152
 20
440.035357583542
 30
0.0
 10
456.1049857578786
 20
440.1457086566189
 30
0.0
 10
456.0792401362317
 20
440.2450219532271
 30
0.0
 10
456.0342038515606
 20
440.4195124595498
 30
0.0
 10
456.0148298211292
 20
440.4950153689441
 30
0.0
 10
455.9678837045465
 20
440.6784850913456
 30
0.0
 10
455.9519262850831
 20
440.7415079707338
 30
0.0
 10
455.9518035819827
 20
440.741990947684
 30
0.0
 10
455.951803354357
 20
440.7419918428253
 30
0.0
 10
455.9518033695215
 20
440.7419917815221
 30
0.0
  0
ELLIPSE
  5
19E
330
179
100
AcDbEntity
  8
22202-001032_TA-
  6
Continuous
 62
     7
100
AcDbEllipse
 10
398.9708850955
 20
468.5040817025
 30
0.0
 11
20.05766854923853
 21
72.46468212912794
 31
0.0
210
0.0
220
0.0
230
1.0
 40
0.0987395105
 41
3.073763202945103
 42
3.26396626355106
  0
LINE
  5
19F
330
179
100
AcDbEntity
  8
22202-001032_TA-
  6
Continuous
 62
     7
100
AcDbLine
 10
379.9366290181
 20
396.3395584072
 30
0.0
 11
380.1053451247
 21
396.1403101645
 31
0.0
  0
LINE
  5
1A0
330
179
100
AcDbEntity
  8
22202-001032_TA-
  6
Continuous
 62
     7
100
AcDbLine
 10
453.1127036876
 20
471.2000936274
 30
0.0
 11
353.7029131645
 21
413.8058243088
 31
0.0
  0
LINE
  5
1A1
330
179
100
AcDbEntity
  8
22202-001032_TA-
  6
Continuous
 62
     7
100
AcDbLine
 10
457.6996782188
 20
451.3317241094
 30
0.0
 11
368.6159386333
 21
399.8992030793
 31
0.0
  0
LINE
  5
1A2
330
179
100
AcDbEntity
  8
22202-001032_TA-
  6
Continuous
 62
     7
100
AcDbLine
 10
454.5329014403
 20
444.6403928132
 30
0.0
 11
453.4250825551
 21
448.8637851523
 31
0.0
  0
LINE
  5
1A3
330
179
100
AcDbEntity
  8
22202-001032_TA-
  6
Continuous
 62
     7
100
AcDbLine
 10
411.9242493024
 20
493.9520506706
 30
0.0
 11
354.5933675719
 21
460.8520506706
 31
0.0
  0
LINE
  5
1A4
330
179
100
AcDbEntity
  8
22202-001032_TA-
  6
Continuous
 62
     7
100
AcDbLine
 10
412.7026721547
 20
494.4037827406
 30
0.0
 11
353.8129446974
 21
460.4037827406
 31
0.0
  0
LINE
  5
1A5
330
179
100
AcDbEntity
  8
22202-001032_TA-
  6
Continuous
 62
     7
100
AcDbLine
 10
411.6026721547
 20
496.3090386289
 30
0.0
 11
352.7129446974
 21
462.3090386289
 31
0.0
  0
LINE
  5
1A6
330
179
100
AcDbEntity
  8
22202-001032_TA-
  6
Continuous
 62
     7
100
AcDbLine
 10
405.6206213471
 20
502.6702545611
 30
0.0
 11
350.1949955049
 21
470.6702545611
 31
0.0
  0
LINE
  5
1A7
330
179
100
AcDbEntity
  8
22202-001032_TA-
  6
Continuous
 62
     7
100
AcDbLine
 10
371.1180624639
 20
518.4304395381
 30
0.0
 11
353.7975543882
 21
508.4304395381
 31
0.0
  0
LINE
  5
1A8
330
179
100
AcDbEntity
  8
22202-001032_TA-
  6
Continuous
 62
     7
100
AcDbLine
 10
352.8616214729
 20
538.9515228999
 30
0.0
 11
345.1539953792
 21
534.5015228999
 31
0.0
  0
LINE
  5
1A9
330
179
100
AcDbEntity
  8
22202-001032_TA-
  6
Continuous
 62
     7
100
AcDbLine
 10
349.7741214729
 20
544.2992297682
 30
0.0
 11
342.0664953792
 21
539.8492297682
 31
0.0
  0
LINE
  5
1AA
330
179
100
AcDbEntity
  8
22202-001032_TA-
  6
Continuous
 62
     7
100
AcDbLine
 10
341.373945434
 20
556.7987614601
 30
0.0
 11
335.4416714181
 21
553.3737614601
 31
0.0
  0
LINE
  5
1AB
330
179
100
AcDbEntity
  8
22202-001032_TA-
  6
Continuous
 62
     7
100
AcDbLine
 10
351.7264112179
 20
422.0177647388
 30
0.0
 11
446.9892056342
 21
477.0177647388
 31
0.0
  0
LINE
  5
1AC
330
179
100
AcDbEntity
  8
22202-001032_TA-
  6
Continuous
 62
     7
100
AcDbLine
 10
382.4199381726
 20
397.4766410837
 30
0.0
 11
383.1949381726
 21
396.1343017079
 31
0.0
  0
LINE
  5
1AD
330
179
100
AcDbEntity
  8
22202-001032_TA-
  6
Continuous
 62
     7
100
AcDbLine
 10
383.1949381726
 20
396.1343017079
 30
0.0
 11
454.6486401066
 21
437.388115754
 31
0.0
  0
ARC
  5
1AE
330
179
100
AcDbEntity
  8
22202-001032_TA-
  6
Continuous
 62
     7
100
AcDbCircle
 10
521.1262199972
 20
466.20284968
 30
0.0
 40
72.45383025995645
100
AcDbArc
 50
202.8925214424
 51
203.4343398457
  0
LINE
  5
1AF
330
179
100
AcDbEntity
  8
22202-001032_TA-
  6
Continuous
 62
     7
100
AcDbLine
 10
492.6089196074
 20
450.7584262767
 30
0.0
 11
489.2872110113
 21
452.6762156288
 31
0.0
  0
LINE
  5
1B0
330
179
100
AcDbEntity
  8
22202-001032_TA-
  6
Continuous
 62
     7
100
AcDbLine
 10
489.2872110113
 20
452.6762156288
 30
0.0
 11
484.3992743322
 21
455.4982671863
 31
0.0
  0
LINE
  5
1B1
330
179
100
AcDbEntity
  8
22202-001032_TA-
  6
Continuous
 62
     7
100
AcDbLine
 10
484.3992743322
 20
455.4982671863
 30
0.0
 11
484.1757576185
 21
455.6273146211
 31
0.0
  0
LINE
  5
1B2
330
179
100
AcDbEntity
  8
22202-001032_TA-
  6
Continuous
 62
     7
100
AcDbLine
 10
509.2130457007
 20
441.172029607
 30
0.0
 11
509.2904943282
 21
441.1273146211
 31
0.0
  0
LINE
  5
1B3
330
179
100
AcDbEntity
  8
22202-001032_TA-
  6
Continuous
 62
     7
100
AcDbLine
 10
509.2130457007
 20
441.172029607
 30
0.0
 11
504.9427712485
 21
443.6374737115
 31
0.0
  0
LINE
  5
1B4
330
179
100
AcDbEntity
  8
22202-001032_TA-
  6
Continuous
 62
     7
100
AcDbLine
 10
504.9427712485
 20
443.6374737115
 30
0.0
 11
501.7671307386
 21
445.4709306148
 31
0.0
  0
LINE
  5
1B5
330
179
100
AcDbEntity
  8
22202-001032_TA-
  6
Continuous
 62
     7
100
AcDbLine
 10
501.7671307386
 20
445.4709306148
 30
0.0
 11
492.6089196074
 21
450.7584262767
 31
0.0
  0
LINE
  5
1B6
330
179
100
AcDbEntity
  8
22202-001032_TA-
  6
Continuous
 62
     7
100
AcDbLine
 10
488.8992743322
 20
463.2924958203
 30
0.0
 11
493.7872110113
 21
460.4704442629
 31
0.0
  0
LINE
  5
1B7
330
179
100
AcDbEntity
  8
22202-001032_TA-
  6
Continuous
 62
     7
100
AcDbLine
 10
497.1089196074
 20
458.5526549108
 30
0.0
 11
506.2671307386
 21
453.2651592488
 31
0.0
  0
LINE
  5
1B8
330
179
100
AcDbEntity
  8
22202-001032_TA-
  6
Continuous
 62
     7
100
AcDbLine
 10
509.4427712485
 20
451.4317023456
 30
0.0
 11
513.7130457007
 21
448.9662582411
 31
0.0
  0
LINE
  5
1B9
330
179
100
AcDbEntity
  8
22202-001032_TA-
  6
Continuous
 62
     7
100
AcDbLine
 10
484.3992743322
 20
455.4982671863
 30
0.0
 11
488.8992743322
 21
463.2924958203
 31
0.0
  0
LINE
  5
1BA
330
179
100
AcDbEntity
  8
22202-001032_TA-
  6
Continuous
 62
     7
100
AcDbLine
 10
488.8992743322
 20
463.2924958203
 30
0.0
 11
488.6757576185
 21
463.4215432552
 31
0.0
  0
LINE
  5
1BB
330
179
100
AcDbEntity
  8
22202-001032_TA-
  6
Continuous
 62
     7
100
AcDbLine
 10
497.1089196074
 20
458.5526549108
 30
0.0
 11
493.7872110113
 21
460.4704442629
 31
0.0
  0
LINE
  5
1BC
330
179
100
AcDbEntity
  8
22202-001032_TA-
  6
Continuous
 62
     7
100
AcDbLine
 10
493.7872110113
 20
460.4704442629
 30
0.0
 11
489.2872110113
 21
452.6762156288
 31
0.0
  0
LINE
  5
1BD
330
179
100
AcDbEntity
  8
22202-001032_TA-
  6
Continuous
 62
     7
100
AcDbLine
 10
492.6089196074
 20
450.7584262767
 30
0.0
 11
497.1089196074
 21
458.5526549108
 31
0.0
  0
LINE
  5
1BE
330
179
100
AcDbEntity
  8
22202-001032_TA-
  6
Continuous
 62
     7
100
AcDbLine
 10
513.7130457007
 20
448.9662582411
 30
0.0
 11
513.7904943283
 21
448.9215432551
 31
0.0
  0
LINE
  5
1BF
330
179
100
AcDbEntity
  8
22202-001032_TA-
  6
Continuous
 62
     7
100
AcDbLine
 10
513.7130457007
 20
448.9662582411
 30
0.0
 11
509.2130457007
 21
441.172029607
 31
0.0
  0
LINE
  5
1C0
330
179
100
AcDbEntity
  8
22202-001032_TA-
  6
Continuous
 62
     7
100
AcDbLine
 10
504.9427712485
 20
443.6374737115
 30
0.0
 11
509.4427712485
 21
451.4317023456
 31
0.0
  0
LINE
  5
1C1
330
179
100
AcDbEntity
  8
22202-001032_TA-
  6
Continuous
 62
     7
100
AcDbLine
 10
509.4427712485
 20
451.4317023456
 30
0.0
 11
506.2671307386
 21
453.2651592488
 31
0.0
  0
LINE
  5
1C2
330
179
100
AcDbEntity
  8
22202-001032_TA-
  6
Continuous
 62
     7
100
AcDbLine
 10
506.2671307386
 20
453.2651592488
 30
0.0
 11
501.7671307386
 21
445.4709306148
 31
0.0
  0
LINE
  5
1C3
330
179
100
AcDbEntity
  8
22202-001032_TA-
  6
Continuous
 62
     7
100
AcDbLine
 10
514.0433800112
 20
458.3595541065
 30
0.0
 11
496.7228719355
 21
468.3595541066
 31
0.0
  0
LINE
  5
1C4
330
179
100
AcDbEntity
  8
22202-001032_TA-
  6
Continuous
 62
     7
100
AcDbLine
 10
511.8720987191
 20
460.9987845911
 30
0.0
 11
500.0941532276
 21
467.7987845911
 31
0.0
  0
LINE
  5
1C5
330
179
100
AcDbEntity
  8
22202-001032_TA-
  6
Continuous
 62
     7
100
AcDbLine
 10
511.0338301287
 20
464.9468608026
 30
0.0
 11
503.9324218181
 21
469.0468608023
 31
0.0
  0
LINE
  5
1C6
330
179
100
AcDbEntity
  8
22202-001032_TA-
  6
Continuous
 62
     7
100
AcDbLine
 10
512.0730606135
 20
464.9468608026
 30
0.0
 11
503.4128065757
 21
469.9468608026
 31
0.0
  0
LINE
  5
1C7
330
179
100
AcDbEntity
  8
22202-001032_TA-
  6
Continuous
 62
     7
100
AcDbLine
 10
519.2618101508
 20
472.898140244
 30
0.0
 11
506.7044417959
 21
480.148140244
 31
0.0
  0
LINE
  5
1C8
330
179
100
AcDbEntity
  8
22202-001032_TA-
  6
Continuous
 62
     7
100
AcDbLine
 10
514.2618101508
 20
464.2378862062
 30
0.0
 11
501.7044417959
 21
471.4878862062
 31
0.0
  0
LINE
  5
1C9
330
179
100
AcDbEntity
  8
22202-001032_TA-
  6
Continuous
 62
     7
100
AcDbLine
 10
501.257808426
 20
422.2898377521
 30
0.0
 11
513.057808426
 21
422.2898377521
 31
0.0
  0
LINE
  5
1CA
330
179
100
AcDbEntity
  8
22202-001032_TA-
  6
Continuous
 62
     7
100
AcDbLine
 10
501.257808426
 20
429.2726804646
 30
0.0
 11
513.057808426
 21
429.2726804646
 31
0.0
  0
LINE
  5
1CB
330
179
100
AcDbEntity
  8
22202-001032_TA-
  6
Continuous
 62
     7
100
AcDbLine
 10
500.1412886361
 20
422.1898377521
 30
0.0
 11
500.1580749646
 21
422.1898377521
 31
0.0
  0
LINE
  5
1CC
330
179
100
AcDbEntity
  8
22202-001032_TA-
  6
Continuous
 62
     7
100
AcDbLine
 10
500.1580749646
 20
422.1898377521
 30
0.0
 11
514.1575418875
 21
422.1898377521
 31
0.0
  0
LINE
  5
1CD
330
179
100
AcDbEntity
  8
22202-001032_TA-
  6
Continuous
 62
     7
100
AcDbLine
 10
514.1575418875
 20
422.1898377521
 30
0.0
 11
514.174328216
 21
422.1898377521
 31
0.0
  0
LINE
  5
1CE
330
179
100
AcDbEntity
  8
22202-001032_TA-
  6
Continuous
 62
     7
100
AcDbLine
 10
497.0580661649
 20
485.1401275422
 30
0.0
 11
485.1069155926
 21
492.0401275422
 31
0.0
  0
LINE
  5
1CF
330
179
100
AcDbEntity
  8
22202-001032_TA-
  6
Continuous
 62
     7
100
AcDbLine
 10
492.5580661649
 20
477.3458989081
 30
0.0
 11
480.6069155926
 21
484.2458989081
 31
0.0
  0
LINE
  5
1D0
330
179
100
AcDbEntity
  8
22202-001032_TA-
  6
Continuous
 62
     7
100
AcDbLine
 10
479.886338456
 20
481.1978226968
 30
0.0
 11
490.2786433014
 21
475.1978226968
 31
0.0
  0
LINE
  5
1D1
330
179
100
AcDbEntity
  8
22202-001032_TA-
  6
Continuous
 62
     7
100
AcDbLine
 10
539.3260076119
 20
408.1898377521
 30
0.0
 11
539.3260076119
 21
332.1898377521
 31
0.0
  0
LINE
  5
1D2
330
179
100
AcDbEntity
  8
22202-001032_TA-
  6
Continuous
 62
     7
100
AcDbLine
 10
524.757808426
 20
430.9898377521
 30
0.0
 11
524.757808426
 21
309.3898377521
 31
0.0
  0
LINE
  5
1D3
330
179
100
AcDbEntity
  8
22202-001032_TA-
  6
Continuous
 62
     7
100
AcDbLine
 10
525.1168502601
 20
424.1389114408
 30
0.0
 11
525.1168502601
 21
316.2407640634
 31
0.0
  0
LINE
  5
1D4
330
179
100
AcDbEntity
  8
22202-001032_TA-
  6
Continuous
 62
     7
100
AcDbLine
 10
530.657808426
 20
420.9398377521
 30
0.0
 11
530.657808426
 21
319.4398377521
 31
0.0
  0
LINE
  5
1D5
330
179
100
AcDbEntity
  8
22202-001032_TA-
  6
Continuous
 62
     7
100
AcDbLine
 10
538.657808426
 20
420.9398377521
 30
0.0
 11
538.657808426
 21
319.4398377521
 31
0.0
  0
ARC
  5
1D6
330
179
100
AcDbEntity
  8
22202-001032_TA-
  6
Continuous
 62
     7
100
AcDbCircle
 10
426.1827414226
 20
381.5606132605
 30
0.0
 40
120.6055415483058
100
AcDbArc
 50
353.9592114438
 51
6.0407885562
  0
SPLINE
  5
1D7
330
179
100
AcDbEntity
  8
22202-001032_TA-
  6
Continuous
 62
     7
100
AcDbSpline
210
0.0
220
0.0
230
1.0
 70
     8
 71
     3
 72
    11
 73
     7
 74
     0
 42
0.0000000051275794
 43
0.0000000001
 12
1.0
 22
0.0
 32
0.0
 13
1.0
 23
0.0
 33
0.0
 40
0.0
 40
0.0
 40
0.0
 40
0.0
 40
0.25
 40
0.25
 40
0.5
 40
0.5400757066332051
 40
0.5400757066332051
 40
0.5400757066332051
 40
0.5400757066332051
 10
546.1185881520644
 20
394.2527100709635
 30
0.0
 10
546.3285556634803
 20
394.3628201794666
 30
0.0
 10
546.4990476347132
 20
394.4729302879696
 30
0.0
 10
546.7319856742798
 20
394.6931505049757
 30
0.0
 10
546.8036111436653
 20
394.8209115751017
 30
0.0
 10
546.7921293784711
 20
394.9486726452276
 30
0.0
 10
546.7889856261698
 20
394.9663236068505
 30
0.0
  0
ARC
  5
1D8
330
179
100
AcDbEntity
  8
22202-001032_TA-
  6
Continuous
 62
     7
100
AcDbCircle
 10
438.3742922507
 20
356.8370802906
 30
0.0
 40
108.4139693735873
100
AcDbArc
 50
353.6283727344
 51
6.3716272656
  0
LINE
  5
1D9
330
179
100
AcDbEntity
  8
22202-001032_TA-
  6
Continuous
 62
     7
100
AcDbLine
 10
544.4573831591
 20
408.1898377521
 30
0.0
 11
544.4573831591
 21
332.1898377521
 31
0.0
  0
LINE
  5
1DA
330
179
100
AcDbEntity
  8
22202-001032_TA-
  6
Continuous
 62
     7
100
AcDbLine
 10
565.8092624511
 20
394.252710071
 30
0.0
 11
546.1185881521
 21
394.252710071
 31
0.0
  0
LINE
  5
1DB
330
179
100
AcDbEntity
  8
22202-001032_TA-
  6
Continuous
 62
     7
100
AcDbLine
 10
565.8092624511
 20
395.574031373
 30
0.0
 11
546.6818902072
 21
395.574031373
 31
0.0
  0
LINE
  5
1DC
330
179
100
AcDbEntity
  8
22202-001032_TA-
  6
Continuous
 62
     7
100
AcDbLine
 10
565.8092624511
 20
344.8056441312
 30
0.0
 11
546.1185881521
 21
344.8056441312
 31
0.0
  0
LINE
  5
1DD
330
179
100
AcDbEntity
  8
22202-001032_TA-
  6
Continuous
 62
     7
100
AcDbLine
 10
565.8092624511
 20
368.8685164501
 30
0.0
 11
546.1185881521
 21
368.8685164501
 31
0.0
  0
SPLINE
  5
1DE
330
179
100
AcDbEntity
  8
22202-001032_TA-
  6
Continuous
 62
     7
100
AcDbSpline
210
0.0
220
0.0
230
1.0
 70
     8
 71
     3
 72
    14
 73
    10
 74
     0
 42
0.0000000030800896
 43
0.0000000001
 12
1.0
 22
0.0
 32
0.0
 13
1.0
 23
0.0
 33
0.0
 40
0.0
 40
0.0
 40
0.0
 40
0.0
 40
0.25
 40
0.25
 40
0.5
 40
0.5
 40
0.75
 40
0.75
 40
1.0
 40
1.0
 40
1.0
 40
1.0
 10
565.8092624511379
 20
395.5740313730002
 30
0.0
 10
566.2408797249425
 20
395.4643767844053
 30
0.0
 10
566.5926811020315
 20
395.3544435340001
 30
0.0
 10
567.073855773007
 20
395.13455318939
 30
0.0
 10
567.2021227912618
 20
395.0244987621794
 30
0.0
 10
567.2035622722564
 20
394.8041417751651
 30
0.0
 10
567.0766674984225
 20
394.6938391499598
 30
0.0
 10
566.5950366258394
 20
394.4730122763999
 30
0.0
 10
566.2404455455452
 20
394.3622543540492
 30
0.0
 10
565.8092624511379
 20
394.2527100709635
 30
0.0
  0
ARC
  5
1DF
330
179
100
AcDbEntity
  8
22202-001032_TA-
  6
Continuous
 62
     7
100
AcDbCircle
 10
508.1809414341
 20
381.5606132605
 30
0.0
 40
59.00942894728959
100
AcDbArc
 50
347.5794324109
 51
12.4205675891
  0
ARC
  5
1E0
330
179
100
AcDbEntity
  8
22202-001032_TA-
  6
Continuous
 62
     7
100
AcDbCircle
 10
514.0871918505
 20
356.8370802906
 30
0.0
 40
53.1029946733472
100
AcDbArc
 50
346.9049041276
 51
13.0950958724
  0
SPLINE
  5
1E1
330
179
100
AcDbEntity
  8
22202-001032_TA-
  6
Continuous
 62
     7
100
AcDbSpline
210
0.0
220
0.0
230
1.0
 70
     8
 71
     3
 72
    10
 73
     6
 74
     0
 42
0.000000002954896
 43
0.0000000001
 12
1.0
 22
0.0
 32
0.0
 13
1.0
 23
0.0
 33
0.0
 40
0.0
 40
0.0
 40
0.0
 40
0.0
 40
0.2500000000000001
 40
0.2500000000000001
 40
0.4592058319424496
 40
0.4592058319424496
 40
0.4592058319424496
 40
0.4592058319424496
 10
565.8092624511379
 20
344.8056441312098
 30
0.0
 10
566.2404455452987
 20
344.9151884142329
 30
0.0
 10
566.5950366254353
 20
345.0259463365186
 30
0.0
 10
567.0373720364975
 20
345.228756312787
 30
0.0
 10
567.1591164152371
 20
345.3210752539682
 30
0.0
 10
567.1930605319169
 20
345.4133087911255
 30
0.0
  0
LINE
  5
1E2
330
179
100
AcDbEntity
  8
22202-001032_TA-
  6
Continuous
 62
     7
100
AcDbLine
 10
567.657808426
 20
393.6898377521
 30
0.0
 11
567.657808426
 21
346.6898377521
 31
0.0
  0
ARC
  5
1E3
330
179
100
AcDbEntity
  8
22202-001032_TA-
  6
Continuous
 62
     7
100
AcDbCircle
 10
486.4977787351
 20
539.2747984824
 30
0.0
 40
106.4124036729702
100
AcDbArc
 50
273.9660375224
 51
278.6210748667
  0
LINE
  5
1E4
330
179
100
AcDbEntity
  8
22202-001032_TA-
  6
Continuous
 62
     7
100
AcDbLine
 10
502.4488941275
 20
434.0647154428
 30
0.0
 11
506.2674893303
 21
440.6787163475
 31
0.0
  0
LINE
  5
1E5
330
179
100
AcDbEntity
  8
22202-001032_TA-
  6
Continuous
 62
     7
100
AcDbLine
 10
491.1284418264
 20
431.4059211004
 30
0.0
 11
493.857808426
 21
433.1172287174
 31
0.0
  0
LINE
  5
1E6
330
179
100
AcDbEntity
  8
22202-001032_TA-
  6
Continuous
 62
     7
100
AcDbLine
 10
470.4436714522
 20
359.4429607595
 30
0.0
 11
427.1209573993
 21
334.430580139
 31
0.0
  0
LINE
  5
1E7
330
179
100
AcDbEntity
  8
22202-001032_TA-
  6
Continuous
 62
     7
100
AcDbLine
 10
470.4436714522
 20
359.4429607595
 30
0.0
 11
470.409457682
 21
359.5658212023
 31
0.0
  0
SPLINE
  5
1E8
330
179
100
AcDbEntity
  8
22202-001032_TA-
  6
Continuous
 62
     7
100
AcDbSpline
210
0.0
220
0.0
230
1.0
 70
     8
 71
     3
 72
    18
 73
    14
 74
     0
 42
0.0000000002898392
 43
0.0000000001
 12
1.0
 22
0.0
 32
0.0
 13
1.0
 23
0.0
 33
0.0
 40
0.0
 40
0.0
 40
0.0
 40
0.0
 40
0.2499999999999998
 40
0.2499999999999998
 40
0.3749999999999998
 40
0.3749999999999998
 40
0.4999999999999999
 40
0.4999999999999999
 40
0.625
 40
0.625
 40
0.7500000000000001
 40
0.7500000000000001
 40
1.0
 40
1.0
 40
1.0
 40
1.0
 10
470.4094576820132
 20
359.5658212022902
 30
0.0
 10
468.0799754129213
 20
361.3328580158439
 30
0.0
 10
465.7954009777976
 20
363.1832290471639
 30
0.0
 10
462.6571495814654
 20
366.3435185176596
 30
0.0
 10
461.6574298673616
 20
367.4715806998919
 30
0.0
 10
459.9250222543333
 20
369.9008878289137
 30
0.0
 10
459.1812411101581
 20
371.2348208911989
 30
0.0
 10
458.1767460408432
 20
374.0314956646807
 30
0.0
 10
457.9129419826256
 20
375.5228859763049
 30
0.0
 10
457.8171620048321
 20
378.4367470733723
 30
0.0
 10
457.9696205488185
 20
379.8854569458438
 30
0.0
 10
458.7163708546617
 20
384.0030570741403
 30
0.0
 10
459.5727620149417
 20
386.5301045020024
 30
0.0
 10
460.4385152159709
 20
388.8271125068732
 30
0.0
  0
ELLIPSE
  5
1E9
330
179
100
AcDbEntity
  8
22202-001032_TA-
  6
Continuous
 62
     7
100
AcDbEllipse
 10
440.9963334718
 20
377.3977238076
 30
0.0
 11
-54.59843049273684
 21
20.50255422062095
 31
0.0
210
0.0
220
0.0
230
1.0
 40
0.0892439862
 41
0.2764377060071128
 42
0.3799441254676177
  0
LINE
  5
1EA
330
179
100
AcDbEntity
  8
22202-001032_TA-
  6
Continuous
 62
     7
100
AcDbLine
 10
389.612981198
 20
394.6310583253
 30
0.0
 11
393.0626694141
 21
388.6560230647
 31
0.0
  0
ELLIPSE
  5
1EB
330
179
100
AcDbEntity
  8
22202-001032_TA-
  6
Continuous
 62
     7
100
AcDbEllipse
 10
438.1578084222
 20
382.3141934031
 30
0.0
 11
-32.2594462870982
 21
-18.62499999797162
 31
0.0
210
0.0
220
0.0
230
1.0
 40
0.0699268119
 41
-0.6824312539138253
 42
-0.5957477194149838
  0
LINE
  5
1EC
330
179
100
AcDbEntity
  8
22202-001032_TA-
  6
Continuous
 62
     7
100
AcDbLine
 10
412.0424796492
 20
365.2157753636
 30
0.0
 11
469.1708257292
 21
398.1988413512
 31
0.0
  0
LINE
  5
1ED
330
179
100
AcDbEntity
  8
22202-001032_TA-
  6
Continuous
 62
     7
100
AcDbLine
 10
469.1708257292
 20
398.1988413512
 30
0.0
 11
469.6562393602
 21
399.548507336
 31
0.0
  0
ARC
  5
1EE
330
179
100
AcDbEntity
  8
22202-001032_TA-
  6
Continuous
 62
     7
100
AcDbCircle
 10
519.6416727549
 20
429.4041692597
 30
0.0
 40
58.22288296334082
100
AcDbArc
 50
198.6162338692
 51
210.8493335118
  0
LINE
  5
1EF
330
179
100
AcDbEntity
  8
22202-001032_TA-
  6
Continuous
 62
     7
100
AcDbLine
 10
464.4651274855
 20
410.8178045614
 30
0.0
 11
458.2809132695
 21
421.5291777885
 31
0.0
  0
ARC
  5
1F0
330
179
100
AcDbEntity
  8
22202-001032_TA-
  6
Continuous
 62
     7
100
AcDbCircle
 10
498.4726544393
 20
451.6061670661
 30
0.0
 40
50.19961496132836
100
AcDbArc
 50
202.0833242323
 51
216.8088882553
  0
SPLINE
  5
1F1
330
179
100
AcDbEntity
  8
22202-001032_TA-
  6
Continuous
 62
     7
100
AcDbSpline
210
0.0
220
0.0
230
1.0
 70
     8
 71
     3
 72
     8
 73
     4
 74
     0
 42
0.0000000045169429
 43
0.0000000001
 12
1.0
 22
0.0
 32
0.0
 13
1.0
 23
0.0
 33
0.0
 40
0.0
 40
0.0
 40
0.0
 40
0.0
 40
1.0
 40
1.0
 40
1.0
 40
1.0
 10
383.1949381725937
 20
396.134301707857
 30
0.0
 10
383.9328424126945
 20
396.143602337195
 30
0.0
 10
384.6707518117512
 20
396.1533276189106
 30
0.0
 10
385.4086315196779
 20
396.1635406236145
 30
0.0
  0
LINE
  5
1F2
330
179
100
AcDbEntity
  8
22202-001032_TA-
  6
Continuous
 62
     7
100
AcDbLine
 10
385.4086315197
 20
396.1635406236
 30
0.0
 11
387.9714092557
 21
395.7919985734
 31
0.0
  0
LINE
  5
1F3
330
179
100
AcDbEntity
  8
22202-001032_TA-
  6
Continuous
 62
     7
100
AcDbLine
 10
387.9714092557
 20
395.7919985734
 30
0.0
 11
451.9557790832
 21
432.7333917173
 31
0.0
  0
LINE
  5
1F4
330
179
100
AcDbEntity
  8
22202-001032_TA-
  6
Continuous
 62
     7
100
AcDbLine
 10
451.9557790832
 20
432.7333917173
 30
0.0
 11
454.6486401066
 21
437.388115754
 31
0.0
  0
ARC
  5
1F5
330
179
100
AcDbEntity
  8
22202-001032_TA-
  6
Continuous
 62
     7
100
AcDbCircle
 10
483.6028854538
 20
731.4905325352
 30
0.0
 40
373.1997982582686
100
AcDbArc
 50
258.9451726989
 51
259.471257493
  0
LINE
  5
1F6
330
179
100
AcDbEntity
  8
22202-001032_TA-
  6
Continuous
 62
     7
100
AcDbLine
 10
412.0424796492
 20
365.2157753636
 30
0.0
 11
410.7249184057
 21
368.1635299922
 31
0.0
  0
SPLINE
  5
1F7
330
179
100
AcDbEntity
  8
22202-001032_TA-
  6
Continuous
 62
     7
100
AcDbSpline
210
0.0
220
0.0
230
1.0
 70
     8
 71
     3
 72
    16
 73
    12
 74
     0
 42
0.0000000003861822
 43
0.0000000001
 12
1.0
 22
0.0
 32
0.0
 13
1.0
 23
0.0
 33
0.0
 40
0.0
 40
0.0
 40
0.0
 40
0.0
 40
0.125
 40
0.125
 40
0.25
 40
0.25
 40
0.5
 40
0.5
 40
0.75
 40
0.75
 40
1.0
 40
1.0
 40
1.0
 40
1.0
 10
405.7203748190958
 20
365.2341776092574
 30
0.0
 10
405.5877823953533
 20
366.3005722304011
 30
0.0
 10
405.3143849840106
 20
367.3809104288043
 30
0.0
 10
404.4810023616943
 20
369.4489526677145
 30
0.0
 10
403.9374517863432
 20
370.4152595983207
 30
0.0
 10
402.0358239530064
 20
373.1694660814879
 30
0.0
 10
400.4789394631368
 20
374.7484314881291
 30
0.0
 10
397.2431022115182
 20
377.6677202915937
 30
0.0
 10
395.5457571592717
 20
379.0090245999707
 30
0.0
 10
392.1766055486198
 20
381.5344016441369
 30
0.0
 10
390.4914827979046
 20
382.7240870648951
 30
0.0
 10
388.8357752576905
 20
383.8603182762174
 30
0.0
  0
LINE
  5
1F8
330
179
100
AcDbEntity
  8
22202-001032_TA-
  6
Continuous
 62
     7
100
AcDbLine
 10
394.6943315343
 20
387.2427573196
 30
0.0
 11
393.0626694141
 21
388.6560230647
 31
0.0
  0
LINE
  5
1F9
330
179
100
AcDbEntity
  8
22202-001032_TA-
  6
Continuous
 62
     7
100
AcDbLine
 10
393.0626694141
 20
388.6560230647
 30
0.0
 11
384.3539608488
 21
388.6560230647
 31
0.0
  0
LINE
  5
1FA
330
179
100
AcDbEntity
  8
22202-001032_TA-
  6
Continuous
 62
     7
100
AcDbLine
 10
384.3539608488
 20
388.6560230647
 30
0.0
 11
384.3539608488
 21
349.1898377521
 31
0.0
  0
SPLINE
  5
1FB
330
179
100
AcDbEntity
  8
22202-001032_TA-
  6
Continuous
 62
     7
100
AcDbSpline
210
0.0
220
0.0
230
1.0
 70
     8
 71
     3
 72
     8
 73
     4
 74
     0
 42
0.0000000016172786
 43
0.0000000001
 12
1.0
 22
0.0
 32
0.0
 13
1.0
 23
0.0
 33
0.0
 40
0.0
 40
0.0
 40
0.0
 40
0.0
 40
1.0
 40
1.0
 40
1.0
 40
1.0
 10
384.3539608487536
 20
388.6560230647244
 30
0.0
 10
382.6310099681898
 20
389.7872620778138
 30
0.0
 10
380.8974860692127
 20
390.9023799256068
 30
0.0
 10
379.157808426047
 20
392.0072619813764
 30
0.0
  0
LINE
  5
1FC
330
179
100
AcDbEntity
  8
22202-001032_TA-
  6
Continuous
 62
     7
100
AcDbLine
 10
379.157808426
 20
392.0072619814
 30
0.0
 11
379.157808426
 21
346.1898377521
 31
0.0
  0
LINE
  5
1FD
330
179
100
AcDbEntity
  8
22202-001032_TA-
  6
Continuous
 62
     7
100
AcDbLine
 10
379.157808426
 20
392.0072619814
 30
0.0
 11
378.6898545852
 21
392.0072619814
 31
0.0
  0
ELLIPSE
  5
1FE
330
179
100
AcDbEntity
  8
22202-001032_TA-
  6
Continuous
 62
     7
100
AcDbEllipse
 10
370.9486551429
 20
370.1898377521
 30
0.0
 11
-7.040303230492164
 21
-23.98121442739059
 31
0.0
210
0.0
220
0.0
230
1.0
 40
0.1348517143
 41
2.751385753346005
 42
3.181161184650552
  0
LINE
  5
1FF
330
179
100
AcDbEntity
  8
22202-001032_TA-
  6
Continuous
 62
     7
100
AcDbLine
 10
420.185567065
 20
365.5870620563
 30
0.0
 11
460.438515216
 21
388.8271125069
 31
0.0
  0
ARC
  5
200
330
179
100
AcDbEntity
  8
22202-001032_TA-
  6
Continuous
 62
     7
100
AcDbCircle
 10
319.3404854143
 20
529.0523692409
 30
0.0
 40
198.9265609214432
100
AcDbArc
 50
315.177752981
 51
318.8678358159
  0
ELLIPSE
  5
201
330
179
100
AcDbEntity
  8
22202-001032_TA-
  6
Continuous
 62
     7
100
AcDbEllipse
 10
417.3731987352
 20
370.3141934051
 30
0.0
 11
-20.78460969081292
 21
-11.99999999999294
 31
0.0
210
0.0
220
0.0
230
1.0
 40
0.0699268119
 41
-1.364862507753045
 42
-1.016531038232841
  0
LINE
  5
202
330
179
100
AcDbEntity
  8
22202-001032_TA-
  6
Continuous
 62
     7
100
AcDbLine
 10
412.3017424714
 20
369.2831091556
 30
0.0
 11
400.1231339607
 21
390.3770778618
 31
0.0
  0
LINE
  5
203
330
179
100
AcDbEntity
  8
22202-001032_TA-
  6
Continuous
 62
     7
100
AcDbLine
 10
388.8357752577
 20
383.8603182762
 30
0.0
 11
400.1231339607
 21
390.3770778618
 31
0.0
  0
ELLIPSE
  5
204
330
179
100
AcDbEntity
  8
22202-001032_TA-
  6
Continuous
 62
     7
100
AcDbEllipse
 10
417.1578084257
 20
370.189837752
 30
0.0
 11
-36.48413814687937
 21
-20.96150528065895
 31
0.0
210
0.0
220
0.0
230
1.0
 40
0.0348354973
 41
-1.413597013893134
 42
-1.27200736614858
  0
LINE
  5
205
330
179
100
AcDbEntity
  8
22202-001032_TA-
  6
Continuous
 62
     7
100
AcDbLine
 10
469.8195507161
 20
441.5146840962
 30
0.0
 11
459.7533257541
 21
447.3264217877
 31
0.0
  0
LINE
  5
206
330
179
100
AcDbEntity
  8
22202-001032_TA-
  6
Continuous
 62
     7
100
AcDbLine
 10
473.6146109006
 20
442.210356423
 30
0.0
 11
458.8382622447
 21
450.7414852971
 31
0.0
  0
LINE
  5
207
330
179
100
AcDbEntity
  8
22202-001032_TA-
  6
Continuous
 62
     7
100
AcDbLine
 10
488.0316612286
 20
430.0184217316
 30
0.0
 11
491.1284418264
 21
431.4059211004
 31
0.0
  0
LINE
  5
208
330
179
100
AcDbEntity
  8
22202-001032_TA-
  6
Continuous
 62
     7
100
AcDbLine
 10
491.1284418264
 20
431.4059211004
 30
0.0
 11
477.4987626164
 21
439.2750200613
 31
0.0
  0
LINE
  5
209
330
179
100
AcDbEntity
  8
22202-001032_TA-
  6
Continuous
 62
     7
100
AcDbLine
 10
469.6562393602
 20
399.548507336
 30
0.0
 11
470.409457682
 21
399.5764189703
 31
0.0
  0
LINE
  5
20A
330
179
100
AcDbEntity
  8
22202-001032_TA-
  6
Continuous
 62
     7
100
AcDbLine
 10
470.409457682
 20
399.5764189703
 30
0.0
 11
474.7395847009
 21
407.3964711132
 31
0.0
  0
ARC
  5
20B
330
179
100
AcDbEntity
  8
22202-001032_TA-
  6
Continuous
 62
     7
100
AcDbCircle
 10
-4251.5614677037
 20
893.3615858173
 30
0.0
 40
4751.219183606542
100
AcDbArc
 50
354.1293955187
 51
354.3233798234
  0
ARC
  5
20C
330
179
100
AcDbEntity
  8
22202-001032_TA-
  6
Continuous
 62
     7
100
AcDbCircle
 10
363.1184607932
 20
636.7699074462
 30
0.0
 40
241.5563795229186
100
AcDbArc
 50
297.9558170214
 51
301.1391438824
  0
LINE
  5
20D
330
179
100
AcDbEntity
  8
22202-001032_TA-
  6
Continuous
 62
     7
100
AcDbLine
 10
488.0316612286
 20
430.0184217316
 30
0.0
 11
478.6708720402
 21
435.4228758894
 31
0.0
  0
LINE
  5
20E
330
179
100
AcDbEntity
  8
22202-001032_TA-
  6
Continuous
 62
     7
100
AcDbLine
 10
470.409457682
 20
359.5658212023
 30
0.0
 11
470.409457682
 21
399.5764189703
 31
0.0
  0
SPLINE
  5
20F
330
179
100
AcDbEntity
  8
22202-001032_TA-
  6
Continuous
 62
     7
100
AcDbSpline
210
0.0
220
0.0
230
1.0
 70
     8
 71
     3
 72
    20
 73
    16
 74
     0
 42
0.0000000004433467
 43
0.0000000001
 12
1.0
 22
0.0
 32
0.0
 13
1.0
 23
0.0
 33
0.0
 40
0.0
 40
0.0
 40
0.0
 40
0.0
 40
0.1250000000000001
 40
0.1250000000000001
 40
0.2500000000000001
 40
0.2500000000000001
 40
0.3750000000000002
 40
0.3750000000000002
 40
0.5000000000000002
 40
0.5000000000000002
 40
0.6250000000000002
 40
0.6250000000000002
 40
0.7500000000000003
 40
0.7500000000000003
 40
1.0
 40
1.0
 40
1.0
 40
1.0
 10
514.1575418874962
 20
417.5368851168701
 30
0.0
 10
514.1502387285502
 20
416.7757803688506
 30
0.0
 10
513.9979938322995
 20
416.0102407905413
 30
0.0
 10
513.4268762946427
 20
414.4729478319896
 30
0.0
 10
513.0044485492605
 20
413.7013319698208
 30
0.0
 10
511.8809831064015
 20
412.2627989888603
 30
0.0
 10
511.1690247771498
 20
411.5763302965
 30
0.0
 10
509.3857980487244
 20
410.505717453078
 30
0.0
 10
508.2963196311173
 20
410.1406469367356
 30
0.0
 10
506.0275699903951
 20
410.1389690483533
 30
0.0
 10
504.9382206887582
 20
410.502096862642
 30
0.0
 10
503.1522993332862
 20
411.5714912515363
 30
0.0
 10
502.4438562839641
 20
412.2522746751777
 30
0.0
 10
500.74472607058
 20
414.4240750069669
 30
0.0
 10
500.1726683407138
 20
416.0160243587182
 30
0.0
 10
500.1580749645979
 20
417.5368851168701
 30
0.0
  0
ELLIPSE
  5
210
330
179
100
AcDbEntity
  8
22202-001032_TA-
  6
Continuous
 62
     7
100
AcDbEllipse
 10
499.7822865624
 20
370.1898377531
 30
0.0
 11
-4.912736883966318E-12
 21
63.9999999990003
 31
0.0
210
0.0
220
0.0
230
1.0
 40
0.0087268678
 41
-0.7380268149884222
 42
-0.5809575612990745
  0
ELLIPSE
  5
211
330
179
100
AcDbEntity
  8
22202-001032_TA-
  6
Continuous
 62
     7
100
AcDbEllipse
 10
514.5333302897
 20
370.1898377532
 30
0.0
 11
5.356826093816380E-12
 21
63.99999999890454
 31
0.0
210
0.0
220
0.0
230
1.0
 40
0.0087268678
 41
0.5809575612969285
 42
0.7380268149861623
  0
LINE
  5
212
330
179
100
AcDbEntity
  8
22202-001032_TA-
  6
Continuous
 62
     7
100
AcDbLine
 10
514.357808426
 20
434.0647154428
 30
0.0
 11
514.357808426
 21
306.1898377521
 31
0.0
  0
LINE
  5
213
330
179
100
AcDbEntity
  8
22202-001032_TA-
  6
Continuous
 62
     7
100
AcDbLine
 10
514.357808426
 20
434.0647154428
 30
0.0
 11
502.4488941275
 21
434.0647154428
 31
0.0
  0
LINE
  5
214
330
179
100
AcDbEntity
  8
22202-001032_TA-
  6
Continuous
 62
     7
100
AcDbLine
 10
493.857808426
 20
433.1172287174
 30
0.0
 11
493.857808426
 21
306.1898377521
 31
0.0
  0
LINE
  5
215
330
179
100
AcDbEntity
  8
22202-001032_TA-
  6
Continuous
 62
     7
100
AcDbLine
 10
476.357808426
 20
423.40089696
 30
0.0
 11
476.357808426
 21
316.2934674629
 31
0.0
  0
LINE
  5
216
330
179
100
AcDbEntity
  8
22202-001032_TA-
  6
Continuous
 62
     7
100
AcDbLine
 10
474.7395847009
 20
407.3964711132
 30
0.0
 11
474.7395847009
 21
331.6898377521
 31
0.0
  0
LINE
  5
217
330
179
100
AcDbEntity
  8
22202-001032_TA-
  6
Continuous
 62
     7
100
AcDbLine
 10
454.125455098
 20
347.57837584
 30
0.0
 11
438.5712241289
 21
338.598136403
 31
0.0
  0
ARC
  5
218
330
179
100
AcDbEntity
  8
22202-001032_TA-
  6
Continuous
 62
     7
100
AcDbCircle
 10
199.5033878776
 20
715.3018385511
 30
0.0
 40
447.2727826995317
100
AcDbArc
 50
304.6998177996
 51
307.2780944462
  0
LINE
  5
219
330
179
100
AcDbEntity
  8
22202-001032_TA-
  6
Continuous
 62
     7
100
AcDbLine
 10
470.409457682
 20
359.4046012944
 30
0.0
 11
470.4436714522
 21
359.4429607595
 31
0.0
  0
LINE
  5
21A
330
179
100
AcDbEntity
  8
22202-001032_TA-
  6
Continuous
 62
     7
100
AcDbLine
 10
524.657808426
 20
305.1898377521
 30
0.0
 11
524.657808426
 21
435.1898377521
 31
0.0
  0
LINE
  5
21B
330
179
100
AcDbEntity
  8
22202-001032_TA-
  6
Continuous
 62
     7
100
AcDbLine
 10
515.9878836241
 20
435.0666440853
 30
0.0
 11
515.357808426
 21
435.0666440853
 31
0.0
  0
LINE
  5
21C
330
179
100
AcDbEntity
  8
22202-001032_TA-
  6
Continuous
 62
     7
100
AcDbLine
 10
515.357808426
 20
435.0666440853
 30
0.0
 11
515.357808426
 21
305.1898377521
 31
0.0
  0
LINE
  5
21D
330
179
100
AcDbEntity
  8
22202-001032_TA-
  6
Continuous
 62
     7
100
AcDbLine
 10
515.357808426
 20
435.0666440853
 30
0.0
 11
514.357808426
 21
434.0647154428
 31
0.0
  0
LINE
  5
21E
330
179
100
AcDbEntity
  8
22202-001032_TA-
  6
Continuous
 62
     7
100
AcDbLine
 10
470.409457682
 20
359.4046012944
 30
0.0
 11
470.409457682
 21
339.1898377521
 31
0.0
  0
LINE
  5
21F
330
179
100
AcDbEntity
  8
22202-001032_TA-
  6
Continuous
 62
     7
100
AcDbLine
 10
481.1146109006
 20
455.2007374797
 30
0.0
 11
485.2987626164
 21
452.7850163603
 31
0.0
  0
LINE
  5
220
330
179
100
AcDbEntity
  8
22202-001032_TA-
  6
Continuous
 62
     7
100
AcDbLine
 10
481.1146109006
 20
455.2007374797
 30
0.0
 11
473.6146109006
 21
442.210356423
 31
0.0
  0
LINE
  5
221
330
179
100
AcDbEntity
  8
22202-001032_TA-
  6
Continuous
 62
     7
100
AcDbLine
 10
473.6146109006
 20
442.210356423
 30
0.0
 11
469.8195507161
 21
441.5146840962
 31
0.0
  0
LINE
  5
222
330
179
100
AcDbEntity
  8
22202-001032_TA-
  6
Continuous
 62
     7
100
AcDbLine
 10
469.8195507161
 20
441.5146840962
 30
0.0
 11
458.2809132695
 21
421.5291777885
 31
0.0
  0
LINE
  5
223
330
179
100
AcDbEntity
  8
22202-001032_TA-
  6
Continuous
 62
     7
100
AcDbLine
 10
464.4651274855
 20
410.8178045614
 30
0.0
 11
478.6708720402
 21
435.4228758894
 31
0.0
  0
LINE
  5
224
330
179
100
AcDbEntity
  8
22202-001032_TA-
  6
Continuous
 62
     7
100
AcDbLine
 10
478.6708720402
 20
435.4228758894
 30
0.0
 11
477.4987626164
 21
439.2750200613
 31
0.0
  0
LINE
  5
225
330
179
100
AcDbEntity
  8
22202-001032_TA-
  6
Continuous
 62
     7
100
AcDbLine
 10
477.4987626164
 20
439.2750200613
 30
0.0
 11
485.2987626164
 21
452.7850163603
 31
0.0
  0
LINE
  5
226
330
179
100
AcDbEntity
  8
22202-001032_TA-
  6
Continuous
 62
     7
100
AcDbLine
 10
506.2674893303
 20
440.6787163475
 30
0.0
 11
515.9878836241
 21
435.0666440853
 31
0.0
  0
LINE
  5
227
330
179
100
AcDbEntity
  8
22202-001032_TA-
  6
Continuous
 62
     7
100
AcDbLine
 10
370.457808426
 20
394.1898377521
 30
0.0
 11
370.457808426
 21
346.1898377521
 31
0.0
  0
LINE
  5
228
330
179
100
AcDbEntity
  8
22202-001032_TA-
  6
Continuous
 62
     7
100
AcDbLine
 10
356.8243692838
 20
394.9398377521
 30
0.0
 11
355.4307892588
 21
394.9398377521
 31
0.0
  0
LINE
  5
229
330
179
100
AcDbEntity
  8
22202-001032_TA-
  6
Continuous
 62
     7
100
AcDbLine
 10
368.7912475683
 20
394.9398377521
 30
0.0
 11
370.1848276834
 21
394.9398377521
 31
0.0
  0
LINE
  5
22A
330
179
100
AcDbEntity
  8
22202-001032_TA-
  6
Continuous
 62
     7
100
AcDbLine
 10
368.7912475683
 20
394.9398377521
 30
0.0
 11
356.8243692838
 21
394.9398377521
 31
0.0
  0
ARC
  5
22B
330
179
100
AcDbEntity
  8
22202-001032_TA-
  6
Continuous
 62
     7
100
AcDbCircle
 10
411.5784783137
 20
382.5648377521
 30
0.0
 40
56.13513232065143
100
AcDbArc
 50
167.2645244266
 51
192.7354755734
  0
ARC
  5
22C
330
179
100
AcDbEntity
  8
22202-001032_TA-
  6
Continuous
 62
     7
100
AcDbCircle
 10
314.0371385384
 20
382.5648377521
 30
0.0
 40
56.13513232065139
100
AcDbArc
 50
347.2645244266
 51
12.7354755734
  0
LINE
  5
22D
330
179
100
AcDbEntity
  8
22202-001032_TA-
  6
Continuous
 62
     7
100
AcDbLine
 10
368.7912475683
 20
370.1898377521
 30
0.0
 11
356.8243692838
 21
370.1898377521
 31
0.0
  0
ARC
  5
22E
330
179
100
AcDbEntity
  8
22202-001032_TA-
  6
Continuous
 62
     7
100
AcDbCircle
 10
411.5784783137
 20
357.8148377521
 30
0.0
 40
56.13513232065078
100
AcDbArc
 50
167.2645244266
 51
192.7354755734
  0
ARC
  5
22F
330
179
100
AcDbEntity
  8
22202-001032_TA-
  6
Continuous
 62
     7
100
AcDbCircle
 10
314.0371385384
 20
357.8148377521
 30
0.0
 40
56.13513232065129
100
AcDbArc
 50
347.2645244266
 51
12.7354755734
  0
LINE
  5
230
330
179
100
AcDbEntity
  8
22202-001032_TA-
  6
Continuous
 62
     7
100
AcDbLine
 10
368.7912475683
 20
345.4398377521
 30
0.0
 11
356.8243692838
 21
345.4398377521
 31
0.0
  0
LINE
  5
231
330
179
100
AcDbEntity
  8
22202-001032_TA-
  6
Continuous
 62
     7
100
AcDbLine
 10
356.8243692838
 20
345.4398377521
 30
0.0
 11
355.4307892588
 21
345.4398377521
 31
0.0
  0
LINE
  5
232
330
179
100
AcDbEntity
  8
22202-001032_TA-
  6
Continuous
 62
     7
100
AcDbLine
 10
368.7912475683
 20
345.4398377521
 30
0.0
 11
370.1848276834
 21
345.4398377521
 31
0.0
  0
ELLIPSE
  5
233
330
179
100
AcDbEntity
  8
22202-001032_TA-
  6
Continuous
 62
     7
100
AcDbEllipse
 10
411.1095725008
 20
370.1898377521
 30
0.0
 11
-14.73813769879373
 21
-20.99048368189923
 31
0.0
210
0.0
220
0.0
230
1.0
 40
0.0428911118
 41
5.110902410080853
 42
6.193960902138037
  0
LINE
  5
234
330
179
100
AcDbEntity
  8
22202-001032_TA-
  6
Continuous
 62
     7
100
AcDbLine
 10
396.3498383559
 20
349.3391782901
 30
0.0
 11
405.081611589
 21
361.8094428283
 31
0.0
  0
LINE
  5
235
330
179
100
AcDbEntity
  8
22202-001032_TA-
  6
Continuous
 62
     7
100
AcDbLine
 10
405.081611589
 20
361.8094428283
 30
0.0
 11
404.5607012101
 21
362.627108337
 31
0.0
  0
LINE
  5
236
330
179
100
AcDbEntity
  8
22202-001032_TA-
  6
Continuous
 62
     7
100
AcDbLine
 10
405.081611589
 20
361.8094428283
 30
0.0
 11
410.8354118603
 21
362.8239930577
 31
0.0
  0
SPLINE
  5
237
330
179
100
AcDbEntity
  8
22202-001032_TA-
  6
Continuous
 62
     7
100
AcDbSpline
210
0.0
220
0.0
230
1.0
 70
     8
 71
     2
 72
    12
 73
     9
 74
     0
 42
0.0000000010204259
 43
0.0000000001
 12
1.0
 22
0.0
 32
0.0
 13
1.0
 23
0.0
 33
0.0
 40
0.0
 40
0.0
 40
0.0
 40
0.2069972012818333
 40
0.2069972012818333
 40
0.528513148661106
 40
0.528513148661106
 40
0.8500290960403787
 40
0.8500290960403787
 40
1.0
 40
1.0
 40
1.0
 10
410.8355241473769
 20
362.8240003229362
 30
0.0
 10
410.9487770083246
 20
362.9637421238775
 30
0.0
 10
411.3812580677854
 20
363.1580254166581
 30
0.0
 10
412.0977083120888
 20
363.4798760723845
 30
0.0
 10
413.6534071357262
 20
363.9355953160565
 30
0.0
 10
415.2738737782345
 20
364.4102873460942
 30
0.0
 10
417.7178431072044
 20
365.0049467283298
 30
0.0
 10
418.8740796325991
 20
365.2862787768785
 30
0.0
 10
420.1855670650493
 20
365.5870620562625
 30
0.0
  0
ELLIPSE
  5
238
330
179
100
AcDbEntity
  8
22202-001032_TA-
  6
Continuous
 62
     7
100
AcDbEllipse
 10
435.5110266409
 20
367.1225590851
 30
0.0
 11
-28.45027730206951
 21
-4.964559457583261
 31
0.0
210
0.0
220
0.0
230
1.0
 40
0.0458834576
 41
-1.009888884769497
 42
-0.7941774525960259
  0
ELLIPSE
  5
239
330
179
100
AcDbEntity
  8
22202-001032_TA-
  6
Continuous
 62
     7
100
AcDbEllipse
 10
453.3637038875
 20
370.1898377513
 30
0.0
 11
-119.2652865060407
 21
-20.9720817125181
 31
0.0
210
0.0
220
0.0
230
1.0
 40
0.0090763362
 41
-1.248518901719462
 42
-1.150819031185261
  0
LINE
  5
23A
330
179
100
AcDbEntity
  8
22202-001032_TA-
  6
Continuous
 62
     7
100
AcDbLine
 10
395.157808426
 20
349.1898377521
 30
0.0
 11
418.7075610351
 21
349.1898377521
 31
0.0
  0
LINE
  5
23B
330
179
100
AcDbEntity
  8
22202-001032_TA-
  6
Continuous
 62
     7
100
AcDbLine
 10
418.7075610351
 20
349.1898377521
 30
0.0
 11
410.8358610166
 21
362.824022126
 31
0.0
  0
LINE
  5
23C
330
179
100
AcDbEntity
  8
22202-001032_TA-
  6
Continuous
 62
     7
100
AcDbLine
 10
396.3498383559
 20
349.3391782901
 30
0.0
 11
395.2121639367
 21
349.3391782901
 31
0.0
  0
LINE
  5
23D
330
179
100
AcDbEntity
  8
22202-001032_TA-
  6
Continuous
 62
     7
100
AcDbLine
 10
395.2121639367
 20
349.3391782901
 30
0.0
 11
395.157808426
 21
349.1898377521
 31
0.0
  0
LINE
  5
23E
330
179
100
AcDbEntity
  8
22202-001032_TA-
  6
Continuous
 62
     7
100
AcDbLine
 10
378.4743835806
 20
396.3402668524
 30
0.0
 11
377.8555201053
 21
394.1898377521
 31
0.0
  0
LINE
  5
23F
330
179
100
AcDbEntity
  8
22202-001032_TA-
  6
Continuous
 62
     7
100
AcDbLine
 10
379.9366290181
 20
396.3395584072
 30
0.0
 11
378.6898545852
 21
392.0072619814
 31
0.0
  0
LINE
  5
240
330
179
100
AcDbEntity
  8
22202-001032_TA-
  6
Continuous
 62
     7
100
AcDbLine
 10
389.612981198
 20
394.6310583253
 30
0.0
 11
385.4086315197
 21
396.1635406236
 31
0.0
  0
LINE
  5
241
330
179
100
AcDbEntity
  8
22202-001032_TA-
  6
Continuous
 62
     7
100
AcDbLine
 10
514.174328216
 20
423.6898377521
 30
0.0
 11
514.2268009996
 21
423.6898377521
 31
0.0
  0
LINE
  5
242
330
179
100
AcDbEntity
  8
22202-001032_TA-
  6
Continuous
 62
     7
100
AcDbLine
 10
500.0888158525
 20
423.6898377521
 30
0.0
 11
500.1412886361
 21
423.6898377521
 31
0.0
  0
SPLINE
  5
243
330
179
100
AcDbEntity
  8
22202-001032_TA-
  6
Continuous
 62
     7
100
AcDbSpline
210
0.0
220
0.0
230
1.0
 70
    11
 71
     3
 72
    88
 73
    84
 74
     0
 42
0.0000000002637218
 43
0.0000000001
 12
1.0
 22
0.0
 32
0.0
 13
1.0
 23
0.0
 33
0.0
 40
0.0
 40
0.0
 40
0.0
 40
0.0
 40
0.015625
 40
0.015625
 40
0.0312500000000001
 40
0.0312500000000001
 40
0.0468750000000001
 40
0.0468750000000001
 40
0.0625000000000001
 40
0.0625000000000001
 40
0.1250000000000002
 40
0.1250000000000002
 40
0.1875000000000003
 40
0.1875000000000003
 40
0.2187500000000003
 40
0.2187500000000003
 40
0.2343750000000003
 40
0.2343750000000003
 40
0.2500000000000003
 40
0.2500000000000003
 40
0.2656250000000003
 40
0.2656250000000003
 40
0.2812500000000004
 40
0.2812500000000004
 40
0.2968750000000004
 40
0.2968750000000004
 40
0.3125000000000004
 40
0.3125000000000004
 40
0.3281250000000004
 40
0.3281250000000004
 40
0.3437500000000005
 40
0.3437500000000005
 40
0.3750000000000006
 40
0.3750000000000006
 40
0.3906250000000006
 40
0.3906250000000006
 40
0.4062500000000006
 40
0.4062500000000006
 40
0.4375000000000008
 40
0.4375000000000008
 40
0.5000000000000011
 40
0.5000000000000011
 40
0.515625000000001
 40
0.515625000000001
 40
0.5312500000000009
 40
0.5312500000000009
 40
0.5468750000000009
 40
0.5468750000000009
 40
0.5625000000000008
 40
0.5625000000000008
 40
0.6250000000000006
 40
0.6250000000000006
 40
0.6562500000000003
 40
0.6562500000000003
 40
0.6718750000000004
 40
0.6718750000000004
 40
0.6875000000000003
 40
0.6875000000000003
 40
0.7031250000000002
 40
0.7031250000000002
 40
0.7187500000000001
 40
0.7187500000000001
 40
0.7500000000000001
 40
0.7500000000000001
 40
0.765625
 40
0.765625
 40
0.7812499999999999
 40
0.7812499999999999
 40
0.7968749999999999
 40
0.7968749999999999
 40
0.8124999999999999
 40
0.8124999999999999
 40
0.8749999999999999
 40
0.8749999999999999
 40
0.9374999999999999
 40
0.9374999999999999
 40
0.9687499999999999
 40
0.9687499999999999
 40
0.984375
 40
0.984375
 40
0.9921875
 40
0.9921875
 40
1.0
 40
1.0
 40
1.0
 40
1.0
 10
450.974851798069
 20
355.7964351864361
 30
0.0
 10
450.974851798069
 20
355.9779917823222
 30
0.0
 10
450.9748517980659
 20
356.1595590687728
 30
0.0
 10
450.9748517980659
 20
356.522715000229
 30
0.0
 10
450.9895923384487
 20
356.7057911663573
 30
0.0
 10
450.8609768410058
 20
357.0559857796771
 30
0.0
 10
450.7317540513192
 20
357.2040530523666
 30
0.0
 10
450.4035518500691
 20
357.3841017143804
 30
0.0
 10
450.2119391674177
 20
357.3895934026857
 30
0.0
 10
449.286585558969
 20
357.3895934026857
 30
0.0
 10
448.5474195982875
 20
357.3895934026846
 30
0.0
 10
447.0738149114547
 20
357.3895934026846
 30
0.0
 10
446.3390524213857
 20
357.3895934026822
 30
0.0
 10
445.2399944513149
 20
357.3895934026822
 30
0.0
 10
444.8743083098041
 20
357.3895934026865
 30
0.0
 10
444.3270554639993
 20
357.3895934026865
 30
0.0
 10
444.1448365368195
 20
357.3895934026958
 30
0.0
 10
443.7807970691861
 20
357.3895934026958
 30
0.0
 10
443.5877410292445
 20
357.4038816472126
 30
0.0
 10
443.2621173433079
 20
357.6100338153651
 30
0.0
 10
443.1276424409322
 20
357.7708681945214
 30
0.0
 10
443.0171839167354
 20
358.1420969993452
 30
0.0
 10
443.0286205277883
 20
358.3498888591767
 30
0.0
 10
443.1987968481379
 20
358.6938850528982
 30
0.0
 10
443.3619046228191
 20
358.8118028002339
 30
0.0
 10
443.5657883931488
 20
359.1315296051362
 30
0.0
 10
443.6010295552026
 20
359.3331724354089
 30
0.0
 10
443.5370165536864
 20
359.7151729008553
 30
0.0
 10
443.4348458908531
 20
359.8921227096386
 30
0.0
 10
443.137578721464
 20
360.143606855728
 30
0.0
 10
442.9423591711306
 20
360.1898377521129
 30
0.0
 10
442.3695494364709
 20
360.1898377521129
 30
0.0
 10
441.9879043901614
 20
360.2044968162402
 30
0.0
 10
441.419288650261
 20
360.1813979766325
 30
0.0
 10
441.2293191081731
 20
360.0984714763
 30
0.0
 10
440.9510262844453
 20
359.8251168597179
 30
0.0
 10
440.8147886336345
 20
359.6860262180672
 30
0.0
 10
440.4031580794152
 20
359.2736353777836
 30
0.0
 10
440.1299693459949
 20
358.9998753227201
 30
0.0
 10
439.3147164607906
 20
358.1829670290757
 30
0.0
 10
438.7765756482318
 20
357.6438058086067
 30
0.0
 10
438.1119162762166
 20
356.9787344186289
 30
0.0
 10
437.9711616785802
 20
356.8537357326784
 30
0.0
 10
437.72658082808
 20
356.5711716744872
 30
0.0
 10
437.6572545502939
 20
356.3808095007939
 30
0.0
 10
437.6583697801043
 20
355.9887177842585
 30
0.0
 10
437.7351941271978
 20
355.787134978715
 30
0.0
 10
438.0112477746575
 20
355.4934277383594
 30
0.0
 10
438.1579995452196
 20
355.3544565519857
 30
0.0
 10
438.8706877720272
 20
354.64045107578
 30
0.0
 10
439.440883427807
 20
354.0689125372955
 30
0.0
 10
440.2967721743758
 20
353.2117065241388
 30
0.0
 10
440.5821683267043
 20
352.9259875028742
 30
0.0
 10
441.0104768508736
 20
352.4975107006292
 30
0.0
 10
441.1436445331669
 20
352.3364010037918
 30
0.0
 10
441.5052256635608
 20
352.1746938706192
 30
0.0
 10
441.7029972781524
 20
352.1898377521045
 30
0.0
 10
442.0893164801408
 20
352.1898377521045
 30
0.0
 10
442.2828966400286
 20
352.1898377521064
 30
0.0
 10
442.6708949382969
 20
352.1898377521064
 30
0.0
 10
442.8685854038858
 20
352.1693786801348
 30
0.0
 10
443.422788551903
 20
352.3578568742452
 30
0.0
 10
443.6662732463204
 20
352.8057140521198
 30
0.0
 10
443.4935884626018
 20
353.4048439319275
 30
0.0
 10
443.3300187190038
 20
353.5489498474944
 30
0.0
 10
443.0720264583711
 20
353.8732148316397
 30
0.0
 10
443.0182660424037
 20
354.0939936585176
 30
0.0
 10
443.0746283147361
 20
354.5049719701173
 30
0.0
 10
443.1852166939804
 20
354.69089860301
 30
0.0
 10
443.4985145862605
 20
354.9481898791068
 30
0.0
 10
443.7056760473996
 20
354.9900821015236
 30
0.0
 10
444.7376710303046
 20
354.9900821015236
 30
0.0
 10
445.5685593628036
 20
354.990082101524
 30
0.0
 10
447.2363796583506
 20
354.990082101524
 30
0.0
 10
448.0737769197875
 20
354.9900821015251
 30
0.0
 10
449.3350719540986
 20
354.9900821015251
 30
0.0
 10
449.7567174024041
 20
354.9879832945015
 30
0.0
 10
450.3890655456939
 20
354.9911498756824
 30
0.0
 10
450.5964495649123
 20
355.0759437498521
 30
0.0
 10
450.8195202819998
 20
355.2990144907738
 30
0.0
 10
450.8802026413848
 20
355.3886784646924
 30
0.0
 10
450.9572554366831
 20
355.5833252156442
 30
0.0
 10
450.974851798069
 20
355.705656888493
 30
0.0
 10
450.974851798069
 20
355.7964351864361
 30
0.0
  0
LINE
  5
244
330
179
100
AcDbEntity
  8
22202-001032_TA-
  6
Continuous
 62
     7
100
AcDbLine
 10
466.5382622447
 20
464.0782765154
 30
0.0
 11
482.1267195128
 21
455.0782765154
 31
0.0
  0
LINE
  5
245
330
179
100
AcDbEntity
  8
22202-001032_TA-
  6
Continuous
 62
     7
100
AcDbLine
 10
355.157808426
 20
346.1898377521
 30
0.0
 11
355.157808426
 21
394.1898377521
 31
0.0
  0
LINE
  5
246
330
179
100
AcDbEntity
  8
22202-001032_TA-
  6
Continuous
 62
     7
100
AcDbLine
 10
514.174328216
 20
422.1898377521
 30
0.0
 11
514.174328216
 21
423.6898377521
 31
0.0
  0
LINE
  5
247
330
179
100
AcDbEntity
  8
22202-001032_TA-
  6
Continuous
 62
     7
100
AcDbLine
 10
514.174328216
 20
423.6898377521
 30
0.0
 11
513.057808426
 21
423.6898377521
 31
0.0
  0
LINE
  5
248
330
179
100
AcDbEntity
  8
22202-001032_TA-
  6
Continuous
 62
     7
100
AcDbLine
 10
501.257808426
 20
423.6898377521
 30
0.0
 11
500.1412886361
 21
423.6898377521
 31
0.0
  0
LINE
  5
249
330
179
100
AcDbEntity
  8
22202-001032_TA-
  6
Continuous
 62
     7
100
AcDbLine
 10
500.1412886361
 20
423.6898377521
 30
0.0
 11
500.1412886361
 21
422.1898377521
 31
0.0
  0
ARC
  5
24A
330
179
100
AcDbEntity
  8
22202-001032_TA-
  6
Continuous
 62
     7
100
AcDbCircle
 10
456.403634049
 20
415.7114964
 30
0.0
 40
90.0
100
AcDbArc
 50
113.3002348222
 51
119.6180253071
  0
ARC
  5
24B
330
179
100
AcDbEntity
  8
22202-001032_TA-
  6
Continuous
 62
     7
100
AcDbCircle
 10
400.1119828031
 20
383.2114964
 30
0.0
 40
89.99999999999999
100
AcDbArc
 50
120.3819746929
 51
136.7564850477
  0
ARC
  5
24C
330
179
100
AcDbEntity
  8
22202-001032_TA-
  6
Continuous
 62
     7
100
AcDbCircle
 10
432.9004620716
 20
462.9676312127
 30
0.0
 40
100.0
100
AcDbArc
 50
190.4263146174
 51
206.1448669205
  0
LINE
  5
24D
330
179
100
AcDbEntity
  8
22202-001032_TA-
  6
Continuous
 62
     7
100
AcDbLine
 10
420.9223664403
 20
498.1668546154
 30
0.0
 11
420.8042000425
 21
498.3715248201
 31
0.0
  0
LINE
  5
24E
330
179
100
AcDbEntity
  8
22202-001032_TA-
  6
Continuous
 62
     7
100
AcDbLine
 10
373.2453451556
 20
402.5719921811
 30
0.0
 11
378.4743835806
 21
396.3402668524
 31
0.0
  0
LINE
  5
24F
330
179
100
AcDbEntity
  8
22202-001032_TA-
  6
Continuous
 62
     7
100
AcDbLine
 10
455.9661745021
 20
440.7025074401
 30
0.0
 11
453.0702716965
 21
448.6589350075
 31
0.0
  0
LINE
  5
250
330
179
100
AcDbEntity
  8
22202-001032_TA-
  6
Continuous
 62
     7
100
AcDbLine
 10
353.7029131645
 20
413.8058243088
 30
0.0
 11
368.6159386333
 21
399.8992030793
 31
0.0
  0
LINE
  5
251
330
179
100
AcDbEntity
  8
22202-001032_TA-
  6
Continuous
 62
     7
100
AcDbLine
 10
457.6996782188
 20
451.3317241094
 30
0.0
 11
453.1127036876
 21
471.2000936274
 31
0.0
  0
LINE
  5
252
330
179
100
AcDbEntity
  8
22202-001032_TA-
  6
Continuous
 62
     7
100
AcDbLine
 10
429.322287397
 20
466.8177647388
 30
0.0
 11
428.522287397
 21
468.2034053848
 31
0.0
  0
LINE
  5
253
330
179
100
AcDbEntity
  8
22202-001032_TA-
  6
Continuous
 62
     7
100
AcDbLine
 10
368.5933294551
 20
433.6034053848
 30
0.0
 11
369.3933294551
 21
432.2177647388
 31
0.0
  0
LINE
  5
254
330
179
100
AcDbEntity
  8
22202-001032_TA-
  6
Continuous
 62
     7
100
AcDbLine
 10
412.7026721547
 20
494.4037827406
 30
0.0
 11
411.6026721547
 21
496.3090386289
 31
0.0
  0
LINE
  5
255
330
179
100
AcDbEntity
  8
22202-001032_TA-
  6
Continuous
 62
     7
100
AcDbLine
 10
352.7129446974
 20
462.3090386289
 30
0.0
 11
353.8129446974
 21
460.4037827406
 31
0.0
  0
LINE
  5
256
330
179
100
AcDbEntity
  8
22202-001032_TA-
  6
Continuous
 62
     7
100
AcDbLine
 10
409.8706213471
 20
495.3090386289
 30
0.0
 11
405.6206213471
 21
502.6702545611
 31
0.0
  0
LINE
  5
257
330
179
100
AcDbEntity
  8
22202-001032_TA-
  6
Continuous
 62
     7
100
AcDbLine
 10
350.1949955049
 20
470.6702545611
 30
0.0
 11
354.4449955049
 21
463.3090386289
 31
0.0
  0
LINE
  5
258
330
179
100
AcDbEntity
  8
22202-001032_TA-
  6
Continuous
 62
     7
100
AcDbLine
 10
386.5680624639
 20
491.6702545611
 30
0.0
 11
371.1180624639
 21
518.4304395381
 31
0.0
  0
LINE
  5
259
330
179
100
AcDbEntity
  8
22202-001032_TA-
  6
Continuous
 62
     7
100
AcDbLine
 10
353.7975543882
 20
508.4304395381
 30
0.0
 11
369.2475543882
 21
481.6702545611
 31
0.0
  0
LINE
  5
25A
330
179
100
AcDbEntity
  8
22202-001032_TA-
  6
Continuous
 62
     7
100
AcDbLine
 10
365.9219100412
 20
515.4304395381
 30
0.0
 11
352.4719100412
 21
538.7265228999
 31
0.0
  0
LINE
  5
25B
330
179
100
AcDbEntity
  8
22202-001032_TA-
  6
Continuous
 62
     7
100
AcDbLine
 10
345.5437068109
 20
534.7265228999
 30
0.0
 11
358.9937068109
 21
511.4304395381
 31
0.0
  0
LINE
  5
25C
330
179
100
AcDbEntity
  8
22202-001032_TA-
  6
Continuous
 62
     7
100
AcDbLine
 10
352.8616214729
 20
538.9515228999
 30
0.0
 11
349.7741214729
 21
544.2992297682
 31
0.0
  0
LINE
  5
25D
330
179
100
AcDbEntity
  8
22202-001032_TA-
  6
Continuous
 62
     7
100
AcDbLine
 10
342.0664953792
 20
539.8492297682
 30
0.0
 11
345.1539953792
 21
534.5015228999
 31
0.0
  0
LINE
  5
25E
330
179
100
AcDbEntity
  8
22202-001032_TA-
  6
Continuous
 62
     7
100
AcDbLine
 10
348.886445434
 20
543.7867297682
 30
0.0
 11
341.373945434
 21
556.7987614601
 31
0.0
  0
LINE
  5
25F
330
179
100
AcDbEntity
  8
22202-001032_TA-
  6
Continuous
 62
     7
100
AcDbLine
 10
335.4416714181
 20
553.3737614601
 30
0.0
 11
342.9541714181
 21
540.3617297682
 31
0.0
  0
LINE
  5
260
330
179
100
AcDbEntity
  8
22202-001032_TA-
  6
Continuous
 62
     7
100
AcDbLine
 10
451.0392056342
 20
470.0029589681
 30
0.0
 11
446.9892056342
 21
477.0177647388
 31
0.0
  0
LINE
  5
261
330
179
100
AcDbEntity
  8
22202-001032_TA-
  6
Continuous
 62
     7
100
AcDbLine
 10
351.7264112179
 20
422.0177647388
 30
0.0
 11
355.7764112179
 21
415.0029589681
 31
0.0
  0
LINE
  5
262
330
179
100
AcDbEntity
  8
22202-001032_TA-
  6
Continuous
 62
     7
100
AcDbLine
 10
454.4189256958
 20
437.949112106
 30
0.0
 11
453.9442728446
 21
438.7712349603
 31
0.0
  0
LINE
  5
263
330
179
100
AcDbEntity
  8
22202-001032_TA-
  6
Continuous
 62
     7
100
AcDbLine
 10
488.6757576185
 20
463.4215432552
 30
0.0
 11
484.1757576185
 21
455.6273146211
 31
0.0
  0
LINE
  5
264
330
179
100
AcDbEntity
  8
22202-001032_TA-
  6
Continuous
 62
     7
100
AcDbLine
 10
509.2904943282
 20
441.1273146211
 30
0.0
 11
513.7904943283
 21
448.9215432551
 31
0.0
  0
LINE
  5
265
330
179
100
AcDbEntity
  8
22202-001032_TA-
  6
Continuous
 62
     7
100
AcDbLine
 10
509.8933800112
 20
451.1715432551
 30
0.0
 11
514.0433800112
 21
458.3595541065
 31
0.0
  0
LINE
  5
266
330
179
100
AcDbEntity
  8
22202-001032_TA-
  6
Continuous
 62
     7
100
AcDbLine
 10
496.7228719355
 20
468.3595541066
 30
0.0
 11
492.5728719355
 21
461.1715432551
 31
0.0
  0
LINE
  5
267
330
179
100
AcDbEntity
  8
22202-001032_TA-
  6
Continuous
 62
     7
100
AcDbLine
 10
512.0730606135
 20
464.9468608026
 30
0.0
 11
512.3132529923
 21
465.3628862062
 31
0.0
  0
LINE
  5
268
330
179
100
AcDbEntity
  8
22202-001032_TA-
  6
Continuous
 62
     7
100
AcDbLine
 10
503.6529989544
 20
470.3628862062
 30
0.0
 11
503.4128065757
 21
469.9468608026
 31
0.0
  0
LINE
  5
269
330
179
100
AcDbEntity
  8
22202-001032_TA-
  6
Continuous
 62
     7
100
AcDbLine
 10
511.2720987191
 20
459.9595541065
 30
0.0
 11
511.8720987191
 21
460.9987845911
 31
0.0
  0
LINE
  5
26A
330
179
100
AcDbEntity
  8
22202-001032_TA-
  6
Continuous
 62
     7
100
AcDbLine
 10
500.0941532276
 20
467.7987845911
 30
0.0
 11
499.4941532277
 21
466.7595541066
 31
0.0
  0
LINE
  5
26B
330
179
100
AcDbEntity
  8
22202-001032_TA-
  6
Continuous
 62
     7
100
AcDbLine
 10
509.5338301287
 20
462.3487845912
 30
0.0
 11
511.0338301287
 21
464.9468608026
 31
0.0
  0
LINE
  5
26C
330
179
100
AcDbEntity
  8
22202-001032_TA-
  6
Continuous
 62
     7
100
AcDbLine
 10
503.9324218181
 20
469.0468608023
 30
0.0
 11
502.4324218181
 21
466.4487845909
 31
0.0
  0
LINE
  5
26D
330
179
100
AcDbEntity
  8
22202-001032_TA-
  6
Continuous
 62
     7
100
AcDbLine
 10
503.4128065757
 20
469.9468608026
 30
0.0
 11
503.9324218181
 21
469.0468608023
 31
0.0
  0
LINE
  5
26E
330
179
100
AcDbEntity
  8
22202-001032_TA-
  6
Continuous
 62
     7
100
AcDbLine
 10
511.0338301287
 20
464.9468608026
 30
0.0
 11
512.0730606135
 21
464.9468608026
 31
0.0
  0
LINE
  5
26F
330
179
100
AcDbEntity
  8
22202-001032_TA-
  6
Continuous
 62
     7
100
AcDbLine
 10
514.2618101508
 20
464.2378862062
 30
0.0
 11
519.2618101508
 21
472.898140244
 31
0.0
  0
LINE
  5
270
330
179
100
AcDbEntity
  8
22202-001032_TA-
  6
Continuous
 62
     7
100
AcDbLine
 10
506.7044417959
 20
480.148140244
 30
0.0
 11
501.7044417959
 21
471.4878862062
 31
0.0
  0
LINE
  5
271
330
179
100
AcDbEntity
  8
22202-001032_TA-
  6
Continuous
 62
     7
100
AcDbLine
 10
501.257808426
 20
422.2898377521
 30
0.0
 11
501.357808426
 21
422.1898377521
 31
0.0
  0
LINE
  5
272
330
179
100
AcDbEntity
  8
22202-001032_TA-
  6
Continuous
 62
     7
100
AcDbLine
 10
512.957808426
 20
422.1898377521
 30
0.0
 11
513.057808426
 21
422.2898377521
 31
0.0
  0
LINE
  5
273
330
179
100
AcDbEntity
  8
22202-001032_TA-
  6
Continuous
 62
     7
100
AcDbLine
 10
513.057808426
 20
422.2898377521
 30
0.0
 11
513.057808426
 21
429.2726804646
 31
0.0
  0
LINE
  5
274
330
179
100
AcDbEntity
  8
22202-001032_TA-
  6
Continuous
 62
     7
100
AcDbLine
 10
501.257808426
 20
429.2726804646
 30
0.0
 11
501.257808426
 21
422.2898377521
 31
0.0
  0
LINE
  5
275
330
179
100
AcDbEntity
  8
22202-001032_TA-
  6
Continuous
 62
     7
100
AcDbLine
 10
492.5580661649
 20
477.3458989081
 30
0.0
 11
497.0580661649
 21
485.1401275422
 31
0.0
  0
LINE
  5
276
330
179
100
AcDbEntity
  8
22202-001032_TA-
  6
Continuous
 62
     7
100
AcDbLine
 10
485.1069155926
 20
492.0401275422
 30
0.0
 11
480.6069155926
 21
484.2458989081
 31
0.0
  0
LINE
  5
277
330
179
100
AcDbEntity
  8
22202-001032_TA-
  6
Continuous
 62
     7
100
AcDbLine
 10
482.2523638598
 20
483.2958989081
 30
0.0
 11
480.7523638598
 21
480.6978226968
 31
0.0
  0
LINE
  5
278
330
179
100
AcDbEntity
  8
22202-001032_TA-
  6
Continuous
 62
     7
100
AcDbLine
 10
489.4126178977
 20
475.6978226968
 30
0.0
 11
490.9126178977
 21
478.2958989081
 31
0.0
  0
LINE
  5
279
330
179
100
AcDbEntity
  8
22202-001032_TA-
  6
Continuous
 62
     7
100
AcDbLine
 10
479.886338456
 20
481.1978226968
 30
0.0
 11
469.136338456
 21
462.5782765154
 31
0.0
  0
LINE
  5
27A
330
179
100
AcDbEntity
  8
22202-001032_TA-
  6
Continuous
 62
     7
100
AcDbLine
 10
479.5286433014
 20
456.5782765154
 30
0.0
 11
490.2786433014
 21
475.1978226968
 31
0.0
  0
LINE
  5
27B
330
179
100
AcDbEntity
  8
22202-001032_TA-
  6
Continuous
 62
     7
100
AcDbLine
 10
524.757808426
 20
430.9898377521
 30
0.0
 11
524.657808426
 21
430.9898377521
 31
0.0
  0
LINE
  5
27C
330
179
100
AcDbEntity
  8
22202-001032_TA-
  6
Continuous
 62
     7
100
AcDbLine
 10
524.657808426
 20
309.3898377521
 30
0.0
 11
524.757808426
 21
309.3898377521
 31
0.0
  0
LINE
  5
27D
330
179
100
AcDbEntity
  8
22202-001032_TA-
  6
Continuous
 62
     7
100
AcDbLine
 10
544.4573831591
 20
408.1898377521
 30
0.0
 11
539.3260076119
 21
408.1898377521
 31
0.0
  0
LINE
  5
27E
330
179
100
AcDbEntity
  8
22202-001032_TA-
  6
Continuous
 62
     7
100
AcDbLine
 10
539.3260076119
 20
332.1898377521
 30
0.0
 11
544.4573831591
 21
332.1898377521
 31
0.0
  0
LINE
  5
27F
330
179
100
AcDbEntity
  8
22202-001032_TA-
  6
Continuous
 62
     7
100
AcDbLine
 10
524.757808426
 20
309.3898377521
 30
0.0
 11
525.1168502601
 21
316.2407640634
 31
0.0
  0
LINE
  5
280
330
179
100
AcDbEntity
  8
22202-001032_TA-
  6
Continuous
 62
     7
100
AcDbLine
 10
525.1168502601
 20
424.1389114408
 30
0.0
 11
524.757808426
 21
430.9898377521
 31
0.0
  0
LINE
  5
281
330
179
100
AcDbEntity
  8
22202-001032_TA-
  6
Continuous
 62
     7
100
AcDbLine
 10
525.1168502601
 20
316.2407640634
 30
0.0
 11
530.657808426
 21
319.4398377521
 31
0.0
  0
LINE
  5
282
330
179
100
AcDbEntity
  8
22202-001032_TA-
  6
Continuous
 62
     7
100
AcDbLine
 10
530.657808426
 20
420.9398377521
 30
0.0
 11
525.1168502601
 21
424.1389114408
 31
0.0
  0
LINE
  5
283
330
179
100
AcDbEntity
  8
22202-001032_TA-
  6
Continuous
 62
     7
100
AcDbLine
 10
538.657808426
 20
420.9398377521
 30
0.0
 11
530.657808426
 21
420.9398377521
 31
0.0
  0
LINE
  5
284
330
179
100
AcDbEntity
  8
22202-001032_TA-
  6
Continuous
 62
     7
100
AcDbLine
 10
530.657808426
 20
319.4398377521
 30
0.0
 11
538.657808426
 21
319.4398377521
 31
0.0
  0
LINE
  5
285
330
179
100
AcDbEntity
  8
22202-001032_TA-
  6
Continuous
 62
     7
100
AcDbLine
 10
538.657808426
 20
319.4398377521
 30
0.0
 11
539.3260076119
 21
332.1898377521
 31
0.0
  0
LINE
  5
286
330
179
100
AcDbEntity
  8
22202-001032_TA-
  6
Continuous
 62
     7
100
AcDbLine
 10
539.3260076119
 20
408.1898377521
 30
0.0
 11
538.657808426
 21
420.9398377521
 31
0.0
  0
LINE
  5
287
330
179
100
AcDbEntity
  8
22202-001032_TA-
  6
Continuous
 62
     7
100
AcDbLine
 10
544.4573831591
 20
332.1898377521
 30
0.0
 11
546.6818902072
 21
344.8056441312
 31
0.0
  0
LINE
  5
288
330
179
100
AcDbEntity
  8
22202-001032_TA-
  6
Continuous
 62
     7
100
AcDbLine
 10
546.7937156535
 20
394.9398377521
 30
0.0
 11
544.4573831591
 21
408.1898377521
 31
0.0
  0
LINE
  5
289
330
179
100
AcDbEntity
  8
22202-001032_TA-
  6
Continuous
 62
     7
100
AcDbLine
 10
567.1852884582
 20
345.3915998102
 30
0.0
 11
567.657808426
 21
346.6898377521
 31
0.0
  0
LINE
  5
28A
330
179
100
AcDbEntity
  8
22202-001032_TA-
  6
Continuous
 62
     7
100
AcDbLine
 10
567.657808426
 20
393.6898377521
 30
0.0
 11
567.1900626539
 21
394.9749586992
 31
0.0
  0
LINE
  5
28B
330
179
100
AcDbEntity
  8
22202-001032_TA-
  6
Continuous
 62
     7
100
AcDbLine
 10
506.8249498716
 20
440.3568663539
 30
0.0
 11
507.7749498716
 21
442.0023146211
 31
0.0
  0
LINE
  5
28C
330
179
100
AcDbEntity
  8
22202-001032_TA-
  6
Continuous
 62
     7
100
AcDbLine
 10
485.6913020751
 20
454.7523146211
 30
0.0
 11
484.7413020751
 21
453.1068663539
 31
0.0
  0
LINE
  5
28D
330
179
100
AcDbEntity
  8
22202-001032_TA-
  6
Continuous
 62
     7
100
AcDbLine
 10
481.9267195128
 20
454.7318663539
 30
0.0
 11
482.1267195128
 21
455.0782765154
 31
0.0
  0
LINE
  5
28E
330
179
100
AcDbEntity
  8
22202-001032_TA-
  6
Continuous
 62
     7
100
AcDbLine
 10
466.5382622447
 20
464.0782765154
 30
0.0
 11
458.8382622447
 21
450.7414852971
 31
0.0
  0
LINE
  5
28F
330
179
100
AcDbEntity
  8
22202-001032_TA-
  6
Continuous
 62
     7
100
AcDbLine
 10
418.5996960433
 20
349.1898377521
 30
0.0
 11
427.1209573993
 21
334.430580139
 31
0.0
  0
LINE
  5
290
330
179
100
AcDbEntity
  8
22202-001032_TA-
  6
Continuous
 62
     7
100
AcDbLine
 10
384.3539608488
 20
349.1898377521
 30
0.0
 11
395.157808426
 21
349.1898377521
 31
0.0
  0
LINE
  5
291
330
179
100
AcDbEntity
  8
22202-001032_TA-
  6
Continuous
 62
     7
100
AcDbLine
 10
379.157808426
 20
346.1898377521
 30
0.0
 11
384.3539608488
 21
349.1898377521
 31
0.0
  0
LINE
  5
292
330
179
100
AcDbEntity
  8
22202-001032_TA-
  6
Continuous
 62
     7
100
AcDbLine
 10
370.457808426
 20
346.1898377521
 30
0.0
 11
379.157808426
 21
346.1898377521
 31
0.0
  0
LINE
  5
293
330
179
100
AcDbEntity
  8
22202-001032_TA-
  6
Continuous
 62
     7
100
AcDbLine
 10
377.8555201053
 20
394.1898377521
 30
0.0
 11
370.457808426
 21
394.1898377521
 31
0.0
  0
LINE
  5
294
330
179
100
AcDbEntity
  8
22202-001032_TA-
  6
Continuous
 62
     7
100
AcDbLine
 10
455.2488430822
 20
439.5244289381
 30
0.0
 11
454.3791295905
 21
438.0180409824
 31
0.0
  0
LINE
  5
295
330
179
100
AcDbEntity
  8
22202-001032_TA-
  6
Continuous
 62
     7
100
AcDbLine
 10
459.7533257541
 20
447.3264217877
 30
0.0
 11
455.9518033541
 21
440.7419918447
 31
0.0
  0
LINE
  5
296
330
179
100
AcDbEntity
  8
22202-001032_TA-
  6
Continuous
 62
     7
100
AcDbLine
 10
458.8382622447
 20
450.7414852971
 30
0.0
 11
459.7533257541
 21
447.3264217877
 31
0.0
  0
LINE
  5
297
330
179
100
AcDbEntity
  8
22202-001032_TA-
  6
Continuous
 62
     7
100
AcDbLine
 10
493.857808426
 20
306.1898377521
 30
0.0
 11
514.357808426
 21
306.1898377521
 31
0.0
  0
LINE
  5
298
330
179
100
AcDbEntity
  8
22202-001032_TA-
  6
Continuous
 62
     7
100
AcDbLine
 10
476.357808426
 20
316.2934674629
 30
0.0
 11
493.857808426
 21
306.1898377521
 31
0.0
  0
LINE
  5
299
330
179
100
AcDbEntity
  8
22202-001032_TA-
  6
Continuous
 62
     7
100
AcDbLine
 10
474.7395847009
 20
331.6898377521
 30
0.0
 11
476.357808426
 21
316.2934674629
 31
0.0
  0
LINE
  5
29A
330
179
100
AcDbEntity
  8
22202-001032_TA-
  6
Continuous
 62
     7
100
AcDbLine
 10
470.409457682
 20
339.1898377521
 30
0.0
 11
474.7395847009
 21
331.6898377521
 31
0.0
  0
LINE
  5
29B
330
179
100
AcDbEntity
  8
22202-001032_TA-
  6
Continuous
 62
     7
100
AcDbLine
 10
427.1209573993
 20
334.430580139
 30
0.0
 11
438.5712241289
 21
338.598136403
 31
0.0
  0
LINE
  5
29C
330
179
100
AcDbEntity
  8
22202-001032_TA-
  6
Continuous
 62
     7
100
AcDbLine
 10
515.357808426
 20
305.1898377521
 30
0.0
 11
524.657808426
 21
305.1898377521
 31
0.0
  0
LINE
  5
29D
330
179
100
AcDbEntity
  8
22202-001032_TA-
  6
Continuous
 62
     7
100
AcDbLine
 10
524.657808426
 20
435.1898377521
 30
0.0
 11
515.7745059341
 21
435.1898377521
 31
0.0
  0
LINE
  5
29E
330
179
100
AcDbEntity
  8
22202-001032_TA-
  6
Continuous
 62
     7
100
AcDbLine
 10
514.357808426
 20
306.1898377521
 30
0.0
 11
515.357808426
 21
305.1898377521
 31
0.0
  0
LINE
  5
29F
330
179
100
AcDbEntity
  8
22202-001032_TA-
  6
Continuous
 62
     7
100
AcDbLine
 10
439.5960809285
 20
339.1898377521
 30
0.0
 11
470.409457682
 21
339.1898377521
 31
0.0
  0
LINE
  5
2A0
330
179
100
AcDbEntity
  8
22202-001032_TA-
  6
Continuous
 62
     7
100
AcDbLine
 10
370.1848307503
 20
345.4398377521
 30
0.0
 11
370.457808426
 21
346.1898377521
 31
0.0
  0
LINE
  5
2A1
330
179
100
AcDbEntity
  8
22202-001032_TA-
  6
Continuous
 62
     7
100
AcDbLine
 10
370.457808426
 20
394.1898377521
 30
0.0
 11
370.1848307503
 21
394.9398377521
 31
0.0
  0
LINE
  5
2A2
330
179
100
AcDbEntity
  8
22202-001032_TA-
  6
Continuous
 62
     7
100
AcDbLine
 10
355.4307861017
 20
394.9398377521
 30
0.0
 11
355.157808426
 21
394.1898377521
 31
0.0
  0
LINE
  5
2A3
330
179
100
AcDbEntity
  8
22202-001032_TA-
  6
Continuous
 62
     7
100
AcDbLine
 10
355.157808426
 20
346.1898377521
 30
0.0
 11
355.4307861017
 21
345.4398377521
 31
0.0
  0
ENDBLK
  5
2A5
330
179
100
AcDbEntity
  8
0
100
AcDbBlockEnd
  0
BLOCK
  5
39F
330
2A6
100
AcDbEntity
  8
0
100
AcDbBlockBegin
  2
SE2
 70
     0
 10
0.0
 20
0.0
 30
0.0
  3
SE2
  1

  0
ELLIPSE
  5
2A8
330
2A6
100
AcDbEntity
  8
22202-001032_TA-
  6
Continuous
 62
     7
100
AcDbEllipse
 10
224.84406946
 20
163.5662758526
 30
0.0
 11
4.753142324176451E-12
 21
-58.44741844769204
 31
0.0
210
0.0
220
0.0
230
1.0
 40
0.8660254038
 41
1.230457122655916
 42
1.9111355309337
  0
ELLIPSE
  5
2A9
330
2A6
100
AcDbEntity
  8
22202-001032_TA-
  6
Continuous
 62
     7
100
AcDbEllipse
 10
226.4475271291
 20
163.5662758526
 30
0.0
 11
-1.762479051592436E-12
 21
-42.99999999999792
 31
0.0
210
0.0
220
0.0
230
1.0
 40
0.8660254038
 41
0.6544984694978988
 42
1.230457122656046
  0
ELLIPSE
  5
2AA
330
2A6
100
AcDbEntity
  8
22202-001032_TA-
  6
Continuous
 62
     7
100
AcDbEllipse
 10
224.2658377952
 20
163.5662758526
 30
0.0
 11
1.246225345141738E-11
 21
-55.50000000000261
 31
0.0
210
0.0
220
0.0
230
1.0
 40
0.8660254038
 41
0.672588189866779
 42
1.230457122655762
  0
ELLIPSE
  5
2AB
330
2A6
100
AcDbEntity
  8
22202-001032_TA-
  6
Continuous
 62
     7
100
AcDbEllipse
 10
208.2862494165
 20
152.7175529274
 30
0.0
 11
86.04466134913518
 21
-26.38780500933472
 31
0.0
210
0.0
220
0.0
230
1.0
 40
0.1669034296
 41
0.7799346819367287
 42
0.9554575556191344
  0
ELLIPSE
  5
2AC
330
2A6
100
AcDbEntity
  8
22202-001032_TA-
  6
Continuous
 62
     7
100
AcDbEllipse
 10
178.8891940205
 20
175.5077901053
 30
0.0
 11
95.60517927747263
 21
-29.3197833438295
 31
0.0
210
0.0
220
0.0
230
1.0
 40
0.1669034296
 41
-0.2982171000687028
 42
-0.1567805530402646
  0
LINE
  5
2AD
330
2A6
100
AcDbEntity
  8
22202-001032_TA-
  6
Continuous
 62
     7
100
AcDbLine
 10
269.5733448213
 20
145.0399951651
 30
0.0
 11
261.4789747596
 21
148.9810012279
 31
0.0
  0
ELLIPSE
  5
2AE
330
2A6
100
AcDbEntity
  8
22202-001032_TA-
  6
Continuous
 62
     7
100
AcDbEllipse
 10
198.888919409
 20
137.7822922933
 30
0.0
 11
59.68519789826709
 21
-67.36228285894325
 31
0.0
210
0.0
220
0.0
230
1.0
 40
0.3966766701
 41
0.940357964546194
 42
1.115880838226761
  0
ELLIPSE
  5
2AF
330
2A6
100
AcDbEntity
  8
22202-001032_TA-
  6
Continuous
 62
     7
100
AcDbEllipse
 10
189.2331166172
 20
191.94747881
 30
0.0
 11
-66.31688655287333
 21
74.84698095390108
 31
0.0
210
0.0
220
0.0
230
1.0
 40
0.3966766701
 41
3.141234396862282
 42
3.145235383163998
  0
ELLIPSE
  5
2B0
330
2A6
100
AcDbEntity
  8
22202-001032_TA-
  6
Continuous
 62
     7
100
AcDbEllipse
 10
211.4548263827
 20
163.5662758526
 30
0.0
 11
-6.113165529342268E-12
 21
64.00000000000011
 31
0.0
210
0.0
220
0.0
230
1.0
 40
0.8660254038
 41
3.115412714809771
 42
3.258625616790591
  0
ELLIPSE
  5
2B1
330
2A6
100
AcDbEntity
  8
22202-001032_TA-
  6
Continuous
 62
     7
100
AcDbEllipse
 10
224.84406946
 20
163.5662758526
 30
0.0
 11
-4.982125823005390E-12
 21
58.44741844769108
 31
0.0
210
0.0
220
0.0
230
1.0
 40
0.8660254038
 41
3.115412714809784
 42
3.796091123087574
  0
ELLIPSE
  5
2B2
330
2A6
100
AcDbEntity
  8
22202-001032_TA-
  6
Continuous
 62
     7
100
AcDbEllipse
 10
225.9002233683
 20
163.5662758526
 30
0.0
 11
2.872702076217593E-12
 21
-43.00000000000087
 31
0.0
210
0.0
220
0.0
230
1.0
 40
0.8660254038
 41
5.692707714776155
 42
6.257005368399577
  0
ELLIPSE
  5
2B3
330
2A6
100
AcDbEntity
  8
22202-001032_TA-
  6
Continuous
 62
     7
100
AcDbEllipse
 10
224.2658377952
 20
163.5662758526
 30
0.0
 11
-5.551115123125783E-13
 21
-55.50000000000517
 31
0.0
210
0.0
220
0.0
230
1.0
 40
0.8660254038
 41
5.696743580866487
 42
6.257005368399662
  0
LINE
  5
2B4
330
2A6
100
AcDbEntity
  8
22202-001032_TA-
  6
Continuous
 62
     7
100
AcDbLine
 10
223.0076582215
 20
108.0852943164
 30
0.0
 11
224.9254175725
 21
120.5810108786
 31
0.0
  0
LINE
  5
2B5
330
2A6
100
AcDbEntity
  8
22202-001032_TA-
  6
Continuous
 62
     7
100
AcDbLine
 10
224.9254175725
 20
120.5810108786
 30
0.0
 11
225.4727213332
 21
120.5810108786
 31
0.0
  0
LINE
  5
2B6
330
2A6
100
AcDbEntity
  8
22202-001032_TA-
  6
Continuous
 62
     7
100
AcDbLine
 10
210.0680673918
 20
102.4154261813
 30
0.0
 11
223.0076582215
 21
108.0852943164
 31
0.0
  0
LINE
  5
2B7
330
2A6
100
AcDbEntity
  8
22202-001032_TA-
  6
Continuous
 62
     7
100
AcDbLine
 10
210.0039526401
 20
99.5882070541
 30
0.0
 11
210.0680673918
 21
102.4154261813
 31
0.0
  0
ELLIPSE
  5
2B8
330
2A6
100
AcDbEntity
  8
22202-001032_TA-
  6
Continuous
 62
     7
100
AcDbEllipse
 10
208.9041128053
 20
199.3277404954
 30
0.0
 11
-3.022308486066335
 21
-99.95431782280563
 31
0.0
210
0.0
220
0.0
230
1.0
 40
0.4998286625
 41
0.0823968829712001
 42
0.3567373743072479
  0
ELLIPSE
  5
2B9
330
2A6
100
AcDbEntity
  8
22202-001032_TA-
  6
Continuous
 62
     7
100
AcDbEllipse
 10
181.0180545598
 20
131.0774127911
 30
0.0
 11
-2.720077637343322
 21
-89.95888604107874
 31
0.0
210
0.0
220
0.0
230
1.0
 40
0.4998286625
 41
1.29345260928107
 42
1.468975482961594
  0
ELLIPSE
  5
2BA
330
2A6
100
AcDbEntity
  8
22202-001032_TA-
  6
Continuous
 62
     7
100
AcDbEllipse
 10
165.812855206
 20
136.7821747225
 30
0.0
 11
55.9471700795637
 21
70.49761811715214
 31
0.0
210
0.0
220
0.0
230
1.0
 40
0.4120630943
 41
4.735986275372566
 42
4.911509149053074
  0
ELLIPSE
  5
2BB
330
2A6
100
AcDbEntity
  8
22202-001032_TA-
  6
Continuous
 62
     7
100
AcDbEllipse
 10
225.6409311435
 20
193.0483381745
 30
0.0
 11
-62.16352231015093
 21
-78.3306867963139
 31
0.0
210
0.0
220
0.0
230
1.0
 40
0.4120630943
 41
0.3833378954702133
 42
0.6576783868064124
  0
ELLIPSE
  5
2BC
330
2A6
100
AcDbEntity
  8
22202-001032_TA-
  6
Continuous
 62
     7
100
AcDbEllipse
 10
211.4548263827
 20
163.5662758526
 30
0.0
 11
3.122502256758253E-13
 21
-61.17181172335586
 31
0.0
210
0.0
220
0.0
230
1.0
 40
0.8660254038
 41
5.733923666477462
 42
6.257005368399637
  0
ELLIPSE
  5
2BD
330
2A6
100
AcDbEntity
  8
22202-001032_TA-
  6
Continuous
 62
     7
100
AcDbEllipse
 10
226.4475271291
 20
163.5662758526
 30
0.0
 11
7.702172233337023E-13
 21
-43.00000000000288
 31
0.0
210
0.0
220
0.0
230
1.0
 40
0.8660254038
 41
5.681046715241523
 42
6.257005368399624
  0
ELLIPSE
  5
2BE
330
2A6
100
AcDbEntity
  8
22202-001032_TA-
  6
Continuous
 62
     7
100
AcDbEllipse
 10
211.4548263827
 20
163.5662758526
 30
0.0
 11
3.129441150662160E-12
 21
-64.00000000000119
 31
0.0
210
0.0
220
0.0
230
1.0
 40
0.8660254038
 41
5.000368306963707
 42
5.681046715241484
  0
ELLIPSE
  5
2BF
330
2A6
100
AcDbEntity
  8
22202-001032_TA-
  6
Continuous
 62
     7
100
AcDbEllipse
 10
224.84406946
 20
163.5662758526
 30
0.0
 11
3.295974604355933E-12
 21
-58.44741844769228
 31
0.0
210
0.0
220
0.0
230
1.0
 40
0.8660254038
 41
5.000368306963693
 42
5.681046715241475
  0
ELLIPSE
  5
2C0
330
2A6
100
AcDbEntity
  8
22202-001032_TA-
  6
Continuous
 62
     7
100
AcDbEllipse
 10
225.9002233683
 20
163.5662758526
 30
0.0
 11
-2.012279232133096E-12
 21
42.99999999999893
 31
0.0
210
0.0
220
0.0
230
1.0
 40
0.8660254038
 41
1.282817000215765
 42
1.858775653373911
  0
LINE
  5
2C1
330
2A6
100
AcDbEntity
  8
22202-001032_TA-
  6
Continuous
 62
     7
100
AcDbLine
 10
178.1807330287
 20
179.3291274836
 30
0.0
 11
190.1946467023
 21
175.7789356748
 31
0.0
  0
ELLIPSE
  5
2C2
330
2A6
100
AcDbEntity
  8
22202-001032_TA-
  6
Continuous
 62
     7
100
AcDbEllipse
 10
224.2658377952
 20
163.5662758526
 30
0.0
 11
-8.916478666520788E-12
 21
55.50000000000188
 31
0.0
210
0.0
220
0.0
230
1.0
 40
0.8660254038
 41
1.282817000215683
 42
1.858775653373791
  0
LINE
  5
2C3
330
2A6
100
AcDbEntity
  8
22202-001032_TA-
  6
Continuous
 62
     7
100
AcDbLine
 10
178.1807330287
 20
147.8034242215
 30
0.0
 11
190.1946467023
 21
151.3536160303
 31
0.0
  0
LINE
  5
2C4
330
2A6
100
AcDbEntity
  8
22202-001032_TA-
  6
Continuous
 62
     7
100
AcDbLine
 10
190.1946467023
 20
151.3536160303
 30
0.0
 11
190.7419504631
 21
151.3536160303
 31
0.0
  0
LINE
  5
2C5
330
2A6
100
AcDbEntity
  8
22202-001032_TA-
  6
Continuous
 62
     7
100
AcDbLine
 10
160.6600632831
 20
146.1925426598
 30
0.0
 11
178.1807330287
 21
147.8034242215
 31
0.0
  0
LINE
  5
2C6
330
2A6
100
AcDbEntity
  8
22202-001032_TA-
  6
Continuous
 62
     7
100
AcDbLine
 10
158.3116425078
 20
145.3892937915
 30
0.0
 11
160.6600632831
 21
146.1925426598
 31
0.0
  0
ELLIPSE
  5
2C7
330
2A6
100
AcDbEntity
  8
22202-001032_TA-
  6
Continuous
 62
     7
100
AcDbEllipse
 10
237.7982753804
 20
173.7265622366
 30
0.0
 11
-96.86363244578722
 21
-24.84827377128119
 31
0.0
210
0.0
220
0.0
230
1.0
 40
0.1420076724
 41
0.572868425347332
 42
0.847208916683386
  0
ELLIPSE
  5
2C8
330
2A6
100
AcDbEntity
  8
22202-001032_TA-
  6
Continuous
 62
     7
100
AcDbEllipse
 10
154.7680533209
 20
154.3357771497
 30
0.0
 11
87.17726920175733
 21
22.36344639424661
 31
0.0
210
0.0
220
0.0
230
1.0
 40
0.1420076724
 41
-1.357668501928922
 42
-1.182145628248341
  0
ELLIPSE
  5
2C9
330
2A6
100
AcDbEntity
  8
22202-001032_TA-
  6
Continuous
 62
     7
100
AcDbEllipse
 10
154.7680533215
 20
172.7967745555
 30
0.0
 11
87.17726920077619
 21
-22.36344639407171
 31
0.0
210
0.0
220
0.0
230
1.0
 40
0.1420076724
 41
1.182145628250487
 42
1.357668501932857
  0
ELLIPSE
  5
2CA
330
2A6
100
AcDbEntity
  8
22202-001032_TA-
  6
Continuous
 62
     7
100
AcDbEllipse
 10
237.7982753803
 20
153.4059894685
 30
0.0
 11
-96.86363244575139
 21
24.84827377126722
 31
0.0
210
0.0
220
0.0
230
1.0
 40
0.1420076724
 41
-0.8472089166835151
 42
-0.572868425347397
  0
LINE
  5
2CB
330
2A6
100
AcDbEntity
  8
22202-001032_TA-
  6
Continuous
 62
     7
100
AcDbLine
 10
158.3116425078
 20
181.7432579136
 30
0.0
 11
160.6600632831
 21
180.9400090453
 31
0.0
  0
LINE
  5
2CC
330
2A6
100
AcDbEntity
  8
22202-001032_TA-
  6
Continuous
 62
     7
100
AcDbLine
 10
160.6600632831
 20
180.9400090453
 30
0.0
 11
178.1807330287
 21
179.3291274836
 31
0.0
  0
LINE
  5
2CD
330
2A6
100
AcDbEntity
  8
22202-001032_TA-
  6
Continuous
 62
     7
100
AcDbLine
 10
190.1946467023
 20
175.7789356748
 30
0.0
 11
190.7419504631
 21
175.7789356748
 31
0.0
  0
ELLIPSE
  5
2CE
330
2A6
100
AcDbEntity
  8
22202-001032_TA-
  6
Continuous
 62
     7
100
AcDbEllipse
 10
211.4548263827
 20
163.5662758526
 30
0.0
 11
2.810252031082427E-12
 21
-61.17181172335136
 31
0.0
210
0.0
220
0.0
230
1.0
 40
0.8660254038
 41
4.424409653805567
 42
5.000368306963693
  0
ELLIPSE
  5
2CF
330
2A6
100
AcDbEntity
  8
22202-001032_TA-
  6
Continuous
 62
     7
100
AcDbEllipse
 10
226.4475271291
 20
163.5662758526
 30
0.0
 11
-2.227384943154220E-12
 21
42.99999999999939
 31
0.0
210
0.0
220
0.0
230
1.0
 40
0.8660254038
 41
1.282817000215764
 42
1.858775653373903
  0
ELLIPSE
  5
2D0
330
2A6
100
AcDbEntity
  8
22202-001032_TA-
  6
Continuous
 62
     7
100
AcDbEllipse
 10
211.4548263827
 20
163.5662758526
 30
0.0
 11
-3.247402347028583E-12
 21
63.99999999999895
 31
0.0
210
0.0
220
0.0
230
1.0
 40
0.8660254038
 41
0.6021385919379848
 42
1.282817000215781
  0
ELLIPSE
  5
2D1
330
2A6
100
AcDbEntity
  8
22202-001032_TA-
  6
Continuous
 62
     7
100
AcDbEllipse
 10
224.84406946
 20
163.5662758526
 30
0.0
 11
-3.698430450782553E-12
 21
58.44741844769082
 31
0.0
210
0.0
220
0.0
230
1.0
 40
0.8660254038
 41
0.6021385919379715
 42
1.282817000215767
  0
ELLIPSE
  5
2D2
330
2A6
100
AcDbEntity
  8
22202-001032_TA-
  6
Continuous
 62
     7
100
AcDbEllipse
 10
225.9002233683
 20
163.5662758526
 30
0.0
 11
-9.998946115530316E-12
 21
43.00000000000536
 31
0.0
210
0.0
220
0.0
230
1.0
 40
0.8660254038
 41
0.0261799387796909
 42
0.5904775924030923
  0
LINE
  5
2D3
330
2A6
100
AcDbEntity
  8
22202-001032_TA-
  6
Continuous
 62
     7
100
AcDbLine
 10
223.0076582215
 20
219.0472573887
 30
0.0
 11
224.9254175725
 21
206.5515408265
 31
0.0
  0
ELLIPSE
  5
2D4
330
2A6
100
AcDbEntity
  8
22202-001032_TA-
  6
Continuous
 62
     7
100
AcDbEllipse
 10
224.2658377952
 20
163.5662758526
 30
0.0
 11
-3.982925100842749E-12
 21
55.49999999999903
 31
0.0
210
0.0
220
0.0
230
1.0
 40
0.8660254038
 41
0.0261799387798436
 42
0.5864417263130375
  0
ELLIPSE
  5
2D5
330
2A6
100
AcDbEntity
  8
22202-001032_TA-
  6
Continuous
 62
     7
100
AcDbEllipse
 10
225.6409311435
 20
134.0842135305
 30
0.0
 11
-62.16352231019058
 21
78.33068679640611
 31
0.0
210
0.0
220
0.0
230
1.0
 40
0.4120630943
 41
-0.6576783868059097
 42
-0.3833378954698601
  0
ELLIPSE
  5
2D6
330
2A6
100
AcDbEntity
  8
22202-001032_TA-
  6
Continuous
 62
     7
100
AcDbEllipse
 10
165.8128552068
 20
190.3503769829
 30
0.0
 11
55.9471700788534
 21
-70.49761811642934
 31
0.0
210
0.0
220
0.0
230
1.0
 40
0.4120630943
 41
1.371676158127356
 42
1.547199031809819
  0
ELLIPSE
  5
2D7
330
2A6
100
AcDbEntity
  8
22202-001032_TA-
  6
Continuous
 62
     7
100
AcDbEllipse
 10
181.0180545607
 20
196.0551389144
 30
0.0
 11
-2.720077637543516
 21
89.95888604008843
 31
0.0
210
0.0
220
0.0
230
1.0
 40
0.4998286625
 41
4.814209824213911
 42
4.98973269789629
  0
ELLIPSE
  5
2D8
330
2A6
100
AcDbEntity
  8
22202-001032_TA-
  6
Continuous
 62
     7
100
AcDbEllipse
 10
208.9041128053
 20
127.8048112098
 30
0.0
 11
-3.02230848607702
 21
99.95431782268498
 31
0.0
210
0.0
220
0.0
230
1.0
 40
0.4998286625
 41
5.926447932872144
 42
6.20078842420836
  0
LINE
  5
2D9
330
2A6
100
AcDbEntity
  8
22202-001032_TA-
  6
Continuous
 62
     7
100
AcDbLine
 10
210.0039526401
 20
227.544344651
 30
0.0
 11
210.0680673918
 21
224.7171255238
 31
0.0
  0
LINE
  5
2DA
330
2A6
100
AcDbEntity
  8
22202-001032_TA-
  6
Continuous
 62
     7
100
AcDbLine
 10
210.0680673918
 20
224.7171255238
 30
0.0
 11
223.0076582215
 21
219.0472573887
 31
0.0
  0
LINE
  5
2DB
330
2A6
100
AcDbEntity
  8
22202-001032_TA-
  6
Continuous
 62
     7
100
AcDbLine
 10
224.9254175725
 20
206.5515408265
 30
0.0
 11
225.4727213332
 21
206.5515408265
 31
0.0
  0
ELLIPSE
  5
2DC
330
2A6
100
AcDbEntity
  8
22202-001032_TA-
  6
Continuous
 62
     7
100
AcDbEllipse
 10
211.4548263827
 20
163.5662758526
 30
0.0
 11
-1.071365218763276E-11
 21
61.17181172335561
 31
0.0
210
0.0
220
0.0
230
1.0
 40
0.8660254038
 41
0.0261799387797376
 42
0.5492616407019154
  0
ELLIPSE
  5
2DD
330
2A6
100
AcDbEntity
  8
22202-001032_TA-
  6
Continuous
 62
     7
100
AcDbEllipse
 10
226.4475271291
 20
163.5662758526
 30
0.0
 11
-3.094746681142623E-12
 21
42.99999999999938
 31
0.0
210
0.0
220
0.0
230
1.0
 40
0.8660254038
 41
0.0261799387798775
 42
0.6021385919379646
  0
ELLIPSE
  5
2DE
330
2A6
100
AcDbEntity
  8
22202-001032_TA-
  6
Continuous
 62
     7
100
AcDbEllipse
 10
211.4548263827
 20
163.5662758526
 30
0.0
 11
8.881784197001252E-12
 21
-63.99999999999781
 31
0.0
210
0.0
220
0.0
230
1.0
 40
0.8660254038
 41
3.024569681174824
 42
3.167772592369577
  0
ELLIPSE
  5
2DF
330
2A6
100
AcDbEntity
  8
22202-001032_TA-
  6
Continuous
 62
     7
100
AcDbEllipse
 10
224.84406946
 20
163.5662758526
 30
0.0
 11
6.709910405078291E-12
 21
-58.44741844769025
 31
0.0
210
0.0
220
0.0
230
1.0
 40
0.8660254038
 41
2.487094184091794
 42
3.16777259236956
  0
LINE
  5
2E0
330
2A6
100
AcDbEntity
  8
22202-001032_TA-
  6
Continuous
 62
     7
100
AcDbLine
 10
269.5733448213
 20
182.09255654
 30
0.0
 11
261.4789747596
 21
178.1515504773
 31
0.0
  0
ELLIPSE
  5
2E1
330
2A6
100
AcDbEntity
  8
22202-001032_TA-
  6
Continuous
 62
     7
100
AcDbEllipse
 10
224.2658377952
 20
163.5662758526
 30
0.0
 11
-3.261280134836397E-12
 21
55.50000000000101
 31
0.0
210
0.0
220
0.0
230
1.0
 40
0.8660254038
 41
5.052728184523525
 42
5.610597117312524
  0
ELLIPSE
  5
2E2
330
2A6
100
AcDbEntity
  8
22202-001032_TA-
  6
Continuous
 62
     7
100
AcDbEllipse
 10
189.2331166172
 20
135.1850728951
 30
0.0
 11
-66.31688655287924
 21
-74.84698095390621
 31
0.0
210
0.0
220
0.0
230
1.0
 40
0.3966766701
 41
3.137949924015832
 42
3.141952084140109
  0
ELLIPSE
  5
2E3
330
2A6
100
AcDbEntity
  8
22202-001032_TA-
  6
Continuous
 62
     7
100
AcDbEllipse
 10
198.8889194089
 20
189.3502594118
 30
0.0
 11
59.68519789831208
 21
67.36228285896992
 31
0.0
210
0.0
220
0.0
230
1.0
 40
0.3966766701
 41
-1.115880838226399
 42
-0.940357964545913
  0
ELLIPSE
  5
2E4
330
2A6
100
AcDbEntity
  8
22202-001032_TA-
  6
Continuous
 62
     7
100
AcDbEllipse
 10
208.2862494153
 20
174.4149987776
 30
0.0
 11
86.04466135049806
 21
26.38780500958092
 31
0.0
210
0.0
220
0.0
230
1.0
 40
0.1669034296
 41
-0.9554575556125364
 42
-0.7799346819320236
  0
ELLIPSE
  5
2E5
330
2A6
100
AcDbEntity
  8
22202-001032_TA-
  6
Continuous
 62
     7
100
AcDbEllipse
 10
178.8891940206
 20
151.6247615999
 30
0.0
 11
95.60517927736389
 21
29.3197833437913
 31
0.0
210
0.0
220
0.0
230
1.0
 40
0.1669034296
 41
0.1567805530403871
 42
0.2982171000688945
  0
ELLIPSE
  5
2E6
330
2A6
100
AcDbEntity
  8
22202-001032_TA-
  6
Continuous
 62
     7
100
AcDbEllipse
 10
226.4475271291
 20
163.5662758526
 30
0.0
 11
-5.516420653606247E-12
 21
42.99999999999926
 31
0.0
210
0.0
220
0.0
230
1.0
 40
0.8660254038
 41
5.052728184523441
 42
5.628686837681578
  0
LINE
  5
2E7
330
2A6
100
AcDbEntity
  8
22202-001032_TA-
  6
Continuous
 62
     7
100
AcDbLine
 10
156.9927765752
 20
140.6171974462
 30
0.0
 11
160.3127352883
 21
138.8954693941
 31
0.0
  0
ELLIPSE
  5
2E8
330
2A6
100
AcDbEntity
  8
22202-001032_TA-
  6
Continuous
 62
     7
100
AcDbEllipse
 10
206.6048263827
 20
163.5662758526
 30
0.0
 11
-1.249000902703301E-13
 21
57.39426931854143
 31
0.0
210
0.0
220
0.0
230
1.0
 40
0.8660254038
 41
1.255100398152348
 42
1.88649225543726
  0
ELLIPSE
  5
2E9
330
2A6
100
AcDbEntity
  8
22202-001032_TA-
  6
Continuous
 62
     7
100
AcDbEllipse
 10
196.8548263827
 20
163.5662758526
 30
0.0
 11
7.632783294297952E-14
 21
51.43252103009744
 31
0.0
210
0.0
220
0.0
230
1.0
 40
0.8660254038
 41
0.73778222385371
 42
2.033308578573389
  0
LINE
  5
2EA
330
2A6
100
AcDbEntity
  8
22202-001032_TA-
  6
Continuous
 62
     7
100
AcDbLine
 10
156.1373826174
 20
142.7154425246
 30
0.0
 11
154.220122516
 21
141.6116520119
 31
0.0
  0
LINE
  5
2EB
330
2A6
100
AcDbEntity
  8
22202-001032_TA-
  6
Continuous
 62
     7
100
AcDbLine
 10
154.220122516
 20
141.6116520119
 30
0.0
 11
160.5134169553
 21
138.3479543238
 31
0.0
  0
ELLIPSE
  5
2EC
330
2A6
100
AcDbEntity
  8
22202-001032_TA-
  6
Continuous
 62
     7
100
AcDbEllipse
 10
192.3548263827
 20
163.5662758526
 30
0.0
 11
-3.091277234190670E-12
 21
-49.20379077521443
 31
0.0
210
0.0
220
0.0
230
1.0
 40
0.8660254038
 41
5.174901232163249
 42
5.70364478398264
  0
ELLIPSE
  5
2ED
330
2A6
100
AcDbEntity
  8
22202-001032_TA-
  6
Continuous
 62
     7
100
AcDbEllipse
 10
226.7548263827
 20
163.5662758526
 30
0.0
 11
1.457167719820518E-13
 21
-34.00000000000001
 31
0.0
210
0.0
220
0.0
230
1.0
 40
0.8660254038
 41
3.141592653589793
 42
6.283185307179586
  0
ELLIPSE
  5
2EE
330
2A6
100
AcDbEntity
  8
22202-001032_TA-
  6
Continuous
 62
     7
100
AcDbEllipse
 10
227.8548263827
 20
163.5662758526
 30
0.0
 11
5.551115123125783E-14
 21
-33.99999999999999
 31
0.0
210
0.0
220
0.0
230
1.0
 40
0.8660254038
 41
2.654879069259909
 42
6.283185307179586
  0
ELLIPSE
  5
2EF
330
2A6
100
AcDbEntity
  8
22202-001032_TA-
  6
Continuous
 62
     7
100
AcDbEllipse
 10
227.8548263827
 20
163.5662758526
 30
0.0
 11
5.551115123125783E-14
 21
-33.99999999999999
 31
0.0
210
0.0
220
0.0
230
1.0
 40
0.8660254038
 41
0.0
 42
0.4867135843298829
  0
ELLIPSE
  5
2F0
330
2A6
100
AcDbEntity
  8
22202-001032_TA-
  6
Continuous
 62
     7
100
AcDbEllipse
 10
227.8548263827
 20
163.5662758526
 30
0.0
 11
1.110223024625157E-13
 21
-31.99999999999998
 31
0.0
210
0.0
220
0.0
230
1.0
 40
0.8660254038
 41
3.141592653589793
 42
6.283185307179586
  0
ELLIPSE
  5
2F1
330
2A6
100
AcDbEntity
  8
22202-001032_TA-
  6
Continuous
 62
     7
100
AcDbEllipse
 10
232.1048263827
 20
163.5662758526
 30
0.0
 11
1.110223024625157E-13
 21
-31.99999999999998
 31
0.0
210
0.0
220
0.0
230
1.0
 40
0.8660254038
 41
1.700440907704639
 42
6.283185307179586
  0
ELLIPSE
  5
2F2
330
2A6
100
AcDbEntity
  8
22202-001032_TA-
  6
Continuous
 62
     7
100
AcDbEllipse
 10
232.1048263827
 20
163.5662758526
 30
0.0
 11
1.110223024625157E-13
 21
-31.99999999999998
 31
0.0
210
0.0
220
0.0
230
1.0
 40
0.8660254038
 41
0.0
 42
1.441151745885149
  0
ELLIPSE
  5
2F3
330
2A6
100
AcDbEntity
  8
22202-001032_TA-
  6
Continuous
 62
     7
100
AcDbEllipse
 10
232.1048263827
 20
163.5662758526
 30
0.0
 11
-5.551115123125783E-14
 21
10.00000000000004
 31
0.0
210
0.0
220
0.0
230
1.0
 40
0.8660254038
 41
0.0
 42
3.141592653589793
  0
ELLIPSE
  5
2F4
330
2A6
100
AcDbEntity
  8
22202-001032_TA-
  6
Continuous
 62
     7
100
AcDbEllipse
 10
247.5548263827
 20
163.5662758526
 30
0.0
 11
2.775557561562892E-14
 21
-10.00000000000005
 31
0.0
210
0.0
220
0.0
230
1.0
 40
0.8660254038
 41
1.982313172862374
 42
6.283185307179586
  0
ELLIPSE
  5
2F5
330
2A6
100
AcDbEntity
  8
22202-001032_TA-
  6
Continuous
 62
     7
100
AcDbEllipse
 10
247.5548263827
 20
163.5662758526
 30
0.0
 11
2.775557561562892E-14
 21
-10.00000000000005
 31
0.0
210
0.0
220
0.0
230
1.0
 40
0.8660254038
 41
0.0
 42
1.159279480727405
  0
ELLIPSE
  5
2F6
330
2A6
100
AcDbEntity
  8
22202-001032_TA-
  6
Continuous
 62
     7
100
AcDbEllipse
 10
247.5548263827
 20
163.5662758526
 30
0.0
 11
0.0
 21
-3.999999999999989
 31
0.0
210
0.0
220
0.0
230
1.0
 40
0.8660254038
 41
3.141592653589793
 42
6.283185307179586
  0
ELLIPSE
  5
2F7
330
2A6
100
AcDbEntity
  8
22202-001032_TA-
  6
Continuous
 62
     7
100
AcDbEllipse
 10
261.0048263827
 20
163.5662758526
 30
0.0
 11
4.163336342344337E-14
 21
-4.449999999999999
 31
0.0
210
0.0
220
0.0
230
1.0
 40
0.8660254038
 41
3.141592653589797
 42
6.283185307179586
  0
ELLIPSE
  5
2F8
330
2A6
100
AcDbEntity
  8
22202-001032_TA-
  6
Continuous
 62
     7
100
AcDbEllipse
 10
264.0923263827
 20
163.5662758526
 30
0.0
 11
1.387778780781446E-14
 21
4.449999999999999
 31
0.0
210
0.0
220
0.0
230
1.0
 40
0.8660254038
 41
5.590702000228027
 42
6.283185307179586
  0
ELLIPSE
  5
2F9
330
2A6
100
AcDbEntity
  8
22202-001032_TA-
  6
Continuous
 62
     7
100
AcDbEllipse
 10
264.0923263827
 20
163.5662758526
 30
0.0
 11
1.387778780781446E-14
 21
4.449999999999999
 31
0.0
210
0.0
220
0.0
230
1.0
 40
0.8660254038
 41
0.0000000000000036
 42
3.834075960541368
  0
ELLIPSE
  5
2FA
330
2A6
100
AcDbEntity
  8
22202-001032_TA-
  6
Continuous
 62
     7
100
AcDbEllipse
 10
264.0923263827
 20
163.5662758526
 30
0.0
 11
0.0
 21
3.425
 31
0.0
210
0.0
220
0.0
230
1.0
 40
0.8660254038
 41
0.0
 42
3.141592653589793
  0
ELLIPSE
  5
2FB
330
2A6
100
AcDbEntity
  8
22202-001032_TA-
  6
Continuous
 62
     7
100
AcDbEllipse
 10
271.6048263827
 20
163.5662758526
 30
0.0
 11
0.0
 21
3.425
 31
0.0
210
0.0
220
0.0
230
1.0
 40
0.8660254038
 41
0.0
 42
6.283185307179586
  0
ELLIPSE
  5
2FC
330
2A6
100
AcDbEntity
  8
22202-001032_TA-
  6
Continuous
 62
     7
100
AcDbEllipse
 10
113.2795088354
 20
163.5662758526
 30
0.0
 11
-3.323730179971562E-12
 21
14.49999999999794
 31
0.0
210
0.0
220
0.0
230
1.0
 40
0.8660254038
 41
5.648465565358842
 42
5.948545272229536
  0
LINE
  5
2FD
330
2A6
100
AcDbEntity
  8
22202-001032_TA-
  6
Continuous
 62
     7
100
AcDbLine
 10
120.7254237975
 20
175.2422255143
 30
0.0
 11
123.3330752021
 21
170.4662758526
 31
0.0
  0
LINE
  5
2FE
330
2A6
100
AcDbEntity
  8
22202-001032_TA-
  6
Continuous
 62
     7
100
AcDbLine
 10
123.3461105098
 20
156.6662758526
 30
0.0
 11
121.4891541106
 21
152.5942371811
 31
0.0
  0
ELLIPSE
  5
2FF
330
2A6
100
AcDbEntity
  8
22202-001032_TA-
  6
Continuous
 62
     7
100
AcDbEllipse
 10
113.2795088354
 20
163.5662758526
 30
0.0
 11
1.914440828088004E-11
 21
-14.50000000000991
 31
0.0
210
0.0
220
0.0
230
1.0
 40
0.8660254038
 41
0.4124778093752742
 42
0.7125575162443817
  0
LINE
  5
300
330
2A6
100
AcDbEntity
  8
22202-001032_TA-
  6
Continuous
 62
     7
100
AcDbLine
 10
118.3135136007
 20
150.2823860596
 30
0.0
 11
109.1553024694
 21
149.8706112417
 31
0.0
  0
ELLIPSE
  5
301
330
2A6
100
AcDbEntity
  8
22202-001032_TA-
  6
Continuous
 62
     7
100
AcDbEllipse
 10
108.7795088354
 20
163.5662758526
 30
0.0
 11
6.938893903907228E-15
 21
10.0
 31
0.0
210
0.0
220
0.0
230
1.0
 40
0.8660254038
 41
5.339823956521263
 42
6.283185307179586
  0
ELLIPSE
  5
302
330
2A6
100
AcDbEntity
  8
22202-001032_TA-
  6
Continuous
 62
     7
100
AcDbEllipse
 10
108.7795088354
 20
163.5662758526
 30
0.0
 11
6.938893903907228E-15
 21
10.0
 31
0.0
210
0.0
220
0.0
230
1.0
 40
0.8660254038
 41
3.141592653589793
 42
4.084954004248121
  0
LINE
  5
303
330
2A6
100
AcDbEntity
  8
22202-001032_TA-
  6
Continuous
 62
     7
100
AcDbLine
 10
118.8335672668
 20
170.4653746293
 30
0.0
 11
116.2254237975
 21
175.2422255143
 31
0.0
  0
LINE
  5
304
330
2A6
100
AcDbEntity
  8
22202-001032_TA-
  6
Continuous
 62
     7
100
AcDbLine
 10
112.9037152014
 20
177.2619404634
 30
0.0
 11
103.7455040702
 21
176.8501656455
 31
0.0
  0
LINE
  5
305
330
2A6
100
AcDbEntity
  8
22202-001032_TA-
  6
Continuous
 62
     7
100
AcDbLine
 10
100.5698635603
 20
174.538314524
 30
0.0
 11
99.0572199968
 21
171.2213044481
 31
0.0
  0
LINE
  5
306
330
2A6
100
AcDbEntity
  8
22202-001032_TA-
  6
Continuous
 62
     7
100
AcDbLine
 10
99.2247162937
 20
155.7527646844
 30
0.0
 11
101.3335938733
 21
151.8903261909
 31
0.0
  0
LINE
  5
307
330
2A6
100
AcDbEntity
  8
22202-001032_TA-
  6
Continuous
 62
     7
100
AcDbLine
 10
104.6553024694
 20
149.8706112417
 30
0.0
 11
113.8135136006
 21
150.2823860596
 31
0.0
  0
LINE
  5
308
330
2A6
100
AcDbEntity
  8
22202-001032_TA-
  6
Continuous
 62
     7
100
AcDbLine
 10
116.9891541106
 20
152.5942371811
 30
0.0
 11
118.8464193803
 21
156.6669531612
 31
0.0
  0
ELLIPSE
  5
309
330
2A6
100
AcDbEntity
  8
22202-001032_TA-
  6
Continuous
 62
     7
100
AcDbEllipse
 10
108.7795088354
 20
163.5662758526
 30
0.0
 11
-4.551914400963142E-12
 21
14.49999999999687
 31
0.0
210
0.0
220
0.0
230
1.0
 40
0.8660254038
 41
5.648465565358753
 42
5.948545272229454
  0
LINE
  5
30A
330
2A6
100
AcDbEntity
  8
22202-001032_TA-
  6
Continuous
 62
     7
100
AcDbLine
 10
116.2254237975
 20
175.2422255143
 30
0.0
 11
120.7254237975
 21
175.2422255143
 31
0.0
  0
LINE
  5
30B
330
2A6
100
AcDbEntity
  8
22202-001032_TA-
  6
Continuous
 62
     7
100
AcDbLine
 10
117.4037152014
 20
177.2619404634
 30
0.0
 11
112.9037152014
 21
177.2619404634
 31
0.0
  0
LINE
  5
30C
330
2A6
100
AcDbEntity
  8
22202-001032_TA-
  6
Continuous
 62
     7
100
AcDbLine
 10
121.4891541106
 20
152.5942371811
 30
0.0
 11
116.9891541106
 21
152.5942371811
 31
0.0
  0
ELLIPSE
  5
30D
330
2A6
100
AcDbEntity
  8
22202-001032_TA-
  6
Continuous
 62
     7
100
AcDbEllipse
 10
108.7795088354
 20
163.5662758526
 30
0.0
 11
-2.844946500601964E-12
 21
-14.49999999999872
 31
0.0
210
0.0
220
0.0
230
1.0
 40
0.8660254038
 41
0.4124778093767276
 42
0.7125575162459448
  0
LINE
  5
30E
330
2A6
100
AcDbEntity
  8
22202-001032_TA-
  6
Continuous
 62
     7
100
AcDbLine
 10
113.8135136006
 20
150.2823860596
 30
0.0
 11
118.3135136007
 21
150.2823860596
 31
0.0
  0
LINE
  5
30F
330
2A6
100
AcDbEntity
  8
22202-001032_TA-
  6
Continuous
 62
     7
100
AcDbLine
 10
109.1553024694
 20
149.8706112417
 30
0.0
 11
104.6553024694
 21
149.8706112417
 31
0.0
  0
ELLIPSE
  5
310
330
2A6
100
AcDbEntity
  8
22202-001032_TA-
  6
Continuous
 62
     7
100
AcDbEllipse
 10
108.7795088354
 20
163.5662758526
 30
0.0
 11
-4.143907439413397E-11
 21
-14.5000000000253
 31
0.0
210
0.0
220
0.0
230
1.0
 40
0.8660254038
 41
5.648465565359237
 42
5.9485452722325
  0
ELLIPSE
  5
311
330
2A6
100
AcDbEntity
  8
22202-001032_TA-
  6
Continuous
 62
     7
100
AcDbEllipse
 10
108.7795088354
 20
163.5662758525
 30
0.0
 11
-2.275957200481571E-11
 21
14.50000000001187
 31
0.0
210
0.0
220
0.0
230
1.0
 40
0.8660254038
 41
0.4124778093750399
 42
0.7125575162418699
  0
ELLIPSE
  5
312
330
2A6
100
AcDbEntity
  8
22202-001032_TA-
  6
Continuous
 62
     7
100
AcDbEllipse
 10
104.6295088354
 20
163.5662758526
 30
0.0
 11
1.387778780781446E-14
 21
-10.0
 31
0.0
210
0.0
220
0.0
230
1.0
 40
0.8660254038
 41
5.523423374672266
 42
6.283185307179586
  0
ELLIPSE
  5
313
330
2A6
100
AcDbEntity
  8
22202-001032_TA-
  6
Continuous
 62
     7
100
AcDbEllipse
 10
104.6295088354
 20
163.5662758526
 30
0.0
 11
1.387778780781446E-14
 21
-10.0
 31
0.0
210
0.0
220
0.0
230
1.0
 40
0.8660254038
 41
1.748339232756048
 42
3.901354586097107
  0
ELLIPSE
  5
314
330
2A6
100
AcDbEntity
  8
22202-001032_TA-
  6
Continuous
 62
     7
100
AcDbEllipse
 10
104.6295088354
 20
163.5662758526
 30
0.0
 11
1.387778780781446E-14
 21
-10.0
 31
0.0
210
0.0
220
0.0
230
1.0
 40
0.8660254038
 41
0.0
 42
1.393253420833745
  0
ELLIPSE
  5
315
330
2A6
100
AcDbEntity
  8
22202-001032_TA-
  6
Continuous
 62
     7
100
AcDbEllipse
 10
104.6295088354
 20
163.5662758526
 30
0.0
 11
-1.387778780781446E-14
 21
6.799999999999995
 31
0.0
210
0.0
220
0.0
230
1.0
 40
0.8660254038
 41
3.141592653589793
 42
6.283185307179586
  0
ELLIPSE
  5
316
330
2A6
100
AcDbEntity
  8
22202-001032_TA-
  6
Continuous
 62
     7
100
AcDbEllipse
 10
104.0295088354
 20
163.5662758526
 30
0.0
 11
0.0
 21
6.800000000000005
 31
0.0
210
0.0
220
0.0
230
1.0
 40
0.8660254038
 41
3.173092107298173
 42
6.251685853471341
  0
ELLIPSE
  5
317
330
2A6
100
AcDbEntity
  8
22202-001032_TA-
  6
Continuous
 62
     7
100
AcDbEllipse
 10
97.0295088354
 20
163.5662758526
 30
0.0
 11
1.387778780781446E-14
 21
7.250000000000003
 31
0.0
210
0.0
220
0.0
230
1.0
 40
0.8660254038
 41
0.0
 42
6.283185307179586
  0
ELLIPSE
  5
318
330
2A6
100
AcDbEntity
  8
22202-001032_TA-
  6
Continuous
 62
     7
100
AcDbEllipse
 10
102.0295088354
 20
163.5662758526
 30
0.0
 11
1.387778780781446E-14
 21
7.249999999999999
 31
0.0
210
0.0
220
0.0
230
1.0
 40
0.8660254038
 41
3.141592653589795
 42
6.283185307179586
  0
CIRCLE
  5
319
330
2A6
100
AcDbEntity
  8
22202-001032_TA-
  6
Continuous
 62
     7
100
AcDbCircle
 10
102.8548263827
 20
206.5662758526
 30
0.0
 40
5.9
  0
LINE
  5
31A
330
2A6
100
AcDbEntity
  8
22202-001032_TA-
  6
Continuous
 62
     7
100
AcDbLine
 10
109.8713461727
 20
204.7038388809
 30
0.0
 11
109.8545598442
 21
206.627361601
 31
0.0
  0
ARC
  5
31B
330
2A6
100
AcDbEntity
  8
22202-001032_TA-
  6
Continuous
 62
     7
100
AcDbCircle
 10
102.8548263827
 20
206.5662758526
 30
0.0
 40
7.0
100
AcDbArc
 50
0.5
 51
179.5
  0
LINE
  5
31C
330
2A6
100
AcDbEntity
  8
22202-001032_TA-
  6
Continuous
 62
     7
100
AcDbLine
 10
95.8550929213
 20
206.627361601
 30
0.0
 11
95.8383065928
 21
204.7038388809
 31
0.0
  0
CIRCLE
  5
31D
330
2A6
100
AcDbEntity
  8
22202-001032_TA-
  6
Continuous
 62
     7
100
AcDbCircle
 10
102.8548263827
 20
120.5662758526
 30
0.0
 40
5.9
  0
LINE
  5
31E
330
2A6
100
AcDbEntity
  8
22202-001032_TA-
  6
Continuous
 62
     7
100
AcDbLine
 10
109.8545598442
 20
120.5051901041
 30
0.0
 11
109.8713461727
 21
122.4287128242
 31
0.0
  0
LINE
  5
31F
330
2A6
100
AcDbEntity
  8
22202-001032_TA-
  6
Continuous
 62
     7
100
AcDbLine
 10
95.8383065928
 20
122.4287128242
 30
0.0
 11
95.8550929213
 21
120.5051901041
 31
0.0
  0
ARC
  5
320
330
2A6
100
AcDbEntity
  8
22202-001032_TA-
  6
Continuous
 62
     7
100
AcDbCircle
 10
102.8548263827
 20
120.5662758526
 30
0.0
 40
6.999999999999993
100
AcDbArc
 50
180.5
 51
359.5
  0
ELLIPSE
  5
321
330
2A6
100
AcDbEntity
  8
22202-001032_TA-
  6
Continuous
 62
     7
100
AcDbEllipse
 10
118.93014393
 20
163.5662758526
 30
0.0
 11
0.0
 21
-6.900000000000003
 31
0.0
210
0.0
220
0.0
230
1.0
 40
0.8660254038
 41
0.0
 42
6.283185307179586
  0
ELLIPSE
  5
322
330
2A6
100
AcDbEntity
  8
22202-001032_TA-
  6
Continuous
 62
     7
100
AcDbEllipse
 10
123.43014393
 20
163.5662758526
 30
0.0
 11
1.387778780781446E-14
 21
6.900000000000004
 31
0.0
210
0.0
220
0.0
230
1.0
 40
0.8660254038
 41
3.141592653589793
 42
6.283185307179586
  0
ELLIPSE
  5
323
330
2A6
100
AcDbEntity
  8
22202-001032_TA-
  6
Continuous
 62
     7
100
AcDbEllipse
 10
135.68014393
 20
163.5662758526
 30
0.0
 11
-3.469446951953614E-15
 21
-5.999999999999994
 31
0.0
210
0.0
220
0.0
230
1.0
 40
0.8660254038
 41
0.0000000000000007
 42
3.141592653589794
  0
ELLIPSE
  5
324
330
2A6
100
AcDbEntity
  8
22202-001032_TA-
  6
Continuous
 62
     7
100
AcDbEllipse
 10
124.93014393
 20
163.5662758526
 30
0.0
 11
-1.387778780781446E-14
 21
5.999999999999994
 31
0.0
210
0.0
220
0.0
230
1.0
 40
0.8660254038
 41
3.568709975278695
 42
5.856067985490681
  0
LINE
  5
325
330
2A6
100
AcDbEntity
  8
22202-001032_TA-
  6
Continuous
 62
     7
100
AcDbLine
 10
70.6866271969
 20
125.5662758526
 30
0.0
 11
70.6866271969
 21
201.5662758526
 31
0.0
  0
LINE
  5
326
330
2A6
100
AcDbEntity
  8
22202-001032_TA-
  6
Continuous
 62
     7
100
AcDbLine
 10
85.2548263827
 20
102.7662758526
 30
0.0
 11
85.2548263827
 21
224.3662758526
 31
0.0
  0
LINE
  5
327
330
2A6
100
AcDbEntity
  8
22202-001032_TA-
  6
Continuous
 62
     7
100
AcDbLine
 10
84.8957845487
 20
109.6172021638
 30
0.0
 11
84.8957845487
 21
217.5153495413
 31
0.0
  0
LINE
  5
328
330
2A6
100
AcDbEntity
  8
22202-001032_TA-
  6
Continuous
 62
     7
100
AcDbLine
 10
79.3548263827
 20
112.8162758526
 30
0.0
 11
79.3548263827
 21
214.3162758526
 31
0.0
  0
LINE
  5
329
330
2A6
100
AcDbEntity
  8
22202-001032_TA-
  6
Continuous
 62
     7
100
AcDbLine
 10
71.3548263827
 20
112.8162758526
 30
0.0
 11
71.3548263827
 21
214.3162758526
 31
0.0
  0
ARC
  5
32A
330
2A6
100
AcDbEntity
  8
22202-001032_TA-
  6
Continuous
 62
     7
100
AcDbCircle
 10
95.7616387682
 20
185.5496323828
 30
0.0
 40
32.53677312728676
100
AcDbArc
 50
169.5816532179
 51
191.6404390369
  0
ARC
  5
32B
330
2A6
100
AcDbEntity
  8
22202-001032_TA-
  6
Continuous
 62
     7
100
AcDbCircle
 10
215.6724698671
 20
164.7105736667
 30
0.0
 40
152.4481576790176
100
AcDbArc
 50
174.627369307
 51
185.372630693
  0
ARC
  5
32C
330
2A6
100
AcDbEntity
  8
22202-001032_TA-
  6
Continuous
 62
     7
100
AcDbCircle
 10
107.9531895963
 20
142.7272171364
 30
0.0
 40
44.72851574232315
100
AcDbArc
 50
170.0751827154
 51
189.9248172846
  0
LINE
  5
32D
330
2A6
100
AcDbEntity
  8
22202-001032_TA-
  6
Continuous
 62
     7
100
AcDbLine
 10
65.5552516497
 20
125.5662758526
 30
0.0
 11
65.5552516497
 21
201.5662758526
 31
0.0
  0
LINE
  5
32E
330
2A6
100
AcDbEntity
  8
22202-001032_TA-
  6
Continuous
 62
     7
100
AcDbLine
 10
44.2033723577
 20
178.9847120822
 30
0.0
 11
63.8940466567
 21
178.9847120822
 31
0.0
  0
LINE
  5
32F
330
2A6
100
AcDbEntity
  8
22202-001032_TA-
  6
Continuous
 62
     7
100
AcDbLine
 10
44.2033723577
 20
150.4364352512
 30
0.0
 11
63.8940466567
 21
150.4364352512
 31
0.0
  0
LINE
  5
330
330
2A6
100
AcDbEntity
  8
22202-001032_TA-
  6
Continuous
 62
     7
100
AcDbLine
 10
44.2033723577
 20
135.0179990216
 30
0.0
 11
63.8940466567
 21
135.0179990216
 31
0.0
  0
LINE
  5
331
330
2A6
100
AcDbEntity
  8
22202-001032_TA-
  6
Continuous
 62
     7
100
AcDbLine
 10
44.2033723577
 20
192.1145526835
 30
0.0
 11
63.8886578408
 21
192.1145526835
 31
0.0
  0
ARC
  5
332
330
2A6
100
AcDbEntity
  8
22202-001032_TA-
  6
Continuous
 62
     7
100
AcDbCircle
 10
117.2581939437
 20
164.7105736667
 30
0.0
 40
74.43626793758429
100
AcDbArc
 50
168.944298393
 51
191.055701607
  0
ARC
  5
333
330
2A6
100
AcDbEntity
  8
22202-001032_TA-
  6
Continuous
 62
     7
100
AcDbCircle
 10
59.1666401063
 20
185.5496323828
 30
0.0
 40
16.34005998375105
100
AcDbArc
 50
156.3112215705
 51
203.6887784295
  0
ARC
  5
334
330
2A6
100
AcDbEntity
  8
22202-001032_TA-
  6
Continuous
 62
     7
100
AcDbCircle
 10
59.1666401063
 20
141.5829193223
 30
0.0
 40
16.340059983751
100
AcDbArc
 50
201.1323399041
 51
203.6887784295
  0
ARC
  5
335
330
2A6
100
AcDbEntity
  8
22202-001032_TA-
  6
Continuous
 62
     7
100
AcDbCircle
 10
65.0728905227
 20
142.7272171364
 30
0.0
 40
22.24789501013051
100
AcDbArc
 50
159.7257263553
 51
200.2742736447
  0
LINE
  5
336
330
2A6
100
AcDbEntity
  8
22202-001032_TA-
  6
Continuous
 62
     7
100
AcDbLine
 10
42.3548263827
 20
140.0662758526
 30
0.0
 11
42.3548263827
 21
187.0662758526
 31
0.0
  0
LINE
  5
337
330
2A6
100
AcDbEntity
  8
22202-001032_TA-
  6
Continuous
 62
     7
100
AcDbLine
 10
95.7858338092
 20
128.4414982732
 30
0.0
 11
95.8383065928
 21
122.4287128242
 31
0.0
  0
ARC
  5
338
330
2A6
100
AcDbEntity
  8
22202-001032_TA-
  6
Continuous
 62
     7
100
AcDbCircle
 10
102.8548263827
 20
120.5662758526
 30
0.0
 40
7.259491816617236
100
AcDbArc
 50
14.8655665081
 51
165.1344334919
  0
LINE
  5
339
330
2A6
100
AcDbEntity
  8
22202-001032_TA-
  6
Continuous
 62
     7
100
AcDbLine
 10
109.8713461727
 20
122.4287128242
 30
0.0
 11
109.9238189563
 21
128.4414982732
 31
0.0
  0
SPLINE
  5
33A
330
2A6
100
AcDbEntity
  8
22202-001032_TA-
  6
Continuous
 62
     7
100
AcDbSpline
210
0.0
220
0.0
230
1.0
 70
     8
 71
     3
 72
    12
 73
     8
 74
     0
 42
0.0000000008650784
 43
0.0000000001
 12
1.0
 22
0.0
 32
0.0
 13
1.0
 23
0.0
 33
0.0
 40
0.3671096946494726
 40
0.3671096946494726
 40
0.3671096946494726
 40
0.3671096946494726
 40
0.3749999999999999
 40
0.3749999999999999
 40
0.4999999999999999
 40
0.4999999999999999
 40
0.57571320791248
 40
0.57571320791248
 40
0.57571320791248
 40
0.57571320791248
 10
152.1544768623853
 20
133.3840868913844
 30
0.0
 10
152.1530160307802
 20
133.3624298214823
 30
0.0
 10
152.1507884658381
 20
133.3411680588135
 30
0.0
 10
152.0999309268322
 20
132.9897485927631
 30
0.0
 10
151.8447163970008
 20
132.7757407225392
 30
0.0
 10
151.0282340109894
 20
132.5951683037849
 30
0.0
 10
150.6388974233879
 20
132.5655037027059
 30
0.0
 10
150.1854236359183
 20
132.5659168427166
 30
0.0
  0
ELLIPSE
  5
33B
330
2A6
100
AcDbEntity
  8
22202-001032_TA-
  6
Continuous
 62
     7
100
AcDbEllipse
 10
153.8798263827
 20
163.5662758526
 30
0.0
 11
6.591949208711868E-14
 21
-33.50000000000001
 31
0.0
210
0.0
220
0.0
230
1.0
 40
0.8660254038
 41
-0.3887775385418506
 42
-0.0000000000000013
  0
ELLIPSE
  5
33C
330
2A6
100
AcDbEntity
  8
22202-001032_TA-
  6
Continuous
 62
     7
100
AcDbEllipse
 10
153.8798263827
 20
163.5662758526
 30
0.0
 11
6.591949208711868E-14
 21
-33.50000000000001
 31
0.0
210
0.0
220
0.0
230
1.0
 40
0.8660254038
 41
3.141592653589789
 42
3.530370192131638
  0
SPLINE
  5
33D
330
2A6
100
AcDbEntity
  8
22202-001032_TA-
  6
Continuous
 62
     7
100
AcDbSpline
210
0.0
220
0.0
230
1.0
 70
     8
 71
     3
 72
    12
 73
     8
 74
     0
 42
0.0000000008638453
 43
0.0000000001
 12
1.0
 22
0.0
 32
0.0
 13
1.0
 23
0.0
 33
0.0
 40
0.4245878094709869
 40
0.4245878094709869
 40
0.4245878094709869
 40
0.4245878094709869
 40
0.4999999999999999
 40
0.4999999999999999
 40
0.625
 40
0.625
 40
0.6313441113090646
 40
0.6313441113090646
 40
0.6313441113090646
 40
0.6313441113090646
 10
150.1870501998671
 20
194.5660102110027
 30
0.0
 10
150.6397213635689
 20
194.5660459264735
 30
0.0
 10
151.030636539078
 20
194.5365369067376
 30
0.0
 10
151.8358887679459
 20
194.3592821144624
 30
0.0
 10
152.0996928261636
 20
194.1405821981168
 30
0.0
 10
152.1500133704214
 20
193.7969277651997
 30
0.0
 10
152.1519278568339
 20
193.7800409787793
 30
0.0
 10
152.1533398560991
 20
193.7628697967818
 30
0.0
  0
ELLIPSE
  5
33E
330
2A6
100
AcDbEntity
  8
22202-001032_TA-
  6
Continuous
 62
     7
100
AcDbEllipse
 10
170.9798263827
 20
163.5662758526
 30
0.0
 11
-2.003605614753212E-13
 21
-37.24999999999985
 31
0.0
210
0.0
220
0.0
230
1.0
 40
0.8660254038
 41
3.306339734464069
 42
4.347710609884782
  0
ARC
  5
33F
330
2A6
100
AcDbEntity
  8
22202-001032_TA-
  6
Continuous
 62
     7
100
AcDbCircle
 10
220.6152219086
 20
163.5280638875
 30
0.0
 40
80.87836470127957
100
AcDbArc
 50
170.5182431484
 51
172.9036810334
  0
SPLINE
  5
340
330
2A6
100
AcDbEntity
  8
22202-001032_TA-
  6
Continuous
 62
     7
100
AcDbSpline
210
0.0
220
0.0
230
1.0
 70
     8
 71
     3
 72
    14
 73
    10
 74
     0
 42
0.0000000013931046
 43
0.0000000001
 12
1.0
 22
0.0
 32
0.0
 13
1.0
 23
0.0
 33
0.0
 40
0.0774037309130297
 40
0.0774037309130297
 40
0.0774037309130297
 40
0.0774037309130297
 40
0.2500000000000027
 40
0.2500000000000027
 40
0.3125000000000032
 40
0.3125000000000032
 40
0.3750000000000038
 40
0.3750000000000038
 40
0.4441116658643014
 40
0.4441116658643014
 40
0.4441116658643014
 40
0.4441116658643014
 10
140.9244980266785
 20
173.5668626710861
 30
0.0
 10
141.3376106964788
 20
173.566916837739
 30
0.0
 10
141.73065659024
 20
173.4895625552284
 30
0.0
 10
142.2416082271
 20
173.2861743018309
 30
0.0
 10
142.3755747620458
 20
173.2221209347579
 30
0.0
 10
142.6359896988176
 20
173.0759730094804
 30
0.0
 10
142.7624829576224
 20
172.993967610826
 30
0.0
 10
143.0215811782704
 20
172.8028927654333
 30
0.0
 10
143.1534303818988
 20
172.6919366675559
 30
0.0
 10
143.2813255761993
 20
172.5702381624666
 30
0.0
  0
SPLINE
  5
341
330
2A6
100
AcDbEntity
  8
22202-001032_TA-
  6
Continuous
 62
     7
100
AcDbSpline
210
0.0
220
0.0
230
1.0
 70
     8
 71
     3
 72
     8
 73
     4
 74
     0
 42
0.0000000013633237
 43
0.0000000001
 12
1.0
 22
0.0
 32
0.0
 13
1.0
 23
0.0
 33
0.0
 40
0.5606577649350293
 40
0.5606577649350293
 40
0.5606577649350293
 40
0.5606577649350293
 40
0.9236123860572147
 40
0.9236123860572147
 40
0.9236123860572147
 40
0.9236123860572147
 10
143.2600761596628
 20
154.5420299511839
 30
0.0
 10
142.5844066688689
 20
153.9066056005868
 30
0.0
 10
141.7971122838977
 20
153.5637093554454
 30
0.0
 10
140.9210824035903
 20
153.5655223847857
 30
0.0
  0
ARC
  5
342
330
2A6
100
AcDbEntity
  8
22202-001032_TA-
  6
Continuous
 62
     7
100
AcDbCircle
 10
220.6106672411
 20
163.6038242534
 30
0.0
 40
80.87376294792334
100
AcDbArc
 50
187.0962510905
 51
189.4818247277
  0
ELLIPSE
  5
343
330
2A6
100
AcDbEntity
  8
22202-001032_TA-
  6
Continuous
 62
     7
100
AcDbEllipse
 10
170.9798263827
 20
163.5662758526
 30
0.0
 11
2.046973701652633E-13
 21
37.25000000000006
 31
0.0
210
0.0
220
0.0
230
1.0
 40
0.8660254038
 41
1.935474697294818
 42
2.908765146176525
  0
ELLIPSE
  5
344
330
2A6
100
AcDbEntity
  8
22202-001032_TA-
  6
Continuous
 62
     7
100
AcDbEllipse
 10
143.38014393
 20
163.5662758526
 30
0.0
 11
3.469446951953615E-15
 21
-9.000000000000014
 31
0.0
210
0.0
220
0.0
230
1.0
 40
0.8660254038
 41
-0.0000000000000004
 42
3.141592653589797
  0
ELLIPSE
  5
345
330
2A6
100
AcDbEntity
  8
22202-001032_TA-
  6
Continuous
 62
     7
100
AcDbEllipse
 10
122.0295088354
 20
163.5662758526
 30
0.0
 11
-5.551115123125783E-14
 21
-12.75000000000001
 31
0.0
210
0.0
220
0.0
230
1.0
 40
0.8660254038
 41
2.178336499016325
 42
3.141592653589793
  0
SPLINE
  5
346
330
2A6
100
AcDbEntity
  8
22202-001032_TA-
  6
Continuous
 62
     7
100
AcDbSpline
210
0.0
220
0.0
230
1.0
 70
     8
 71
     3
 72
    12
 73
     8
 74
     0
 42
0.0000000038745817
 43
0.0000000001
 12
1.0
 22
0.0
 32
0.0
 13
1.0
 23
0.0
 33
0.0
 40
0.2174747914260001
 40
0.2174747914260001
 40
0.2174747914260001
 40
0.2174747914260001
 40
0.5000000000000007
 40
0.5000000000000007
 40
0.7500000000000003
 40
0.7500000000000003
 40
1.0
 40
1.0
 40
1.0
 40
1.0
 10
134.9126278260625
 20
173.5671818897187
 30
0.0
 10
134.75774757098
 20
173.5673241654761
 30
0.0
 10
134.6043446173958
 20
173.5082056104378
 30
0.0
 10
134.3174156832413
 20
173.284927880531
 30
0.0
 10
134.1836617839674
 20
173.1328311201645
 30
0.0
 10
133.9179129470523
 20
172.7209318270796
 30
0.0
 10
133.7859155602352
 20
172.4615419787552
 30
0.0
 10
133.6548263827421
 20
172.1337672197672
 30
0.0
  0
ARC
  5
347
330
2A6
100
AcDbEntity
  8
22202-001032_TA-
  6
Continuous
 62
     7
100
AcDbCircle
 10
124.8485338493
 20
146.0451814606
 30
0.0
 40
27.53479789464647
100
AcDbArc
 50
71.5972125915
 51
81.0084368104
  0
LINE
  5
348
330
2A6
100
AcDbEntity
  8
22202-001032_TA-
  6
Continuous
 62
     7
100
AcDbLine
 10
139.6031771268
 20
153.5662758526
 30
0.0
 11
139.6031771268
 21
132.5662758526
 31
0.0
  0
LINE
  5
349
330
2A6
100
AcDbEntity
  8
22202-001032_TA-
  6
Continuous
 62
     7
100
AcDbLine
 10
139.6031771268
 20
194.5662758526
 30
0.0
 11
139.6031771268
 21
173.5662758526
 31
0.0
  0
LINE
  5
34A
330
2A6
100
AcDbEntity
  8
22202-001032_TA-
  6
Continuous
 62
     7
100
AcDbLine
 10
95.7858338092
 20
128.4414982732
 30
0.0
 11
109.9238189563
 21
128.4414982732
 31
0.0
  0
LINE
  5
34B
330
2A6
100
AcDbEntity
  8
22202-001032_TA-
  6
Continuous
 62
     7
100
AcDbLine
 10
109.9238189563
 20
198.6910534319
 30
0.0
 11
95.7858338092
 21
198.6910534319
 31
0.0
  0
LINE
  5
34C
330
2A6
100
AcDbEntity
  8
22202-001032_TA-
  6
Continuous
 62
     7
100
AcDbLine
 10
95.6548263827
 20
99.5662758526
 30
0.0
 11
95.6548263827
 21
156.492180089
 31
0.0
  0
LINE
  5
34D
330
2A6
100
AcDbEntity
  8
22202-001032_TA-
  6
Continuous
 62
     7
100
AcDbLine
 10
95.6548263827
 20
170.6403716161
 30
0.0
 11
95.6548263827
 21
227.5662758526
 31
0.0
  0
LINE
  5
34E
330
2A6
100
AcDbEntity
  8
22202-001032_TA-
  6
Continuous
 62
     7
100
AcDbLine
 10
116.1548263827
 20
99.5662758526
 30
0.0
 11
116.1548263827
 21
150.1853263802
 31
0.0
  0
LINE
  5
34F
330
2A6
100
AcDbEntity
  8
22202-001032_TA-
  6
Continuous
 62
     7
100
AcDbLine
 10
116.1548263827
 20
177.2619404634
 30
0.0
 11
116.1548263827
 21
227.5662758526
 31
0.0
  0
LINE
  5
350
330
2A6
100
AcDbEntity
  8
22202-001032_TA-
  6
Continuous
 62
     7
100
AcDbLine
 10
133.6548263827
 20
109.6699055634
 30
0.0
 11
133.6548263827
 21
154.8754309506
 31
0.0
  0
LINE
  5
351
330
2A6
100
AcDbEntity
  8
22202-001032_TA-
  6
Continuous
 62
     7
100
AcDbLine
 10
133.6548263827
 20
172.2571207545
 30
0.0
 11
133.6548263827
 21
217.4626461417
 31
0.0
  0
LINE
  5
352
330
2A6
100
AcDbEntity
  8
22202-001032_TA-
  6
Continuous
 62
     7
100
AcDbLine
 10
135.2730501079
 20
125.0662758526
 30
0.0
 11
135.2730501079
 21
153.5662758526
 31
0.0
  0
LINE
  5
353
330
2A6
100
AcDbEntity
  8
22202-001032_TA-
  6
Continuous
 62
     7
100
AcDbLine
 10
135.2730501079
 20
173.5662758526
 30
0.0
 11
135.2730501079
 21
202.0662758526
 31
0.0
  0
LINE
  5
354
330
2A6
100
AcDbEntity
  8
22202-001032_TA-
  6
Continuous
 62
     7
100
AcDbLine
 10
85.3548263827
 20
228.5662758526
 30
0.0
 11
85.3548263827
 21
98.5662758526
 31
0.0
  0
LINE
  5
355
330
2A6
100
AcDbEntity
  8
22202-001032_TA-
  6
Continuous
 62
     7
100
AcDbLine
 10
94.6548263827
 20
98.5662758526
 30
0.0
 11
94.6548263827
 21
156.8548171687
 31
0.0
  0
LINE
  5
356
330
2A6
100
AcDbEntity
  8
22202-001032_TA-
  6
Continuous
 62
     7
100
AcDbLine
 10
94.6548263827
 20
170.2777345364
 30
0.0
 11
94.6548263827
 21
228.5662758526
 31
0.0
  0
ELLIPSE
  5
357
330
2A6
100
AcDbEntity
  8
22202-001032_TA-
  6
Continuous
 62
     7
100
AcDbEllipse
 10
122.0295088354
 20
163.5662758526
 30
0.0
 11
2.081668171172169E-14
 21
12.75
 31
0.0
210
0.0
220
0.0
230
1.0
 40
0.8660254038
 41
3.141592653589793
 42
4.104848808163261
  0
ARC
  5
358
330
2A6
100
AcDbEntity
  8
22202-001032_TA-
  6
Continuous
 62
     7
100
AcDbCircle
 10
124.8687032296
 20
180.9057606853
 30
0.0
 40
27.35630413434458
100
AcDbArc
 50
279.2446567573
 51
288.4861382469
  0
SPLINE
  5
359
330
2A6
100
AcDbEntity
  8
22202-001032_TA-
  6
Continuous
 62
     7
100
AcDbSpline
210
0.0
220
0.0
230
1.0
 70
     8
 71
     3
 72
    12
 73
     8
 74
     0
 42
0.0000000038745589
 43
0.0000000001
 12
1.0
 22
0.0
 32
0.0
 13
1.0
 23
0.0
 33
0.0
 40
0.0
 40
0.0
 40
0.0
 40
0.0
 40
0.2499999999999997
 40
0.2499999999999997
 40
0.4999999999999993
 40
0.4999999999999993
 40
0.7825109118158076
 40
0.7825109118158076
 40
0.7825109118158076
 40
0.7825109118158076
 10
133.6548263827421
 20
154.9987844853357
 30
0.0
 10
133.7859155602352
 20
154.6710097263478
 30
0.0
 10
133.9179129470523
 20
154.4116198780233
 30
0.0
 10
134.1836617839674
 20
153.9997205849384
 30
0.0
 10
134.3174156832413
 20
153.8476238245719
 30
0.0
 10
134.6043369141857
 20
153.624352089025
 30
0.0
 10
134.757732045537
 20
153.5652335229878
 30
0.0
 10
134.9126043136351
 20
153.5653697942405
 30
0.0
  0
LINE
  5
35A
330
2A6
100
AcDbEntity
  8
22202-001032_TA-
  6
Continuous
 62
     7
100
AcDbLine
 10
95.8383065928
 20
204.7038388809
 30
0.0
 11
95.7858338092
 21
198.6910534319
 31
0.0
  0
LINE
  5
35B
330
2A6
100
AcDbEntity
  8
22202-001032_TA-
  6
Continuous
 62
     7
100
AcDbLine
 10
109.9238189563
 20
198.6910534319
 30
0.0
 11
109.8713461727
 21
204.7038388809
 31
0.0
  0
ELLIPSE
  5
35C
330
2A6
100
AcDbEntity
  8
22202-001032_TA-
  6
Continuous
 62
     7
100
AcDbEllipse
 10
135.68014393
 20
163.5662758526
 30
0.0
 11
-6.938893903907228E-15
 21
-9.000000000000021
 31
0.0
210
0.0
220
0.0
230
1.0
 40
0.8660254038
 41
0.0
 42
3.982661324157726
  0
ELLIPSE
  5
35D
330
2A6
100
AcDbEntity
  8
22202-001032_TA-
  6
Continuous
 62
     7
100
AcDbEllipse
 10
135.68014393
 20
163.5662758526
 30
0.0
 11
-6.938893903907228E-15
 21
-9.000000000000021
 31
0.0
210
0.0
220
0.0
230
1.0
 40
0.8660254038
 41
5.44211663661165
 42
6.283185307179586
  0
ARC
  5
35E
330
2A6
100
AcDbEntity
  8
22202-001032_TA-
  6
Continuous
 62
     7
100
AcDbCircle
 10
102.8548263827
 20
206.5662758526
 30
0.0
 40
7.259491816617241
100
AcDbArc
 50
194.8655665081
 51
345.1344334919
  0
ARC
  5
35F
330
2A6
100
AcDbEntity
  8
22202-001032_TA-
  6
Continuous
 62
     7
100
AcDbCircle
 10
208.5841703375
 20
170.5467976324
 30
0.0
 40
71.14981667880164
100
AcDbArc
 50
277.545223552
 51
311.3073270406
  0
ARC
  5
360
330
2A6
100
AcDbEntity
  8
22202-001032_TA-
  6
Continuous
 62
     7
100
AcDbCircle
 10
208.5879466292
 20
156.5860977707
 30
0.0
 40
71.14706582615796
100
AcDbArc
 50
48.6947746694
 51
82.4582981757
  0
LINE
  5
361
330
2A6
100
AcDbEntity
  8
22202-001032_TA-
  6
Continuous
 62
     7
100
AcDbLine
 10
226.7548263827
 20
129.5662758526
 30
0.0
 11
227.8548263827
 21
129.5662758526
 31
0.0
  0
LINE
  5
362
330
2A6
100
AcDbEntity
  8
22202-001032_TA-
  6
Continuous
 62
     7
100
AcDbLine
 10
227.8548263827
 20
197.5662758526
 30
0.0
 11
226.7548263827
 21
197.5662758526
 31
0.0
  0
LINE
  5
363
330
2A6
100
AcDbEntity
  8
22202-001032_TA-
  6
Continuous
 62
     7
100
AcDbLine
 10
227.8548263827
 20
131.5662758526
 30
0.0
 11
232.1048263827
 21
131.5662758526
 31
0.0
  0
LINE
  5
364
330
2A6
100
AcDbEntity
  8
22202-001032_TA-
  6
Continuous
 62
     7
100
AcDbLine
 10
232.1048263827
 20
195.5662758526
 30
0.0
 11
227.8548263827
 21
195.5662758526
 31
0.0
  0
LINE
  5
365
330
2A6
100
AcDbEntity
  8
22202-001032_TA-
  6
Continuous
 62
     7
100
AcDbLine
 10
232.1048263827
 20
153.5662758526
 30
0.0
 11
247.5548263827
 21
153.5662758526
 31
0.0
  0
LINE
  5
366
330
2A6
100
AcDbEntity
  8
22202-001032_TA-
  6
Continuous
 62
     7
100
AcDbLine
 10
247.5548263827
 20
173.5662758526
 30
0.0
 11
232.1048263827
 21
173.5662758526
 31
0.0
  0
LINE
  5
367
330
2A6
100
AcDbEntity
  8
22202-001032_TA-
  6
Continuous
 62
     7
100
AcDbLine
 10
247.5548263827
 20
159.5662758526
 30
0.0
 11
259.3160768454
 21
159.5662758526
 31
0.0
  0
LINE
  5
368
330
2A6
100
AcDbEntity
  8
22202-001032_TA-
  6
Continuous
 62
     7
100
AcDbLine
 10
259.3160768454
 20
167.5662758526
 30
0.0
 11
247.5548263827
 21
167.5662758526
 31
0.0
  0
LINE
  5
369
330
2A6
100
AcDbEntity
  8
22202-001032_TA-
  6
Continuous
 62
     7
100
AcDbLine
 10
261.0048263827
 20
159.1162758526
 30
0.0
 11
264.0923263827
 21
159.1162758526
 31
0.0
  0
LINE
  5
36A
330
2A6
100
AcDbEntity
  8
22202-001032_TA-
  6
Continuous
 62
     7
100
AcDbLine
 10
264.0923263827
 20
168.0162758526
 30
0.0
 11
261.0048263827
 21
168.0162758526
 31
0.0
  0
LINE
  5
36B
330
2A6
100
AcDbEntity
  8
22202-001032_TA-
  6
Continuous
 62
     7
100
AcDbLine
 10
264.0923263827
 20
160.1412758526
 30
0.0
 11
271.6048263827
 21
160.1412758526
 31
0.0
  0
LINE
  5
36C
330
2A6
100
AcDbEntity
  8
22202-001032_TA-
  6
Continuous
 62
     7
100
AcDbLine
 10
271.6048263827
 20
166.9912758526
 30
0.0
 11
264.0923263827
 21
166.9912758526
 31
0.0
  0
LINE
  5
36D
330
2A6
100
AcDbEntity
  8
22202-001032_TA-
  6
Continuous
 62
     7
100
AcDbLine
 10
108.7795088354
 20
173.5662758526
 30
0.0
 11
104.6295088354
 21
173.5662758526
 31
0.0
  0
LINE
  5
36E
330
2A6
100
AcDbEntity
  8
22202-001032_TA-
  6
Continuous
 62
     7
100
AcDbLine
 10
104.6295088354
 20
153.5662758526
 30
0.0
 11
108.7795088354
 21
153.5662758526
 31
0.0
  0
LINE
  5
36F
330
2A6
100
AcDbEntity
  8
22202-001032_TA-
  6
Continuous
 62
     7
100
AcDbLine
 10
104.6295088354
 20
170.3662758526
 30
0.0
 11
104.2070935066
 21
170.3662758526
 31
0.0
  0
LINE
  5
370
330
2A6
100
AcDbEntity
  8
22202-001032_TA-
  6
Continuous
 62
     7
100
AcDbLine
 10
104.2070935066
 20
156.7662758526
 30
0.0
 11
104.6295088354
 21
156.7662758526
 31
0.0
  0
LINE
  5
371
330
2A6
100
AcDbEntity
  8
22202-001032_TA-
  6
Continuous
 62
     7
100
AcDbLine
 10
102.0295088354
 20
170.8162758526
 30
0.0
 11
97.0295088354
 21
170.8162758526
 31
0.0
  0
LINE
  5
372
330
2A6
100
AcDbEntity
  8
22202-001032_TA-
  6
Continuous
 62
     7
100
AcDbLine
 10
97.0295088354
 20
156.3162758526
 30
0.0
 11
102.0295088354
 21
156.3162758526
 31
0.0
  0
LINE
  5
373
330
2A6
100
AcDbEntity
  8
22202-001032_TA-
  6
Continuous
 62
     7
100
AcDbLine
 10
123.43014393
 20
170.4662758526
 30
0.0
 11
118.93014393
 21
170.4662758526
 31
0.0
  0
LINE
  5
374
330
2A6
100
AcDbEntity
  8
22202-001032_TA-
  6
Continuous
 62
     7
100
AcDbLine
 10
118.93014393
 20
156.6662758526
 30
0.0
 11
123.43014393
 21
156.6662758526
 31
0.0
  0
LINE
  5
375
330
2A6
100
AcDbEntity
  8
22202-001032_TA-
  6
Continuous
 62
     7
100
AcDbLine
 10
126.380991266
 20
157.5662758526
 30
0.0
 11
135.68014393
 21
157.5662758526
 31
0.0
  0
LINE
  5
376
330
2A6
100
AcDbEntity
  8
22202-001032_TA-
  6
Continuous
 62
     7
100
AcDbLine
 10
135.68014393
 20
169.5662758526
 30
0.0
 11
126.380991266
 21
169.5662758526
 31
0.0
  0
LINE
  5
377
330
2A6
100
AcDbEntity
  8
22202-001032_TA-
  6
Continuous
 62
     7
100
AcDbLine
 10
85.2548263827
 20
102.7662758526
 30
0.0
 11
85.3548263827
 21
102.7662758526
 31
0.0
  0
LINE
  5
378
330
2A6
100
AcDbEntity
  8
22202-001032_TA-
  6
Continuous
 62
     7
100
AcDbLine
 10
85.3548263827
 20
224.3662758526
 30
0.0
 11
85.2548263827
 21
224.3662758526
 31
0.0
  0
LINE
  5
379
330
2A6
100
AcDbEntity
  8
22202-001032_TA-
  6
Continuous
 62
     7
100
AcDbLine
 10
65.5552516497
 20
125.5662758526
 30
0.0
 11
70.6866271969
 21
125.5662758526
 31
0.0
  0
LINE
  5
37A
330
2A6
100
AcDbEntity
  8
22202-001032_TA-
  6
Continuous
 62
     7
100
AcDbLine
 10
70.6866271969
 20
201.5662758526
 30
0.0
 11
65.5552516497
 21
201.5662758526
 31
0.0
  0
LINE
  5
37B
330
2A6
100
AcDbEntity
  8
22202-001032_TA-
  6
Continuous
 62
     7
100
AcDbLine
 10
85.2548263827
 20
224.3662758526
 30
0.0
 11
84.8957845487
 21
217.5153495413
 31
0.0
  0
LINE
  5
37C
330
2A6
100
AcDbEntity
  8
22202-001032_TA-
  6
Continuous
 62
     7
100
AcDbLine
 10
84.8957845487
 20
109.6172021638
 30
0.0
 11
85.2548263827
 21
102.7662758526
 31
0.0
  0
LINE
  5
37D
330
2A6
100
AcDbEntity
  8
22202-001032_TA-
  6
Continuous
 62
     7
100
AcDbLine
 10
84.8957845487
 20
217.5153495413
 30
0.0
 11
79.3548263827
 21
214.3162758526
 31
0.0
  0
LINE
  5
37E
330
2A6
100
AcDbEntity
  8
22202-001032_TA-
  6
Continuous
 62
     7
100
AcDbLine
 10
79.3548263827
 20
112.8162758526
 30
0.0
 11
84.8957845487
 21
109.6172021638
 31
0.0
  0
LINE
  5
37F
330
2A6
100
AcDbEntity
  8
22202-001032_TA-
  6
Continuous
 62
     7
100
AcDbLine
 10
71.3548263827
 20
112.8162758526
 30
0.0
 11
79.3548263827
 21
112.8162758526
 31
0.0
  0
LINE
  5
380
330
2A6
100
AcDbEntity
  8
22202-001032_TA-
  6
Continuous
 62
     7
100
AcDbLine
 10
79.3548263827
 20
214.3162758526
 30
0.0
 11
71.3548263827
 21
214.3162758526
 31
0.0
  0
LINE
  5
381
330
2A6
100
AcDbEntity
  8
22202-001032_TA-
  6
Continuous
 62
     7
100
AcDbLine
 10
71.3548263827
 20
214.3162758526
 30
0.0
 11
70.6866271969
 21
201.5662758526
 31
0.0
  0
LINE
  5
382
330
2A6
100
AcDbEntity
  8
22202-001032_TA-
  6
Continuous
 62
     7
100
AcDbLine
 10
70.6866271969
 20
125.5662758526
 30
0.0
 11
71.3548263827
 21
112.8162758526
 31
0.0
  0
LINE
  5
383
330
2A6
100
AcDbEntity
  8
22202-001032_TA-
  6
Continuous
 62
     7
100
AcDbLine
 10
65.5552516497
 20
201.5662758526
 30
0.0
 11
63.768857846
 21
191.4351331512
 31
0.0
  0
LINE
  5
384
330
2A6
100
AcDbEntity
  8
22202-001032_TA-
  6
Continuous
 62
     7
100
AcDbLine
 10
63.8886578408
 20
135.0179990216
 30
0.0
 11
65.5552516497
 21
125.5662758526
 31
0.0
  0
LINE
  5
385
330
2A6
100
AcDbEntity
  8
22202-001032_TA-
  6
Continuous
 62
     7
100
AcDbLine
 10
43.9467610804
 20
191.4400804875
 30
0.0
 11
42.3548263827
 21
187.0662758526
 31
0.0
  0
LINE
  5
386
330
2A6
100
AcDbEntity
  8
22202-001032_TA-
  6
Continuous
 62
     7
100
AcDbLine
 10
42.3548263827
 20
140.0662758526
 30
0.0
 11
43.9467610804
 21
135.6924712176
 31
0.0
  0
LINE
  5
387
330
2A6
100
AcDbEntity
  8
22202-001032_TA-
  6
Continuous
 62
     7
100
AcDbLine
 10
122.0295088354
 20
176.3162758526
 30
0.0
 11
119.2599456924
 21
176.3162758526
 31
0.0
  0
LINE
  5
388
330
2A6
100
AcDbEntity
  8
22202-001032_TA-
  6
Continuous
 62
     7
100
AcDbLine
 10
119.2599456924
 20
150.8162758526
 30
0.0
 11
122.0295088354
 21
150.8162758526
 31
0.0
  0
LINE
  5
389
330
2A6
100
AcDbEntity
  8
22202-001032_TA-
  6
Continuous
 62
     7
100
AcDbLine
 10
143.38014393
 20
172.5662758526
 30
0.0
 11
135.68014393
 21
172.5662758526
 31
0.0
  0
LINE
  5
38A
330
2A6
100
AcDbEntity
  8
22202-001032_TA-
  6
Continuous
 62
     7
100
AcDbLine
 10
135.68014393
 20
154.5662758526
 30
0.0
 11
143.38014393
 21
154.5662758526
 31
0.0
  0
LINE
  5
38B
330
2A6
100
AcDbEntity
  8
22202-001032_TA-
  6
Continuous
 62
     7
100
AcDbLine
 10
156.8736442274
 20
197.0662758526
 30
0.0
 11
153.8798263827
 21
197.0662758526
 31
0.0
  0
LINE
  5
38C
330
2A6
100
AcDbEntity
  8
22202-001032_TA-
  6
Continuous
 62
     7
100
AcDbLine
 10
153.8798263827
 20
130.0662758526
 30
0.0
 11
156.8736442274
 21
130.0662758526
 31
0.0
  0
LINE
  5
38D
330
2A6
100
AcDbEntity
  8
22202-001032_TA-
  6
Continuous
 62
     7
100
AcDbLine
 10
152.670092994
 20
170.0662758526
 30
0.0
 11
148.7711085933
 21
170.0662758526
 31
0.0
  0
LINE
  5
38E
330
2A6
100
AcDbEntity
  8
22202-001032_TA-
  6
Continuous
 62
     7
100
AcDbLine
 10
148.7711085933
 20
157.0662758526
 30
0.0
 11
152.670092994
 21
157.0662758526
 31
0.0
  0
LINE
  5
38F
330
2A6
100
AcDbEntity
  8
22202-001032_TA-
  6
Continuous
 62
     7
100
AcDbLine
 10
140.9145736226
 20
173.5662758526
 30
0.0
 11
134.9121434986
 21
173.5662758526
 31
0.0
  0
LINE
  5
390
330
2A6
100
AcDbEntity
  8
22202-001032_TA-
  6
Continuous
 62
     7
100
AcDbLine
 10
139.6031771268
 20
132.5662758526
 30
0.0
 11
150.1661760393
 21
132.5662758526
 31
0.0
  0
LINE
  5
391
330
2A6
100
AcDbEntity
  8
22202-001032_TA-
  6
Continuous
 62
     7
100
AcDbLine
 10
150.1781716269
 20
194.5662758526
 30
0.0
 11
139.6031771268
 21
194.5662758526
 31
0.0
  0
LINE
  5
392
330
2A6
100
AcDbEntity
  8
22202-001032_TA-
  6
Continuous
 62
     7
100
AcDbLine
 10
116.1548263827
 20
227.5662758526
 30
0.0
 11
95.6548263827
 21
227.5662758526
 31
0.0
  0
LINE
  5
393
330
2A6
100
AcDbEntity
  8
22202-001032_TA-
  6
Continuous
 62
     7
100
AcDbLine
 10
95.6548263827
 20
99.5662758526
 30
0.0
 11
116.1548263827
 21
99.5662758526
 31
0.0
  0
LINE
  5
394
330
2A6
100
AcDbEntity
  8
22202-001032_TA-
  6
Continuous
 62
     7
100
AcDbLine
 10
116.1548263827
 20
99.5662758526
 30
0.0
 11
133.6548263827
 21
109.6699055634
 31
0.0
  0
LINE
  5
395
330
2A6
100
AcDbEntity
  8
22202-001032_TA-
  6
Continuous
 62
     7
100
AcDbLine
 10
133.6548263827
 20
217.4626461417
 30
0.0
 11
116.1548263827
 21
227.5662758526
 31
0.0
  0
LINE
  5
396
330
2A6
100
AcDbEntity
  8
22202-001032_TA-
  6
Continuous
 62
     7
100
AcDbLine
 10
133.6548263827
 20
109.6699055634
 30
0.0
 11
135.2730501079
 21
125.0662758526
 31
0.0
  0
LINE
  5
397
330
2A6
100
AcDbEntity
  8
22202-001032_TA-
  6
Continuous
 62
     7
100
AcDbLine
 10
135.2730501079
 20
202.0662758526
 30
0.0
 11
133.6548263827
 21
217.4626461417
 31
0.0
  0
LINE
  5
398
330
2A6
100
AcDbEntity
  8
22202-001032_TA-
  6
Continuous
 62
     7
100
AcDbLine
 10
135.2730501079
 20
125.0662758526
 30
0.0
 11
139.6031771268
 21
132.5662758526
 31
0.0
  0
LINE
  5
399
330
2A6
100
AcDbEntity
  8
22202-001032_TA-
  6
Continuous
 62
     7
100
AcDbLine
 10
139.6031771268
 20
194.5662758526
 30
0.0
 11
135.2730501079
 21
202.0662758526
 31
0.0
  0
LINE
  5
39A
330
2A6
100
AcDbEntity
  8
22202-001032_TA-
  6
Continuous
 62
     7
100
AcDbLine
 10
94.6548263827
 20
228.5662758526
 30
0.0
 11
85.3548263827
 21
228.5662758526
 31
0.0
  0
LINE
  5
39B
330
2A6
100
AcDbEntity
  8
22202-001032_TA-
  6
Continuous
 62
     7
100
AcDbLine
 10
85.3548263827
 20
98.5662758526
 30
0.0
 11
94.6548263827
 21
98.5662758526
 31
0.0
  0
LINE
  5
39C
330
2A6
100
AcDbEntity
  8
22202-001032_TA-
  6
Continuous
 62
     7
100
AcDbLine
 10
94.6548263827
 20
98.5662758526
 30
0.0
 11
95.6548263827
 21
99.5662758526
 31
0.0
  0
LINE
  5
39D
330
2A6
100
AcDbEntity
  8
22202-001032_TA-
  6
Continuous
 62
     7
100
AcDbLine
 10
95.6548263827
 20
227.5662758526
 30
0.0
 11
94.6548263827
 21
228.5662758526
 31
0.0
  0
LINE
  5
39E
330
2A6
100
AcDbEntity
  8
22202-001032_TA-
  6
Continuous
 62
     7
100
AcDbLine
 10
134.9120472807
 20
153.5662758526
 30
0.0
 11
140.9203448341
 21
153.5662758526
 31
0.0
  0
ENDBLK
  5
3A0
330
2A6
100
AcDbEntity
  8
0
100
AcDbBlockEnd
  0
BLOCK
  5
445
330
3A1
100
AcDbEntity
  8
0
100
AcDbBlockBegin
  2
SE3
 70
     0
 10
0.0
 20
0.0
 30
0.0
  3
SE3
  1

  0
ELLIPSE
  5
3A3
330
3A1
100
AcDbEntity
  8
22202-001032_TA-
  6
Continuous
 62
     7
100
AcDbEllipse
 10
436.4856385288
 20
163.5662758526
 30
0.0
 11
-3.459488033903071E-12
 21
64.00000000000011
 31
0.0
210
0.0
220
0.0
230
1.0
 40
0.5
 41
2.625254774251516
 42
3.167772592369705
  0
ELLIPSE
  5
3A4
330
3A1
100
AcDbEntity
  8
22202-001032_TA-
  6
Continuous
 62
     7
100
AcDbEllipse
 10
458.6749611915
 20
163.5662758526
 30
0.0
 11
4.236123676251043E-12
 21
-55.50000000000522
 31
0.0
210
0.0
220
0.0
230
1.0
 40
0.5
 41
0.1281554891964963
 42
0.4487026553548933
  0
LINE
  5
3A5
330
3A1
100
AcDbEntity
  8
22202-001032_TA-
  6
Continuous
 62
     7
100
AcDbLine
 10
437.3233008746
 20
99.5882070541
 30
0.0
 11
437.2862842055
 21
102.4154261813
 31
0.0
  0
ELLIPSE
  5
3A6
330
3A1
100
AcDbEntity
  8
22202-001032_TA-
  6
Continuous
 62
     7
100
AcDbEllipse
 10
430.1947792004
 20
199.3277404954
 30
0.0
 11
5.230016754306655
 21
-99.86314097181722
 31
0.0
210
0.0
220
0.0
230
1.0
 40
0.8657286385
 41
0.0219759909322072
 42
0.296316482268251
  0
ELLIPSE
  5
3A7
330
3A1
100
AcDbEntity
  8
22202-001032_TA-
  6
Continuous
 62
     7
100
AcDbEllipse
 10
385.469104953
 20
131.0774127911
 30
0.0
 11
4.70701507985146
 21
-89.87682687515162
 31
0.0
210
0.0
220
0.0
230
1.0
 40
0.8657286385
 41
1.233031717233355
 42
1.26893105081499
  0
ELLIPSE
  5
3A8
330
3A1
100
AcDbEntity
  8
22202-001032_TA-
  6
Continuous
 62
     7
100
AcDbEllipse
 10
420.5317726274
 20
193.0483381745
 30
0.0
 11
80.86469172671535
 21
-58.8294282815186
 31
0.0
210
0.0
220
0.0
230
1.0
 40
0.7137142153
 41
5.574640115489192
 42
5.848980606825391
  0
LINE
  5
3A9
330
3A1
100
AcDbEntity
  8
22202-001032_TA-
  6
Continuous
 62
     7
100
AcDbLine
 10
454.6106381104
 20
110.8221997807
 30
0.0
 11
453.8096863708
 21
113.1529838059
 31
0.0
  0
ELLIPSE
  5
3AA
330
3A1
100
AcDbEntity
  8
22202-001032_TA-
  6
Continuous
 62
     7
100
AcDbEllipse
 10
436.4856385288
 20
163.5662758526
 30
0.0
 11
4.486271155095322E-12
 21
-61.17181172335611
 31
0.0
210
0.0
220
0.0
230
1.0
 40
0.5
 41
0.0261799387798818
 42
0.6021385919380007
  0
ELLIPSE
  5
3AB
330
3A1
100
AcDbEntity
  8
22202-001032_TA-
  6
Continuous
 62
     7
100
AcDbEllipse
 10
436.4856385288
 20
163.5662758526
 30
0.0
 11
4.208888575525052E-12
 21
-64.00000000000138
 31
0.0
210
0.0
220
0.0
230
1.0
 40
0.5
 41
0.6021385919380288
 42
1.282817000215806
  0
ELLIPSE
  5
3AC
330
3A1
100
AcDbEntity
  8
22202-001032_TA-
  6
Continuous
 62
     7
100
AcDbEllipse
 10
459.6764878136
 20
163.5662758526
 30
0.0
 11
3.389759097302748E-12
 21
-58.44741844769219
 31
0.0
210
0.0
220
0.0
230
1.0
 40
0.5
 41
0.6021385919380332
 42
1.282817000215815
  0
ELLIPSE
  5
3AD
330
3A1
100
AcDbEntity
  8
22202-001032_TA-
  6
Continuous
 62
     7
100
AcDbEllipse
 10
458.6749611915
 20
163.5662758526
 30
0.0
 11
-2.903856046700856E-12
 21
55.50000000000168
 31
0.0
210
0.0
220
0.0
230
1.0
 40
0.5
 41
4.424409653805627
 42
5.000368306963738
  0
LINE
  5
3AE
330
3A1
100
AcDbEntity
  8
22202-001032_TA-
  6
Continuous
 62
     7
100
AcDbLine
 10
465.8120086778
 20
146.1925426598
 30
0.0
 11
485.2822088341
 21
147.8034242215
 31
0.0
  0
LINE
  5
3AF
330
3A1
100
AcDbEntity
  8
22202-001032_TA-
  6
Continuous
 62
     7
100
AcDbLine
 10
467.1678700446
 20
145.3892937915
 30
0.0
 11
465.8120086778
 21
146.1925426598
 31
0.0
  0
ELLIPSE
  5
3B0
330
3A1
100
AcDbEntity
  8
22202-001032_TA-
  6
Continuous
 62
     7
100
AcDbEllipse
 10
413.5127266596
 20
173.7265622366
 30
0.0
 11
98.92093984877809
 21
-14.65085865876814
 31
0.0
210
0.0
220
0.0
230
1.0
 40
0.2459645036
 41
-0.9615150006468962
 42
-0.687174509310843
  0
ELLIPSE
  5
3B1
330
3A1
100
AcDbEntity
  8
22202-001032_TA-
  6
Continuous
 62
     7
100
AcDbEllipse
 10
400.6245502346
 20
154.3357771497
 30
0.0
 11
89.02884586489029
 21
-13.18577279294586
 31
0.0
210
0.0
220
0.0
230
1.0
 40
0.2459645036
 41
0.2495407256626343
 42
0.3452434624336023
  0
ELLIPSE
  5
3B2
330
3A1
100
AcDbEntity
  8
22202-001032_TA-
  6
Continuous
 62
     7
100
AcDbEllipse
 10
400.6245502363
 20
172.7967745555
 30
0.0
 11
89.02884586315199
 21
13.18577279284993
 31
0.0
210
0.0
220
0.0
230
1.0
 40
0.2459645036
 41
-0.3452434624372964
 42
-0.2495407256653497
  0
ELLIPSE
  5
3B3
330
3A1
100
AcDbEntity
  8
22202-001032_TA-
  6
Continuous
 62
     7
100
AcDbEllipse
 10
413.5127266596
 20
153.4059894685
 30
0.0
 11
98.92093984874303
 21
14.65085865876662
 31
0.0
210
0.0
220
0.0
230
1.0
 40
0.2459645036
 41
0.6871745093109474
 42
0.9615150006470644
  0
LINE
  5
3B4
330
3A1
100
AcDbEntity
  8
22202-001032_TA-
  6
Continuous
 62
     7
100
AcDbLine
 10
467.1678700445
 20
181.7432579136
 30
0.0
 11
465.8120086778
 21
180.9400090453
 31
0.0
  0
LINE
  5
3B5
330
3A1
100
AcDbEntity
  8
22202-001032_TA-
  6
Continuous
 62
     7
100
AcDbLine
 10
465.8120086778
 20
180.9400090453
 30
0.0
 11
485.2822088341
 21
179.3291274836
 31
0.0
  0
ELLIPSE
  5
3B6
330
3A1
100
AcDbEntity
  8
22202-001032_TA-
  6
Continuous
 62
     7
100
AcDbEllipse
 10
436.4856385288
 20
163.5662758526
 30
0.0
 11
3.389925918277980E-12
 21
-61.17181172335153
 31
0.0
210
0.0
220
0.0
230
1.0
 40
0.5
 41
1.282817000215828
 42
1.457758705892055
  0
ELLIPSE
  5
3B7
330
3A1
100
AcDbEntity
  8
22202-001032_TA-
  6
Continuous
 62
     7
100
AcDbEllipse
 10
436.4856385288
 20
163.5662758526
 30
0.0
 11
3.389925918277980E-12
 21
-61.17181172335153
 31
0.0
210
0.0
220
0.0
230
1.0
 40
0.5
 41
1.683833947697542
 42
1.858775653373951
  0
ELLIPSE
  5
3B8
330
3A1
100
AcDbEntity
  8
22202-001032_TA-
  6
Continuous
 62
     7
100
AcDbEllipse
 10
436.4856385288
 20
163.5662758526
 30
0.0
 11
-4.056232909639093E-12
 21
63.99999999999888
 31
0.0
210
0.0
220
0.0
230
1.0
 40
0.5
 41
5.00036830696373
 42
5.681046715241526
  0
ELLIPSE
  5
3B9
330
3A1
100
AcDbEntity
  8
22202-001032_TA-
  6
Continuous
 62
     7
100
AcDbEllipse
 10
459.6764878136
 20
163.5662758526
 30
0.0
 11
-3.528536975380892E-12
 21
58.44741844769079
 31
0.0
210
0.0
220
0.0
230
1.0
 40
0.5
 41
5.000368306963733
 42
5.68104671524153
  0
ELLIPSE
  5
3BA
330
3A1
100
AcDbEntity
  8
22202-001032_TA-
  6
Continuous
 62
     7
100
AcDbEllipse
 10
458.6749611915
 20
163.5662758526
 30
0.0
 11
-3.236922954088402E-12
 21
55.4999999999991
 31
0.0
210
0.0
220
0.0
230
1.0
 40
0.5
 41
5.834482651824624
 42
6.155029817983064
  0
LINE
  5
3BB
330
3A1
100
AcDbEntity
  8
22202-001032_TA-
  6
Continuous
 62
     7
100
AcDbLine
 10
454.6106381104
 20
216.3103519244
 30
0.0
 11
453.8096863708
 21
213.9795678992
 31
0.0
  0
ELLIPSE
  5
3BC
330
3A1
100
AcDbEntity
  8
22202-001032_TA-
  6
Continuous
 62
     7
100
AcDbEllipse
 10
420.5317726274
 20
134.0842135305
 30
0.0
 11
80.86469172674313
 21
58.82942828164177
 31
0.0
210
0.0
220
0.0
230
1.0
 40
0.7137142153
 41
0.434204700353499
 42
0.7085451916895465
  0
ELLIPSE
  5
3BD
330
3A1
100
AcDbEntity
  8
22202-001032_TA-
  6
Continuous
 62
     7
100
AcDbEllipse
 10
385.4691049546
 20
196.0551389144
 30
0.0
 11
4.707015078256815
 21
89.87682687422731
 31
0.0
210
0.0
220
0.0
230
1.0
 40
0.8657286385
 41
-1.268931050831759
 42
-1.233031717249734
  0
ELLIPSE
  5
3BE
330
3A1
100
AcDbEntity
  8
22202-001032_TA-
  6
Continuous
 62
     7
100
AcDbEllipse
 10
430.1947792004
 20
127.8048112098
 30
0.0
 11
5.230016754217701
 21
99.86314097169954
 31
0.0
210
0.0
220
0.0
230
1.0
 40
0.8657286385
 41
5.98686882491053
 42
6.261209316246747
  0
LINE
  5
3BF
330
3A1
100
AcDbEntity
  8
22202-001032_TA-
  6
Continuous
 62
     7
100
AcDbLine
 10
437.3233008746
 20
227.544344651
 30
0.0
 11
437.2862842055
 21
224.7171255238
 31
0.0
  0
ELLIPSE
  5
3C0
330
3A1
100
AcDbEntity
  8
22202-001032_TA-
  6
Continuous
 62
     7
100
AcDbEllipse
 10
436.4856385288
 20
163.5662758526
 30
0.0
 11
-2.376847408307525E-12
 21
61.17181172335565
 31
0.0
210
0.0
220
0.0
230
1.0
 40
0.5
 41
5.681046715241564
 42
6.257005368399667
  0
ELLIPSE
  5
3C1
330
3A1
100
AcDbEntity
  8
22202-001032_TA-
  6
Continuous
 62
     7
100
AcDbEllipse
 10
436.4856385288
 20
163.5662758526
 30
0.0
 11
3.098665550899895E-12
 21
-63.99999999999789
 31
0.0
210
0.0
220
0.0
230
1.0
 40
0.5
 41
3.115412714809852
 42
3.657930532928505
  0
ELLIPSE
  5
3C2
330
3A1
100
AcDbEntity
  8
22202-001032_TA-
  6
Continuous
 62
     7
100
AcDbEllipse
 10
403.4034681042
 20
163.5662758526
 30
0.0
 11
-4.214054775804364E-15
 21
-44.50000000000006
 31
0.0
210
0.0
220
0.0
230
1.0
 40
0.5
 41
1.861385611552407
 42
2.600967946418108
  0
ELLIPSE
  5
3C3
330
3A1
100
AcDbEntity
  8
22202-001032_TA-
  6
Continuous
 62
     7
100
AcDbEllipse
 10
403.4034681042
 20
163.5662758526
 30
0.0
 11
1.831360806296908E-13
 21
-44.50000000000055
 31
0.0
210
0.0
220
0.0
230
1.0
 40
0.5
 41
1.108284075016397
 42
1.280207042037377
  0
ELLIPSE
  5
3C4
330
3A1
100
AcDbEntity
  8
22202-001032_TA-
  6
Continuous
 62
     7
100
AcDbEllipse
 10
403.4034681042
 20
163.5662758526
 30
0.0
 11
-4.373258859693523E-15
 21
-41.90000000000001
 31
0.0
210
0.0
220
0.0
230
1.0
 40
0.5
 41
1.879995561157104
 42
2.65823951029846
  0
ELLIPSE
  5
3C5
330
3A1
100
AcDbEntity
  8
22202-001032_TA-
  6
Continuous
 62
     7
100
AcDbEllipse
 10
403.4034681042
 20
163.5662758526
 30
0.0
 11
-4.373258859693523E-15
 21
-41.90000000000001
 31
0.0
210
0.0
220
0.0
230
1.0
 40
0.5
 41
0.4833531432913336
 42
1.261597092432688
  0
LINE
  5
3C6
330
3A1
100
AcDbEntity
  8
22202-001032_TA-
  6
Continuous
 62
     7
100
AcDbLine
 10
434.2120619251
 20
140.6171974462
 30
0.0
 11
453.7672439982
 21
137.9570783976
 31
0.0
  0
ELLIPSE
  5
3C7
330
3A1
100
AcDbEntity
  8
22202-001032_TA-
  6
Continuous
 62
     7
100
AcDbEllipse
 10
428.0851921121
 20
163.5662758526
 30
0.0
 11
-1.036340239729681E-14
 21
-57.39426931854143
 31
0.0
210
0.0
220
0.0
230
1.0
 40
0.5
 41
1.108284075016404
 42
1.444138723347021
  0
ELLIPSE
  5
3C8
330
3A1
100
AcDbEntity
  8
22202-001032_TA-
  6
Continuous
 62
     7
100
AcDbEllipse
 10
428.0851921121
 20
163.5662758526
 30
0.0
 11
-1.036340239729681E-14
 21
-57.39426931854143
 31
0.0
210
0.0
220
0.0
230
1.0
 40
0.5
 41
1.69745393024277
 42
3.319036048454453
  0
ELLIPSE
  5
3C9
330
3A1
100
AcDbEntity
  8
22202-001032_TA-
  6
Continuous
 62
     7
100
AcDbEllipse
 10
428.0851921121
 20
163.5662758526
 30
0.0
 11
-1.036340239729681E-14
 21
-57.39426931854143
 31
0.0
210
0.0
220
0.0
230
1.0
 40
0.5
 41
-0.1774433948646577
 42
0.4492942170543923
  0
ELLIPSE
  5
3CA
330
3A1
100
AcDbEntity
  8
22202-001032_TA-
  6
Continuous
 62
     7
100
AcDbEllipse
 10
411.1976967383
 20
163.5662758526
 30
0.0
 11
2.396601532430108E-14
 21
-51.43252103009743
 31
0.0
210
0.0
220
0.0
230
1.0
 40
0.5
 41
1.108284075016404
 42
1.301260408419618
  0
ELLIPSE
  5
3CB
330
3A1
100
AcDbEntity
  8
22202-001032_TA-
  6
Continuous
 62
     7
100
AcDbEllipse
 10
411.1976967383
 20
163.5662758526
 30
0.0
 11
2.396601532430108E-14
 21
-51.43252103009743
 31
0.0
210
0.0
220
0.0
230
1.0
 40
0.5
 41
1.839780245592043
 42
3.378162721856675
  0
ELLIPSE
  5
3CC
330
3A1
100
AcDbEntity
  8
22202-001032_TA-
  6
Continuous
 62
     7
100
AcDbEllipse
 10
411.1976967383
 20
163.5662758526
 30
0.0
 11
2.396601532430108E-14
 21
-51.43252103009743
 31
0.0
210
0.0
220
0.0
230
1.0
 40
0.5
 41
-0.2365700682668874
 42
0.4477453618793108
  0
ELLIPSE
  5
3CD
330
3A1
100
AcDbEntity
  8
22202-001032_TA-
  6
Continuous
 62
     7
100
AcDbEllipse
 10
411.1976967383
 20
163.5662758526
 30
0.0
 11
1.669979915855489E-14
 21
-46.08694282637618
 31
0.0
210
0.0
220
0.0
230
1.0
 40
0.5
 41
1.867036624142077
 42
2.982209247016517
  0
ELLIPSE
  5
3CE
330
3A1
100
AcDbEntity
  8
22202-001032_TA-
  6
Continuous
 62
     7
100
AcDbEllipse
 10
411.1976967383
 20
163.5662758526
 30
0.0
 11
1.669979915855489E-14
 21
-46.08694282637618
 31
0.0
210
0.0
220
0.0
230
1.0
 40
0.5
 41
1.102380209059181
 42
1.269068763101099
  0
ELLIPSE
  5
3CF
330
3A1
100
AcDbEntity
  8
22202-001032_TA-
  6
Continuous
 62
     7
100
AcDbEllipse
 10
411.1976967383
 20
163.5662758526
 30
0.0
 11
1.669979915855489E-14
 21
-46.08694282637618
 31
0.0
210
0.0
220
0.0
230
1.0
 40
0.5
 41
0.1593834065732677
 42
0.2434049009047793
  0
ELLIPSE
  5
3D0
330
3A1
100
AcDbEntity
  8
22202-001032_TA-
  6
Continuous
 62
     7
100
AcDbEllipse
 10
428.0851921121
 20
163.5662758526
 30
0.0
 11
-1.074759019754361E-13
 21
-57.91711519678474
 31
0.0
210
0.0
220
0.0
230
1.0
 40
0.5
 41
0.4625122517785042
 42
1.108284075016408
  0
LINE
  5
3D1
330
3A1
100
AcDbEntity
  8
22202-001032_TA-
  6
Continuous
 62
     7
100
AcDbLine
 10
434.2120619251
 20
140.6171974462
 30
0.0
 11
432.5710302093
 21
142.2535739097
 31
0.0
  0
ELLIPSE
  5
3D2
330
3A1
100
AcDbEntity
  8
22202-001032_TA-
  6
Continuous
 62
     7
100
AcDbEllipse
 10
430.8389794017
 20
142.2535739097
 30
0.0
 11
1.94060839654725
 21
-0.4837758274762112
 31
0.0
210
0.0
220
0.0
230
1.0
 40
0.3864186413
 41
0.5729450462283401
 42
1.969208447823838
  0
LINE
  5
3D3
330
3A1
100
AcDbEntity
  8
22202-001032_TA-
  6
Continuous
 62
     7
100
AcDbLine
 10
430.2584085703
 20
143.1324120411
 30
0.0
 11
423.3157576499
 21
143.7104731692
 31
0.0
  0
LINE
  5
3D4
330
3A1
100
AcDbEntity
  8
22202-001032_TA-
  6
Continuous
 62
     7
100
AcDbLine
 10
423.3157576499
 20
143.7104731692
 30
0.0
 11
425.4205496471
 21
141.6116520119
 31
0.0
  0
LINE
  5
3D5
330
3A1
100
AcDbEntity
  8
22202-001032_TA-
  6
Continuous
 62
     7
100
AcDbLine
 10
425.4205496471
 20
141.6116520119
 30
0.0
 11
454.0012003693
 21
137.7237857101
 31
0.0
  0
LINE
  5
3D6
330
3A1
100
AcDbEntity
  8
22202-001032_TA-
  6
Continuous
 62
     7
100
AcDbLine
 10
454.0012003693
 20
137.7237857101
 30
0.0
 11
453.7672439982
 21
137.9570783976
 31
0.0
  0
ELLIPSE
  5
3D7
330
3A1
100
AcDbEntity
  8
22202-001032_TA-
  6
Continuous
 62
     7
100
AcDbEllipse
 10
403.4034681042
 20
163.5662758526
 30
0.0
 11
6.344522084994969E-13
 21
-49.20379077521437
 31
0.0
210
0.0
220
0.0
230
1.0
 40
0.5
 41
0.4841656301452822
 42
1.108284075016385
  0
LINE
  5
3D8
330
3A1
100
AcDbEntity
  8
22202-001032_TA-
  6
Continuous
 62
     7
100
AcDbLine
 10
414.8549136085
 20
119.3932533136
 30
0.0
 11
441.0064371833
 21
111.7342593381
 31
0.0
  0
ELLIPSE
  5
3D9
330
3A1
100
AcDbEntity
  8
22202-001032_TA-
  6
Continuous
 62
     7
100
AcDbEllipse
 10
472.2524877051
 20
163.5662758526
 30
0.0
 11
-5.747058610989359E-14
 21
31.99999999999999
 31
0.0
210
0.0
220
0.0
230
1.0
 40
0.5
 41
4.221906006627846
 42
5.202871954141937
  0
ELLIPSE
  5
3DA
330
3A1
100
AcDbEntity
  8
22202-001032_TA-
  6
Continuous
 62
     7
100
AcDbEllipse
 10
499.012672682
 20
163.5662758526
 30
0.0
 11
-2.836789901520260E-14
 21
10.00000000000005
 31
0.0
210
0.0
220
0.0
230
1.0
 40
0.5
 41
3.141592653589793
 42
6.283185307179586
  0
ELLIPSE
  5
3DB
330
3A1
100
AcDbEntity
  8
22202-001032_TA-
  6
Continuous
 62
     7
100
AcDbEllipse
 10
522.3087560438
 20
163.5662758526
 30
0.0
 11
2.449293598294700E-16
 21
-3.99999999999999
 31
0.0
210
0.0
220
0.0
230
1.0
 40
0.5
 41
0.0
 42
3.141592653589793
  0
ELLIPSE
  5
3DC
330
3A1
100
AcDbEntity
  8
22202-001032_TA-
  6
Continuous
 62
     7
100
AcDbEllipse
 10
522.3087560438
 20
163.5662758526
 30
0.0
 11
-2.724839128102861E-16
 21
4.45
 31
0.0
210
0.0
220
0.0
230
1.0
 40
0.5
 41
0.0
 42
0.4535976961077718
  0
ELLIPSE
  5
3DD
330
3A1
100
AcDbEntity
  8
22202-001032_TA-
  6
Continuous
 62
     7
100
AcDbEllipse
 10
522.3087560438
 20
163.5662758526
 30
0.0
 11
-2.724839128102861E-16
 21
4.45
 31
0.0
210
0.0
220
0.0
230
1.0
 40
0.5
 41
2.687994957482007
 42
6.283185307179586
  0
ELLIPSE
  5
3DE
330
3A1
100
AcDbEntity
  8
22202-001032_TA-
  6
Continuous
 62
     7
100
AcDbEllipse
 10
527.6564629122
 20
163.5662758526
 30
0.0
 11
-2.724839128102861E-16
 21
4.45
 31
0.0
210
0.0
220
0.0
230
1.0
 40
0.5
 41
3.141592653589793
 42
6.283185307179586
  0
ELLIPSE
  5
3DF
330
3A1
100
AcDbEntity
  8
22202-001032_TA-
  6
Continuous
 62
     7
100
AcDbEllipse
 10
540.668494604
 20
163.5662758526
 30
0.0
 11
-2.097207643539842E-16
 21
3.425
 31
0.0
210
0.0
220
0.0
230
1.0
 40
0.5
 41
3.141592653589793
 42
6.283185307179586
  0
ELLIPSE
  5
3E0
330
3A1
100
AcDbEntity
  8
22202-001032_TA-
  6
Continuous
 62
     7
100
AcDbEllipse
 10
435.0999978827
 20
163.5662758526
 30
0.0
 11
1.051000911015923E-14
 21
55.00000000000001
 31
0.0
210
0.0
220
0.0
230
1.0
 40
0.5
 41
4.844260285976026
 42
6.236337257127026
  0
ELLIPSE
  5
3E1
330
3A1
100
AcDbEntity
  8
22202-001032_TA-
  6
Continuous
 62
     7
100
AcDbEllipse
 10
435.0999978827
 20
163.5662758526
 30
0.0
 11
1.051000911015923E-14
 21
55.00000000000001
 31
0.0
210
0.0
220
0.0
230
1.0
 40
0.5
 41
3.18844070364237
 42
4.580517674793354
  0
ELLIPSE
  5
3E2
330
3A1
100
AcDbEntity
  8
22202-001032_TA-
  6
Continuous
 62
     7
100
AcDbEllipse
 10
402.0611287283
 20
163.5662758526
 30
0.0
 11
2.338231675593539E-14
 21
-41.89999999999994
 31
0.0
210
0.0
220
0.0
230
1.0
 40
0.5
 41
1.879995561157105
 42
2.658239510298461
  0
ELLIPSE
  5
3E3
330
3A1
100
AcDbEntity
  8
22202-001032_TA-
  6
Continuous
 62
     7
100
AcDbEllipse
 10
402.0611287283
 20
163.5662758526
 30
0.0
 11
1.825104666750798E-14
 21
41.89999999999998
 31
0.0
210
0.0
220
0.0
230
1.0
 40
0.5
 41
3.624945796881125
 42
4.403189746022482
  0
ELLIPSE
  5
3E4
330
3A1
100
AcDbEntity
  8
22202-001032_TA-
  6
Continuous
 62
     7
100
AcDbEllipse
 10
433.959547765
 20
163.5662758526
 30
0.0
 11
-5.577982829812029E-12
 21
-14.50000000001763
 31
0.0
210
0.0
220
0.0
230
1.0
 40
0.5
 41
5.648465565356778
 42
5.948545272230128
  0
LINE
  5
3E5
330
3A1
100
AcDbEntity
  8
22202-001032_TA-
  6
Continuous
 62
     7
100
AcDbLine
 10
429.6606467573
 20
151.8903261909
 30
0.0
 11
426.8385951999
 21
160.8426499131
 31
0.0
  0
ELLIPSE
  5
3E6
330
3A1
100
AcDbEntity
  8
22202-001032_TA-
  6
Continuous
 62
     7
100
AcDbEllipse
 10
433.959547765
 20
163.5662758526
 30
0.0
 11
-9.625664572531954E-14
 21
-14.49999999999718
 31
0.0
210
0.0
220
0.0
230
1.0
 40
0.5
 41
4.601268014166137
 42
4.901347721036505
  0
LINE
  5
3E7
330
3A1
100
AcDbEntity
  8
22202-001032_TA-
  6
Continuous
 62
     7
100
AcDbLine
 10
426.754262751
 20
165.1742159837
 30
0.0
 11
429.2197068555
 21
174.538314524
 31
0.0
  0
ELLIPSE
  5
3E8
330
3A1
100
AcDbEntity
  8
22202-001032_TA-
  6
Continuous
 62
     7
100
AcDbEllipse
 10
433.959547765
 20
163.5662758525
 30
0.0
 11
-2.512767462143799E-12
 21
14.50000000000692
 31
0.0
210
0.0
220
0.0
230
1.0
 40
0.5
 41
0.4124778093763733
 42
0.712557516243269
  0
LINE
  5
3E9
330
3A1
100
AcDbEntity
  8
22202-001032_TA-
  6
Continuous
 62
     7
100
AcDbLine
 10
431.0531637587
 20
176.8501656455
 30
0.0
 11
436.3406594206
 21
177.2619404634
 31
0.0
  0
ELLIPSE
  5
3EA
330
3A1
100
AcDbEntity
  8
22202-001032_TA-
  6
Continuous
 62
     7
100
AcDbEllipse
 10
441.7537763991
 20
163.5662758526
 30
0.0
 11
-6.123233995736765E-16
 21
9.999999999999998
 31
0.0
210
0.0
220
0.0
230
1.0
 40
0.5
 41
0.0
 42
3.141592653589793
  0
LINE
  5
3EB
330
3A1
100
AcDbEntity
  8
22202-001032_TA-
  6
Continuous
 62
     7
100
AcDbLine
 10
446.5809889938
 20
173.5662758526
 30
0.0
 11
446.0526774068
 21
175.2422255143
 31
0.0
  0
LINE
  5
3EC
330
3A1
100
AcDbEntity
  8
22202-001032_TA-
  6
Continuous
 62
     7
100
AcDbLine
 10
444.1348880547
 20
177.2619404634
 30
0.0
 11
438.8473923928
 21
176.8501656455
 31
0.0
  0
LINE
  5
3ED
330
3A1
100
AcDbEntity
  8
22202-001032_TA-
  6
Continuous
 62
     7
100
AcDbLine
 10
437.0139354895
 20
174.538314524
 30
0.0
 11
434.548491385
 21
165.1742159837
 31
0.0
  0
LINE
  5
3EE
330
3A1
100
AcDbEntity
  8
22202-001032_TA-
  6
Continuous
 62
     7
100
AcDbLine
 10
434.6328238339
 20
160.8426499131
 30
0.0
 11
437.4548753913
 21
151.8903261909
 31
0.0
  0
LINE
  5
3EF
330
3A1
100
AcDbEntity
  8
22202-001032_TA-
  6
Continuous
 62
     7
100
AcDbLine
 10
439.3726647435
 20
149.8706112417
 30
0.0
 11
444.6601604054
 21
150.2823860596
 31
0.0
  0
LINE
  5
3F0
330
3A1
100
AcDbEntity
  8
22202-001032_TA-
  6
Continuous
 62
     7
100
AcDbLine
 10
446.4936173087
 20
152.5942371811
 30
0.0
 11
446.7495423186
 21
153.5662758526
 31
0.0
  0
ELLIPSE
  5
3F1
330
3A1
100
AcDbEntity
  8
22202-001032_TA-
  6
Continuous
 62
     7
100
AcDbEllipse
 10
441.7537763991
 20
163.5662758526
 30
0.0
 11
-1.097233105746724E-12
 21
14.49999999999685
 31
0.0
210
0.0
220
0.0
230
1.0
 40
0.5
 41
5.64846556535899
 42
5.948545272229687
  0
LINE
  5
3F2
330
3A1
100
AcDbEntity
  8
22202-001032_TA-
  6
Continuous
 62
     7
100
AcDbLine
 10
436.3406594206
 20
177.2619404634
 30
0.0
 11
444.1348880547
 21
177.2619404634
 31
0.0
  0
ELLIPSE
  5
3F3
330
3A1
100
AcDbEntity
  8
22202-001032_TA-
  6
Continuous
 62
     7
100
AcDbEllipse
 10
441.7537763991
 20
163.5662758526
 30
0.0
 11
-4.015679774972375E-13
 21
-14.49999999999891
 31
0.0
210
0.0
220
0.0
230
1.0
 40
0.5
 41
0.4124778093765706
 42
0.7125575162457942
  0
LINE
  5
3F4
330
3A1
100
AcDbEntity
  8
22202-001032_TA-
  6
Continuous
 62
     7
100
AcDbLine
 10
431.5784361094
 20
149.8706112417
 30
0.0
 11
439.3726647435
 21
149.8706112417
 31
0.0
  0
ELLIPSE
  5
3F5
330
3A1
100
AcDbEntity
  8
22202-001032_TA-
  6
Continuous
 62
     7
100
AcDbEllipse
 10
441.7537763991
 20
163.5662758526
 30
0.0
 11
-7.659651000984198E-12
 21
-14.50000000002539
 31
0.0
210
0.0
220
0.0
230
1.0
 40
0.5
 41
5.648465565357025
 42
5.948545272230289
  0
LINE
  5
3F6
330
3A1
100
AcDbEntity
  8
22202-001032_TA-
  6
Continuous
 62
     7
100
AcDbLine
 10
437.4548753913
 20
151.8903261909
 30
0.0
 11
429.6606467573
 21
151.8903261909
 31
0.0
  0
LINE
  5
3F7
330
3A1
100
AcDbEntity
  8
22202-001032_TA-
  6
Continuous
 62
     7
100
AcDbLine
 10
426.8385951999
 20
160.8426499131
 30
0.0
 11
434.6328238339
 21
160.8426499131
 31
0.0
  0
ELLIPSE
  5
3F8
330
3A1
100
AcDbEntity
  8
22202-001032_TA-
  6
Continuous
 62
     7
100
AcDbEllipse
 10
441.7537763991
 20
163.5662758526
 30
0.0
 11
4.866104422028876E-13
 21
-14.49999999999682
 31
0.0
210
0.0
220
0.0
230
1.0
 40
0.5
 41
4.601268014166114
 42
4.90134772103649
  0
LINE
  5
3F9
330
3A1
100
AcDbEntity
  8
22202-001032_TA-
  6
Continuous
 62
     7
100
AcDbLine
 10
434.548491385
 20
165.1742159837
 30
0.0
 11
426.754262751
 21
165.1742159837
 31
0.0
  0
LINE
  5
3FA
330
3A1
100
AcDbEntity
  8
22202-001032_TA-
  6
Continuous
 62
     7
100
AcDbLine
 10
429.2197068555
 20
174.538314524
 30
0.0
 11
437.0139354895
 21
174.538314524
 31
0.0
  0
ELLIPSE
  5
3FB
330
3A1
100
AcDbEntity
  8
22202-001032_TA-
  6
Continuous
 62
     7
100
AcDbEllipse
 10
441.7537763991
 20
163.5662758525
 30
0.0
 11
-4.289124301544050E-12
 21
14.50000000001195
 31
0.0
210
0.0
220
0.0
230
1.0
 40
0.5
 41
0.412477809376254
 42
0.7125575162430876
  0
LINE
  5
3FC
330
3A1
100
AcDbEntity
  8
22202-001032_TA-
  6
Continuous
 62
     7
100
AcDbLine
 10
438.8473923928
 20
176.8501656455
 30
0.0
 11
431.0531637587
 21
176.8501656455
 31
0.0
  0
ELLIPSE
  5
3FD
330
3A1
100
AcDbEntity
  8
22202-001032_TA-
  6
Continuous
 62
     7
100
AcDbEllipse
 10
448.9417872505
 20
163.5662758526
 30
0.0
 11
-6.123233995736763E-16
 21
9.999999999999998
 31
0.0
210
0.0
220
0.0
230
1.0
 40
0.5
 41
5.488447633538051
 42
6.283185307179586
  0
ELLIPSE
  5
3FE
330
3A1
100
AcDbEntity
  8
22202-001032_TA-
  6
Continuous
 62
     7
100
AcDbEllipse
 10
448.9417872505
 20
163.5662758526
 30
0.0
 11
-6.123233995736763E-16
 21
9.999999999999998
 31
0.0
210
0.0
220
0.0
230
1.0
 40
0.5
 41
0.0
 42
3.936330327231336
  0
ELLIPSE
  5
3FF
330
3A1
100
AcDbEntity
  8
22202-001032_TA-
  6
Continuous
 62
     7
100
AcDbEllipse
 10
448.9417872505
 20
163.5662758526
 30
0.0
 11
-4.163799117101000E-16
 21
6.799999999999999
 31
0.0
210
0.0
220
0.0
230
1.0
 40
0.5
 41
0.0
 42
3.141592653589793
  0
ELLIPSE
  5
400
330
3A1
100
AcDbEntity
  8
22202-001032_TA-
  6
Continuous
 62
     7
100
AcDbEllipse
 10
449.981017735
 20
163.5662758526
 30
0.0
 11
-4.163799117101002E-16
 21
6.800000000000002
 31
0.0
210
0.0
220
0.0
230
1.0
 40
0.5
 41
5.824995158579023
 42
6.283185307179586
  0
ELLIPSE
  5
401
330
3A1
100
AcDbEntity
  8
22202-001032_TA-
  6
Continuous
 62
     7
100
AcDbEllipse
 10
449.981017735
 20
163.5662758526
 30
0.0
 11
-4.163799117101002E-16
 21
6.800000000000002
 31
0.0
210
0.0
220
0.0
230
1.0
 40
0.5
 41
0.0
 42
3.599782802190374
  0
ELLIPSE
  5
402
330
3A1
100
AcDbEntity
  8
22202-001032_TA-
  6
Continuous
 62
     7
100
AcDbEllipse
 10
449.981017735
 20
163.5662758526
 30
0.0
 11
2.510525938082136E-16
 21
-4.09999999972247
 31
0.0
210
0.0
220
0.0
230
1.0
 40
0.5
 41
3.141592653589793
 42
6.283185307179586
  0
ELLIPSE
  5
403
330
3A1
100
AcDbEntity
  8
22202-001032_TA-
  6
Continuous
 62
     7
100
AcDbEllipse
 10
462.105373388
 20
163.5662758526
 30
0.0
 11
-4.439344646909158E-16
 21
7.250000000000004
 31
0.0
210
0.0
220
0.0
230
1.0
 40
0.5
 41
0.0
 42
6.283185307179586
  0
ELLIPSE
  5
404
330
3A1
100
AcDbEntity
  8
22202-001032_TA-
  6
Continuous
 62
     7
100
AcDbEllipse
 10
453.4451193501
 20
163.5662758526
 30
0.0
 11
-4.439344646909155E-16
 21
7.249999999999999
 31
0.0
210
0.0
220
0.0
230
1.0
 40
0.5
 41
0.0
 42
3.141592653589793
  0
LINE
  5
405
330
3A1
100
AcDbEntity
  8
22202-001032_TA-
  6
Continuous
 62
     7
100
AcDbLine
 10
407.8720708961
 20
212.4662758526
 30
0.0
 11
407.8720708961
 21
204.7038388809
 31
0.0
  0
LINE
  5
406
330
3A1
100
AcDbEntity
  8
22202-001032_TA-
  6
Continuous
 62
     7
100
AcDbLine
 10
414.8549136085
 20
212.4662758526
 30
0.0
 11
414.8549136085
 21
200.6662758526
 31
0.0
  0
LINE
  5
407
330
3A1
100
AcDbEntity
  8
22202-001032_TA-
  6
Continuous
 62
     7
100
AcDbLine
 10
407.7720708961
 20
213.5662758526
 30
0.0
 11
407.7720708961
 21
206.627361601
 31
0.0
  0
LINE
  5
408
330
3A1
100
AcDbEntity
  8
22202-001032_TA-
  6
Continuous
 62
     7
100
AcDbLine
 10
407.7720708961
 20
206.627361601
 30
0.0
 11
407.7720708961
 21
204.7038388809
 31
0.0
  0
LINE
  5
409
330
3A1
100
AcDbEntity
  8
22202-001032_TA-
  6
Continuous
 62
     7
100
AcDbLine
 10
407.8720708961
 20
122.4287128242
 30
0.0
 11
407.8720708961
 21
114.6662758526
 31
0.0
  0
LINE
  5
40A
330
3A1
100
AcDbEntity
  8
22202-001032_TA-
  6
Continuous
 62
     7
100
AcDbLine
 10
414.8549136085
 20
126.4662758526
 30
0.0
 11
414.8549136085
 21
114.6662758526
 31
0.0
  0
LINE
  5
40B
330
3A1
100
AcDbEntity
  8
22202-001032_TA-
  6
Continuous
 62
     7
100
AcDbLine
 10
407.7720708961
 20
122.4287128242
 30
0.0
 11
407.7720708961
 21
120.5051901041
 31
0.0
  0
LINE
  5
40C
330
3A1
100
AcDbEntity
  8
22202-001032_TA-
  6
Continuous
 62
     7
100
AcDbLine
 10
407.7720708961
 20
113.5662758526
 30
0.0
 11
407.7720708961
 21
120.5051901041
 31
0.0
  0
ELLIPSE
  5
40D
330
3A1
100
AcDbEntity
  8
22202-001032_TA-
  6
Continuous
 62
     7
100
AcDbEllipse
 10
474.1723606861
 20
163.5662758526
 30
0.0
 11
-4.225031457058369E-16
 21
6.900000000000001
 31
0.0
210
0.0
220
0.0
230
1.0
 40
0.5
 41
0.0
 42
6.283185307179586
  0
ELLIPSE
  5
40E
330
3A1
100
AcDbEntity
  8
22202-001032_TA-
  6
Continuous
 62
     7
100
AcDbEllipse
 10
466.3781320521
 20
163.5662758526
 30
0.0
 11
-4.225031457058371E-16
 21
6.900000000000005
 31
0.0
210
0.0
220
0.0
230
1.0
 40
0.5
 41
2.526242513538596
 42
3.141592653589793
  0
ELLIPSE
  5
40F
330
3A1
100
AcDbEntity
  8
22202-001032_TA-
  6
Continuous
 62
     7
100
AcDbEllipse
 10
466.3781320521
 20
163.5662758526
 30
0.0
 11
-4.225031457058371E-16
 21
6.900000000000005
 31
0.0
210
0.0
220
0.0
230
1.0
 40
0.5
 41
0.0
 42
0.6153501400511975
  0
ELLIPSE
  5
410
330
3A1
100
AcDbEntity
  8
22202-001032_TA-
  6
Continuous
 62
     7
100
AcDbEllipse
 10
463.7800558407
 20
163.5662758526
 30
0.0
 11
-3.673940397442058E-16
 21
5.999999999999996
 31
0.0
210
0.0
220
0.0
230
1.0
 40
0.5
 41
3.27495448516042
 42
3.390987156285808
  0
ELLIPSE
  5
411
330
3A1
100
AcDbEntity
  8
22202-001032_TA-
  6
Continuous
 62
     7
100
AcDbEllipse
 10
463.7800558407
 20
163.5662758526
 30
0.0
 11
-3.673940397442058E-16
 21
5.999999999999996
 31
0.0
210
0.0
220
0.0
230
1.0
 40
0.5
 41
-0.2493945026959956
 42
-0.1333618315705909
  0
CIRCLE
  5
412
330
3A1
100
AcDbEntity
  8
22202-001032_TA-
  6
Continuous
 62
     7
100
AcDbCircle
 10
355.7720708961
 20
163.5662758526
 30
0.0
 40
60.8
  0
CIRCLE
  5
413
330
3A1
100
AcDbEntity
  8
22202-001032_TA-
  6
Continuous
 62
     7
100
AcDbCircle
 10
355.7720708961
 20
163.5662758526
 30
0.0
 40
53.94907368870467
  0
CIRCLE
  5
414
330
3A1
100
AcDbEntity
  8
22202-001032_TA-
  6
Continuous
 62
     7
100
AcDbCircle
 10
355.7720708961
 20
163.5662758526
 30
0.0
 40
50.75
  0
CIRCLE
  5
415
330
3A1
100
AcDbEntity
  8
22202-001032_TA-
  6
Continuous
 62
     7
100
AcDbCircle
 10
355.7720708961
 20
163.5662758526
 30
0.0
 40
37.99999999999999
  0
LINE
  5
416
330
3A1
100
AcDbEntity
  8
22202-001032_TA-
  6
Continuous
 62
     7
100
AcDbLine
 10
381.156264517
 20
150.4364352512
 30
0.0
 11
379.8349432149
 21
178.9847120822
 31
0.0
  0
LINE
  5
417
330
3A1
100
AcDbEntity
  8
22202-001032_TA-
  6
Continuous
 62
     7
100
AcDbLine
 10
379.8349432149
 20
178.9847120822
 30
0.0
 11
354.450749594
 21
192.1145526835
 31
0.0
  0
LINE
  5
418
330
3A1
100
AcDbEntity
  8
22202-001032_TA-
  6
Continuous
 62
     7
100
AcDbLine
 10
354.450749594
 20
192.1145526835
 30
0.0
 11
330.3878772752
 21
176.6961164539
 31
0.0
  0
LINE
  5
419
330
3A1
100
AcDbEntity
  8
22202-001032_TA-
  6
Continuous
 62
     7
100
AcDbLine
 10
330.3878772752
 20
176.6961164539
 30
0.0
 11
331.7091985772
 21
148.1478396229
 31
0.0
  0
LINE
  5
41A
330
3A1
100
AcDbEntity
  8
22202-001032_TA-
  6
Continuous
 62
     7
100
AcDbLine
 10
331.7091985772
 20
148.1478396229
 30
0.0
 11
357.0933921981
 21
135.0179990216
 31
0.0
  0
LINE
  5
41B
330
3A1
100
AcDbEntity
  8
22202-001032_TA-
  6
Continuous
 62
     7
100
AcDbLine
 10
357.0933921981
 20
135.0179990216
 30
0.0
 11
381.156264517
 21
150.4364352512
 31
0.0
  0
CIRCLE
  5
41C
330
3A1
100
AcDbEntity
  8
22202-001032_TA-
  6
Continuous
 62
     7
100
AcDbCircle
 10
355.7720708961
 20
163.5662758526
 30
0.0
 40
23.5
  0
LINE
  5
41D
330
3A1
100
AcDbEntity
  8
22202-001032_TA-
  6
Continuous
 62
     7
100
AcDbLine
 10
409.2720708961
 20
126.65083193
 30
0.0
 11
409.2720708961
 21
122.4287128242
 31
0.0
  0
ELLIPSE
  5
41E
330
3A1
100
AcDbEntity
  8
22202-001032_TA-
  6
Continuous
 62
     7
100
AcDbEllipse
 10
432.3140994979
 20
163.5662758526
 30
0.0
 11
-2.853628795008536E-14
 21
12.75000000000015
 31
0.0
210
0.0
220
0.0
230
1.0
 40
0.5
 41
1.251682247262516
 42
1.889910406327268
  0
CIRCLE
  5
41F
330
3A1
100
AcDbEntity
  8
22202-001032_TA-
  6
Continuous
 62
     7
100
AcDbCircle
 10
355.7720708961
 20
163.5662758526
 30
0.0
 40
65.0
  0
LINE
  5
420
330
3A1
100
AcDbEntity
  8
22202-001032_TA-
  6
Continuous
 62
     7
100
AcDbLine
 10
426.2609494914
 20
167.5662758526
 30
0.0
 11
420.6488772293
 21
167.5662758526
 31
0.0
  0
LINE
  5
421
330
3A1
100
AcDbEntity
  8
22202-001032_TA-
  6
Continuous
 62
     7
100
AcDbLine
 10
426.2609494914
 20
159.5662758526
 30
0.0
 11
420.6488772293
 21
159.5662758526
 31
0.0
  0
LINE
  5
422
330
3A1
100
AcDbEntity
  8
22202-001032_TA-
  6
Continuous
 62
     7
100
AcDbLine
 10
409.2720708961
 20
204.7038388809
 30
0.0
 11
409.2720708961
 21
200.4817197751
 31
0.0
  0
LINE
  5
423
330
3A1
100
AcDbEntity
  8
22202-001032_TA-
  6
Continuous
 62
     7
100
AcDbLine
 10
407.7720708961
 20
204.7038388809
 30
0.0
 11
409.2720708961
 21
204.7038388809
 31
0.0
  0
LINE
  5
424
330
3A1
100
AcDbEntity
  8
22202-001032_TA-
  6
Continuous
 62
     7
100
AcDbLine
 10
409.2720708961
 20
122.4287128242
 30
0.0
 11
407.7720708961
 21
122.4287128242
 31
0.0
  0
LINE
  5
425
330
3A1
100
AcDbEntity
  8
22202-001032_TA-
  6
Continuous
 62
     7
100
AcDbLine
 10
440.394669509
 20
102.89611468
 30
0.0
 11
462.2215492897
 21
108.5214136813
 31
0.0
  0
LINE
  5
426
330
3A1
100
AcDbEntity
  8
22202-001032_TA-
  6
Continuous
 62
     7
100
AcDbLine
 10
462.2215492896
 20
218.6111380238
 30
0.0
 11
440.3946695089
 21
224.2364370251
 31
0.0
  0
LINE
  5
427
330
3A1
100
AcDbEntity
  8
22202-001032_TA-
  6
Continuous
 62
     7
100
AcDbLine
 10
423.0197549454
 20
220.0593509667
 30
0.0
 11
406.6584246699
 21
214.1912129475
 31
0.0
  0
LINE
  5
428
330
3A1
100
AcDbEntity
  8
22202-001032_TA-
  6
Continuous
 62
     7
100
AcDbLine
 10
406.6584246699
 20
112.9413387576
 30
0.0
 11
423.0197549454
 21
107.0732007384
 31
0.0
  0
LINE
  5
429
330
3A1
100
AcDbEntity
  8
22202-001032_TA-
  6
Continuous
 62
     7
100
AcDbLine
 10
487.4511718586
 20
153.5662758526
 30
0.0
 11
499.012672682
 21
153.5662758526
 31
0.0
  0
LINE
  5
42A
330
3A1
100
AcDbEntity
  8
22202-001032_TA-
  6
Continuous
 62
     7
100
AcDbLine
 10
499.012672682
 20
173.5662758526
 30
0.0
 11
487.4511718586
 21
173.5662758526
 31
0.0
  0
LINE
  5
42B
330
3A1
100
AcDbEntity
  8
22202-001032_TA-
  6
Continuous
 62
     7
100
AcDbLine
 10
503.595248377
 20
159.5662758526
 30
0.0
 11
522.3087560438
 21
159.5662758526
 31
0.0
  0
LINE
  5
42C
330
3A1
100
AcDbEntity
  8
22202-001032_TA-
  6
Continuous
 62
     7
100
AcDbLine
 10
522.3087560438
 20
167.5662758526
 30
0.0
 11
503.595248377
 21
167.5662758526
 31
0.0
  0
LINE
  5
42D
330
3A1
100
AcDbEntity
  8
22202-001032_TA-
  6
Continuous
 62
     7
100
AcDbLine
 10
522.3087560438
 20
159.1162758526
 30
0.0
 11
527.6564629122
 21
159.1162758526
 31
0.0
  0
LINE
  5
42E
330
3A1
100
AcDbEntity
  8
22202-001032_TA-
  6
Continuous
 62
     7
100
AcDbLine
 10
527.6564629122
 20
168.0162758526
 30
0.0
 11
522.3087560438
 21
168.0162758526
 31
0.0
  0
LINE
  5
42F
330
3A1
100
AcDbEntity
  8
22202-001032_TA-
  6
Continuous
 62
     7
100
AcDbLine
 10
529.0770151815
 20
160.1412758526
 30
0.0
 11
540.668494604
 21
160.1412758526
 31
0.0
  0
LINE
  5
430
330
3A1
100
AcDbEntity
  8
22202-001032_TA-
  6
Continuous
 62
     7
100
AcDbLine
 10
540.668494604
 20
166.9912758526
 30
0.0
 11
529.0770151815
 21
166.9912758526
 31
0.0
  0
LINE
  5
431
330
3A1
100
AcDbEntity
  8
22202-001032_TA-
  6
Continuous
 62
     7
100
AcDbLine
 10
441.7537763991
 20
153.5662758526
 30
0.0
 11
448.9417872505
 21
153.5662758526
 31
0.0
  0
LINE
  5
432
330
3A1
100
AcDbEntity
  8
22202-001032_TA-
  6
Continuous
 62
     7
100
AcDbLine
 10
448.9417872505
 20
173.5662758526
 30
0.0
 11
441.7537763991
 21
173.5662758526
 31
0.0
  0
LINE
  5
433
330
3A1
100
AcDbEntity
  8
22202-001032_TA-
  6
Continuous
 62
     7
100
AcDbLine
 10
448.9417872505
 20
156.7662758526
 30
0.0
 11
449.981017735
 21
156.7662758526
 31
0.0
  0
LINE
  5
434
330
3A1
100
AcDbEntity
  8
22202-001032_TA-
  6
Continuous
 62
     7
100
AcDbLine
 10
449.981017735
 20
170.3662758526
 30
0.0
 11
448.9417872505
 21
170.3662758526
 31
0.0
  0
LINE
  5
435
330
3A1
100
AcDbEntity
  8
22202-001032_TA-
  6
Continuous
 62
     7
100
AcDbLine
 10
449.981017735
 20
159.4662758528
 30
0.0
 11
450.4554496358
 21
159.4662758528
 31
0.0
  0
LINE
  5
436
330
3A1
100
AcDbEntity
  8
22202-001032_TA-
  6
Continuous
 62
     7
100
AcDbLine
 10
450.4554496358
 20
167.6662758523
 30
0.0
 11
449.981017735
 21
167.6662758523
 31
0.0
  0
LINE
  5
437
330
3A1
100
AcDbEntity
  8
22202-001032_TA-
  6
Continuous
 62
     7
100
AcDbLine
 10
453.4451193501
 20
156.3162758526
 30
0.0
 11
462.105373388
 21
156.3162758526
 31
0.0
  0
LINE
  5
438
330
3A1
100
AcDbEntity
  8
22202-001032_TA-
  6
Continuous
 62
     7
100
AcDbLine
 10
462.105373388
 20
170.8162758526
 30
0.0
 11
453.4451193501
 21
170.8162758526
 31
0.0
  0
LINE
  5
439
330
3A1
100
AcDbEntity
  8
22202-001032_TA-
  6
Continuous
 62
     7
100
AcDbLine
 10
407.8720708961
 20
212.4662758526
 30
0.0
 11
407.7720708961
 21
212.3662758526
 31
0.0
  0
LINE
  5
43A
330
3A1
100
AcDbEntity
  8
22202-001032_TA-
  6
Continuous
 62
     7
100
AcDbLine
 10
409.2720708961
 20
200.6662758526
 30
0.0
 11
414.8549136085
 21
200.6662758526
 31
0.0
  0
LINE
  5
43B
330
3A1
100
AcDbEntity
  8
22202-001032_TA-
  6
Continuous
 62
     7
100
AcDbLine
 10
414.8549136085
 20
212.4662758526
 30
0.0
 11
407.8720708961
 21
212.4662758526
 31
0.0
  0
LINE
  5
43C
330
3A1
100
AcDbEntity
  8
22202-001032_TA-
  6
Continuous
 62
     7
100
AcDbLine
 10
407.7720708961
 20
114.7662758526
 30
0.0
 11
407.8720708961
 21
114.6662758526
 31
0.0
  0
LINE
  5
43D
330
3A1
100
AcDbEntity
  8
22202-001032_TA-
  6
Continuous
 62
     7
100
AcDbLine
 10
407.8720708961
 20
114.6662758526
 30
0.0
 11
414.8549136085
 21
114.6662758526
 31
0.0
  0
LINE
  5
43E
330
3A1
100
AcDbEntity
  8
22202-001032_TA-
  6
Continuous
 62
     7
100
AcDbLine
 10
414.8549136085
 20
126.4662758526
 30
0.0
 11
409.2720708961
 21
126.4662758526
 31
0.0
  0
LINE
  5
43F
330
3A1
100
AcDbEntity
  8
22202-001032_TA-
  6
Continuous
 62
     7
100
AcDbLine
 10
466.3781320521
 20
156.6662758526
 30
0.0
 11
474.1723606861
 21
156.6662758526
 31
0.0
  0
LINE
  5
440
330
3A1
100
AcDbEntity
  8
22202-001032_TA-
  6
Continuous
 62
     7
100
AcDbLine
 10
474.1723606861
 20
170.4662758526
 30
0.0
 11
466.3781320521
 21
170.4662758526
 31
0.0
  0
LINE
  5
441
330
3A1
100
AcDbEntity
  8
22202-001032_TA-
  6
Continuous
 62
     7
100
AcDbLine
 10
419.5093245237
 20
150.8162758526
 30
0.0
 11
430.5067409358
 21
150.8162758526
 31
0.0
  0
LINE
  5
442
330
3A1
100
AcDbEntity
  8
22202-001032_TA-
  6
Continuous
 62
     7
100
AcDbLine
 10
430.5067409358
 20
176.3162758526
 30
0.0
 11
419.5093245237
 21
176.3162758526
 31
0.0
  0
LINE
  5
443
330
3A1
100
AcDbEntity
  8
22202-001032_TA-
  6
Continuous
 62
     7
100
AcDbLine
 10
407.7720708961
 20
213.5662758526
 30
0.0
 11
397.3051902106
 21
213.5662758526
 31
0.0
  0
LINE
  5
444
330
3A1
100
AcDbEntity
  8
22202-001032_TA-
  6
Continuous
 62
     7
100
AcDbLine
 10
397.3051902106
 20
113.5662758526
 30
0.0
 11
407.7720708961
 21
113.5662758526
 31
0.0
  0
ENDBLK
  5
446
330
3A1
100
AcDbEntity
  8
0
100
AcDbBlockEnd
  0
ENDSEC
  0
SECTION
  2
ENTITIES
  0
INSERT
  5
41
330
1F
100
AcDbEntity
  8
Default
100
AcDbBlockReference
  2
SE
 10
0.0
 20
0.0
 30
0.0
  0
INSERT
  5
17A
330
1F
100
AcDbEntity
  8
Default
100
AcDbBlockReference
  2
SE1
 10
0.0
 20
0.0
 30
0.0
  0
INSERT
  5
2A7
330
1F
100
AcDbEntity
  8
Default
100
AcDbBlockReference
  2
SE2
 10
0.0
 20
0.0
 30
0.0
  0
INSERT
  5
3A2
330
1F
100
AcDbEntity
  8
Default
100
AcDbBlockReference
  2
SE3
 10
0.0
 20
0.0
 30
0.0
  0
ENDSEC
  0
SECTION
  2
OBJECTS
  0
DICTIONARY
  5
C
330
0
100
AcDbDictionary
281
     1
  3
ACAD_GROUP
350
D
  3
ACAD_LAYOUT
350
1A
  3
ACAD_MATERIAL
350
3B
  3
ACAD_MLEADERSTYLE
350
449
  3
ACAD_MLINESTYLE
350
17
  3
ACAD_PLOTSETTINGS
350
19
  3
ACAD_PLOTSTYLENAME
350
E
  3
ACAD_VISUALSTYLE
350
2A
  3
AcDbVariableDictionary
350
447
  0
DICTIONARY
  5
D
102
{ACAD_REACTORS
330
C
102
}
330
C
100
AcDbDictionary
281
     1
  0
DICTIONARY
  5
1A
102
{ACAD_REACTORS
330
C
102
}
330
C
100
AcDbDictionary
281
     1
  3
Layout1
350
1E
  3
Model
350
22
  0
DICTIONARY
  5
3B
102
{ACAD_REACTORS
330
C
102
}
330
C
100
AcDbDictionary
281
     1
  3
ByBlock
350
3D
  3
ByLayer
350
3C
  3
Global
350
3E
  0
DICTIONARY
  5
449
102
{ACAD_REACTORS
330
C
102
}
330
C
100
AcDbDictionary
281
     1
  0
DICTIONARY
  5
17
102
{ACAD_REACTORS
330
C
102
}
330
C
100
AcDbDictionary
281
     1
  3
Standard
350
18
  0
DICTIONARY
  5
19
102
{ACAD_REACTORS
330
C
102
}
330
C
100
AcDbDictionary
281
     1
  0
ACDBDICTIONARYWDFLT
  5
E
102
{ACAD_REACTORS
330
C
102
}
330
C
100
AcDbDictionary
281
     1
  3
Normal
350
F
100
AcDbDictionaryWithDefault
340
F
  0
DICTIONARY
  5
2A
102
{ACAD_REACTORS
330
C
102
}
330
C
100
AcDbDictionary
281
     1
  3
2dWireframe
350
2F
  3
3D Hidden
350
31
  3
3dWireframe
350
30
  3
Basic
350
32
  3
Brighten
350
36
  3
ColorChange
350
3A
  3
Conceptual
350
34
  3
Dim
350
35
  3
Facepattern
350
39
  3
Flat
350
2B
  3
FlatWithEdges
350
2C
  3
Gouraud
350
2D
  3
GouraudWithEdges
350
2E
  3
Linepattern
350
38
  3
Realistic
350
33
  3
Thicken
350
37
  0
DICTIONARY
  5
447
102
{ACAD_REACTORS
330
C
102
}
330
C
100
AcDbDictionary
281
     1
  3
DIMASSOC
350
44C
  3
HIDETEXT
350
44D
  3
PSOLHEIGHT
350
44B
  3
PSOLWIDTH
350
44A
  0
LAYOUT
  5
1E
102
{ACAD_REACTORS
330
1A
102
}
330
1A
100
AcDbPlotSettings
  1

  2
none_device
  4

  6

 40
0.0
 41
0.0
 42
0.0
 43
0.0
 44
0.0
 45
0.0
 46
0.0
 47
0.0
 48
0.0
 49
0.0
140
0.0
141
0.0
142
1.0
143
1.0
 70
   688
 72
     0
 73
     0
 74
     5
  7

 75
    16
147
1.0
148
0.0
149
0.0
100
AcDbLayout
  1
Layout1
 70
     1
 71
     1
 10
0.0
 20
0.0
 11
841.0
 21
594.0
 12
0.0
 22
0.0
 32
0.0
 14
0.0
 24
0.0
 34
0.0
 15
841.0
 25
594.0
 35
0.0
146
0.0
 13
0.0
 23
0.0
 33
0.0
 16
1.0
 26
0.0
 36
0.0
 17
0.0
 27
1.0
 37
0.0
 76
     0
330
1B
  0
LAYOUT
  5
22
102
{ACAD_REACTORS
330
1A
102
}
330
1A
100
AcDbPlotSettings
  1

  2
none_device
  4

  6

 40
0.0
 41
0.0
 42
0.0
 43
0.0
 44
0.0
 45
0.0
 46
0.0
 47
0.0
 48
0.0
 49
0.0
140
0.0
141
0.0
142
1.0
143
1.0
 70
  1712
 72
     0
 73
     0
 74
     0
  7

 75
     0
147
1.0
148
0.0
149
0.0
100
AcDbLayout
  1
Model
 70
     1
 71
     0
 10
0.0
 20
0.0
 11
841.0
 21
594.0
 12
0.0
 22
0.0
 32
0.0
 14
0.0
 24
0.0
 34
0.0
 15
841.0
 25
594.0
 35
0.0
146
0.0
 13
0.0
 23
0.0
 33
0.0
 16
1.0
 26
0.0
 36
0.0
 17
0.0
 27
1.0
 37
0.0
 76
     0
330
1F
331
29
  0
MATERIAL
  5
3D
102
{ACAD_REACTORS
330
3B
102
}
102
{ACAD_XDICTIONARY
360
470
102
}
330
3B
100
AcDbMaterial
  1
ByBlock
  0
MATERIAL
  5
3C
102
{ACAD_REACTORS
330
3B
102
}
102
{ACAD_XDICTIONARY
360
46E
102
}
330
3B
100
AcDbMaterial
  1
ByLayer
  0
MATERIAL
  5
3E
102
{ACAD_REACTORS
330
3B
102
}
102
{ACAD_XDICTIONARY
360
472
102
}
330
3B
100
AcDbMaterial
  1
Global
  0
MLINESTYLE
  5
18
102
{ACAD_REACTORS
330
17
102
}
330
17
100
AcDbMlineStyle
  2
Standard
 70
     0
  3

 62
   256
 51
90.0
 52
90.0
 71
     2
 49
0.5
 62
   256
  6
BYLAYER
 49
-0.5
 62
   256
  6
BYLAYER
  0
ACDBPLACEHOLDER
  5
F
102
{ACAD_REACTORS
330
E
102
}
330
E
  0
VISUALSTYLE
  5
2F
102
{ACAD_REACTORS
330
2A
102
}
102
{ACAD_XDICTIONARY
360
456
102
}
330
2A
100
AcDbVisualStyle
  2
2dWireframe
 70
     4
 71
     0
 72
     2
 73
     0
 90
        0
 40
-0.6
 41
-30.0
 62
     5
 63
     7
 74
     1
 91
        4
 64
     7
 65
   257
 75
     1
175
     1
 42
1.0
 92
        0
 66
   257
 43
1.0
 76
     1
 77
     6
 78
     2
 67
     7
 79
     5
170
     0
171
     0
290
     0
174
     0
 93
        1
 44
0.0
173
     0
291
     0
 45
0.0
1001
ACAD
1000
AcDbSavedByObjectVersion
1070
     0
  0
VISUALSTYLE
  5
31
102
{ACAD_REACTORS
330
2A
102
}
102
{ACAD_XDICTIONARY
360
45A
102
}
330
2A
100
AcDbVisualStyle
  2
3D Hidden
 70
     6
 71
     1
 72
     2
 73
     2
 90
        0
 40
-0.6
 41
-30.0
 62
     5
 63
     7
 74
     2
 91
        2
 64
     7
 65
   257
 75
     2
175
     1
 42
40.0
 92
        0
 66
   257
 43
1.0
 76
     1
 77
     6
 78
     2
 67
     7
 79
     3
170
     0
171
     0
290
     0
174
     0
 93
        1
 44
0.0
173
     0
291
     0
 45
0.0
1001
ACAD
1000
AcDbSavedByObjectVersion
1070
     0
  0
VISUALSTYLE
  5
30
102
{ACAD_REACTORS
330
2A
102
}
102
{ACAD_XDICTIONARY
360
458
102
}
330
2A
100
AcDbVisualStyle
  2
3dWireframe
 70
     5
 71
     0
 72
     2
 73
     0
 90
        0
 40
-0.6
 41
-30.0
 62
     5
 63
     7
 74
     1
 91
        4
 64
     7
 65
   257
 75
     1
175
     1
 42
1.0
 92
        0
 66
   257
 43
1.0
 76
     1
 77
     6
 78
     2
 67
     7
 79
     5
170
     0
171
     0
290
     0
174
     0
 93
        1
 44
0.0
173
     0
291
     0
 45
0.0
1001
ACAD
1000
AcDbSavedByObjectVersion
1070
     0
  0
VISUALSTYLE
  5
32
102
{ACAD_REACTORS
330
2A
102
}
102
{ACAD_XDICTIONARY
360
45C
102
}
330
2A
100
AcDbVisualStyle
  2
Basic
 70
     7
 71
     1
 72
     0
 73
     1
 90
        0
 40
-0.6
 41
-30.0
 62
     5
 63
     7
 74
     0
 91
        4
 64
     7
 65
   257
 75
     1
175
     1
 42
1.0
 92
        8
 66
     7
 43
1.0
 76
     1
 77
     6
 78
     2
 67
     7
 79
     5
170
     0
171
     0
290
     0
174
     0
 93
        1
 44
0.0
173
     0
291
     1
 45
0.0
1001
ACAD
1000
AcDbSavedByObjectVersion
1070
     0
  0
VISUALSTYLE
  5
36
102
{ACAD_REACTORS
330
2A
102
}
102
{ACAD_XDICTIONARY
360
464
102
}
330
2A
100
AcDbVisualStyle
  2
Brighten
 70
    12
 71
     2
 72
     2
 73
     0
 90
        0
 40
-0.6
 41
-30.0
 62
     5
 63
     7
 74
     1
 91
        4
 64
     7
 65
   257
 75
     1
175
     1
 42
1.0
 92
        8
 66
     7
 43
1.0
 76
     1
 77
     6
 78
     2
 67
     7
 79
     5
170
     0
171
     0
290
     0
174
     0
 93
        1
 44
50.0
173
     0
291
     1
 45
0.0
1001
ACAD
1000
AcDbSavedByObjectVersion
1070
     0
  0
VISUALSTYLE
  5
3A
102
{ACAD_REACTORS
330
2A
102
}
102
{ACAD_XDICTIONARY
360
46C
102
}
330
2A
100
AcDbVisualStyle
  2
ColorChange
 70
    16
 71
     2
 72
     2
 73
     3
 90
        0
 40
-0.6
 41
-30.0
 62
     5
 63
     8
 74
     1
 91
        4
 64
     7
 65
   257
 75
     1
175
     1
 42
1.0
 92
        8
 66
     8
 43
1.0
 76
     1
 77
     6
 78
     2
 67
     7
 79
     5
170
     0
171
     0
290
     0
174
     0
 93
        1
 44
0.0
173
     0
291
     1
 45
0.0
1001
ACAD
1000
AcDbSavedByObjectVersion
1070
     0
  0
VISUALSTYLE
  5
34
102
{ACAD_REACTORS
330
2A
102
}
102
{ACAD_XDICTIONARY
360
460
102
}
330
2A
100
AcDbVisualStyle
  2
Conceptual
 70
     9
 71
     3
 72
     2
 73
     0
 90
        0
 40
-0.6
 41
-30.0
 62
     5
 63
     7
 74
     2
 91
        2
 64
     7
 65
   257
 75
     1
175
     1
 42
40.0
 92
        8
 66
     7
 43
1.0
 76
     1
 77
     6
 78
     2
 67
     7
 79
     3
170
     0
171
     0
290
     0
174
     0
 93
        1
 44
0.0
173
     0
291
     0
 45
0.0
1001
ACAD
1000
AcDbSavedByObjectVersion
1070
     0
  0
VISUALSTYLE
  5
35
102
{ACAD_REACTORS
330
2A
102
}
102
{ACAD_XDICTIONARY
360
462
102
}
330
2A
100
AcDbVisualStyle
  2
Dim
 70
    11
 71
     2
 72
     2
 73
     0
 90
        0
 40
-0.6
 41
-30.0
 62
     5
 63
     7
 74
     1
 91
        4
 64
     7
 65
   257
 75
     1
175
     1
 42
1.0
 92
        8
 66
     7
 43
1.0
 76
     1
 77
     6
 78
     2
 67
     7
 79
     5
170
     0
171
     0
290
     0
174
     0
 93
        1
 44
-50.0
173
     0
291
     1
 45
0.0
1001
ACAD
1000
AcDbSavedByObjectVersion
1070
     0
  0
VISUALSTYLE
  5
39
102
{ACAD_REACTORS
330
2A
102
}
102
{ACAD_XDICTIONARY
360
46A
102
}
330
2A
100
AcDbVisualStyle
  2
Facepattern
 70
    15
 71
     2
 72
     2
 73
     0
 90
        0
 40
-0.6
 41
-30.0
 62
     5
 63
     7
 74
     1
 91
        4
 64
     7
 65
   257
 75
     1
175
     1
 42
1.0
 92
        8
 66
     7
 43
1.0
 76
     1
 77
     6
 78
     2
 67
     7
 79
     5
170
     0
171
     0
290
     0
174
     0
 93
        1
 44
0.0
173
     0
291
     1
 45
0.0
1001
ACAD
1000
AcDbSavedByObjectVersion
1070
     0
  0
VISUALSTYLE
  5
2B
102
{ACAD_REACTORS
330
2A
102
}
102
{ACAD_XDICTIONARY
360
44E
102
}
330
2A
100
AcDbVisualStyle
  2
Flat
 70
     0
 71
     2
 72
     1
 73
     1
 90
        2
 40
-0.6
 41
30.0
 62
     5
 63
     7
 74
     0
 91
        4
 64
     7
 65
   257
 75
     1
175
     1
 42
1.0
 92
        8
 66
     7
 43
1.0
 76
     1
 77
     6
 78
     2
 67
     7
 79
     5
170
     0
171
     0
290
     0
174
     0
 93
       13
 44
0.0
173
     0
291
     1
 45
0.0
1001
ACAD
1000
AcDbSavedByObjectVersion
1070
     0
  0
VISUALSTYLE
  5
2C
102
{ACAD_REACTORS
330
2A
102
}
102
{ACAD_XDICTIONARY
360
450
102
}
330
2A
100
AcDbVisualStyle
  2
FlatWithEdges
 70
     1
 71
     2
 72
     1
 73
     1
 90
        2
 40
-0.6
 41
30.0
 62
     5
 63
     7
 74
     1
 91
        4
 64
     7
 65
   257
 75
     1
175
     1
 42
1.0
 92
        0
 66
   257
 43
1.0
 76
     1
 77
     6
 78
     2
 67
     7
 79
     5
170
     0
171
     0
290
     0
174
     0
 93
       13
 44
0.0
173
     0
291
     1
 45
0.0
1001
ACAD
1000
AcDbSavedByObjectVersion
1070
     0
  0
VISUALSTYLE
  5
2D
102
{ACAD_REACTORS
330
2A
102
}
102
{ACAD_XDICTIONARY
360
452
102
}
330
2A
100
AcDbVisualStyle
  2
Gouraud
 70
     2
 71
     2
 72
     2
 73
     1
 90
        2
 40
-0.6
 41
30.0
 62
     5
 63
     7
 74
     0
 91
        4
 64
     7
 65
   257
 75
     1
175
     1
 42
1.0
 92
        0
 66
     7
 43
1.0
 76
     1
 77
     6
 78
     2
 67
     7
 79
     5
170
     0
171
     0
290
     0
174
     0
 93
       13
 44
0.0
173
     0
291
     1
 45
0.0
1001
ACAD
1000
AcDbSavedByObjectVersion
1070
     0
  0
VISUALSTYLE
  5
2E
102
{ACAD_REACTORS
330
2A
102
}
102
{ACAD_XDICTIONARY
360
454
102
}
330
2A
100
AcDbVisualStyle
  2
GouraudWithEdges
 70
     3
 71
     2
 72
     2
 73
     1
 90
        2
 40
-0.6
 41
30.0
 62
     5
 63
     7
 74
     1
 91
        4
 64
     7
 65
   257
 75
     1
175
     1
 42
1.0
 92
        0
 66
   257
 43
1.0
 76
     1
 77
     6
 78
     2
 67
     7
 79
     5
170
     0
171
     0
290
     0
174
     0
 93
       13
 44
0.0
173
     0
291
     1
 45
0.0
1001
ACAD
1000
AcDbSavedByObjectVersion
1070
     0
  0
VISUALSTYLE
  5
38
102
{ACAD_REACTORS
330
2A
102
}
102
{ACAD_XDICTIONARY
360
468
102
}
330
2A
100
AcDbVisualStyle
  2
Linepattern
 70
    14
 71
     2
 72
     2
 73
     0
 90
        0
 40
-0.6
 41
-30.0
 62
     5
 63
     7
 74
     1
 91
        4
 64
     7
 65
   257
 75
     7
175
     7
 42
1.0
 92
        8
 66
     7
 43
1.0
 76
     1
 77
     6
 78
     2
 67
     7
 79
     5
170
     0
171
     0
290
     0
174
     0
 93
        1
 44
0.0
173
     0
291
     1
 45
0.0
1001
ACAD
1000
AcDbSavedByObjectVersion
1070
     0
  0
VISUALSTYLE
  5
33
102
{ACAD_REACTORS
330
2A
102
}
102
{ACAD_XDICTIONARY
360
45E
102
}
330
2A
100
AcDbVisualStyle
  2
Realistic
 70
     8
 71
     2
 72
     2
 73
     0
 90
        0
 40
-0.6
 41
-30.0
 62
     5
 63
     7
 74
     1
 91
        0
 64
     7
 65
   257
 75
     1
175
     1
 42
1.0
 92
        8
 66
     8
 43
1.0
 76
     1
 77
     6
 78
     2
 67
     7
 79
     5
170
     0
171
     0
290
     0
174
     0
 93
       13
 44
0.0
173
     0
291
     0
 45
0.0
1001
ACAD
1000
AcDbSavedByObjectVersion
1070
     0
  0
VISUALSTYLE
  5
37
102
{ACAD_REACTORS
330
2A
102
}
102
{ACAD_XDICTIONARY
360
466
102
}
330
2A
100
AcDbVisualStyle
  2
Thicken
 70
    13
 71
     2
 72
     2
 73
     0
 90
        0
 40
-0.6
 41
-30.0
 62
     5
 63
     7
 74
     1
 91
        4
 64
     7
 65
   257
 75
     1
175
     1
 42
1.0
 92
       12
 66
     7
 43
1.0
 76
     1
 77
     6
 78
     2
 67
     7
 79
     5
170
     0
171
     0
290
     0
174
     0
 93
        1
 44
0.0
173
     0
291
     1
 45
0.0
1001
ACAD
1000
AcDbSavedByObjectVersion
1070
     0
  0
DICTIONARYVAR
  5
44C
102
{ACAD_REACTORS
330
447
102
}
330
447
100
DictionaryVariables
280
     0
  1
2
  0
DICTIONARYVAR
  5
44D
102
{ACAD_REACTORS
330
447
102
}
330
447
100
DictionaryVariables
280
     0
  1
1
  0
DICTIONARYVAR
  5
44B
102
{ACAD_REACTORS
330
447
102
}
330
447
100
DictionaryVariables
280
     0
  1
80.000000
  0
DICTIONARYVAR
  5
44A
102
{ACAD_REACTORS
330
447
102
}
330
447
100
DictionaryVariables
280
     0
  1
5.000000
  0
DICTIONARY
  5
470
330
3D
100
AcDbDictionary
280
     1
281
     1
  3
ACAD_XREC_ROUNDTRIP
360
471
  0
DICTIONARY
  5
46E
330
3C
100
AcDbDictionary
280
     1
281
     1
  3
ACAD_XREC_ROUNDTRIP
360
46F
  0
DICTIONARY
  5
472
330
3E
100
AcDbDictionary
280
     1
281
     1
  3
ACAD_XREC_ROUNDTRIP
360
473
  0
DICTIONARY
  5
456
330
2F
100
AcDbDictionary
280
     1
281
     1
  3
ACAD_XREC_ROUNDTRIP
360
457
  0
DICTIONARY
  5
45A
330
31
100
AcDbDictionary
280
     1
281
     1
  3
ACAD_XREC_ROUNDTRIP
360
45B
  0
DICTIONARY
  5
458
330
30
100
AcDbDictionary
280
     1
281
     1
  3
ACAD_XREC_ROUNDTRIP
360
459
  0
DICTIONARY
  5
45C
330
32
100
AcDbDictionary
280
     1
281
     1
  3
ACAD_XREC_ROUNDTRIP
360
45D
  0
DICTIONARY
  5
464
330
36
100
AcDbDictionary
280
     1
281
     1
  3
ACAD_XREC_ROUNDTRIP
360
465
  0
DICTIONARY
  5
46C
330
3A
100
AcDbDictionary
280
     1
281
     1
  3
ACAD_XREC_ROUNDTRIP
360
46D
  0
DICTIONARY
  5
460
330
34
100
AcDbDictionary
280
     1
281
     1
  3
ACAD_XREC_ROUNDTRIP
360
461
  0
DICTIONARY
  5
462
330
35
100
AcDbDictionary
280
     1
281
     1
  3
ACAD_XREC_ROUNDTRIP
360
463
  0
DICTIONARY
  5
46A
330
39
100
AcDbDictionary
280
     1
281
     1
  3
ACAD_XREC_ROUNDTRIP
360
46B
  0
DICTIONARY
  5
44E
330
2B
100
AcDbDictionary
280
     1
281
     1
  3
ACAD_XREC_ROUNDTRIP
360
44F
  0
DICTIONARY
  5
450
330
2C
100
AcDbDictionary
280
     1
281
     1
  3
ACAD_XREC_ROUNDTRIP
360
451
  0
DICTIONARY
  5
452
330
2D
100
AcDbDictionary
280
     1
281
     1
  3
ACAD_XREC_ROUNDTRIP
360
453
  0
DICTIONARY
  5
454
330
2E
100
AcDbDictionary
280
     1
281
     1
  3
ACAD_XREC_ROUNDTRIP
360
455
  0
DICTIONARY
  5
468
330
38
100
AcDbDictionary
280
     1
281
     1
  3
ACAD_XREC_ROUNDTRIP
360
469
  0
DICTIONARY
  5
45E
330
33
100
AcDbDictionary
280
     1
281
     1
  3
ACAD_XREC_ROUNDTRIP
360
45F
  0
DICTIONARY
  5
466
330
37
100
AcDbDictionary
280
     1
281
     1
  3
ACAD_XREC_ROUNDTRIP
360
467
  0
XRECORD
  5
471
102
{ACAD_REACTORS
330
470
102
}
330
470
100
AcDbXrecord
280
     1
102
MATERIAL
148
0.0
149
0.0
149
0.0
 93
        0
 94
      127
282
     0
 72
     1
 77
     1
171
     1
175
     1
179
     1
273
     0
  0
XRECORD
  5
46F
102
{ACAD_REACTORS
330
46E
102
}
330
46E
100
AcDbXrecord
280
     1
102
MATERIAL
148
0.0
149
0.0
149
0.0
 93
        0
 94
      127
282
     0
 72
     1
 77
     1
171
     1
175
     1
179
     1
273
     0
  0
XRECORD
  5
473
102
{ACAD_REACTORS
330
472
102
}
330
472
100
AcDbXrecord
280
     1
102
MATERIAL
148
0.0
149
0.0
149
0.0
 93
        0
 94
      127
282
     0
 72
     1
 77
     1
171
     1
175
     1
179
     1
273
     0
  0
XRECORD
  5
457
102
{ACAD_REACTORS
330
456
102
}
330
456
100
AcDbXrecord
280
     1
102
RTVSPropertyOp0
 70
     1
102
RTVSPropertyOp1
 70
     1
102
RTVSPropertyOp2
 70
     1
102
RTVSPropertyOp3
 70
     1
102
RTVSPropertyOp4
 70
     1
102
RTVSPropertyOp5
 70
     1
102
RTVSPropertyOp6
 70
     1
102
RTVSPropertyOp7
 70
     1
102
RTVSPropertyOp8
 70
     1
102
RTVSPropertyOp9
 70
     1
102
RTVSPropertyOp10
 70
     1
102
RTVSPropertyOp11
 70
     1
102
RTVSPropertyOp12
 70
     1
102
RTVSPropertyOp13
 70
     1
102
RTVSPropertyOp14
 70
     1
102
RTVSPropertyOp15
 70
     1
102
RTVSPropertyOp16
 70
     1
102
RTVSPropertyOp17
 70
     1
102
RTVSPropertyOp18
 70
     1
102
RTVSPropertyOp19
 70
     1
102
RTVSPropertyOp20
 70
     1
102
RTVSPropertyOp21
 70
     1
102
RTVSPropertyOp22
 70
     1
102
RTVSPropertyOp23
 70
     1
102
RTVSPropertyOp24
 70
     1
102
RTVSPropertyOp25
 70
     1
102
RTVSPropertyOp26
 70
     1
102
RTVSPropertyOp27
 70
     1
102
RTVSPropertyOp28
 70
     1
102
RTVSPropertyOp29
 70
     1
102
RTVSPropertyOp30
 70
     1
102
RTVSPropertyOp31
 70
     1
102
RTVSPropertyOp32
 70
     1
  0
XRECORD
  5
45B
102
{ACAD_REACTORS
330
45A
102
}
330
45A
100
AcDbXrecord
280
     1
102
RTVSPropertyOp0
 70
     1
102
RTVSPropertyOp1
 70
     1
102
RTVSPropertyOp2
 70
     1
102
RTVSPropertyOp3
 70
     1
102
RTVSPropertyOp4
 70
     1
102
RTVSPropertyOp5
 70
     1
102
RTVSPropertyOp6
 70
     1
102
RTVSPropertyOp7
 70
     1
102
RTVSPropertyOp8
 70
     1
102
RTVSPropertyOp9
 70
     1
102
RTVSPropertyOp10
 70
     1
102
RTVSPropertyOp11
 70
     1
102
RTVSPropertyOp12
 70
     1
102
RTVSPropertyOp13
 70
     1
102
RTVSPropertyOp14
 70
     1
102
RTVSPropertyOp15
 70
     1
102
RTVSPropertyOp16
 70
     1
102
RTVSPropertyOp17
 70
     1
102
RTVSPropertyOp18
 70
     1
102
RTVSPropertyOp19
 70
     1
102
RTVSPropertyOp20
 70
     1
102
RTVSPropertyOp21
 70
     1
102
RTVSPropertyOp22
 70
     1
102
RTVSPropertyOp23
 70
     1
102
RTVSPropertyOp24
 70
     1
102
RTVSPropertyOp25
 70
     1
102
RTVSPropertyOp26
 70
     1
102
RTVSPropertyOp27
 70
     1
102
RTVSPropertyOp28
 70
     1
102
RTVSPropertyOp29
 70
     1
102
RTVSPropertyOp30
 70
     1
102
RTVSPropertyOp31
 70
     1
102
RTVSPropertyOp32
 70
     1
  0
XRECORD
  5
459
102
{ACAD_REACTORS
330
458
102
}
330
458
100
AcDbXrecord
280
     1
102
RTVSPropertyOp0
 70
     1
102
RTVSPropertyOp1
 70
     1
102
RTVSPropertyOp2
 70
     1
102
RTVSPropertyOp3
 70
     1
102
RTVSPropertyOp4
 70
     1
102
RTVSPropertyOp5
 70
     1
102
RTVSPropertyOp6
 70
     1
102
RTVSPropertyOp7
 70
     1
102
RTVSPropertyOp8
 70
     1
102
RTVSPropertyOp9
 70
     1
102
RTVSPropertyOp10
 70
     1
102
RTVSPropertyOp11
 70
     1
102
RTVSPropertyOp12
 70
     1
102
RTVSPropertyOp13
 70
     1
102
RTVSPropertyOp14
 70
     1
102
RTVSPropertyOp15
 70
     1
102
RTVSPropertyOp16
 70
     1
102
RTVSPropertyOp17
 70
     1
102
RTVSPropertyOp18
 70
     1
102
RTVSPropertyOp19
 70
     1
102
RTVSPropertyOp20
 70
     1
102
RTVSPropertyOp21
 70
     1
102
RTVSPropertyOp22
 70
     1
102
RTVSPropertyOp23
 70
     1
102
RTVSPropertyOp24
 70
     1
102
RTVSPropertyOp25
 70
     1
102
RTVSPropertyOp26
 70
     1
102
RTVSPropertyOp27
 70
     1
102
RTVSPropertyOp28
 70
     1
102
RTVSPropertyOp29
 70
     1
102
RTVSPropertyOp30
 70
     1
102
RTVSPropertyOp31
 70
     1
102
RTVSPropertyOp32
 70
     1
  0
XRECORD
  5
45D
102
{ACAD_REACTORS
330
45C
102
}
330
45C
100
AcDbXrecord
280
     1
102
RTVSPropertyOp0
 70
     1
102
RTVSPropertyOp1
 70
     1
102
RTVSPropertyOp2
 70
     1
102
RTVSPropertyOp3
 70
     1
102
RTVSPropertyOp4
 70
     1
102
RTVSPropertyOp5
 70
     1
102
RTVSPropertyOp6
 70
     1
102
RTVSPropertyOp7
 70
     1
102
RTVSPropertyOp8
 70
     1
102
RTVSPropertyOp9
 70
     1
102
RTVSPropertyOp10
 70
     1
102
RTVSPropertyOp11
 70
     1
102
RTVSPropertyOp12
 70
     1
102
RTVSPropertyOp13
 70
     1
102
RTVSPropertyOp14
 70
     1
102
RTVSPropertyOp15
 70
     1
102
RTVSPropertyOp16
 70
     1
102
RTVSPropertyOp17
 70
     1
102
RTVSPropertyOp18
 70
     1
102
RTVSPropertyOp19
 70
     1
102
RTVSPropertyOp20
 70
     1
102
RTVSPropertyOp21
 70
     1
102
RTVSPropertyOp22
 70
     1
102
RTVSPropertyOp23
 70
     1
102
RTVSPropertyOp24
 70
     1
102
RTVSPropertyOp25
 70
     1
102
RTVSPropertyOp26
 70
     1
102
RTVSPropertyOp27
 70
     1
102
RTVSPropertyOp28
 70
     1
102
RTVSPropertyOp29
 70
     1
102
RTVSPropertyOp30
 70
     1
102
RTVSPropertyOp31
 70
     1
102
RTVSPropertyOp32
 70
     1
  0
XRECORD
  5
465
102
{ACAD_REACTORS
330
464
102
}
330
464
100
AcDbXrecord
280
     1
102
RTVSPropertyOp0
 70
     1
102
RTVSPropertyOp1
 70
     1
102
RTVSPropertyOp2
 70
     1
102
RTVSPropertyOp3
 70
     1
102
RTVSPropertyOp4
 70
     1
102
RTVSPropertyOp5
 70
     1
102
RTVSPropertyOp6
 70
     1
102
RTVSPropertyOp7
 70
     1
102
RTVSPropertyOp8
 70
     1
102
RTVSPropertyOp9
 70
     1
102
RTVSPropertyOp10
 70
     1
102
RTVSPropertyOp11
 70
     1
102
RTVSPropertyOp12
 70
     1
102
RTVSPropertyOp13
 70
     1
102
RTVSPropertyOp14
 70
     1
102
RTVSPropertyOp15
 70
     1
102
RTVSPropertyOp16
 70
     1
102
RTVSPropertyOp17
 70
     1
102
RTVSPropertyOp18
 70
     1
102
RTVSPropertyOp19
 70
     1
102
RTVSPropertyOp20
 70
     1
102
RTVSPropertyOp21
 70
     1
102
RTVSPropertyOp22
 70
     1
102
RTVSPropertyOp23
 70
     1
102
RTVSPropertyOp24
 70
     1
102
RTVSPropertyOp25
 70
     1
102
RTVSPropertyOp26
 70
     1
102
RTVSPropertyOp27
 70
     1
102
RTVSPropertyOp28
 70
     1
102
RTVSPropertyOp29
 70
     1
102
RTVSPropertyOp30
 70
     1
102
RTVSPropertyOp31
 70
     1
102
RTVSPropertyOp32
 70
     1
  0
XRECORD
  5
46D
102
{ACAD_REACTORS
330
46C
102
}
330
46C
100
AcDbXrecord
280
     1
102
RTVSPropertyOp0
 70
     1
102
RTVSPropertyOp1
 70
     1
102
RTVSPropertyOp2
 70
     1
102
RTVSPropertyOp3
 70
     1
102
RTVSPropertyOp4
 70
     1
102
RTVSPropertyOp5
 70
     1
102
RTVSPropertyOp6
 70
     1
102
RTVSPropertyOp7
 70
     1
102
RTVSPropertyOp8
 70
     1
102
RTVSPropertyOp9
 70
     1
102
RTVSPropertyOp10
 70
     1
102
RTVSPropertyOp11
 70
     1
102
RTVSPropertyOp12
 70
     1
102
RTVSPropertyOp13
 70
     1
102
RTVSPropertyOp14
 70
     1
102
RTVSPropertyOp15
 70
     1
102
RTVSPropertyOp16
 70
     1
102
RTVSPropertyOp17
 70
     1
102
RTVSPropertyOp18
 70
     1
102
RTVSPropertyOp19
 70
     1
102
RTVSPropertyOp20
 70
     1
102
RTVSPropertyOp21
 70
     1
102
RTVSPropertyOp22
 70
     1
102
RTVSPropertyOp23
 70
     1
102
RTVSPropertyOp24
 70
     1
102
RTVSPropertyOp25
 70
     1
102
RTVSPropertyOp26
 70
     1
102
RTVSPropertyOp27
 70
     1
102
RTVSPropertyOp28
 70
     1
102
RTVSPropertyOp29
 70
     1
102
RTVSPropertyOp30
 70
     1
102
RTVSPropertyOp31
 70
     1
102
RTVSPropertyOp32
 70
     1
  0
XRECORD
  5
461
102
{ACAD_REACTORS
330
460
102
}
330
460
100
AcDbXrecord
280
     1
102
RTVSPropertyOp0
 70
     1
102
RTVSPropertyOp1
 70
     1
102
RTVSPropertyOp2
 70
     1
102
RTVSPropertyOp3
 70
     1
102
RTVSPropertyOp4
 70
     1
102
RTVSPropertyOp5
 70
     1
102
RTVSPropertyOp6
 70
     1
102
RTVSPropertyOp7
 70
     1
102
RTVSPropertyOp8
 70
     1
102
RTVSPropertyOp9
 70
     1
102
RTVSPropertyOp10
 70
     1
102
RTVSPropertyOp11
 70
     1
102
RTVSPropertyOp12
 70
     1
102
RTVSPropertyOp13
 70
     1
102
RTVSPropertyOp14
 70
     1
102
RTVSPropertyOp15
 70
     1
102
RTVSPropertyOp16
 70
     1
102
RTVSPropertyOp17
 70
     1
102
RTVSPropertyOp18
 70
     1
102
RTVSPropertyOp19
 70
     1
102
RTVSPropertyOp20
 70
     1
102
RTVSPropertyOp21
 70
     1
102
RTVSPropertyOp22
 70
     1
102
RTVSPropertyOp23
 70
     1
102
RTVSPropertyOp24
 70
     1
102
RTVSPropertyOp25
 70
     1
102
RTVSPropertyOp26
 70
     1
102
RTVSPropertyOp27
 70
     1
102
RTVSPropertyOp28
 70
     1
102
RTVSPropertyOp29
 70
     1
102
RTVSPropertyOp30
 70
     1
102
RTVSPropertyOp31
 70
     1
102
RTVSPropertyOp32
 70
     1
  0
XRECORD
  5
463
102
{ACAD_REACTORS
330
462
102
}
330
462
100
AcDbXrecord
280
     1
102
RTVSPropertyOp0
 70
     1
102
RTVSPropertyOp1
 70
     1
102
RTVSPropertyOp2
 70
     1
102
RTVSPropertyOp3
 70
     1
102
RTVSPropertyOp4
 70
     1
102
RTVSPropertyOp5
 70
     1
102
RTVSPropertyOp6
 70
     1
102
RTVSPropertyOp7
 70
     1
102
RTVSPropertyOp8
 70
     1
102
RTVSPropertyOp9
 70
     1
102
RTVSPropertyOp10
 70
     1
102
RTVSPropertyOp11
 70
     1
102
RTVSPropertyOp12
 70
     1
102
RTVSPropertyOp13
 70
     1
102
RTVSPropertyOp14
 70
     1
102
RTVSPropertyOp15
 70
     1
102
RTVSPropertyOp16
 70
     1
102
RTVSPropertyOp17
 70
     1
102
RTVSPropertyOp18
 70
     1
102
RTVSPropertyOp19
 70
     1
102
RTVSPropertyOp20
 70
     1
102
RTVSPropertyOp21
 70
     1
102
RTVSPropertyOp22
 70
     1
102
RTVSPropertyOp23
 70
     1
102
RTVSPropertyOp24
 70
     1
102
RTVSPropertyOp25
 70
     1
102
RTVSPropertyOp26
 70
     1
102
RTVSPropertyOp27
 70
     1
102
RTVSPropertyOp28
 70
     1
102
RTVSPropertyOp29
 70
     1
102
RTVSPropertyOp30
 70
     1
102
RTVSPropertyOp31
 70
     1
102
RTVSPropertyOp32
 70
     1
  0
XRECORD
  5
46B
102
{ACAD_REACTORS
330
46A
102
}
330
46A
100
AcDbXrecord
280
     1
102
RTVSPropertyOp0
 70
     1
102
RTVSPropertyOp1
 70
     1
102
RTVSPropertyOp2
 70
     1
102
RTVSPropertyOp3
 70
     1
102
RTVSPropertyOp4
 70
     1
102
RTVSPropertyOp5
 70
     1
102
RTVSPropertyOp6
 70
     1
102
RTVSPropertyOp7
 70
     1
102
RTVSPropertyOp8
 70
     1
102
RTVSPropertyOp9
 70
     1
102
RTVSPropertyOp10
 70
     1
102
RTVSPropertyOp11
 70
     1
102
RTVSPropertyOp12
 70
     1
102
RTVSPropertyOp13
 70
     1
102
RTVSPropertyOp14
 70
     1
102
RTVSPropertyOp15
 70
     1
102
RTVSPropertyOp16
 70
     1
102
RTVSPropertyOp17
 70
     1
102
RTVSPropertyOp18
 70
     1
102
RTVSPropertyOp19
 70
     1
102
RTVSPropertyOp20
 70
     1
102
RTVSPropertyOp21
 70
     1
102
RTVSPropertyOp22
 70
     1
102
RTVSPropertyOp23
 70
     1
102
RTVSPropertyOp24
 70
     1
102
RTVSPropertyOp25
 70
     1
102
RTVSPropertyOp26
 70
     1
102
RTVSPropertyOp27
 70
     1
102
RTVSPropertyOp28
 70
     1
102
RTVSPropertyOp29
 70
     1
102
RTVSPropertyOp30
 70
     1
102
RTVSPropertyOp31
 70
     1
102
RTVSPropertyOp32
 70
     1
  0
XRECORD
  5
44F
102
{ACAD_REACTORS
330
44E
102
}
330
44E
100
AcDbXrecord
280
     1
102
RTVSPropertyOp0
 70
     1
102
RTVSPropertyOp1
 70
     1
102
RTVSPropertyOp2
 70
     1
102
RTVSPropertyOp3
 70
     1
102
RTVSPropertyOp4
 70
     1
102
RTVSPropertyOp5
 70
     1
102
RTVSPropertyOp6
 70
     1
102
RTVSPropertyOp7
 70
     1
102
RTVSPropertyOp8
 70
     1
102
RTVSPropertyOp9
 70
     1
102
RTVSPropertyOp10
 70
     1
102
RTVSPropertyOp11
 70
     1
102
RTVSPropertyOp12
 70
     1
102
RTVSPropertyOp13
 70
     1
102
RTVSPropertyOp14
 70
     1
102
RTVSPropertyOp15
 70
     1
102
RTVSPropertyOp16
 70
     1
102
RTVSPropertyOp17
 70
     1
102
RTVSPropertyOp18
 70
     1
102
RTVSPropertyOp19
 70
     1
102
RTVSPropertyOp20
 70
     1
102
RTVSPropertyOp21
 70
     1
102
RTVSPropertyOp22
 70
     1
102
RTVSPropertyOp23
 70
     1
102
RTVSPropertyOp24
 70
     1
102
RTVSPropertyOp25
 70
     1
102
RTVSPropertyOp26
 70
     1
102
RTVSPropertyOp27
 70
     1
102
RTVSPropertyOp28
 70
     1
102
RTVSPropertyOp29
 70
     1
102
RTVSPropertyOp30
 70
     1
102
RTVSPropertyOp31
 70
     1
102
RTVSPropertyOp32
 70
     1
  0
XRECORD
  5
451
102
{ACAD_REACTORS
330
450
102
}
330
450
100
AcDbXrecord
280
     1
102
RTVSPropertyOp0
 70
     1
102
RTVSPropertyOp1
 70
     1
102
RTVSPropertyOp2
 70
     1
102
RTVSPropertyOp3
 70
     1
102
RTVSPropertyOp4
 70
     1
102
RTVSPropertyOp5
 70
     1
102
RTVSPropertyOp6
 70
     1
102
RTVSPropertyOp7
 70
     1
102
RTVSPropertyOp8
 70
     1
102
RTVSPropertyOp9
 70
     1
102
RTVSPropertyOp10
 70
     1
102
RTVSPropertyOp11
 70
     1
102
RTVSPropertyOp12
 70
     1
102
RTVSPropertyOp13
 70
     1
102
RTVSPropertyOp14
 70
     1
102
RTVSPropertyOp15
 70
     1
102
RTVSPropertyOp16
 70
     1
102
RTVSPropertyOp17
 70
     1
102
RTVSPropertyOp18
 70
     1
102
RTVSPropertyOp19
 70
     1
102
RTVSPropertyOp20
 70
     1
102
RTVSPropertyOp21
 70
     1
102
RTVSPropertyOp22
 70
     1
102
RTVSPropertyOp23
 70
     1
102
RTVSPropertyOp24
 70
     1
102
RTVSPropertyOp25
 70
     1
102
RTVSPropertyOp26
 70
     1
102
RTVSPropertyOp27
 70
     1
102
RTVSPropertyOp28
 70
     1
102
RTVSPropertyOp29
 70
     1
102
RTVSPropertyOp30
 70
     1
102
RTVSPropertyOp31
 70
     1
102
RTVSPropertyOp32
 70
     1
  0
XRECORD
  5
453
102
{ACAD_REACTORS
330
452
102
}
330
452
100
AcDbXrecord
280
     1
102
RTVSPropertyOp0
 70
     1
102
RTVSPropertyOp1
 70
     1
102
RTVSPropertyOp2
 70
     1
102
RTVSPropertyOp3
 70
     1
102
RTVSPropertyOp4
 70
     1
102
RTVSPropertyOp5
 70
     1
102
RTVSPropertyOp6
 70
     1
102
RTVSPropertyOp7
 70
     1
102
RTVSPropertyOp8
 70
     1
102
RTVSPropertyOp9
 70
     1
102
RTVSPropertyOp10
 70
     1
102
RTVSPropertyOp11
 70
     1
102
RTVSPropertyOp12
 70
     1
102
RTVSPropertyOp13
 70
     1
102
RTVSPropertyOp14
 70
     1
102
RTVSPropertyOp15
 70
     1
102
RTVSPropertyOp16
 70
     1
102
RTVSPropertyOp17
 70
     1
102
RTVSPropertyOp18
 70
     1
102
RTVSPropertyOp19
 70
     1
102
RTVSPropertyOp20
 70
     1
102
RTVSPropertyOp21
 70
     1
102
RTVSPropertyOp22
 70
     1
102
RTVSPropertyOp23
 70
     1
102
RTVSPropertyOp24
 70
     1
102
RTVSPropertyOp25
 70
     1
102
RTVSPropertyOp26
 70
     1
102
RTVSPropertyOp27
 70
     1
102
RTVSPropertyOp28
 70
     1
102
RTVSPropertyOp29
 70
     1
102
RTVSPropertyOp30
 70
     1
102
RTVSPropertyOp31
 70
     1
102
RTVSPropertyOp32
 70
     1
  0
XRECORD
  5
455
102
{ACAD_REACTORS
330
454
102
}
330
454
100
AcDbXrecord
280
     1
102
RTVSPropertyOp0
 70
     1
102
RTVSPropertyOp1
 70
     1
102
RTVSPropertyOp2
 70
     1
102
RTVSPropertyOp3
 70
     1
102
RTVSPropertyOp4
 70
     1
102
RTVSPropertyOp5
 70
     1
102
RTVSPropertyOp6
 70
     1
102
RTVSPropertyOp7
 70
     1
102
RTVSPropertyOp8
 70
     1
102
RTVSPropertyOp9
 70
     1
102
RTVSPropertyOp10
 70
     1
102
RTVSPropertyOp11
 70
     1
102
RTVSPropertyOp12
 70
     1
102
RTVSPropertyOp13
 70
     1
102
RTVSPropertyOp14
 70
     1
102
RTVSPropertyOp15
 70
     1
102
RTVSPropertyOp16
 70
     1
102
RTVSPropertyOp17
 70
     1
102
RTVSPropertyOp18
 70
     1
102
RTVSPropertyOp19
 70
     1
102
RTVSPropertyOp20
 70
     1
102
RTVSPropertyOp21
 70
     1
102
RTVSPropertyOp22
 70
     1
102
RTVSPropertyOp23
 70
     1
102
RTVSPropertyOp24
 70
     1
102
RTVSPropertyOp25
 70
     1
102
RTVSPropertyOp26
 70
     1
102
RTVSPropertyOp27
 70
     1
102
RTVSPropertyOp28
 70
     1
102
RTVSPropertyOp29
 70
     1
102
RTVSPropertyOp30
 70
     1
102
RTVSPropertyOp31
 70
     1
102
RTVSPropertyOp32
 70
     1
  0
XRECORD
  5
469
102
{ACAD_REACTORS
330
468
102
}
330
468
100
AcDbXrecord
280
     1
102
RTVSPropertyOp0
 70
     1
102
RTVSPropertyOp1
 70
     1
102
RTVSPropertyOp2
 70
     1
102
RTVSPropertyOp3
 70
     1
102
RTVSPropertyOp4
 70
     1
102
RTVSPropertyOp5
 70
     1
102
RTVSPropertyOp6
 70
     1
102
RTVSPropertyOp7
 70
     1
102
RTVSPropertyOp8
 70
     1
102
RTVSPropertyOp9
 70
     1
102
RTVSPropertyOp10
 70
     1
102
RTVSPropertyOp11
 70
     1
102
RTVSPropertyOp12
 70
     1
102
RTVSPropertyOp13
 70
     1
102
RTVSPropertyOp14
 70
     1
102
RTVSPropertyOp15
 70
     1
102
RTVSPropertyOp16
 70
     1
102
RTVSPropertyOp17
 70
     1
102
RTVSPropertyOp18
 70
     1
102
RTVSPropertyOp19
 70
     1
102
RTVSPropertyOp20
 70
     1
102
RTVSPropertyOp21
 70
     1
102
RTVSPropertyOp22
 70
     1
102
RTVSPropertyOp23
 70
     1
102
RTVSPropertyOp24
 70
     1
102
RTVSPropertyOp25
 70
     1
102
RTVSPropertyOp26
 70
     1
102
RTVSPropertyOp27
 70
     1
102
RTVSPropertyOp28
 70
     1
102
RTVSPropertyOp29
 70
     1
102
RTVSPropertyOp30
 70
     1
102
RTVSPropertyOp31
 70
     1
102
RTVSPropertyOp32
 70
     1
  0
XRECORD
  5
45F
102
{ACAD_REACTORS
330
45E
102
}
330
45E
100
AcDbXrecord
280
     1
102
RTVSPropertyOp0
 70
     1
102
RTVSPropertyOp1
 70
     1
102
RTVSPropertyOp2
 70
     1
102
RTVSPropertyOp3
 70
     1
102
RTVSPropertyOp4
 70
     1
102
RTVSPropertyOp5
 70
     1
102
RTVSPropertyOp6
 70
     1
102
RTVSPropertyOp7
 70
     1
102
RTVSPropertyOp8
 70
     1
102
RTVSPropertyOp9
 70
     1
102
RTVSPropertyOp10
 70
     1
102
RTVSPropertyOp11
 70
     1
102
RTVSPropertyOp12
 70
     1
102
RTVSPropertyOp13
 70
     1
102
RTVSPropertyOp14
 70
     1
102
RTVSPropertyOp15
 70
     1
102
RTVSPropertyOp16
 70
     1
102
RTVSPropertyOp17
 70
     1
102
RTVSPropertyOp18
 70
     1
102
RTVSPropertyOp19
 70
     1
102
RTVSPropertyOp20
 70
     1
102
RTVSPropertyOp21
 70
     1
102
RTVSPropertyOp22
 70
     1
102
RTVSPropertyOp23
 70
     1
102
RTVSPropertyOp24
 70
     1
102
RTVSPropertyOp25
 70
     1
102
RTVSPropertyOp26
 70
     1
102
RTVSPropertyOp27
 70
     1
102
RTVSPropertyOp28
 70
     1
102
RTVSPropertyOp29
 70
     1
102
RTVSPropertyOp30
 70
     1
102
RTVSPropertyOp31
 70
     1
102
RTVSPropertyOp32
 70
     1
  0
XRECORD
  5
467
102
{ACAD_REACTORS
330
466
102
}
330
466
100
AcDbXrecord
280
     1
102
RTVSPropertyOp0
 70
     1
102
RTVSPropertyOp1
 70
     1
102
RTVSPropertyOp2
 70
     1
102
RTVSPropertyOp3
 70
     1
102
RTVSPropertyOp4
 70
     1
102
RTVSPropertyOp5
 70
     1
102
RTVSPropertyOp6
 70
     1
102
RTVSPropertyOp7
 70
     1
102
RTVSPropertyOp8
 70
     1
102
RTVSPropertyOp9
 70
     1
102
RTVSPropertyOp10
 70
     1
102
RTVSPropertyOp11
 70
     1
102
RTVSPropertyOp12
 70
     1
102
RTVSPropertyOp13
 70
     1
102
RTVSPropertyOp14
 70
     1
102
RTVSPropertyOp15
 70
     1
102
RTVSPropertyOp16
 70
     1
102
RTVSPropertyOp17
 70
     1
102
RTVSPropertyOp18
 70
     1
102
RTVSPropertyOp19
 70
     1
102
RTVSPropertyOp20
 70
     1
102
RTVSPropertyOp21
 70
     1
102
RTVSPropertyOp22
 70
     1
102
RTVSPropertyOp23
 70
     1
102
RTVSPropertyOp24
 70
     1
102
RTVSPropertyOp25
 70
     1
102
RTVSPropertyOp26
 70
     1
102
RTVSPropertyOp27
 70
     1
102
RTVSPropertyOp28
 70
     1
102
RTVSPropertyOp29
 70
     1
102
RTVSPropertyOp30
 70
     1
102
RTVSPropertyOp31
 70
     1
102
RTVSPropertyOp32
 70
     1
  0
ENDSEC
  0
EOF
