  0
SECTION
  2
HEADER
  9
$ACADVER
  1
AC1009
  9
$DWGCODEPAGE
  3
ansi_1252
  9
$INSBASE
 10
0.0
 20
0.0
 30
0.0
  9
$EXTMIN
 10
0.0
 20
0.0
 30
0.0
  9
$EXTMAX
 10
210.0
 20
297.0
 30
0.0
  9
$LIMMIN
 10
0.0
 20
0.0
  9
$LIMMAX
 10
210.0
 20
297.0
  9
$ORTHOMODE
 70
         0
  9
$REGENMODE
 70
         1
  9
$FILLMODE
 70
         1
  9
$QTEXTMODE
 70
         0
  9
$MIRRTEXT
 70
         1
  9
$DRAGMODE
 70
         2
  9
$LTSCALE
 40
25.4
  9
$OSMODE
 70
         0
  9
$ATTMODE
 70
         1
  9
$TEXTSIZE
 40
0.2
  9
$TRACEWID
 40
0.05
  9
$TEXTSTYLE
  7
Standard
  9
$CLAYER
  8
0
  9
$CELTYPE
  6
CONTINUOUS
  9
$CECOLOR
 62
       256
  9
$DIMSCALE
 40
1.0
  9
$DIMASZ
 40
0.18
  9
$DIMEXO
 40
0.0625
  9
$DIMDLI
 40
0.38
  9
$DIMRND
 40
0.0
  9
$DIMDLE
 40
0.0
  9
$DIMEXE
 40
0.18
  9
$DIMTP
 40
0.0
  9
$DIMTM
 40
0.0
  9
$DIMTXT
 40
0.18
  9
$DIMCEN
 40
0.09
  9
$DIMTSZ
 40
0.0
  9
$DIMTOL
 70
         0
  9
$DIMLIM
 70
         0
  9
$DIMTIH
 70
         1
  9
$DIMTOH
 70
         1
  9
$DIMSE1
 70
         0
  9
$DIMSE2
 70
         0
  9
$DIMTAD
 70
         0
  9
$DIMZIN
 70
         0
  9
$DIMBLK
  1

  9
$DIMASO
 70
         1
  9
$DIMSHO
 70
         1
  9
$DIMPOST
  1

  9
$DIMAPOST
  1

  9
$DIMALT
 70
         0
  9
$DIMALTD
 70
         2
  9
$DIMALTF
 40
25.4
  9
$DIMLFAC
 40
1.0
  9
$DIMTOFL
 70
         0
  9
$DIMTVP
 40
0.0
  9
$DIMTIX
 70
         0
  9
$DIMSOXD
 70
         0
  9
$DIMSAH
 70
         0
  9
$DIMBLK1
  1

  9
$DIMBLK2
  1

  9
$DIMSTYLE
  2
Standard
  9
$DIMCLRD
 70
         0
  9
$DIMCLRE
 70
         0
  9
$DIMCLRT
 70
         0
  9
$DIMTFAC
 40
1.0
  9
$DIMGAP
 40
0.09
  9
$LUNITS
 70
         2
  9
$LUPREC
 70
         4
  9
$AXISMODE
 70
         0
  9
$AXISUNIT
 10
0.0
 20
0.0
  9
$SKETCHINC
 40
0.1
  9
$FILLETRAD
 40
0.0
  9
$AUNITS
 70
         0
  9
$AUPREC
 70
         0
  9
$MENU
  1
acad
  9
$ELEVATION
 40
0.0
  9
$PELEVATION
 40
0.0
  9
$THICKNESS
 40
0.0
  9
$LIMCHECK
 70
         0
  9
$BLIPMODE
 70
         1
  9
$CHAMFERA
 40
0.0
  9
$CHAMFERB
 40
0.0
  9
$SKPOLY
 70
         0
  9
$TDCREATE
 40
0.000000000
  9
$TDUPDATE
 40
0.000000000
  9
$TDINDWG
 40
0.0000000000
  9
$TDUSRTIMER
 40
0.0000000000
  9
$USRTIMER
 70
         1
  9
$ANGBASE
 50
0.0
  9
$ANGDIR
 70
         0
  9
$PDMODE
 70
         0
  9
$PDSIZE
 40
0.0
  9
$PLINEWID
 40
0.0
  9
$COORDS
 70
         0
  9
$SPLFRAME
 70
         0
  9
$SPLINETYPE
 70
         6
  9
$SPLINESEGS
 70
         8
  9
$ATTDIA
 70
         0
  9
$ATTREQ
 70
         1
  9
$HANDLING
 70
         1
  9
$HANDSEED
  5
B01
  9
$SURFTAB1
 70
         6
  9
$SURFTAB2
 70
         6
  9
$SURFTYPE
 70
         6
  9
$SURFU
 70
         6
  9
$SURFV
 70
         6
  9
$UCSNAME
  2

  9
$UCSORG
 10
0.0
 20
0.0
 30
0.0
  9
$UCSXDIR
 10
1.0
 20
0.0
 30
0.0
  9
$UCSYDIR
 10
0.0
 20
1.0
 30
0.0
  9
$PUCSNAME
  2

  9
$PUCSORG
 10
0.0
 20
0.0
 30
0.0
  9
$PUCSXDIR
 10
1.0
 20
0.0
 30
0.0
  9
$PUCSYDIR
 10
0.0
 20
1.0
 30
0.0
  9
$USERI1
 70
         0
  9
$USERI2
 70
         0
  9
$USERI3
 70
         0
  9
$USERI4
 70
         0
  9
$USERI5
 70
         0
  9
$USERR1
 40
0.0
  9
$USERR2
 40
0.0
  9
$USERR3
 40
0.0
  9
$USERR4
 40
0.0
  9
$USERR5
 40
0.0
  9
$WORLDVIEW
 70
         1
  9
$SHADEDGE
 70
         3
  9
$SHADEDIF
 70
        70
  9
$TILEMODE
 70
         1
  9
$MAXACTVP
 70
        16
  9
$PINSBASE
 10
0.0
 20
0.0
 30
0.0
  9
$PLIMCHECK
 70
         0
  9
$PEXTMIN
 10
1.0000000000E+20
 20
1.0000000000E+20
 30
1.0000000000E+20
  9
$PEXTMAX
 10
-1.0000000000E+20
 20
-1.0000000000E+20
 30
-1.0000000000E+20
  9
$PLIMMIN
 10
0.0
 20
0.0
  9
$PLIMMAX
 10
12.0
 20
9.0
  9
$UNITMODE
 70
         0
  9
$VISRETAIN
 70
         0
  9
$PLINEGEN
 70
         1
  9
$PSLTSCALE
 70
         0
  9
$TREEDEPTH
 70
      3020
  9
$DWGCODEPAGE
  3
ansi_1252
  0
ENDSEC
  0
SECTION
  2
TABLES
  0
TABLE
  2
VPORT
 70
         1
  0
VPORT
  2
*ACTIVE
 70
         0
 10
0.0
 20
0.0
 11
1.0
 21
1.0
 12
105.0
 22
148.5
 13
0.0
 23
0.0
 14
1.0
 24
1.0
 15
0.0
 25
0.0
 16
0.0
 26
0.0
 36
1.0
 17
0.0
 27
0.0
 37
0.0
 40
297.0
 41
1.604229
 42
50.0
 43
0.0
 44
0.0
 50
0.0
 51
0.0
 71
         0
 72
       100
 73
         1
 74
         1
 75
         0
 76
         0
 77
         0
 78
         0
  0
ENDTAB
  0
TABLE
  2
LTYPE
 70
         5
  0
LTYPE
  2
CONTINUOUS
 70
         0
  3
Solid line
 72
        65
 73
         0
 40
0.0
  0
LTYPE
  2
HIDDEN2
 70
        64
  3
_ _ _ _ _ _ _ _ _ _ _ _ _ _ _ _ _ _ _ _ _ _ _ _
 72
        65
 73
         2
 40
0.1875
 49
0.125
 49
-0.0625
  0
LTYPE
  2
CENTER2
 70
        64
  3
___ _ ___ _ ___ _ ___ _ ___ _ ___ _ ___ _ ___ _
 72
        65
 73
         4
 40
1.125
 49
0.75
 49
-0.125
 49
0.125
 49
-0.125
  0
LTYPE
  2
PHANTOM2
 70
        64
  3
___ _ _ ___ _ _ ___ _ _ ___ _ _ ___ _ _ ___ _ _
 72
        65
 73
         6
 40
1.25
 49
0.625
 49
-0.125
 49
0.125
 49
-0.125
 49
0.125
 49
-0.125
  0
LTYPE
  2
DOT2
 70
        64
  3
...............................................
 72
        65
 73
         2
 40
0.125
 49
0.0
 49
-0.125
  0
ENDTAB
  0
TABLE
  2
LAYER
 70
         3
  0
LAYER
  2
0
 70
         0
 62
         7
  6
CONTINUOUS
  0
LAYER
  2
DEFAULT
 70
         0
 62
         7
  6
CONTINUOUS
  0
LAYER
  2
52572015
 70
         0
 62
         7
  6
CONTINUOUS
  0
ENDTAB
  0
TABLE
  2
STYLE
 70
         1
  0
STYLE
  2
Standard
 70
         0
 40
0.0
 41
1.0
 50
0.0
 71
         0
 42
0.2
  3
txt
  4

  0
ENDTAB
  0
TABLE
  2
VIEW
 70
         0
  0
ENDTAB
  0
TABLE
  2
UCS
 70
         0
  0
ENDTAB
  0
TABLE
  2
APPID
 70
         1
  0
APPID
  2
ACAD
 70
         0
  0
ENDTAB
  0
TABLE
  2
DIMSTYLE
 70
         1
  0
DIMSTYLE
  2
Standard
 70
         0
  3

  4

  5

  6

  7

 40
1.0
 41
0.18
 42
0.0625
 43
0.38
 44
0.18
 45
0.0
 46
0.0
 47
0.0
 48
0.0
 71
         0
 72
         0
 73
         1
 74
         1
 75
         0
 76
         0
 77
         0
 78
         0
140
0.18
141
0.09
142
0.0
143
25.4
144
1.0
145
0.0
146
1.0
147
0.09
170
         0
171
         2
172
         0
173
         0
174
         0
175
         0
176
         0
177
         0
178
         0
  0
ENDTAB
  0
ENDSEC
  0
SECTION
  2
BLOCKS
  0
BLOCK
  8
0
 62
         1
 48
0.0
  5
1D3
  2
SE0
 70
         0
 10
0.0
 20
0.0
 30
0.0
  3
SE0
  0
ENDBLK
  8
0
 62
         1
 48
0.0
  5
1D4
  0
BLOCK
  8
0
 62
         1
 48
0.0
  5
4E
  2
SE1
 70
         0
 10
0.0
 20
0.0
 30
0.0
  3
SE1
  0
LINE
  8
52572015
  6
CONTINUOUS
 62
         7
  5
4F
 10
357.3436480392
 20
220.4042590795
 30
0.0
 11
355.9436480392
 21
221.2125494563
 31
0.0
  0
LINE
  8
52572015
  6
CONTINUOUS
 62
         7
  5
50
 10
356.4436480392
 20
213.3625494563
 30
0.0
 11
356.4436480392
 21
214.7125494563
 31
0.0
  0
LINE
  8
52572015
  6
CONTINUOUS
 62
         7
  5
51
 10
357.3436480392
 20
215.6125494563
 30
0.0
 11
357.3436480392
 21
220.4042590795
 31
0.0
  0
LINE
  8
52572015
  6
CONTINUOUS
 62
         7
  5
52
 10
343.5436480392
 20
215.6125494563
 30
0.0
 11
344.4436480392
 21
214.7125494563
 31
0.0
  0
LINE
  8
52572015
  6
CONTINUOUS
 62
         7
  5
53
 10
357.1936480392
 20
212.2125494563
 30
0.0
 11
357.1936480392
 21
213.3625494563
 31
0.0
  0
LINE
  8
52572015
  6
CONTINUOUS
 62
         7
  5
54
 10
332.3436480392
 20
220.4042590795
 30
0.0
 11
330.9436480392
 21
221.2125494563
 31
0.0
  0
LINE
  8
52572015
  6
CONTINUOUS
 62
         7
  5
55
 10
331.4436480392
 20
213.3625494563
 30
0.0
 11
331.4436480392
 21
214.7125494563
 31
0.0
  0
LINE
  8
52572015
  6
CONTINUOUS
 62
         7
  5
56
 10
332.3436480392
 20
215.6125494563
 30
0.0
 11
332.3436480392
 21
220.4042590795
 31
0.0
  0
LINE
  8
52572015
  6
CONTINUOUS
 62
         7
  5
57
 10
318.5436480392
 20
215.6125494563
 30
0.0
 11
319.4436480392
 21
214.7125494563
 31
0.0
  0
LINE
  8
52572015
  6
CONTINUOUS
 62
         7
  5
58
 10
332.1936480392
 20
212.2125494563
 30
0.0
 11
332.1936480392
 21
213.3625494563
 31
0.0
  0
LINE
  8
52572015
  6
CONTINUOUS
 62
         7
  5
59
 10
278.4538999089
 20
193.3749706851
 30
0.0
 11
275.1980110941
 21
190.1190818703
 31
0.0
  0
LINE
  8
52572015
  6
CONTINUOUS
 62
         7
  5
5A
 10
286.4001592207
 20
205.1163921611
 30
0.0
 11
289.7626910888
 21
199.2923161234
 31
0.0
  0
LINE
  8
52572015
  6
CONTINUOUS
 62
         7
  5
5B
 10
275.4037073929
 20
198.7675877381
 30
0.0
 11
278.7154133194
 21
192.9141673294
 31
0.0
  0
LINE
  8
52572015
  6
CONTINUOUS
 62
         7
  5
5C
 10
344.9436480392
 20
221.2125494563
 30
0.0
 11
355.9436480392
 21
221.2125494563
 31
0.0
  0
LINE
  8
52572015
  6
CONTINUOUS
 62
         7
  5
5D
 10
343.5436480392
 20
220.4042590795
 30
0.0
 11
357.3436480392
 21
220.4042590795
 31
0.0
  0
LINE
  8
52572015
  6
CONTINUOUS
 62
         7
  5
5E
 10
376.0936480392
 20
154.5830404265
 30
0.0
 11
376.0936480392
 21
151.9138987439
 31
0.0
  0
LINE
  8
52572015
  6
CONTINUOUS
 62
         7
  5
5F
 10
376.0936480392
 20
178.4938987439
 30
0.0
 11
376.0936480392
 21
175.8247570612
 31
0.0
  0
LINE
  8
52572015
  6
CONTINUOUS
 62
         7
  5
60
 10
376.0936480392
 20
154.5830404265
 30
0.0
 11
376.0936480392
 21
162.5347570612
 31
0.0
  0
LINE
  8
52572015
  6
CONTINUOUS
 62
         7
  5
61
 10
263.4436480392
 20
178.4938987439
 30
0.0
 11
263.4436480392
 21
176.1754381557
 31
0.0
  0
LINE
  8
52572015
  6
CONTINUOUS
 62
         7
  5
62
 10
376.0936480392
 20
167.8730404265
 30
0.0
 11
376.0936480392
 21
175.8247570612
 31
0.0
  0
LINE
  8
52572015
  6
CONTINUOUS
 62
         7
  5
63
 10
376.0936480392
 20
167.8730404265
 30
0.0
 11
376.0936480392
 21
162.5347570612
 31
0.0
  0
LINE
  8
52572015
  6
CONTINUOUS
 62
         7
  5
64
 10
263.4436480392
 20
154.2323593321
 30
0.0
 11
263.4436480392
 21
151.9138987439
 31
0.0
  0
LINE
  8
52572015
  6
CONTINUOUS
 62
         7
  5
65
 10
263.4436480392
 20
167.5223593321
 30
0.0
 11
263.4436480392
 21
162.8854381557
 31
0.0
  0
LINE
  8
52572015
  6
CONTINUOUS
 62
         7
  5
66
 10
263.4436480392
 20
176.1754381557
 30
0.0
 11
263.4436480392
 21
167.5223593321
 31
0.0
  0
LINE
  8
52572015
  6
CONTINUOUS
 62
         7
  5
67
 10
263.4436480392
 20
162.8854381557
 30
0.0
 11
263.4436480392
 21
154.2323593321
 31
0.0
  0
LINE
  8
52572015
  6
CONTINUOUS
 62
         7
  5
68
 10
317.295887679
 20
165.2230097331
 30
0.0
 11
319.795887679
 21
167.7230097331
 31
0.0
  0
LINE
  8
52572015
  6
CONTINUOUS
 62
         7
  5
69
 10
319.795887679
 20
162.7230097331
 30
0.0
 11
317.295887679
 21
165.2230097331
 31
0.0
  0
LINE
  8
52572015
  6
CONTINUOUS
 62
         7
  5
6A
 10
321.3743524419
 20
162.7230097331
 30
0.0
 11
319.795887679
 21
162.7230097331
 31
0.0
  0
LINE
  8
52572015
  6
CONTINUOUS
 62
         7
  5
6B
 10
321.3743524419
 20
164.4756950881
 30
0.0
 11
321.3743524419
 21
162.7230097331
 31
0.0
  0
LINE
  8
52572015
  6
CONTINUOUS
 62
         7
  5
6C
 10
325.8412112315
 20
164.4756950881
 30
0.0
 11
321.3743524419
 21
164.4756950881
 31
0.0
  0
LINE
  8
52572015
  6
CONTINUOUS
 62
         7
  5
6D
 10
325.8412112315
 20
165.9716343074
 30
0.0
 11
325.8412112315
 21
164.4756950881
 31
0.0
  0
LINE
  8
52572015
  6
CONTINUOUS
 62
         7
  5
6E
 10
319.795887679
 20
167.7230097331
 30
0.0
 11
321.3743524419
 21
167.7230097331
 31
0.0
  0
LINE
  8
52572015
  6
CONTINUOUS
 62
         7
  5
6F
 10
321.3743524419
 20
165.9716343074
 30
0.0
 11
325.8412112315
 21
165.9716343074
 31
0.0
  0
LINE
  8
52572015
  6
CONTINUOUS
 62
         7
  5
70
 10
321.3743524419
 20
167.7230097331
 30
0.0
 11
321.3743524419
 21
165.9716343074
 31
0.0
  0
LINE
  8
52572015
  6
CONTINUOUS
 62
         7
  5
71
 10
359.4436480392
 20
177.9538987439
 30
0.0
 11
359.4436480392
 21
187.7125494563
 31
0.0
  0
LINE
  8
52572015
  6
CONTINUOUS
 62
         7
  5
72
 10
316.4436480392
 20
187.7125494563
 30
0.0
 11
316.4436480392
 21
181.0765530644
 31
0.0
  0
LINE
  8
52572015
  6
CONTINUOUS
 62
         7
  5
73
 10
284.6005699773
 20
154.8538987439
 30
0.0
 11
354.8524851091
 21
154.8538987439
 31
0.0
  0
LINE
  8
52572015
  6
CONTINUOUS
 62
         7
  5
74
 10
289.2656183791
 20
167.7282218211
 30
0.0
 11
291.5321672339
 21
167.7282218211
 31
0.0
  0
LINE
  8
52572015
  6
CONTINUOUS
 62
         7
  5
75
 10
345.0209983084
 20
209.2125494563
 30
0.0
 11
344.4436480392
 21
208.2125494563
 31
0.0
  0
LINE
  8
52572015
  6
CONTINUOUS
 62
         7
  5
76
 10
356.4436480392
 20
187.7125494563
 30
0.0
 11
356.4436480392
 21
208.2125494563
 31
0.0
  0
LINE
  8
52572015
  6
CONTINUOUS
 62
         7
  5
77
 10
288.798552552
 20
166.2257329555
 30
0.0
 11
289.2656183791
 21
167.7282218211
 31
0.0
  0
LINE
  8
52572015
  6
CONTINUOUS
 62
         7
  5
78
 10
289.5051440964
 20
166.2257329555
 30
0.0
 11
288.798552552
 21
166.2257329555
 31
0.0
  0
LINE
  8
52572015
  6
CONTINUOUS
 62
         7
  5
79
 10
354.4436480392
 20
209.2125494563
 30
0.0
 11
354.4436480392
 21
212.2125494563
 31
0.0
  0
LINE
  8
52572015
  6
CONTINUOUS
 62
         7
  5
7A
 10
320.0209983084
 20
209.2125494563
 30
0.0
 11
319.4436480392
 21
208.2125494563
 31
0.0
  0
LINE
  8
52572015
  6
CONTINUOUS
 62
         7
  5
7B
 10
331.4436480392
 20
187.7125494563
 30
0.0
 11
331.4436480392
 21
208.2125494563
 31
0.0
  0
LINE
  8
52572015
  6
CONTINUOUS
 62
         7
  5
7C
 10
288.1744152538
 20
167.7282218211
 30
0.0
 11
289.0689376515
 21
164.7952901994
 31
0.0
  0
LINE
  8
52572015
  6
CONTINUOUS
 62
         7
  5
7D
 10
289.0689376515
 20
164.7952901994
 30
0.0
 11
289.5051440964
 21
166.2257329555
 31
0.0
  0
LINE
  8
52572015
  6
CONTINUOUS
 62
         7
  5
7E
 10
286.5991584229
 20
167.7282218211
 30
0.0
 11
288.1744152538
 21
167.7282218211
 31
0.0
  0
LINE
  8
52572015
  6
CONTINUOUS
 62
         7
  5
7F
 10
288.12849675
 20
162.7282218211
 30
0.0
 11
286.5991584229
 21
167.7282218211
 31
0.0
  0
LINE
  8
52572015
  6
CONTINUOUS
 62
         7
  5
80
 10
290.0028289068
 20
162.7282218211
 30
0.0
 11
288.1284967499
 21
162.7282218211
 31
0.0
  0
LINE
  8
52572015
  6
CONTINUOUS
 62
         7
  5
81
 10
329.4436480392
 20
209.2125494563
 30
0.0
 11
329.4436480392
 21
212.2125494563
 31
0.0
  0
LINE
  8
52572015
  6
CONTINUOUS
 62
         7
  5
82
 10
291.5321672339
 20
167.7282218211
 30
0.0
 11
290.0028289068
 21
162.7282218211
 31
0.0
  0
LINE
  8
52572015
  6
CONTINUOUS
 62
         7
  5
83
 10
263.218811439
 20
218.7676643069
 30
0.0
 11
266.718811439
 21
212.7054864804
 31
0.0
  0
LINE
  8
52572015
  6
CONTINUOUS
 62
         7
  5
84
 10
293.5685446728
 20
167.7282218211
 30
0.0
 11
293.5685446728
 21
164.2307106867
 31
0.0
  0
LINE
  8
52572015
  6
CONTINUOUS
 62
         7
  5
85
 10
292.0660558072
 20
164.2307106867
 30
0.0
 11
292.0660558072
 21
167.7282218211
 31
0.0
  0
LINE
  8
52572015
  6
CONTINUOUS
 62
         7
  5
86
 10
292.0660558072
 20
167.7282218211
 30
0.0
 11
293.5685446728
 21
167.7282218211
 31
0.0
  0
LINE
  8
52572015
  6
CONTINUOUS
 62
         7
  5
87
 10
291.1707559511
 20
164.2307106867
 30
0.0
 11
292.0660558072
 21
164.2307106867
 31
0.0
  0
LINE
  8
52572015
  6
CONTINUOUS
 62
         7
  5
88
 10
267.4116317621
 20
213.1054864804
 30
0.0
 11
275.2156035533
 21
199.5886108371
 31
0.0
  0
LINE
  8
52572015
  6
CONTINUOUS
 62
         7
  5
89
 10
293.5685446728
 20
164.2307106867
 30
0.0
 11
294.9186818964
 21
164.2307106867
 31
0.0
  0
LINE
  8
52572015
  6
CONTINUOUS
 62
         7
  5
8A
 10
290.7149447222
 20
162.7282218211
 30
0.0
 11
291.1707559511
 21
164.2307106867
 31
0.0
  0
LINE
  8
52572015
  6
CONTINUOUS
 62
         7
  5
8B
 10
294.4656843171
 20
162.7282218211
 30
0.0
 11
290.7149447222
 21
162.7282218211
 31
0.0
  0
LINE
  8
52572015
  6
CONTINUOUS
 62
         7
  5
8C
 10
294.9186818964
 20
164.2307106867
 30
0.0
 11
294.4656843171
 21
162.7282218211
 31
0.0
  0
LINE
  8
52572015
  6
CONTINUOUS
 62
         7
  5
8D
 10
334.3177677138
 20
185.2038987439
 30
0.0
 11
341.5695283645
 21
185.2038987439
 31
0.0
  0
LINE
  8
52572015
  6
CONTINUOUS
 62
         7
  5
8E
 10
341.5695283645
 20
185.2038987439
 30
0.0
 11
341.5695283645
 21
175.4446262571
 31
0.0
  0
LINE
  8
52572015
  6
CONTINUOUS
 62
         7
  5
8F
 10
334.3177677138
 20
175.4446262571
 30
0.0
 11
334.3177677138
 21
185.2038987439
 31
0.0
  0
LINE
  8
52572015
  6
CONTINUOUS
 62
         7
  5
90
 10
341.5695283645
 20
175.4446262571
 30
0.0
 11
334.3177677138
 21
175.4446262571
 31
0.0
  0
ARC
  8
52572015
  6
CONTINUOUS
 62
         7
  5
91
 10
425.3797415781
 20
124.8613580225
 30
0.0
 40
84.8043999857
 50
141.501866086
 51
146.2682151308
  0
POLYLINE
  8
52572015
  6
CONTINUOUS
 62
         7
  5
92
 66
         1
 10
0.0
 20
0.0
 30
0.0
 70
         4
  0
VERTEX
  8
52572015
  6
CONTINUOUS
 62
         7
  5
93
 10
359.0094070473
 20
177.6511766545
 30
0.0
 70
         8
  0
VERTEX
  8
52572015
  6
CONTINUOUS
 62
         7
  5
94
 10
359.1970701029
 20
177.7810409465
 30
0.0
 70
         8
  0
VERTEX
  8
52572015
  6
CONTINUOUS
 62
         7
  5
95
 10
359.3328338497
 20
177.8759200654
 30
0.0
 70
         8
  0
VERTEX
  8
52572015
  6
CONTINUOUS
 62
         7
  5
96
 10
359.3810169253
 20
177.9097651317
 30
0.0
 70
         8
  0
VERTEX
  8
52572015
  6
CONTINUOUS
 62
         7
  5
97
 10
359.4157587872
 20
177.9342275406
 30
0.0
 70
         8
  0
VERTEX
  8
52572015
  6
CONTINUOUS
 62
         7
  5
98
 10
359.4366390451
 20
177.9489512269
 30
0.0
 70
         8
  0
VERTEX
  8
52572015
  6
CONTINUOUS
 62
         7
  5
99
 10
359.4436480261
 20
177.953898734
 30
0.0
 70
         8
  0
SEQEND
  8
52572015
  6
CONTINUOUS
 62
         7
  5
9A
  0
POLYLINE
  8
52572015
  6
CONTINUOUS
 62
         7
  5
9B
 66
         1
 10
0.0
 20
0.0
 30
0.0
 70
         4
  0
VERTEX
  8
52572015
  6
CONTINUOUS
 62
         7
  5
9C
 10
341.5695283645
 20
175.4446262571
 30
0.0
 70
         8
  0
VERTEX
  8
52572015
  6
CONTINUOUS
 62
         7
  5
9D
 10
342.2233098815
 20
174.8826288464
 30
0.0
 70
         8
  0
VERTEX
  8
52572015
  6
CONTINUOUS
 62
         7
  5
9E
 10
343.3266594313
 20
173.9659776549
 30
0.0
 70
         8
  0
VERTEX
  8
52572015
  6
CONTINUOUS
 62
         7
  5
9F
 10
344.0050076466
 20
173.4221036164
 30
0.0
 70
         8
  0
VERTEX
  8
52572015
  6
CONTINUOUS
 62
         7
  5
A0
 10
344.7528050822
 20
172.8483225218
 30
0.0
 70
         8
  0
VERTEX
  8
52572015
  6
CONTINUOUS
 62
         7
  5
A1
 10
345.5683709362
 20
172.264413513
 30
0.0
 70
         8
  0
VERTEX
  8
52572015
  6
CONTINUOUS
 62
         7
  5
A2
 10
346.4500244067
 20
171.6901557321
 30
0.0
 70
         8
  0
VERTEX
  8
52572015
  6
CONTINUOUS
 62
         7
  5
A3
 10
346.9165117165
 20
171.4132731493
 30
0.0
 70
         8
  0
VERTEX
  8
52572015
  6
CONTINUOUS
 62
         7
  5
A4
 10
347.4024364252
 20
171.1502933645
 30
0.0
 70
         8
  0
VERTEX
  8
52572015
  6
CONTINUOUS
 62
         7
  5
A5
 10
347.908698219
 20
170.9084596443
 30
0.0
 70
         8
  0
VERTEX
  8
52572015
  6
CONTINUOUS
 62
         7
  5
A6
 10
348.436196784
 20
170.6950152553
 30
0.0
 70
         8
  0
VERTEX
  8
52572015
  6
CONTINUOUS
 62
         7
  5
A7
 10
348.9862654782
 20
170.5202601935
 30
0.0
 70
         8
  0
VERTEX
  8
52572015
  6
CONTINUOUS
 62
         7
  5
A8
 10
349.5545236172
 20
170.3947616491
 30
0.0
 70
         8
  0
VERTEX
  8
52572015
  6
CONTINUOUS
 62
         7
  5
A9
 10
350.1332998234
 20
170.3261636792
 30
0.0
 70
         8
  0
VERTEX
  8
52572015
  6
CONTINUOUS
 62
         7
  5
AA
 10
350.7149227193
 20
170.3221103409
 30
0.0
 70
         8
  0
VERTEX
  8
52572015
  6
CONTINUOUS
 62
         7
  5
AB
 10
351.2918706363
 20
170.3857841205
 30
0.0
 70
         8
  0
VERTEX
  8
52572015
  6
CONTINUOUS
 62
         7
  5
AC
 10
351.8583621755
 20
170.50861947
 30
0.0
 70
         8
  0
VERTEX
  8
52572015
  6
CONTINUOUS
 62
         7
  5
AD
 10
352.4093363636
 20
170.6806383955
 30
0.0
 70
         8
  0
VERTEX
  8
52572015
  6
CONTINUOUS
 62
         7
  5
AE
 10
352.9397322276
 20
170.891862903
 30
0.0
 70
         8
  0
VERTEX
  8
52572015
  6
CONTINUOUS
 62
         7
  5
AF
 10
353.4476787398
 20
171.1318424323
 30
0.0
 70
         8
  0
VERTEX
  8
52572015
  6
CONTINUOUS
 62
         7
  5
B0
 10
353.9352326228
 20
171.392796694
 30
0.0
 70
         8
  0
VERTEX
  8
52572015
  6
CONTINUOUS
 62
         7
  5
B1
 10
354.4032245286
 20
171.6687530997
 30
0.0
 70
         8
  0
VERTEX
  8
52572015
  6
CONTINUOUS
 62
         7
  5
B2
 10
354.8524851091
 20
171.9537390612
 30
0.0
 70
         8
  0
SEQEND
  8
52572015
  6
CONTINUOUS
 62
         7
  5
B3
  0
POLYLINE
  8
52572015
  6
CONTINUOUS
 62
         7
  5
B4
 66
         1
 10
0.0
 20
0.0
 30
0.0
 70
         4
  0
VERTEX
  8
52572015
  6
CONTINUOUS
 62
         7
  5
B5
 10
319.1240991518
 20
173.3315797255
 30
0.0
 70
         8
  0
VERTEX
  8
52572015
  6
CONTINUOUS
 62
         7
  5
B6
 10
320.004532868
 20
172.6671325693
 30
0.0
 70
         8
  0
VERTEX
  8
52572015
  6
CONTINUOUS
 62
         7
  5
B7
 10
320.9713993602
 20
171.9953277721
 30
0.0
 70
         8
  0
VERTEX
  8
52572015
  6
CONTINUOUS
 62
         7
  5
B8
 10
321.4865420122
 20
171.6669260678
 30
0.0
 70
         8
  0
VERTEX
  8
52572015
  6
CONTINUOUS
 62
         7
  5
B9
 10
322.0267228994
 20
171.3504218244
 30
0.0
 70
         8
  0
VERTEX
  8
52572015
  6
CONTINUOUS
 62
         7
  5
BA
 10
322.5925550108
 20
171.0555093183
 30
0.0
 70
         8
  0
VERTEX
  8
52572015
  6
CONTINUOUS
 62
         7
  5
BB
 10
323.1846513355
 20
170.7918828264
 30
0.0
 70
         8
  0
VERTEX
  8
52572015
  6
CONTINUOUS
 62
         7
  5
BC
 10
323.8056170503
 20
170.5729406102
 30
0.0
 70
         8
  0
VERTEX
  8
52572015
  6
CONTINUOUS
 62
         7
  5
BD
 10
324.4522735993
 20
170.4140208958
 30
0.0
 70
         8
  0
VERTEX
  8
52572015
  6
CONTINUOUS
 62
         7
  5
BE
 10
324.7827163709
 20
170.3610082967
 30
0.0
 70
         8
  0
VERTEX
  8
52572015
  6
CONTINUOUS
 62
         7
  5
BF
 10
325.1165583722
 20
170.3277279068
 30
0.0
 70
         8
  0
VERTEX
  8
52572015
  6
CONTINUOUS
 62
         7
  5
C0
 10
325.452791777
 20
170.3157552543
 30
0.0
 70
         8
  0
VERTEX
  8
52572015
  6
CONTINUOUS
 62
         7
  5
C1
 10
325.790408759
 20
170.3266658669
 30
0.0
 70
         8
  0
VERTEX
  8
52572015
  6
CONTINUOUS
 62
         7
  5
C2
 10
326.1260287541
 20
170.3604898882
 30
0.0
 70
         8
  0
VERTEX
  8
52572015
  6
CONTINUOUS
 62
         7
  5
C3
 10
326.456652017
 20
170.4149038011
 30
0.0
 70
         8
  0
VERTEX
  8
52572015
  6
CONTINUOUS
 62
         7
  5
C4
 10
326.7818419495
 20
170.4879526429
 30
0.0
 70
         8
  0
VERTEX
  8
52572015
  6
CONTINUOUS
 62
         7
  5
C5
 10
327.1011619534
 20
170.5776814508
 30
0.0
 70
         8
  0
VERTEX
  8
52572015
  6
CONTINUOUS
 62
         7
  5
C6
 10
327.7204457832
 20
170.7993591137
 30
0.0
 70
         8
  0
VERTEX
  8
52572015
  6
CONTINUOUS
 62
         7
  5
C7
 10
328.3110107212
 20
171.0642970879
 30
0.0
 70
         8
  0
VERTEX
  8
52572015
  6
CONTINUOUS
 62
         7
  5
C8
 10
328.8744696742
 20
171.3590019085
 30
0.0
 70
         8
  0
VERTEX
  8
52572015
  6
CONTINUOUS
 62
         7
  5
C9
 10
329.4145249108
 20
171.6750859008
 30
0.0
 70
         8
  0
VERTEX
  8
52572015
  6
CONTINUOUS
 62
         7
  5
CA
 10
329.930817689
 20
172.0045680474
 30
0.0
 70
         8
  0
VERTEX
  8
52572015
  6
CONTINUOUS
 62
         7
  5
CB
 10
330.4229892668
 20
172.339467331
 30
0.0
 70
         8
  0
VERTEX
  8
52572015
  6
CONTINUOUS
 62
         7
  5
CC
 10
331.3399003583
 20
173.0065292609
 30
0.0
 70
         8
  0
VERTEX
  8
52572015
  6
CONTINUOUS
 62
         7
  5
CD
 10
332.173261241
 20
173.6543539888
 30
0.0
 70
         8
  0
VERTEX
  8
52572015
  6
CONTINUOUS
 62
         7
  5
CE
 10
332.9089672208
 20
174.2509940342
 30
0.0
 70
         8
  0
VERTEX
  8
52572015
  6
CONTINUOUS
 62
         7
  5
CF
 10
333.5256135069
 20
174.7663600286
 30
0.0
 70
         8
  0
VERTEX
  8
52572015
  6
CONTINUOUS
 62
         7
  5
D0
 10
334.0046836613
 20
175.1744463402
 30
0.0
 70
         8
  0
VERTEX
  8
52572015
  6
CONTINUOUS
 62
         7
  5
D1
 10
334.3177677138
 20
175.4446262571
 30
0.0
 70
         8
  0
SEQEND
  8
52572015
  6
CONTINUOUS
 62
         7
  5
D2
  0
ARC
  8
52572015
  6
CONTINUOUS
 62
         7
  5
D3
 10
592.1813506688
 20
272.134898873
 30
0.0
 40
290.3831236153
 50
198.2744920022
 51
199.8922029506
  0
POLYLINE
  8
52572015
  6
CONTINUOUS
 62
         7
  5
D4
 66
         1
 10
0.0
 20
0.0
 30
0.0
 70
         4
  0
VERTEX
  8
52572015
  6
CONTINUOUS
 62
         7
  5
D5
 10
299.8722396081
 20
161.5872445864
 30
0.0
 70
         8
  0
VERTEX
  8
52572015
  6
CONTINUOUS
 62
         7
  5
D6
 10
299.730582093
 20
162.2932907953
 30
0.0
 70
         8
  0
VERTEX
  8
52572015
  6
CONTINUOUS
 62
         7
  5
D7
 10
299.5366993023
 20
162.9964653692
 30
0.0
 70
         8
  0
VERTEX
  8
52572015
  6
CONTINUOUS
 62
         7
  5
D8
 10
299.2900826827
 20
163.6941024593
 30
0.0
 70
         8
  0
VERTEX
  8
52572015
  6
CONTINUOUS
 62
         7
  5
D9
 10
298.9902236808
 20
164.3835362167
 30
0.0
 70
         8
  0
VERTEX
  8
52572015
  6
CONTINUOUS
 62
         7
  5
DA
 10
298.6420403155
 20
165.0554485177
 30
0.0
 70
         8
  0
VERTEX
  8
52572015
  6
CONTINUOUS
 62
         7
  5
DB
 10
298.2543385074
 20
165.7029078841
 30
0.0
 70
         8
  0
VERTEX
  8
52572015
  6
CONTINUOUS
 62
         7
  5
DC
 10
297.8324415559
 20
166.3268284352
 30
0.0
 70
         8
  0
VERTEX
  8
52572015
  6
CONTINUOUS
 62
         7
  5
DD
 10
297.3816727602
 20
166.9281242903
 30
0.0
 70
         8
  0
VERTEX
  8
52572015
  6
CONTINUOUS
 62
         7
  5
DE
 10
296.9094269754
 20
167.5066987915
 30
0.0
 70
         8
  0
VERTEX
  8
52572015
  6
CONTINUOUS
 62
         7
  5
DF
 10
296.421333975
 20
168.0627976846
 30
0.0
 70
         8
  0
VERTEX
  8
52572015
  6
CONTINUOUS
 62
         7
  5
E0
 10
295.9200694366
 20
168.5978486955
 30
0.0
 70
         8
  0
VERTEX
  8
52572015
  6
CONTINUOUS
 62
         7
  5
E1
 10
295.4083090377
 20
169.1132795497
 30
0.0
 70
         8
  0
VERTEX
  8
52572015
  6
CONTINUOUS
 62
         7
  5
E2
 10
294.3640033687
 20
170.0909916905
 30
0.0
 70
         8
  0
VERTEX
  8
52572015
  6
CONTINUOUS
 62
         7
  5
E3
 10
293.3098223882
 20
171.0073559122
 30
0.0
 70
         8
  0
VERTEX
  8
52572015
  6
CONTINUOUS
 62
         7
  5
E4
 10
292.2662627464
 20
171.8671863118
 30
0.0
 70
         8
  0
VERTEX
  8
52572015
  6
CONTINUOUS
 62
         7
  5
E5
 10
291.2469611829
 20
172.6699374435
 30
0.0
 70
         8
  0
VERTEX
  8
52572015
  6
CONTINUOUS
 62
         7
  5
E6
 10
290.2649024041
 20
173.416498719
 30
0.0
 70
         8
  0
VERTEX
  8
52572015
  6
CONTINUOUS
 62
         7
  5
E7
 10
289.3517670689
 20
174.0914414839
 30
0.0
 70
         8
  0
VERTEX
  8
52572015
  6
CONTINUOUS
 62
         7
  5
E8
 10
288.5429725553
 20
174.6763259867
 30
0.0
 70
         8
  0
VERTEX
  8
52572015
  6
CONTINUOUS
 62
         7
  5
E9
 10
287.890013546
 20
175.1408957856
 30
0.0
 70
         8
  0
VERTEX
  8
52572015
  6
CONTINUOUS
 62
         7
  5
EA
 10
287.4584578444
 20
175.4446988269
 30
0.0
 70
         8
  0
VERTEX
  8
52572015
  6
CONTINUOUS
 62
         7
  5
EB
 10
287.3022659866
 20
175.553898263
 30
0.0
 70
         8
  0
SEQEND
  8
52572015
  6
CONTINUOUS
 62
         7
  5
EC
  0
POLYLINE
  8
52572015
  6
CONTINUOUS
 62
         7
  5
ED
 66
         1
 10
0.0
 20
0.0
 30
0.0
 70
         4
  0
VERTEX
  8
52572015
  6
CONTINUOUS
 62
         7
  5
EE
 10
319.0150564702
 20
172.6393550548
 30
0.0
 70
         8
  0
VERTEX
  8
52572015
  6
CONTINUOUS
 62
         7
  5
EF
 10
317.2261495869
 20
170.8784433093
 30
0.0
 70
         8
  0
VERTEX
  8
52572015
  6
CONTINUOUS
 62
         7
  5
F0
 10
316.2455842979
 20
169.9497819706
 30
0.0
 70
         8
  0
VERTEX
  8
52572015
  6
CONTINUOUS
 62
         7
  5
F1
 10
315.2212314096
 20
169.0131869948
 30
0.0
 70
         8
  0
VERTEX
  8
52572015
  6
CONTINUOUS
 62
         7
  5
F2
 10
314.1559952131
 20
168.0811888635
 30
0.0
 70
         8
  0
VERTEX
  8
52572015
  6
CONTINUOUS
 62
         7
  5
F3
 10
313.0470714106
 20
167.1657389486
 30
0.0
 70
         8
  0
VERTEX
  8
52572015
  6
CONTINUOUS
 62
         7
  5
F4
 10
311.896112343
 20
166.2841210904
 30
0.0
 70
         8
  0
VERTEX
  8
52572015
  6
CONTINUOUS
 62
         7
  5
F5
 10
310.7047703512
 20
165.4536191294
 30
0.0
 70
         8
  0
VERTEX
  8
52572015
  6
CONTINUOUS
 62
         7
  5
F6
 10
310.0928675193
 20
165.0630296792
 30
0.0
 70
         8
  0
VERTEX
  8
52572015
  6
CONTINUOUS
 62
         7
  5
F7
 10
309.4687232725
 20
164.6909733665
 30
0.0
 70
         8
  0
VERTEX
  8
52572015
  6
CONTINUOUS
 62
         7
  5
F8
 10
308.8332099742
 20
164.3382441496
 30
0.0
 70
         8
  0
VERTEX
  8
52572015
  6
CONTINUOUS
 62
         7
  5
F9
 10
308.1871999873
 20
164.0056359868
 30
0.0
 70
         8
  0
VERTEX
  8
52572015
  6
CONTINUOUS
 62
         7
  5
FA
 10
307.5315656752
 20
163.6939428363
 30
0.0
 70
         8
  0
VERTEX
  8
52572015
  6
CONTINUOUS
 62
         7
  5
FB
 10
306.8671794009
 20
163.4039586565
 30
0.0
 70
         8
  0
VERTEX
  8
52572015
  6
CONTINUOUS
 62
         7
  5
FC
 10
306.1949135276
 20
163.1364774056
 30
0.0
 70
         8
  0
VERTEX
  8
52572015
  6
CONTINUOUS
 62
         7
  5
FD
 10
305.5156404186
 20
162.8922930421
 30
0.0
 70
         8
  0
VERTEX
  8
52572015
  6
CONTINUOUS
 62
         7
  5
FE
 10
304.8292068701
 20
162.6702240655
 30
0.0
 70
         8
  0
VERTEX
  8
52572015
  6
CONTINUOUS
 62
         7
  5
FF
 10
304.1354953685
 20
162.4676683762
 30
0.0
 70
         8
  0
VERTEX
  8
52572015
  6
CONTINUOUS
 62
         7
  5
100
 10
303.4354318113
 20
162.2832890333
 30
0.0
 70
         8
  0
VERTEX
  8
52572015
  6
CONTINUOUS
 62
         7
  5
101
 10
302.729942096
 20
162.1157490961
 30
0.0
 70
         8
  0
VERTEX
  8
52572015
  6
CONTINUOUS
 62
         7
  5
102
 10
301.3063877822
 20
161.825839675
 30
0.0
 70
         8
  0
VERTEX
  8
52572015
  6
CONTINUOUS
 62
         7
  5
103
 10
299.8722396081
 20
161.5872445864
 30
0.0
 70
         8
  0
SEQEND
  8
52572015
  6
CONTINUOUS
 62
         7
  5
104
  0
ARC
  8
52572015
  6
CONTINUOUS
 62
         7
  5
105
 10
242.0974948401
 20
158.5588987439
 30
0.0
 40
30.1428649916
 50
347.2645244266
 51
12.7354755734
  0
LINE
  8
52572015
  6
CONTINUOUS
 62
         7
  5
106
 10
284.8802879613
 20
243.9756295302
 30
0.0
 11
282.5886854274
 21
243.8072727288
 31
0.0
  0
LINE
  8
52572015
  6
CONTINUOUS
 62
         7
  5
107
 10
276.7082628753
 20
240.4122091854
 30
0.0
 11
276.7165157133
 21
239.2622734253
 31
0.0
  0
LINE
  8
52572015
  6
CONTINUOUS
 62
         7
  5
108
 10
251.4088006569
 20
225.8055578632
 30
0.0
 11
250.7503169421
 21
224.2706815748
 31
0.0
  0
LINE
  8
52572015
  6
CONTINUOUS
 62
         7
  5
109
 10
261.670780365
 20
230.5756140717
 30
0.0
 11
260.6790332031
 21
231.1577291192
 31
0.0
  0
LINE
  8
52572015
  6
CONTINUOUS
 62
         7
  5
10A
 10
275.2156035533
 20
199.5886108371
 30
0.0
 11
275.0494152636
 21
199.3905553457
 31
0.0
  0
LINE
  8
52572015
  6
CONTINUOUS
 62
         7
  5
10B
 10
291.762139766
 20
263.1450376266
 30
0.0
 11
292.4913902274
 21
263.5660705768
 31
0.0
  0
POLYLINE
  8
52572015
  6
CONTINUOUS
 62
         7
  5
10C
 66
         1
 10
0.0
 20
0.0
 30
0.0
  0
VERTEX
  8
52572015
  6
CONTINUOUS
 62
         7
  5
10D
 10
268.7832692822
 20
254.1387007381
 30
0.0
  0
VERTEX
  8
52572015
  6
CONTINUOUS
 62
         7
  5
10E
 10
268.3470367978
 20
253.5745491034
 30
0.0
  0
VERTEX
  8
52572015
  6
CONTINUOUS
 62
         7
  5
10F
 10
267.9269078854
 20
252.9857742126
 30
0.0
  0
VERTEX
  8
52572015
  6
CONTINUOUS
 62
         7
  5
110
 10
267.5230904527
 20
252.3726141527
 30
0.0
  0
VERTEX
  8
52572015
  6
CONTINUOUS
 62
         7
  5
111
 10
267.1357779241
 20
251.7353293235
 30
0.0
  0
VERTEX
  8
52572015
  6
CONTINUOUS
 62
         7
  5
112
 10
266.7651489338
 20
251.0742020704
 30
0.0
  0
VERTEX
  8
52572015
  6
CONTINUOUS
 62
         7
  5
113
 10
266.4113670508
 20
250.3895362682
 30
0.0
  0
VERTEX
  8
52572015
  6
CONTINUOUS
 62
         7
  5
114
 10
266.074580539
 20
249.6816568557
 30
0.0
  0
VERTEX
  8
52572015
  6
CONTINUOUS
 62
         7
  5
115
 10
265.7549221512
 20
248.9509093234
 30
0.0
  0
SEQEND
  8
52572015
  6
CONTINUOUS
 62
         7
  5
116
  0
LINE
  8
52572015
  6
CONTINUOUS
 62
         7
  5
117
 10
268.7832692822
 20
254.1387007381
 30
0.0
 11
274.6636918343
 21
257.5337642815
 31
0.0
  0
LINE
  8
52572015
  6
CONTINUOUS
 62
         7
  5
118
 10
265.7549221512
 20
248.9509093234
 30
0.0
 11
258.7609723302
 21
244.9129505116
 31
0.0
  0
LINE
  8
52572015
  6
CONTINUOUS
 62
         7
  5
119
 10
275.1980110941
 20
190.1190818703
 30
0.0
 11
276.7980110941
 21
187.3478005782
 31
0.0
  0
LINE
  8
52572015
  6
CONTINUOUS
 62
         7
  5
11A
 10
234.3302071518
 20
230.8078416593
 30
0.0
 11
234.1121216177
 21
230.6819299175
 31
0.0
  0
POLYLINE
  8
52572015
  6
CONTINUOUS
 62
         7
  5
11B
 66
         1
 10
0.0
 20
0.0
 30
0.0
  0
VERTEX
  8
52572015
  6
CONTINUOUS
 62
         7
  5
11C
 10
243.4838070638
 20
239.532049416
 30
0.0
  0
VERTEX
  8
52572015
  6
CONTINUOUS
 62
         7
  5
11D
 10
242.2727602887
 20
238.5205585419
 30
0.0
  0
VERTEX
  8
52572015
  6
CONTINUOUS
 62
         7
  5
11E
 10
241.0797362899
 20
237.4855524649
 30
0.0
  0
VERTEX
  8
52572015
  6
CONTINUOUS
 62
         7
  5
11F
 10
239.905294175
 20
236.4274720374
 30
0.0
  0
VERTEX
  8
52572015
  6
CONTINUOUS
 62
         7
  5
120
 10
238.749976941
 20
235.3467794847
 30
0.0
  0
VERTEX
  8
52572015
  6
CONTINUOUS
 62
         7
  5
121
 10
237.6143106383
 20
234.2439577334
 30
0.0
  0
VERTEX
  8
52572015
  6
CONTINUOUS
 62
         7
  5
122
 10
236.4988035731
 20
233.1195096922
 30
0.0
  0
VERTEX
  8
52572015
  6
CONTINUOUS
 62
         7
  5
123
 10
235.403945549
 20
231.9739574881
 30
0.0
  0
VERTEX
  8
52572015
  6
CONTINUOUS
 62
         7
  5
124
 10
234.3302071518
 20
230.8078416593
 30
0.0
  0
SEQEND
  8
52572015
  6
CONTINUOUS
 62
         7
  5
125
  0
LINE
  8
52572015
  6
CONTINUOUS
 62
         7
  5
126
 10
243.4838070639
 20
239.532049416
 30
0.0
 11
252.75403961
 21
244.884220672
 31
0.0
  0
POLYLINE
  8
52572015
  6
CONTINUOUS
 62
         7
  5
127
 66
         1
 10
0.0
 20
0.0
 30
0.0
  0
VERTEX
  8
52572015
  6
CONTINUOUS
 62
         7
  5
128
 10
258.7609723302
 20
244.9129505116
 30
0.0
  0
VERTEX
  8
52572015
  6
CONTINUOUS
 62
         7
  5
129
 10
257.9682972096
 20
245.0014919934
 30
0.0
  0
VERTEX
  8
52572015
  6
CONTINUOUS
 62
         7
  5
12A
 10
257.1868623997
 20
245.0637660247
 30
0.0
  0
VERTEX
  8
52572015
  6
CONTINUOUS
 62
         7
  5
12B
 10
256.4170334804
 20
245.0997148278
 30
0.0
  0
VERTEX
  8
52572015
  6
CONTINUOUS
 62
         7
  5
12C
 10
255.6591659889
 20
245.1093043333
 30
0.0
  0
VERTEX
  8
52572015
  6
CONTINUOUS
 62
         7
  5
12D
 10
254.9136048731
 20
245.092524259
 30
0.0
  0
VERTEX
  8
52572015
  6
CONTINUOUS
 62
         7
  5
12E
 10
254.1806839683
 20
245.0493881337
 30
0.0
  0
VERTEX
  8
52572015
  6
CONTINUOUS
 62
         7
  5
12F
 10
253.4607254996
 20
244.9799332681
 30
0.0
  0
VERTEX
  8
52572015
  6
CONTINUOUS
 62
         7
  5
130
 10
252.75403961
 20
244.884220672
 30
0.0
  0
SEQEND
  8
52572015
  6
CONTINUOUS
 62
         7
  5
131
  0
LINE
  8
52572015
  6
CONTINUOUS
 62
         7
  5
132
 10
274.6636918343
 20
257.5337642815
 30
0.0
 11
282.5886854274
 21
243.8072727288
 31
0.0
  0
LINE
  8
52572015
  6
CONTINUOUS
 62
         7
  5
133
 10
262.420780365
 20
229.2765759661
 30
0.0
 11
266.4466731287
 21
231.6009262369
 31
0.0
  0
LINE
  8
52572015
  6
CONTINUOUS
 62
         7
  5
134
 10
291.762139766
 20
263.1450376266
 30
0.0
 11
298.3422740083
 21
251.7479107983
 31
0.0
  0
LINE
  8
52572015
  6
CONTINUOUS
 62
         7
  5
135
 10
273.4406229497
 20
235.6388850488
 30
0.0
 11
277.4665157133
 21
237.9632353196
 31
0.0
  0
LINE
  8
52572015
  6
CONTINUOUS
 62
         7
  5
136
 10
266.4466731287
 20
231.6009262369
 30
0.0
 11
273.4406229497
 21
235.6388850488
 31
0.0
  0
LINE
  8
52572015
  6
CONTINUOUS
 62
         7
  5
137
 10
252.75403961
 20
244.884220672
 30
0.0
 11
260.6790332031
 21
231.1577291192
 31
0.0
  0
LINE
  8
52572015
  6
CONTINUOUS
 62
         7
  5
138
 10
268.7832692822
 20
254.1387007381
 30
0.0
 11
276.7082628753
 21
240.4122091854
 31
0.0
  0
LINE
  8
52572015
  6
CONTINUOUS
 62
         7
  5
139
 10
265.7549221512
 20
248.9509093234
 30
0.0
 11
273.4406229497
 21
235.6388850488
 31
0.0
  0
LINE
  8
52572015
  6
CONTINUOUS
 62
         7
  5
13A
 10
258.7609723302
 20
244.9129505116
 30
0.0
 11
266.4466731287
 21
231.6009262369
 31
0.0
  0
LINE
  8
52572015
  6
CONTINUOUS
 62
         7
  5
13B
 10
242.0159079502
 20
217.4958173846
 30
0.0
 11
241.7978224162
 21
217.3699056428
 31
0.0
  0
LINE
  8
52572015
  6
CONTINUOUS
 62
         7
  5
13C
 10
242.0159079502
 20
217.4958173846
 30
0.0
 11
251.5003169421
 21
222.9716434692
 31
0.0
  0
LINE
  8
52572015
  6
CONTINUOUS
 62
         7
  5
13D
 10
243.4838070639
 20
239.532049416
 30
0.0
 11
251.4088006569
 21
225.8055578632
 31
0.0
  0
LINE
  8
52572015
  6
CONTINUOUS
 62
         7
  5
13E
 10
234.3302071518
 20
230.8078416593
 30
0.0
 11
242.0159079502
 21
217.4958173846
 31
0.0
  0
LINE
  8
52572015
  6
CONTINUOUS
 62
         7
  5
13F
 10
296.7796361076
 20
212.0386108371
 30
0.0
 11
275.2156035533
 21
199.5886108371
 31
0.0
  0
POLYLINE
  8
52572015
  6
CONTINUOUS
 62
         7
  5
140
 66
         1
 10
0.0
 20
0.0
 30
0.0
  0
VERTEX
  8
52572015
  6
CONTINUOUS
 62
         7
  5
141
 10
291.762139766
 20
263.1450376266
 30
0.0
  0
VERTEX
  8
52572015
  6
CONTINUOUS
 62
         7
  5
142
 10
290.6591970077
 20
262.9023003987
 30
0.0
  0
VERTEX
  8
52572015
  6
CONTINUOUS
 62
         7
  5
143
 10
289.5596333329
 20
262.6448882644
 30
0.0
  0
VERTEX
  8
52572015
  6
CONTINUOUS
 62
         7
  5
144
 10
288.4637098604
 20
262.3728389469
 30
0.0
  0
VERTEX
  8
52572015
  6
CONTINUOUS
 62
         7
  5
145
 10
287.3716864998
 20
262.0861970583
 30
0.0
  0
VERTEX
  8
52572015
  6
CONTINUOUS
 62
         7
  5
146
 10
286.2838217473
 20
261.7850140787
 30
0.0
  0
VERTEX
  8
52572015
  6
CONTINUOUS
 62
         7
  5
147
 10
285.2003724821
 20
261.4693483292
 30
0.0
  0
VERTEX
  8
52572015
  6
CONTINUOUS
 62
         7
  5
148
 10
284.1215937653
 20
261.1392649351
 30
0.0
  0
VERTEX
  8
52572015
  6
CONTINUOUS
 62
         7
  5
149
 10
283.047738639
 20
260.7948357825
 30
0.0
  0
VERTEX
  8
52572015
  6
CONTINUOUS
 62
         7
  5
14A
 10
281.9790579296
 20
260.4361394659
 30
0.0
  0
VERTEX
  8
52572015
  6
CONTINUOUS
 62
         7
  5
14B
 10
280.9158000518
 20
260.0632612288
 30
0.0
  0
VERTEX
  8
52572015
  6
CONTINUOUS
 62
         7
  5
14C
 10
279.8582108165
 20
259.6762928962
 30
0.0
  0
VERTEX
  8
52572015
  6
CONTINUOUS
 62
         7
  5
14D
 10
278.8065332415
 20
259.2753327993
 30
0.0
  0
VERTEX
  8
52572015
  6
CONTINUOUS
 62
         7
  5
14E
 10
277.7610073655
 20
258.860485693
 30
0.0
  0
VERTEX
  8
52572015
  6
CONTINUOUS
 62
         7
  5
14F
 10
276.7218700658
 20
258.4318626659
 30
0.0
  0
VERTEX
  8
52572015
  6
CONTINUOUS
 62
         7
  5
150
 10
275.6893548805
 20
257.9895810429
 30
0.0
  0
VERTEX
  8
52572015
  6
CONTINUOUS
 62
         7
  5
151
 10
274.6636918343
 20
257.5337642815
 30
0.0
  0
SEQEND
  8
52572015
  6
CONTINUOUS
 62
         7
  5
152
  0
LINE
  8
52572015
  6
CONTINUOUS
 62
         7
  5
153
 10
275.0505106809
 20
199.3918608132
 30
0.0
 11
275.4037073929
 21
198.7675877381
 31
0.0
  0
ARC
  8
52572015
  6
CONTINUOUS
 62
         7
  5
154
 10
294.9024035675
 20
177.6924641282
 30
0.0
 40
28.7116698868
 50
107.2250118574
 51
132.7749881426
  0
LINE
  8
52572015
  6
CONTINUOUS
 62
         7
  5
155
 10
297.3966110485
 20
211.465196584
 30
0.0
 11
297.0325730627
 21
212.0832104467
 31
0.0
  0
ARC
  8
52572015
  6
CONTINUOUS
 62
         7
  5
156
 10
305.898855393
 20
184.0412685552
 30
0.0
 40
28.7116698822
 50
107.2250118553
 51
132.7749881447
  0
ARC
  8
52572015
  6
CONTINUOUS
 62
         7
  5
157
 10
303.4605030375
 20
162.8107122879
 30
0.0
 40
38.9684163213
 50
110.5797388818
 51
129.4202611182
  0
LINE
  8
52572015
  6
CONTINUOUS
 62
         7
  5
158
 10
304.9892849843
 20
207.3190818703
 30
0.0
 11
275.1980110941
 21
190.1190818703
 31
0.0
  0
LINE
  8
52572015
  6
CONTINUOUS
 62
         7
  5
159
 10
297.3966110485
 20
211.465196584
 30
0.0
 11
300.8099688583
 21
205.6704649174
 31
0.0
  0
ARC
  8
52572015
  6
CONTINUOUS
 62
         7
  5
15A
 10
314.5077808069
 20
169.1888610818
 30
0.0
 40
38.9684163213
 50
110.5797388818
 51
129.4202611182
  0
LINE
  8
52572015
  6
CONTINUOUS
 62
         7
  5
15B
 10
306.5892849843
 20
204.5478005782
 30
0.0
 11
276.7980110941
 21
187.3478005782
 31
0.0
  0
LINE
  8
52572015
  6
CONTINUOUS
 62
         7
  5
15C
 10
311.0072341767
 20
190.4956881117
 30
0.0
 11
311.0072341767
 21
192.4956881117
 31
0.0
  0
LINE
  8
52572015
  6
CONTINUOUS
 62
         7
  5
15D
 10
281.5264720632
 20
183.5578659381
 30
0.0
 11
285.0264720632
 21
177.4956881117
 31
0.0
  0
LINE
  8
52572015
  6
CONTINUOUS
 62
         7
  5
15E
 10
286.7585228707
 20
176.4956881117
 30
0.0
 11
287.3033996221
 21
175.5519338945
 31
0.0
  0
LINE
  8
52572015
  6
CONTINUOUS
 62
         7
  5
15F
 10
276.9712161748
 20
187.4478005782
 30
0.0
 11
278.7944212556
 21
184.2899167457
 31
0.0
  0
LINE
  8
52572015
  6
CONTINUOUS
 62
         7
  5
160
 10
307.5072341767
 20
198.5578659381
 30
0.0
 11
308.2392849843
 21
201.2899167457
 31
0.0
  0
LINE
  8
52572015
  6
CONTINUOUS
 62
         7
  5
161
 10
359.0094070473
 20
152.4538987439
 30
0.0
 11
367.0094070473
 21
152.4538987439
 31
0.0
  0
LINE
  8
52572015
  6
CONTINUOUS
 62
         7
  5
162
 10
367.0094070473
 20
152.4538987439
 30
0.0
 11
367.2059509738
 21
151.9138987439
 31
0.0
  0
LINE
  8
52572015
  6
CONTINUOUS
 62
         7
  5
163
 10
284.6005699773
 20
175.5538987439
 30
0.0
 11
280.4436480392
 21
177.9538987439
 31
0.0
  0
LINE
  8
52572015
  6
CONTINUOUS
 62
         7
  5
164
 10
272.4436480392
 20
152.4538987439
 30
0.0
 11
280.4436480392
 21
152.4538987439
 31
0.0
  0
LINE
  8
52572015
  6
CONTINUOUS
 62
         7
  5
165
 10
272.4436480392
 20
177.9538987439
 30
0.0
 11
272.2471041127
 21
178.4938987439
 31
0.0
  0
LINE
  8
52572015
  6
CONTINUOUS
 62
         7
  5
166
 10
344.9436480392
 20
221.2125494563
 30
0.0
 11
343.5436480392
 21
220.4042590795
 31
0.0
  0
LINE
  8
52572015
  6
CONTINUOUS
 62
         7
  5
167
 10
344.4436480392
 20
214.7125494563
 30
0.0
 11
344.4436480392
 21
213.3625494563
 31
0.0
  0
LINE
  8
52572015
  6
CONTINUOUS
 62
         7
  5
168
 10
343.5436480392
 20
220.4042590795
 30
0.0
 11
343.5436480392
 21
215.6125494563
 31
0.0
  0
LINE
  8
52572015
  6
CONTINUOUS
 62
         7
  5
169
 10
356.4436480392
 20
214.7125494563
 30
0.0
 11
357.3436480392
 21
215.6125494563
 31
0.0
  0
LINE
  8
52572015
  6
CONTINUOUS
 62
         7
  5
16A
 10
343.6936480392
 20
213.3625494563
 30
0.0
 11
343.6936480392
 21
212.2125494563
 31
0.0
  0
LINE
  8
52572015
  6
CONTINUOUS
 62
         7
  5
16B
 10
319.9436480392
 20
221.2125494563
 30
0.0
 11
318.5436480392
 21
220.4042590795
 31
0.0
  0
LINE
  8
52572015
  6
CONTINUOUS
 62
         7
  5
16C
 10
319.4436480392
 20
214.7125494563
 30
0.0
 11
319.4436480392
 21
213.3625494563
 31
0.0
  0
LINE
  8
52572015
  6
CONTINUOUS
 62
         7
  5
16D
 10
318.5436480392
 20
220.4042590795
 30
0.0
 11
318.5436480392
 21
215.6125494563
 31
0.0
  0
LINE
  8
52572015
  6
CONTINUOUS
 62
         7
  5
16E
 10
331.4436480392
 20
214.7125494563
 30
0.0
 11
332.3436480392
 21
215.6125494563
 31
0.0
  0
LINE
  8
52572015
  6
CONTINUOUS
 62
         7
  5
16F
 10
318.6936480392
 20
213.3625494563
 30
0.0
 11
318.6936480392
 21
212.2125494563
 31
0.0
  0
LINE
  8
52572015
  6
CONTINUOUS
 62
         7
  5
170
 10
318.6936480392
 20
213.3625494563
 30
0.0
 11
332.1936480392
 21
213.3625494563
 31
0.0
  0
LINE
  8
52572015
  6
CONTINUOUS
 62
         7
  5
171
 10
318.6936480392
 20
212.2125494563
 30
0.0
 11
332.1936480392
 21
212.2125494563
 31
0.0
  0
LINE
  8
52572015
  6
CONTINUOUS
 62
         7
  5
172
 10
318.5436480392
 20
220.4042590795
 30
0.0
 11
332.3436480392
 21
220.4042590795
 31
0.0
  0
LINE
  8
52572015
  6
CONTINUOUS
 62
         7
  5
173
 10
319.4436480392
 20
214.7125494563
 30
0.0
 11
331.4436480392
 21
214.7125494563
 31
0.0
  0
LINE
  8
52572015
  6
CONTINUOUS
 62
         7
  5
174
 10
318.5436480392
 20
215.6125494563
 30
0.0
 11
332.3436480392
 21
215.6125494563
 31
0.0
  0
LINE
  8
52572015
  6
CONTINUOUS
 62
         7
  5
175
 10
343.6936480392
 20
213.3625494563
 30
0.0
 11
357.1936480392
 21
213.3625494563
 31
0.0
  0
LINE
  8
52572015
  6
CONTINUOUS
 62
         7
  5
176
 10
343.6936480392
 20
212.2125494563
 30
0.0
 11
357.1936480392
 21
212.2125494563
 31
0.0
  0
LINE
  8
52572015
  6
CONTINUOUS
 62
         7
  5
177
 10
344.4436480392
 20
214.7125494563
 30
0.0
 11
356.4436480392
 21
214.7125494563
 31
0.0
  0
LINE
  8
52572015
  6
CONTINUOUS
 62
         7
  5
178
 10
343.5436480392
 20
215.6125494563
 30
0.0
 11
357.3436480392
 21
215.6125494563
 31
0.0
  0
LINE
  8
52572015
  6
CONTINUOUS
 62
         7
  5
179
 10
319.9436480392
 20
221.2125494563
 30
0.0
 11
330.9436480392
 21
221.2125494563
 31
0.0
  0
LINE
  8
52572015
  6
CONTINUOUS
 62
         7
  5
17A
 10
289.6684846393
 20
225.9554864804
 30
0.0
 11
266.718811439
 21
212.7054864804
 31
0.0
  0
LINE
  8
52572015
  6
CONTINUOUS
 62
         7
  5
17B
 10
320.0209983084
 20
209.2125494563
 30
0.0
 11
330.86629777
 21
209.2125494563
 31
0.0
  0
LINE
  8
52572015
  6
CONTINUOUS
 62
         7
  5
17C
 10
305.0045371716
 20
242.8926643069
 30
0.0
 11
304.2150124437
 21
242.4368319927
 31
0.0
  0
LINE
  8
52572015
  6
CONTINUOUS
 62
         7
  5
17D
 10
289.7874418872
 20
234.1070702481
 30
0.0
 11
304.2150124437
 21
242.4368319927
 31
0.0
  0
LINE
  8
52572015
  6
CONTINUOUS
 62
         7
  5
17E
 10
298.7150124437
 20
251.9631114343
 30
0.0
 11
299.5045371716
 21
252.4189437485
 31
0.0
  0
LINE
  8
52572015
  6
CONTINUOUS
 62
         7
  5
17F
 10
284.2874418872
 20
243.6333496898
 30
0.0
 11
298.7150124437
 21
251.9631114343
 31
0.0
  0
LINE
  8
52572015
  6
CONTINUOUS
 62
         7
  5
180
 10
298.7150124437
 20
251.9631114343
 30
0.0
 11
304.2150124437
 21
242.4368319927
 31
0.0
  0
LINE
  8
52572015
  6
CONTINUOUS
 62
         7
  5
181
 10
284.2874418872
 20
243.6333496898
 30
0.0
 11
289.7874418872
 21
234.1070702481
 31
0.0
  0
LINE
  8
52572015
  6
CONTINUOUS
 62
         7
  5
182
 10
289.7874418872
 20
234.1070702481
 30
0.0
 11
254.7750637521
 21
213.8926643069
 31
0.0
  0
LINE
  8
52572015
  6
CONTINUOUS
 62
         7
  5
183
 10
284.2874418872
 20
243.6333496898
 30
0.0
 11
276.7165157133
 21
239.2622734253
 31
0.0
  0
LINE
  8
52572015
  6
CONTINUOUS
 62
         7
  5
184
 10
250.7503169421
 20
224.2706815748
 30
0.0
 11
251.5003169421
 21
222.9716434692
 31
0.0
  0
LINE
  8
52572015
  6
CONTINUOUS
 62
         7
  5
185
 10
262.420780365
 20
229.2765759661
 30
0.0
 11
261.670780365
 21
230.5756140717
 31
0.0
  0
LINE
  8
52572015
  6
CONTINUOUS
 62
         7
  5
186
 10
276.7165157133
 20
239.2622734253
 30
0.0
 11
277.4665157133
 21
237.9632353196
 31
0.0
  0
LINE
  8
52572015
  6
CONTINUOUS
 62
         7
  5
187
 10
276.7082628753
 20
240.4122091854
 30
0.0
 11
282.5886854274
 21
243.8072727288
 31
0.0
  0
LINE
  8
52572015
  6
CONTINUOUS
 62
         7
  5
188
 10
251.4088006569
 20
225.8055578632
 30
0.0
 11
260.6790332031
 21
231.1577291192
 31
0.0
  0
LINE
  8
52572015
  6
CONTINUOUS
 62
         7
  5
189
 10
261.670780365
 20
230.5756140717
 30
0.0
 11
250.7503169421
 21
224.2706815748
 31
0.0
  0
LINE
  8
52572015
  6
CONTINUOUS
 62
         7
  5
18A
 10
319.4436480392
 20
208.2125494563
 30
0.0
 11
331.4436480392
 21
208.2125494563
 31
0.0
  0
LINE
  8
52572015
  6
CONTINUOUS
 62
         7
  5
18B
 10
345.0209983084
 20
209.2125494563
 30
0.0
 11
355.86629777
 21
209.2125494563
 31
0.0
  0
LINE
  8
52572015
  6
CONTINUOUS
 62
         7
  5
18C
 10
344.4436480392
 20
208.2125494563
 30
0.0
 11
356.4436480392
 21
208.2125494563
 31
0.0
  0
LINE
  8
52572015
  6
CONTINUOUS
 62
         7
  5
18D
 10
316.4436480392
 20
187.7125494563
 30
0.0
 11
334.4436480392
 21
187.7125494563
 31
0.0
  0
LINE
  8
52572015
  6
CONTINUOUS
 62
         7
  5
18E
 10
341.4436480392
 20
187.7125494563
 30
0.0
 11
359.4436480392
 21
187.7125494563
 31
0.0
  0
LINE
  8
52572015
  6
CONTINUOUS
 62
         7
  5
18F
 10
319.0150564702
 20
172.6393550548
 30
0.0
 11
299.8722396081
 21
161.5872445864
 31
0.0
  0
LINE
  8
52572015
  6
CONTINUOUS
 62
         7
  5
190
 10
311.0072341767
 20
190.4956881117
 30
0.0
 11
286.7585228707
 21
176.4956881117
 31
0.0
  0
LINE
  8
52572015
  6
CONTINUOUS
 62
         7
  5
191
 10
311.0072341767
 20
192.4956881117
 30
0.0
 11
285.0264720632
 21
177.4956881117
 31
0.0
  0
LINE
  8
52572015
  6
CONTINUOUS
 62
         7
  5
192
 10
263.8614815804
 20
151.9138987439
 30
0.0
 11
271.4987921737
 21
151.9138987439
 31
0.0
  0
LINE
  8
52572015
  6
CONTINUOUS
 62
         7
  5
193
 10
308.2392849843
 20
201.2899167457
 30
0.0
 11
278.7944212556
 21
184.2899167457
 31
0.0
  0
LINE
  8
52572015
  6
CONTINUOUS
 62
         7
  5
194
 10
307.5072341767
 20
198.5578659381
 30
0.0
 11
281.5264720632
 21
183.5578659381
 31
0.0
  0
LINE
  8
52572015
  6
CONTINUOUS
 62
         7
  5
195
 10
263.4436480392
 20
151.9138987439
 30
0.0
 11
263.8614815804
 21
151.9138987439
 31
0.0
  0
LINE
  8
52572015
  6
CONTINUOUS
 62
         7
  5
196
 10
263.8614815804
 20
178.4938987439
 30
0.0
 11
271.4987921737
 21
178.4938987439
 31
0.0
  0
LINE
  8
52572015
  6
CONTINUOUS
 62
         7
  5
197
 10
263.8614815804
 20
165.2038987439
 30
0.0
 11
271.4987921737
 21
165.2038987439
 31
0.0
  0
LINE
  8
52572015
  6
CONTINUOUS
 62
         7
  5
198
 10
263.8614815804
 20
178.4938987439
 30
0.0
 11
263.4436480392
 21
178.4938987439
 31
0.0
  0
LINE
  8
52572015
  6
CONTINUOUS
 62
         7
  5
199
 10
263.4436480392
 20
176.1754381557
 30
0.0
 11
263.8614815804
 21
178.4938987439
 31
0.0
  0
LINE
  8
52572015
  6
CONTINUOUS
 62
         7
  5
19A
 10
263.8614815804
 20
165.2038987439
 30
0.0
 11
263.4436480392
 21
167.5223593321
 31
0.0
  0
LINE
  8
52572015
  6
CONTINUOUS
 62
         7
  5
19B
 10
375.625814498
 20
151.9138987439
 30
0.0
 11
367.9542629128
 21
151.9138987439
 31
0.0
  0
LINE
  8
52572015
  6
CONTINUOUS
 62
         7
  5
19C
 10
263.4436480392
 20
162.8854381557
 30
0.0
 11
263.8614815804
 21
165.2038987439
 31
0.0
  0
LINE
  8
52572015
  6
CONTINUOUS
 62
         7
  5
19D
 10
263.8614815804
 20
151.9138987439
 30
0.0
 11
263.4436480392
 21
154.2323593321
 31
0.0
  0
LINE
  8
52572015
  6
CONTINUOUS
 62
         7
  5
19E
 10
375.625814498
 20
178.4938987439
 30
0.0
 11
367.9542629128
 21
178.4938987439
 31
0.0
  0
LINE
  8
52572015
  6
CONTINUOUS
 62
         7
  5
19F
 10
375.625814498
 20
165.2038987439
 30
0.0
 11
367.9542629128
 21
165.2038987439
 31
0.0
  0
LINE
  8
52572015
  6
CONTINUOUS
 62
         7
  5
1A0
 10
367.2059523713
 20
151.9138987439
 30
0.0
 11
367.9542629128
 21
151.9138987439
 31
0.0
  0
LINE
  8
52572015
  6
CONTINUOUS
 62
         7
  5
1A1
 10
367.0094070473
 20
177.9538987439
 30
0.0
 11
367.0094070473
 21
152.4538987439
 31
0.0
  0
ARC
  8
52572015
  6
CONTINUOUS
 62
         7
  5
1A2
 10
397.3555602464
 20
158.5588987439
 30
0.0
 40
30.1428649916
 50
167.2645244266
 51
192.7354755734
  0
ARC
  8
52572015
  6
CONTINUOUS
 62
         7
  5
1A3
 10
397.3555602464
 20
171.8488987439
 30
0.0
 40
30.1428649916
 50
167.2645244266
 51
192.7354755734
  0
LINE
  8
52572015
  6
CONTINUOUS
 62
         7
  5
1A4
 10
284.6005699773
 20
175.5538987439
 30
0.0
 11
284.6005699773
 21
154.8538987439
 31
0.0
  0
LINE
  8
52572015
  6
CONTINUOUS
 62
         7
  5
1A5
 10
354.8524851091
 20
154.8538987439
 30
0.0
 11
354.8524851091
 21
171.9537390612
 31
0.0
  0
LINE
  8
52572015
  6
CONTINUOUS
 62
         7
  5
1A6
 10
359.0094070473
 20
152.4538987439
 30
0.0
 11
359.0094070473
 21
177.6511766545
 31
0.0
  0
LINE
  8
52572015
  6
CONTINUOUS
 62
         7
  5
1A7
 10
367.2059523713
 20
178.4938987439
 30
0.0
 11
367.9542629128
 21
178.4938987439
 31
0.0
  0
LINE
  8
52572015
  6
CONTINUOUS
 62
         7
  5
1A8
 10
376.0936480392
 20
151.9138987439
 30
0.0
 11
375.625814498
 21
151.9138987439
 31
0.0
  0
LINE
  8
52572015
  6
CONTINUOUS
 62
         7
  5
1A9
 10
280.4436480392
 20
177.9538987439
 30
0.0
 11
280.4436480392
 21
152.4538987439
 31
0.0
  0
LINE
  8
52572015
  6
CONTINUOUS
 62
         7
  5
1AA
 10
272.4436480392
 20
177.9538987439
 30
0.0
 11
272.4436480392
 21
152.4538987439
 31
0.0
  0
LINE
  8
52572015
  6
CONTINUOUS
 62
         7
  5
1AB
 10
375.625814498
 20
178.4938987439
 30
0.0
 11
376.0936480392
 21
178.4938987439
 31
0.0
  0
LINE
  8
52572015
  6
CONTINUOUS
 62
         7
  5
1AC
 10
375.625814498
 20
151.9138987439
 30
0.0
 11
376.0936480392
 21
154.5830404265
 31
0.0
  0
LINE
  8
52572015
  6
CONTINUOUS
 62
         7
  5
1AD
 10
376.0936480392
 20
175.8247570612
 30
0.0
 11
375.625814498
 21
178.4938987439
 31
0.0
  0
LINE
  8
52572015
  6
CONTINUOUS
 62
         7
  5
1AE
 10
375.625814498
 20
165.2038987439
 30
0.0
 11
376.0936480392
 21
167.8730404265
 31
0.0
  0
LINE
  8
52572015
  6
CONTINUOUS
 62
         7
  5
1AF
 10
376.0936480392
 20
162.5347570612
 30
0.0
 11
375.625814498
 21
165.2038987439
 31
0.0
  0
LINE
  8
52572015
  6
CONTINUOUS
 62
         7
  5
1B0
 10
272.2471027151
 20
178.4938987439
 30
0.0
 11
271.4987921737
 21
178.4938987439
 31
0.0
  0
ARC
  8
52572015
  6
CONTINUOUS
 62
         7
  5
1B1
 10
242.0974948401
 20
171.8488987439
 30
0.0
 40
30.1428649916
 50
347.2645244266
 51
12.7354755734
  0
LINE
  8
52572015
  6
CONTINUOUS
 62
         7
  5
1B2
 10
271.4987921737
 20
151.9138987439
 30
0.0
 11
272.2471027151
 21
151.9138987439
 31
0.0
  0
LINE
  8
52572015
  6
CONTINUOUS
 62
         7
  5
1B3
 10
319.1240991518
 20
173.3315797255
 30
0.0
 11
319.0150564702
 21
172.6393550548
 31
0.0
  0
LINE
  8
52572015
  6
CONTINUOUS
 62
         7
  5
1B4
 10
304.9892849843
 20
207.3190818703
 30
0.0
 11
300.5416581514
 21
206.1273438522
 31
0.0
  0
LINE
  8
52572015
  6
CONTINUOUS
 62
         7
  5
1B5
 10
341.4436480392
 20
187.7125494563
 30
0.0
 11
341.4436480392
 21
185.2038987439
 31
0.0
  0
LINE
  8
52572015
  6
CONTINUOUS
 62
         7
  5
1B6
 10
354.8524851091
 20
154.8538987439
 30
0.0
 11
359.0094070473
 21
152.4538987439
 31
0.0
  0
LINE
  8
52572015
  6
CONTINUOUS
 62
         7
  5
1B7
 10
334.4436480392
 20
185.2038987439
 30
0.0
 11
334.4436480392
 21
187.7125494563
 31
0.0
  0
LINE
  8
52572015
  6
CONTINUOUS
 62
         7
  5
1B8
 10
287.3043159092
 20
175.5538987439
 30
0.0
 11
284.6005699773
 21
175.5538987439
 31
0.0
  0
LINE
  8
52572015
  6
CONTINUOUS
 62
         7
  5
1B9
 10
356.4436480392
 20
208.2125494563
 30
0.0
 11
355.86629777
 21
209.2125494563
 31
0.0
  0
LINE
  8
52572015
  6
CONTINUOUS
 62
         7
  5
1BA
 10
344.4436480392
 20
208.2125494563
 30
0.0
 11
344.4436480392
 21
187.7125494563
 31
0.0
  0
LINE
  8
52572015
  6
CONTINUOUS
 62
         7
  5
1BB
 10
346.4436480392
 20
212.2125494563
 30
0.0
 11
346.4436480392
 21
209.2125494563
 31
0.0
  0
LINE
  8
52572015
  6
CONTINUOUS
 62
         7
  5
1BC
 10
331.4436480392
 20
208.2125494563
 30
0.0
 11
330.86629777
 21
209.2125494563
 31
0.0
  0
LINE
  8
52572015
  6
CONTINUOUS
 62
         7
  5
1BD
 10
319.4436480392
 20
208.2125494563
 30
0.0
 11
319.4436480392
 21
187.7125494563
 31
0.0
  0
LINE
  8
52572015
  6
CONTINUOUS
 62
         7
  5
1BE
 10
321.4436480392
 20
212.2125494563
 30
0.0
 11
321.4436480392
 21
209.2125494563
 31
0.0
  0
LINE
  8
52572015
  6
CONTINUOUS
 62
         7
  5
1BF
 10
289.6684846393
 20
225.9554864804
 30
0.0
 11
286.1684846393
 21
232.0176643069
 31
0.0
  0
LINE
  8
52572015
  6
CONTINUOUS
 62
         7
  5
1C0
 10
305.0045371716
 20
242.8926643069
 30
0.0
 11
299.5045371716
 21
252.4189437485
 31
0.0
  0
LINE
  8
52572015
  6
CONTINUOUS
 62
         7
  5
1C1
 10
296.7796361076
 20
212.0386108371
 30
0.0
 11
288.9756643163
 21
225.5554864804
 31
0.0
  0
LINE
  8
52572015
  6
CONTINUOUS
 62
         7
  5
1C2
 10
250.0250637521
 20
222.1199056428
 30
0.0
 11
254.7750637521
 21
213.8926643069
 31
0.0
  0
ARC
  8
52572015
  6
CONTINUOUS
 62
         7
  5
1C3
 10
309.5436480392
 20
165.0306936631
 30
0.0
 40
100.0
 50
99.8182042331
 51
138.9655749888
  0
LINE
  8
52572015
  6
CONTINUOUS
 62
         7
  5
1C4
 10
234.1121216177
 20
230.6819299175
 30
0.0
 11
241.7978224162
 21
217.3699056428
 31
0.0
  0
LINE
  8
52572015
  6
CONTINUOUS
 62
         7
  5
1C5
 10
297.0342513393
 20
212.0835063721
 30
0.0
 11
296.7796361076
 21
212.0386108371
 31
0.0
  0
LINE
  8
52572015
  6
CONTINUOUS
 62
         7
  5
1C6
 10
306.5892849843
 20
204.5478005782
 30
0.0
 11
304.9892849843
 21
207.3190818703
 31
0.0
  0
LINE
  8
52572015
  6
CONTINUOUS
 62
         7
  5
1C7
 10
299.0715244697
 20
252.1689437485
 30
0.0
 11
292.4913902274
 21
263.5660705768
 31
0.0
  0
LINE
  8
52572015
  6
CONTINUOUS
 62
         7
  5
1C8
 10
285.0264720632
 20
177.4956881117
 30
0.0
 11
286.7585228707
 21
176.4956881117
 31
0.0
  0
LINE
  8
52572015
  6
CONTINUOUS
 62
         7
  5
1C9
 10
311.0072341767
 20
192.4956881117
 30
0.0
 11
307.5072341767
 21
198.5578659381
 31
0.0
  0
LINE
  8
52572015
  6
CONTINUOUS
 62
         7
  5
1CA
 10
316.4451903218
 20
181.0768717789
 30
0.0
 11
311.0072341767
 21
190.4956881117
 31
0.0
  0
LINE
  8
52572015
  6
CONTINUOUS
 62
         7
  5
1CB
 10
308.2392849843
 20
201.2899167457
 30
0.0
 11
306.4160799035
 21
204.4478005782
 31
0.0
  0
LINE
  8
52572015
  6
CONTINUOUS
 62
         7
  5
1CC
 10
278.7944212556
 20
184.2899167457
 30
0.0
 11
281.5264720632
 21
183.5578659381
 31
0.0
  0
LINE
  8
52572015
  6
CONTINUOUS
 62
         7
  5
1CD
 10
367.0094070473
 20
177.9538987439
 30
0.0
 11
359.4436480392
 21
177.9538987439
 31
0.0
  0
LINE
  8
52572015
  6
CONTINUOUS
 62
         7
  5
1CE
 10
367.2059509738
 20
178.4938987439
 30
0.0
 11
367.0094070473
 21
177.9538987439
 31
0.0
  0
LINE
  8
52572015
  6
CONTINUOUS
 62
         7
  5
1CF
 10
280.4436480392
 20
152.4538987439
 30
0.0
 11
284.6005699773
 21
154.8538987439
 31
0.0
  0
LINE
  8
52572015
  6
CONTINUOUS
 62
         7
  5
1D0
 10
280.4436480392
 20
177.9538987439
 30
0.0
 11
272.4436480392
 21
177.9538987439
 31
0.0
  0
LINE
  8
52572015
  6
CONTINUOUS
 62
         7
  5
1D1
 10
272.2471041127
 20
151.9138987439
 30
0.0
 11
272.4436480392
 21
152.4538987439
 31
0.0
  0
ENDBLK
  8
52572015
  6
CONTINUOUS
 62
         7
  5
1D2
  0
BLOCK
  8
0
 62
         1
 48
0.0
  5
356
  2
SE2
 70
         0
 10
0.0
 20
0.0
 30
0.0
  3
SE2
  0
ENDBLK
  8
0
 62
         1
 48
0.0
  5
357
  0
BLOCK
  8
0
 62
         1
 48
0.0
  5
1D5
  2
SE3
 70
         0
 10
0.0
 20
0.0
 30
0.0
  3
SE3
  0
LINE
  8
52572015
  6
CONTINUOUS
 62
         7
  5
1D6
 10
46.4095831136
 20
220.4042590795
 30
0.0
 11
45.0095831136
 21
221.2125494563
 31
0.0
  0
LINE
  8
52572015
  6
CONTINUOUS
 62
         7
  5
1D7
 10
45.5095831136
 20
213.3625494563
 30
0.0
 11
45.5095831136
 21
214.7125494563
 31
0.0
  0
LINE
  8
52572015
  6
CONTINUOUS
 62
         7
  5
1D8
 10
32.6095831136
 20
215.6125494563
 30
0.0
 11
33.5095831136
 21
214.7125494563
 31
0.0
  0
LINE
  8
52572015
  6
CONTINUOUS
 62
         7
  5
1D9
 10
46.4095831136
 20
215.6125494563
 30
0.0
 11
46.4095831136
 21
220.4042590795
 31
0.0
  0
LINE
  8
52572015
  6
CONTINUOUS
 62
         7
  5
1DA
 10
46.2595831136
 20
212.2125494563
 30
0.0
 11
46.2595831136
 21
213.3625494563
 31
0.0
  0
LINE
  8
52572015
  6
CONTINUOUS
 62
         7
  5
1DB
 10
71.4095831136
 20
220.4042590795
 30
0.0
 11
70.0095831136
 21
221.2125494563
 31
0.0
  0
LINE
  8
52572015
  6
CONTINUOUS
 62
         7
  5
1DC
 10
70.5095831136
 20
213.3625494563
 30
0.0
 11
70.5095831136
 21
214.7125494563
 31
0.0
  0
LINE
  8
52572015
  6
CONTINUOUS
 62
         7
  5
1DD
 10
57.6095831136
 20
215.6125494563
 30
0.0
 11
58.5095831136
 21
214.7125494563
 31
0.0
  0
LINE
  8
52572015
  6
CONTINUOUS
 62
         7
  5
1DE
 10
71.4095831136
 20
215.6125494563
 30
0.0
 11
71.4095831136
 21
220.4042590795
 31
0.0
  0
LINE
  8
52572015
  6
CONTINUOUS
 62
         7
  5
1DF
 10
71.2595831136
 20
212.2125494563
 30
0.0
 11
71.2595831136
 21
213.3625494563
 31
0.0
  0
LINE
  8
52572015
  6
CONTINUOUS
 62
         7
  5
1E0
 10
89.4115730014
 20
206.1273438522
 30
0.0
 11
84.9639461685
 21
207.3190818703
 31
0.0
  0
LINE
  8
52572015
  6
CONTINUOUS
 62
         7
  5
1E1
 10
92.5566201042
 20
211.465196584
 30
0.0
 11
89.1432622945
 21
205.6704649174
 31
0.0
  0
LINE
  8
52572015
  6
CONTINUOUS
 62
         7
  5
1E2
 10
114.5495237598
 20
198.7675877381
 30
0.0
 11
111.2378178333
 21
192.9141673294
 31
0.0
  0
LINE
  8
52572015
  6
CONTINUOUS
 62
         7
  5
1E3
 10
103.553071932
 20
205.1163921611
 30
0.0
 11
100.1905400639
 21
199.2923161234
 31
0.0
  0
LINE
  8
52572015
  6
CONTINUOUS
 62
         7
  5
1E4
 10
45.0095831136
 20
221.2125494563
 30
0.0
 11
34.0095831136
 21
221.2125494563
 31
0.0
  0
LINE
  8
52572015
  6
CONTINUOUS
 62
         7
  5
1E5
 10
13.8595831136
 20
151.9138987439
 30
0.0
 11
13.8595831136
 21
154.5830404265
 31
0.0
  0
LINE
  8
52572015
  6
CONTINUOUS
 62
         7
  5
1E6
 10
13.8595831136
 20
162.5347570612
 30
0.0
 11
13.8595831136
 21
167.8730404265
 31
0.0
  0
LINE
  8
52572015
  6
CONTINUOUS
 62
         7
  5
1E7
 10
46.4095831136
 20
220.4042590795
 30
0.0
 11
32.6095831136
 21
220.4042590795
 31
0.0
  0
LINE
  8
52572015
  6
CONTINUOUS
 62
         7
  5
1E8
 10
13.8595831136
 20
175.8247570612
 30
0.0
 11
13.8595831136
 21
167.8730404265
 31
0.0
  0
LINE
  8
52572015
  6
CONTINUOUS
 62
         7
  5
1E9
 10
126.5095831136
 20
151.9138987439
 30
0.0
 11
126.5095831136
 21
154.2323593321
 31
0.0
  0
LINE
  8
52572015
  6
CONTINUOUS
 62
         7
  5
1EA
 10
13.8595831136
 20
175.8247570612
 30
0.0
 11
13.8595831136
 21
178.4938987439
 31
0.0
  0
LINE
  8
52572015
  6
CONTINUOUS
 62
         7
  5
1EB
 10
126.5095831136
 20
162.8854381557
 30
0.0
 11
126.5095831136
 21
167.5223593321
 31
0.0
  0
LINE
  8
52572015
  6
CONTINUOUS
 62
         7
  5
1EC
 10
126.5095831136
 20
167.5223593321
 30
0.0
 11
126.5095831136
 21
176.1754381557
 31
0.0
  0
LINE
  8
52572015
  6
CONTINUOUS
 62
         7
  5
1ED
 10
126.5095831136
 20
176.1754381557
 30
0.0
 11
126.5095831136
 21
178.4938987439
 31
0.0
  0
LINE
  8
52572015
  6
CONTINUOUS
 62
         7
  5
1EE
 10
102.8518286497
 20
162.7218305846
 30
0.0
 11
99.1010890548
 21
162.7218305846
 31
0.0
  0
LINE
  8
52572015
  6
CONTINUOUS
 62
         7
  5
1EF
 10
103.304826229
 20
164.2243194502
 30
0.0
 11
102.8518286497
 21
162.7218305846
 31
0.0
  0
LINE
  8
52572015
  6
CONTINUOUS
 62
         7
  5
1F0
 10
101.9546890053
 20
164.2243194502
 30
0.0
 11
103.304826229
 21
164.2243194502
 31
0.0
  0
LINE
  8
52572015
  6
CONTINUOUS
 62
         7
  5
1F1
 10
101.9546890053
 20
167.7218305846
 30
0.0
 11
101.9546890053
 21
164.2243194502
 31
0.0
  0
LINE
  8
52572015
  6
CONTINUOUS
 62
         7
  5
1F2
 10
100.4522001397
 20
167.7218305846
 30
0.0
 11
101.9546890053
 21
167.7218305846
 31
0.0
  0
LINE
  8
52572015
  6
CONTINUOUS
 62
         7
  5
1F3
 10
100.4522001397
 20
164.2243194502
 30
0.0
 11
100.4522001397
 21
167.7218305846
 31
0.0
  0
LINE
  8
52572015
  6
CONTINUOUS
 62
         7
  5
1F4
 10
99.1010890548
 20
162.7218305846
 30
0.0
 11
99.5569002837
 21
164.2243194502
 31
0.0
  0
LINE
  8
52572015
  6
CONTINUOUS
 62
         7
  5
1F5
 10
99.5569002837
 20
164.2243194502
 30
0.0
 11
100.4522001397
 21
164.2243194502
 31
0.0
  0
LINE
  8
52572015
  6
CONTINUOUS
 62
         7
  5
1F6
 10
97.1846968845
 20
166.2193417191
 30
0.0
 11
97.6517627116
 21
167.7218305846
 31
0.0
  0
LINE
  8
52572015
  6
CONTINUOUS
 62
         7
  5
1F7
 10
97.8912884289
 20
166.219341719
 30
0.0
 11
97.1846968845
 21
166.219341719
 31
0.0
  0
LINE
  8
52572015
  6
CONTINUOUS
 62
         7
  5
1F8
 10
96.5605595864
 20
167.7218305847
 30
0.0
 11
97.4550819841
 21
164.788898963
 31
0.0
  0
LINE
  8
52572015
  6
CONTINUOUS
 62
         7
  5
1F9
 10
97.4550819841
 20
164.788898963
 30
0.0
 11
97.8912884289
 21
166.219341719
 31
0.0
  0
LINE
  8
52572015
  6
CONTINUOUS
 62
         7
  5
1FA
 10
94.9853027554
 20
167.7218305846
 30
0.0
 11
96.5605595864
 21
167.7218305846
 31
0.0
  0
LINE
  8
52572015
  6
CONTINUOUS
 62
         7
  5
1FB
 10
96.5146410825
 20
162.7218305846
 30
0.0
 11
94.9853027554
 21
167.7218305846
 31
0.0
  0
LINE
  8
52572015
  6
CONTINUOUS
 62
         7
  5
1FC
 10
98.3889732394
 20
162.7218305846
 30
0.0
 11
96.5146410825
 21
162.7218305846
 31
0.0
  0
LINE
  8
52572015
  6
CONTINUOUS
 62
         7
  5
1FD
 10
99.9183115664
 20
167.7218305846
 30
0.0
 11
98.3889732394
 21
162.7218305846
 31
0.0
  0
LINE
  8
52572015
  6
CONTINUOUS
 62
         7
  5
1FE
 10
97.6517627116
 20
167.7218305846
 30
0.0
 11
99.9183115664
 21
167.7218305846
 31
0.0
  0
LINE
  8
52572015
  6
CONTINUOUS
 62
         7
  5
1FF
 10
68.5788787108
 20
164.4756950881
 30
0.0
 11
64.1120199212
 21
164.4756950881
 31
0.0
  0
LINE
  8
52572015
  6
CONTINUOUS
 62
         7
  5
200
 10
68.5788787108
 20
162.7230097331
 30
0.0
 11
68.5788787108
 21
164.4756950881
 31
0.0
  0
LINE
  8
52572015
  6
CONTINUOUS
 62
         7
  5
201
 10
70.1573434737
 20
162.7230097331
 30
0.0
 11
68.5788787108
 21
162.7230097331
 31
0.0
  0
LINE
  8
52572015
  6
CONTINUOUS
 62
         7
  5
202
 10
48.5095831136
 20
185.2038987439
 30
0.0
 11
48.5095831136
 21
187.7125494563
 31
0.0
  0
LINE
  8
52572015
  6
CONTINUOUS
 62
         7
  5
203
 10
72.6573434737
 20
165.2230097331
 30
0.0
 11
70.1573434737
 21
162.7230097331
 31
0.0
  0
LINE
  8
52572015
  6
CONTINUOUS
 62
         7
  5
204
 10
70.1573434737
 20
167.7230097331
 30
0.0
 11
72.6573434737
 21
165.2230097331
 31
0.0
  0
LINE
  8
52572015
  6
CONTINUOUS
 62
         7
  5
205
 10
68.5788787108
 20
167.7230097331
 30
0.0
 11
70.1573434737
 21
167.7230097331
 31
0.0
  0
LINE
  8
52572015
  6
CONTINUOUS
 62
         7
  5
206
 10
68.5788787108
 20
165.9716343074
 30
0.0
 11
68.5788787108
 21
167.7230097331
 31
0.0
  0
LINE
  8
52572015
  6
CONTINUOUS
 62
         7
  5
207
 10
64.1120199212
 20
165.9716343074
 30
0.0
 11
68.5788787108
 21
165.9716343074
 31
0.0
  0
LINE
  8
52572015
  6
CONTINUOUS
 62
         7
  5
208
 10
55.5095831136
 20
187.7125494563
 30
0.0
 11
55.5095831136
 21
185.2038987439
 31
0.0
  0
LINE
  8
52572015
  6
CONTINUOUS
 62
         7
  5
209
 10
64.1120199212
 20
164.4756950881
 30
0.0
 11
64.1120199212
 21
165.9716343074
 31
0.0
  0
LINE
  8
52572015
  6
CONTINUOUS
 62
         7
  5
20A
 10
105.3526611754
 20
175.5538987439
 30
0.0
 11
102.6489152436
 21
175.5538987439
 31
0.0
  0
LINE
  8
52572015
  6
CONTINUOUS
 62
         7
  5
20B
 10
34.0869333828
 20
209.2125494563
 30
0.0
 11
33.5095831136
 21
208.2125494563
 31
0.0
  0
LINE
  8
52572015
  6
CONTINUOUS
 62
         7
  5
20C
 10
45.5095831136
 20
187.7125494563
 30
0.0
 11
45.5095831136
 21
208.2125494563
 31
0.0
  0
LINE
  8
52572015
  6
CONTINUOUS
 62
         7
  5
20D
 10
43.5095831136
 20
209.2125494563
 30
0.0
 11
43.5095831136
 21
212.2125494563
 31
0.0
  0
LINE
  8
52572015
  6
CONTINUOUS
 62
         7
  5
20E
 10
59.0869333828
 20
209.2125494563
 30
0.0
 11
58.5095831136
 21
208.2125494563
 31
0.0
  0
LINE
  8
52572015
  6
CONTINUOUS
 62
         7
  5
20F
 10
70.5095831136
 20
187.7125494563
 30
0.0
 11
70.5095831136
 21
208.2125494563
 31
0.0
  0
LINE
  8
52572015
  6
CONTINUOUS
 62
         7
  5
210
 10
68.5095831136
 20
209.2125494563
 30
0.0
 11
68.5095831136
 21
212.2125494563
 31
0.0
  0
LINE
  8
52572015
  6
CONTINUOUS
 62
         7
  5
211
 10
103.7847465134
 20
232.0176643069
 30
0.0
 11
100.2847465134
 21
225.9554864804
 31
0.0
  0
LINE
  8
52572015
  6
CONTINUOUS
 62
         7
  5
212
 10
100.9775668364
 20
225.5554864804
 30
0.0
 11
93.1735950452
 21
212.0386108371
 31
0.0
  0
LINE
  8
52572015
  6
CONTINUOUS
 62
         7
  5
213
 10
55.6354634389
 20
175.4446262571
 30
0.0
 11
55.6354634389
 21
185.2038987439
 31
0.0
  0
LINE
  8
52572015
  6
CONTINUOUS
 62
         7
  5
214
 10
48.3837027882
 20
185.2038987439
 30
0.0
 11
48.3837027882
 21
175.4446262571
 31
0.0
  0
LINE
  8
52572015
  6
CONTINUOUS
 62
         7
  5
215
 10
48.3837027882
 20
175.4446262571
 30
0.0
 11
55.6354634389
 21
175.4446262571
 31
0.0
  0
LINE
  8
52572015
  6
CONTINUOUS
 62
         7
  5
216
 10
126.5095831136
 20
154.2323593321
 30
0.0
 11
126.5095831136
 21
162.8854381557
 31
0.0
  0
LINE
  8
52572015
  6
CONTINUOUS
 62
         7
  5
217
 10
55.6354634389
 20
185.2038987439
 30
0.0
 11
48.3837027882
 21
185.2038987439
 31
0.0
  0
ARC
  8
52572015
  6
CONTINUOUS
 62
         7
  5
218
 10
-35.9859993369
 20
124.4531478942
 30
0.0
 40
85.4963831399
 50
33.7510845954
 51
38.4788341878
  0
POLYLINE
  8
52572015
  6
CONTINUOUS
 62
         7
  5
219
 66
         1
 10
0.0
 20
0.0
 30
0.0
 70
         4
  0
VERTEX
  8
52572015
  6
CONTINUOUS
 62
         7
  5
21A
 10
35.1007460436
 20
171.9537390612
 30
0.0
 70
         8
  0
VERTEX
  8
52572015
  6
CONTINUOUS
 62
         7
  5
21B
 10
36.0193779381
 20
171.3920616993
 30
0.0
 70
         8
  0
VERTEX
  8
52572015
  6
CONTINUOUS
 62
         7
  5
21C
 10
36.5078555171
 20
171.13070229
 30
0.0
 70
         8
  0
VERTEX
  8
52572015
  6
CONTINUOUS
 62
         7
  5
21D
 10
37.0164394762
 20
170.8905730968
 30
0.0
 70
         8
  0
VERTEX
  8
52572015
  6
CONTINUOUS
 62
         7
  5
21E
 10
37.5471299185
 20
170.6794013662
 30
0.0
 70
         8
  0
VERTEX
  8
52572015
  6
CONTINUOUS
 62
         7
  5
21F
 10
38.0985452512
 20
170.5074993665
 30
0.0
 70
         8
  0
VERTEX
  8
52572015
  6
CONTINUOUS
 62
         7
  5
220
 10
38.6661118999
 20
170.3849276563
 30
0.0
 70
         8
  0
VERTEX
  8
52572015
  6
CONTINUOUS
 62
         7
  5
221
 10
39.2452562903
 20
170.3217467945
 30
0.0
 70
         8
  0
VERTEX
  8
52572015
  6
CONTINUOUS
 62
         7
  5
222
 10
39.82943614
 20
170.326737011
 30
0.0
 70
         8
  0
VERTEX
  8
52572015
  6
CONTINUOUS
 62
         7
  5
223
 10
40.4100777776
 20
170.396695847
 30
0.0
 70
         8
  0
VERTEX
  8
52572015
  6
CONTINUOUS
 62
         7
  5
224
 10
40.9795605451
 20
170.5237098284
 30
0.0
 70
         8
  0
VERTEX
  8
52572015
  6
CONTINUOUS
 62
         7
  5
225
 10
41.5302637845
 20
170.6998654808
 30
0.0
 70
         8
  0
VERTEX
  8
52572015
  6
CONTINUOUS
 62
         7
  5
226
 10
42.0568072589
 20
170.9137340698
 30
0.0
 70
         8
  0
VERTEX
  8
52572015
  6
CONTINUOUS
 62
         7
  5
227
 10
42.5608759964
 20
171.1551457073
 30
0.0
 70
         8
  0
VERTEX
  8
52572015
  6
CONTINUOUS
 62
         7
  5
228
 10
43.0454472358
 20
171.418075189
 30
0.0
 70
         8
  0
VERTEX
  8
52572015
  6
CONTINUOUS
 62
         7
  5
229
 10
43.5134982161
 20
171.6964973106
 30
0.0
 70
         8
  0
VERTEX
  8
52572015
  6
CONTINUOUS
 62
         7
  5
22A
 10
44.3994643938
 20
172.2742330362
 30
0.0
 70
         8
  0
VERTEX
  8
52572015
  6
CONTINUOUS
 62
         7
  5
22B
 10
45.2144507137
 20
172.8583514308
 30
0.0
 70
         8
  0
VERTEX
  8
52572015
  6
CONTINUOUS
 62
         7
  5
22C
 10
45.9587884387
 20
173.4301795615
 30
0.0
 70
         8
  0
VERTEX
  8
52572015
  6
CONTINUOUS
 62
         7
  5
22D
 10
46.6328088314
 20
173.9710444953
 30
0.0
 70
         8
  0
VERTEX
  8
52572015
  6
CONTINUOUS
 62
         7
  5
22E
 10
47.7307087325
 20
174.8833306479
 30
0.0
 70
         8
  0
VERTEX
  8
52572015
  6
CONTINUOUS
 62
         7
  5
22F
 10
48.3837027882
 20
175.4446262571
 30
0.0
 70
         8
  0
SEQEND
  8
52572015
  6
CONTINUOUS
 62
         7
  5
230
  0
POLYLINE
  8
52572015
  6
CONTINUOUS
 62
         7
  5
231
 66
         1
 10
0.0
 20
0.0
 30
0.0
 70
         4
  0
VERTEX
  8
52572015
  6
CONTINUOUS
 62
         7
  5
232
 10
30.5095831266
 20
177.953898734
 30
0.0
 70
         8
  0
VERTEX
  8
52572015
  6
CONTINUOUS
 62
         7
  5
233
 10
30.5095834369
 20
177.9538985154
 30
0.0
 70
         8
  0
VERTEX
  8
52572015
  6
CONTINUOUS
 62
         7
  5
234
 10
30.5095843924
 20
177.9538978412
 30
0.0
 70
         8
  0
VERTEX
  8
52572015
  6
CONTINUOUS
 62
         7
  5
235
 10
30.5377403065
 20
177.9340244386
 30
0.0
 70
         8
  0
VERTEX
  8
52572015
  6
CONTINUOUS
 62
         7
  5
236
 10
30.6202519805
 20
177.8760220069
 30
0.0
 70
         8
  0
VERTEX
  8
52572015
  6
CONTINUOUS
 62
         7
  5
237
 10
30.7559554483
 20
177.781185032
 30
0.0
 70
         8
  0
VERTEX
  8
52572015
  6
CONTINUOUS
 62
         7
  5
238
 10
30.9438241054
 20
177.6511766545
 30
0.0
 70
         8
  0
SEQEND
  8
52572015
  6
CONTINUOUS
 62
         7
  5
239
  0
POLYLINE
  8
52572015
  6
CONTINUOUS
 62
         7
  5
23A
 66
         1
 10
0.0
 20
0.0
 30
0.0
 70
         4
  0
VERTEX
  8
52572015
  6
CONTINUOUS
 62
         7
  5
23B
 10
55.6354634389
 20
175.4446262571
 30
0.0
 70
         8
  0
VERTEX
  8
52572015
  6
CONTINUOUS
 62
         7
  5
23C
 10
56.4290515694
 20
174.7635094411
 30
0.0
 70
         8
  0
VERTEX
  8
52572015
  6
CONTINUOUS
 62
         7
  5
23D
 10
57.785971312
 20
173.6495754875
 30
0.0
 70
         8
  0
VERTEX
  8
52572015
  6
CONTINUOUS
 62
         7
  5
23E
 10
58.6157259234
 20
173.0046592872
 30
0.0
 70
         8
  0
VERTEX
  8
52572015
  6
CONTINUOUS
 62
         7
  5
23F
 10
59.5381074454
 20
172.3339808134
 30
0.0
 70
         8
  0
VERTEX
  8
52572015
  6
CONTINUOUS
 62
         7
  5
240
 10
60.5483448031
 20
171.668802797
 30
0.0
 70
         8
  0
VERTEX
  8
52572015
  6
CONTINUOUS
 62
         7
  5
241
 10
61.08683773
 20
171.3542721704
 30
0.0
 70
         8
  0
VERTEX
  8
52572015
  6
CONTINUOUS
 62
         7
  5
242
 10
61.6509220594
 20
171.0600444919
 30
0.0
 70
         8
  0
VERTEX
  8
52572015
  6
CONTINUOUS
 62
         7
  5
243
 10
62.2453035793
 20
170.7947871111
 30
0.0
 70
         8
  0
VERTEX
  8
52572015
  6
CONTINUOUS
 62
         7
  5
244
 10
62.8688143014
 20
170.573503005
 30
0.0
 70
         8
  0
VERTEX
  8
52572015
  6
CONTINUOUS
 62
         7
  5
245
 10
63.5151499895
 20
170.4118936351
 30
0.0
 70
         8
  0
VERTEX
  8
52572015
  6
CONTINUOUS
 62
         7
  5
246
 10
63.844907122
 20
170.3583736832
 30
0.0
 70
         8
  0
VERTEX
  8
52572015
  6
CONTINUOUS
 62
         7
  5
247
 10
64.1780064073
 20
170.3256604634
 30
0.0
 70
         8
  0
VERTEX
  8
52572015
  6
CONTINUOUS
 62
         7
  5
248
 10
64.5126114592
 20
170.3158212421
 30
0.0
 70
         8
  0
VERTEX
  8
52572015
  6
CONTINUOUS
 62
         7
  5
249
 10
64.8466392556
 20
170.3285911218
 30
0.0
 70
         8
  0
VERTEX
  8
52572015
  6
CONTINUOUS
 62
         7
  5
24A
 10
65.1789318133
 20
170.3624345397
 30
0.0
 70
         8
  0
VERTEX
  8
52572015
  6
CONTINUOUS
 62
         7
  5
24B
 10
65.5083311493
 20
170.415815933
 30
0.0
 70
         8
  0
VERTEX
  8
52572015
  6
CONTINUOUS
 62
         7
  5
24C
 10
66.1538182235
 20
170.5750503947
 30
0.0
 70
         8
  0
VERTEX
  8
52572015
  6
CONTINUOUS
 62
         7
  5
24D
 10
66.7738366133
 20
170.7940100049
 30
0.0
 70
         8
  0
VERTEX
  8
52572015
  6
CONTINUOUS
 62
         7
  5
24E
 10
67.3647478814
 20
171.0574938495
 30
0.0
 70
         8
  0
VERTEX
  8
52572015
  6
CONTINUOUS
 62
         7
  5
24F
 10
67.9295624834
 20
171.3521207589
 30
0.0
 70
         8
  0
VERTEX
  8
52572015
  6
CONTINUOUS
 62
         7
  5
250
 10
68.4689898933
 20
171.668335848
 30
0.0
 70
         8
  0
VERTEX
  8
52572015
  6
CONTINUOUS
 62
         7
  5
251
 10
68.983739585
 20
171.9965842313
 30
0.0
 70
         8
  0
VERTEX
  8
52572015
  6
CONTINUOUS
 62
         7
  5
252
 10
69.9501886605
 20
172.6682286478
 30
0.0
 70
         8
  0
VERTEX
  8
52572015
  6
CONTINUOUS
 62
         7
  5
253
 10
70.8291320009
 20
173.3315797255
 30
0.0
 70
         8
  0
SEQEND
  8
52572015
  6
CONTINUOUS
 62
         7
  5
254
  0
LINE
  8
52572015
  6
CONTINUOUS
 62
         7
  5
255
 10
70.9381746825
 20
172.6393550548
 30
0.0
 11
70.8291320009
 21
173.3315797255
 31
0.0
  0
POLYLINE
  8
52572015
  6
CONTINUOUS
 62
         7
  5
256
 66
         1
 10
0.0
 20
0.0
 30
0.0
 70
         4
  0
VERTEX
  8
52572015
  6
CONTINUOUS
 62
         7
  5
257
 10
90.0809915446
 20
161.5872445864
 30
0.0
 70
         8
  0
VERTEX
  8
52572015
  6
CONTINUOUS
 62
         7
  5
258
 10
88.6569475812
 20
161.8235873086
 30
0.0
 70
         8
  0
VERTEX
  8
52572015
  6
CONTINUOUS
 62
         7
  5
259
 10
87.2441929963
 20
162.1102628931
 30
0.0
 70
         8
  0
VERTEX
  8
52572015
  6
CONTINUOUS
 62
         7
  5
25A
 10
85.8451766025
 20
162.4595889272
 30
0.0
 70
         8
  0
VERTEX
  8
52572015
  6
CONTINUOUS
 62
         7
  5
25B
 10
85.1515854811
 20
162.6615951088
 30
0.0
 70
         8
  0
VERTEX
  8
52572015
  6
CONTINUOUS
 62
         7
  5
25C
 10
84.4623472122
 20
162.8838829982
 30
0.0
 70
         8
  0
VERTEX
  8
52572015
  6
CONTINUOUS
 62
         7
  5
25D
 10
83.7791748386
 20
163.1286208575
 30
0.0
 70
         8
  0
VERTEX
  8
52572015
  6
CONTINUOUS
 62
         7
  5
25E
 10
83.1040710882
 20
163.3964216985
 30
0.0
 70
         8
  0
VERTEX
  8
52572015
  6
CONTINUOUS
 62
         7
  5
25F
 10
82.4377765901
 20
163.6864923434
 30
0.0
 70
         8
  0
VERTEX
  8
52572015
  6
CONTINUOUS
 62
         7
  5
260
 10
81.7810319735
 20
163.9980396143
 30
0.0
 70
         8
  0
VERTEX
  8
52572015
  6
CONTINUOUS
 62
         7
  5
261
 10
81.1345778673
 20
164.3302703335
 30
0.0
 70
         8
  0
VERTEX
  8
52572015
  6
CONTINUOUS
 62
         7
  5
262
 10
80.4991549006
 20
164.6823913233
 30
0.0
 70
         8
  0
VERTEX
  8
52572015
  6
CONTINUOUS
 62
         7
  5
263
 10
79.8755037026
 20
165.0536094057
 30
0.0
 70
         8
  0
VERTEX
  8
52572015
  6
CONTINUOUS
 62
         7
  5
264
 10
79.2643649022
 20
165.4431314031
 30
0.0
 70
         8
  0
VERTEX
  8
52572015
  6
CONTINUOUS
 62
         7
  5
265
 10
78.0730155908
 20
166.2726436301
 30
0.0
 70
         8
  0
VERTEX
  8
52572015
  6
CONTINUOUS
 62
         7
  5
266
 10
76.9196580383
 20
167.1552668856
 30
0.0
 70
         8
  0
VERTEX
  8
52572015
  6
CONTINUOUS
 62
         7
  5
267
 10
75.8075134662
 20
168.0725884052
 30
0.0
 70
         8
  0
VERTEX
  8
52572015
  6
CONTINUOUS
 62
         7
  5
268
 10
74.7398030957
 20
169.0061954247
 30
0.0
 70
         8
  0
VERTEX
  8
52572015
  6
CONTINUOUS
 62
         7
  5
269
 10
73.7132140986
 20
169.9446320495
 30
0.0
 70
         8
  0
VERTEX
  8
52572015
  6
CONTINUOUS
 62
         7
  5
26A
 10
72.7298495981
 20
170.8758442119
 30
0.0
 70
         8
  0
VERTEX
  8
52572015
  6
CONTINUOUS
 62
         7
  5
26B
 10
71.8010547431
 20
171.7805218883
 30
0.0
 70
         8
  0
VERTEX
  8
52572015
  6
CONTINUOUS
 62
         7
  5
26C
 10
70.9381746825
 20
172.6393550548
 30
0.0
 70
         8
  0
SEQEND
  8
52572015
  6
CONTINUOUS
 62
         7
  5
26D
  0
ARC
  8
52572015
  6
CONTINUOUS
 62
         7
  5
26E
 10
-202.2281195156
 20
272.1348988729
 30
0.0
 40
290.3831236148
 50
340.1077970494
 51
341.7255079978
  0
POLYLINE
  8
52572015
  6
CONTINUOUS
 62
         7
  5
26F
 66
         1
 10
0.0
 20
0.0
 30
0.0
 70
         4
  0
VERTEX
  8
52572015
  6
CONTINUOUS
 62
         7
  5
270
 10
102.6509651661
 20
175.553898263
 30
0.0
 70
         8
  0
VERTEX
  8
52572015
  6
CONTINUOUS
 62
         7
  5
271
 10
102.6509608214
 20
175.5538951836
 30
0.0
 70
         8
  0
VERTEX
  8
52572015
  6
CONTINUOUS
 62
         7
  5
272
 10
102.6509461594
 20
175.5538849231
 30
0.0
 70
         8
  0
VERTEX
  8
52572015
  6
CONTINUOUS
 62
         7
  5
273
 10
102.4897912939
 20
175.4412053055
 30
0.0
 70
         8
  0
VERTEX
  8
52572015
  6
CONTINUOUS
 62
         7
  5
274
 10
102.0512738526
 20
175.1324542042
 30
0.0
 70
         8
  0
VERTEX
  8
52572015
  6
CONTINUOUS
 62
         7
  5
275
 10
101.3943876842
 20
174.664944265
 30
0.0
 70
         8
  0
VERTEX
  8
52572015
  6
CONTINUOUS
 62
         7
  5
276
 10
100.584635757
 20
174.0791503313
 30
0.0
 70
         8
  0
VERTEX
  8
52572015
  6
CONTINUOUS
 62
         7
  5
277
 10
98.699790476
 20
172.665690676
 30
0.0
 70
         8
  0
VERTEX
  8
52572015
  6
CONTINUOUS
 62
         7
  5
278
 10
97.676964363
 20
171.8594335926
 30
0.0
 70
         8
  0
VERTEX
  8
52572015
  6
CONTINUOUS
 62
         7
  5
279
 10
96.6335950697
 20
170.999055805
 30
0.0
 70
         8
  0
VERTEX
  8
52572015
  6
CONTINUOUS
 62
         7
  5
27A
 10
95.5832372283
 20
170.0851548422
 30
0.0
 70
         8
  0
VERTEX
  8
52572015
  6
CONTINUOUS
 62
         7
  5
27B
 10
94.5393025403
 20
169.1068534753
 30
0.0
 70
         8
  0
VERTEX
  8
52572015
  6
CONTINUOUS
 62
         7
  5
27C
 10
94.0274251146
 20
168.5910404415
 30
0.0
 70
         8
  0
VERTEX
  8
52572015
  6
CONTINUOUS
 62
         7
  5
27D
 10
93.5263709602
 20
168.0561126678
 30
0.0
 70
         8
  0
VERTEX
  8
52572015
  6
CONTINUOUS
 62
         7
  5
27E
 10
93.0392125716
 20
167.5010652748
 30
0.0
 70
         8
  0
VERTEX
  8
52572015
  6
CONTINUOUS
 62
         7
  5
27F
 10
92.5690224429
 20
166.9248933829
 30
0.0
 70
         8
  0
VERTEX
  8
52572015
  6
CONTINUOUS
 62
         7
  5
280
 10
92.1200521738
 20
166.3254479866
 30
0.0
 70
         8
  0
VERTEX
  8
52572015
  6
CONTINUOUS
 62
         7
  5
281
 10
91.6988173768
 20
165.7020840894
 30
0.0
 70
         8
  0
VERTEX
  8
52572015
  6
CONTINUOUS
 62
         7
  5
282
 10
91.3117865656
 20
165.0560528252
 30
0.0
 70
         8
  0
VERTEX
  8
52572015
  6
CONTINUOUS
 62
         7
  5
283
 10
90.9654282543
 20
164.3886053278
 30
0.0
 70
         8
  0
VERTEX
  8
52572015
  6
CONTINUOUS
 62
         7
  5
284
 10
90.6667106168
 20
163.7018683833
 30
0.0
 70
         8
  0
VERTEX
  8
52572015
  6
CONTINUOUS
 62
         7
  5
285
 10
90.4190107187
 20
163.0015986502
 30
0.0
 70
         8
  0
VERTEX
  8
52572015
  6
CONTINUOUS
 62
         7
  5
286
 10
90.223410411
 20
162.2944920705
 30
0.0
 70
         8
  0
VERTEX
  8
52572015
  6
CONTINUOUS
 62
         7
  5
287
 10
90.0809915446
 20
161.5872445864
 30
0.0
 70
         8
  0
SEQEND
  8
52572015
  6
CONTINUOUS
 62
         7
  5
288
  0
LINE
  8
52572015
  6
CONTINUOUS
 62
         7
  5
289
 10
107.3645457254
 20
243.8072727288
 30
0.0
 11
105.0729431914
 21
243.9756295302
 31
0.0
  0
LINE
  8
52572015
  6
CONTINUOUS
 62
         7
  5
28A
 10
113.2367154394
 20
239.2622734253
 30
0.0
 11
113.2449682775
 21
240.4122091854
 31
0.0
  0
LINE
  8
52572015
  6
CONTINUOUS
 62
         7
  5
28B
 10
129.2741979497
 20
231.1577291192
 30
0.0
 11
128.2824507877
 21
230.5756140717
 31
0.0
  0
LINE
  8
52572015
  6
CONTINUOUS
 62
         7
  5
28C
 10
93.1735950452
 20
212.0386108371
 30
0.0
 11
92.9189798134
 21
212.0835063721
 31
0.0
  0
LINE
  8
52572015
  6
CONTINUOUS
 62
         7
  5
28D
 10
129.2741979497
 20
231.1577291192
 30
0.0
 11
138.5444304959
 21
225.8055578632
 31
0.0
  0
LINE
  8
52572015
  6
CONTINUOUS
 62
         7
  5
28E
 10
139.2029142107
 20
224.2706815748
 30
0.0
 11
138.5444304959
 21
225.8055578632
 31
0.0
  0
LINE
  8
52572015
  6
CONTINUOUS
 62
         7
  5
28F
 10
98.1910913867
 20
263.1450376266
 30
0.0
 11
97.4618409253
 21
263.5660705768
 31
0.0
  0
POLYLINE
  8
52572015
  6
CONTINUOUS
 62
         7
  5
290
 66
         1
 10
0.0
 20
0.0
 30
0.0
  0
VERTEX
  8
52572015
  6
CONTINUOUS
 62
         7
  5
291
 10
115.2895393184
 20
257.5337642815
 30
0.0
  0
VERTEX
  8
52572015
  6
CONTINUOUS
 62
         7
  5
292
 10
114.2638762723
 20
257.9895810429
 30
0.0
  0
VERTEX
  8
52572015
  6
CONTINUOUS
 62
         7
  5
293
 10
113.231361087
 20
258.4318626658
 30
0.0
  0
VERTEX
  8
52572015
  6
CONTINUOUS
 62
         7
  5
294
 10
112.1922237873
 20
258.860485693
 30
0.0
  0
VERTEX
  8
52572015
  6
CONTINUOUS
 62
         7
  5
295
 10
111.1466979112
 20
259.2753327993
 30
0.0
  0
VERTEX
  8
52572015
  6
CONTINUOUS
 62
         7
  5
296
 10
110.0950203362
 20
259.6762928962
 30
0.0
  0
VERTEX
  8
52572015
  6
CONTINUOUS
 62
         7
  5
297
 10
109.037431101
 20
260.0632612288
 30
0.0
  0
VERTEX
  8
52572015
  6
CONTINUOUS
 62
         7
  5
298
 10
107.9741732231
 20
260.4361394659
 30
0.0
  0
VERTEX
  8
52572015
  6
CONTINUOUS
 62
         7
  5
299
 10
106.9054925137
 20
260.7948357825
 30
0.0
  0
VERTEX
  8
52572015
  6
CONTINUOUS
 62
         7
  5
29A
 10
105.8316373875
 20
261.1392649351
 30
0.0
  0
VERTEX
  8
52572015
  6
CONTINUOUS
 62
         7
  5
29B
 10
104.7528586706
 20
261.4693483292
 30
0.0
  0
VERTEX
  8
52572015
  6
CONTINUOUS
 62
         7
  5
29C
 10
103.6694094055
 20
261.7850140787
 30
0.0
  0
VERTEX
  8
52572015
  6
CONTINUOUS
 62
         7
  5
29D
 10
102.5815446529
 20
262.0861970582
 30
0.0
  0
VERTEX
  8
52572015
  6
CONTINUOUS
 62
         7
  5
29E
 10
101.4895212923
 20
262.3728389469
 30
0.0
  0
VERTEX
  8
52572015
  6
CONTINUOUS
 62
         7
  5
29F
 10
100.3935978198
 20
262.6448882644
 30
0.0
  0
VERTEX
  8
52572015
  6
CONTINUOUS
 62
         7
  5
2A0
 10
99.294034145
 20
262.9023003987
 30
0.0
  0
VERTEX
  8
52572015
  6
CONTINUOUS
 62
         7
  5
2A1
 10
98.1910913867
 20
263.1450376266
 30
0.0
  0
SEQEND
  8
52572015
  6
CONTINUOUS
 62
         7
  5
2A2
  0
LINE
  8
52572015
  6
CONTINUOUS
 62
         7
  5
2A3
 10
84.9639461685
 20
207.3190818703
 30
0.0
 11
83.3639461685
 21
204.5478005782
 31
0.0
  0
LINE
  8
52572015
  6
CONTINUOUS
 62
         7
  5
2A4
 10
115.2895393184
 20
257.5337642815
 30
0.0
 11
121.1699618705
 21
254.1387007381
 31
0.0
  0
POLYLINE
  8
52572015
  6
CONTINUOUS
 62
         7
  5
2A5
 66
         1
 10
0.0
 20
0.0
 30
0.0
  0
VERTEX
  8
52572015
  6
CONTINUOUS
 62
         7
  5
2A6
 10
124.1983090015
 20
248.9509093234
 30
0.0
  0
VERTEX
  8
52572015
  6
CONTINUOUS
 62
         7
  5
2A7
 10
123.8786506137
 20
249.6816568557
 30
0.0
  0
VERTEX
  8
52572015
  6
CONTINUOUS
 62
         7
  5
2A8
 10
123.5418641019
 20
250.3895362682
 30
0.0
  0
VERTEX
  8
52572015
  6
CONTINUOUS
 62
         7
  5
2A9
 10
123.188082219
 20
251.0742020704
 30
0.0
  0
VERTEX
  8
52572015
  6
CONTINUOUS
 62
         7
  5
2AA
 10
122.8174532286
 20
251.7353293235
 30
0.0
  0
VERTEX
  8
52572015
  6
CONTINUOUS
 62
         7
  5
2AB
 10
122.4301407001
 20
252.3726141527
 30
0.0
  0
VERTEX
  8
52572015
  6
CONTINUOUS
 62
         7
  5
2AC
 10
122.0263232673
 20
252.9857742126
 30
0.0
  0
VERTEX
  8
52572015
  6
CONTINUOUS
 62
         7
  5
2AD
 10
121.606194355
 20
253.5745491034
 30
0.0
  0
VERTEX
  8
52572015
  6
CONTINUOUS
 62
         7
  5
2AE
 10
121.1699618705
 20
254.1387007381
 30
0.0
  0
SEQEND
  8
52572015
  6
CONTINUOUS
 62
         7
  5
2AF
  0
LINE
  8
52572015
  6
CONTINUOUS
 62
         7
  5
2B0
 10
155.6230240009
 20
230.8078416593
 30
0.0
 11
155.841109535
 21
230.6819299175
 31
0.0
  0
LINE
  8
52572015
  6
CONTINUOUS
 62
         7
  5
2B1
 10
115.2895393184
 20
257.5337642815
 30
0.0
 11
107.3645457254
 21
243.8072727288
 31
0.0
  0
POLYLINE
  8
52572015
  6
CONTINUOUS
 62
         7
  5
2B2
 66
         1
 10
0.0
 20
0.0
 30
0.0
  0
VERTEX
  8
52572015
  6
CONTINUOUS
 62
         7
  5
2B3
 10
137.1991915427
 20
244.884220672
 30
0.0
  0
VERTEX
  8
52572015
  6
CONTINUOUS
 62
         7
  5
2B4
 10
136.4925056531
 20
244.9799332681
 30
0.0
  0
VERTEX
  8
52572015
  6
CONTINUOUS
 62
         7
  5
2B5
 10
135.7725471844
 20
245.0493881337
 30
0.0
  0
VERTEX
  8
52572015
  6
CONTINUOUS
 62
         7
  5
2B6
 10
135.0396262797
 20
245.092524259
 30
0.0
  0
VERTEX
  8
52572015
  6
CONTINUOUS
 62
         7
  5
2B7
 10
134.2940651638
 20
245.1093043333
 30
0.0
  0
VERTEX
  8
52572015
  6
CONTINUOUS
 62
         7
  5
2B8
 10
133.5361976723
 20
245.0997148278
 30
0.0
  0
VERTEX
  8
52572015
  6
CONTINUOUS
 62
         7
  5
2B9
 10
132.766368753
 20
245.0637660247
 30
0.0
  0
VERTEX
  8
52572015
  6
CONTINUOUS
 62
         7
  5
2BA
 10
131.9849339431
 20
245.0014919934
 30
0.0
  0
VERTEX
  8
52572015
  6
CONTINUOUS
 62
         7
  5
2BB
 10
131.1922588225
 20
244.9129505116
 30
0.0
  0
SEQEND
  8
52572015
  6
CONTINUOUS
 62
         7
  5
2BC
  0
LINE
  8
52572015
  6
CONTINUOUS
 62
         7
  5
2BD
 10
137.1991915427
 20
244.884220672
 30
0.0
 11
146.4694240889
 21
239.532049416
 31
0.0
  0
POLYLINE
  8
52572015
  6
CONTINUOUS
 62
         7
  5
2BE
 66
         1
 10
0.0
 20
0.0
 30
0.0
  0
VERTEX
  8
52572015
  6
CONTINUOUS
 62
         7
  5
2BF
 10
155.6230240009
 20
230.8078416593
 30
0.0
  0
VERTEX
  8
52572015
  6
CONTINUOUS
 62
         7
  5
2C0
 10
154.5492856037
 20
231.9739574881
 30
0.0
  0
VERTEX
  8
52572015
  6
CONTINUOUS
 62
         7
  5
2C1
 10
153.4544275796
 20
233.1195096922
 30
0.0
  0
VERTEX
  8
52572015
  6
CONTINUOUS
 62
         7
  5
2C2
 10
152.3389205144
 20
234.2439577334
 30
0.0
  0
VERTEX
  8
52572015
  6
CONTINUOUS
 62
         7
  5
2C3
 10
151.2032542117
 20
235.3467794847
 30
0.0
  0
VERTEX
  8
52572015
  6
CONTINUOUS
 62
         7
  5
2C4
 10
150.0479369777
 20
236.4274720374
 30
0.0
  0
VERTEX
  8
52572015
  6
CONTINUOUS
 62
         7
  5
2C5
 10
148.8734948628
 20
237.4855524649
 30
0.0
  0
VERTEX
  8
52572015
  6
CONTINUOUS
 62
         7
  5
2C6
 10
147.680470864
 20
238.5205585419
 30
0.0
  0
VERTEX
  8
52572015
  6
CONTINUOUS
 62
         7
  5
2C7
 10
146.4694240889
 20
239.532049416
 30
0.0
  0
SEQEND
  8
52572015
  6
CONTINUOUS
 62
         7
  5
2C8
  0
LINE
  8
52572015
  6
CONTINUOUS
 62
         7
  5
2C9
 10
131.1922588225
 20
244.9129505116
 30
0.0
 11
124.1983090015
 21
248.9509093234
 31
0.0
  0
LINE
  8
52572015
  6
CONTINUOUS
 62
         7
  5
2CA
 10
98.1910913867
 20
263.1450376266
 30
0.0
 11
91.6109571444
 21
251.7479107983
 31
0.0
  0
LINE
  8
52572015
  6
CONTINUOUS
 62
         7
  5
2CB
 10
112.4867154394
 20
237.9632353196
 30
0.0
 11
116.5126082031
 21
235.6388850488
 31
0.0
  0
LINE
  8
52572015
  6
CONTINUOUS
 62
         7
  5
2CC
 10
123.5065580241
 20
231.6009262369
 30
0.0
 11
127.5324507877
 21
229.2765759661
 31
0.0
  0
LINE
  8
52572015
  6
CONTINUOUS
 62
         7
  5
2CD
 10
137.1991915427
 20
244.884220672
 30
0.0
 11
129.2741979497
 21
231.1577291192
 31
0.0
  0
LINE
  8
52572015
  6
CONTINUOUS
 62
         7
  5
2CE
 10
131.1922588225
 20
244.9129505116
 30
0.0
 11
123.5065580241
 21
231.6009262369
 31
0.0
  0
LINE
  8
52572015
  6
CONTINUOUS
 62
         7
  5
2CF
 10
124.1983090015
 20
248.9509093234
 30
0.0
 11
116.5126082031
 21
235.6388850488
 31
0.0
  0
LINE
  8
52572015
  6
CONTINUOUS
 62
         7
  5
2D0
 10
116.5126082031
 20
235.6388850488
 30
0.0
 11
123.5065580241
 21
231.6009262369
 31
0.0
  0
LINE
  8
52572015
  6
CONTINUOUS
 62
         7
  5
2D1
 10
147.9373232025
 20
217.4958173846
 30
0.0
 11
148.1554087366
 21
217.3699056428
 31
0.0
  0
LINE
  8
52572015
  6
CONTINUOUS
 62
         7
  5
2D2
 10
138.4529142107
 20
222.9716434692
 30
0.0
 11
147.9373232025
 21
217.4958173846
 31
0.0
  0
LINE
  8
52572015
  6
CONTINUOUS
 62
         7
  5
2D3
 10
121.1699618705
 20
254.1387007381
 30
0.0
 11
113.2449682775
 21
240.4122091854
 31
0.0
  0
LINE
  8
52572015
  6
CONTINUOUS
 62
         7
  5
2D4
 10
155.6230240009
 20
230.8078416593
 30
0.0
 11
147.9373232025
 21
217.4958173846
 31
0.0
  0
LINE
  8
52572015
  6
CONTINUOUS
 62
         7
  5
2D5
 10
93.1735950452
 20
212.0386108371
 30
0.0
 11
114.7376275994
 21
199.5886108371
 31
0.0
  0
LINE
  8
52572015
  6
CONTINUOUS
 62
         7
  5
2D6
 10
146.4694240889
 20
239.532049416
 30
0.0
 11
138.5444304959
 21
225.8055578632
 31
0.0
  0
LINE
  8
52572015
  6
CONTINUOUS
 62
         7
  5
2D7
 10
114.9027204719
 20
199.3918608132
 30
0.0
 11
114.5495237598
 21
198.7675877381
 31
0.0
  0
LINE
  8
52572015
  6
CONTINUOUS
 62
         7
  5
2D8
 10
92.5566201042
 20
211.465196584
 30
0.0
 11
92.9206580901
 21
212.0832104467
 31
0.0
  0
ARC
  8
52572015
  6
CONTINUOUS
 62
         7
  5
2D9
 10
84.0543757574
 20
184.0412685511
 30
0.0
 40
28.7116698868
 50
47.2250118574
 51
72.7749881426
  0
ARC
  8
52572015
  6
CONTINUOUS
 62
         7
  5
2DA
 10
86.4927281152
 20
162.8107122879
 30
0.0
 40
38.9684163213
 50
50.5797388818
 51
69.4202611182
  0
ARC
  8
52572015
  6
CONTINUOUS
 62
         7
  5
2DB
 10
95.0508275876
 20
177.6924641322
 30
0.0
 40
28.7116698822
 50
47.2250118553
 51
72.7749881447
  0
LINE
  8
52572015
  6
CONTINUOUS
 62
         7
  5
2DC
 10
84.9639461685
 20
207.3190818703
 30
0.0
 11
114.7552200587
 21
190.1190818703
 31
0.0
  0
ARC
  8
52572015
  6
CONTINUOUS
 62
         7
  5
2DD
 10
75.4454503458
 20
169.1888610818
 30
0.0
 40
38.9684163213
 50
50.5797388818
 51
69.4202611182
  0
LINE
  8
52572015
  6
CONTINUOUS
 62
         7
  5
2DE
 10
83.3639461685
 20
204.5478005782
 30
0.0
 11
113.1552200587
 21
187.3478005782
 31
0.0
  0
LINE
  8
52572015
  6
CONTINUOUS
 62
         7
  5
2DF
 10
103.194708282
 20
176.4956881117
 30
0.0
 11
104.9267590896
 21
177.4956881117
 31
0.0
  0
LINE
  8
52572015
  6
CONTINUOUS
 62
         7
  5
2E0
 10
82.445996976
 20
198.5578659381
 30
0.0
 11
78.945996976
 21
192.4956881117
 31
0.0
  0
LINE
  8
52572015
  6
CONTINUOUS
 62
         7
  5
2E1
 10
78.945996976
 20
190.4956881117
 30
0.0
 11
73.5080408309
 21
181.0768717789
 31
0.0
  0
LINE
  8
52572015
  6
CONTINUOUS
 62
         7
  5
2E2
 10
108.4267590896
 20
183.5578659381
 30
0.0
 11
111.1588098971
 21
184.2899167457
 31
0.0
  0
LINE
  8
52572015
  6
CONTINUOUS
 62
         7
  5
2E3
 10
83.5371512492
 20
204.4478005782
 30
0.0
 11
81.7139461685
 21
201.2899167457
 31
0.0
  0
LINE
  8
52572015
  6
CONTINUOUS
 62
         7
  5
2E4
 10
30.5095831136
 20
177.9538987439
 30
0.0
 11
22.9438241054
 21
177.9538987439
 31
0.0
  0
LINE
  8
52572015
  6
CONTINUOUS
 62
         7
  5
2E5
 10
22.9438241054
 20
177.9538987439
 30
0.0
 11
22.7472801789
 21
178.4938987439
 31
0.0
  0
LINE
  8
52572015
  6
CONTINUOUS
 62
         7
  5
2E6
 10
117.5095831136
 20
177.9538987439
 30
0.0
 11
109.5095831136
 21
177.9538987439
 31
0.0
  0
LINE
  8
52572015
  6
CONTINUOUS
 62
         7
  5
2E7
 10
105.3526611754
 20
154.8538987439
 30
0.0
 11
109.5095831136
 21
152.4538987439
 31
0.0
  0
LINE
  8
52572015
  6
CONTINUOUS
 62
         7
  5
2E8
 10
117.5095831136
 20
152.4538987439
 30
0.0
 11
117.7061270401
 21
151.9138987439
 31
0.0
  0
LINE
  8
52572015
  6
CONTINUOUS
 62
         7
  5
2E9
 10
34.0095831136
 20
221.2125494563
 30
0.0
 11
32.6095831136
 21
220.4042590795
 31
0.0
  0
LINE
  8
52572015
  6
CONTINUOUS
 62
         7
  5
2EA
 10
33.5095831136
 20
214.7125494563
 30
0.0
 11
33.5095831136
 21
213.3625494563
 31
0.0
  0
LINE
  8
52572015
  6
CONTINUOUS
 62
         7
  5
2EB
 10
45.5095831136
 20
214.7125494563
 30
0.0
 11
46.4095831136
 21
215.6125494563
 31
0.0
  0
LINE
  8
52572015
  6
CONTINUOUS
 62
         7
  5
2EC
 10
32.6095831136
 20
220.4042590795
 30
0.0
 11
32.6095831136
 21
215.6125494563
 31
0.0
  0
LINE
  8
52572015
  6
CONTINUOUS
 62
         7
  5
2ED
 10
32.7595831136
 20
213.3625494563
 30
0.0
 11
32.7595831136
 21
212.2125494563
 31
0.0
  0
LINE
  8
52572015
  6
CONTINUOUS
 62
         7
  5
2EE
 10
59.0095831136
 20
221.2125494563
 30
0.0
 11
57.6095831136
 21
220.4042590795
 31
0.0
  0
LINE
  8
52572015
  6
CONTINUOUS
 62
         7
  5
2EF
 10
58.5095831136
 20
214.7125494563
 30
0.0
 11
58.5095831136
 21
213.3625494563
 31
0.0
  0
LINE
  8
52572015
  6
CONTINUOUS
 62
         7
  5
2F0
 10
70.5095831136
 20
214.7125494563
 30
0.0
 11
71.4095831136
 21
215.6125494563
 31
0.0
  0
LINE
  8
52572015
  6
CONTINUOUS
 62
         7
  5
2F1
 10
57.6095831136
 20
220.4042590795
 30
0.0
 11
57.6095831136
 21
215.6125494563
 31
0.0
  0
LINE
  8
52572015
  6
CONTINUOUS
 62
         7
  5
2F2
 10
57.7595831136
 20
213.3625494563
 30
0.0
 11
57.7595831136
 21
212.2125494563
 31
0.0
  0
LINE
  8
52572015
  6
CONTINUOUS
 62
         7
  5
2F3
 10
71.2595831136
 20
212.2125494563
 30
0.0
 11
57.7595831136
 21
212.2125494563
 31
0.0
  0
LINE
  8
52572015
  6
CONTINUOUS
 62
         7
  5
2F4
 10
71.2595831136
 20
213.3625494563
 30
0.0
 11
57.7595831136
 21
213.3625494563
 31
0.0
  0
LINE
  8
52572015
  6
CONTINUOUS
 62
         7
  5
2F5
 10
70.5095831136
 20
214.7125494563
 30
0.0
 11
58.5095831136
 21
214.7125494563
 31
0.0
  0
LINE
  8
52572015
  6
CONTINUOUS
 62
         7
  5
2F6
 10
71.4095831136
 20
215.6125494563
 30
0.0
 11
57.6095831136
 21
215.6125494563
 31
0.0
  0
LINE
  8
52572015
  6
CONTINUOUS
 62
         7
  5
2F7
 10
71.4095831136
 20
220.4042590795
 30
0.0
 11
57.6095831136
 21
220.4042590795
 31
0.0
  0
LINE
  8
52572015
  6
CONTINUOUS
 62
         7
  5
2F8
 10
46.2595831136
 20
212.2125494563
 30
0.0
 11
32.7595831136
 21
212.2125494563
 31
0.0
  0
LINE
  8
52572015
  6
CONTINUOUS
 62
         7
  5
2F9
 10
46.2595831136
 20
213.3625494563
 30
0.0
 11
32.7595831136
 21
213.3625494563
 31
0.0
  0
LINE
  8
52572015
  6
CONTINUOUS
 62
         7
  5
2FA
 10
70.0095831136
 20
221.2125494563
 30
0.0
 11
59.0095831136
 21
221.2125494563
 31
0.0
  0
LINE
  8
52572015
  6
CONTINUOUS
 62
         7
  5
2FB
 10
45.5095831136
 20
214.7125494563
 30
0.0
 11
33.5095831136
 21
214.7125494563
 31
0.0
  0
LINE
  8
52572015
  6
CONTINUOUS
 62
         7
  5
2FC
 10
46.4095831136
 20
215.6125494563
 30
0.0
 11
32.6095831136
 21
215.6125494563
 31
0.0
  0
LINE
  8
52572015
  6
CONTINUOUS
 62
         7
  5
2FD
 10
100.2847465134
 20
225.9554864804
 30
0.0
 11
123.2344197137
 21
212.7054864804
 31
0.0
  0
LINE
  8
52572015
  6
CONTINUOUS
 62
         7
  5
2FE
 10
69.9322328444
 20
209.2125494563
 30
0.0
 11
59.0869333828
 21
209.2125494563
 31
0.0
  0
LINE
  8
52572015
  6
CONTINUOUS
 62
         7
  5
2FF
 10
84.9486939811
 20
242.8926643069
 30
0.0
 11
85.7382187091
 21
242.4368319927
 31
0.0
  0
LINE
  8
52572015
  6
CONTINUOUS
 62
         7
  5
300
 10
85.7382187091
 20
242.4368319927
 30
0.0
 11
100.1657892655
 21
234.1070702481
 31
0.0
  0
LINE
  8
52572015
  6
CONTINUOUS
 62
         7
  5
301
 10
90.4486939811
 20
252.4189437485
 30
0.0
 11
91.2382187091
 21
251.9631114343
 31
0.0
  0
LINE
  8
52572015
  6
CONTINUOUS
 62
         7
  5
302
 10
91.2382187091
 20
251.9631114343
 30
0.0
 11
105.6657892655
 21
243.6333496898
 31
0.0
  0
LINE
  8
52572015
  6
CONTINUOUS
 62
         7
  5
303
 10
91.2382187091
 20
251.9631114343
 30
0.0
 11
85.7382187091
 21
242.4368319927
 31
0.0
  0
LINE
  8
52572015
  6
CONTINUOUS
 62
         7
  5
304
 10
100.1657892655
 20
234.1070702481
 30
0.0
 11
105.6657892655
 21
243.6333496898
 31
0.0
  0
LINE
  8
52572015
  6
CONTINUOUS
 62
         7
  5
305
 10
113.2367154394
 20
239.2622734253
 30
0.0
 11
105.6657892655
 21
243.6333496898
 31
0.0
  0
LINE
  8
52572015
  6
CONTINUOUS
 62
         7
  5
306
 10
100.1657892655
 20
234.1070702481
 30
0.0
 11
135.1781674006
 21
213.8926643069
 31
0.0
  0
LINE
  8
52572015
  6
CONTINUOUS
 62
         7
  5
307
 10
138.4529142107
 20
222.9716434692
 30
0.0
 11
139.2029142107
 21
224.2706815748
 31
0.0
  0
LINE
  8
52572015
  6
CONTINUOUS
 62
         7
  5
308
 10
139.2029142107
 20
224.2706815748
 30
0.0
 11
128.2824507877
 21
230.5756140717
 31
0.0
  0
LINE
  8
52572015
  6
CONTINUOUS
 62
         7
  5
309
 10
107.3645457254
 20
243.8072727288
 30
0.0
 11
113.2449682775
 21
240.4122091854
 31
0.0
  0
LINE
  8
52572015
  6
CONTINUOUS
 62
         7
  5
30A
 10
112.4867154394
 20
237.9632353196
 30
0.0
 11
113.2367154394
 21
239.2622734253
 31
0.0
  0
LINE
  8
52572015
  6
CONTINUOUS
 62
         7
  5
30B
 10
128.2824507877
 20
230.5756140717
 30
0.0
 11
127.5324507877
 21
229.2765759661
 31
0.0
  0
LINE
  8
52572015
  6
CONTINUOUS
 62
         7
  5
30C
 10
70.5095831136
 20
208.2125494563
 30
0.0
 11
58.5095831136
 21
208.2125494563
 31
0.0
  0
LINE
  8
52572015
  6
CONTINUOUS
 62
         7
  5
30D
 10
44.9322328444
 20
209.2125494563
 30
0.0
 11
34.0869333828
 21
209.2125494563
 31
0.0
  0
LINE
  8
52572015
  6
CONTINUOUS
 62
         7
  5
30E
 10
45.5095831136
 20
208.2125494563
 30
0.0
 11
33.5095831136
 21
208.2125494563
 31
0.0
  0
LINE
  8
52572015
  6
CONTINUOUS
 62
         7
  5
30F
 10
73.5095831136
 20
187.7125494563
 30
0.0
 11
55.5095831136
 21
187.7125494563
 31
0.0
  0
LINE
  8
52572015
  6
CONTINUOUS
 62
         7
  5
310
 10
48.5095831136
 20
187.7125494563
 30
0.0
 11
30.5095831136
 21
187.7125494563
 31
0.0
  0
LINE
  8
52572015
  6
CONTINUOUS
 62
         7
  5
311
 10
13.8595831136
 20
162.5347570612
 30
0.0
 11
13.8595831136
 21
154.5830404265
 31
0.0
  0
LINE
  8
52572015
  6
CONTINUOUS
 62
         7
  5
312
 10
90.0809915446
 20
161.5872445864
 30
0.0
 11
70.9381746825
 21
172.6393550548
 31
0.0
  0
LINE
  8
52572015
  6
CONTINUOUS
 62
         7
  5
313
 10
78.945996976
 20
190.4956881117
 30
0.0
 11
103.194708282
 21
176.4956881117
 31
0.0
  0
LINE
  8
52572015
  6
CONTINUOUS
 62
         7
  5
314
 10
78.945996976
 20
192.4956881117
 30
0.0
 11
104.9267590896
 21
177.4956881117
 31
0.0
  0
LINE
  8
52572015
  6
CONTINUOUS
 62
         7
  5
315
 10
82.445996976
 20
198.5578659381
 30
0.0
 11
108.4267590896
 21
183.5578659381
 31
0.0
  0
LINE
  8
52572015
  6
CONTINUOUS
 62
         7
  5
316
 10
81.7139461685
 20
201.2899167457
 30
0.0
 11
111.1588098971
 21
184.2899167457
 31
0.0
  0
LINE
  8
52572015
  6
CONTINUOUS
 62
         7
  5
317
 10
126.0917495724
 20
151.9138987439
 30
0.0
 11
118.454438979
 21
151.9138987439
 31
0.0
  0
LINE
  8
52572015
  6
CONTINUOUS
 62
         7
  5
318
 10
126.0917495724
 20
178.4938987439
 30
0.0
 11
118.454438979
 21
178.4938987439
 31
0.0
  0
LINE
  8
52572015
  6
CONTINUOUS
 62
         7
  5
319
 10
126.0917495724
 20
165.2038987439
 30
0.0
 11
118.454438979
 21
165.2038987439
 31
0.0
  0
LINE
  8
52572015
  6
CONTINUOUS
 62
         7
  5
31A
 10
126.5095831136
 20
178.4938987439
 30
0.0
 11
126.0917495724
 21
178.4938987439
 31
0.0
  0
LINE
  8
52572015
  6
CONTINUOUS
 62
         7
  5
31B
 10
126.0917495724
 20
178.4938987439
 30
0.0
 11
126.5095831136
 21
176.1754381557
 31
0.0
  0
LINE
  8
52572015
  6
CONTINUOUS
 62
         7
  5
31C
 10
126.0917495724
 20
151.9138987439
 30
0.0
 11
126.5095831136
 21
151.9138987439
 31
0.0
  0
LINE
  8
52572015
  6
CONTINUOUS
 62
         7
  5
31D
 10
14.3274166547
 20
178.4938987439
 30
0.0
 11
21.99896824
 21
178.4938987439
 31
0.0
  0
LINE
  8
52572015
  6
CONTINUOUS
 62
         7
  5
31E
 10
126.5095831136
 20
154.2323593321
 30
0.0
 11
126.0917495724
 21
151.9138987439
 31
0.0
  0
LINE
  8
52572015
  6
CONTINUOUS
 62
         7
  5
31F
 10
126.0917495724
 20
165.2038987439
 30
0.0
 11
126.5095831136
 21
162.8854381557
 31
0.0
  0
LINE
  8
52572015
  6
CONTINUOUS
 62
         7
  5
320
 10
126.5095831136
 20
167.5223593321
 30
0.0
 11
126.0917495724
 21
165.2038987439
 31
0.0
  0
LINE
  8
52572015
  6
CONTINUOUS
 62
         7
  5
321
 10
14.3274166547
 20
151.9138987439
 30
0.0
 11
21.99896824
 21
151.9138987439
 31
0.0
  0
LINE
  8
52572015
  6
CONTINUOUS
 62
         7
  5
322
 10
22.7472787814
 20
151.9138987439
 30
0.0
 11
21.99896824
 21
151.9138987439
 31
0.0
  0
LINE
  8
52572015
  6
CONTINUOUS
 62
         7
  5
323
 10
22.9438241054
 20
177.9538987439
 30
0.0
 11
22.9438241054
 21
152.4538987439
 31
0.0
  0
LINE
  8
52572015
  6
CONTINUOUS
 62
         7
  5
324
 10
14.3274166547
 20
165.2038987439
 30
0.0
 11
21.99896824
 21
165.2038987439
 31
0.0
  0
LINE
  8
52572015
  6
CONTINUOUS
 62
         7
  5
325
 10
105.3526611754
 20
175.5538987439
 30
0.0
 11
105.3526611754
 21
154.8538987439
 31
0.0
  0
LINE
  8
52572015
  6
CONTINUOUS
 62
         7
  5
326
 10
35.1007460436
 20
154.8538987439
 30
0.0
 11
35.1007460436
 21
171.9537390612
 31
0.0
  0
LINE
  8
52572015
  6
CONTINUOUS
 62
         7
  5
327
 10
30.9438241054
 20
152.4538987439
 30
0.0
 11
30.9438241054
 21
177.6511766545
 31
0.0
  0
ARC
  8
52572015
  6
CONTINUOUS
 62
         7
  5
328
 10
-7.4023290937
 20
158.5588987439
 30
0.0
 40
30.1428649916
 50
347.2645244266
 51
12.7354755734
  0
LINE
  8
52572015
  6
CONTINUOUS
 62
         7
  5
329
 10
22.7472787814
 20
178.4938987439
 30
0.0
 11
21.99896824
 21
178.4938987439
 31
0.0
  0
ARC
  8
52572015
  6
CONTINUOUS
 62
         7
  5
32A
 10
-7.4023290937
 20
171.8488987439
 30
0.0
 40
30.1428649916
 50
347.2645244266
 51
12.7354755734
  0
LINE
  8
52572015
  6
CONTINUOUS
 62
         7
  5
32B
 10
14.3274166547
 20
151.9138987439
 30
0.0
 11
13.8595831136
 21
151.9138987439
 31
0.0
  0
LINE
  8
52572015
  6
CONTINUOUS
 62
         7
  5
32C
 10
109.5095831136
 20
177.9538987439
 30
0.0
 11
109.5095831136
 21
152.4538987439
 31
0.0
  0
LINE
  8
52572015
  6
CONTINUOUS
 62
         7
  5
32D
 10
13.8595831136
 20
154.5830404265
 30
0.0
 11
14.3274166547
 21
151.9138987439
 31
0.0
  0
LINE
  8
52572015
  6
CONTINUOUS
 62
         7
  5
32E
 10
117.5095831136
 20
177.9538987439
 30
0.0
 11
117.5095831136
 21
152.4538987439
 31
0.0
  0
LINE
  8
52572015
  6
CONTINUOUS
 62
         7
  5
32F
 10
14.3274166547
 20
165.2038987439
 30
0.0
 11
13.8595831136
 21
162.5347570612
 31
0.0
  0
LINE
  8
52572015
  6
CONTINUOUS
 62
         7
  5
330
 10
14.3274166547
 20
178.4938987439
 30
0.0
 11
13.8595831136
 21
175.8247570612
 31
0.0
  0
LINE
  8
52572015
  6
CONTINUOUS
 62
         7
  5
331
 10
117.7061284376
 20
178.4938987439
 30
0.0
 11
118.454438979
 21
178.4938987439
 31
0.0
  0
LINE
  8
52572015
  6
CONTINUOUS
 62
         7
  5
332
 10
118.454438979
 20
151.9138987439
 30
0.0
 11
117.7061284376
 21
151.9138987439
 31
0.0
  0
ARC
  8
52572015
  6
CONTINUOUS
 62
         7
  5
333
 10
147.8557363127
 20
158.5588987439
 30
0.0
 40
30.1428649916
 50
167.2645244266
 51
192.7354755734
  0
ARC
  8
52572015
  6
CONTINUOUS
 62
         7
  5
334
 10
147.8557363127
 20
171.8488987439
 30
0.0
 40
30.1428649916
 50
167.2645244266
 51
192.7354755734
  0
LINE
  8
52572015
  6
CONTINUOUS
 62
         7
  5
335
 10
13.8595831136
 20
178.4938987439
 30
0.0
 11
14.3274166547
 21
178.4938987439
 31
0.0
  0
LINE
  8
52572015
  6
CONTINUOUS
 62
         7
  5
336
 10
13.8595831136
 20
167.8730404265
 30
0.0
 11
14.3274166547
 21
165.2038987439
 31
0.0
  0
LINE
  8
52572015
  6
CONTINUOUS
 62
         7
  5
337
 10
114.7552200587
 20
190.1190818703
 30
0.0
 11
111.4993312439
 21
193.3749706851
 31
0.0
  0
LINE
  8
52572015
  6
CONTINUOUS
 62
         7
  5
338
 10
30.5095831136
 20
187.7125494563
 30
0.0
 11
30.5095831136
 21
177.9538987439
 31
0.0
  0
LINE
  8
52572015
  6
CONTINUOUS
 62
         7
  5
339
 10
30.9438241054
 20
152.4538987439
 30
0.0
 11
35.1007460436
 21
154.8538987439
 31
0.0
  0
LINE
  8
52572015
  6
CONTINUOUS
 62
         7
  5
33A
 10
73.5095831136
 20
181.0765530644
 30
0.0
 11
73.5095831136
 21
187.7125494563
 31
0.0
  0
LINE
  8
52572015
  6
CONTINUOUS
 62
         7
  5
33B
 10
35.1007460436
 20
154.8538987439
 30
0.0
 11
105.3526611754
 21
154.8538987439
 31
0.0
  0
LINE
  8
52572015
  6
CONTINUOUS
 62
         7
  5
33C
 10
45.5095831136
 20
208.2125494563
 30
0.0
 11
44.9322328444
 21
209.2125494563
 31
0.0
  0
LINE
  8
52572015
  6
CONTINUOUS
 62
         7
  5
33D
 10
33.5095831136
 20
208.2125494563
 30
0.0
 11
33.5095831136
 21
187.7125494563
 31
0.0
  0
LINE
  8
52572015
  6
CONTINUOUS
 62
         7
  5
33E
 10
35.5095831136
 20
212.2125494563
 30
0.0
 11
35.5095831136
 21
209.2125494563
 31
0.0
  0
LINE
  8
52572015
  6
CONTINUOUS
 62
         7
  5
33F
 10
70.5095831136
 20
208.2125494563
 30
0.0
 11
69.9322328444
 21
209.2125494563
 31
0.0
  0
LINE
  8
52572015
  6
CONTINUOUS
 62
         7
  5
340
 10
58.5095831136
 20
208.2125494563
 30
0.0
 11
58.5095831136
 21
187.7125494563
 31
0.0
  0
LINE
  8
52572015
  6
CONTINUOUS
 62
         7
  5
341
 10
60.5095831136
 20
212.2125494563
 30
0.0
 11
60.5095831136
 21
209.2125494563
 31
0.0
  0
LINE
  8
52572015
  6
CONTINUOUS
 62
         7
  5
342
 10
123.2344197137
 20
212.7054864804
 30
0.0
 11
126.7344197137
 21
218.7676643069
 31
0.0
  0
LINE
  8
52572015
  6
CONTINUOUS
 62
         7
  5
343
 10
90.4486939811
 20
252.4189437485
 30
0.0
 11
84.9486939811
 21
242.8926643069
 31
0.0
  0
LINE
  8
52572015
  6
CONTINUOUS
 62
         7
  5
344
 10
114.7376275994
 20
199.5886108371
 30
0.0
 11
122.5415993907
 21
213.1054864804
 31
0.0
  0
LINE
  8
52572015
  6
CONTINUOUS
 62
         7
  5
345
 10
135.1781674006
 20
213.8926643069
 30
0.0
 11
139.9281674006
 21
222.1199056428
 31
0.0
  0
ARC
  8
52572015
  6
CONTINUOUS
 62
         7
  5
346
 10
80.4095831136
 20
165.0306936631
 30
0.0
 40
100.0
 50
41.0344250112
 51
80.1817957669
  0
LINE
  8
52572015
  6
CONTINUOUS
 62
         7
  5
347
 10
148.1554087366
 20
217.3699056428
 30
0.0
 11
155.841109535
 21
230.6819299175
 31
0.0
  0
LINE
  8
52572015
  6
CONTINUOUS
 62
         7
  5
348
 10
114.9038158892
 20
199.3905553457
 30
0.0
 11
114.7376275994
 21
199.5886108371
 31
0.0
  0
LINE
  8
52572015
  6
CONTINUOUS
 62
         7
  5
349
 10
113.1552200587
 20
187.3478005782
 30
0.0
 11
114.7552200587
 21
190.1190818703
 31
0.0
  0
LINE
  8
52572015
  6
CONTINUOUS
 62
         7
  5
34A
 10
97.4618409253
 20
263.5660705768
 30
0.0
 11
90.881706683
 21
252.1689437485
 31
0.0
  0
LINE
  8
52572015
  6
CONTINUOUS
 62
         7
  5
34B
 10
78.945996976
 20
192.4956881117
 30
0.0
 11
78.945996976
 21
190.4956881117
 31
0.0
  0
LINE
  8
52572015
  6
CONTINUOUS
 62
         7
  5
34C
 10
104.9267590896
 20
177.4956881117
 30
0.0
 11
108.4267590896
 21
183.5578659381
 31
0.0
  0
LINE
  8
52572015
  6
CONTINUOUS
 62
         7
  5
34D
 10
102.6498315307
 20
175.5519338945
 30
0.0
 11
103.194708282
 21
176.4956881117
 31
0.0
  0
LINE
  8
52572015
  6
CONTINUOUS
 62
         7
  5
34E
 10
81.7139461685
 20
201.2899167457
 30
0.0
 11
82.445996976
 21
198.5578659381
 31
0.0
  0
LINE
  8
52572015
  6
CONTINUOUS
 62
         7
  5
34F
 10
111.1588098971
 20
184.2899167457
 30
0.0
 11
112.9820149779
 21
187.4478005782
 31
0.0
  0
LINE
  8
52572015
  6
CONTINUOUS
 62
         7
  5
350
 10
22.9438241054
 20
152.4538987439
 30
0.0
 11
30.9438241054
 21
152.4538987439
 31
0.0
  0
LINE
  8
52572015
  6
CONTINUOUS
 62
         7
  5
351
 10
22.7472801789
 20
151.9138987439
 30
0.0
 11
22.9438241054
 21
152.4538987439
 31
0.0
  0
LINE
  8
52572015
  6
CONTINUOUS
 62
         7
  5
352
 10
109.5095831136
 20
152.4538987439
 30
0.0
 11
117.5095831136
 21
152.4538987439
 31
0.0
  0
LINE
  8
52572015
  6
CONTINUOUS
 62
         7
  5
353
 10
109.5095831136
 20
177.9538987439
 30
0.0
 11
105.3526611754
 21
175.5538987439
 31
0.0
  0
LINE
  8
52572015
  6
CONTINUOUS
 62
         7
  5
354
 10
117.7061270401
 20
178.4938987439
 30
0.0
 11
117.5095831136
 21
177.9538987439
 31
0.0
  0
ENDBLK
  8
52572015
  6
CONTINUOUS
 62
         7
  5
355
  0
BLOCK
  8
0
 62
         1
 48
0.0
  5
687
  2
SE4
 70
         0
 10
0.0
 20
0.0
 30
0.0
  3
SE4
  0
ENDBLK
  8
0
 62
         1
 48
0.0
  5
688
  0
BLOCK
  8
0
 62
         1
 48
0.0
  5
358
  2
SE5
 70
         0
 10
0.0
 20
0.0
 30
0.0
  3
SE5
  0
LINE
  8
52572015
  6
CONTINUOUS
 62
         7
  5
359
 10
64.1120199212
 20
53.2263418347
 30
0.0
 11
72.6382324844
 21
53.2263418347
 31
0.0
  0
LINE
  8
52572015
  6
CONTINUOUS
 62
         7
  5
35A
 10
72.6382324844
 20
74.9263418347
 30
0.0
 11
64.1120199212
 21
74.9263418347
 31
0.0
  0
LINE
  8
52572015
  6
CONTINUOUS
 62
         7
  5
35B
 10
73.1719353084
 20
74.4263418347
 30
0.0
 11
72.6573434737
 21
74.4263418347
 31
0.0
  0
LINE
  8
52572015
  6
CONTINUOUS
 62
         7
  5
35C
 10
35.1007460436
 20
53.7263418347
 30
0.0
 11
64.1120199212
 21
53.7263418347
 31
0.0
  0
LINE
  8
52572015
  6
CONTINUOUS
 62
         7
  5
35D
 10
13.8595831136
 20
50.0157337701
 30
0.0
 11
13.8595831136
 21
50.2714013486
 31
0.0
  0
CIRCLE
  8
52572015
  6
CONTINUOUS
 62
         7
  5
35E
 10
39.5095831136
 20
64.0763418347
 30
0.0
 40
5.5
  0
LINE
  8
52572015
  6
CONTINUOUS
 62
         7
  5
35F
 10
13.8595831136
 20
68.6672675743
 30
0.0
 11
13.8595831136
 21
73.2903565812
 31
0.0
  0
LINE
  8
52572015
  6
CONTINUOUS
 62
         7
  5
360
 10
13.8595831136
 20
54.8623270882
 30
0.0
 11
13.8595831136
 21
50.2714013486
 31
0.0
  0
CIRCLE
  8
52572015
  6
CONTINUOUS
 62
         7
  5
361
 10
39.5095831136
 20
64.0763418347
 30
0.0
 40
6.9
  0
LINE
  8
52572015
  6
CONTINUOUS
 62
         7
  5
362
 10
13.8595831136
 20
77.8812823208
 30
0.0
 11
13.8595831136
 21
78.1369498993
 31
0.0
  0
LINE
  8
52572015
  6
CONTINUOUS
 62
         7
  5
363
 10
13.8595831136
 20
68.6672675743
 30
0.0
 11
13.8595831136
 21
59.4854160952
 31
0.0
  0
LINE
  8
52572015
  6
CONTINUOUS
 62
         7
  5
364
 10
13.8595831136
 20
54.8623270882
 30
0.0
 11
13.8595831136
 21
59.4854160952
 31
0.0
  0
LINE
  8
52572015
  6
CONTINUOUS
 62
         7
  5
365
 10
13.8595831136
 20
77.8812823208
 30
0.0
 11
13.8595831136
 21
73.2903565812
 31
0.0
  0
ARC
  8
52572015
  6
CONTINUOUS
 62
         7
  5
366
 10
72.676454463
 20
64.0763418347
 30
0.0
 40
10.85
 50
90.1009197782
 51
103.4252234326
  0
LINE
  8
52572015
  6
CONTINUOUS
 62
         7
  5
367
 10
68.5788787108
 20
74.3978282637
 30
0.0
 11
64.1120199212
 21
74.3978282637
 31
0.0
  0
ARC
  8
52572015
  6
CONTINUOUS
 62
         7
  5
368
 10
72.676454463
 20
64.0763418347
 30
0.0
 40
10.35
 50
90.1057951353
 51
104.0868474505
  0
ARC
  8
52572015
  6
CONTINUOUS
 62
         7
  5
369
 10
72.6382324844
 20
64.0763418347
 30
0.0
 40
10.85
 50
89.8990802218
 51
90.0
  0
LINE
  8
52572015
  6
CONTINUOUS
 62
         7
  5
36A
 10
70.1573434737
 20
74.1150957327
 30
0.0
 11
68.5788787108
 21
74.1150957327
 31
0.0
  0
LINE
  8
52572015
  6
CONTINUOUS
 62
         7
  5
36B
 10
68.5788787108
 20
74.1150957327
 30
0.0
 11
68.5788787108
 21
74.6298521428
 31
0.0
  0
LINE
  8
52572015
  6
CONTINUOUS
 62
         7
  5
36C
 10
72.6573434737
 20
74.4263241907
 30
0.0
 11
72.6573434737
 21
74.9263250038
 31
0.0
  0
LINE
  8
52572015
  6
CONTINUOUS
 62
         7
  5
36D
 10
70.1573434737
 20
74.1150957327
 30
0.0
 11
70.1573434737
 21
74.6298521428
 31
0.0
  0
LINE
  8
52572015
  6
CONTINUOUS
 62
         7
  5
36E
 10
68.5788787108
 20
74.6298521428
 30
0.0
 11
68.5788787108
 21
74.8991456352
 31
0.0
  0
LINE
  8
52572015
  6
CONTINUOUS
 62
         7
  5
36F
 10
70.1573434737
 20
74.6298521428
 30
0.0
 11
68.5788787108
 21
74.6298521428
 31
0.0
  0
LINE
  8
52572015
  6
CONTINUOUS
 62
         7
  5
370
 10
64.1120199212
 20
74.8991456352
 30
0.0
 11
64.1120199212
 21
74.9263418347
 31
0.0
  0
LINE
  8
52572015
  6
CONTINUOUS
 62
         7
  5
371
 10
68.5788787108
 20
74.8991456352
 30
0.0
 11
64.1120199212
 21
74.8991456352
 31
0.0
  0
LINE
  8
52572015
  6
CONTINUOUS
 62
         7
  5
372
 10
64.1120199212
 20
74.3978282637
 30
0.0
 11
64.1120199212
 21
74.8991456352
 31
0.0
  0
LINE
  8
52572015
  6
CONTINUOUS
 62
         7
  5
373
 10
64.1120199212
 20
53.7548554057
 30
0.0
 11
64.1120199212
 21
53.2535380342
 31
0.0
  0
LINE
  8
52572015
  6
CONTINUOUS
 62
         7
  5
374
 10
68.5788787108
 20
54.0375879368
 30
0.0
 11
70.1573434737
 21
54.0375879368
 31
0.0
  0
ARC
  8
52572015
  6
CONTINUOUS
 62
         7
  5
375
 10
72.676454463
 20
64.0763418347
 30
0.0
 40
10.35
 50
255.9131525495
 51
269.8942048647
  0
LINE
  8
52572015
  6
CONTINUOUS
 62
         7
  5
376
 10
64.1120199212
 20
53.7548554057
 30
0.0
 11
68.5788787108
 21
53.7548554057
 31
0.0
  0
LINE
  8
52572015
  6
CONTINUOUS
 62
         7
  5
377
 10
68.5788787108
 20
53.2535380342
 30
0.0
 11
68.5788787108
 21
53.5228315266
 31
0.0
  0
ARC
  8
52572015
  6
CONTINUOUS
 62
         7
  5
378
 10
72.6382324844
 20
64.0763418347
 30
0.0
 40
10.85
 50
270.0
 51
270.1009197782
  0
LINE
  8
52572015
  6
CONTINUOUS
 62
         7
  5
379
 10
64.1120199212
 20
53.2535380342
 30
0.0
 11
68.5788787108
 21
53.2535380342
 31
0.0
  0
ARC
  8
52572015
  6
CONTINUOUS
 62
         7
  5
37A
 10
72.676454463
 20
64.0763418347
 30
0.0
 40
10.85
 50
256.5747765673
 51
269.8990802218
  0
LINE
  8
52572015
  6
CONTINUOUS
 62
         7
  5
37B
 10
68.5788787108
 20
53.5228315266
 30
0.0
 11
70.1573434737
 21
53.5228315266
 31
0.0
  0
LINE
  8
52572015
  6
CONTINUOUS
 62
         7
  5
37C
 10
35.1007460436
 20
74.4263418347
 30
0.0
 11
30.9438241054
 21
76.8263418347
 31
0.0
  0
LINE
  8
52572015
  6
CONTINUOUS
 62
         7
  5
37D
 10
64.1120199212
 20
53.2263418347
 30
0.0
 11
64.1120199212
 21
53.2535380342
 31
0.0
  0
LINE
  8
52572015
  6
CONTINUOUS
 62
         7
  5
37E
 10
72.6573434737
 20
53.7263594787
 30
0.0
 11
72.6573434737
 21
53.2263586656
 31
0.0
  0
LINE
  8
52572015
  6
CONTINUOUS
 62
         7
  5
37F
 10
68.5788787108
 20
54.0375879368
 30
0.0
 11
68.5788787108
 21
53.5228315266
 31
0.0
  0
LINE
  8
52572015
  6
CONTINUOUS
 62
         7
  5
380
 10
70.1573434737
 20
54.0375879368
 30
0.0
 11
70.1573434737
 21
53.5228315266
 31
0.0
  0
LINE
  8
52572015
  6
CONTINUOUS
 62
         7
  5
381
 10
55.6354634389
 20
65.5763418347
 30
0.0
 11
48.3837027882
 21
65.5763418347
 31
0.0
  0
LINE
  8
52572015
  6
CONTINUOUS
 62
         7
  5
382
 10
55.6354634389
 20
62.5763418347
 30
0.0
 11
48.3837027882
 21
62.5763418347
 31
0.0
  0
LINE
  8
52572015
  6
CONTINUOUS
 62
         7
  5
383
 10
70.9381746825
 20
56.8765856272
 30
0.0
 11
70.8291320009
 21
57.6682764589
 31
0.0
  0
LINE
  8
52572015
  6
CONTINUOUS
 62
         7
  5
384
 10
113.2449682775
 20
84.0351644128
 30
0.0
 11
113.2367154394
 21
85.372866182
 31
0.0
  0
LINE
  8
52572015
  6
CONTINUOUS
 62
         7
  5
385
 10
105.0729431914
 20
78.2504651093
 30
0.0
 11
107.3645457254
 21
79.1286035022
 31
0.0
  0
LINE
  8
52572015
  6
CONTINUOUS
 62
         7
  5
386
 10
113.2367154394
 20
42.7798174874
 30
0.0
 11
113.2449682775
 21
44.1175192566
 31
0.0
  0
LINE
  8
52572015
  6
CONTINUOUS
 62
         7
  5
387
 10
107.3645457254
 20
49.0240801672
 30
0.0
 11
105.0729431914
 21
49.9022185601
 31
0.0
  0
POLYLINE
  8
52572015
  6
CONTINUOUS
 62
         7
  5
388
 66
         1
 10
0.0
 20
0.0
 30
0.0
  0
VERTEX
  8
52572015
  6
CONTINUOUS
 62
         7
  5
389
 10
98.1910913867
 20
71.6521897837
 30
0.0
  0
VERTEX
  8
52572015
  6
CONTINUOUS
 62
         7
  5
38A
 10
98.0217748767
 20
70.7242235813
 30
0.0
  0
VERTEX
  8
52572015
  6
CONTINUOUS
 62
         7
  5
38B
 10
97.8742462184
 20
69.7887272847
 30
0.0
  0
VERTEX
  8
52572015
  6
CONTINUOUS
 62
         7
  5
38C
 10
97.7488387099
 20
68.8467228062
 30
0.0
  0
VERTEX
  8
52572015
  6
CONTINUOUS
 62
         7
  5
38D
 10
97.6458376424
 20
67.8992565277
 30
0.0
  0
VERTEX
  8
52572015
  6
CONTINUOUS
 62
         7
  5
38E
 10
97.5654786919
 20
66.9473955273
 30
0.0
  0
VERTEX
  8
52572015
  6
CONTINUOUS
 62
         7
  5
38F
 10
97.5079465791
 20
65.9922236418
 30
0.0
  0
VERTEX
  8
52572015
  6
CONTINUOUS
 62
         7
  5
390
 10
97.4733740127
 20
65.034837397
 30
0.0
  0
VERTEX
  8
52572015
  6
CONTINUOUS
 62
         7
  5
391
 10
97.4618409253
 20
64.0763418347
 30
0.0
  0
VERTEX
  8
52572015
  6
CONTINUOUS
 62
         7
  5
392
 10
97.4733740127
 20
63.1178462725
 30
0.0
  0
VERTEX
  8
52572015
  6
CONTINUOUS
 62
         7
  5
393
 10
97.5079465791
 20
62.1604600276
 30
0.0
  0
VERTEX
  8
52572015
  6
CONTINUOUS
 62
         7
  5
394
 10
97.5654786919
 20
61.2052881422
 30
0.0
  0
VERTEX
  8
52572015
  6
CONTINUOUS
 62
         7
  5
395
 10
97.6458376424
 20
60.2534271417
 30
0.0
  0
VERTEX
  8
52572015
  6
CONTINUOUS
 62
         7
  5
396
 10
97.7488387099
 20
59.3059608632
 30
0.0
  0
VERTEX
  8
52572015
  6
CONTINUOUS
 62
         7
  5
397
 10
97.8742462184
 20
58.3639563847
 30
0.0
  0
VERTEX
  8
52572015
  6
CONTINUOUS
 62
         7
  5
398
 10
98.0217748767
 20
57.4284600881
 30
0.0
  0
VERTEX
  8
52572015
  6
CONTINUOUS
 62
         7
  5
399
 10
98.1910913867
 20
56.5004938857
 30
0.0
  0
SEQEND
  8
52572015
  6
CONTINUOUS
 62
         7
  5
39A
  0
POLYLINE
  8
52572015
  6
CONTINUOUS
 62
         7
  5
39B
 66
         1
 10
0.0
 20
0.0
 30
0.0
  0
VERTEX
  8
52572015
  6
CONTINUOUS
 62
         7
  5
39C
 10
115.2895393184
 20
49.0240801672
 30
0.0
  0
VERTEX
  8
52572015
  6
CONTINUOUS
 62
         7
  5
39D
 10
111.1466979112
 20
50.9166394065
 30
0.0
  0
VERTEX
  8
52572015
  6
CONTINUOUS
 62
         7
  5
39E
 10
106.9054925137
 20
52.7982272227
 30
0.0
  0
VERTEX
  8
52572015
  6
CONTINUOUS
 62
         7
  5
39F
 10
102.5815446529
 20
54.6618114582
 30
0.0
  0
VERTEX
  8
52572015
  6
CONTINUOUS
 62
         7
  5
3A0
 10
98.1910913867
 20
56.5004938857
 30
0.0
  0
SEQEND
  8
52572015
  6
CONTINUOUS
 62
         7
  5
3A1
  0
POLYLINE
  8
52572015
  6
CONTINUOUS
 62
         7
  5
3A2
 66
         1
 10
0.0
 20
0.0
 30
0.0
  0
VERTEX
  8
52572015
  6
CONTINUOUS
 62
         7
  5
3A3
 10
131.1922588225
 20
96.3245183511
 30
0.0
  0
VERTEX
  8
52572015
  6
CONTINUOUS
 62
         7
  5
3A4
 10
130.3224680821
 20
96.4344506245
 30
0.0
  0
VERTEX
  8
52572015
  6
CONTINUOUS
 62
         7
  5
3A5
 10
129.4488666748
 20
96.5132025027
 30
0.0
  0
VERTEX
  8
52572015
  6
CONTINUOUS
 62
         7
  5
3A6
 10
128.5727145286
 20
96.5605454936
 30
0.0
  0
VERTEX
  8
52572015
  6
CONTINUOUS
 62
         7
  5
3A7
 10
127.695283912
 20
96.5763418347
 30
0.0
  0
VERTEX
  8
52572015
  6
CONTINUOUS
 62
         7
  5
3A8
 10
126.8178532954
 20
96.5605454936
 30
0.0
  0
VERTEX
  8
52572015
  6
CONTINUOUS
 62
         7
  5
3A9
 10
125.9417011492
 20
96.5132025027
 30
0.0
  0
VERTEX
  8
52572015
  6
CONTINUOUS
 62
         7
  5
3AA
 10
125.0680997419
 20
96.4344506245
 30
0.0
  0
VERTEX
  8
52572015
  6
CONTINUOUS
 62
         7
  5
3AB
 10
124.1983090015
 20
96.3245183511
 30
0.0
  0
SEQEND
  8
52572015
  6
CONTINUOUS
 62
         7
  5
3AC
  0
POLYLINE
  8
52572015
  6
CONTINUOUS
 62
         7
  5
3AD
 66
         1
 10
0.0
 20
0.0
 30
0.0
  0
VERTEX
  8
52572015
  6
CONTINUOUS
 62
         7
  5
3AE
 10
121.1699618705
 20
84.0351644128
 30
0.0
  0
VERTEX
  8
52572015
  6
CONTINUOUS
 62
         7
  5
3AF
 10
121.606194355
 20
85.5897071223
 30
0.0
  0
VERTEX
  8
52572015
  6
CONTINUOUS
 62
         7
  5
3B0
 10
122.0263232673
 20
87.1403992511
 30
0.0
  0
VERTEX
  8
52572015
  6
CONTINUOUS
 62
         7
  5
3B1
 10
122.4301407001
 20
88.6865361716
 30
0.0
  0
VERTEX
  8
52572015
  6
CONTINUOUS
 62
         7
  5
3B2
 10
122.8174532286
 20
90.2274165221
 30
0.0
  0
VERTEX
  8
52572015
  6
CONTINUOUS
 62
         7
  5
3B3
 10
123.188082219
 20
91.7623432661
 30
0.0
  0
VERTEX
  8
52572015
  6
CONTINUOUS
 62
         7
  5
3B4
 10
123.5418641019
 20
93.2906247433
 30
0.0
  0
VERTEX
  8
52572015
  6
CONTINUOUS
 62
         7
  5
3B5
 10
123.8786506137
 20
94.8115757077
 30
0.0
  0
VERTEX
  8
52572015
  6
CONTINUOUS
 62
         7
  5
3B6
 10
124.1983090015
 20
96.3245183511
 30
0.0
  0
SEQEND
  8
52572015
  6
CONTINUOUS
 62
         7
  5
3B7
  0
POLYLINE
  8
52572015
  6
CONTINUOUS
 62
         7
  5
3B8
 66
         1
 10
0.0
 20
0.0
 30
0.0
  0
VERTEX
  8
52572015
  6
CONTINUOUS
 62
         7
  5
3B9
 10
121.1699618705
 20
84.0351644128
 30
0.0
  0
VERTEX
  8
52572015
  6
CONTINUOUS
 62
         7
  5
3BA
 10
120.3549256441
 20
83.5712048201
 30
0.0
  0
VERTEX
  8
52572015
  6
CONTINUOUS
 62
         7
  5
3BB
 10
119.5572701982
 20
83.0610714665
 30
0.0
  0
VERTEX
  8
52572015
  6
CONTINUOUS
 62
         7
  5
3BC
 10
118.7799053259
 20
82.5061298046
 30
0.0
  0
VERTEX
  8
52572015
  6
CONTINUOUS
 62
         7
  5
3BD
 10
118.0256272089
 20
81.9080680966
 30
0.0
  0
VERTEX
  8
52572015
  6
CONTINUOUS
 62
         7
  5
3BE
 10
117.2970851903
 20
81.2688807377
 30
0.0
  0
VERTEX
  8
52572015
  6
CONTINUOUS
 62
         7
  5
3BF
 10
116.5967508536
 20
80.5908461786
 30
0.0
  0
VERTEX
  8
52572015
  6
CONTINUOUS
 62
         7
  5
3C0
 10
115.9268901626
 20
79.8764999564
 30
0.0
  0
VERTEX
  8
52572015
  6
CONTINUOUS
 62
         7
  5
3C1
 10
115.2895393184
 20
79.1286035022
 30
0.0
  0
SEQEND
  8
52572015
  6
CONTINUOUS
 62
         7
  5
3C2
  0
LINE
  8
52572015
  6
CONTINUOUS
 62
         7
  5
3C3
 10
99.8595831136
 20
81.2763418347
 30
0.0
 11
98.2595831136
 21
81.2763418347
 31
0.0
  0
POLYLINE
  8
52572015
  6
CONTINUOUS
 62
         7
  5
3C4
 66
         1
 10
0.0
 20
0.0
 30
0.0
  0
VERTEX
  8
52572015
  6
CONTINUOUS
 62
         7
  5
3C5
 10
115.2895393184
 20
49.0240801672
 30
0.0
  0
VERTEX
  8
52572015
  6
CONTINUOUS
 62
         7
  5
3C6
 10
115.9268901626
 20
48.2761837131
 30
0.0
  0
VERTEX
  8
52572015
  6
CONTINUOUS
 62
         7
  5
3C7
 10
116.5967508536
 20
47.5618374908
 30
0.0
  0
VERTEX
  8
52572015
  6
CONTINUOUS
 62
         7
  5
3C8
 10
117.2970851903
 20
46.8838029317
 30
0.0
  0
VERTEX
  8
52572015
  6
CONTINUOUS
 62
         7
  5
3C9
 10
118.0256272089
 20
46.2446155728
 30
0.0
  0
VERTEX
  8
52572015
  6
CONTINUOUS
 62
         7
  5
3CA
 10
118.7799053259
 20
45.6465538648
 30
0.0
  0
VERTEX
  8
52572015
  6
CONTINUOUS
 62
         7
  5
3CB
 10
119.5572701982
 20
45.091612203
 30
0.0
  0
VERTEX
  8
52572015
  6
CONTINUOUS
 62
         7
  5
3CC
 10
120.3549256441
 20
44.5814788493
 30
0.0
  0
VERTEX
  8
52572015
  6
CONTINUOUS
 62
         7
  5
3CD
 10
121.1699618705
 20
44.1175192566
 30
0.0
  0
SEQEND
  8
52572015
  6
CONTINUOUS
 62
         7
  5
3CE
  0
POLYLINE
  8
52572015
  6
CONTINUOUS
 62
         7
  5
3CF
 66
         1
 10
0.0
 20
0.0
 30
0.0
  0
VERTEX
  8
52572015
  6
CONTINUOUS
 62
         7
  5
3D0
 10
124.1983090015
 20
31.8281653183
 30
0.0
  0
VERTEX
  8
52572015
  6
CONTINUOUS
 62
         7
  5
3D1
 10
123.8786506137
 20
33.3411079617
 30
0.0
  0
VERTEX
  8
52572015
  6
CONTINUOUS
 62
         7
  5
3D2
 10
123.5418641019
 20
34.8620589262
 30
0.0
  0
VERTEX
  8
52572015
  6
CONTINUOUS
 62
         7
  5
3D3
 10
123.188082219
 20
36.3903404033
 30
0.0
  0
VERTEX
  8
52572015
  6
CONTINUOUS
 62
         7
  5
3D4
 10
122.8174532286
 20
37.9252671474
 30
0.0
  0
VERTEX
  8
52572015
  6
CONTINUOUS
 62
         7
  5
3D5
 10
122.4301407001
 20
39.4661474978
 30
0.0
  0
VERTEX
  8
52572015
  6
CONTINUOUS
 62
         7
  5
3D6
 10
122.0263232673
 20
41.0122844183
 30
0.0
  0
VERTEX
  8
52572015
  6
CONTINUOUS
 62
         7
  5
3D7
 10
121.606194355
 20
42.5629765471
 30
0.0
  0
VERTEX
  8
52572015
  6
CONTINUOUS
 62
         7
  5
3D8
 10
121.1699618705
 20
44.1175192566
 30
0.0
  0
SEQEND
  8
52572015
  6
CONTINUOUS
 62
         7
  5
3D9
  0
POLYLINE
  8
52572015
  6
CONTINUOUS
 62
         7
  5
3DA
 66
         1
 10
0.0
 20
0.0
 30
0.0
  0
VERTEX
  8
52572015
  6
CONTINUOUS
 62
         7
  5
3DB
 10
155.6230240009
 20
60.0383830229
 30
0.0
  0
VERTEX
  8
52572015
  6
CONTINUOUS
 62
         7
  5
3DC
 10
155.7182281423
 20
61.0427308591
 30
0.0
  0
VERTEX
  8
52572015
  6
CONTINUOUS
 62
         7
  5
3DD
 10
155.7864292695
 20
62.0514788744
 30
0.0
  0
VERTEX
  8
52572015
  6
CONTINUOUS
 62
         7
  5
3DE
 10
155.8274295023
 20
63.0631722294
 30
0.0
  0
VERTEX
  8
52572015
  6
CONTINUOUS
 62
         7
  5
3DF
 10
155.841109535
 20
64.0763418347
 30
0.0
  0
VERTEX
  8
52572015
  6
CONTINUOUS
 62
         7
  5
3E0
 10
155.8274295023
 20
65.0895114401
 30
0.0
  0
VERTEX
  8
52572015
  6
CONTINUOUS
 62
         7
  5
3E1
 10
155.7864292695
 20
66.101204795
 30
0.0
  0
VERTEX
  8
52572015
  6
CONTINUOUS
 62
         7
  5
3E2
 10
155.7182281423
 20
67.1099528103
 30
0.0
  0
VERTEX
  8
52572015
  6
CONTINUOUS
 62
         7
  5
3E3
 10
155.6230240009
 20
68.1143006466
 30
0.0
  0
SEQEND
  8
52572015
  6
CONTINUOUS
 62
         7
  5
3E4
  0
POLYLINE
  8
52572015
  6
CONTINUOUS
 62
         7
  5
3E5
 66
         1
 10
0.0
 20
0.0
 30
0.0
  0
VERTEX
  8
52572015
  6
CONTINUOUS
 62
         7
  5
3E6
 10
155.6230240009
 20
68.1143006466
 30
0.0
  0
VERTEX
  8
52572015
  6
CONTINUOUS
 62
         7
  5
3E7
 10
153.4544275796
 20
69.4021120782
 30
0.0
  0
VERTEX
  8
52572015
  6
CONTINUOUS
 62
         7
  5
3E8
 10
151.2032542117
 20
70.7023668249
 30
0.0
  0
VERTEX
  8
52572015
  6
CONTINUOUS
 62
         7
  5
3E9
 10
148.8734948628
 20
72.0127279136
 30
0.0
  0
VERTEX
  8
52572015
  6
CONTINUOUS
 62
         7
  5
3EA
 10
146.4694240889
 20
73.3308219009
 30
0.0
  0
SEQEND
  8
52572015
  6
CONTINUOUS
 62
         7
  5
3EB
  0
POLYLINE
  8
52572015
  6
CONTINUOUS
 62
         7
  5
3EC
 66
         1
 10
0.0
 20
0.0
 30
0.0
  0
VERTEX
  8
52572015
  6
CONTINUOUS
 62
         7
  5
3ED
 10
146.4694240889
 20
73.3308219009
 30
0.0
  0
VERTEX
  8
52572015
  6
CONTINUOUS
 62
         7
  5
3EE
 10
146.1074861951
 20
74.1834439215
 30
0.0
  0
VERTEX
  8
52572015
  6
CONTINUOUS
 62
         7
  5
3EF
 10
145.7112634139
 20
75.0227949271
 30
0.0
  0
VERTEX
  8
52572015
  6
CONTINUOUS
 62
         7
  5
3F0
 10
145.2812612789
 20
75.8461759191
 30
0.0
  0
VERTEX
  8
52572015
  6
CONTINUOUS
 62
         7
  5
3F1
 10
144.818195028
 20
76.6509182056
 30
0.0
  0
VERTEX
  8
52572015
  6
CONTINUOUS
 62
         7
  5
3F2
 10
144.3229882469
 20
77.4344103596
 30
0.0
  0
VERTEX
  8
52572015
  6
CONTINUOUS
 62
         7
  5
3F3
 10
143.7967684024
 20
78.1941251284
 30
0.0
  0
VERTEX
  8
52572015
  6
CONTINUOUS
 62
         7
  5
3F4
 10
143.2408592638
 20
78.9276457358
 30
0.0
  0
VERTEX
  8
52572015
  6
CONTINUOUS
 62
         7
  5
3F5
 10
142.6567702919
 20
79.6326910208
 30
0.0
  0
VERTEX
  8
52572015
  6
CONTINUOUS
 62
         7
  5
3F6
 10
142.0461831643
 20
80.3071388711
 30
0.0
  0
VERTEX
  8
52572015
  6
CONTINUOUS
 62
         7
  5
3F7
 10
141.410935684
 20
80.9490474528
 30
0.0
  0
VERTEX
  8
52572015
  6
CONTINUOUS
 62
         7
  5
3F8
 10
140.7530033947
 20
81.5566737905
 30
0.0
  0
VERTEX
  8
52572015
  6
CONTINUOUS
 62
         7
  5
3F9
 10
140.0744792856
 20
82.1284893272
 30
0.0
  0
VERTEX
  8
52572015
  6
CONTINUOUS
 62
         7
  5
3FA
 10
139.377552022
 20
82.6631921765
 30
0.0
  0
VERTEX
  8
52572015
  6
CONTINUOUS
 62
         7
  5
3FB
 10
138.6644831659
 20
83.1597158733
 30
0.0
  0
VERTEX
  8
52572015
  6
CONTINUOUS
 62
         7
  5
3FC
 10
137.9375838724
 20
83.617234532
 30
0.0
  0
VERTEX
  8
52572015
  6
CONTINUOUS
 62
         7
  5
3FD
 10
137.1991915427
 20
84.0351644128
 30
0.0
  0
SEQEND
  8
52572015
  6
CONTINUOUS
 62
         7
  5
3FE
  0
POLYLINE
  8
52572015
  6
CONTINUOUS
 62
         7
  5
3FF
 66
         1
 10
0.0
 20
0.0
 30
0.0
  0
VERTEX
  8
52572015
  6
CONTINUOUS
 62
         7
  5
400
 10
137.1991915427
 20
84.0351644128
 30
0.0
  0
VERTEX
  8
52572015
  6
CONTINUOUS
 62
         7
  5
401
 10
136.4925056531
 20
85.5897071223
 30
0.0
  0
VERTEX
  8
52572015
  6
CONTINUOUS
 62
         7
  5
402
 10
135.7725471844
 20
87.1403992511
 30
0.0
  0
VERTEX
  8
52572015
  6
CONTINUOUS
 62
         7
  5
403
 10
135.0396262797
 20
88.6865361716
 30
0.0
  0
VERTEX
  8
52572015
  6
CONTINUOUS
 62
         7
  5
404
 10
134.2940651638
 20
90.2274165221
 30
0.0
  0
VERTEX
  8
52572015
  6
CONTINUOUS
 62
         7
  5
405
 10
133.5361976723
 20
91.7623432661
 30
0.0
  0
VERTEX
  8
52572015
  6
CONTINUOUS
 62
         7
  5
406
 10
132.766368753
 20
93.2906247433
 30
0.0
  0
VERTEX
  8
52572015
  6
CONTINUOUS
 62
         7
  5
407
 10
131.9849339431
 20
94.8115757077
 30
0.0
  0
VERTEX
  8
52572015
  6
CONTINUOUS
 62
         7
  5
408
 10
131.1922588225
 20
96.3245183511
 30
0.0
  0
SEQEND
  8
52572015
  6
CONTINUOUS
 62
         7
  5
409
  0
LINE
  8
52572015
  6
CONTINUOUS
 62
         7
  5
40A
 10
115.2895393184
 20
49.0240801672
 30
0.0
 11
107.3645457254
 21
49.0240801672
 31
0.0
  0
LINE
  8
52572015
  6
CONTINUOUS
 62
         7
  5
40B
 10
115.2895393184
 20
79.1286035022
 30
0.0
 11
107.3645457254
 21
79.1286035022
 31
0.0
  0
POLYLINE
  8
52572015
  6
CONTINUOUS
 62
         7
  5
40C
 66
         1
 10
0.0
 20
0.0
 30
0.0
  0
VERTEX
  8
52572015
  6
CONTINUOUS
 62
         7
  5
40D
 10
124.1983090015
 20
31.8281653183
 30
0.0
  0
VERTEX
  8
52572015
  6
CONTINUOUS
 62
         7
  5
40E
 10
125.0680997419
 20
31.718233045
 30
0.0
  0
VERTEX
  8
52572015
  6
CONTINUOUS
 62
         7
  5
40F
 10
125.9417011492
 20
31.6394811668
 30
0.0
  0
VERTEX
  8
52572015
  6
CONTINUOUS
 62
         7
  5
410
 10
126.8178532954
 20
31.5921381758
 30
0.0
  0
VERTEX
  8
52572015
  6
CONTINUOUS
 62
         7
  5
411
 10
127.695283912
 20
31.5763418347
 30
0.0
  0
VERTEX
  8
52572015
  6
CONTINUOUS
 62
         7
  5
412
 10
128.5727145286
 20
31.5921381758
 30
0.0
  0
VERTEX
  8
52572015
  6
CONTINUOUS
 62
         7
  5
413
 10
129.4488666748
 20
31.6394811668
 30
0.0
  0
VERTEX
  8
52572015
  6
CONTINUOUS
 62
         7
  5
414
 10
130.3224680821
 20
31.718233045
 30
0.0
  0
VERTEX
  8
52572015
  6
CONTINUOUS
 62
         7
  5
415
 10
131.1922588225
 20
31.8281653183
 30
0.0
  0
SEQEND
  8
52572015
  6
CONTINUOUS
 62
         7
  5
416
  0
POLYLINE
  8
52572015
  6
CONTINUOUS
 62
         7
  5
417
 66
         1
 10
0.0
 20
0.0
 30
0.0
  0
VERTEX
  8
52572015
  6
CONTINUOUS
 62
         7
  5
418
 10
131.1922588225
 20
31.8281653183
 30
0.0
  0
VERTEX
  8
52572015
  6
CONTINUOUS
 62
         7
  5
419
 10
131.9849339431
 20
33.3411079617
 30
0.0
  0
VERTEX
  8
52572015
  6
CONTINUOUS
 62
         7
  5
41A
 10
132.766368753
 20
34.8620589262
 30
0.0
  0
VERTEX
  8
52572015
  6
CONTINUOUS
 62
         7
  5
41B
 10
133.5361976723
 20
36.3903404033
 30
0.0
  0
VERTEX
  8
52572015
  6
CONTINUOUS
 62
         7
  5
41C
 10
134.2940651638
 20
37.9252671474
 30
0.0
  0
VERTEX
  8
52572015
  6
CONTINUOUS
 62
         7
  5
41D
 10
135.0396262797
 20
39.4661474978
 30
0.0
  0
VERTEX
  8
52572015
  6
CONTINUOUS
 62
         7
  5
41E
 10
135.7725471844
 20
41.0122844183
 30
0.0
  0
VERTEX
  8
52572015
  6
CONTINUOUS
 62
         7
  5
41F
 10
136.4925056531
 20
42.5629765471
 30
0.0
  0
VERTEX
  8
52572015
  6
CONTINUOUS
 62
         7
  5
420
 10
137.1991915427
 20
44.1175192566
 30
0.0
  0
SEQEND
  8
52572015
  6
CONTINUOUS
 62
         7
  5
421
  0
POLYLINE
  8
52572015
  6
CONTINUOUS
 62
         7
  5
422
 66
         1
 10
0.0
 20
0.0
 30
0.0
  0
VERTEX
  8
52572015
  6
CONTINUOUS
 62
         7
  5
423
 10
137.1991915427
 20
44.1175192566
 30
0.0
  0
VERTEX
  8
52572015
  6
CONTINUOUS
 62
         7
  5
424
 10
137.9375838724
 20
44.5354491374
 30
0.0
  0
VERTEX
  8
52572015
  6
CONTINUOUS
 62
         7
  5
425
 10
138.6644831659
 20
44.9929677961
 30
0.0
  0
VERTEX
  8
52572015
  6
CONTINUOUS
 62
         7
  5
426
 10
139.377552022
 20
45.489491493
 30
0.0
  0
VERTEX
  8
52572015
  6
CONTINUOUS
 62
         7
  5
427
 10
140.0744792856
 20
46.0241943422
 30
0.0
  0
VERTEX
  8
52572015
  6
CONTINUOUS
 62
         7
  5
428
 10
140.7530033947
 20
46.596009879
 30
0.0
  0
VERTEX
  8
52572015
  6
CONTINUOUS
 62
         7
  5
429
 10
141.410935684
 20
47.2036362167
 30
0.0
  0
VERTEX
  8
52572015
  6
CONTINUOUS
 62
         7
  5
42A
 10
142.0461831643
 20
47.8455447983
 30
0.0
  0
VERTEX
  8
52572015
  6
CONTINUOUS
 62
         7
  5
42B
 10
142.6567702919
 20
48.5199926486
 30
0.0
  0
VERTEX
  8
52572015
  6
CONTINUOUS
 62
         7
  5
42C
 10
143.2408592638
 20
49.2250379336
 30
0.0
  0
VERTEX
  8
52572015
  6
CONTINUOUS
 62
         7
  5
42D
 10
143.7967684024
 20
49.9585585411
 30
0.0
  0
VERTEX
  8
52572015
  6
CONTINUOUS
 62
         7
  5
42E
 10
144.3229882469
 20
50.7182733098
 30
0.0
  0
VERTEX
  8
52572015
  6
CONTINUOUS
 62
         7
  5
42F
 10
144.818195028
 20
51.5017654638
 30
0.0
  0
VERTEX
  8
52572015
  6
CONTINUOUS
 62
         7
  5
430
 10
145.2812612789
 20
52.3065077503
 30
0.0
  0
VERTEX
  8
52572015
  6
CONTINUOUS
 62
         7
  5
431
 10
145.7112634139
 20
53.1298887424
 30
0.0
  0
VERTEX
  8
52572015
  6
CONTINUOUS
 62
         7
  5
432
 10
146.1074861951
 20
53.9692397479
 30
0.0
  0
VERTEX
  8
52572015
  6
CONTINUOUS
 62
         7
  5
433
 10
146.4694240889
 20
54.8218617686
 30
0.0
  0
SEQEND
  8
52572015
  6
CONTINUOUS
 62
         7
  5
434
  0
POLYLINE
  8
52572015
  6
CONTINUOUS
 62
         7
  5
435
 66
         1
 10
0.0
 20
0.0
 30
0.0
  0
VERTEX
  8
52572015
  6
CONTINUOUS
 62
         7
  5
436
 10
146.4694240889
 20
54.8218617686
 30
0.0
  0
VERTEX
  8
52572015
  6
CONTINUOUS
 62
         7
  5
437
 10
148.8734948628
 20
56.1399557558
 30
0.0
  0
VERTEX
  8
52572015
  6
CONTINUOUS
 62
         7
  5
438
 10
151.2032542117
 20
57.4503168446
 30
0.0
  0
VERTEX
  8
52572015
  6
CONTINUOUS
 62
         7
  5
439
 10
153.4544275796
 20
58.7505715913
 30
0.0
  0
VERTEX
  8
52572015
  6
CONTINUOUS
 62
         7
  5
43A
 10
155.6230240009
 20
60.0383830229
 30
0.0
  0
SEQEND
  8
52572015
  6
CONTINUOUS
 62
         7
  5
43B
  0
POLYLINE
  8
52572015
  6
CONTINUOUS
 62
         7
  5
43C
 66
         1
 10
0.0
 20
0.0
 30
0.0
  0
VERTEX
  8
52572015
  6
CONTINUOUS
 62
         7
  5
43D
 10
120.0095831136
 20
96.5763418347
 30
0.0
  0
VERTEX
  8
52572015
  6
CONTINUOUS
 62
         7
  5
43E
 10
119.1334284893
 20
96.5605914146
 30
0.0
  0
VERTEX
  8
52572015
  6
CONTINUOUS
 62
         7
  5
43F
 10
118.2576987834
 20
96.5133248694
 30
0.0
  0
VERTEX
  8
52572015
  6
CONTINUOUS
 62
         7
  5
440
 10
117.3836687508
 20
96.4345880534
 30
0.0
  0
VERTEX
  8
52572015
  6
CONTINUOUS
 62
         7
  5
441
 10
116.5126082031
 20
96.3245183511
 30
0.0
  0
SEQEND
  8
52572015
  6
CONTINUOUS
 62
         7
  5
442
  0
LINE
  8
52572015
  6
CONTINUOUS
 62
         7
  5
443
 10
116.5126082031
 20
96.3245183511
 30
0.0
 11
112.4867154394
 21
85.372866182
 31
0.0
  0
LINE
  8
52572015
  6
CONTINUOUS
 62
         7
  5
444
 10
98.1910913867
 20
71.6521897837
 30
0.0
 11
91.6109571444
 21
71.6521897837
 31
0.0
  0
LINE
  8
52572015
  6
CONTINUOUS
 62
         7
  5
445
 10
98.1910913867
 20
56.5004938857
 30
0.0
 11
91.6109571444
 21
56.5004938857
 31
0.0
  0
LINE
  8
52572015
  6
CONTINUOUS
 62
         7
  5
446
 10
112.4867154394
 20
42.7798174874
 30
0.0
 11
116.5126082031
 21
31.8281653183
 31
0.0
  0
LINE
  8
52572015
  6
CONTINUOUS
 62
         7
  5
447
 10
124.1983090015
 20
96.3245183511
 30
0.0
 11
116.5126082031
 21
96.3245183511
 31
0.0
  0
LINE
  8
52572015
  6
CONTINUOUS
 62
         7
  5
448
 10
121.1699618705
 20
84.0351644128
 30
0.0
 11
113.2449682775
 21
84.0351644128
 31
0.0
  0
POLYLINE
  8
52572015
  6
CONTINUOUS
 62
         7
  5
449
 66
         1
 10
0.0
 20
0.0
 30
0.0
  0
VERTEX
  8
52572015
  6
CONTINUOUS
 62
         7
  5
44A
 10
116.5126082031
 20
31.8281653183
 30
0.0
  0
VERTEX
  8
52572015
  6
CONTINUOUS
 62
         7
  5
44B
 10
117.3836687508
 20
31.7180956161
 30
0.0
  0
VERTEX
  8
52572015
  6
CONTINUOUS
 62
         7
  5
44C
 10
118.2576987834
 20
31.6393588
 30
0.0
  0
VERTEX
  8
52572015
  6
CONTINUOUS
 62
         7
  5
44D
 10
119.1334284893
 20
31.5920922549
 30
0.0
  0
VERTEX
  8
52572015
  6
CONTINUOUS
 62
         7
  5
44E
 10
120.0095831136
 20
31.5763418347
 30
0.0
  0
SEQEND
  8
52572015
  6
CONTINUOUS
 62
         7
  5
44F
  0
LINE
  8
52572015
  6
CONTINUOUS
 62
         7
  5
450
 10
124.1983090015
 20
31.8281653183
 30
0.0
 11
116.5126082031
 21
31.8281653183
 31
0.0
  0
LINE
  8
52572015
  6
CONTINUOUS
 62
         7
  5
451
 10
121.1699618705
 20
44.1175192566
 30
0.0
 11
113.2449682775
 21
44.1175192566
 31
0.0
  0
POLYLINE
  8
52572015
  6
CONTINUOUS
 62
         7
  5
452
 66
         1
 10
0.0
 20
0.0
 30
0.0
  0
VERTEX
  8
52572015
  6
CONTINUOUS
 62
         7
  5
453
 10
98.1910913867
 20
71.6521897837
 30
0.0
  0
VERTEX
  8
52572015
  6
CONTINUOUS
 62
         7
  5
454
 10
102.5815446529
 20
73.4908722112
 30
0.0
  0
VERTEX
  8
52572015
  6
CONTINUOUS
 62
         7
  5
455
 10
106.9054925137
 20
75.3544564467
 30
0.0
  0
VERTEX
  8
52572015
  6
CONTINUOUS
 62
         7
  5
456
 10
111.1466979112
 20
77.2360442629
 30
0.0
  0
VERTEX
  8
52572015
  6
CONTINUOUS
 62
         7
  5
457
 10
115.2895393184
 20
79.1286035022
 30
0.0
  0
SEQEND
  8
52572015
  6
CONTINUOUS
 62
         7
  5
458
  0
POLYLINE
  8
52572015
  6
CONTINUOUS
 62
         7
  5
459
 66
         1
 10
0.0
 20
0.0
 30
0.0
  0
VERTEX
  8
52572015
  6
CONTINUOUS
 62
         7
  5
45A
 10
99.8595831136
 20
46.8763418347
 30
0.0
  0
VERTEX
  8
52572015
  6
CONTINUOUS
 62
         7
  5
45B
 10
100.3665052286
 20
46.8863047989
 30
0.0
  0
VERTEX
  8
52572015
  6
CONTINUOUS
 62
         7
  5
45C
 10
100.8731334575
 20
46.9162052502
 30
0.0
  0
VERTEX
  8
52572015
  6
CONTINUOUS
 62
         7
  5
45D
 10
101.3785861422
 20
46.9660085125
 30
0.0
  0
VERTEX
  8
52572015
  6
CONTINUOUS
 62
         7
  5
45E
 10
101.881985711
 20
47.0356107184
 30
0.0
  0
SEQEND
  8
52572015
  6
CONTINUOUS
 62
         7
  5
45F
  0
POLYLINE
  8
52572015
  6
CONTINUOUS
 62
         7
  5
460
 66
         1
 10
0.0
 20
0.0
 30
0.0
  0
VERTEX
  8
52572015
  6
CONTINUOUS
 62
         7
  5
461
 10
101.881985711
 20
81.117072951
 30
0.0
  0
VERTEX
  8
52572015
  6
CONTINUOUS
 62
         7
  5
462
 10
101.3614440026
 20
81.1886926909
 30
0.0
  0
VERTEX
  8
52572015
  6
CONTINUOUS
 62
         7
  5
463
 10
100.8337006563
 20
81.2395231642
 30
0.0
  0
VERTEX
  8
52572015
  6
CONTINUOUS
 62
         7
  5
464
 10
100.2996325791
 20
81.2688346331
 30
0.0
  0
VERTEX
  8
52572015
  6
CONTINUOUS
 62
         7
  5
465
 10
99.7601773132
 20
81.2759588261
 30
0.0
  0
VERTEX
  8
52572015
  6
CONTINUOUS
 62
         7
  5
466
 10
99.2163293267
 20
81.2602965431
 30
0.0
  0
VERTEX
  8
52572015
  6
CONTINUOUS
 62
         7
  5
467
 10
98.6691354958
 20
81.2213249481
 30
0.0
  0
VERTEX
  8
52572015
  6
CONTINUOUS
 62
         7
  5
468
 10
98.1196897959
 20
81.1586044188
 30
0.0
  0
VERTEX
  8
52572015
  6
CONTINUOUS
 62
         7
  5
469
 10
97.569127235
 20
81.0717848266
 30
0.0
  0
VERTEX
  8
52572015
  6
CONTINUOUS
 62
         7
  5
46A
 10
97.0186170815
 20
80.9606111212
 30
0.0
  0
VERTEX
  8
52572015
  6
CONTINUOUS
 62
         7
  5
46B
 10
96.4693554561
 20
80.8249281006
 30
0.0
  0
VERTEX
  8
52572015
  6
CONTINUOUS
 62
         7
  5
46C
 10
95.9225573718
 20
80.6646842598
 30
0.0
  0
VERTEX
  8
52572015
  6
CONTINUOUS
 62
         7
  5
46D
 10
95.379448324
 20
80.4799346228
 30
0.0
  0
VERTEX
  8
52572015
  6
CONTINUOUS
 62
         7
  5
46E
 10
94.8412555446
 20
80.270842482
 30
0.0
  0
VERTEX
  8
52572015
  6
CONTINUOUS
 62
         7
  5
46F
 10
94.3091990444
 20
80.037679986
 30
0.0
  0
VERTEX
  8
52572015
  6
CONTINUOUS
 62
         7
  5
470
 10
93.7844825776
 20
79.7808275412
 30
0.0
  0
VERTEX
  8
52572015
  6
CONTINUOUS
 62
         7
  5
471
 10
93.2682846662
 20
79.5007720145
 30
0.0
  0
VERTEX
  8
52572015
  6
CONTINUOUS
 62
         7
  5
472
 10
92.7617498219
 20
79.1981037498
 30
0.0
  0
VERTEX
  8
52572015
  6
CONTINUOUS
 62
         7
  5
473
 10
92.2659801041
 20
78.8735124352
 30
0.0
  0
VERTEX
  8
52572015
  6
CONTINUOUS
 62
         7
  5
474
 10
91.7820271426
 20
78.5277818799
 30
0.0
  0
VERTEX
  8
52572015
  6
CONTINUOUS
 62
         7
  5
475
 10
91.3108847468
 20
78.1617837866
 30
0.0
  0
VERTEX
  8
52572015
  6
CONTINUOUS
 62
         7
  5
476
 10
90.8534822099
 20
77.7764706182
 30
0.0
  0
VERTEX
  8
52572015
  6
CONTINUOUS
 62
         7
  5
477
 10
90.4106784
 20
77.3728676824
 30
0.0
  0
VERTEX
  8
52572015
  6
CONTINUOUS
 62
         7
  5
478
 10
89.9832567149
 20
76.9520645648
 30
0.0
  0
VERTEX
  8
52572015
  6
CONTINUOUS
 62
         7
  5
479
 10
89.5719209564
 20
76.5152060562
 30
0.0
  0
VERTEX
  8
52572015
  6
CONTINUOUS
 62
         7
  5
47A
 10
89.1772921603
 20
76.063482722
 30
0.0
  0
VERTEX
  8
52572015
  6
CONTINUOUS
 62
         7
  5
47B
 10
88.7999063989
 20
75.5981212671
 30
0.0
  0
VERTEX
  8
52572015
  6
CONTINUOUS
 62
         7
  5
47C
 10
88.4402135525
 20
75.1203748438
 30
0.0
  0
VERTEX
  8
52572015
  6
CONTINUOUS
 62
         7
  5
47D
 10
88.0985770278
 20
74.6315134486
 30
0.0
  0
VERTEX
  8
52572015
  6
CONTINUOUS
 62
         7
  5
47E
 10
87.7752743826
 20
74.1328145426
 30
0.0
  0
VERTEX
  8
52572015
  6
CONTINUOUS
 62
         7
  5
47F
 10
87.4704988048
 20
73.6255540179
 30
0.0
  0
VERTEX
  8
52572015
  6
CONTINUOUS
 62
         7
  5
480
 10
87.1843613754
 20
73.1109976215
 30
0.0
  0
VERTEX
  8
52572015
  6
CONTINUOUS
 62
         7
  5
481
 10
86.9168940392
 20
72.5903929288
 30
0.0
  0
SEQEND
  8
52572015
  6
CONTINUOUS
 62
         7
  5
482
  0
POLYLINE
  8
52572015
  6
CONTINUOUS
 62
         7
  5
483
 66
         1
 10
0.0
 20
0.0
 30
0.0
  0
VERTEX
  8
52572015
  6
CONTINUOUS
 62
         7
  5
484
 10
86.9168940392
 20
55.5622907406
 30
0.0
  0
VERTEX
  8
52572015
  6
CONTINUOUS
 62
         7
  5
485
 10
87.155822746
 20
55.0952897417
 30
0.0
  0
VERTEX
  8
52572015
  6
CONTINUOUS
 62
         7
  5
486
 10
87.4094558166
 20
54.6335788005
 30
0.0
  0
VERTEX
  8
52572015
  6
CONTINUOUS
 62
         7
  5
487
 10
87.6777275969
 20
54.1780324726
 30
0.0
  0
VERTEX
  8
52572015
  6
CONTINUOUS
 62
         7
  5
488
 10
87.9605225486
 20
53.7295318483
 30
0.0
  0
VERTEX
  8
52572015
  6
CONTINUOUS
 62
         7
  5
489
 10
88.2576740365
 20
53.288959961
 30
0.0
  0
VERTEX
  8
52572015
  6
CONTINUOUS
 62
         7
  5
48A
 10
88.5689634853
 20
52.8571969825
 30
0.0
  0
VERTEX
  8
52572015
  6
CONTINUOUS
 62
         7
  5
48B
 10
88.8941199362
 20
52.4351152495
 30
0.0
  0
VERTEX
  8
52572015
  6
CONTINUOUS
 62
         7
  5
48C
 10
89.2328200233
 20
52.0235741734
 30
0.0
  0
VERTEX
  8
52572015
  6
CONTINUOUS
 62
         7
  5
48D
 10
89.5846883909
 20
51.6234150869
 30
0.0
  0
VERTEX
  8
52572015
  6
CONTINUOUS
 62
         7
  5
48E
 10
89.9492985607
 20
51.2354560874
 30
0.0
  0
VERTEX
  8
52572015
  6
CONTINUOUS
 62
         7
  5
48F
 10
90.3261742538
 20
50.8604869368
 30
0.0
  0
VERTEX
  8
52572015
  6
CONTINUOUS
 62
         7
  5
490
 10
90.7147911673
 20
50.4992640804
 30
0.0
  0
VERTEX
  8
52572015
  6
CONTINUOUS
 62
         7
  5
491
 10
91.1145791943
 20
50.1525058473
 30
0.0
  0
VERTEX
  8
52572015
  6
CONTINUOUS
 62
         7
  5
492
 10
91.5249250702
 20
49.8208878936
 30
0.0
  0
VERTEX
  8
52572015
  6
CONTINUOUS
 62
         7
  5
493
 10
91.9451754235
 20
49.5050389456
 30
0.0
  0
VERTEX
  8
52572015
  6
CONTINUOUS
 62
         7
  5
494
 10
92.3746401984
 20
49.2055368999
 30
0.0
  0
VERTEX
  8
52572015
  6
CONTINUOUS
 62
         7
  5
495
 10
92.812596413
 20
48.9229053293
 30
0.0
  0
VERTEX
  8
52572015
  6
CONTINUOUS
 62
         7
  5
496
 10
93.2582922101
 20
48.6576104382
 30
0.0
  0
VERTEX
  8
52572015
  6
CONTINUOUS
 62
         7
  5
497
 10
93.7109511531
 20
48.4100585054
 30
0.0
  0
VERTEX
  8
52572015
  6
CONTINUOUS
 62
         7
  5
498
 10
94.169776716
 20
48.1805938432
 30
0.0
  0
VERTEX
  8
52572015
  6
CONTINUOUS
 62
         7
  5
499
 10
94.6339569123
 20
47.9694972936
 30
0.0
  0
VERTEX
  8
52572015
  6
CONTINUOUS
 62
         7
  5
49A
 10
95.1026690074
 20
47.7769852754
 30
0.0
  0
VERTEX
  8
52572015
  6
CONTINUOUS
 62
         7
  5
49B
 10
95.5750842585
 20
47.6032093837
 30
0.0
  0
VERTEX
  8
52572015
  6
CONTINUOUS
 62
         7
  5
49C
 10
96.0503726246
 20
47.448256539
 30
0.0
  0
VERTEX
  8
52572015
  6
CONTINUOUS
 62
         7
  5
49D
 10
96.5277073942
 20
47.3121496704
 30
0.0
  0
VERTEX
  8
52572015
  6
CONTINUOUS
 62
         7
  5
49E
 10
97.0062696773
 20
47.1948489136
 30
0.0
  0
VERTEX
  8
52572015
  6
CONTINUOUS
 62
         7
  5
49F
 10
97.4852527155
 20
47.0962532931
 30
0.0
  0
VERTEX
  8
52572015
  6
CONTINUOUS
 62
         7
  5
4A0
 10
97.9638659657
 20
47.0162028554
 30
0.0
  0
VERTEX
  8
52572015
  6
CONTINUOUS
 62
         7
  5
4A1
 10
98.441338919
 20
46.9544812113
 30
0.0
  0
VERTEX
  8
52572015
  6
CONTINUOUS
 62
         7
  5
4A2
 10
98.916924624
 20
46.9108184434
 30
0.0
  0
VERTEX
  8
52572015
  6
CONTINUOUS
 62
         7
  5
4A3
 10
99.3899028842
 20
46.8848943299
 30
0.0
  0
VERTEX
  8
52572015
  6
CONTINUOUS
 62
         7
  5
4A4
 10
99.8595831136
 20
46.8763418347
 30
0.0
  0
SEQEND
  8
52572015
  6
CONTINUOUS
 62
         7
  5
4A5
  0
POLYLINE
  8
52572015
  6
CONTINUOUS
 62
         7
  5
4A6
 66
         1
 10
0.0
 20
0.0
 30
0.0
  0
VERTEX
  8
52572015
  6
CONTINUOUS
 62
         7
  5
4A7
 10
98.2595831136
 20
81.2763418347
 30
0.0
  0
VERTEX
  8
52572015
  6
CONTINUOUS
 62
         7
  5
4A8
 10
97.5955319818
 20
81.25924171
 30
0.0
  0
VERTEX
  8
52572015
  6
CONTINUOUS
 62
         7
  5
4A9
 10
96.9211440287
 20
81.2067662629
 30
0.0
  0
VERTEX
  8
52572015
  6
CONTINUOUS
 62
         7
  5
4AA
 10
96.2383138225
 20
81.117252235
 30
0.0
  0
VERTEX
  8
52572015
  6
CONTINUOUS
 62
         7
  5
4AB
 10
95.5491275474
 20
80.9891941715
 30
0.0
  0
VERTEX
  8
52572015
  6
CONTINUOUS
 62
         7
  5
4AC
 10
94.8558531743
 20
80.8212762926
 30
0.0
  0
VERTEX
  8
52572015
  6
CONTINUOUS
 62
         7
  5
4AD
 10
94.1609262428
 20
80.6124039155
 30
0.0
  0
VERTEX
  8
52572015
  6
CONTINUOUS
 62
         7
  5
4AE
 10
93.4669311461
 20
80.3617335348
 30
0.0
  0
VERTEX
  8
52572015
  6
CONTINUOUS
 62
         7
  5
4AF
 10
92.7765779585
 20
80.068700613
 30
0.0
  0
VERTEX
  8
52572015
  6
CONTINUOUS
 62
         7
  5
4B0
 10
92.0926750118
 20
79.7330441041
 30
0.0
  0
VERTEX
  8
52572015
  6
CONTINUOUS
 62
         7
  5
4B1
 10
91.4180976046
 20
79.3548267522
 30
0.0
  0
VERTEX
  8
52572015
  6
CONTINUOUS
 62
         7
  5
4B2
 10
90.7557534068
 20
78.9344502712
 30
0.0
  0
VERTEX
  8
52572015
  6
CONTINUOUS
 62
         7
  5
4B3
 10
90.1085452943
 20
78.4726646277
 30
0.0
  0
VERTEX
  8
52572015
  6
CONTINUOUS
 62
         7
  5
4B4
 10
89.4793324955
 20
77.9705708086
 30
0.0
  0
VERTEX
  8
52572015
  6
CONTINUOUS
 62
         7
  5
4B5
 10
88.8708910555
 20
77.429616661
 30
0.0
  0
VERTEX
  8
52572015
  6
CONTINUOUS
 62
         7
  5
4B6
 10
88.2858747011
 20
76.851585629
 30
0.0
  0
VERTEX
  8
52572015
  6
CONTINUOUS
 62
         7
  5
4B7
 10
87.7267772196
 20
76.2385784711
 30
0.0
  0
VERTEX
  8
52572015
  6
CONTINUOUS
 62
         7
  5
4B8
 10
87.1958974482
 20
75.5929883083
 30
0.0
  0
VERTEX
  8
52572015
  6
CONTINUOUS
 62
         7
  5
4B9
 10
86.6953078903
 20
74.9174696088
 30
0.0
  0
VERTEX
  8
52572015
  6
CONTINUOUS
 62
         7
  5
4BA
 10
86.2268278562
 20
74.2149019505
 30
0.0
  0
VERTEX
  8
52572015
  6
CONTINUOUS
 62
         7
  5
4BB
 10
85.7920018538
 20
73.4883495929
 30
0.0
  0
VERTEX
  8
52572015
  6
CONTINUOUS
 62
         7
  5
4BC
 10
85.3920837554
 20
72.741018037
 30
0.0
  0
VERTEX
  8
52572015
  6
CONTINUOUS
 62
         7
  5
4BD
 10
85.0280270437
 20
71.9762088353
 30
0.0
  0
VERTEX
  8
52572015
  6
CONTINUOUS
 62
         7
  5
4BE
 10
84.7004812088
 20
71.1972739399
 30
0.0
  0
VERTEX
  8
52572015
  6
CONTINUOUS
 62
         7
  5
4BF
 10
84.4097941451
 20
70.4075708392
 30
0.0
  0
VERTEX
  8
52572015
  6
CONTINUOUS
 62
         7
  5
4C0
 10
84.1560201907
 20
69.6104196418
 30
0.0
  0
VERTEX
  8
52572015
  6
CONTINUOUS
 62
         7
  5
4C1
 10
83.938933273
 20
68.8090631301
 30
0.0
  0
VERTEX
  8
52572015
  6
CONTINUOUS
 62
         7
  5
4C2
 10
83.7580444883
 20
68.0066306281
 30
0.0
  0
VERTEX
  8
52572015
  6
CONTINUOUS
 62
         7
  5
4C3
 10
83.6126233395
 20
67.2061063362
 30
0.0
  0
VERTEX
  8
52572015
  6
CONTINUOUS
 62
         7
  5
4C4
 10
83.5017218033
 20
66.4103025733
 30
0.0
  0
VERTEX
  8
52572015
  6
CONTINUOUS
 62
         7
  5
4C5
 10
83.4242003812
 20
65.6218381666
 30
0.0
  0
VERTEX
  8
52572015
  6
CONTINUOUS
 62
         7
  5
4C6
 10
83.3787553108
 20
64.8431220341
 30
0.0
  0
VERTEX
  8
52572015
  6
CONTINUOUS
 62
         7
  5
4C7
 10
83.3639461685
 20
64.0763418347
 30
0.0
  0
VERTEX
  8
52572015
  6
CONTINUOUS
 62
         7
  5
4C8
 10
83.3787553108
 20
63.3095616354
 30
0.0
  0
VERTEX
  8
52572015
  6
CONTINUOUS
 62
         7
  5
4C9
 10
83.4242003812
 20
62.5308455029
 30
0.0
  0
VERTEX
  8
52572015
  6
CONTINUOUS
 62
         7
  5
4CA
 10
83.5017218033
 20
61.7423810961
 30
0.0
  0
VERTEX
  8
52572015
  6
CONTINUOUS
 62
         7
  5
4CB
 10
83.6126233395
 20
60.9465773332
 30
0.0
  0
VERTEX
  8
52572015
  6
CONTINUOUS
 62
         7
  5
4CC
 10
83.7580444883
 20
60.1460530413
 30
0.0
  0
VERTEX
  8
52572015
  6
CONTINUOUS
 62
         7
  5
4CD
 10
83.938933273
 20
59.3436205394
 30
0.0
  0
VERTEX
  8
52572015
  6
CONTINUOUS
 62
         7
  5
4CE
 10
84.1560201907
 20
58.5422640276
 30
0.0
  0
VERTEX
  8
52572015
  6
CONTINUOUS
 62
         7
  5
4CF
 10
84.4097941451
 20
57.7451128302
 30
0.0
  0
VERTEX
  8
52572015
  6
CONTINUOUS
 62
         7
  5
4D0
 10
84.7004812088
 20
56.9554097295
 30
0.0
  0
VERTEX
  8
52572015
  6
CONTINUOUS
 62
         7
  5
4D1
 10
85.0280270437
 20
56.1764748341
 30
0.0
  0
VERTEX
  8
52572015
  6
CONTINUOUS
 62
         7
  5
4D2
 10
85.3920837554
 20
55.4116656324
 30
0.0
  0
VERTEX
  8
52572015
  6
CONTINUOUS
 62
         7
  5
4D3
 10
85.7920018538
 20
54.6643340765
 30
0.0
  0
VERTEX
  8
52572015
  6
CONTINUOUS
 62
         7
  5
4D4
 10
86.2268278562
 20
53.9377817189
 30
0.0
  0
VERTEX
  8
52572015
  6
CONTINUOUS
 62
         7
  5
4D5
 10
86.6953078903
 20
53.2352140606
 30
0.0
  0
VERTEX
  8
52572015
  6
CONTINUOUS
 62
         7
  5
4D6
 10
87.1958974482
 20
52.5596953612
 30
0.0
  0
VERTEX
  8
52572015
  6
CONTINUOUS
 62
         7
  5
4D7
 10
87.7267772196
 20
51.9141051983
 30
0.0
  0
VERTEX
  8
52572015
  6
CONTINUOUS
 62
         7
  5
4D8
 10
88.2858747011
 20
51.3010980404
 30
0.0
  0
VERTEX
  8
52572015
  6
CONTINUOUS
 62
         7
  5
4D9
 10
88.8708910555
 20
50.7230670084
 30
0.0
  0
VERTEX
  8
52572015
  6
CONTINUOUS
 62
         7
  5
4DA
 10
89.4793324955
 20
50.1821128608
 30
0.0
  0
VERTEX
  8
52572015
  6
CONTINUOUS
 62
         7
  5
4DB
 10
90.1085452943
 20
49.6800190418
 30
0.0
  0
VERTEX
  8
52572015
  6
CONTINUOUS
 62
         7
  5
4DC
 10
90.7557534068
 20
49.2182333983
 30
0.0
  0
VERTEX
  8
52572015
  6
CONTINUOUS
 62
         7
  5
4DD
 10
91.4180976046
 20
48.7978569172
 30
0.0
  0
VERTEX
  8
52572015
  6
CONTINUOUS
 62
         7
  5
4DE
 10
92.0926750118
 20
48.4196395653
 30
0.0
  0
VERTEX
  8
52572015
  6
CONTINUOUS
 62
         7
  5
4DF
 10
92.7765779585
 20
48.0839830564
 30
0.0
  0
VERTEX
  8
52572015
  6
CONTINUOUS
 62
         7
  5
4E0
 10
93.4669311461
 20
47.7909501346
 30
0.0
  0
VERTEX
  8
52572015
  6
CONTINUOUS
 62
         7
  5
4E1
 10
94.1609262428
 20
47.5402797539
 30
0.0
  0
VERTEX
  8
52572015
  6
CONTINUOUS
 62
         7
  5
4E2
 10
94.8558531743
 20
47.3314073768
 30
0.0
  0
VERTEX
  8
52572015
  6
CONTINUOUS
 62
         7
  5
4E3
 10
95.5491275474
 20
47.1634894979
 30
0.0
  0
VERTEX
  8
52572015
  6
CONTINUOUS
 62
         7
  5
4E4
 10
96.2383138225
 20
47.0354314344
 30
0.0
  0
VERTEX
  8
52572015
  6
CONTINUOUS
 62
         7
  5
4E5
 10
96.9211440287
 20
46.9459174066
 30
0.0
  0
VERTEX
  8
52572015
  6
CONTINUOUS
 62
         7
  5
4E6
 10
97.5955319818
 20
46.8934419594
 30
0.0
  0
VERTEX
  8
52572015
  6
CONTINUOUS
 62
         7
  5
4E7
 10
98.2595831136
 20
46.8763418347
 30
0.0
  0
SEQEND
  8
52572015
  6
CONTINUOUS
 62
         7
  5
4E8
  0
LINE
  8
52572015
  6
CONTINUOUS
 62
         7
  5
4E9
 10
87.2726885063
 20
78.0763418347
 30
0.0
 11
81.3363780328
 21
78.0763418347
 31
0.0
  0
LINE
  8
52572015
  6
CONTINUOUS
 62
         7
  5
4EA
 10
30.9438241054
 20
76.8263418347
 30
0.0
 11
22.9438241054
 21
76.8263418347
 31
0.0
  0
LINE
  8
52572015
  6
CONTINUOUS
 62
         7
  5
4EB
 10
22.9438241054
 20
76.8263418347
 30
0.0
 11
21.99896824
 21
79.4223119898
 31
0.0
  0
CIRCLE
  8
52572015
  6
CONTINUOUS
 62
         7
  5
4EC
 10
64.5095831136
 20
64.0763418347
 30
0.0
 40
6.9
  0
CIRCLE
  8
52572015
  6
CONTINUOUS
 62
         7
  5
4ED
 10
64.5095831136
 20
64.0763418347
 30
0.0
 40
5.5
  0
LINE
  8
52572015
  6
CONTINUOUS
 62
         7
  5
4EE
 10
100.1657892655
 20
79.0842236428
 30
0.0
 11
85.7382187091
 21
72.0126754716
 31
0.0
  0
LINE
  8
52572015
  6
CONTINUOUS
 62
         7
  5
4EF
 10
85.7382187091
 20
56.1400081978
 30
0.0
 11
100.1657892655
 21
49.0684600266
 31
0.0
  0
POLYLINE
  8
52572015
  6
CONTINUOUS
 62
         7
  5
4F0
 66
         1
 10
0.0
 20
0.0
 30
0.0
  0
VERTEX
  8
52572015
  6
CONTINUOUS
 62
         7
  5
4F1
 10
85.7382187091
 20
72.0126754716
 30
0.0
  0
VERTEX
  8
52572015
  6
CONTINUOUS
 62
         7
  5
4F2
 10
85.5550246441
 20
71.0418957619
 30
0.0
  0
VERTEX
  8
52572015
  6
CONTINUOUS
 62
         7
  5
4F3
 10
85.3953466244
 20
70.0627017662
 30
0.0
  0
VERTEX
  8
52572015
  6
CONTINUOUS
 62
         7
  5
4F4
 10
85.2595692983
 20
69.0762313115
 30
0.0
  0
VERTEX
  8
52572015
  6
CONTINUOUS
 62
         7
  5
4F5
 10
85.148022168
 20
68.0836513929
 30
0.0
  0
VERTEX
  8
52572015
  6
CONTINUOUS
 62
         7
  5
4F6
 10
85.0609776093
 20
67.0861536999
 30
0.0
  0
VERTEX
  8
52572015
  6
CONTINUOUS
 62
         7
  5
4F7
 10
84.9986492198
 20
66.0849499353
 30
0.0
  0
VERTEX
  8
52572015
  6
CONTINUOUS
 62
         7
  5
4F8
 10
84.9611905141
 20
65.0812669647
 30
0.0
  0
VERTEX
  8
52572015
  6
CONTINUOUS
 62
         7
  5
4F9
 10
84.9486939811
 20
64.0763418347
 30
0.0
  0
VERTEX
  8
52572015
  6
CONTINUOUS
 62
         7
  5
4FA
 10
84.9611905141
 20
63.0714167047
 30
0.0
  0
VERTEX
  8
52572015
  6
CONTINUOUS
 62
         7
  5
4FB
 10
84.9986492198
 20
62.0677337341
 30
0.0
  0
VERTEX
  8
52572015
  6
CONTINUOUS
 62
         7
  5
4FC
 10
85.0609776093
 20
61.0665299696
 30
0.0
  0
VERTEX
  8
52572015
  6
CONTINUOUS
 62
         7
  5
4FD
 10
85.148022168
 20
60.0690322765
 30
0.0
  0
VERTEX
  8
52572015
  6
CONTINUOUS
 62
         7
  5
4FE
 10
85.2595692983
 20
59.0764523579
 30
0.0
  0
VERTEX
  8
52572015
  6
CONTINUOUS
 62
         7
  5
4FF
 10
85.3953466244
 20
58.0899819033
 30
0.0
  0
VERTEX
  8
52572015
  6
CONTINUOUS
 62
         7
  5
500
 10
85.5550246441
 20
57.1107879076
 30
0.0
  0
VERTEX
  8
52572015
  6
CONTINUOUS
 62
         7
  5
501
 10
85.7382187091
 20
56.1400081978
 30
0.0
  0
SEQEND
  8
52572015
  6
CONTINUOUS
 62
         7
  5
502
  0
LINE
  8
52572015
  6
CONTINUOUS
 62
         7
  5
503
 10
105.6657892655
 20
79.0842236428
 30
0.0
 11
100.1657892655
 21
79.0842236428
 31
0.0
  0
LINE
  8
52572015
  6
CONTINUOUS
 62
         7
  5
504
 10
100.1657892655
 20
49.0684600266
 30
0.0
 11
105.6657892655
 21
49.0684600266
 31
0.0
  0
LINE
  8
52572015
  6
CONTINUOUS
 62
         7
  5
505
 10
91.2382187091
 20
56.1400081978
 30
0.0
 11
85.7382187091
 21
56.1400081978
 31
0.0
  0
LINE
  8
52572015
  6
CONTINUOUS
 62
         7
  5
506
 10
91.2382187091
 20
72.0126754716
 30
0.0
 11
85.7382187091
 21
72.0126754716
 31
0.0
  0
LINE
  8
52572015
  6
CONTINUOUS
 62
         7
  5
507
 10
105.6657892655
 20
79.0842236428
 30
0.0
 11
91.2382187091
 21
72.0126754716
 31
0.0
  0
POLYLINE
  8
52572015
  6
CONTINUOUS
 62
         7
  5
508
 66
         1
 10
0.0
 20
0.0
 30
0.0
  0
VERTEX
  8
52572015
  6
CONTINUOUS
 62
         7
  5
509
 10
91.2382187091
 20
72.0126754716
 30
0.0
  0
VERTEX
  8
52572015
  6
CONTINUOUS
 62
         7
  5
50A
 10
91.0550246441
 20
71.0418957619
 30
0.0
  0
VERTEX
  8
52572015
  6
CONTINUOUS
 62
         7
  5
50B
 10
90.8953466244
 20
70.0627017662
 30
0.0
  0
VERTEX
  8
52572015
  6
CONTINUOUS
 62
         7
  5
50C
 10
90.7595692983
 20
69.0762313115
 30
0.0
  0
VERTEX
  8
52572015
  6
CONTINUOUS
 62
         7
  5
50D
 10
90.648022168
 20
68.0836513929
 30
0.0
  0
VERTEX
  8
52572015
  6
CONTINUOUS
 62
         7
  5
50E
 10
90.5609776093
 20
67.0861536999
 30
0.0
  0
VERTEX
  8
52572015
  6
CONTINUOUS
 62
         7
  5
50F
 10
90.4986492198
 20
66.0849499353
 30
0.0
  0
VERTEX
  8
52572015
  6
CONTINUOUS
 62
         7
  5
510
 10
90.4611905141
 20
65.0812669647
 30
0.0
  0
VERTEX
  8
52572015
  6
CONTINUOUS
 62
         7
  5
511
 10
90.4486939811
 20
64.0763418347
 30
0.0
  0
VERTEX
  8
52572015
  6
CONTINUOUS
 62
         7
  5
512
 10
90.4611905141
 20
63.0714167047
 30
0.0
  0
VERTEX
  8
52572015
  6
CONTINUOUS
 62
         7
  5
513
 10
90.4986492198
 20
62.0677337341
 30
0.0
  0
VERTEX
  8
52572015
  6
CONTINUOUS
 62
         7
  5
514
 10
90.5609776093
 20
61.0665299696
 30
0.0
  0
VERTEX
  8
52572015
  6
CONTINUOUS
 62
         7
  5
515
 10
90.648022168
 20
60.0690322765
 30
0.0
  0
VERTEX
  8
52572015
  6
CONTINUOUS
 62
         7
  5
516
 10
90.7595692983
 20
59.0764523579
 30
0.0
  0
VERTEX
  8
52572015
  6
CONTINUOUS
 62
         7
  5
517
 10
90.8953466244
 20
58.0899819033
 30
0.0
  0
VERTEX
  8
52572015
  6
CONTINUOUS
 62
         7
  5
518
 10
91.0550246441
 20
57.1107879076
 30
0.0
  0
VERTEX
  8
52572015
  6
CONTINUOUS
 62
         7
  5
519
 10
91.2382187091
 20
56.1400081978
 30
0.0
  0
SEQEND
  8
52572015
  6
CONTINUOUS
 62
         7
  5
51A
  0
LINE
  8
52572015
  6
CONTINUOUS
 62
         7
  5
51B
 10
91.2382187091
 20
56.1400081978
 30
0.0
 11
105.6657892655
 21
49.0684600266
 31
0.0
  0
POLYLINE
  8
52572015
  6
CONTINUOUS
 62
         7
  5
51C
 66
         1
 10
0.0
 20
0.0
 30
0.0
  0
VERTEX
  8
52572015
  6
CONTINUOUS
 62
         7
  5
51D
 10
100.1657892655
 20
49.0684600266
 30
0.0
  0
VERTEX
  8
52572015
  6
CONTINUOUS
 62
         7
  5
51E
 10
100.7785242772
 20
48.2839835571
 30
0.0
  0
VERTEX
  8
52572015
  6
CONTINUOUS
 62
         7
  5
51F
 10
101.4268612927
 20
47.5271905161
 30
0.0
  0
VERTEX
  8
52572015
  6
CONTINUOUS
 62
         7
  5
520
 10
102.1094154158
 20
46.8011924568
 30
0.0
  0
VERTEX
  8
52572015
  6
CONTINUOUS
 62
         7
  5
521
 10
102.8245363084
 20
46.1089784238
 30
0.0
  0
VERTEX
  8
52572015
  6
CONTINUOUS
 62
         7
  5
522
 10
103.5703184717
 20
45.4533777981
 30
0.0
  0
VERTEX
  8
52572015
  6
CONTINUOUS
 62
         7
  5
523
 10
104.3446161616
 20
44.837024576
 30
0.0
  0
VERTEX
  8
52572015
  6
CONTINUOUS
 62
         7
  5
524
 10
105.1450627489
 20
44.2623239755
 30
0.0
  0
VERTEX
  8
52572015
  6
CONTINUOUS
 62
         7
  5
525
 10
105.9690941916
 20
43.7314222202
 30
0.0
  0
VERTEX
  8
52572015
  6
CONTINUOUS
 62
         7
  5
526
 10
106.813976145
 20
43.2461802756
 30
0.0
  0
VERTEX
  8
52572015
  6
CONTINUOUS
 62
         7
  5
527
 10
107.6768341171
 20
42.808152203
 30
0.0
  0
VERTEX
  8
52572015
  6
CONTINUOUS
 62
         7
  5
528
 10
108.5546859713
 20
42.4185686555
 30
0.0
  0
VERTEX
  8
52572015
  6
CONTINUOUS
 62
         7
  5
529
 10
109.4444760095
 20
42.0783258827
 30
0.0
  0
VERTEX
  8
52572015
  6
CONTINUOUS
 62
         7
  5
52A
 10
110.343109824
 20
41.7879804356
 30
0.0
  0
VERTEX
  8
52572015
  6
CONTINUOUS
 62
         7
  5
52B
 10
111.2474890979
 20
41.5477495837
 30
0.0
  0
VERTEX
  8
52572015
  6
CONTINUOUS
 62
         7
  5
52C
 10
112.1545455568
 20
41.3575172826
 30
0.0
  0
VERTEX
  8
52572015
  6
CONTINUOUS
 62
         7
  5
52D
 10
113.0612733284
 20
41.2168453664
 30
0.0
  0
SEQEND
  8
52572015
  6
CONTINUOUS
 62
         7
  5
52E
  0
POLYLINE
  8
52572015
  6
CONTINUOUS
 62
         7
  5
52F
 66
         1
 10
0.0
 20
0.0
 30
0.0
  0
VERTEX
  8
52572015
  6
CONTINUOUS
 62
         7
  5
530
 10
113.0612733284
 20
86.935838303
 30
0.0
  0
VERTEX
  8
52572015
  6
CONTINUOUS
 62
         7
  5
531
 10
112.1545455568
 20
86.7951663868
 30
0.0
  0
VERTEX
  8
52572015
  6
CONTINUOUS
 62
         7
  5
532
 10
111.2474890979
 20
86.6049340857
 30
0.0
  0
VERTEX
  8
52572015
  6
CONTINUOUS
 62
         7
  5
533
 10
110.343109824
 20
86.3647032338
 30
0.0
  0
VERTEX
  8
52572015
  6
CONTINUOUS
 62
         7
  5
534
 10
109.4444760095
 20
86.0743577867
 30
0.0
  0
VERTEX
  8
52572015
  6
CONTINUOUS
 62
         7
  5
535
 10
108.5546859713
 20
85.7341150139
 30
0.0
  0
VERTEX
  8
52572015
  6
CONTINUOUS
 62
         7
  5
536
 10
107.6768341171
 20
85.3445314664
 30
0.0
  0
VERTEX
  8
52572015
  6
CONTINUOUS
 62
         7
  5
537
 10
106.813976145
 20
84.9065033938
 30
0.0
  0
VERTEX
  8
52572015
  6
CONTINUOUS
 62
         7
  5
538
 10
105.9690941916
 20
84.4212614492
 30
0.0
  0
VERTEX
  8
52572015
  6
CONTINUOUS
 62
         7
  5
539
 10
105.1450627489
 20
83.8903596939
 30
0.0
  0
VERTEX
  8
52572015
  6
CONTINUOUS
 62
         7
  5
53A
 10
104.3446161616
 20
83.3156590935
 30
0.0
  0
VERTEX
  8
52572015
  6
CONTINUOUS
 62
         7
  5
53B
 10
103.5703184717
 20
82.6993058714
 30
0.0
  0
VERTEX
  8
52572015
  6
CONTINUOUS
 62
         7
  5
53C
 10
102.8245363084
 20
82.0437052456
 30
0.0
  0
VERTEX
  8
52572015
  6
CONTINUOUS
 62
         7
  5
53D
 10
102.1094154158
 20
81.3514912126
 30
0.0
  0
VERTEX
  8
52572015
  6
CONTINUOUS
 62
         7
  5
53E
 10
101.4268612927
 20
80.6254931533
 30
0.0
  0
VERTEX
  8
52572015
  6
CONTINUOUS
 62
         7
  5
53F
 10
100.7785242772
 20
79.8687001123
 30
0.0
  0
VERTEX
  8
52572015
  6
CONTINUOUS
 62
         7
  5
540
 10
100.1657892655
 20
79.0842236428
 30
0.0
  0
SEQEND
  8
52572015
  6
CONTINUOUS
 62
         7
  5
541
  0
POLYLINE
  8
52572015
  6
CONTINUOUS
 62
         7
  5
542
 66
         1
 10
0.0
 20
0.0
 30
0.0
  0
VERTEX
  8
52572015
  6
CONTINUOUS
 62
         7
  5
543
 10
105.6657892655
 20
49.0684600266
 30
0.0
  0
VERTEX
  8
52572015
  6
CONTINUOUS
 62
         7
  5
544
 10
106.0531995565
 20
48.5640979535
 30
0.0
  0
VERTEX
  8
52572015
  6
CONTINUOUS
 62
         7
  5
545
 10
106.454485618
 20
48.0715848068
 30
0.0
  0
VERTEX
  8
52572015
  6
CONTINUOUS
 62
         7
  5
546
 10
106.8692387444
 20
47.5916688198
 30
0.0
  0
VERTEX
  8
52572015
  6
CONTINUOUS
 62
         7
  5
547
 10
107.2970104711
 20
47.1250729403
 30
0.0
  0
VERTEX
  8
52572015
  6
CONTINUOUS
 62
         7
  5
548
 10
107.7373140648
 20
46.6724913481
 30
0.0
  0
VERTEX
  8
52572015
  6
CONTINUOUS
 62
         7
  5
549
 10
108.1896262855
 20
46.2345861161
 30
0.0
  0
VERTEX
  8
52572015
  6
CONTINUOUS
 62
         7
  5
54A
 10
108.6533894096
 20
45.8119840487
 30
0.0
  0
VERTEX
  8
52572015
  6
CONTINUOUS
 62
         7
  5
54B
 10
109.1280134952
 20
45.405273727
 30
0.0
  0
VERTEX
  8
52572015
  6
CONTINUOUS
 62
         7
  5
54C
 10
109.6128788733
 20
45.0150027919
 30
0.0
  0
VERTEX
  8
52572015
  6
CONTINUOUS
 62
         7
  5
54D
 10
110.1073388411
 20
44.6416754896
 30
0.0
  0
VERTEX
  8
52572015
  6
CONTINUOUS
 62
         7
  5
54E
 10
110.610722534
 20
44.2857505032
 30
0.0
  0
VERTEX
  8
52572015
  6
CONTINUOUS
 62
         7
  5
54F
 10
111.1223379483
 20
43.9476390904
 30
0.0
  0
VERTEX
  8
52572015
  6
CONTINUOUS
 62
         7
  5
550
 10
111.641475088
 20
43.6277035416
 30
0.0
  0
VERTEX
  8
52572015
  6
CONTINUOUS
 62
         7
  5
551
 10
112.1674092033
 20
43.3262559716
 30
0.0
  0
VERTEX
  8
52572015
  6
CONTINUOUS
 62
         7
  5
552
 10
112.6994040935
 20
43.0435574521
 30
0.0
  0
VERTEX
  8
52572015
  6
CONTINUOUS
 62
         7
  5
553
 10
113.2367154394
 20
42.7798174874
 30
0.0
  0
SEQEND
  8
52572015
  6
CONTINUOUS
 62
         7
  5
554
  0
POLYLINE
  8
52572015
  6
CONTINUOUS
 62
         7
  5
555
 66
         1
 10
0.0
 20
0.0
 30
0.0
  0
VERTEX
  8
52572015
  6
CONTINUOUS
 62
         7
  5
556
 10
105.0729431914
 20
49.9022185601
 30
0.0
  0
VERTEX
  8
52572015
  6
CONTINUOUS
 62
         7
  5
557
 10
105.3651322623
 20
49.4813251972
 30
0.0
  0
VERTEX
  8
52572015
  6
CONTINUOUS
 62
         7
  5
558
 10
105.6657892655
 20
49.0684600266
 30
0.0
  0
SEQEND
  8
52572015
  6
CONTINUOUS
 62
         7
  5
559
  0
LINE
  8
52572015
  6
CONTINUOUS
 62
         7
  5
55A
 10
91.6109571444
 20
56.5004938857
 30
0.0
 11
105.0729431914
 21
49.9022185601
 31
0.0
  0
LINE
  8
52572015
  6
CONTINUOUS
 62
         7
  5
55B
 10
105.0729431914
 20
78.2504651093
 30
0.0
 11
91.6109571444
 21
71.6521897837
 31
0.0
  0
POLYLINE
  8
52572015
  6
CONTINUOUS
 62
         7
  5
55C
 66
         1
 10
0.0
 20
0.0
 30
0.0
  0
VERTEX
  8
52572015
  6
CONTINUOUS
 62
         7
  5
55D
 10
91.6109571444
 20
71.6521897837
 30
0.0
  0
VERTEX
  8
52572015
  6
CONTINUOUS
 62
         7
  5
55E
 10
91.4416406344
 20
70.7242235813
 30
0.0
  0
VERTEX
  8
52572015
  6
CONTINUOUS
 62
         7
  5
55F
 10
91.2941119761
 20
69.7887272847
 30
0.0
  0
VERTEX
  8
52572015
  6
CONTINUOUS
 62
         7
  5
560
 10
91.1687044676
 20
68.8467228062
 30
0.0
  0
VERTEX
  8
52572015
  6
CONTINUOUS
 62
         7
  5
561
 10
91.0657034001
 20
67.8992565277
 30
0.0
  0
VERTEX
  8
52572015
  6
CONTINUOUS
 62
         7
  5
562
 10
90.9853444496
 20
66.9473955273
 30
0.0
  0
VERTEX
  8
52572015
  6
CONTINUOUS
 62
         7
  5
563
 10
90.9278123368
 20
65.9922236418
 30
0.0
  0
VERTEX
  8
52572015
  6
CONTINUOUS
 62
         7
  5
564
 10
90.8932397704
 20
65.034837397
 30
0.0
  0
VERTEX
  8
52572015
  6
CONTINUOUS
 62
         7
  5
565
 10
90.881706683
 20
64.0763418347
 30
0.0
  0
VERTEX
  8
52572015
  6
CONTINUOUS
 62
         7
  5
566
 10
90.8932397704
 20
63.1178462725
 30
0.0
  0
VERTEX
  8
52572015
  6
CONTINUOUS
 62
         7
  5
567
 10
90.9278123368
 20
62.1604600276
 30
0.0
  0
VERTEX
  8
52572015
  6
CONTINUOUS
 62
         7
  5
568
 10
90.9853444496
 20
61.2052881422
 30
0.0
  0
VERTEX
  8
52572015
  6
CONTINUOUS
 62
         7
  5
569
 10
91.0657034001
 20
60.2534271417
 30
0.0
  0
VERTEX
  8
52572015
  6
CONTINUOUS
 62
         7
  5
56A
 10
91.1687044676
 20
59.3059608632
 30
0.0
  0
VERTEX
  8
52572015
  6
CONTINUOUS
 62
         7
  5
56B
 10
91.2941119761
 20
58.3639563847
 30
0.0
  0
VERTEX
  8
52572015
  6
CONTINUOUS
 62
         7
  5
56C
 10
91.4416406344
 20
57.4284600881
 30
0.0
  0
VERTEX
  8
52572015
  6
CONTINUOUS
 62
         7
  5
56D
 10
91.6109571444
 20
56.5004938857
 30
0.0
  0
SEQEND
  8
52572015
  6
CONTINUOUS
 62
         7
  5
56E
  0
POLYLINE
  8
52572015
  6
CONTINUOUS
 62
         7
  5
56F
 66
         1
 10
0.0
 20
0.0
 30
0.0
  0
VERTEX
  8
52572015
  6
CONTINUOUS
 62
         7
  5
570
 10
113.2367154394
 20
85.372866182
 30
0.0
  0
VERTEX
  8
52572015
  6
CONTINUOUS
 62
         7
  5
571
 10
112.6994040935
 20
85.1091262173
 30
0.0
  0
VERTEX
  8
52572015
  6
CONTINUOUS
 62
         7
  5
572
 10
112.1674092033
 20
84.8264276979
 30
0.0
  0
VERTEX
  8
52572015
  6
CONTINUOUS
 62
         7
  5
573
 10
111.641475088
 20
84.5249801279
 30
0.0
  0
VERTEX
  8
52572015
  6
CONTINUOUS
 62
         7
  5
574
 10
111.1223379483
 20
84.205044579
 30
0.0
  0
VERTEX
  8
52572015
  6
CONTINUOUS
 62
         7
  5
575
 10
110.610722534
 20
83.8669331662
 30
0.0
  0
VERTEX
  8
52572015
  6
CONTINUOUS
 62
         7
  5
576
 10
110.1073388411
 20
83.5110081799
 30
0.0
  0
VERTEX
  8
52572015
  6
CONTINUOUS
 62
         7
  5
577
 10
109.6128788733
 20
83.1376808776
 30
0.0
  0
VERTEX
  8
52572015
  6
CONTINUOUS
 62
         7
  5
578
 10
109.1280134952
 20
82.7474099424
 30
0.0
  0
VERTEX
  8
52572015
  6
CONTINUOUS
 62
         7
  5
579
 10
108.6533894096
 20
82.3406996207
 30
0.0
  0
VERTEX
  8
52572015
  6
CONTINUOUS
 62
         7
  5
57A
 10
108.1896262855
 20
81.9180975533
 30
0.0
  0
VERTEX
  8
52572015
  6
CONTINUOUS
 62
         7
  5
57B
 10
107.7373140648
 20
81.4801923213
 30
0.0
  0
VERTEX
  8
52572015
  6
CONTINUOUS
 62
         7
  5
57C
 10
107.2970104711
 20
81.0276107291
 30
0.0
  0
VERTEX
  8
52572015
  6
CONTINUOUS
 62
         7
  5
57D
 10
106.8692387444
 20
80.5610148496
 30
0.0
  0
VERTEX
  8
52572015
  6
CONTINUOUS
 62
         7
  5
57E
 10
106.454485618
 20
80.0810988626
 30
0.0
  0
VERTEX
  8
52572015
  6
CONTINUOUS
 62
         7
  5
57F
 10
106.0531995565
 20
79.588585716
 30
0.0
  0
VERTEX
  8
52572015
  6
CONTINUOUS
 62
         7
  5
580
 10
105.6657892655
 20
79.0842236428
 30
0.0
  0
SEQEND
  8
52572015
  6
CONTINUOUS
 62
         7
  5
581
  0
POLYLINE
  8
52572015
  6
CONTINUOUS
 62
         7
  5
582
 66
         1
 10
0.0
 20
0.0
 30
0.0
  0
VERTEX
  8
52572015
  6
CONTINUOUS
 62
         7
  5
583
 10
105.6657892655
 20
79.0842236428
 30
0.0
  0
VERTEX
  8
52572015
  6
CONTINUOUS
 62
         7
  5
584
 10
105.3651322623
 20
78.6713584723
 30
0.0
  0
VERTEX
  8
52572015
  6
CONTINUOUS
 62
         7
  5
585
 10
105.0729431914
 20
78.2504651093
 30
0.0
  0
SEQEND
  8
52572015
  6
CONTINUOUS
 62
         7
  5
586
  0
LINE
  8
52572015
  6
CONTINUOUS
 62
         7
  5
587
 10
113.2367154394
 20
85.372866182
 30
0.0
 11
112.4867154394
 21
85.372866182
 31
0.0
  0
LINE
  8
52572015
  6
CONTINUOUS
 62
         7
  5
588
 10
112.4867154394
 20
42.7798174874
 30
0.0
 11
113.2367154394
 21
42.7798174874
 31
0.0
  0
POLYLINE
  8
52572015
  6
CONTINUOUS
 62
         7
  5
589
 66
         1
 10
0.0
 20
0.0
 30
0.0
  0
VERTEX
  8
52572015
  6
CONTINUOUS
 62
         7
  5
58A
 10
113.2449682775
 20
84.0351644128
 30
0.0
  0
VERTEX
  8
52572015
  6
CONTINUOUS
 62
         7
  5
58B
 10
112.429932051
 20
83.5712048201
 30
0.0
  0
VERTEX
  8
52572015
  6
CONTINUOUS
 62
         7
  5
58C
 10
111.6322766052
 20
83.0610714665
 30
0.0
  0
VERTEX
  8
52572015
  6
CONTINUOUS
 62
         7
  5
58D
 10
110.8549117329
 20
82.5061298046
 30
0.0
  0
VERTEX
  8
52572015
  6
CONTINUOUS
 62
         7
  5
58E
 10
110.1006336159
 20
81.9080680966
 30
0.0
  0
VERTEX
  8
52572015
  6
CONTINUOUS
 62
         7
  5
58F
 10
109.3720915972
 20
81.2688807377
 30
0.0
  0
VERTEX
  8
52572015
  6
CONTINUOUS
 62
         7
  5
590
 10
108.6717572605
 20
80.5908461786
 30
0.0
  0
VERTEX
  8
52572015
  6
CONTINUOUS
 62
         7
  5
591
 10
108.0018965696
 20
79.8764999564
 30
0.0
  0
VERTEX
  8
52572015
  6
CONTINUOUS
 62
         7
  5
592
 10
107.3645457254
 20
79.1286035022
 30
0.0
  0
SEQEND
  8
52572015
  6
CONTINUOUS
 62
         7
  5
593
  0
POLYLINE
  8
52572015
  6
CONTINUOUS
 62
         7
  5
594
 66
         1
 10
0.0
 20
0.0
 30
0.0
  0
VERTEX
  8
52572015
  6
CONTINUOUS
 62
         7
  5
595
 10
107.3645457254
 20
49.0240801672
 30
0.0
  0
VERTEX
  8
52572015
  6
CONTINUOUS
 62
         7
  5
596
 10
108.0018965696
 20
48.2761837131
 30
0.0
  0
VERTEX
  8
52572015
  6
CONTINUOUS
 62
         7
  5
597
 10
108.6717572605
 20
47.5618374908
 30
0.0
  0
VERTEX
  8
52572015
  6
CONTINUOUS
 62
         7
  5
598
 10
109.3720915972
 20
46.8838029317
 30
0.0
  0
VERTEX
  8
52572015
  6
CONTINUOUS
 62
         7
  5
599
 10
110.1006336159
 20
46.2446155728
 30
0.0
  0
VERTEX
  8
52572015
  6
CONTINUOUS
 62
         7
  5
59A
 10
110.8549117329
 20
45.6465538648
 30
0.0
  0
VERTEX
  8
52572015
  6
CONTINUOUS
 62
         7
  5
59B
 10
111.6322766052
 20
45.091612203
 30
0.0
  0
VERTEX
  8
52572015
  6
CONTINUOUS
 62
         7
  5
59C
 10
112.429932051
 20
44.5814788493
 30
0.0
  0
VERTEX
  8
52572015
  6
CONTINUOUS
 62
         7
  5
59D
 10
113.2449682775
 20
44.1175192566
 30
0.0
  0
SEQEND
  8
52572015
  6
CONTINUOUS
 62
         7
  5
59E
  0
CIRCLE
  8
52572015
  6
CONTINUOUS
 62
         7
  5
59F
 10
64.5095831136
 20
64.0763418347
 30
0.0
 40
9.0
  0
CIRCLE
  8
52572015
  6
CONTINUOUS
 62
         7
  5
5A0
 10
39.5095831136
 20
64.0763418347
 30
0.0
 40
9.0
  0
POLYLINE
  8
52572015
  6
CONTINUOUS
 62
         7
  5
5A1
 66
         1
 10
0.0
 20
0.0
 30
0.0
  0
VERTEX
  8
52572015
  6
CONTINUOUS
 62
         7
  5
5A2
 10
70.9381746825
 20
56.8765856272
 30
0.0
  0
VERTEX
  8
52572015
  6
CONTINUOUS
 62
         7
  5
5A3
 10
71.3450767022
 20
56.1454824679
 30
0.0
  0
VERTEX
  8
52572015
  6
CONTINUOUS
 62
         7
  5
5A4
 10
71.7972213691
 20
55.4350078215
 30
0.0
  0
VERTEX
  8
52572015
  6
CONTINUOUS
 62
         7
  5
5A5
 10
72.2936068143
 20
54.7505147086
 30
0.0
  0
VERTEX
  8
52572015
  6
CONTINUOUS
 62
         7
  5
5A6
 10
72.5579080804
 20
54.4196712356
 30
0.0
  0
VERTEX
  8
52572015
  6
CONTINUOUS
 62
         7
  5
5A7
 10
72.8326136805
 20
54.0972976694
 30
0.0
  0
VERTEX
  8
52572015
  6
CONTINUOUS
 62
         7
  5
5A8
 10
73.117424431
 20
53.7840274405
 30
0.0
  0
VERTEX
  8
52572015
  6
CONTINUOUS
 62
         7
  5
5A9
 10
73.4120034299
 20
53.4804755242
 30
0.0
  0
VERTEX
  8
52572015
  6
CONTINUOUS
 62
         7
  5
5AA
 10
73.7159771094
 20
53.1872347537
 30
0.0
  0
VERTEX
  8
52572015
  6
CONTINUOUS
 62
         7
  5
5AB
 10
74.0289366105
 20
52.9048722292
 30
0.0
  0
VERTEX
  8
52572015
  6
CONTINUOUS
 62
         7
  5
5AC
 10
74.3504394706
 20
52.6339258658
 30
0.0
  0
VERTEX
  8
52572015
  6
CONTINUOUS
 62
         7
  5
5AD
 10
74.680011611
 20
52.3749011223
 30
0.0
  0
VERTEX
  8
52572015
  6
CONTINUOUS
 62
         7
  5
5AE
 10
75.0171496089
 20
52.1282679522
 30
0.0
  0
VERTEX
  8
52572015
  6
CONTINUOUS
 62
         7
  5
5AF
 10
75.3613232288
 20
51.8944580127
 30
0.0
  0
VERTEX
  8
52572015
  6
CONTINUOUS
 62
         7
  5
5B0
 10
75.7119781897
 20
51.6738621684
 30
0.0
  0
VERTEX
  8
52572015
  6
CONTINUOUS
 62
         7
  5
5B1
 10
76.0685391361
 20
51.4668283173
 30
0.0
  0
VERTEX
  8
52572015
  6
CONTINUOUS
 62
         7
  5
5B2
 10
76.4304127803
 20
51.2736595667
 30
0.0
  0
VERTEX
  8
52572015
  6
CONTINUOUS
 62
         7
  5
5B3
 10
76.7969911801
 20
51.0946127767
 30
0.0
  0
VERTEX
  8
52572015
  6
CONTINUOUS
 62
         7
  5
5B4
 10
77.1676551128
 20
50.9298974882
 30
0.0
  0
VERTEX
  8
52572015
  6
CONTINUOUS
 62
         7
  5
5B5
 10
77.5417775091
 20
50.7796752416
 30
0.0
  0
VERTEX
  8
52572015
  6
CONTINUOUS
 62
         7
  5
5B6
 10
77.9187269041
 20
50.6440592904
 30
0.0
  0
VERTEX
  8
52572015
  6
CONTINUOUS
 62
         7
  5
5B7
 10
78.2978708693
 20
50.5231147052
 30
0.0
  0
VERTEX
  8
52572015
  6
CONTINUOUS
 62
         7
  5
5B8
 10
78.6785793869
 20
50.4168588597
 30
0.0
  0
VERTEX
  8
52572015
  6
CONTINUOUS
 62
         7
  5
5B9
 10
79.060228129
 20
50.3252622836
 30
0.0
  0
VERTEX
  8
52572015
  6
CONTINUOUS
 62
         7
  5
5BA
 10
79.4422016107
 20
50.2482498631
 30
0.0
  0
VERTEX
  8
52572015
  6
CONTINUOUS
 62
         7
  5
5BB
 10
79.823896184
 20
50.1857023651
 30
0.0
  0
VERTEX
  8
52572015
  6
CONTINUOUS
 62
         7
  5
5BC
 10
80.2047228466
 20
50.1374582572
 30
0.0
  0
VERTEX
  8
52572015
  6
CONTINUOUS
 62
         7
  5
5BD
 10
80.5841098426
 20
50.1033157931
 30
0.0
  0
VERTEX
  8
52572015
  6
CONTINUOUS
 62
         7
  5
5BE
 10
80.9615050346
 20
50.0830353284
 30
0.0
  0
VERTEX
  8
52572015
  6
CONTINUOUS
 62
         7
  5
5BF
 10
81.3363780328
 20
50.0763418347
 30
0.0
  0
SEQEND
  8
52572015
  6
CONTINUOUS
 62
         7
  5
5C0
  0
POLYLINE
  8
52572015
  6
CONTINUOUS
 62
         7
  5
5C1
 66
         1
 10
0.0
 20
0.0
 30
0.0
  0
VERTEX
  8
52572015
  6
CONTINUOUS
 62
         7
  5
5C2
 10
81.3363780328
 20
78.0763418347
 30
0.0
  0
VERTEX
  8
52572015
  6
CONTINUOUS
 62
         7
  5
5C3
 10
80.9615050346
 20
78.069648341
 30
0.0
  0
VERTEX
  8
52572015
  6
CONTINUOUS
 62
         7
  5
5C4
 10
80.5841098426
 20
78.0493678763
 30
0.0
  0
VERTEX
  8
52572015
  6
CONTINUOUS
 62
         7
  5
5C5
 10
80.2047228466
 20
78.0152254122
 30
0.0
  0
VERTEX
  8
52572015
  6
CONTINUOUS
 62
         7
  5
5C6
 10
79.823896184
 20
77.9669813044
 30
0.0
  0
VERTEX
  8
52572015
  6
CONTINUOUS
 62
         7
  5
5C7
 10
79.4422016107
 20
77.9044338064
 30
0.0
  0
VERTEX
  8
52572015
  6
CONTINUOUS
 62
         7
  5
5C8
 10
79.060228129
 20
77.8274213858
 30
0.0
  0
VERTEX
  8
52572015
  6
CONTINUOUS
 62
         7
  5
5C9
 10
78.6785793869
 20
77.7358248097
 30
0.0
  0
VERTEX
  8
52572015
  6
CONTINUOUS
 62
         7
  5
5CA
 10
78.2978708693
 20
77.6295689642
 30
0.0
  0
VERTEX
  8
52572015
  6
CONTINUOUS
 62
         7
  5
5CB
 10
77.9187269041
 20
77.508624379
 30
0.0
  0
VERTEX
  8
52572015
  6
CONTINUOUS
 62
         7
  5
5CC
 10
77.5417775091
 20
77.3730084278
 30
0.0
  0
VERTEX
  8
52572015
  6
CONTINUOUS
 62
         7
  5
5CD
 10
77.1676551128
 20
77.2227861812
 30
0.0
  0
VERTEX
  8
52572015
  6
CONTINUOUS
 62
         7
  5
5CE
 10
76.7969911801
 20
77.0580708927
 30
0.0
  0
VERTEX
  8
52572015
  6
CONTINUOUS
 62
         7
  5
5CF
 10
76.4304127803
 20
76.8790241027
 30
0.0
  0
VERTEX
  8
52572015
  6
CONTINUOUS
 62
         7
  5
5D0
 10
76.0685391361
 20
76.6858553521
 30
0.0
  0
VERTEX
  8
52572015
  6
CONTINUOUS
 62
         7
  5
5D1
 10
75.7119781897
 20
76.478821501
 30
0.0
  0
VERTEX
  8
52572015
  6
CONTINUOUS
 62
         7
  5
5D2
 10
75.3613232288
 20
76.2582256567
 30
0.0
  0
VERTEX
  8
52572015
  6
CONTINUOUS
 62
         7
  5
5D3
 10
75.0171496089
 20
76.0244157172
 30
0.0
  0
VERTEX
  8
52572015
  6
CONTINUOUS
 62
         7
  5
5D4
 10
74.680011611
 20
75.7777825471
 30
0.0
  0
VERTEX
  8
52572015
  6
CONTINUOUS
 62
         7
  5
5D5
 10
74.3504394706
 20
75.5187578036
 30
0.0
  0
VERTEX
  8
52572015
  6
CONTINUOUS
 62
         7
  5
5D6
 10
74.0289366105
 20
75.2478114402
 30
0.0
  0
VERTEX
  8
52572015
  6
CONTINUOUS
 62
         7
  5
5D7
 10
73.7159771094
 20
74.9654489157
 30
0.0
  0
VERTEX
  8
52572015
  6
CONTINUOUS
 62
         7
  5
5D8
 10
73.4120034299
 20
74.6722081452
 30
0.0
  0
VERTEX
  8
52572015
  6
CONTINUOUS
 62
         7
  5
5D9
 10
73.117424431
 20
74.3686562289
 30
0.0
  0
VERTEX
  8
52572015
  6
CONTINUOUS
 62
         7
  5
5DA
 10
72.8326136805
 20
74.055386
 30
0.0
  0
VERTEX
  8
52572015
  6
CONTINUOUS
 62
         7
  5
5DB
 10
72.5579080804
 20
73.7330124338
 30
0.0
  0
VERTEX
  8
52572015
  6
CONTINUOUS
 62
         7
  5
5DC
 10
72.2936068143
 20
73.4021689608
 30
0.0
  0
VERTEX
  8
52572015
  6
CONTINUOUS
 62
         7
  5
5DD
 10
72.0399706175
 20
73.0635037277
 30
0.0
  0
VERTEX
  8
52572015
  6
CONTINUOUS
 62
         7
  5
5DE
 10
71.7972213691
 20
72.7176758479
 30
0.0
  0
VERTEX
  8
52572015
  6
CONTINUOUS
 62
         7
  5
5DF
 10
71.3450767022
 20
72.0072012015
 30
0.0
  0
VERTEX
  8
52572015
  6
CONTINUOUS
 62
         7
  5
5E0
 10
70.9381746825
 20
71.2760980422
 30
0.0
  0
SEQEND
  8
52572015
  6
CONTINUOUS
 62
         7
  5
5E1
  0
POLYLINE
  8
52572015
  6
CONTINUOUS
 62
         7
  5
5E2
 66
         1
 10
0.0
 20
0.0
 30
0.0
  0
VERTEX
  8
52572015
  6
CONTINUOUS
 62
         7
  5
5E3
 10
88.8530446995
 20
78.6476861129
 30
0.0
  0
VERTEX
  8
52572015
  6
CONTINUOUS
 62
         7
  5
5E4
 10
88.3652549825
 20
78.4984119663
 30
0.0
  0
VERTEX
  8
52572015
  6
CONTINUOUS
 62
         7
  5
5E5
 10
87.8767428061
 20
78.3250546105
 30
0.0
  0
VERTEX
  8
52572015
  6
CONTINUOUS
 62
         7
  5
5E6
 10
87.3887488528
 20
78.1271576516
 30
0.0
  0
VERTEX
  8
52572015
  6
CONTINUOUS
 62
         7
  5
5E7
 10
86.9025718504
 20
77.9043711143
 30
0.0
  0
VERTEX
  8
52572015
  6
CONTINUOUS
 62
         7
  5
5E8
 10
86.4195605591
 20
77.6564608799
 30
0.0
  0
VERTEX
  8
52572015
  6
CONTINUOUS
 62
         7
  5
5E9
 10
85.9411045331
 20
77.3833172318
 30
0.0
  0
VERTEX
  8
52572015
  6
CONTINUOUS
 62
         7
  5
5EA
 10
85.4686237326
 20
77.0849622746
 30
0.0
  0
VERTEX
  8
52572015
  6
CONTINUOUS
 62
         7
  5
5EB
 10
85.003557102
 20
76.7615560066
 30
0.0
  0
VERTEX
  8
52572015
  6
CONTINUOUS
 62
         7
  5
5EC
 10
84.5473502621
 20
76.4134008362
 30
0.0
  0
VERTEX
  8
52572015
  6
CONTINUOUS
 62
         7
  5
5ED
 10
84.1014425013
 20
76.0409443615
 30
0.0
  0
VERTEX
  8
52572015
  6
CONTINUOUS
 62
         7
  5
5EE
 10
83.6672532774
 20
75.6447802646
 30
0.0
  0
VERTEX
  8
52572015
  6
CONTINUOUS
 62
         7
  5
5EF
 10
83.2461684699
 20
75.2256472094
 30
0.0
  0
VERTEX
  8
52572015
  6
CONTINUOUS
 62
         7
  5
5F0
 10
82.8395266413
 20
74.784425682
 30
0.0
  0
VERTEX
  8
52572015
  6
CONTINUOUS
 62
         7
  5
5F1
 10
82.4486055745
 20
74.322132761
 30
0.0
  0
VERTEX
  8
52572015
  6
CONTINUOUS
 62
         7
  5
5F2
 10
82.0746093599
 20
73.8399148584
 30
0.0
  0
VERTEX
  8
52572015
  6
CONTINUOUS
 62
         7
  5
5F3
 10
81.7186562974
 20
73.339038529
 30
0.0
  0
VERTEX
  8
52572015
  6
CONTINUOUS
 62
         7
  5
5F4
 10
81.3817678631
 20
72.8208794947
 30
0.0
  0
VERTEX
  8
52572015
  6
CONTINUOUS
 62
         7
  5
5F5
 10
81.0648589677
 20
72.2869100827
 30
0.0
  0
VERTEX
  8
52572015
  6
CONTINUOUS
 62
         7
  5
5F6
 10
80.7687297002
 20
71.7386853161
 30
0.0
  0
VERTEX
  8
52572015
  6
CONTINUOUS
 62
         7
  5
5F7
 10
80.4940587138
 20
71.177827933
 30
0.0
  0
VERTEX
  8
52572015
  6
CONTINUOUS
 62
         7
  5
5F8
 10
80.2413983648
 20
70.6060126346
 30
0.0
  0
VERTEX
  8
52572015
  6
CONTINUOUS
 62
         7
  5
5F9
 10
80.0111716714
 20
70.0249498777
 30
0.0
  0
VERTEX
  8
52572015
  6
CONTINUOUS
 62
         7
  5
5FA
 10
79.8036711087
 20
69.4363695328
 30
0.0
  0
VERTEX
  8
52572015
  6
CONTINUOUS
 62
         7
  5
5FB
 10
79.6190592123
 20
68.8420047229
 30
0.0
  0
VERTEX
  8
52572015
  6
CONTINUOUS
 62
         7
  5
5FC
 10
79.4573709138
 20
68.243576141
 30
0.0
  0
VERTEX
  8
52572015
  6
CONTINUOUS
 62
         7
  5
5FD
 10
79.3185174968
 20
67.6427771222
 30
0.0
  0
VERTEX
  8
52572015
  6
CONTINUOUS
 62
         7
  5
5FE
 10
79.2022920235
 20
67.0412597103
 30
0.0
  0
VERTEX
  8
52572015
  6
CONTINUOUS
 62
         7
  5
5FF
 10
79.1083760551
 20
66.4406219253
 30
0.0
  0
VERTEX
  8
52572015
  6
CONTINUOUS
 62
         7
  5
600
 10
79.0363474717
 20
65.8423963917
 30
0.0
  0
VERTEX
  8
52572015
  6
CONTINUOUS
 62
         7
  5
601
 10
78.9856891797
 20
65.2480404483
 30
0.0
  0
VERTEX
  8
52572015
  6
CONTINUOUS
 62
         7
  5
602
 10
78.9557984932
 20
64.6589278128
 30
0.0
  0
VERTEX
  8
52572015
  6
CONTINUOUS
 62
         7
  5
603
 10
78.945996976
 20
64.0763418347
 30
0.0
  0
VERTEX
  8
52572015
  6
CONTINUOUS
 62
         7
  5
604
 10
78.9557984932
 20
63.4937558567
 30
0.0
  0
VERTEX
  8
52572015
  6
CONTINUOUS
 62
         7
  5
605
 10
78.9856891797
 20
62.9046432211
 30
0.0
  0
VERTEX
  8
52572015
  6
CONTINUOUS
 62
         7
  5
606
 10
79.0363474717
 20
62.3102872777
 30
0.0
  0
VERTEX
  8
52572015
  6
CONTINUOUS
 62
         7
  5
607
 10
79.1083760551
 20
61.7120617441
 30
0.0
  0
VERTEX
  8
52572015
  6
CONTINUOUS
 62
         7
  5
608
 10
79.2022920235
 20
61.1114239591
 30
0.0
  0
VERTEX
  8
52572015
  6
CONTINUOUS
 62
         7
  5
609
 10
79.3185174968
 20
60.5099065473
 30
0.0
  0
VERTEX
  8
52572015
  6
CONTINUOUS
 62
         7
  5
60A
 10
79.4573709138
 20
59.9091075284
 30
0.0
  0
VERTEX
  8
52572015
  6
CONTINUOUS
 62
         7
  5
60B
 10
79.6190592123
 20
59.3106789465
 30
0.0
  0
VERTEX
  8
52572015
  6
CONTINUOUS
 62
         7
  5
60C
 10
79.8036711087
 20
58.7163141366
 30
0.0
  0
VERTEX
  8
52572015
  6
CONTINUOUS
 62
         7
  5
60D
 10
80.0111716714
 20
58.1277337917
 30
0.0
  0
VERTEX
  8
52572015
  6
CONTINUOUS
 62
         7
  5
60E
 10
80.2413983648
 20
57.5466710349
 30
0.0
  0
VERTEX
  8
52572015
  6
CONTINUOUS
 62
         7
  5
60F
 10
80.4940587138
 20
56.9748557365
 30
0.0
  0
VERTEX
  8
52572015
  6
CONTINUOUS
 62
         7
  5
610
 10
80.7687297002
 20
56.4139983534
 30
0.0
  0
VERTEX
  8
52572015
  6
CONTINUOUS
 62
         7
  5
611
 10
81.0648589677
 20
55.8657735867
 30
0.0
  0
VERTEX
  8
52572015
  6
CONTINUOUS
 62
         7
  5
612
 10
81.3817678631
 20
55.3318041747
 30
0.0
  0
VERTEX
  8
52572015
  6
CONTINUOUS
 62
         7
  5
613
 10
81.7186562974
 20
54.8136451404
 30
0.0
  0
VERTEX
  8
52572015
  6
CONTINUOUS
 62
         7
  5
614
 10
82.0746093599
 20
54.312768811
 30
0.0
  0
VERTEX
  8
52572015
  6
CONTINUOUS
 62
         7
  5
615
 10
82.4486055745
 20
53.8305509084
 30
0.0
  0
VERTEX
  8
52572015
  6
CONTINUOUS
 62
         7
  5
616
 10
82.8395266413
 20
53.3682579874
 30
0.0
  0
VERTEX
  8
52572015
  6
CONTINUOUS
 62
         7
  5
617
 10
83.2461684699
 20
52.9270364601
 30
0.0
  0
VERTEX
  8
52572015
  6
CONTINUOUS
 62
         7
  5
618
 10
83.6672532774
 20
52.5079034048
 30
0.0
  0
VERTEX
  8
52572015
  6
CONTINUOUS
 62
         7
  5
619
 10
84.1014425013
 20
52.1117393079
 30
0.0
  0
VERTEX
  8
52572015
  6
CONTINUOUS
 62
         7
  5
61A
 10
84.5473502621
 20
51.7392828333
 30
0.0
  0
VERTEX
  8
52572015
  6
CONTINUOUS
 62
         7
  5
61B
 10
85.003557102
 20
51.3911276628
 30
0.0
  0
VERTEX
  8
52572015
  6
CONTINUOUS
 62
         7
  5
61C
 10
85.4686237326
 20
51.0677213948
 30
0.0
  0
VERTEX
  8
52572015
  6
CONTINUOUS
 62
         7
  5
61D
 10
85.9411045331
 20
50.7693664376
 30
0.0
  0
VERTEX
  8
52572015
  6
CONTINUOUS
 62
         7
  5
61E
 10
86.4195605591
 20
50.4962227895
 30
0.0
  0
VERTEX
  8
52572015
  6
CONTINUOUS
 62
         7
  5
61F
 10
86.9025718504
 20
50.2483125551
 30
0.0
  0
VERTEX
  8
52572015
  6
CONTINUOUS
 62
         7
  5
620
 10
87.3887488528
 20
50.0255260178
 30
0.0
  0
VERTEX
  8
52572015
  6
CONTINUOUS
 62
         7
  5
621
 10
87.8767428061
 20
49.8276290589
 30
0.0
  0
VERTEX
  8
52572015
  6
CONTINUOUS
 62
         7
  5
622
 10
88.3652549825
 20
49.6542717032
 30
0.0
  0
VERTEX
  8
52572015
  6
CONTINUOUS
 62
         7
  5
623
 10
88.8530446995
 20
49.5049975565
 30
0.0
  0
SEQEND
  8
52572015
  6
CONTINUOUS
 62
         7
  5
624
  0
POLYLINE
  8
52572015
  6
CONTINUOUS
 62
         7
  5
625
 66
         1
 10
0.0
 20
0.0
 30
0.0
  0
VERTEX
  8
52572015
  6
CONTINUOUS
 62
         7
  5
626
 10
95.9411174468
 20
81.0667201688
 30
0.0
  0
VERTEX
  8
52572015
  6
CONTINUOUS
 62
         7
  5
627
 10
95.2969911182
 20
81.025355472
 30
0.0
  0
VERTEX
  8
52572015
  6
CONTINUOUS
 62
         7
  5
628
 10
94.6442349526
 20
80.9499197276
 30
0.0
  0
VERTEX
  8
52572015
  6
CONTINUOUS
 62
         7
  5
629
 10
93.9846741863
 20
80.8389648693
 30
0.0
  0
VERTEX
  8
52572015
  6
CONTINUOUS
 62
         7
  5
62A
 10
93.3203014109
 20
80.6911972955
 30
0.0
  0
VERTEX
  8
52572015
  6
CONTINUOUS
 62
         7
  5
62B
 10
92.6532663389
 20
80.5055055753
 30
0.0
  0
VERTEX
  8
52572015
  6
CONTINUOUS
 62
         7
  5
62C
 10
91.9858617815
 20
80.2809874689
 30
0.0
  0
VERTEX
  8
52572015
  6
CONTINUOUS
 62
         7
  5
62D
 10
91.3205057911
 20
80.0169754987
 30
0.0
  0
VERTEX
  8
52572015
  6
CONTINUOUS
 62
         7
  5
62E
 10
90.6597200527
 20
79.7130602705
 30
0.0
  0
VERTEX
  8
52572015
  6
CONTINUOUS
 62
         7
  5
62F
 10
90.0061047422
 20
79.369110732
 30
0.0
  0
VERTEX
  8
52572015
  6
CONTINUOUS
 62
         7
  5
630
 10
89.3623102198
 20
78.9852905827
 30
0.0
  0
VERTEX
  8
52572015
  6
CONTINUOUS
 62
         7
  5
631
 10
88.731006067
 20
78.5620701155
 30
0.0
  0
VERTEX
  8
52572015
  6
CONTINUOUS
 62
         7
  5
632
 10
88.1148481158
 20
78.1002328706
 30
0.0
  0
VERTEX
  8
52572015
  6
CONTINUOUS
 62
         7
  5
633
 10
87.5164442305
 20
77.6008766246
 30
0.0
  0
VERTEX
  8
52572015
  6
CONTINUOUS
 62
         7
  5
634
 10
86.9383196996
 20
77.0654084114
 30
0.0
  0
VERTEX
  8
52572015
  6
CONTINUOUS
 62
         7
  5
635
 10
86.3828831479
 20
76.4955334669
 30
0.0
  0
VERTEX
  8
52572015
  6
CONTINUOUS
 62
         7
  5
636
 10
85.8523939003
 20
75.8932382058
 30
0.0
  0
VERTEX
  8
52572015
  6
CONTINUOUS
 62
         7
  5
637
 10
85.3489317061
 20
75.260767551
 30
0.0
  0
VERTEX
  8
52572015
  6
CONTINUOUS
 62
         7
  5
638
 10
84.8743696626
 20
74.6005971495
 30
0.0
  0
VERTEX
  8
52572015
  6
CONTINUOUS
 62
         7
  5
639
 10
84.4303510784
 20
73.9154011915
 30
0.0
  0
VERTEX
  8
52572015
  6
CONTINUOUS
 62
         7
  5
63A
 10
84.0182708695
 20
73.2080167071
 30
0.0
  0
VERTEX
  8
52572015
  6
CONTINUOUS
 62
         7
  5
63B
 10
83.639261923
 20
72.4814053301
 30
0.0
  0
VERTEX
  8
52572015
  6
CONTINUOUS
 62
         7
  5
63C
 10
83.2941866749
 20
71.7386135878
 30
0.0
  0
VERTEX
  8
52572015
  6
CONTINUOUS
 62
         7
  5
63D
 10
82.9836339652
 20
70.982732793
 30
0.0
  0
VERTEX
  8
52572015
  6
CONTINUOUS
 62
         7
  5
63E
 10
82.7079210445
 20
70.2168595892
 30
0.0
  0
VERTEX
  8
52572015
  6
CONTINUOUS
 62
         7
  5
63F
 10
82.4671004429
 20
69.4440581233
 30
0.0
  0
VERTEX
  8
52572015
  6
CONTINUOUS
 62
         7
  5
640
 10
82.2609712603
 20
68.6673247118
 30
0.0
  0
VERTEX
  8
52572015
  6
CONTINUOUS
 62
         7
  5
641
 10
82.0890943225
 20
67.8895557259
 30
0.0
  0
VERTEX
  8
52572015
  6
CONTINUOUS
 62
         7
  5
642
 10
81.9508105612
 20
67.1135192579
 30
0.0
  0
VERTEX
  8
52572015
  6
CONTINUOUS
 62
         7
  5
643
 10
81.8452619261
 20
66.3418309682
 30
0.0
  0
VERTEX
  8
52572015
  6
CONTINUOUS
 62
         7
  5
644
 10
81.7714141186
 20
65.576934338
 30
0.0
  0
VERTEX
  8
52572015
  6
CONTINUOUS
 62
         7
  5
645
 10
81.7280804504
 20
64.8210853949
 30
0.0
  0
VERTEX
  8
52572015
  6
CONTINUOUS
 62
         7
  5
646
 10
81.7139461685
 20
64.0763418347
 30
0.0
  0
VERTEX
  8
52572015
  6
CONTINUOUS
 62
         7
  5
647
 10
81.7280804504
 20
63.3315982745
 30
0.0
  0
VERTEX
  8
52572015
  6
CONTINUOUS
 62
         7
  5
648
 10
81.7714141186
 20
62.5757493314
 30
0.0
  0
VERTEX
  8
52572015
  6
CONTINUOUS
 62
         7
  5
649
 10
81.8452619261
 20
61.8108527012
 30
0.0
  0
VERTEX
  8
52572015
  6
CONTINUOUS
 62
         7
  5
64A
 10
81.9508105612
 20
61.0391644116
 30
0.0
  0
VERTEX
  8
52572015
  6
CONTINUOUS
 62
         7
  5
64B
 10
82.0890943225
 20
60.2631279435
 30
0.0
  0
VERTEX
  8
52572015
  6
CONTINUOUS
 62
         7
  5
64C
 10
82.2609712603
 20
59.4853589576
 30
0.0
  0
VERTEX
  8
52572015
  6
CONTINUOUS
 62
         7
  5
64D
 10
82.4671004429
 20
58.7086255462
 30
0.0
  0
VERTEX
  8
52572015
  6
CONTINUOUS
 62
         7
  5
64E
 10
82.7079210445
 20
57.9358240802
 30
0.0
  0
VERTEX
  8
52572015
  6
CONTINUOUS
 62
         7
  5
64F
 10
82.9836339652
 20
57.1699508764
 30
0.0
  0
VERTEX
  8
52572015
  6
CONTINUOUS
 62
         7
  5
650
 10
83.2941866749
 20
56.4140700817
 30
0.0
  0
VERTEX
  8
52572015
  6
CONTINUOUS
 62
         7
  5
651
 10
83.639261923
 20
55.6712783393
 30
0.0
  0
VERTEX
  8
52572015
  6
CONTINUOUS
 62
         7
  5
652
 10
84.0182708695
 20
54.9446669624
 30
0.0
  0
VERTEX
  8
52572015
  6
CONTINUOUS
 62
         7
  5
653
 10
84.4303510784
 20
54.2372824779
 30
0.0
  0
VERTEX
  8
52572015
  6
CONTINUOUS
 62
         7
  5
654
 10
84.8743696626
 20
53.5520865199
 30
0.0
  0
VERTEX
  8
52572015
  6
CONTINUOUS
 62
         7
  5
655
 10
85.3489317061
 20
52.8919161185
 30
0.0
  0
VERTEX
  8
52572015
  6
CONTINUOUS
 62
         7
  5
656
 10
85.8523939003
 20
52.2594454636
 30
0.0
  0
VERTEX
  8
52572015
  6
CONTINUOUS
 62
         7
  5
657
 10
86.3828831479
 20
51.6571502025
 30
0.0
  0
VERTEX
  8
52572015
  6
CONTINUOUS
 62
         7
  5
658
 10
86.9383196996
 20
51.087275258
 30
0.0
  0
VERTEX
  8
52572015
  6
CONTINUOUS
 62
         7
  5
659
 10
87.5164442305
 20
50.5518070448
 30
0.0
  0
VERTEX
  8
52572015
  6
CONTINUOUS
 62
         7
  5
65A
 10
88.1148481158
 20
50.0524507988
 30
0.0
  0
VERTEX
  8
52572015
  6
CONTINUOUS
 62
         7
  5
65B
 10
88.731006067
 20
49.5906135539
 30
0.0
  0
VERTEX
  8
52572015
  6
CONTINUOUS
 62
         7
  5
65C
 10
89.3623102198
 20
49.1673930868
 30
0.0
  0
VERTEX
  8
52572015
  6
CONTINUOUS
 62
         7
  5
65D
 10
90.0061047422
 20
48.7835729375
 30
0.0
  0
VERTEX
  8
52572015
  6
CONTINUOUS
 62
         7
  5
65E
 10
90.6597200527
 20
48.4396233989
 30
0.0
  0
VERTEX
  8
52572015
  6
CONTINUOUS
 62
         7
  5
65F
 10
91.3205057911
 20
48.1357081707
 30
0.0
  0
VERTEX
  8
52572015
  6
CONTINUOUS
 62
         7
  5
660
 10
91.9858617815
 20
47.8716962005
 30
0.0
  0
VERTEX
  8
52572015
  6
CONTINUOUS
 62
         7
  5
661
 10
92.6532663389
 20
47.6471780941
 30
0.0
  0
VERTEX
  8
52572015
  6
CONTINUOUS
 62
         7
  5
662
 10
93.3203014109
 20
47.461486374
 30
0.0
  0
VERTEX
  8
52572015
  6
CONTINUOUS
 62
         7
  5
663
 10
93.9846741863
 20
47.3137188001
 30
0.0
  0
VERTEX
  8
52572015
  6
CONTINUOUS
 62
         7
  5
664
 10
94.6442349526
 20
47.2027639418
 30
0.0
  0
VERTEX
  8
52572015
  6
CONTINUOUS
 62
         7
  5
665
 10
95.2969911182
 20
47.1273281974
 30
0.0
  0
VERTEX
  8
52572015
  6
CONTINUOUS
 62
         7
  5
666
 10
95.9411174468
 20
47.0859635006
 30
0.0
  0
SEQEND
  8
52572015
  6
CONTINUOUS
 62
         7
  5
667
  0
LINE
  8
52572015
  6
CONTINUOUS
 62
         7
  5
668
 10
14.3274166547
 20
56.4033567572
 30
0.0
 11
21.99896824
 21
56.4033567572
 31
0.0
  0
LINE
  8
52572015
  6
CONTINUOUS
 62
         7
  5
669
 10
14.3274166547
 20
71.7493269122
 30
0.0
 11
21.99896824
 21
71.7493269122
 31
0.0
  0
LINE
  8
52572015
  6
CONTINUOUS
 62
         7
  5
66A
 10
14.3274166547
 20
79.4223119898
 30
0.0
 11
21.99896824
 21
79.4223119898
 31
0.0
  0
LINE
  8
52572015
  6
CONTINUOUS
 62
         7
  5
66B
 10
22.9438241054
 20
51.3263418347
 30
0.0
 11
22.9438241054
 21
76.8263418347
 31
0.0
  0
LINE
  8
52572015
  6
CONTINUOUS
 62
         7
  5
66C
 10
14.3274166547
 20
48.7303716797
 30
0.0
 11
21.99896824
 21
48.7303716797
 31
0.0
  0
ARC
  8
52572015
  6
CONTINUOUS
 62
         7
  5
66D
 10
12.4207821515
 20
75.585819451
 30
0.0
 40
10.3179612203
 50
338.1716867869
 51
21.8283132131
  0
ARC
  8
52572015
  6
CONTINUOUS
 62
         7
  5
66E
 10
-17.3139926957
 20
64.0763418347
 30
0.0
 40
40.0547574893
 50
348.9560224488
 51
11.0439775512
  0
ARC
  8
52572015
  6
CONTINUOUS
 62
         7
  5
66F
 10
12.4207821515
 20
52.5668642184
 30
0.0
 40
10.3179612203
 50
338.1716867869
 51
21.8283132131
  0
LINE
  8
52572015
  6
CONTINUOUS
 62
         7
  5
670
 10
35.1007460436
 20
74.4263418347
 30
0.0
 11
35.1007460436
 21
71.9224973067
 31
0.0
  0
LINE
  8
52572015
  6
CONTINUOUS
 62
         7
  5
671
 10
35.1007460436
 20
56.2301863627
 30
0.0
 11
35.1007460436
 21
53.7263418347
 31
0.0
  0
LINE
  8
52572015
  6
CONTINUOUS
 62
         7
  5
672
 10
30.9438241054
 20
76.8263418347
 30
0.0
 11
30.9438241054
 21
66.8381840849
 31
0.0
  0
LINE
  8
52572015
  6
CONTINUOUS
 62
         7
  5
673
 10
30.9438241054
 20
61.3144995845
 30
0.0
 11
30.9438241054
 21
51.3263418347
 31
0.0
  0
ARC
  8
52572015
  6
CONTINUOUS
 62
         7
  5
674
 10
64.0444000551
 20
62.6261244329
 30
0.0
 40
50.5471192246
 50
169.6017520322
 51
173.1358825319
  0
ARC
  8
52572015
  6
CONTINUOUS
 62
         7
  5
675
 10
27.3970872018
 20
51.5940719428
 30
0.0
 40
13.9264320138
 50
159.7977514331
 51
166.4272390333
  0
ARC
  8
52572015
  6
CONTINUOUS
 62
         7
  5
676
 10
27.3970872018
 20
74.6130271754
 30
0.0
 40
13.9264320138
 50
159.7977514331
 51
166.4272390333
  0
ARC
  8
52572015
  6
CONTINUOUS
 62
         7
  5
677
 10
27.3970872018
 20
76.5586117266
 30
0.0
 40
13.9264320138
 50
193.5727609667
 51
200.2022485669
  0
ARC
  8
52572015
  6
CONTINUOUS
 62
         7
  5
678
 10
63.9997238649
 20
65.5197777252
 30
0.0
 40
50.5019527825
 50
186.8625365907
 51
190.3998288453
  0
ARC
  8
52572015
  6
CONTINUOUS
 62
         7
  5
679
 10
27.3970872018
 20
53.5396564941
 30
0.0
 40
13.9264320138
 50
193.5727609667
 51
200.2022485669
  0
LINE
  8
52572015
  6
CONTINUOUS
 62
         7
  5
67A
 10
70.8291320009
 20
70.4844072105
 30
0.0
 11
70.9381746825
 21
71.2760980422
 31
0.0
  0
LINE
  8
52572015
  6
CONTINUOUS
 62
         7
  5
67B
 10
64.1120199212
 20
74.4263418347
 30
0.0
 11
35.1007460436
 21
74.4263418347
 31
0.0
  0
LINE
  8
52572015
  6
CONTINUOUS
 62
         7
  5
67C
 10
72.6573434737
 20
53.7263418347
 30
0.0
 11
73.1719353084
 21
53.7263418347
 31
0.0
  0
LINE
  8
52572015
  6
CONTINUOUS
 62
         7
  5
67D
 10
30.9438241054
 20
51.3263418347
 30
0.0
 11
35.1007460436
 21
53.7263418347
 31
0.0
  0
LINE
  8
52572015
  6
CONTINUOUS
 62
         7
  5
67E
 10
127.695283912
 20
96.5763418347
 30
0.0
 11
120.0095831136
 21
96.5763418347
 31
0.0
  0
LINE
  8
52572015
  6
CONTINUOUS
 62
         7
  5
67F
 10
120.0095831136
 20
31.5763418347
 30
0.0
 11
127.695283912
 21
31.5763418347
 31
0.0
  0
LINE
  8
52572015
  6
CONTINUOUS
 62
         7
  5
680
 10
98.2595831136
 20
46.8763418347
 30
0.0
 11
99.8595831136
 21
46.8763418347
 31
0.0
  0
LINE
  8
52572015
  6
CONTINUOUS
 62
         7
  5
681
 10
13.8595831136
 20
50.0157337701
 30
0.0
 11
14.3274166547
 21
48.7303716797
 31
0.0
  0
LINE
  8
52572015
  6
CONTINUOUS
 62
         7
  5
682
 10
14.3274166547
 20
79.4223119898
 30
0.0
 11
13.8595831136
 21
78.1369498993
 31
0.0
  0
LINE
  8
52572015
  6
CONTINUOUS
 62
         7
  5
683
 10
81.3363780328
 20
50.0763418347
 30
0.0
 11
87.2726885063
 21
50.0763418347
 31
0.0
  0
LINE
  8
52572015
  6
CONTINUOUS
 62
         7
  5
684
 10
22.9438241054
 20
51.3263418347
 30
0.0
 11
30.9438241054
 21
51.3263418347
 31
0.0
  0
LINE
  8
52572015
  6
CONTINUOUS
 62
         7
  5
685
 10
21.99896824
 20
48.7303716797
 30
0.0
 11
22.9438241054
 21
51.3263418347
 31
0.0
  0
ENDBLK
  8
52572015
  6
CONTINUOUS
 62
         7
  5
686
  0
BLOCK
  8
0
 62
         1
 48
0.0
  5
AFD
  2
SE6
 70
         0
 10
0.0
 20
0.0
 30
0.0
  3
SE6
  0
ENDBLK
  8
0
 62
         1
 48
0.0
  5
AFE
  0
BLOCK
  8
0
 62
         1
 48
0.0
  5
689
  2
SE7
 70
         0
 10
0.0
 20
0.0
 30
0.0
  3
SE7
  0
LINE
  8
52572015
  6
CONTINUOUS
 62
         7
  5
68A
 10
305.3987661566
 20
57.1763418347
 30
0.0
 11
306.2070565335
 21
58.5763418347
 31
0.0
  0
LINE
  8
52572015
  6
CONTINUOUS
 62
         7
  5
68B
 10
298.3570565335
 20
58.0763418347
 30
0.0
 11
299.7070565335
 21
58.0763418347
 31
0.0
  0
LINE
  8
52572015
  6
CONTINUOUS
 62
         7
  5
68C
 10
300.6070565335
 20
57.1763418347
 30
0.0
 11
305.3987661566
 21
57.1763418347
 31
0.0
  0
LINE
  8
52572015
  6
CONTINUOUS
 62
         7
  5
68D
 10
300.6070565335
 20
70.9763418347
 30
0.0
 11
299.7070565335
 21
70.0763418347
 31
0.0
  0
LINE
  8
52572015
  6
CONTINUOUS
 62
         7
  5
68E
 10
297.2070565335
 20
57.3263418347
 30
0.0
 11
298.3570565335
 21
57.3263418347
 31
0.0
  0
POLYLINE
  8
52572015
  6
CONTINUOUS
 62
         7
  5
68F
 66
         1
 10
0.0
 20
0.0
 30
0.0
  0
VERTEX
  8
52572015
  6
CONTINUOUS
 62
         7
  5
690
 10
280.9423076554
 20
47.0763418347
 30
0.0
  0
VERTEX
  8
52572015
  6
CONTINUOUS
 62
         7
  5
691
 10
281.2460694005
 20
47.0872007379
 30
0.0
  0
VERTEX
  8
52572015
  6
CONTINUOUS
 62
         7
  5
692
 10
281.5526456662
 20
47.1202234685
 30
0.0
  0
VERTEX
  8
52572015
  6
CONTINUOUS
 62
         7
  5
693
 10
281.861466375
 20
47.1760285538
 30
0.0
  0
VERTEX
  8
52572015
  6
CONTINUOUS
 62
         7
  5
694
 10
282.171928702
 20
47.2551608914
 30
0.0
  0
VERTEX
  8
52572015
  6
CONTINUOUS
 62
         7
  5
695
 10
282.4833998517
 20
47.3580841692
 30
0.0
  0
VERTEX
  8
52572015
  6
CONTINUOUS
 62
         7
  5
696
 10
282.7952203241
 20
47.4851737454
 30
0.0
  0
VERTEX
  8
52572015
  6
CONTINUOUS
 62
         7
  5
697
 10
283.1067076497
 20
47.6367101278
 30
0.0
  0
VERTEX
  8
52572015
  6
CONTINUOUS
 62
         7
  5
698
 10
283.4171605637
 20
47.8128731909
 30
0.0
  0
VERTEX
  8
52572015
  6
CONTINUOUS
 62
         7
  5
699
 10
283.725863578
 20
48.0137372607
 30
0.0
  0
VERTEX
  8
52572015
  6
CONTINUOUS
 62
         7
  5
69A
 10
284.0320918986
 20
48.2392671894
 30
0.0
  0
VERTEX
  8
52572015
  6
CONTINUOUS
 62
         7
  5
69B
 10
284.3351166259
 20
48.4893155257
 30
0.0
  0
VERTEX
  8
52572015
  6
CONTINUOUS
 62
         7
  5
69C
 10
284.6342101677
 20
48.7636208695
 30
0.0
  0
VERTEX
  8
52572015
  6
CONTINUOUS
 62
         7
  5
69D
 10
284.9286517837
 20
49.0618074775
 30
0.0
  0
VERTEX
  8
52572015
  6
CONTINUOUS
 62
         7
  5
69E
 10
285.2177331797
 20
49.383386164
 30
0.0
  0
VERTEX
  8
52572015
  6
CONTINUOUS
 62
         7
  5
69F
 10
285.5007640611
 20
49.7277565111
 30
0.0
  0
VERTEX
  8
52572015
  6
CONTINUOUS
 62
         7
  5
6A0
 10
285.7770775568
 20
50.0942103806
 30
0.0
  0
VERTEX
  8
52572015
  6
CONTINUOUS
 62
         7
  5
6A1
 10
286.0460354265
 20
50.4819366857
 30
0.0
  0
VERTEX
  8
52572015
  6
CONTINUOUS
 62
         7
  5
6A2
 10
286.3070329637
 20
50.8900273586
 30
0.0
  0
VERTEX
  8
52572015
  6
CONTINUOUS
 62
         7
  5
6A3
 10
286.5595035193
 20
51.3174844209
 30
0.0
  0
VERTEX
  8
52572015
  6
CONTINUOUS
 62
         7
  5
6A4
 10
286.8029225706
 20
51.7632280424
 30
0.0
  0
VERTEX
  8
52572015
  6
CONTINUOUS
 62
         7
  5
6A5
 10
287.0368112791
 20
52.2261054522
 30
0.0
  0
VERTEX
  8
52572015
  6
CONTINUOUS
 62
         7
  5
6A6
 10
287.2607394849
 20
52.7049005512
 30
0.0
  0
VERTEX
  8
52572015
  6
CONTINUOUS
 62
         7
  5
6A7
 10
287.4743281015
 20
53.1983440609
 30
0.0
  0
VERTEX
  8
52572015
  6
CONTINUOUS
 62
         7
  5
6A8
 10
287.6772508893
 20
53.7051240402
 30
0.0
  0
VERTEX
  8
52572015
  6
CONTINUOUS
 62
         7
  5
6A9
 10
287.8692355958
 20
54.2238965935
 30
0.0
  0
VERTEX
  8
52572015
  6
CONTINUOUS
 62
         7
  5
6AA
 10
288.0500644671
 20
54.7532966015
 30
0.0
  0
VERTEX
  8
52572015
  6
CONTINUOUS
 62
         7
  5
6AB
 10
288.2195741473
 20
55.2919483086
 30
0.0
  0
VERTEX
  8
52572015
  6
CONTINUOUS
 62
         7
  5
6AC
 10
288.3776549929
 20
55.8384756132
 30
0.0
  0
VERTEX
  8
52572015
  6
CONTINUOUS
 62
         7
  5
6AD
 10
288.6593522733
 20
56.9497094278
 30
0.0
  0
VERTEX
  8
52572015
  6
CONTINUOUS
 62
         7
  5
6AE
 10
288.8952945157
 20
58.0763418347
 30
0.0
  0
SEQEND
  8
52572015
  6
CONTINUOUS
 62
         7
  5
6AF
  0
POLYLINE
  8
52572015
  6
CONTINUOUS
 62
         7
  5
6B0
 66
         1
 10
0.0
 20
0.0
 30
0.0
  0
VERTEX
  8
52572015
  6
CONTINUOUS
 62
         7
  5
6B1
 10
288.8952945157
 20
70.0763418347
 30
0.0
  0
VERTEX
  8
52572015
  6
CONTINUOUS
 62
         7
  5
6B2
 10
288.6593522733
 20
71.2029742416
 30
0.0
  0
VERTEX
  8
52572015
  6
CONTINUOUS
 62
         7
  5
6B3
 10
288.3776549929
 20
72.3142080563
 30
0.0
  0
VERTEX
  8
52572015
  6
CONTINUOUS
 62
         7
  5
6B4
 10
288.0500644671
 20
73.399387068
 30
0.0
  0
VERTEX
  8
52572015
  6
CONTINUOUS
 62
         7
  5
6B5
 10
287.8692355958
 20
73.928787076
 30
0.0
  0
VERTEX
  8
52572015
  6
CONTINUOUS
 62
         7
  5
6B6
 10
287.6772508893
 20
74.4475596292
 30
0.0
  0
VERTEX
  8
52572015
  6
CONTINUOUS
 62
         7
  5
6B7
 10
287.4743281015
 20
74.9543396085
 30
0.0
  0
VERTEX
  8
52572015
  6
CONTINUOUS
 62
         7
  5
6B8
 10
287.2607394849
 20
75.4477831183
 30
0.0
  0
VERTEX
  8
52572015
  6
CONTINUOUS
 62
         7
  5
6B9
 10
287.0368112791
 20
75.9265782172
 30
0.0
  0
VERTEX
  8
52572015
  6
CONTINUOUS
 62
         7
  5
6BA
 10
286.8029225706
 20
76.3894556271
 30
0.0
  0
VERTEX
  8
52572015
  6
CONTINUOUS
 62
         7
  5
6BB
 10
286.5595035193
 20
76.8351992486
 30
0.0
  0
VERTEX
  8
52572015
  6
CONTINUOUS
 62
         7
  5
6BC
 10
286.3070329637
 20
77.2626563108
 30
0.0
  0
VERTEX
  8
52572015
  6
CONTINUOUS
 62
         7
  5
6BD
 10
286.0460354265
 20
77.6707469837
 30
0.0
  0
VERTEX
  8
52572015
  6
CONTINUOUS
 62
         7
  5
6BE
 10
285.7770775568
 20
78.0584732888
 30
0.0
  0
VERTEX
  8
52572015
  6
CONTINUOUS
 62
         7
  5
6BF
 10
285.5007640611
 20
78.4249271583
 30
0.0
  0
VERTEX
  8
52572015
  6
CONTINUOUS
 62
         7
  5
6C0
 10
285.2177331797
 20
78.7692975055
 30
0.0
  0
VERTEX
  8
52572015
  6
CONTINUOUS
 62
         7
  5
6C1
 10
284.9286517837
 20
79.0908761919
 30
0.0
  0
VERTEX
  8
52572015
  6
CONTINUOUS
 62
         7
  5
6C2
 10
284.6342101677
 20
79.3890628
 30
0.0
  0
VERTEX
  8
52572015
  6
CONTINUOUS
 62
         7
  5
6C3
 10
284.3351166259
 20
79.6633681437
 30
0.0
  0
VERTEX
  8
52572015
  6
CONTINUOUS
 62
         7
  5
6C4
 10
284.0320918986
 20
79.9134164801
 30
0.0
  0
VERTEX
  8
52572015
  6
CONTINUOUS
 62
         7
  5
6C5
 10
283.725863578
 20
80.1389464088
 30
0.0
  0
VERTEX
  8
52572015
  6
CONTINUOUS
 62
         7
  5
6C6
 10
283.4171605637
 20
80.3398104785
 30
0.0
  0
VERTEX
  8
52572015
  6
CONTINUOUS
 62
         7
  5
6C7
 10
283.1067076497
 20
80.5159735416
 30
0.0
  0
VERTEX
  8
52572015
  6
CONTINUOUS
 62
         7
  5
6C8
 10
282.7952203241
 20
80.6675099241
 30
0.0
  0
VERTEX
  8
52572015
  6
CONTINUOUS
 62
         7
  5
6C9
 10
282.4833998517
 20
80.7945995002
 30
0.0
  0
VERTEX
  8
52572015
  6
CONTINUOUS
 62
         7
  5
6CA
 10
282.171928702
 20
80.897522778
 30
0.0
  0
VERTEX
  8
52572015
  6
CONTINUOUS
 62
         7
  5
6CB
 10
281.861466375
 20
80.9766551156
 30
0.0
  0
VERTEX
  8
52572015
  6
CONTINUOUS
 62
         7
  5
6CC
 10
281.5526456662
 20
81.032460201
 30
0.0
  0
VERTEX
  8
52572015
  6
CONTINUOUS
 62
         7
  5
6CD
 10
281.2460694005
 20
81.0654829316
 30
0.0
  0
VERTEX
  8
52572015
  6
CONTINUOUS
 62
         7
  5
6CE
 10
280.9423076554
 20
81.0763418347
 30
0.0
  0
SEQEND
  8
52572015
  6
CONTINUOUS
 62
         7
  5
6CF
  0
POLYLINE
  8
52572015
  6
CONTINUOUS
 62
         7
  5
6D0
 66
         1
 10
0.0
 20
0.0
 30
0.0
  0
VERTEX
  8
52572015
  6
CONTINUOUS
 62
         7
  5
6D1
 10
304.3249935576
 20
51.6263418347
 30
0.0
  0
VERTEX
  8
52572015
  6
CONTINUOUS
 62
         7
  5
6D2
 10
304.6025055774
 20
51.6387195412
 30
0.0
  0
VERTEX
  8
52572015
  6
CONTINUOUS
 62
         7
  5
6D3
 10
304.8843374335
 20
51.6767032225
 30
0.0
  0
VERTEX
  8
52572015
  6
CONTINUOUS
 62
         7
  5
6D4
 10
305.1696973714
 20
51.7414968066
 30
0.0
  0
VERTEX
  8
52572015
  6
CONTINUOUS
 62
         7
  5
6D5
 10
305.4577135588
 20
51.8341899979
 30
0.0
  0
VERTEX
  8
52572015
  6
CONTINUOUS
 62
         7
  5
6D6
 10
305.7474381935
 20
51.9557352067
 30
0.0
  0
VERTEX
  8
52572015
  6
CONTINUOUS
 62
         7
  5
6D7
 10
306.037853445
 20
52.1069248053
 30
0.0
  0
VERTEX
  8
52572015
  6
CONTINUOUS
 62
         7
  5
6D8
 10
306.3278792755
 20
52.2883693541
 30
0.0
  0
VERTEX
  8
52572015
  6
CONTINUOUS
 62
         7
  5
6D9
 10
306.6163831246
 20
52.5004774865
 30
0.0
  0
VERTEX
  8
52572015
  6
CONTINUOUS
 62
         7
  5
6DA
 10
306.9021913689
 20
52.7434381571
 30
0.0
  0
VERTEX
  8
52572015
  6
CONTINUOUS
 62
         7
  5
6DB
 10
307.1841023993
 20
53.0172059497
 30
0.0
  0
VERTEX
  8
52572015
  6
CONTINUOUS
 62
         7
  5
6DC
 10
307.4609010785
 20
53.3214900886
 30
0.0
  0
VERTEX
  8
52572015
  6
CONTINUOUS
 62
         7
  5
6DD
 10
307.7313742724
 20
53.65574772
 30
0.0
  0
VERTEX
  8
52572015
  6
CONTINUOUS
 62
         7
  5
6DE
 10
307.9943270878
 20
54.0191819089
 30
0.0
  0
VERTEX
  8
52572015
  6
CONTINUOUS
 62
         7
  5
6DF
 10
308.2485993944
 20
54.4107446494
 30
0.0
  0
VERTEX
  8
52572015
  6
CONTINUOUS
 62
         7
  5
6E0
 10
308.4930821795
 20
54.8291450185
 30
0.0
  0
VERTEX
  8
52572015
  6
CONTINUOUS
 62
         7
  5
6E1
 10
308.7267332705
 20
55.2728624089
 30
0.0
  0
VERTEX
  8
52572015
  6
CONTINUOUS
 62
         7
  5
6E2
 10
308.9485919657
 20
55.7401645908
 30
0.0
  0
VERTEX
  8
52572015
  6
CONTINUOUS
 62
         7
  5
6E3
 10
309.1577921502
 20
56.229130161
 30
0.0
  0
VERTEX
  8
52572015
  6
CONTINUOUS
 62
         7
  5
6E4
 10
309.3535735205
 20
56.7376747742
 30
0.0
  0
VERTEX
  8
52572015
  6
CONTINUOUS
 62
         7
  5
6E5
 10
309.5352906149
 20
57.2635804051
 30
0.0
  0
VERTEX
  8
52572015
  6
CONTINUOUS
 62
         7
  5
6E6
 10
309.7024194306
 20
57.8045267929
 30
0.0
  0
VERTEX
  8
52572015
  6
CONTINUOUS
 62
         7
  5
6E7
 10
309.8545615001
 20
58.3581241512
 30
0.0
  0
VERTEX
  8
52572015
  6
CONTINUOUS
 62
         7
  5
6E8
 10
309.9914453964
 20
58.9219462121
 30
0.0
  0
VERTEX
  8
52572015
  6
CONTINUOUS
 62
         7
  5
6E9
 10
310.1129257317
 20
59.4935627007
 30
0.0
  0
VERTEX
  8
52572015
  6
CONTINUOUS
 62
         7
  5
6EA
 10
310.2189797979
 20
60.0705703988
 30
0.0
  0
VERTEX
  8
52572015
  6
CONTINUOUS
 62
         7
  5
6EB
 10
310.3097020723
 20
60.6506220599
 30
0.0
  0
VERTEX
  8
52572015
  6
CONTINUOUS
 62
         7
  5
6EC
 10
310.3852968716
 20
61.2314525628
 30
0.0
  0
VERTEX
  8
52572015
  6
CONTINUOUS
 62
         7
  5
6ED
 10
310.446069476
 20
61.8109018322
 30
0.0
  0
VERTEX
  8
52572015
  6
CONTINUOUS
 62
         7
  5
6EE
 10
310.4924160716
 20
62.3869342071
 30
0.0
  0
VERTEX
  8
52572015
  6
CONTINUOUS
 62
         7
  5
6EF
 10
310.5248128637
 20
62.9576540829
 30
0.0
  0
VERTEX
  8
52572015
  6
CONTINUOUS
 62
         7
  5
6F0
 10
310.5438047043
 20
63.5213177951
 30
0.0
  0
VERTEX
  8
52572015
  6
CONTINUOUS
 62
         7
  5
6F1
 10
310.5499935576
 20
64.0763418347
 30
0.0
  0
VERTEX
  8
52572015
  6
CONTINUOUS
 62
         7
  5
6F2
 10
310.5248128637
 20
65.1950295865
 30
0.0
  0
VERTEX
  8
52572015
  6
CONTINUOUS
 62
         7
  5
6F3
 10
310.4924160716
 20
65.7657494623
 30
0.0
  0
VERTEX
  8
52572015
  6
CONTINUOUS
 62
         7
  5
6F4
 10
310.446069476
 20
66.3417818372
 30
0.0
  0
VERTEX
  8
52572015
  6
CONTINUOUS
 62
         7
  5
6F5
 10
310.3852968716
 20
66.9212311067
 30
0.0
  0
VERTEX
  8
52572015
  6
CONTINUOUS
 62
         7
  5
6F6
 10
310.3097020723
 20
67.5020616095
 30
0.0
  0
VERTEX
  8
52572015
  6
CONTINUOUS
 62
         7
  5
6F7
 10
310.2189797979
 20
68.0821132707
 30
0.0
  0
VERTEX
  8
52572015
  6
CONTINUOUS
 62
         7
  5
6F8
 10
310.1129257317
 20
68.6591209688
 30
0.0
  0
VERTEX
  8
52572015
  6
CONTINUOUS
 62
         7
  5
6F9
 10
309.9914453964
 20
69.2307374574
 30
0.0
  0
VERTEX
  8
52572015
  6
CONTINUOUS
 62
         7
  5
6FA
 10
309.8545615001
 20
69.7945595183
 30
0.0
  0
VERTEX
  8
52572015
  6
CONTINUOUS
 62
         7
  5
6FB
 10
309.7024194306
 20
70.3481568765
 30
0.0
  0
VERTEX
  8
52572015
  6
CONTINUOUS
 62
         7
  5
6FC
 10
309.5352906149
 20
70.8891032644
 30
0.0
  0
VERTEX
  8
52572015
  6
CONTINUOUS
 62
         7
  5
6FD
 10
309.3535735205
 20
71.4150088953
 30
0.0
  0
VERTEX
  8
52572015
  6
CONTINUOUS
 62
         7
  5
6FE
 10
309.1577921502
 20
71.9235535084
 30
0.0
  0
VERTEX
  8
52572015
  6
CONTINUOUS
 62
         7
  5
6FF
 10
308.9485919657
 20
72.4125190786
 30
0.0
  0
VERTEX
  8
52572015
  6
CONTINUOUS
 62
         7
  5
700
 10
308.7267332705
 20
72.8798212605
 30
0.0
  0
VERTEX
  8
52572015
  6
CONTINUOUS
 62
         7
  5
701
 10
308.4930821795
 20
73.3235386509
 30
0.0
  0
VERTEX
  8
52572015
  6
CONTINUOUS
 62
         7
  5
702
 10
308.2485993944
 20
73.74193902
 30
0.0
  0
VERTEX
  8
52572015
  6
CONTINUOUS
 62
         7
  5
703
 10
307.9943270878
 20
74.1335017606
 30
0.0
  0
VERTEX
  8
52572015
  6
CONTINUOUS
 62
         7
  5
704
 10
307.7313742724
 20
74.4969359494
 30
0.0
  0
VERTEX
  8
52572015
  6
CONTINUOUS
 62
         7
  5
705
 10
307.4609010785
 20
74.8311935809
 30
0.0
  0
VERTEX
  8
52572015
  6
CONTINUOUS
 62
         7
  5
706
 10
307.1841023993
 20
75.1354777197
 30
0.0
  0
VERTEX
  8
52572015
  6
CONTINUOUS
 62
         7
  5
707
 10
306.9021913689
 20
75.4092455123
 30
0.0
  0
VERTEX
  8
52572015
  6
CONTINUOUS
 62
         7
  5
708
 10
306.6163831246
 20
75.6522061829
 30
0.0
  0
VERTEX
  8
52572015
  6
CONTINUOUS
 62
         7
  5
709
 10
306.3278792755
 20
75.8643143153
 30
0.0
  0
VERTEX
  8
52572015
  6
CONTINUOUS
 62
         7
  5
70A
 10
306.037853445
 20
76.0457588641
 30
0.0
  0
VERTEX
  8
52572015
  6
CONTINUOUS
 62
         7
  5
70B
 10
305.7474381935
 20
76.1969484627
 30
0.0
  0
VERTEX
  8
52572015
  6
CONTINUOUS
 62
         7
  5
70C
 10
305.4577135588
 20
76.3184936715
 30
0.0
  0
VERTEX
  8
52572015
  6
CONTINUOUS
 62
         7
  5
70D
 10
305.1696973714
 20
76.4111868628
 30
0.0
  0
VERTEX
  8
52572015
  6
CONTINUOUS
 62
         7
  5
70E
 10
304.8843374335
 20
76.4759804469
 30
0.0
  0
VERTEX
  8
52572015
  6
CONTINUOUS
 62
         7
  5
70F
 10
304.6025055774
 20
76.5139641282
 30
0.0
  0
VERTEX
  8
52572015
  6
CONTINUOUS
 62
         7
  5
710
 10
304.3249935576
 20
76.5263418347
 30
0.0
  0
SEQEND
  8
52572015
  6
CONTINUOUS
 62
         7
  5
711
  0
LINE
  8
52572015
  6
CONTINUOUS
 62
         7
  5
712
 10
296.4597036612
 20
56.7453739495
 30
0.0
 11
291.4864534206
 21
56.7162934973
 31
0.0
  0
LINE
  8
52572015
  6
CONTINUOUS
 62
         7
  5
713
 10
290.1108992382
 20
78.7382776052
 30
0.0
 11
288.1916543836
 21
78.7606096
 31
0.0
  0
LINE
  8
52572015
  6
CONTINUOUS
 62
         7
  5
714
 10
290.1108992382
 20
49.4144060643
 30
0.0
 11
288.1916543836
 21
49.3920740695
 31
0.0
  0
LINE
  8
52572015
  6
CONTINUOUS
 62
         7
  5
715
 10
306.2070565335
 20
69.5763418347
 30
0.0
 11
306.2070565335
 21
58.5763418347
 31
0.0
  0
ARC
  8
52572015
  6
CONTINUOUS
 62
         7
  5
716
 10
250.198405821
 20
64.0763418347
 30
0.0
 40
14.0606080646
 50
259.0570683481
 51
280.9429316519
  0
CIRCLE
  8
52572015
  6
CONTINUOUS
 62
         7
  5
717
 10
250.198405821
 20
64.0763418347
 30
0.0
 40
10.9125
  0
ARC
  8
52572015
  6
CONTINUOUS
 62
         7
  5
718
 10
250.198405821
 20
64.0763418347
 30
0.0
 40
14.0606080646
 50
199.0570683481
 51
220.9429316519
  0
LINE
  8
52572015
  6
CONTINUOUS
 62
         7
  5
719
 10
305.3987661566
 20
70.9763418347
 30
0.0
 11
305.3987661566
 21
57.1763418347
 31
0.0
  0
ARC
  8
52572015
  6
CONTINUOUS
 62
         7
  5
71A
 10
250.198405821
 20
64.0763418347
 30
0.0
 40
14.0606080646
 50
19.0570683481
 51
40.9429316519
  0
LINE
  8
52572015
  6
CONTINUOUS
 62
         7
  5
71B
 10
239.5775475037
 20
73.2903565812
 30
0.0
 11
247.5292641384
 21
77.8812823208
 31
0.0
  0
ARC
  8
52572015
  6
CONTINUOUS
 62
         7
  5
71C
 10
250.198405821
 20
64.0763418347
 30
0.0
 40
14.0606080646
 50
139.0570683481
 51
160.9429316519
  0
LINE
  8
52572015
  6
CONTINUOUS
 62
         7
  5
71D
 10
236.908405821
 20
59.4854160952
 30
0.0
 11
236.908405821
 21
68.6672675743
 31
0.0
  0
LINE
  8
52572015
  6
CONTINUOUS
 62
         7
  5
71E
 10
260.8192641384
 20
54.8623270882
 30
0.0
 11
252.8675475037
 21
50.2714013486
 31
0.0
  0
LINE
  8
52572015
  6
CONTINUOUS
 62
         7
  5
71F
 10
252.8675475037
 20
77.8812823208
 30
0.0
 11
260.8192641384
 21
73.2903565812
 31
0.0
  0
ARC
  8
52572015
  6
CONTINUOUS
 62
         7
  5
720
 10
250.198405821
 20
64.0763418347
 30
0.0
 40
14.0606080646
 50
319.0570683481
 51
340.9429316519
  0
LINE
  8
52572015
  6
CONTINUOUS
 62
         7
  5
721
 10
263.488405821
 20
68.6672675743
 30
0.0
 11
263.488405821
 21
59.4854160952
 31
0.0
  0
ARC
  8
52572015
  6
CONTINUOUS
 62
         7
  5
722
 10
250.198405821
 20
64.0763418347
 30
0.0
 40
14.0606080646
 50
79.0570683481
 51
100.9429316519
  0
LINE
  8
52572015
  6
CONTINUOUS
 62
         7
  5
723
 10
261.1899485529
 20
55.0763418347
 30
0.0
 11
272.7070565335
 21
55.0763418347
 31
0.0
  0
LINE
  8
52572015
  6
CONTINUOUS
 62
         7
  5
724
 10
272.7070565335
 20
58.0763418347
 30
0.0
 11
293.2070565335
 21
58.0763418347
 31
0.0
  0
LINE
  8
52572015
  6
CONTINUOUS
 62
         7
  5
725
 10
294.2070565335
 20
69.4989915655
 30
0.0
 11
293.2070565335
 21
70.0763418347
 31
0.0
  0
LINE
  8
52572015
  6
CONTINUOUS
 62
         7
  5
726
 10
294.2070565335
 20
60.0763418347
 30
0.0
 11
297.2070565335
 21
60.0763418347
 31
0.0
  0
LINE
  8
52572015
  6
CONTINUOUS
 62
         7
  5
727
 10
310.3871713841
 20
77.3263418347
 30
0.0
 11
304.3249935576
 21
77.3263418347
 31
0.0
  0
LINE
  8
52572015
  6
CONTINUOUS
 62
         7
  5
728
 10
318.61441272
 20
87.0763418347
 30
0.0
 11
310.3871713841
 21
87.0763418347
 31
0.0
  0
LINE
  8
52572015
  6
CONTINUOUS
 62
         7
  5
729
 10
304.3249935576
 20
76.5263418347
 30
0.0
 11
292.5237020226
 21
76.5263418347
 31
0.0
  0
LINE
  8
52572015
  6
CONTINUOUS
 62
         7
  5
72A
 10
328.8457533198
 20
78.8992404443
 30
0.0
 11
328.8017798059
 21
79.1286035022
 31
0.0
  0
LINE
  8
52572015
  6
CONTINUOUS
 62
         7
  5
72B
 10
328.8017798059
 20
49.0240801672
 30
0.0
 11
328.8457533198
 21
49.2534432251
 31
0.0
  0
POLYLINE
  8
52572015
  6
CONTINUOUS
 62
         7
  5
72C
 66
         1
 10
0.0
 20
0.0
 30
0.0
  0
VERTEX
  8
52572015
  6
CONTINUOUS
 62
         7
  5
72D
 10
333.9454164006
 20
96.3245183511
 30
0.0
  0
VERTEX
  8
52572015
  6
CONTINUOUS
 62
         7
  5
72E
 10
333.4425093589
 20
96.4345880534
 30
0.0
  0
VERTEX
  8
52572015
  6
CONTINUOUS
 62
         7
  5
72F
 10
332.9378878843
 20
96.5133248694
 30
0.0
  0
VERTEX
  8
52572015
  6
CONTINUOUS
 62
         7
  5
730
 10
332.4322851028
 20
96.5605914146
 30
0.0
  0
VERTEX
  8
52572015
  6
CONTINUOUS
 62
         7
  5
731
 10
331.9264369947
 20
96.5763418347
 30
0.0
  0
SEQEND
  8
52572015
  6
CONTINUOUS
 62
         7
  5
732
  0
POLYLINE
  8
52572015
  6
CONTINUOUS
 62
         7
  5
733
 66
         1
 10
0.0
 20
0.0
 30
0.0
  0
VERTEX
  8
52572015
  6
CONTINUOUS
 62
         7
  5
734
 10
339.1332078153
 20
84.0351644128
 30
0.0
  0
VERTEX
  8
52572015
  6
CONTINUOUS
 62
         7
  5
735
 10
338.5690561805
 20
85.5897071223
 30
0.0
  0
VERTEX
  8
52572015
  6
CONTINUOUS
 62
         7
  5
736
 10
337.9802812898
 20
87.1403992511
 30
0.0
  0
VERTEX
  8
52572015
  6
CONTINUOUS
 62
         7
  5
737
 10
337.3671212299
 20
88.6865361716
 30
0.0
  0
VERTEX
  8
52572015
  6
CONTINUOUS
 62
         7
  5
738
 10
336.7298364007
 20
90.2274165221
 30
0.0
  0
VERTEX
  8
52572015
  6
CONTINUOUS
 62
         7
  5
739
 10
336.0687091476
 20
91.7623432661
 30
0.0
  0
VERTEX
  8
52572015
  6
CONTINUOUS
 62
         7
  5
73A
 10
335.3840433454
 20
93.2906247433
 30
0.0
  0
VERTEX
  8
52572015
  6
CONTINUOUS
 62
         7
  5
73B
 10
334.6761639329
 20
94.8115757077
 30
0.0
  0
VERTEX
  8
52572015
  6
CONTINUOUS
 62
         7
  5
73C
 10
333.9454164006
 20
96.3245183511
 30
0.0
  0
SEQEND
  8
52572015
  6
CONTINUOUS
 62
         7
  5
73D
  0
POLYLINE
  8
52572015
  6
CONTINUOUS
 62
         7
  5
73E
 66
         1
 10
0.0
 20
0.0
 30
0.0
  0
VERTEX
  8
52572015
  6
CONTINUOUS
 62
         7
  5
73F
 10
342.5282713587
 20
79.1286035022
 30
0.0
  0
VERTEX
  8
52572015
  6
CONTINUOUS
 62
         7
  5
740
 10
342.1602966772
 20
79.8764999564
 30
0.0
  0
VERTEX
  8
52572015
  6
CONTINUOUS
 62
         7
  5
741
 10
341.773552427
 20
80.5908461786
 30
0.0
  0
VERTEX
  8
52572015
  6
CONTINUOUS
 62
         7
  5
742
 10
341.3692142092
 20
81.2688807377
 30
0.0
  0
VERTEX
  8
52572015
  6
CONTINUOUS
 62
         7
  5
743
 10
340.9485902786
 20
81.9080680966
 30
0.0
  0
VERTEX
  8
52572015
  6
CONTINUOUS
 62
         7
  5
744
 10
340.5131076047
 20
82.5061298046
 30
0.0
  0
VERTEX
  8
52572015
  6
CONTINUOUS
 62
         7
  5
745
 10
340.0642957865
 20
83.0610714665
 30
0.0
  0
VERTEX
  8
52572015
  6
CONTINUOUS
 62
         7
  5
746
 10
339.6037692001
 20
83.5712048201
 30
0.0
  0
VERTEX
  8
52572015
  6
CONTINUOUS
 62
         7
  5
747
 10
339.1332078153
 20
84.0351644128
 30
0.0
  0
SEQEND
  8
52572015
  6
CONTINUOUS
 62
         7
  5
748
  0
POLYLINE
  8
52572015
  6
CONTINUOUS
 62
         7
  5
749
 66
         1
 10
0.0
 20
0.0
 30
0.0
  0
VERTEX
  8
52572015
  6
CONTINUOUS
 62
         7
  5
74A
 10
342.5282713587
 20
49.0240801672
 30
0.0
  0
VERTEX
  8
52572015
  6
CONTINUOUS
 62
         7
  5
74B
 10
343.426369743
 20
49.9712888541
 30
0.0
  0
VERTEX
  8
52572015
  6
CONTINUOUS
 62
         7
  5
74C
 10
344.2698398765
 20
50.9166394065
 30
0.0
  0
VERTEX
  8
52572015
  6
CONTINUOUS
 62
         7
  5
74D
 10
345.057768306
 20
51.8592463745
 30
0.0
  0
VERTEX
  8
52572015
  6
CONTINUOUS
 62
         7
  5
74E
 10
345.7893428596
 20
52.7982272227
 30
0.0
  0
VERTEX
  8
52572015
  6
CONTINUOUS
 62
         7
  5
74F
 10
346.4638554064
 20
53.7327050782
 30
0.0
  0
VERTEX
  8
52572015
  6
CONTINUOUS
 62
         7
  5
750
 10
347.0807041354
 20
54.6618114582
 30
0.0
  0
VERTEX
  8
52572015
  6
CONTINUOUS
 62
         7
  5
751
 10
347.6393953415
 20
55.5846889586
 30
0.0
  0
VERTEX
  8
52572015
  6
CONTINUOUS
 62
         7
  5
752
 10
348.1395447038
 20
56.5004938857
 30
0.0
  0
SEQEND
  8
52572015
  6
CONTINUOUS
 62
         7
  5
753
  0
POLYLINE
  8
52572015
  6
CONTINUOUS
 62
         7
  5
754
 66
         1
 10
0.0
 20
0.0
 30
0.0
  0
VERTEX
  8
52572015
  6
CONTINUOUS
 62
         7
  5
755
 10
348.1395447038
 20
56.5004938857
 30
0.0
  0
VERTEX
  8
52572015
  6
CONTINUOUS
 62
         7
  5
756
 10
348.322475347
 20
58.3639563847
 30
0.0
  0
VERTEX
  8
52572015
  6
CONTINUOUS
 62
         7
  5
757
 10
348.4543470998
 20
60.2534271417
 30
0.0
  0
VERTEX
  8
52572015
  6
CONTINUOUS
 62
         7
  5
758
 10
348.5339585423
 20
62.1604600276
 30
0.0
  0
VERTEX
  8
52572015
  6
CONTINUOUS
 62
         7
  5
759
 10
348.560577654
 20
64.0763418347
 30
0.0
  0
VERTEX
  8
52572015
  6
CONTINUOUS
 62
         7
  5
75A
 10
348.5339585423
 20
65.9922236418
 30
0.0
  0
VERTEX
  8
52572015
  6
CONTINUOUS
 62
         7
  5
75B
 10
348.4543470998
 20
67.8992565277
 30
0.0
  0
VERTEX
  8
52572015
  6
CONTINUOUS
 62
         7
  5
75C
 10
348.322475347
 20
69.7887272847
 30
0.0
  0
VERTEX
  8
52572015
  6
CONTINUOUS
 62
         7
  5
75D
 10
348.1395447038
 20
71.6521897837
 30
0.0
  0
SEQEND
  8
52572015
  6
CONTINUOUS
 62
         7
  5
75E
  0
POLYLINE
  8
52572015
  6
CONTINUOUS
 62
         7
  5
75F
 66
         1
 10
0.0
 20
0.0
 30
0.0
  0
VERTEX
  8
52572015
  6
CONTINUOUS
 62
         7
  5
760
 10
333.9454164006
 20
31.8281653183
 30
0.0
  0
VERTEX
  8
52572015
  6
CONTINUOUS
 62
         7
  5
761
 10
334.6761639329
 20
33.3411079617
 30
0.0
  0
VERTEX
  8
52572015
  6
CONTINUOUS
 62
         7
  5
762
 10
335.3840433454
 20
34.8620589262
 30
0.0
  0
VERTEX
  8
52572015
  6
CONTINUOUS
 62
         7
  5
763
 10
336.0687091476
 20
36.3903404033
 30
0.0
  0
VERTEX
  8
52572015
  6
CONTINUOUS
 62
         7
  5
764
 10
336.7298364007
 20
37.9252671474
 30
0.0
  0
VERTEX
  8
52572015
  6
CONTINUOUS
 62
         7
  5
765
 10
337.3671212299
 20
39.4661474978
 30
0.0
  0
VERTEX
  8
52572015
  6
CONTINUOUS
 62
         7
  5
766
 10
337.9802812898
 20
41.0122844183
 30
0.0
  0
VERTEX
  8
52572015
  6
CONTINUOUS
 62
         7
  5
767
 10
338.5690561805
 20
42.5629765471
 30
0.0
  0
VERTEX
  8
52572015
  6
CONTINUOUS
 62
         7
  5
768
 10
339.1332078153
 20
44.1175192566
 30
0.0
  0
SEQEND
  8
52572015
  6
CONTINUOUS
 62
         7
  5
769
  0
POLYLINE
  8
52572015
  6
CONTINUOUS
 62
         7
  5
76A
 66
         1
 10
0.0
 20
0.0
 30
0.0
  0
VERTEX
  8
52572015
  6
CONTINUOUS
 62
         7
  5
76B
 10
339.1332078153
 20
44.1175192566
 30
0.0
  0
VERTEX
  8
52572015
  6
CONTINUOUS
 62
         7
  5
76C
 10
339.6037692001
 20
44.5814788493
 30
0.0
  0
VERTEX
  8
52572015
  6
CONTINUOUS
 62
         7
  5
76D
 10
340.0642957865
 20
45.091612203
 30
0.0
  0
VERTEX
  8
52572015
  6
CONTINUOUS
 62
         7
  5
76E
 10
340.5131076047
 20
45.6465538648
 30
0.0
  0
VERTEX
  8
52572015
  6
CONTINUOUS
 62
         7
  5
76F
 10
340.9485902786
 20
46.2446155728
 30
0.0
  0
VERTEX
  8
52572015
  6
CONTINUOUS
 62
         7
  5
770
 10
341.3692142092
 20
46.8838029317
 30
0.0
  0
VERTEX
  8
52572015
  6
CONTINUOUS
 62
         7
  5
771
 10
341.773552427
 20
47.5618374908
 30
0.0
  0
VERTEX
  8
52572015
  6
CONTINUOUS
 62
         7
  5
772
 10
342.1602966772
 20
48.2761837131
 30
0.0
  0
VERTEX
  8
52572015
  6
CONTINUOUS
 62
         7
  5
773
 10
342.5282713587
 20
49.0240801672
 30
0.0
  0
SEQEND
  8
52572015
  6
CONTINUOUS
 62
         7
  5
774
  0
LINE
  8
52572015
  6
CONTINUOUS
 62
         7
  5
775
 10
283.7135889475
 20
81.2763418347
 30
0.0
 11
280.9423076554
 21
81.2763418347
 31
0.0
  0
POLYLINE
  8
52572015
  6
CONTINUOUS
 62
         7
  5
776
 66
         1
 10
0.0
 20
0.0
 30
0.0
  0
VERTEX
  8
52572015
  6
CONTINUOUS
 62
         7
  5
777
 10
331.9264369947
 20
31.5763418347
 30
0.0
  0
VERTEX
  8
52572015
  6
CONTINUOUS
 62
         7
  5
778
 10
332.4322851028
 20
31.5920922549
 30
0.0
  0
VERTEX
  8
52572015
  6
CONTINUOUS
 62
         7
  5
779
 10
332.9378878843
 20
31.6393588
 30
0.0
  0
VERTEX
  8
52572015
  6
CONTINUOUS
 62
         7
  5
77A
 10
333.4425093589
 20
31.7180956161
 30
0.0
  0
VERTEX
  8
52572015
  6
CONTINUOUS
 62
         7
  5
77B
 10
333.9454164006
 20
31.8281653183
 30
0.0
  0
SEQEND
  8
52572015
  6
CONTINUOUS
 62
         7
  5
77C
  0
LINE
  8
52572015
  6
CONTINUOUS
 62
         7
  5
77D
 10
314.6326243005
 20
87.0763418347
 30
0.0
 11
316.5954333141
 21
96.3245183511
 31
0.0
  0
LINE
  8
52572015
  6
CONTINUOUS
 62
         7
  5
77E
 10
342.5282713587
 20
79.1286035022
 30
0.0
 11
328.8017798059
 21
79.1286035022
 31
0.0
  0
LINE
  8
52572015
  6
CONTINUOUS
 62
         7
  5
77F
 10
342.5282713587
 20
49.0240801672
 30
0.0
 11
328.8017798059
 21
49.0240801672
 31
0.0
  0
LINE
  8
52572015
  6
CONTINUOUS
 62
         7
  5
780
 10
320.6333921259
 20
96.3245183511
 30
0.0
 11
322.9577423968
 21
85.372866182
 31
0.0
  0
POLYLINE
  8
52572015
  6
CONTINUOUS
 62
         7
  5
781
 66
         1
 10
0.0
 20
0.0
 30
0.0
  0
VERTEX
  8
52572015
  6
CONTINUOUS
 62
         7
  5
782
 10
320.6333921259
 20
96.3245183511
 30
0.0
  0
VERTEX
  8
52572015
  6
CONTINUOUS
 62
         7
  5
783
 10
320.1312182078
 20
96.4344506245
 30
0.0
  0
VERTEX
  8
52572015
  6
CONTINUOUS
 62
         7
  5
784
 10
319.6268442002
 20
96.5132025027
 30
0.0
  0
VERTEX
  8
52572015
  6
CONTINUOUS
 62
         7
  5
785
 10
319.1209975227
 20
96.5605454936
 30
0.0
  0
VERTEX
  8
52572015
  6
CONTINUOUS
 62
         7
  5
786
 10
318.61441272
 20
96.5763418347
 30
0.0
  0
VERTEX
  8
52572015
  6
CONTINUOUS
 62
         7
  5
787
 10
318.1078279173
 20
96.5605454936
 30
0.0
  0
VERTEX
  8
52572015
  6
CONTINUOUS
 62
         7
  5
788
 10
317.6019812399
 20
96.5132025027
 30
0.0
  0
VERTEX
  8
52572015
  6
CONTINUOUS
 62
         7
  5
789
 10
317.0976072322
 20
96.4344506245
 30
0.0
  0
VERTEX
  8
52572015
  6
CONTINUOUS
 62
         7
  5
78A
 10
316.5954333141
 20
96.3245183511
 30
0.0
  0
SEQEND
  8
52572015
  6
CONTINUOUS
 62
         7
  5
78B
  0
LINE
  8
52572015
  6
CONTINUOUS
 62
         7
  5
78C
 10
348.1395447038
 20
71.6521897837
 30
0.0
 11
336.9985797969
 21
71.6521897837
 31
0.0
  0
LINE
  8
52572015
  6
CONTINUOUS
 62
         7
  5
78D
 10
348.1395447038
 20
56.5004938857
 30
0.0
 11
336.9985797969
 21
56.5004938857
 31
0.0
  0
LINE
  8
52572015
  6
CONTINUOUS
 62
         7
  5
78E
 10
333.9454164006
 20
96.3245183511
 30
0.0
 11
320.6333921259
 21
96.3245183511
 31
0.0
  0
LINE
  8
52572015
  6
CONTINUOUS
 62
         7
  5
78F
 10
322.9577423968
 20
42.7798174874
 30
0.0
 11
320.6333921259
 21
31.8281653183
 31
0.0
  0
LINE
  8
52572015
  6
CONTINUOUS
 62
         7
  5
790
 10
339.1332078153
 20
84.0351644128
 30
0.0
 11
325.6284617901
 21
84.0351644128
 31
0.0
  0
LINE
  8
52572015
  6
CONTINUOUS
 62
         7
  5
791
 10
316.5954333141
 20
31.8281653183
 30
0.0
 11
314.6326243005
 21
41.0763418347
 31
0.0
  0
POLYLINE
  8
52572015
  6
CONTINUOUS
 62
         7
  5
792
 66
         1
 10
0.0
 20
0.0
 30
0.0
  0
VERTEX
  8
52572015
  6
CONTINUOUS
 62
         7
  5
793
 10
316.5954333141
 20
31.8281653183
 30
0.0
  0
VERTEX
  8
52572015
  6
CONTINUOUS
 62
         7
  5
794
 10
317.0976072322
 20
31.718233045
 30
0.0
  0
VERTEX
  8
52572015
  6
CONTINUOUS
 62
         7
  5
795
 10
317.6019812399
 20
31.6394811668
 30
0.0
  0
VERTEX
  8
52572015
  6
CONTINUOUS
 62
         7
  5
796
 10
318.1078279173
 20
31.5921381758
 30
0.0
  0
VERTEX
  8
52572015
  6
CONTINUOUS
 62
         7
  5
797
 10
318.61441272
 20
31.5763418347
 30
0.0
  0
VERTEX
  8
52572015
  6
CONTINUOUS
 62
         7
  5
798
 10
319.1209975227
 20
31.5921381758
 30
0.0
  0
VERTEX
  8
52572015
  6
CONTINUOUS
 62
         7
  5
799
 10
319.6268442002
 20
31.6394811668
 30
0.0
  0
VERTEX
  8
52572015
  6
CONTINUOUS
 62
         7
  5
79A
 10
320.1312182078
 20
31.718233045
 30
0.0
  0
VERTEX
  8
52572015
  6
CONTINUOUS
 62
         7
  5
79B
 10
320.6333921259
 20
31.8281653183
 30
0.0
  0
SEQEND
  8
52572015
  6
CONTINUOUS
 62
         7
  5
79C
  0
LINE
  8
52572015
  6
CONTINUOUS
 62
         7
  5
79D
 10
333.9454164006
 20
31.8281653183
 30
0.0
 11
320.6333921259
 21
31.8281653183
 31
0.0
  0
LINE
  8
52572015
  6
CONTINUOUS
 62
         7
  5
79E
 10
339.1332078153
 20
44.1175192566
 30
0.0
 11
325.6284617901
 21
44.1175192566
 31
0.0
  0
POLYLINE
  8
52572015
  6
CONTINUOUS
 62
         7
  5
79F
 66
         1
 10
0.0
 20
0.0
 30
0.0
  0
VERTEX
  8
52572015
  6
CONTINUOUS
 62
         7
  5
7A0
 10
348.1395447038
 20
71.6521897837
 30
0.0
  0
VERTEX
  8
52572015
  6
CONTINUOUS
 62
         7
  5
7A1
 10
347.6393953415
 20
72.5679947108
 30
0.0
  0
VERTEX
  8
52572015
  6
CONTINUOUS
 62
         7
  5
7A2
 10
347.0807041354
 20
73.4908722112
 30
0.0
  0
VERTEX
  8
52572015
  6
CONTINUOUS
 62
         7
  5
7A3
 10
346.4638554064
 20
74.4199785912
 30
0.0
  0
VERTEX
  8
52572015
  6
CONTINUOUS
 62
         7
  5
7A4
 10
345.7893428596
 20
75.3544564467
 30
0.0
  0
VERTEX
  8
52572015
  6
CONTINUOUS
 62
         7
  5
7A5
 10
345.057768306
 20
76.2934372949
 30
0.0
  0
VERTEX
  8
52572015
  6
CONTINUOUS
 62
         7
  5
7A6
 10
344.2698398765
 20
77.2360442629
 30
0.0
  0
VERTEX
  8
52572015
  6
CONTINUOUS
 62
         7
  5
7A7
 10
343.426369743
 20
78.1813948153
 30
0.0
  0
VERTEX
  8
52572015
  6
CONTINUOUS
 62
         7
  5
7A8
 10
342.5282713587
 20
79.1286035022
 30
0.0
  0
SEQEND
  8
52572015
  6
CONTINUOUS
 62
         7
  5
7A9
  0
POLYLINE
  8
52572015
  6
CONTINUOUS
 62
         7
  5
7AA
 66
         1
 10
0.0
 20
0.0
 30
0.0
  0
VERTEX
  8
52572015
  6
CONTINUOUS
 62
         7
  5
7AB
 10
310.3871713841
 20
50.8263418347
 30
0.0
  0
VERTEX
  8
52572015
  6
CONTINUOUS
 62
         7
  5
7AC
 10
310.6825155015
 20
50.8395148959
 30
0.0
  0
VERTEX
  8
52572015
  6
CONTINUOUS
 62
         7
  5
7AD
 10
310.9824570351
 20
50.8799392956
 30
0.0
  0
VERTEX
  8
52572015
  6
CONTINUOUS
 62
         7
  5
7AE
 10
311.2861533546
 20
50.9488963229
 30
0.0
  0
VERTEX
  8
52572015
  6
CONTINUOUS
 62
         7
  5
7AF
 10
311.5926766063
 20
51.0475457032
 30
0.0
  0
VERTEX
  8
52572015
  6
CONTINUOUS
 62
         7
  5
7B0
 10
311.901018085
 20
51.1769010459
 30
0.0
  0
VERTEX
  8
52572015
  6
CONTINUOUS
 62
         7
  5
7B1
 10
312.2100945574
 20
51.3378056387
 30
0.0
  0
VERTEX
  8
52572015
  6
CONTINUOUS
 62
         7
  5
7B2
 10
312.5187565859
 20
51.5309092751
 30
0.0
  0
VERTEX
  8
52572015
  6
CONTINUOUS
 62
         7
  5
7B3
 10
312.8257988349
 20
51.7566468456
 30
0.0
  0
VERTEX
  8
52572015
  6
CONTINUOUS
 62
         7
  5
7B4
 10
313.1299722676
 20
52.0152194469
 30
0.0
  0
VERTEX
  8
52572015
  6
CONTINUOUS
 62
         7
  5
7B5
 10
313.4299980631
 20
52.3065787442
 30
0.0
  0
VERTEX
  8
52572015
  6
CONTINUOUS
 62
         7
  5
7B6
 10
313.7245830027
 20
52.6304152776
 30
0.0
  0
VERTEX
  8
52572015
  6
CONTINUOUS
 62
         7
  5
7B7
 10
314.0124360002
 20
52.9861513111
 30
0.0
  0
VERTEX
  8
52572015
  6
CONTINUOUS
 62
         7
  5
7B8
 10
314.2922853821
 20
53.3729387008
 30
0.0
  0
VERTEX
  8
52572015
  6
CONTINUOUS
 62
         7
  5
7B9
 10
314.5628964715
 20
53.7896620993
 30
0.0
  0
VERTEX
  8
52572015
  6
CONTINUOUS
 62
         7
  5
7BA
 10
314.8230889938
 20
54.2349476327
 30
0.0
  0
VERTEX
  8
52572015
  6
CONTINUOUS
 62
         7
  5
7BB
 10
315.0717538094
 20
54.707176984
 30
0.0
  0
VERTEX
  8
52572015
  6
CONTINUOUS
 62
         7
  5
7BC
 10
315.3078684851
 20
55.2045066153
 30
0.0
  0
VERTEX
  8
52572015
  6
CONTINUOUS
 62
         7
  5
7BD
 10
315.5305112517
 20
55.7248916599
 30
0.0
  0
VERTEX
  8
52572015
  6
CONTINUOUS
 62
         7
  5
7BE
 10
315.738872951
 20
56.2661138385
 30
0.0
  0
VERTEX
  8
52572015
  6
CONTINUOUS
 62
         7
  5
7BF
 10
315.9322666459
 20
56.8258126024
 30
0.0
  0
VERTEX
  8
52572015
  6
CONTINUOUS
 62
         7
  5
7C0
 10
316.1101346626
 20
57.4015185975
 30
0.0
  0
VERTEX
  8
52572015
  6
CONTINUOUS
 62
         7
  5
7C1
 10
316.2720529293
 20
57.9906884767
 30
0.0
  0
VERTEX
  8
52572015
  6
CONTINUOUS
 62
         7
  5
7C2
 10
316.4177325779
 20
58.5907400676
 30
0.0
  0
VERTEX
  8
52572015
  6
CONTINUOUS
 62
         7
  5
7C3
 10
316.5470188786
 20
59.199086933
 30
0.0
  0
VERTEX
  8
52572015
  6
CONTINUOUS
 62
         7
  5
7C4
 10
316.6598876639
 20
59.813171431
 30
0.0
  0
VERTEX
  8
52572015
  6
CONTINUOUS
 62
         7
  5
7C5
 10
316.756439482
 20
60.430495488
 30
0.0
  0
VERTEX
  8
52572015
  6
CONTINUOUS
 62
         7
  5
7C6
 10
316.8368917785
 20
61.0486484328
 30
0.0
  0
VERTEX
  8
52572015
  6
CONTINUOUS
 62
         7
  5
7C7
 10
316.9015694498
 20
61.6653313903
 30
0.0
  0
VERTEX
  8
52572015
  6
CONTINUOUS
 62
         7
  5
7C8
 10
316.95089414
 20
62.2783778937
 30
0.0
  0
VERTEX
  8
52572015
  6
CONTINUOUS
 62
         7
  5
7C9
 10
316.9853726536
 20
62.8857705326
 30
0.0
  0
VERTEX
  8
52572015
  6
CONTINUOUS
 62
         7
  5
7CA
 10
317.0055848535
 20
63.4856535997
 30
0.0
  0
VERTEX
  8
52572015
  6
CONTINUOUS
 62
         7
  5
7CB
 10
317.0121713841
 20
64.0763418347
 30
0.0
  0
VERTEX
  8
52572015
  6
CONTINUOUS
 62
         7
  5
7CC
 10
317.0055848535
 20
64.6670300697
 30
0.0
  0
VERTEX
  8
52572015
  6
CONTINUOUS
 62
         7
  5
7CD
 10
316.9853726536
 20
65.2669131369
 30
0.0
  0
VERTEX
  8
52572015
  6
CONTINUOUS
 62
         7
  5
7CE
 10
316.95089414
 20
65.8743057758
 30
0.0
  0
VERTEX
  8
52572015
  6
CONTINUOUS
 62
         7
  5
7CF
 10
316.9015694498
 20
66.4873522792
 30
0.0
  0
VERTEX
  8
52572015
  6
CONTINUOUS
 62
         7
  5
7D0
 10
316.8368917785
 20
67.1040352366
 30
0.0
  0
VERTEX
  8
52572015
  6
CONTINUOUS
 62
         7
  5
7D1
 10
316.756439482
 20
67.7221881814
 30
0.0
  0
VERTEX
  8
52572015
  6
CONTINUOUS
 62
         7
  5
7D2
 10
316.6598876639
 20
68.3395122384
 30
0.0
  0
VERTEX
  8
52572015
  6
CONTINUOUS
 62
         7
  5
7D3
 10
316.5470188786
 20
68.9535967364
 30
0.0
  0
VERTEX
  8
52572015
  6
CONTINUOUS
 62
         7
  5
7D4
 10
316.4177325779
 20
69.5619436018
 30
0.0
  0
VERTEX
  8
52572015
  6
CONTINUOUS
 62
         7
  5
7D5
 10
316.2720529293
 20
70.1619951927
 30
0.0
  0
VERTEX
  8
52572015
  6
CONTINUOUS
 62
         7
  5
7D6
 10
316.1101346626
 20
70.7511650719
 30
0.0
  0
VERTEX
  8
52572015
  6
CONTINUOUS
 62
         7
  5
7D7
 10
315.9322666459
 20
71.3268710671
 30
0.0
  0
VERTEX
  8
52572015
  6
CONTINUOUS
 62
         7
  5
7D8
 10
315.738872951
 20
71.8865698309
 30
0.0
  0
VERTEX
  8
52572015
  6
CONTINUOUS
 62
         7
  5
7D9
 10
315.5305112517
 20
72.4277920095
 30
0.0
  0
VERTEX
  8
52572015
  6
CONTINUOUS
 62
         7
  5
7DA
 10
315.3078684851
 20
72.9481770542
 30
0.0
  0
VERTEX
  8
52572015
  6
CONTINUOUS
 62
         7
  5
7DB
 10
315.0717538094
 20
73.4455066854
 30
0.0
  0
VERTEX
  8
52572015
  6
CONTINUOUS
 62
         7
  5
7DC
 10
314.8230889938
 20
73.9177360367
 30
0.0
  0
VERTEX
  8
52572015
  6
CONTINUOUS
 62
         7
  5
7DD
 10
314.5628964715
 20
74.3630215701
 30
0.0
  0
VERTEX
  8
52572015
  6
CONTINUOUS
 62
         7
  5
7DE
 10
314.2922853821
 20
74.7797449687
 30
0.0
  0
VERTEX
  8
52572015
  6
CONTINUOUS
 62
         7
  5
7DF
 10
314.0124360002
 20
75.1665323584
 30
0.0
  0
VERTEX
  8
52572015
  6
CONTINUOUS
 62
         7
  5
7E0
 10
313.7245830027
 20
75.5222683919
 30
0.0
  0
VERTEX
  8
52572015
  6
CONTINUOUS
 62
         7
  5
7E1
 10
313.4299980631
 20
75.8461049252
 30
0.0
  0
VERTEX
  8
52572015
  6
CONTINUOUS
 62
         7
  5
7E2
 10
313.1299722676
 20
76.1374642225
 30
0.0
  0
VERTEX
  8
52572015
  6
CONTINUOUS
 62
         7
  5
7E3
 10
312.8257988349
 20
76.3960368238
 30
0.0
  0
VERTEX
  8
52572015
  6
CONTINUOUS
 62
         7
  5
7E4
 10
312.5187565859
 20
76.6217743944
 30
0.0
  0
VERTEX
  8
52572015
  6
CONTINUOUS
 62
         7
  5
7E5
 10
312.2100945574
 20
76.8148780307
 30
0.0
  0
VERTEX
  8
52572015
  6
CONTINUOUS
 62
         7
  5
7E6
 10
311.901018085
 20
76.9757826235
 30
0.0
  0
VERTEX
  8
52572015
  6
CONTINUOUS
 62
         7
  5
7E7
 10
311.5926766063
 20
77.1051379662
 30
0.0
  0
VERTEX
  8
52572015
  6
CONTINUOUS
 62
         7
  5
7E8
 10
311.2861533546
 20
77.2037873466
 30
0.0
  0
VERTEX
  8
52572015
  6
CONTINUOUS
 62
         7
  5
7E9
 10
310.9824570351
 20
77.2727443738
 30
0.0
  0
VERTEX
  8
52572015
  6
CONTINUOUS
 62
         7
  5
7EA
 10
310.6825155015
 20
77.3131687736
 30
0.0
  0
VERTEX
  8
52572015
  6
CONTINUOUS
 62
         7
  5
7EB
 10
310.3871713841
 20
77.3263418347
 30
0.0
  0
SEQEND
  8
52572015
  6
CONTINUOUS
 62
         7
  5
7EC
  0
ARC
  8
52572015
  6
CONTINUOUS
 62
         7
  5
7ED
 10
274.2932941123
 20
58.6252328395
 30
0.0
 40
25.5877158353
 50
29.9695436825
 51
51.8172456158
  0
ARC
  8
52572015
  6
CONTINUOUS
 62
         7
  5
7EE
 10
274.293294109
 20
69.5274508328
 30
0.0
 40
25.5877158395
 50
308.182754386
 51
330.0304563157
  0
ARC
  8
52572015
  6
CONTINUOUS
 62
         7
  5
7EF
 10
252.9120114613
 20
64.0763418347
 30
0.0
 40
44.1604414161
 50
350.4442283332
 51
354.8005556254
  0
ARC
  8
52572015
  6
CONTINUOUS
 62
         7
  5
7F0
 10
252.9120114613
 20
64.0763418347
 30
0.0
 40
44.1604414161
 50
5.1993820655
 51
9.5557716668
  0
POLYLINE
  8
52572015
  6
CONTINUOUS
 62
         7
  5
7F1
 66
         1
 10
0.0
 20
0.0
 30
0.0
  0
VERTEX
  8
52572015
  6
CONTINUOUS
 62
         7
  5
7F2
 10
283.7135889475
 20
46.8763418347
 30
0.0
  0
VERTEX
  8
52572015
  6
CONTINUOUS
 62
         7
  5
7F3
 10
284.0219089193
 20
46.8873990173
 30
0.0
  0
VERTEX
  8
52572015
  6
CONTINUOUS
 62
         7
  5
7F4
 10
284.3331062957
 20
46.9210279926
 30
0.0
  0
VERTEX
  8
52572015
  6
CONTINUOUS
 62
         7
  5
7F5
 10
284.6465988505
 20
46.977863245
 30
0.0
  0
VERTEX
  8
52572015
  6
CONTINUOUS
 62
         7
  5
7F6
 10
284.9617706546
 20
47.0584638911
 30
0.0
  0
VERTEX
  8
52572015
  6
CONTINUOUS
 62
         7
  5
7F7
 10
285.2779749223
 20
47.1633058539
 30
0.0
  0
VERTEX
  8
52572015
  6
CONTINUOUS
 62
         7
  5
7F8
 10
285.5945373641
 20
47.2927745078
 30
0.0
  0
VERTEX
  8
52572015
  6
CONTINUOUS
 62
         7
  5
7F9
 10
285.9107600255
 20
47.4471579396
 30
0.0
  0
VERTEX
  8
52572015
  6
CONTINUOUS
 62
         7
  5
7FA
 10
286.225925581
 20
47.6266409694
 30
0.0
  0
VERTEX
  8
52572015
  6
CONTINUOUS
 62
         7
  5
7FB
 10
286.5393020415
 20
47.8313000668
 30
0.0
  0
VERTEX
  8
52572015
  6
CONTINUOUS
 62
         7
  5
7FC
 10
286.8501478195
 20
48.0610992899
 30
0.0
  0
VERTEX
  8
52572015
  6
CONTINUOUS
 62
         7
  5
7FD
 10
287.1577170885
 20
48.3158873554
 30
0.0
  0
VERTEX
  8
52572015
  6
CONTINUOUS
 62
         7
  5
7FE
 10
287.4612653631
 20
48.5953959354
 30
0.0
  0
VERTEX
  8
52572015
  6
CONTINUOUS
 62
         7
  5
7FF
 10
287.7600552165
 20
48.8992392477
 30
0.0
  0
VERTEX
  8
52572015
  6
CONTINUOUS
 62
         7
  5
800
 10
288.0533620484
 20
49.2269149861
 30
0.0
  0
VERTEX
  8
52572015
  6
CONTINUOUS
 62
         7
  5
801
 10
288.340479812
 20
49.5778066083
 30
0.0
  0
VERTEX
  8
52572015
  6
CONTINUOUS
 62
         7
  5
802
 10
288.620726606
 20
49.9511869683
 30
0.0
  0
VERTEX
  8
52572015
  6
CONTINUOUS
 62
         7
  5
803
 10
288.8934500409
 20
50.346223255
 30
0.0
  0
VERTEX
  8
52572015
  6
CONTINUOUS
 62
         7
  5
804
 10
289.1580322905
 20
50.7619831667
 30
0.0
  0
VERTEX
  8
52572015
  6
CONTINUOUS
 62
         7
  5
805
 10
289.4138947477
 20
51.1974422258
 30
0.0
  0
VERTEX
  8
52572015
  6
CONTINUOUS
 62
         7
  5
806
 10
289.6605022105
 20
51.6514921145
 30
0.0
  0
VERTEX
  8
52572015
  6
CONTINUOUS
 62
         7
  5
807
 10
289.8973665349
 20
52.1229498895
 30
0.0
  0
VERTEX
  8
52572015
  6
CONTINUOUS
 62
         7
  5
808
 10
290.1240497048
 20
52.6105679176
 30
0.0
  0
VERTEX
  8
52572015
  6
CONTINUOUS
 62
         7
  5
809
 10
290.3401662795
 20
53.1130443629
 30
0.0
  0
VERTEX
  8
52572015
  6
CONTINUOUS
 62
         7
  5
80A
 10
290.545385197
 20
53.6290340466
 30
0.0
  0
VERTEX
  8
52572015
  6
CONTINUOUS
 62
         7
  5
80B
 10
290.739430922
 20
54.1571594996
 30
0.0
  0
VERTEX
  8
52572015
  6
CONTINUOUS
 62
         7
  5
80C
 10
290.9220839424
 20
54.6960220301
 30
0.0
  0
VERTEX
  8
52572015
  6
CONTINUOUS
 62
         7
  5
80D
 10
291.0931806335
 20
55.2442126354
 30
0.0
  0
VERTEX
  8
52572015
  6
CONTINUOUS
 62
         7
  5
80E
 10
291.2526125179
 20
55.8003225973
 30
0.0
  0
VERTEX
  8
52572015
  6
CONTINUOUS
 62
         7
  5
80F
 10
291.5363153553
 20
56.9307273617
 30
0.0
  0
VERTEX
  8
52572015
  6
CONTINUOUS
 62
         7
  5
810
 10
291.7733656193
 20
58.0763418347
 30
0.0
  0
SEQEND
  8
52572015
  6
CONTINUOUS
 62
         7
  5
811
  0
POLYLINE
  8
52572015
  6
CONTINUOUS
 62
         7
  5
812
 66
         1
 10
0.0
 20
0.0
 30
0.0
  0
VERTEX
  8
52572015
  6
CONTINUOUS
 62
         7
  5
813
 10
291.7733656193
 20
70.0763418347
 30
0.0
  0
VERTEX
  8
52572015
  6
CONTINUOUS
 62
         7
  5
814
 10
291.5363153553
 20
71.2219563078
 30
0.0
  0
VERTEX
  8
52572015
  6
CONTINUOUS
 62
         7
  5
815
 10
291.2526125179
 20
72.3523610721
 30
0.0
  0
VERTEX
  8
52572015
  6
CONTINUOUS
 62
         7
  5
816
 10
291.0931806335
 20
72.908471034
 30
0.0
  0
VERTEX
  8
52572015
  6
CONTINUOUS
 62
         7
  5
817
 10
290.9220839424
 20
73.4566616393
 30
0.0
  0
VERTEX
  8
52572015
  6
CONTINUOUS
 62
         7
  5
818
 10
290.739430922
 20
73.9955241698
 30
0.0
  0
VERTEX
  8
52572015
  6
CONTINUOUS
 62
         7
  5
819
 10
290.545385197
 20
74.5236496228
 30
0.0
  0
VERTEX
  8
52572015
  6
CONTINUOUS
 62
         7
  5
81A
 10
290.3401662795
 20
75.0396393065
 30
0.0
  0
VERTEX
  8
52572015
  6
CONTINUOUS
 62
         7
  5
81B
 10
290.1240497048
 20
75.5421157518
 30
0.0
  0
VERTEX
  8
52572015
  6
CONTINUOUS
 62
         7
  5
81C
 10
289.8973665349
 20
76.0297337799
 30
0.0
  0
VERTEX
  8
52572015
  6
CONTINUOUS
 62
         7
  5
81D
 10
289.6605022105
 20
76.5011915549
 30
0.0
  0
VERTEX
  8
52572015
  6
CONTINUOUS
 62
         7
  5
81E
 10
289.4138947477
 20
76.9552414437
 30
0.0
  0
VERTEX
  8
52572015
  6
CONTINUOUS
 62
         7
  5
81F
 10
289.1580322905
 20
77.3907005027
 30
0.0
  0
VERTEX
  8
52572015
  6
CONTINUOUS
 62
         7
  5
820
 10
288.8934500409
 20
77.8064604144
 30
0.0
  0
VERTEX
  8
52572015
  6
CONTINUOUS
 62
         7
  5
821
 10
288.620726606
 20
78.2014967011
 30
0.0
  0
VERTEX
  8
52572015
  6
CONTINUOUS
 62
         7
  5
822
 10
288.340479812
 20
78.5748770611
 30
0.0
  0
VERTEX
  8
52572015
  6
CONTINUOUS
 62
         7
  5
823
 10
288.0533620484
 20
78.9257686833
 30
0.0
  0
VERTEX
  8
52572015
  6
CONTINUOUS
 62
         7
  5
824
 10
287.7600552165
 20
79.2534444217
 30
0.0
  0
VERTEX
  8
52572015
  6
CONTINUOUS
 62
         7
  5
825
 10
287.4612653631
 20
79.557287734
 30
0.0
  0
VERTEX
  8
52572015
  6
CONTINUOUS
 62
         7
  5
826
 10
287.1577170885
 20
79.836796314
 30
0.0
  0
VERTEX
  8
52572015
  6
CONTINUOUS
 62
         7
  5
827
 10
286.8501478195
 20
80.0915843796
 30
0.0
  0
VERTEX
  8
52572015
  6
CONTINUOUS
 62
         7
  5
828
 10
286.5393020415
 20
80.3213836026
 30
0.0
  0
VERTEX
  8
52572015
  6
CONTINUOUS
 62
         7
  5
829
 10
286.225925581
 20
80.5260427001
 30
0.0
  0
VERTEX
  8
52572015
  6
CONTINUOUS
 62
         7
  5
82A
 10
285.9107600255
 20
80.7055257298
 30
0.0
  0
VERTEX
  8
52572015
  6
CONTINUOUS
 62
         7
  5
82B
 10
285.5945373641
 20
80.8599091616
 30
0.0
  0
VERTEX
  8
52572015
  6
CONTINUOUS
 62
         7
  5
82C
 10
285.2779749223
 20
80.9893778155
 30
0.0
  0
VERTEX
  8
52572015
  6
CONTINUOUS
 62
         7
  5
82D
 10
284.9617706546
 20
81.0942197783
 30
0.0
  0
VERTEX
  8
52572015
  6
CONTINUOUS
 62
         7
  5
82E
 10
284.6465988505
 20
81.1748204244
 30
0.0
  0
VERTEX
  8
52572015
  6
CONTINUOUS
 62
         7
  5
82F
 10
284.3331062957
 20
81.2316556768
 30
0.0
  0
VERTEX
  8
52572015
  6
CONTINUOUS
 62
         7
  5
830
 10
284.0219089193
 20
81.2652846521
 30
0.0
  0
VERTEX
  8
52572015
  6
CONTINUOUS
 62
         7
  5
831
 10
283.7135889475
 20
81.2763418347
 30
0.0
  0
SEQEND
  8
52572015
  6
CONTINUOUS
 62
         7
  5
832
  0
LINE
  8
52572015
  6
CONTINUOUS
 62
         7
  5
833
 10
296.4597036612
 20
71.4073097199
 30
0.0
 11
291.4864534206
 21
71.4363901722
 31
0.0
  0
POLYLINE
  8
52572015
  6
CONTINUOUS
 62
         7
  5
834
 66
         1
 10
0.0
 20
0.0
 30
0.0
  0
VERTEX
  8
52572015
  6
CONTINUOUS
 62
         7
  5
835
 10
280.9423076554
 20
46.8763418347
 30
0.0
  0
VERTEX
  8
52572015
  6
CONTINUOUS
 62
         7
  5
836
 10
281.2506276272
 20
46.8873990173
 30
0.0
  0
VERTEX
  8
52572015
  6
CONTINUOUS
 62
         7
  5
837
 10
281.5618250036
 20
46.9210279926
 30
0.0
  0
VERTEX
  8
52572015
  6
CONTINUOUS
 62
         7
  5
838
 10
281.8753175584
 20
46.977863245
 30
0.0
  0
VERTEX
  8
52572015
  6
CONTINUOUS
 62
         7
  5
839
 10
282.1904893625
 20
47.0584638911
 30
0.0
  0
VERTEX
  8
52572015
  6
CONTINUOUS
 62
         7
  5
83A
 10
282.5066936302
 20
47.1633058539
 30
0.0
  0
VERTEX
  8
52572015
  6
CONTINUOUS
 62
         7
  5
83B
 10
282.823256072
 20
47.2927745078
 30
0.0
  0
VERTEX
  8
52572015
  6
CONTINUOUS
 62
         7
  5
83C
 10
283.1394787334
 20
47.4471579396
 30
0.0
  0
VERTEX
  8
52572015
  6
CONTINUOUS
 62
         7
  5
83D
 10
283.4546442889
 20
47.6266409694
 30
0.0
  0
VERTEX
  8
52572015
  6
CONTINUOUS
 62
         7
  5
83E
 10
283.7680207494
 20
47.8313000668
 30
0.0
  0
VERTEX
  8
52572015
  6
CONTINUOUS
 62
         7
  5
83F
 10
284.0788665274
 20
48.0610992899
 30
0.0
  0
VERTEX
  8
52572015
  6
CONTINUOUS
 62
         7
  5
840
 10
284.3864357964
 20
48.3158873554
 30
0.0
  0
VERTEX
  8
52572015
  6
CONTINUOUS
 62
         7
  5
841
 10
284.689984071
 20
48.5953959354
 30
0.0
  0
VERTEX
  8
52572015
  6
CONTINUOUS
 62
         7
  5
842
 10
284.9887739243
 20
48.8992392477
 30
0.0
  0
VERTEX
  8
52572015
  6
CONTINUOUS
 62
         7
  5
843
 10
285.2820807563
 20
49.2269149861
 30
0.0
  0
VERTEX
  8
52572015
  6
CONTINUOUS
 62
         7
  5
844
 10
285.5691985199
 20
49.5778066083
 30
0.0
  0
VERTEX
  8
52572015
  6
CONTINUOUS
 62
         7
  5
845
 10
285.8494453139
 20
49.9511869683
 30
0.0
  0
VERTEX
  8
52572015
  6
CONTINUOUS
 62
         7
  5
846
 10
286.1221687488
 20
50.346223255
 30
0.0
  0
VERTEX
  8
52572015
  6
CONTINUOUS
 62
         7
  5
847
 10
286.3867509983
 20
50.7619831667
 30
0.0
  0
VERTEX
  8
52572015
  6
CONTINUOUS
 62
         7
  5
848
 10
286.6426134556
 20
51.1974422258
 30
0.0
  0
VERTEX
  8
52572015
  6
CONTINUOUS
 62
         7
  5
849
 10
286.8892209184
 20
51.6514921145
 30
0.0
  0
VERTEX
  8
52572015
  6
CONTINUOUS
 62
         7
  5
84A
 10
287.1260852428
 20
52.1229498895
 30
0.0
  0
VERTEX
  8
52572015
  6
CONTINUOUS
 62
         7
  5
84B
 10
287.3527684127
 20
52.6105679176
 30
0.0
  0
VERTEX
  8
52572015
  6
CONTINUOUS
 62
         7
  5
84C
 10
287.5688849873
 20
53.1130443629
 30
0.0
  0
VERTEX
  8
52572015
  6
CONTINUOUS
 62
         7
  5
84D
 10
287.7741039049
 20
53.6290340466
 30
0.0
  0
VERTEX
  8
52572015
  6
CONTINUOUS
 62
         7
  5
84E
 10
287.9681496299
 20
54.1571594996
 30
0.0
  0
VERTEX
  8
52572015
  6
CONTINUOUS
 62
         7
  5
84F
 10
288.1508026502
 20
54.6960220301
 30
0.0
  0
VERTEX
  8
52572015
  6
CONTINUOUS
 62
         7
  5
850
 10
288.3218993414
 20
55.2442126354
 30
0.0
  0
VERTEX
  8
52572015
  6
CONTINUOUS
 62
         7
  5
851
 10
288.4813312258
 20
55.8003225973
 30
0.0
  0
VERTEX
  8
52572015
  6
CONTINUOUS
 62
         7
  5
852
 10
288.7650340631
 20
56.9307273617
 30
0.0
  0
VERTEX
  8
52572015
  6
CONTINUOUS
 62
         7
  5
853
 10
289.0020843272
 20
58.0763418347
 30
0.0
  0
SEQEND
  8
52572015
  6
CONTINUOUS
 62
         7
  5
854
  0
POLYLINE
  8
52572015
  6
CONTINUOUS
 62
         7
  5
855
 66
         1
 10
0.0
 20
0.0
 30
0.0
  0
VERTEX
  8
52572015
  6
CONTINUOUS
 62
         7
  5
856
 10
289.0020843272
 20
70.0763418347
 30
0.0
  0
VERTEX
  8
52572015
  6
CONTINUOUS
 62
         7
  5
857
 10
288.8765123297
 20
70.7121224778
 30
0.0
  0
VERTEX
  8
52572015
  6
CONTINUOUS
 62
         7
  5
858
 10
288.7364686536
 20
71.3457446532
 30
0.0
  0
VERTEX
  8
52572015
  6
CONTINUOUS
 62
         7
  5
859
 10
288.5817622447
 20
71.9753882526
 30
0.0
  0
VERTEX
  8
52572015
  6
CONTINUOUS
 62
         7
  5
85A
 10
288.4122733739
 20
72.5991611252
 30
0.0
  0
VERTEX
  8
52572015
  6
CONTINUOUS
 62
         7
  5
85B
 10
288.2279592448
 20
73.2151121934
 30
0.0
  0
VERTEX
  8
52572015
  6
CONTINUOUS
 62
         7
  5
85C
 10
288.0288589275
 20
73.8212463633
 30
0.0
  0
VERTEX
  8
52572015
  6
CONTINUOUS
 62
         7
  5
85D
 10
287.8150974612
 20
74.4155410852
 30
0.0
  0
VERTEX
  8
52572015
  6
CONTINUOUS
 62
         7
  5
85E
 10
287.586888982
 20
74.9959643546
 30
0.0
  0
VERTEX
  8
52572015
  6
CONTINUOUS
 62
         7
  5
85F
 10
287.3445387407
 20
75.560493894
 30
0.0
  0
VERTEX
  8
52572015
  6
CONTINUOUS
 62
         7
  5
860
 10
287.0884438993
 20
76.1071371984
 30
0.0
  0
VERTEX
  8
52572015
  6
CONTINUOUS
 62
         7
  5
861
 10
286.8190930184
 20
76.6339520846
 30
0.0
  0
VERTEX
  8
52572015
  6
CONTINUOUS
 62
         7
  5
862
 10
286.5370641784
 20
77.1390673463
 30
0.0
  0
VERTEX
  8
52572015
  6
CONTINUOUS
 62
         7
  5
863
 10
286.243021713
 20
77.6207030939
 30
0.0
  0
VERTEX
  8
52572015
  6
CONTINUOUS
 62
         7
  5
864
 10
285.9377115684
 20
78.0771903442
 30
0.0
  0
VERTEX
  8
52572015
  6
CONTINUOUS
 62
         7
  5
865
 10
285.6219553439
 20
78.5069894309
 30
0.0
  0
VERTEX
  8
52572015
  6
CONTINUOUS
 62
         7
  5
866
 10
285.2966431038
 20
78.9087068252
 30
0.0
  0
VERTEX
  8
52572015
  6
CONTINUOUS
 62
         7
  5
867
 10
284.9627250889
 20
79.2811099895
 30
0.0
  0
VERTEX
  8
52572015
  6
CONTINUOUS
 62
         7
  5
868
 10
284.6212024894
 20
79.6231399359
 30
0.0
  0
VERTEX
  8
52572015
  6
CONTINUOUS
 62
         7
  5
869
 10
284.2731174644
 20
79.9339212233
 30
0.0
  0
VERTEX
  8
52572015
  6
CONTINUOUS
 62
         7
  5
86A
 10
283.9195426177
 20
80.2127691938
 30
0.0
  0
VERTEX
  8
52572015
  6
CONTINUOUS
 62
         7
  5
86B
 10
283.5615701517
 20
80.4591943306
 30
0.0
  0
VERTEX
  8
52572015
  6
CONTINUOUS
 62
         7
  5
86C
 10
283.2003009239
 20
80.6729036955
 30
0.0
  0
VERTEX
  8
52572015
  6
CONTINUOUS
 62
         7
  5
86D
 10
282.8368336331
 20
80.8537994872
 30
0.0
  0
VERTEX
  8
52572015
  6
CONTINUOUS
 62
         7
  5
86E
 10
282.4722543465
 20
81.0019748359
 30
0.0
  0
VERTEX
  8
52572015
  6
CONTINUOUS
 62
         7
  5
86F
 10
282.107626566
 20
81.1177070191
 30
0.0
  0
VERTEX
  8
52572015
  6
CONTINUOUS
 62
         7
  5
870
 10
281.7439820057
 20
81.2014483437
 30
0.0
  0
VERTEX
  8
52572015
  6
CONTINUOUS
 62
         7
  5
871
 10
281.3823122281
 20
81.2538149872
 30
0.0
  0
VERTEX
  8
52572015
  6
CONTINUOUS
 62
         7
  5
872
 10
281.0235612522
 20
81.2755741261
 30
0.0
  0
VERTEX
  8
52572015
  6
CONTINUOUS
 62
         7
  5
873
 10
280.6686192174
 20
81.2676297026
 30
0.0
  0
VERTEX
  8
52572015
  6
CONTINUOUS
 62
         7
  5
874
 10
280.318317153
 20
81.2310071888
 30
0.0
  0
VERTEX
  8
52572015
  6
CONTINUOUS
 62
         7
  5
875
 10
279.9734228708
 20
81.1668377051
 30
0.0
  0
VERTEX
  8
52572015
  6
CONTINUOUS
 62
         7
  5
876
 10
279.6346379723
 20
81.0763418347
 30
0.0
  0
SEQEND
  8
52572015
  6
CONTINUOUS
 62
         7
  5
877
  0
POLYLINE
  8
52572015
  6
CONTINUOUS
 62
         7
  5
878
 66
         1
 10
0.0
 20
0.0
 30
0.0
  0
VERTEX
  8
52572015
  6
CONTINUOUS
 62
         7
  5
879
 10
279.6346379723
 20
47.0763418347
 30
0.0
  0
VERTEX
  8
52572015
  6
CONTINUOUS
 62
         7
  5
87A
 10
279.9597668689
 20
46.9889647858
 30
0.0
  0
VERTEX
  8
52572015
  6
CONTINUOUS
 62
         7
  5
87B
 10
280.286563803
 20
46.9264147212
 30
0.0
  0
VERTEX
  8
52572015
  6
CONTINUOUS
 62
         7
  5
87C
 10
280.6143162856
 20
46.8888554959
 30
0.0
  0
VERTEX
  8
52572015
  6
CONTINUOUS
 62
         7
  5
87D
 10
280.9423076554
 20
46.8763418347
 30
0.0
  0
SEQEND
  8
52572015
  6
CONTINUOUS
 62
         7
  5
87E
  0
LINE
  8
52572015
  6
CONTINUOUS
 62
         7
  5
87F
 10
276.0523730153
 20
79.0763418347
 30
0.0
 11
269.9901951888
 21
79.0763418347
 31
0.0
  0
LINE
  8
52572015
  6
CONTINUOUS
 62
         7
  5
880
 10
267.2891850621
 20
50.0763418347
 30
0.0
 11
267.4901951888
 21
49.934206211
 31
0.0
  0
LINE
  8
52572015
  6
CONTINUOUS
 62
         7
  5
881
 10
280.9423076554
 20
81.0763418347
 30
0.0
 11
277.7844238229
 21
81.0763418347
 31
0.0
  0
LINE
  8
52572015
  6
CONTINUOUS
 62
         7
  5
882
 10
268.4901951888
 20
78.0763418347
 30
0.0
 11
252.5296945151
 21
78.0763418347
 31
0.0
  0
LINE
  8
52572015
  6
CONTINUOUS
 62
         7
  5
883
 10
306.2070565335
 20
69.5763418347
 30
0.0
 11
305.3987661566
 21
70.9763418347
 31
0.0
  0
LINE
  8
52572015
  6
CONTINUOUS
 62
         7
  5
884
 10
299.7070565335
 20
70.0763418347
 30
0.0
 11
298.3570565335
 21
70.0763418347
 31
0.0
  0
LINE
  8
52572015
  6
CONTINUOUS
 62
         7
  5
885
 10
305.3987661566
 20
70.9763418347
 30
0.0
 11
300.6070565335
 21
70.9763418347
 31
0.0
  0
LINE
  8
52572015
  6
CONTINUOUS
 62
         7
  5
886
 10
299.7070565335
 20
58.0763418347
 30
0.0
 11
300.6070565335
 21
57.1763418347
 31
0.0
  0
LINE
  8
52572015
  6
CONTINUOUS
 62
         7
  5
887
 10
298.3570565335
 20
70.8263418347
 30
0.0
 11
297.2070565335
 21
70.8263418347
 31
0.0
  0
LINE
  8
52572015
  6
CONTINUOUS
 62
         7
  5
888
 10
297.2070565335
 20
70.8263418347
 30
0.0
 11
297.2070565335
 21
57.3263418347
 31
0.0
  0
LINE
  8
52572015
  6
CONTINUOUS
 62
         7
  5
889
 10
298.3570565335
 20
70.8263418347
 30
0.0
 11
298.3570565335
 21
57.3263418347
 31
0.0
  0
LINE
  8
52572015
  6
CONTINUOUS
 62
         7
  5
88A
 10
299.7070565335
 20
70.0763418347
 30
0.0
 11
299.7070565335
 21
58.0763418347
 31
0.0
  0
LINE
  8
52572015
  6
CONTINUOUS
 62
         7
  5
88B
 10
300.6070565335
 20
70.9763418347
 30
0.0
 11
300.6070565335
 21
57.1763418347
 31
0.0
  0
POLYLINE
  8
52572015
  6
CONTINUOUS
 62
         7
  5
88C
 66
         1
 10
0.0
 20
0.0
 30
0.0
  0
VERTEX
  8
52572015
  6
CONTINUOUS
 62
         7
  5
88D
 10
304.3249935576
 20
50.8263418347
 30
0.0
  0
VERTEX
  8
52572015
  6
CONTINUOUS
 62
         7
  5
88E
 10
304.6455908132
 20
50.841865283
 30
0.0
  0
VERTEX
  8
52572015
  6
CONTINUOUS
 62
         7
  5
88F
 10
304.9723374565
 20
50.8897469935
 30
0.0
  0
VERTEX
  8
52572015
  6
CONTINUOUS
 62
         7
  5
890
 10
305.304174565
 20
50.9718648051
 30
0.0
  0
VERTEX
  8
52572015
  6
CONTINUOUS
 62
         7
  5
891
 10
305.6399072112
 20
51.089944785
 30
0.0
  0
VERTEX
  8
52572015
  6
CONTINUOUS
 62
         7
  5
892
 10
305.9782087284
 20
51.2455188527
 30
0.0
  0
VERTEX
  8
52572015
  6
CONTINUOUS
 62
         7
  5
893
 10
306.3176285925
 20
51.4398817896
 30
0.0
  0
VERTEX
  8
52572015
  6
CONTINUOUS
 62
         7
  5
894
 10
306.6566041583
 20
51.6740489811
 30
0.0
  0
VERTEX
  8
52572015
  6
CONTINUOUS
 62
         7
  5
895
 10
306.9934763553
 20
51.9487164186
 30
0.0
  0
VERTEX
  8
52572015
  6
CONTINUOUS
 62
         7
  5
896
 10
307.3265092775
 20
52.2642246014
 30
0.0
  0
VERTEX
  8
52572015
  6
CONTINUOUS
 62
         7
  5
897
 10
307.653913418
 20
52.6205280159
 30
0.0
  0
VERTEX
  8
52572015
  6
CONTINUOUS
 62
         7
  5
898
 10
307.9738720964
 20
53.01717181
 30
0.0
  0
VERTEX
  8
52572015
  6
CONTINUOUS
 62
         7
  5
899
 10
308.2845704301
 20
53.4532771187
 30
0.0
  0
VERTEX
  8
52572015
  6
CONTINUOUS
 62
         7
  5
89A
 10
308.5842260182
 20
53.927536221
 30
0.0
  0
VERTEX
  8
52572015
  6
CONTINUOUS
 62
         7
  5
89B
 10
308.8711203597
 20
54.4382183453
 30
0.0
  0
VERTEX
  8
52572015
  6
CONTINUOUS
 62
         7
  5
89C
 10
309.143629924
 20
54.9831864818
 30
0.0
  0
VERTEX
  8
52572015
  6
CONTINUOUS
 62
         7
  5
89D
 10
309.4002557521
 20
55.5599250632
 30
0.0
  0
VERTEX
  8
52572015
  6
CONTINUOUS
 62
         7
  5
89E
 10
309.6396504879
 20
56.1655778481
 30
0.0
  0
VERTEX
  8
52572015
  6
CONTINUOUS
 62
         7
  5
89F
 10
309.860641834
 20
56.796994842
 30
0.0
  0
VERTEX
  8
52572015
  6
CONTINUOUS
 62
         7
  5
8A0
 10
310.0622515801
 20
57.4507866481
 30
0.0
  0
VERTEX
  8
52572015
  6
CONTINUOUS
 62
         7
  5
8A1
 10
310.2437095601
 20
58.1233842902
 30
0.0
  0
VERTEX
  8
52572015
  6
CONTINUOUS
 62
         7
  5
8A2
 10
310.4044621381
 20
58.8111023233
 30
0.0
  0
VERTEX
  8
52572015
  6
CONTINUOUS
 62
         7
  5
8A3
 10
310.5441750893
 20
59.5102029515
 30
0.0
  0
VERTEX
  8
52572015
  6
CONTINUOUS
 62
         7
  5
8A4
 10
310.6627309986
 20
60.216958916
 30
0.0
  0
VERTEX
  8
52572015
  6
CONTINUOUS
 62
         7
  5
8A5
 10
310.7602215455
 20
60.9277130898
 30
0.0
  0
VERTEX
  8
52572015
  6
CONTINUOUS
 62
         7
  5
8A6
 10
310.8369352441
 20
61.6389329879
 30
0.0
  0
VERTEX
  8
52572015
  6
CONTINUOUS
 62
         7
  5
8A7
 10
310.8933413662
 20
62.3472587661
 30
0.0
  0
VERTEX
  8
52572015
  6
CONTINUOUS
 62
         7
  5
8A8
 10
310.9300708764
 20
63.0495436797
 30
0.0
  0
VERTEX
  8
52572015
  6
CONTINUOUS
 62
         7
  5
8A9
 10
310.947895253
 20
63.7428863967
 30
0.0
  0
VERTEX
  8
52572015
  6
CONTINUOUS
 62
         7
  5
8AA
 10
310.947704067
 20
64.4246549603
 30
0.0
  0
VERTEX
  8
52572015
  6
CONTINUOUS
 62
         7
  5
8AB
 10
310.9304821347
 20
65.0925025638
 30
0.0
  0
VERTEX
  8
52572015
  6
CONTINUOUS
 62
         7
  5
8AC
 10
310.8972869804
 20
65.7443756042
 30
0.0
  0
VERTEX
  8
52572015
  6
CONTINUOUS
 62
         7
  5
8AD
 10
310.849227229
 20
66.3785147214
 30
0.0
  0
VERTEX
  8
52572015
  6
CONTINUOUS
 62
         7
  5
8AE
 10
310.7858801413
 20
67.0072594744
 30
0.0
  0
VERTEX
  8
52572015
  6
CONTINUOUS
 62
         7
  5
8AF
 10
310.7055315578
 20
67.6424937261
 30
0.0
  0
VERTEX
  8
52572015
  6
CONTINUOUS
 62
         7
  5
8B0
 10
310.6074408268
 20
68.2818055712
 30
0.0
  0
VERTEX
  8
52572015
  6
CONTINUOUS
 62
         7
  5
8B1
 10
310.4909656588
 20
68.9225416022
 30
0.0
  0
VERTEX
  8
52572015
  6
CONTINUOUS
 62
         7
  5
8B2
 10
310.3555822511
 20
69.5618226738
 30
0.0
  0
VERTEX
  8
52572015
  6
CONTINUOUS
 62
         7
  5
8B3
 10
310.2009050869
 20
70.1965668957
 30
0.0
  0
VERTEX
  8
52572015
  6
CONTINUOUS
 62
         7
  5
8B4
 10
310.0267057034
 20
70.8235200913
 30
0.0
  0
VERTEX
  8
52572015
  6
CONTINUOUS
 62
         7
  5
8B5
 10
309.8329296594
 20
71.4392936607
 30
0.0
  0
VERTEX
  8
52572015
  6
CONTINUOUS
 62
         7
  5
8B6
 10
309.6197109067
 20
72.0404094369
 30
0.0
  0
VERTEX
  8
52572015
  6
CONTINUOUS
 62
         7
  5
8B7
 10
309.3873827807
 20
72.6233507509
 30
0.0
  0
VERTEX
  8
52572015
  6
CONTINUOUS
 62
         7
  5
8B8
 10
309.1364848945
 20
73.1846185355
 30
0.0
  0
VERTEX
  8
52572015
  6
CONTINUOUS
 62
         7
  5
8B9
 10
308.8677653308
 20
73.7207909358
 30
0.0
  0
VERTEX
  8
52572015
  6
CONTINUOUS
 62
         7
  5
8BA
 10
308.582177695
 20
74.2285845859
 30
0.0
  0
VERTEX
  8
52572015
  6
CONTINUOUS
 62
         7
  5
8BB
 10
308.280872798
 20
74.7049154803
 30
0.0
  0
VERTEX
  8
52572015
  6
CONTINUOUS
 62
         7
  5
8BC
 10
307.9651849794
 20
75.1469572489
 30
0.0
  0
VERTEX
  8
52572015
  6
CONTINUOUS
 62
         7
  5
8BD
 10
307.6366133345
 20
75.5521946489
 30
0.0
  0
VERTEX
  8
52572015
  6
CONTINUOUS
 62
         7
  5
8BE
 10
307.2967983637
 20
75.9184702235
 30
0.0
  0
VERTEX
  8
52572015
  6
CONTINUOUS
 62
         7
  5
8BF
 10
306.9474947941
 20
76.2440223474
 30
0.0
  0
VERTEX
  8
52572015
  6
CONTINUOUS
 62
         7
  5
8C0
 10
306.5905415106
 20
76.5275132611
 30
0.0
  0
VERTEX
  8
52572015
  6
CONTINUOUS
 62
         7
  5
8C1
 10
306.2278296747
 20
76.7680461665
 30
0.0
  0
VERTEX
  8
52572015
  6
CONTINUOUS
 62
         7
  5
8C2
 10
305.8612701747
 20
76.9651709756
 30
0.0
  0
VERTEX
  8
52572015
  6
CONTINUOUS
 62
         7
  5
8C3
 10
305.4927615539
 20
77.1188788436
 30
0.0
  0
VERTEX
  8
52572015
  6
CONTINUOUS
 62
         7
  5
8C4
 10
305.1241594964
 20
77.2295861193
 30
0.0
  0
VERTEX
  8
52572015
  6
CONTINUOUS
 62
         7
  5
8C5
 10
304.7572488242
 20
77.2981087945
 30
0.0
  0
VERTEX
  8
52572015
  6
CONTINUOUS
 62
         7
  5
8C6
 10
304.3937187862
 20
77.3256288862
 30
0.0
  0
VERTEX
  8
52572015
  6
CONTINUOUS
 62
         7
  5
8C7
 10
304.0351422173
 20
77.3136544322
 30
0.0
  0
VERTEX
  8
52572015
  6
CONTINUOUS
 62
         7
  5
8C8
 10
303.6829589296
 20
77.2639749107
 30
0.0
  0
VERTEX
  8
52572015
  6
CONTINUOUS
 62
         7
  5
8C9
 10
303.3384634808
 20
77.1786139136
 30
0.0
  0
VERTEX
  8
52572015
  6
CONTINUOUS
 62
         7
  5
8CA
 10
303.0027972713
 20
77.0597808214
 30
0.0
  0
VERTEX
  8
52572015
  6
CONTINUOUS
 62
         7
  5
8CB
 10
302.6769447462
 20
76.909823064
 30
0.0
  0
VERTEX
  8
52572015
  6
CONTINUOUS
 62
         7
  5
8CC
 10
302.3617333458
 20
76.7311803309
 30
0.0
  0
VERTEX
  8
52572015
  6
CONTINUOUS
 62
         7
  5
8CD
 10
302.0578367478
 20
76.5263418347
 30
0.0
  0
SEQEND
  8
52572015
  6
CONTINUOUS
 62
         7
  5
8CE
  0
POLYLINE
  8
52572015
  6
CONTINUOUS
 62
         7
  5
8CF
 66
         1
 10
0.0
 20
0.0
 30
0.0
  0
VERTEX
  8
52572015
  6
CONTINUOUS
 62
         7
  5
8D0
 10
302.0578367478
 20
51.6263418347
 30
0.0
  0
VERTEX
  8
52572015
  6
CONTINUOUS
 62
         7
  5
8D1
 10
302.3307662924
 20
51.4408865418
 30
0.0
  0
VERTEX
  8
52572015
  6
CONTINUOUS
 62
         7
  5
8D2
 10
302.6082686586
 20
51.278923248
 30
0.0
  0
VERTEX
  8
52572015
  6
CONTINUOUS
 62
         7
  5
8D3
 10
302.8895795975
 20
51.141085863
 30
0.0
  0
VERTEX
  8
52572015
  6
CONTINUOUS
 62
         7
  5
8D4
 10
303.1739071142
 20
51.0278744918
 30
0.0
  0
VERTEX
  8
52572015
  6
CONTINUOUS
 62
         7
  5
8D5
 10
303.4604388512
 20
50.9396496849
 30
0.0
  0
VERTEX
  8
52572015
  6
CONTINUOUS
 62
         7
  5
8D6
 10
303.7483498064
 20
50.8766286584
 30
0.0
  0
VERTEX
  8
52572015
  6
CONTINUOUS
 62
         7
  5
8D7
 10
304.0368102322
 20
50.8388835634
 30
0.0
  0
VERTEX
  8
52572015
  6
CONTINUOUS
 62
         7
  5
8D8
 10
304.3249935576
 20
50.8263418347
 30
0.0
  0
SEQEND
  8
52572015
  6
CONTINUOUS
 62
         7
  5
8D9
  0
LINE
  8
52572015
  6
CONTINUOUS
 62
         7
  5
8DA
 10
327.4313390698
 20
56.1400081978
 30
0.0
 11
319.1015773253
 21
49.0684600266
 31
0.0
  0
POLYLINE
  8
52572015
  6
CONTINUOUS
 62
         7
  5
8DB
 66
         1
 10
0.0
 20
0.0
 30
0.0
  0
VERTEX
  8
52572015
  6
CONTINUOUS
 62
         7
  5
8DC
 10
327.4313390698
 20
56.1400081978
 30
0.0
  0
VERTEX
  8
52572015
  6
CONTINUOUS
 62
         7
  5
8DD
 10
327.5371062126
 20
57.1107879076
 30
0.0
  0
VERTEX
  8
52572015
  6
CONTINUOUS
 62
         7
  5
8DE
 10
327.6292963602
 20
58.0899819033
 30
0.0
  0
VERTEX
  8
52572015
  6
CONTINUOUS
 62
         7
  5
8DF
 10
327.707687436
 20
59.0764523579
 30
0.0
  0
VERTEX
  8
52572015
  6
CONTINUOUS
 62
         7
  5
8E0
 10
327.7720892017
 20
60.0690322765
 30
0.0
  0
VERTEX
  8
52572015
  6
CONTINUOUS
 62
         7
  5
8E1
 10
327.8223444011
 20
61.0665299696
 30
0.0
  0
VERTEX
  8
52572015
  6
CONTINUOUS
 62
         7
  5
8E2
 10
327.8583297136
 20
62.0677337341
 30
0.0
  0
VERTEX
  8
52572015
  6
CONTINUOUS
 62
         7
  5
8E3
 10
327.8799565074
 20
63.0714167047
 30
0.0
  0
VERTEX
  8
52572015
  6
CONTINUOUS
 62
         7
  5
8E4
 10
327.8871713841
 20
64.0763418347
 30
0.0
  0
VERTEX
  8
52572015
  6
CONTINUOUS
 62
         7
  5
8E5
 10
327.8799565074
 20
65.0812669647
 30
0.0
  0
VERTEX
  8
52572015
  6
CONTINUOUS
 62
         7
  5
8E6
 10
327.8583297136
 20
66.0849499353
 30
0.0
  0
VERTEX
  8
52572015
  6
CONTINUOUS
 62
         7
  5
8E7
 10
327.8223444011
 20
67.0861536999
 30
0.0
  0
VERTEX
  8
52572015
  6
CONTINUOUS
 62
         7
  5
8E8
 10
327.7720892017
 20
68.0836513929
 30
0.0
  0
VERTEX
  8
52572015
  6
CONTINUOUS
 62
         7
  5
8E9
 10
327.707687436
 20
69.0762313115
 30
0.0
  0
VERTEX
  8
52572015
  6
CONTINUOUS
 62
         7
  5
8EA
 10
327.6292963602
 20
70.0627017662
 30
0.0
  0
VERTEX
  8
52572015
  6
CONTINUOUS
 62
         7
  5
8EB
 10
327.5371062126
 20
71.0418957619
 30
0.0
  0
VERTEX
  8
52572015
  6
CONTINUOUS
 62
         7
  5
8EC
 10
327.4313390698
 20
72.0126754716
 30
0.0
  0
SEQEND
  8
52572015
  6
CONTINUOUS
 62
         7
  5
8ED
  0
LINE
  8
52572015
  6
CONTINUOUS
 62
         7
  5
8EE
 10
319.1015773253
 20
79.0842236428
 30
0.0
 11
327.4313390698
 21
72.0126754716
 31
0.0
  0
LINE
  8
52572015
  6
CONTINUOUS
 62
         7
  5
8EF
 10
328.6278567669
 20
79.0842236428
 30
0.0
 11
336.9576185115
 21
72.0126754716
 31
0.0
  0
LINE
  8
52572015
  6
CONTINUOUS
 62
         7
  5
8F0
 10
328.6278567669
 20
79.0842236428
 30
0.0
 11
319.1015773253
 21
79.0842236428
 31
0.0
  0
LINE
  8
52572015
  6
CONTINUOUS
 62
         7
  5
8F1
 10
319.1015773253
 20
49.0684600266
 30
0.0
 11
328.6278567669
 21
49.0684600266
 31
0.0
  0
LINE
  8
52572015
  6
CONTINUOUS
 62
         7
  5
8F2
 10
336.9576185115
 20
56.1400081978
 30
0.0
 11
328.6278567669
 21
49.0684600266
 31
0.0
  0
LINE
  8
52572015
  6
CONTINUOUS
 62
         7
  5
8F3
 10
336.9576185115
 20
56.1400081978
 30
0.0
 11
327.4313390698
 21
56.1400081978
 31
0.0
  0
POLYLINE
  8
52572015
  6
CONTINUOUS
 62
         7
  5
8F4
 66
         1
 10
0.0
 20
0.0
 30
0.0
  0
VERTEX
  8
52572015
  6
CONTINUOUS
 62
         7
  5
8F5
 10
336.9576185115
 20
56.1400081978
 30
0.0
  0
VERTEX
  8
52572015
  6
CONTINUOUS
 62
         7
  5
8F6
 10
337.0633856542
 20
57.1107879076
 30
0.0
  0
VERTEX
  8
52572015
  6
CONTINUOUS
 62
         7
  5
8F7
 10
337.1555758018
 20
58.0899819033
 30
0.0
  0
VERTEX
  8
52572015
  6
CONTINUOUS
 62
         7
  5
8F8
 10
337.2339668776
 20
59.0764523579
 30
0.0
  0
VERTEX
  8
52572015
  6
CONTINUOUS
 62
         7
  5
8F9
 10
337.2983686433
 20
60.0690322765
 30
0.0
  0
VERTEX
  8
52572015
  6
CONTINUOUS
 62
         7
  5
8FA
 10
337.3486238427
 20
61.0665299696
 30
0.0
  0
VERTEX
  8
52572015
  6
CONTINUOUS
 62
         7
  5
8FB
 10
337.3846091552
 20
62.0677337341
 30
0.0
  0
VERTEX
  8
52572015
  6
CONTINUOUS
 62
         7
  5
8FC
 10
337.406235949
 20
63.0714167047
 30
0.0
  0
VERTEX
  8
52572015
  6
CONTINUOUS
 62
         7
  5
8FD
 10
337.4134508257
 20
64.0763418347
 30
0.0
  0
VERTEX
  8
52572015
  6
CONTINUOUS
 62
         7
  5
8FE
 10
337.406235949
 20
65.0812669647
 30
0.0
  0
VERTEX
  8
52572015
  6
CONTINUOUS
 62
         7
  5
8FF
 10
337.3846091552
 20
66.0849499353
 30
0.0
  0
VERTEX
  8
52572015
  6
CONTINUOUS
 62
         7
  5
900
 10
337.3486238427
 20
67.0861536999
 30
0.0
  0
VERTEX
  8
52572015
  6
CONTINUOUS
 62
         7
  5
901
 10
337.2983686433
 20
68.0836513929
 30
0.0
  0
VERTEX
  8
52572015
  6
CONTINUOUS
 62
         7
  5
902
 10
337.2339668776
 20
69.0762313116
 30
0.0
  0
VERTEX
  8
52572015
  6
CONTINUOUS
 62
         7
  5
903
 10
337.1555758018
 20
70.0627017662
 30
0.0
  0
VERTEX
  8
52572015
  6
CONTINUOUS
 62
         7
  5
904
 10
337.0633856542
 20
71.0418957619
 30
0.0
  0
VERTEX
  8
52572015
  6
CONTINUOUS
 62
         7
  5
905
 10
336.9576185115
 20
72.0126754716
 30
0.0
  0
SEQEND
  8
52572015
  6
CONTINUOUS
 62
         7
  5
906
  0
LINE
  8
52572015
  6
CONTINUOUS
 62
         7
  5
907
 10
336.9576185115
 20
72.0126754716
 30
0.0
 11
327.4313390698
 21
72.0126754716
 31
0.0
  0
POLYLINE
  8
52572015
  6
CONTINUOUS
 62
         7
  5
908
 66
         1
 10
0.0
 20
0.0
 30
0.0
  0
VERTEX
  8
52572015
  6
CONTINUOUS
 62
         7
  5
909
 10
324.2567805024
 20
42.7798174874
 30
0.0
  0
VERTEX
  8
52572015
  6
CONTINUOUS
 62
         7
  5
90A
 10
324.5669973527
 20
43.0435574521
 30
0.0
  0
VERTEX
  8
52572015
  6
CONTINUOUS
 62
         7
  5
90B
 10
324.8741447457
 20
43.3262559716
 30
0.0
  0
VERTEX
  8
52572015
  6
CONTINUOUS
 62
         7
  5
90C
 10
325.1777929488
 20
43.6277035416
 30
0.0
  0
VERTEX
  8
52572015
  6
CONTINUOUS
 62
         7
  5
90D
 10
325.4775169161
 20
43.9476390904
 30
0.0
  0
VERTEX
  8
52572015
  6
CONTINUOUS
 62
         7
  5
90E
 10
325.7728982133
 20
44.2857505032
 30
0.0
  0
VERTEX
  8
52572015
  6
CONTINUOUS
 62
         7
  5
90F
 10
326.0635269238
 20
44.6416754896
 30
0.0
  0
VERTEX
  8
52572015
  6
CONTINUOUS
 62
         7
  5
910
 10
326.3490035194
 20
45.0150027919
 30
0.0
  0
VERTEX
  8
52572015
  6
CONTINUOUS
 62
         7
  5
911
 10
326.628940676
 20
45.405273727
 30
0.0
  0
VERTEX
  8
52572015
  6
CONTINUOUS
 62
         7
  5
912
 10
326.9029650195
 20
45.8119840487
 30
0.0
  0
VERTEX
  8
52572015
  6
CONTINUOUS
 62
         7
  5
913
 10
327.1707187841
 20
46.2345861161
 30
0.0
  0
VERTEX
  8
52572015
  6
CONTINUOUS
 62
         7
  5
914
 10
327.4318613665
 20
46.6724913481
 30
0.0
  0
VERTEX
  8
52572015
  6
CONTINUOUS
 62
         7
  5
915
 10
327.6860707648
 20
47.1250729403
 30
0.0
  0
VERTEX
  8
52572015
  6
CONTINUOUS
 62
         7
  5
916
 10
328.1725027156
 20
48.0715848068
 30
0.0
  0
VERTEX
  8
52572015
  6
CONTINUOUS
 62
         7
  5
917
 10
328.6278567669
 20
49.0684600266
 30
0.0
  0
SEQEND
  8
52572015
  6
CONTINUOUS
 62
         7
  5
918
  0
POLYLINE
  8
52572015
  6
CONTINUOUS
 62
         7
  5
919
 66
         1
 10
0.0
 20
0.0
 30
0.0
  0
VERTEX
  8
52572015
  6
CONTINUOUS
 62
         7
  5
91A
 10
319.1015773253
 20
79.0842236428
 30
0.0
  0
VERTEX
  8
52572015
  6
CONTINUOUS
 62
         7
  5
91B
 10
318.7100713668
 20
79.9482460529
 30
0.0
  0
VERTEX
  8
52572015
  6
CONTINUOUS
 62
         7
  5
91C
 10
318.2868388116
 20
80.7910365115
 30
0.0
  0
VERTEX
  8
52572015
  6
CONTINUOUS
 62
         7
  5
91D
 10
317.8316937468
 20
81.6067824215
 30
0.0
  0
VERTEX
  8
52572015
  6
CONTINUOUS
 62
         7
  5
91E
 10
317.3447616995
 20
82.3893904069
 30
0.0
  0
VERTEX
  8
52572015
  6
CONTINUOUS
 62
         7
  5
91F
 10
316.826514324
 20
83.1325599801
 30
0.0
  0
VERTEX
  8
52572015
  6
CONTINUOUS
 62
         7
  5
920
 10
316.5558969874
 20
83.4873515385
 30
0.0
  0
VERTEX
  8
52572015
  6
CONTINUOUS
 62
         7
  5
921
 10
316.2777996427
 20
83.8298730348
 30
0.0
  0
VERTEX
  8
52572015
  6
CONTINUOUS
 62
         7
  5
922
 10
315.9923910323
 20
84.1593209658
 30
0.0
  0
VERTEX
  8
52572015
  6
CONTINUOUS
 62
         7
  5
923
 10
315.6998659806
 20
84.4748982664
 30
0.0
  0
VERTEX
  8
52572015
  6
CONTINUOUS
 62
         7
  5
924
 10
315.4004456662
 20
84.7758182505
 30
0.0
  0
VERTEX
  8
52572015
  6
CONTINUOUS
 62
         7
  5
925
 10
315.0943777267
 20
85.061308687
 30
0.0
  0
VERTEX
  8
52572015
  6
CONTINUOUS
 62
         7
  5
926
 10
314.7819361829
 20
85.3306159802
 30
0.0
  0
VERTEX
  8
52572015
  6
CONTINUOUS
 62
         7
  5
927
 10
314.463421176
 20
85.583009418
 30
0.0
  0
VERTEX
  8
52572015
  6
CONTINUOUS
 62
         7
  5
928
 10
314.1391585061
 20
85.8177854516
 30
0.0
  0
VERTEX
  8
52572015
  6
CONTINUOUS
 62
         7
  5
929
 10
313.8094989703
 20
86.0342719642
 30
0.0
  0
VERTEX
  8
52572015
  6
CONTINUOUS
 62
         7
  5
92A
 10
313.4748174947
 20
86.2318324856
 30
0.0
  0
VERTEX
  8
52572015
  6
CONTINUOUS
 62
         7
  5
92B
 10
313.1355120606
 20
86.4098703088
 30
0.0
  0
VERTEX
  8
52572015
  6
CONTINUOUS
 62
         7
  5
92C
 10
312.7920024274
 20
86.5678324615
 30
0.0
  0
VERTEX
  8
52572015
  6
CONTINUOUS
 62
         7
  5
92D
 10
312.4447286568
 20
86.7052134875
 30
0.0
  0
VERTEX
  8
52572015
  6
CONTINUOUS
 62
         7
  5
92E
 10
312.0941494462
 20
86.8215589931
 30
0.0
  0
VERTEX
  8
52572015
  6
CONTINUOUS
 62
         7
  5
92F
 10
311.7407402827
 20
86.9164689129
 30
0.0
  0
VERTEX
  8
52572015
  6
CONTINUOUS
 62
         7
  5
930
 10
311.3849914304
 20
86.9896004554
 30
0.0
  0
VERTEX
  8
52572015
  6
CONTINUOUS
 62
         7
  5
931
 10
311.0274057689
 20
87.040670689
 30
0.0
  0
VERTEX
  8
52572015
  6
CONTINUOUS
 62
         7
  5
932
 10
310.6684964999
 20
87.0694587334
 30
0.0
  0
VERTEX
  8
52572015
  6
CONTINUOUS
 62
         7
  5
933
 10
310.3087847454
 20
87.0758075272
 30
0.0
  0
VERTEX
  8
52572015
  6
CONTINUOUS
 62
         7
  5
934
 10
309.9487970581
 20
87.0596251467
 30
0.0
  0
VERTEX
  8
52572015
  6
CONTINUOUS
 62
         7
  5
935
 10
309.589062871
 20
87.0208856568
 30
0.0
  0
VERTEX
  8
52572015
  6
CONTINUOUS
 62
         7
  5
936
 10
309.2301119097
 20
86.9596294807
 30
0.0
  0
VERTEX
  8
52572015
  6
CONTINUOUS
 62
         7
  5
937
 10
308.8724715957
 20
86.8759632834
 30
0.0
  0
VERTEX
  8
52572015
  6
CONTINUOUS
 62
         7
  5
938
 10
308.5166644662
 20
86.770059368
 30
0.0
  0
VERTEX
  8
52572015
  6
CONTINUOUS
 62
         7
  5
939
 10
308.1632056379
 20
86.6421545929
 30
0.0
  0
VERTEX
  8
52572015
  6
CONTINUOUS
 62
         7
  5
93A
 10
307.8126003385
 20
86.4925488227
 30
0.0
  0
VERTEX
  8
52572015
  6
CONTINUOUS
 62
         7
  5
93B
 10
307.4653415342
 20
86.3216029326
 30
0.0
  0
VERTEX
  8
52572015
  6
CONTINUOUS
 62
         7
  5
93C
 10
307.1219076718
 20
86.1297363933
 30
0.0
  0
VERTEX
  8
52572015
  6
CONTINUOUS
 62
         7
  5
93D
 10
306.7827605603
 20
85.9174244648
 30
0.0
  0
VERTEX
  8
52572015
  6
CONTINUOUS
 62
         7
  5
93E
 10
306.4483434083
 20
85.6851950368
 30
0.0
  0
VERTEX
  8
52572015
  6
CONTINUOUS
 62
         7
  5
93F
 10
306.1190790356
 20
85.4336251549
 30
0.0
  0
VERTEX
  8
52572015
  6
CONTINUOUS
 62
         7
  5
940
 10
305.7953682702
 20
85.163337274
 30
0.0
  0
VERTEX
  8
52572015
  6
CONTINUOUS
 62
         7
  5
941
 10
305.477588544
 20
84.874995285
 30
0.0
  0
VERTEX
  8
52572015
  6
CONTINUOUS
 62
         7
  5
942
 10
305.1660926925
 20
84.5693003616
 30
0.0
  0
VERTEX
  8
52572015
  6
CONTINUOUS
 62
         7
  5
943
 10
304.8612079651
 20
84.2469866724
 30
0.0
  0
VERTEX
  8
52572015
  6
CONTINUOUS
 62
         7
  5
944
 10
304.5632352467
 20
83.9088170073
 30
0.0
  0
VERTEX
  8
52572015
  6
CONTINUOUS
 62
         7
  5
945
 10
304.2724484901
 20
83.5555783629
 30
0.0
  0
VERTEX
  8
52572015
  6
CONTINUOUS
 62
         7
  5
946
 10
303.9890943553
 20
83.1880775313
 30
0.0
  0
VERTEX
  8
52572015
  6
CONTINUOUS
 62
         7
  5
947
 10
303.7133920498
 20
82.8071367349
 30
0.0
  0
VERTEX
  8
52572015
  6
CONTINUOUS
 62
         7
  5
948
 10
303.4455333614
 20
82.4135893449
 30
0.0
  0
VERTEX
  8
52572015
  6
CONTINUOUS
 62
         7
  5
949
 10
303.1856828731
 20
82.0082757211
 30
0.0
  0
VERTEX
  8
52572015
  6
CONTINUOUS
 62
         7
  5
94A
 10
302.6905312768
 20
81.1657222869
 30
0.0
  0
VERTEX
  8
52572015
  6
CONTINUOUS
 62
         7
  5
94B
 10
302.2287283001
 20
80.286191488
 30
0.0
  0
VERTEX
  8
52572015
  6
CONTINUOUS
 62
         7
  5
94C
 10
301.800669449
 20
79.3762744515
 30
0.0
  0
VERTEX
  8
52572015
  6
CONTINUOUS
 62
         7
  5
94D
 10
301.40638563
 20
78.4423415898
 30
0.0
  0
VERTEX
  8
52572015
  6
CONTINUOUS
 62
         7
  5
94E
 10
301.0455792961
 20
77.4904623445
 30
0.0
  0
VERTEX
  8
52572015
  6
CONTINUOUS
 62
         7
  5
94F
 10
300.7176638992
 20
76.5263418347
 30
0.0
  0
SEQEND
  8
52572015
  6
CONTINUOUS
 62
         7
  5
950
  0
POLYLINE
  8
52572015
  6
CONTINUOUS
 62
         7
  5
951
 66
         1
 10
0.0
 20
0.0
 30
0.0
  0
VERTEX
  8
52572015
  6
CONTINUOUS
 62
         7
  5
952
 10
300.7176638992
 20
51.6263418347
 30
0.0
  0
VERTEX
  8
52572015
  6
CONTINUOUS
 62
         7
  5
953
 10
301.0455792961
 20
50.662221325
 30
0.0
  0
VERTEX
  8
52572015
  6
CONTINUOUS
 62
         7
  5
954
 10
301.40638563
 20
49.7103420797
 30
0.0
  0
VERTEX
  8
52572015
  6
CONTINUOUS
 62
         7
  5
955
 10
301.800669449
 20
48.7764092179
 30
0.0
  0
VERTEX
  8
52572015
  6
CONTINUOUS
 62
         7
  5
956
 10
302.2287283001
 20
47.8664921814
 30
0.0
  0
VERTEX
  8
52572015
  6
CONTINUOUS
 62
         7
  5
957
 10
302.6905312768
 20
46.9869613825
 30
0.0
  0
VERTEX
  8
52572015
  6
CONTINUOUS
 62
         7
  5
958
 10
303.1856828731
 20
46.1444079484
 30
0.0
  0
VERTEX
  8
52572015
  6
CONTINUOUS
 62
         7
  5
959
 10
303.7133920498
 20
45.3455469345
 30
0.0
  0
VERTEX
  8
52572015
  6
CONTINUOUS
 62
         7
  5
95A
 10
303.9890943553
 20
44.9646061381
 30
0.0
  0
VERTEX
  8
52572015
  6
CONTINUOUS
 62
         7
  5
95B
 10
304.2724484901
 20
44.5971053066
 30
0.0
  0
VERTEX
  8
52572015
  6
CONTINUOUS
 62
         7
  5
95C
 10
304.5632352467
 20
44.2438666621
 30
0.0
  0
VERTEX
  8
52572015
  6
CONTINUOUS
 62
         7
  5
95D
 10
304.8612079651
 20
43.905696997
 30
0.0
  0
VERTEX
  8
52572015
  6
CONTINUOUS
 62
         7
  5
95E
 10
305.1660926925
 20
43.5833833078
 30
0.0
  0
VERTEX
  8
52572015
  6
CONTINUOUS
 62
         7
  5
95F
 10
305.477588544
 20
43.2776883844
 30
0.0
  0
VERTEX
  8
52572015
  6
CONTINUOUS
 62
         7
  5
960
 10
305.7953682702
 20
42.9893463955
 30
0.0
  0
VERTEX
  8
52572015
  6
CONTINUOUS
 62
         7
  5
961
 10
306.1190790356
 20
42.7190585145
 30
0.0
  0
VERTEX
  8
52572015
  6
CONTINUOUS
 62
         7
  5
962
 10
306.4483434083
 20
42.4674886326
 30
0.0
  0
VERTEX
  8
52572015
  6
CONTINUOUS
 62
         7
  5
963
 10
306.7827605603
 20
42.2352592047
 30
0.0
  0
VERTEX
  8
52572015
  6
CONTINUOUS
 62
         7
  5
964
 10
307.1219076718
 20
42.0229472761
 30
0.0
  0
VERTEX
  8
52572015
  6
CONTINUOUS
 62
         7
  5
965
 10
307.4653415342
 20
41.8310807368
 30
0.0
  0
VERTEX
  8
52572015
  6
CONTINUOUS
 62
         7
  5
966
 10
307.8126003385
 20
41.6601348468
 30
0.0
  0
VERTEX
  8
52572015
  6
CONTINUOUS
 62
         7
  5
967
 10
308.1632056379
 20
41.5105290765
 30
0.0
  0
VERTEX
  8
52572015
  6
CONTINUOUS
 62
         7
  5
968
 10
308.5166644662
 20
41.3826243014
 30
0.0
  0
VERTEX
  8
52572015
  6
CONTINUOUS
 62
         7
  5
969
 10
308.8724715957
 20
41.276720386
 30
0.0
  0
VERTEX
  8
52572015
  6
CONTINUOUS
 62
         7
  5
96A
 10
309.2301119097
 20
41.1930541887
 30
0.0
  0
VERTEX
  8
52572015
  6
CONTINUOUS
 62
         7
  5
96B
 10
309.589062871
 20
41.1317980126
 30
0.0
  0
VERTEX
  8
52572015
  6
CONTINUOUS
 62
         7
  5
96C
 10
309.9487970581
 20
41.0930585227
 30
0.0
  0
VERTEX
  8
52572015
  6
CONTINUOUS
 62
         7
  5
96D
 10
310.3087847454
 20
41.0768761422
 30
0.0
  0
VERTEX
  8
52572015
  6
CONTINUOUS
 62
         7
  5
96E
 10
310.6684964999
 20
41.083224936
 30
0.0
  0
VERTEX
  8
52572015
  6
CONTINUOUS
 62
         7
  5
96F
 10
311.0274057689
 20
41.1120129804
 30
0.0
  0
VERTEX
  8
52572015
  6
CONTINUOUS
 62
         7
  5
970
 10
311.3849914304
 20
41.163083214
 30
0.0
  0
VERTEX
  8
52572015
  6
CONTINUOUS
 62
         7
  5
971
 10
311.7407402827
 20
41.2362147565
 30
0.0
  0
VERTEX
  8
52572015
  6
CONTINUOUS
 62
         7
  5
972
 10
312.0941494462
 20
41.3311246763
 30
0.0
  0
VERTEX
  8
52572015
  6
CONTINUOUS
 62
         7
  5
973
 10
312.4447286568
 20
41.4474701819
 30
0.0
  0
VERTEX
  8
52572015
  6
CONTINUOUS
 62
         7
  5
974
 10
312.7920024274
 20
41.584851208
 30
0.0
  0
VERTEX
  8
52572015
  6
CONTINUOUS
 62
         7
  5
975
 10
313.1355120606
 20
41.7428133606
 30
0.0
  0
VERTEX
  8
52572015
  6
CONTINUOUS
 62
         7
  5
976
 10
313.4748174947
 20
41.9208511838
 30
0.0
  0
VERTEX
  8
52572015
  6
CONTINUOUS
 62
         7
  5
977
 10
313.8094989703
 20
42.1184117053
 30
0.0
  0
VERTEX
  8
52572015
  6
CONTINUOUS
 62
         7
  5
978
 10
314.1391585061
 20
42.3348982179
 30
0.0
  0
VERTEX
  8
52572015
  6
CONTINUOUS
 62
         7
  5
979
 10
314.463421176
 20
42.5696742515
 30
0.0
  0
VERTEX
  8
52572015
  6
CONTINUOUS
 62
         7
  5
97A
 10
314.7819361829
 20
42.8220676892
 30
0.0
  0
VERTEX
  8
52572015
  6
CONTINUOUS
 62
         7
  5
97B
 10
315.0943777267
 20
43.0913749824
 30
0.0
  0
VERTEX
  8
52572015
  6
CONTINUOUS
 62
         7
  5
97C
 10
315.4004456662
 20
43.376865419
 30
0.0
  0
VERTEX
  8
52572015
  6
CONTINUOUS
 62
         7
  5
97D
 10
315.6998659806
 20
43.677785403
 30
0.0
  0
VERTEX
  8
52572015
  6
CONTINUOUS
 62
         7
  5
97E
 10
315.9923910323
 20
43.9933627036
 30
0.0
  0
VERTEX
  8
52572015
  6
CONTINUOUS
 62
         7
  5
97F
 10
316.2777996427
 20
44.3228106346
 30
0.0
  0
VERTEX
  8
52572015
  6
CONTINUOUS
 62
         7
  5
980
 10
316.5558969874
 20
44.6653321309
 30
0.0
  0
VERTEX
  8
52572015
  6
CONTINUOUS
 62
         7
  5
981
 10
316.826514324
 20
45.0201236893
 30
0.0
  0
VERTEX
  8
52572015
  6
CONTINUOUS
 62
         7
  5
982
 10
317.0895085634
 20
45.3863791452
 30
0.0
  0
VERTEX
  8
52572015
  6
CONTINUOUS
 62
         7
  5
983
 10
317.3447616995
 20
45.7632932625
 30
0.0
  0
VERTEX
  8
52572015
  6
CONTINUOUS
 62
         7
  5
984
 10
317.8316937468
 20
46.545901248
 30
0.0
  0
VERTEX
  8
52572015
  6
CONTINUOUS
 62
         7
  5
985
 10
318.2868388116
 20
47.361647158
 30
0.0
  0
VERTEX
  8
52572015
  6
CONTINUOUS
 62
         7
  5
986
 10
318.7100713668
 20
48.2044376165
 30
0.0
  0
VERTEX
  8
52572015
  6
CONTINUOUS
 62
         7
  5
987
 10
319.1015773253
 20
49.0684600266
 30
0.0
  0
SEQEND
  8
52572015
  6
CONTINUOUS
 62
         7
  5
988
  0
POLYLINE
  8
52572015
  6
CONTINUOUS
 62
         7
  5
989
 66
         1
 10
0.0
 20
0.0
 30
0.0
  0
VERTEX
  8
52572015
  6
CONTINUOUS
 62
         7
  5
98A
 10
328.6278567669
 20
79.0842236428
 30
0.0
  0
VERTEX
  8
52572015
  6
CONTINUOUS
 62
         7
  5
98B
 10
328.1725027156
 20
80.0810988626
 30
0.0
  0
VERTEX
  8
52572015
  6
CONTINUOUS
 62
         7
  5
98C
 10
327.6860707648
 20
81.0276107291
 30
0.0
  0
VERTEX
  8
52572015
  6
CONTINUOUS
 62
         7
  5
98D
 10
327.1707187841
 20
81.9180975533
 30
0.0
  0
VERTEX
  8
52572015
  6
CONTINUOUS
 62
         7
  5
98E
 10
326.9029650195
 20
82.3406996207
 30
0.0
  0
VERTEX
  8
52572015
  6
CONTINUOUS
 62
         7
  5
98F
 10
326.628940676
 20
82.7474099424
 30
0.0
  0
VERTEX
  8
52572015
  6
CONTINUOUS
 62
         7
  5
990
 10
326.3490035194
 20
83.1376808776
 30
0.0
  0
VERTEX
  8
52572015
  6
CONTINUOUS
 62
         7
  5
991
 10
326.0635269238
 20
83.5110081799
 30
0.0
  0
VERTEX
  8
52572015
  6
CONTINUOUS
 62
         7
  5
992
 10
325.7728982133
 20
83.8669331662
 30
0.0
  0
VERTEX
  8
52572015
  6
CONTINUOUS
 62
         7
  5
993
 10
325.4775169161
 20
84.205044579
 30
0.0
  0
VERTEX
  8
52572015
  6
CONTINUOUS
 62
         7
  5
994
 10
325.1777929488
 20
84.5249801279
 30
0.0
  0
VERTEX
  8
52572015
  6
CONTINUOUS
 62
         7
  5
995
 10
324.8741447457
 20
84.8264276979
 30
0.0
  0
VERTEX
  8
52572015
  6
CONTINUOUS
 62
         7
  5
996
 10
324.5669973527
 20
85.1091262173
 30
0.0
  0
VERTEX
  8
52572015
  6
CONTINUOUS
 62
         7
  5
997
 10
324.2567805024
 20
85.372866182
 30
0.0
  0
SEQEND
  8
52572015
  6
CONTINUOUS
 62
         7
  5
998
  0
LINE
  8
52572015
  6
CONTINUOUS
 62
         7
  5
999
 10
324.2567805024
 20
85.372866182
 30
0.0
 11
322.9577423968
 21
85.372866182
 31
0.0
  0
POLYLINE
  8
52572015
  6
CONTINUOUS
 62
         7
  5
99A
 66
         1
 10
0.0
 20
0.0
 30
0.0
  0
VERTEX
  8
52572015
  6
CONTINUOUS
 62
         7
  5
99B
 10
322.9577423968
 20
85.372866182
 30
0.0
  0
VERTEX
  8
52572015
  6
CONTINUOUS
 62
         7
  5
99C
 10
322.4395136387
 20
85.7667639571
 30
0.0
  0
VERTEX
  8
52572015
  6
CONTINUOUS
 62
         7
  5
99D
 10
321.9105236232
 20
86.1113732996
 30
0.0
  0
VERTEX
  8
52572015
  6
CONTINUOUS
 62
         7
  5
99E
 10
321.3725474702
 20
86.4050402025
 30
0.0
  0
VERTEX
  8
52572015
  6
CONTINUOUS
 62
         7
  5
99F
 10
320.8274406235
 20
86.6464554807
 30
0.0
  0
VERTEX
  8
52572015
  6
CONTINUOUS
 62
         7
  5
9A0
 10
320.2771176941
 20
86.8346732471
 30
0.0
  0
VERTEX
  8
52572015
  6
CONTINUOUS
 62
         7
  5
9A1
 10
319.7235301109
 20
86.9691231086
 30
0.0
  0
VERTEX
  8
52572015
  6
CONTINUOUS
 62
         7
  5
9A2
 10
319.1686431227
 20
87.0496157556
 30
0.0
  0
VERTEX
  8
52572015
  6
CONTINUOUS
 62
         7
  5
9A3
 10
318.61441272
 20
87.0763418347
 30
0.0
  0
SEQEND
  8
52572015
  6
CONTINUOUS
 62
         7
  5
9A4
  0
POLYLINE
  8
52572015
  6
CONTINUOUS
 62
         7
  5
9A5
 66
         1
 10
0.0
 20
0.0
 30
0.0
  0
VERTEX
  8
52572015
  6
CONTINUOUS
 62
         7
  5
9A6
 10
318.61441272
 20
41.0763418347
 30
0.0
  0
VERTEX
  8
52572015
  6
CONTINUOUS
 62
         7
  5
9A7
 10
319.1686431227
 20
41.1030679138
 30
0.0
  0
VERTEX
  8
52572015
  6
CONTINUOUS
 62
         7
  5
9A8
 10
319.7235301109
 20
41.1835605608
 30
0.0
  0
VERTEX
  8
52572015
  6
CONTINUOUS
 62
         7
  5
9A9
 10
320.2771176941
 20
41.3180104223
 30
0.0
  0
VERTEX
  8
52572015
  6
CONTINUOUS
 62
         7
  5
9AA
 10
320.8274406235
 20
41.5062281887
 30
0.0
  0
VERTEX
  8
52572015
  6
CONTINUOUS
 62
         7
  5
9AB
 10
321.3725474702
 20
41.7476434669
 30
0.0
  0
VERTEX
  8
52572015
  6
CONTINUOUS
 62
         7
  5
9AC
 10
321.9105236232
 20
42.0413103699
 30
0.0
  0
VERTEX
  8
52572015
  6
CONTINUOUS
 62
         7
  5
9AD
 10
322.4395136387
 20
42.3859197123
 30
0.0
  0
VERTEX
  8
52572015
  6
CONTINUOUS
 62
         7
  5
9AE
 10
322.9577423968
 20
42.7798174874
 30
0.0
  0
SEQEND
  8
52572015
  6
CONTINUOUS
 62
         7
  5
9AF
  0
POLYLINE
  8
52572015
  6
CONTINUOUS
 62
         7
  5
9B0
 66
         1
 10
0.0
 20
0.0
 30
0.0
  0
VERTEX
  8
52572015
  6
CONTINUOUS
 62
         7
  5
9B1
 10
328.8017798059
 20
79.1286035022
 30
0.0
  0
VERTEX
  8
52572015
  6
CONTINUOUS
 62
         7
  5
9B2
 10
328.412257294
 20
79.9181413815
 30
0.0
  0
VERTEX
  8
52572015
  6
CONTINUOUS
 62
         7
  5
9B3
 10
328.0027998895
 20
80.6683393398
 30
0.0
  0
VERTEX
  8
52572015
  6
CONTINUOUS
 62
         7
  5
9B4
 10
327.5749346738
 20
81.376254497
 30
0.0
  0
VERTEX
  8
52572015
  6
CONTINUOUS
 62
         7
  5
9B5
 10
327.1303291906
 20
82.0392666151
 30
0.0
  0
SEQEND
  8
52572015
  6
CONTINUOUS
 62
         7
  5
9B6
  0
POLYLINE
  8
52572015
  6
CONTINUOUS
 62
         7
  5
9B7
 66
         1
 10
0.0
 20
0.0
 30
0.0
  0
VERTEX
  8
52572015
  6
CONTINUOUS
 62
         7
  5
9B8
 10
327.1303291906
 20
46.1134170543
 30
0.0
  0
VERTEX
  8
52572015
  6
CONTINUOUS
 62
         7
  5
9B9
 10
327.5749346738
 20
46.7764291724
 30
0.0
  0
VERTEX
  8
52572015
  6
CONTINUOUS
 62
         7
  5
9BA
 10
328.0027998895
 20
47.4843443297
 30
0.0
  0
VERTEX
  8
52572015
  6
CONTINUOUS
 62
         7
  5
9BB
 10
328.412257294
 20
48.2345422879
 30
0.0
  0
VERTEX
  8
52572015
  6
CONTINUOUS
 62
         7
  5
9BC
 10
328.8017798059
 20
49.0240801672
 30
0.0
  0
SEQEND
  8
52572015
  6
CONTINUOUS
 62
         7
  5
9BD
  0
LINE
  8
52572015
  6
CONTINUOUS
 62
         7
  5
9BE
 10
322.9577423968
 20
42.7798174874
 30
0.0
 11
324.2567805024
 21
42.7798174874
 31
0.0
  0
LINE
  8
52572015
  6
CONTINUOUS
 62
         7
  5
9BF
 10
293.2070565335
 20
58.0763418347
 30
0.0
 11
293.2070565335
 21
70.0763418347
 31
0.0
  0
LINE
  8
52572015
  6
CONTINUOUS
 62
         7
  5
9C0
 10
294.2070565335
 20
58.6536921039
 30
0.0
 11
294.2070565335
 21
69.4989915655
 31
0.0
  0
LINE
  8
52572015
  6
CONTINUOUS
 62
         7
  5
9C1
 10
272.7070565335
 20
55.0763418347
 30
0.0
 11
272.7070565335
 21
73.0763418347
 31
0.0
  0
LINE
  8
52572015
  6
CONTINUOUS
 62
         7
  5
9C2
 10
247.5292641384
 20
50.2714013486
 30
0.0
 11
239.5775475037
 21
54.8623270882
 31
0.0
  0
POLYLINE
  8
52572015
  6
CONTINUOUS
 62
         7
  5
9C3
 66
         1
 10
0.0
 20
0.0
 30
0.0
  0
VERTEX
  8
52572015
  6
CONTINUOUS
 62
         7
  5
9C4
 10
252.9946043826
 20
50.3447576719
 30
0.0
  0
VERTEX
  8
52572015
  6
CONTINUOUS
 62
         7
  5
9C5
 10
253.2846160572
 20
50.4728486679
 30
0.0
  0
VERTEX
  8
52572015
  6
CONTINUOUS
 62
         7
  5
9C6
 10
253.5719073154
 20
50.6255769151
 30
0.0
  0
VERTEX
  8
52572015
  6
CONTINUOUS
 62
         7
  5
9C7
 10
253.855697316
 20
50.8025625864
 30
0.0
  0
VERTEX
  8
52572015
  6
CONTINUOUS
 62
         7
  5
9C8
 10
254.135224135
 20
51.003294793
 30
0.0
  0
SEQEND
  8
52572015
  6
CONTINUOUS
 62
         7
  5
9C9
  0
POLYLINE
  8
52572015
  6
CONTINUOUS
 62
         7
  5
9CA
 66
         1
 10
0.0
 20
0.0
 30
0.0
  0
VERTEX
  8
52572015
  6
CONTINUOUS
 62
         7
  5
9CB
 10
254.135224135
 20
77.1493888765
 30
0.0
  0
VERTEX
  8
52572015
  6
CONTINUOUS
 62
         7
  5
9CC
 10
253.855697316
 20
77.350121083
 30
0.0
  0
VERTEX
  8
52572015
  6
CONTINUOUS
 62
         7
  5
9CD
 10
253.5719073154
 20
77.5271067543
 30
0.0
  0
VERTEX
  8
52572015
  6
CONTINUOUS
 62
         7
  5
9CE
 10
253.2846160572
 20
77.6798350015
 30
0.0
  0
VERTEX
  8
52572015
  6
CONTINUOUS
 62
         7
  5
9CF
 10
252.9946043826
 20
77.8079259976
 30
0.0
  0
SEQEND
  8
52572015
  6
CONTINUOUS
 62
         7
  5
9D0
  0
POLYLINE
  8
52572015
  6
CONTINUOUS
 62
         7
  5
9D1
 66
         1
 10
0.0
 20
0.0
 30
0.0
  0
VERTEX
  8
52572015
  6
CONTINUOUS
 62
         7
  5
9D2
 10
277.7844238229
 20
81.0763418347
 30
0.0
  0
VERTEX
  8
52572015
  6
CONTINUOUS
 62
         7
  5
9D3
 10
277.5263074727
 20
81.0685019034
 30
0.0
  0
VERTEX
  8
52572015
  6
CONTINUOUS
 62
         7
  5
9D4
 10
277.2675834913
 20
81.0448863889
 30
0.0
  0
VERTEX
  8
52572015
  6
CONTINUOUS
 62
         7
  5
9D5
 10
277.008611727
 20
81.0053838149
 30
0.0
  0
VERTEX
  8
52572015
  6
CONTINUOUS
 62
         7
  5
9D6
 10
276.7497568042
 20
80.9499264166
 30
0.0
  0
VERTEX
  8
52572015
  6
CONTINUOUS
 62
         7
  5
9D7
 10
276.4913864623
 20
80.8784910287
 30
0.0
  0
VERTEX
  8
52572015
  6
CONTINUOUS
 62
         7
  5
9D8
 10
276.2338698489
 20
80.7910996701
 30
0.0
  0
VERTEX
  8
52572015
  6
CONTINUOUS
 62
         7
  5
9D9
 10
275.9775757838
 20
80.6878198139
 30
0.0
  0
VERTEX
  8
52572015
  6
CONTINUOUS
 62
         7
  5
9DA
 10
275.7228710101
 20
80.5687643372
 30
0.0
  0
VERTEX
  8
52572015
  6
CONTINUOUS
 62
         7
  5
9DB
 10
275.4701184505
 20
80.4340911473
 30
0.0
  0
VERTEX
  8
52572015
  6
CONTINUOUS
 62
         7
  5
9DC
 10
275.2196754858
 20
80.2840024885
 30
0.0
  0
VERTEX
  8
52572015
  6
CONTINUOUS
 62
         7
  5
9DD
 10
274.9718922719
 20
80.1187439335
 30
0.0
  0
VERTEX
  8
52572015
  6
CONTINUOUS
 62
         7
  5
9DE
 10
274.7271101142
 20
79.9386030716
 30
0.0
  0
VERTEX
  8
52572015
  6
CONTINUOUS
 62
         7
  5
9DF
 10
274.247860691
 20
79.5350249887
 30
0.0
  0
VERTEX
  8
52572015
  6
CONTINUOUS
 62
         7
  5
9E0
 10
273.7844238229
 20
79.0763418347
 30
0.0
  0
SEQEND
  8
52572015
  6
CONTINUOUS
 62
         7
  5
9E1
  0
POLYLINE
  8
52572015
  6
CONTINUOUS
 62
         7
  5
9E2
 66
         1
 10
0.0
 20
0.0
 30
0.0
  0
VERTEX
  8
52572015
  6
CONTINUOUS
 62
         7
  5
9E3
 10
273.7844238229
 20
49.0763418347
 30
0.0
  0
VERTEX
  8
52572015
  6
CONTINUOUS
 62
         7
  5
9E4
 10
274.1446772589
 20
48.7137580742
 30
0.0
  0
VERTEX
  8
52572015
  6
CONTINUOUS
 62
         7
  5
9E5
 10
274.5207738194
 20
48.3793881615
 30
0.0
  0
VERTEX
  8
52572015
  6
CONTINUOUS
 62
         7
  5
9E6
 10
274.9120944849
 20
48.076376313
 30
0.0
  0
VERTEX
  8
52572015
  6
CONTINUOUS
 62
         7
  5
9E7
 10
275.3178394133
 20
47.8078494214
 30
0.0
  0
VERTEX
  8
52572015
  6
CONTINUOUS
 62
         7
  5
9E8
 10
275.7370218019
 20
47.5768697263
 30
0.0
  0
VERTEX
  8
52572015
  6
CONTINUOUS
 62
         7
  5
9E9
 10
276.1684651942
 20
47.3863834513
 30
0.0
  0
VERTEX
  8
52572015
  6
CONTINUOUS
 62
         7
  5
9EA
 10
276.6108047726
 20
47.2391664986
 30
0.0
  0
VERTEX
  8
52572015
  6
CONTINUOUS
 62
         7
  5
9EB
 10
277.0624930805
 20
47.1377685768
 30
0.0
  0
VERTEX
  8
52572015
  6
CONTINUOUS
 62
         7
  5
9EC
 10
277.5218104934
 20
47.0844573908
 30
0.0
  0
VERTEX
  8
52572015
  6
CONTINUOUS
 62
         7
  5
9ED
 10
277.9868805856
 20
47.0811647236
 30
0.0
  0
VERTEX
  8
52572015
  6
CONTINUOUS
 62
         7
  5
9EE
 10
278.4556903452
 20
47.1294363643
 30
0.0
  0
VERTEX
  8
52572015
  6
CONTINUOUS
 62
         7
  5
9EF
 10
278.9261149674
 20
47.2303878599
 30
0.0
  0
VERTEX
  8
52572015
  6
CONTINUOUS
 62
         7
  5
9F0
 10
279.3959467308
 20
47.3846679921
 30
0.0
  0
VERTEX
  8
52572015
  6
CONTINUOUS
 62
         7
  5
9F1
 10
279.8629272393
 20
47.5924316738
 30
0.0
  0
VERTEX
  8
52572015
  6
CONTINUOUS
 62
         7
  5
9F2
 10
280.3247821172
 20
47.8533236523
 30
0.0
  0
VERTEX
  8
52572015
  6
CONTINUOUS
 62
         7
  5
9F3
 10
280.7792570869
 20
48.1664739885
 30
0.0
  0
VERTEX
  8
52572015
  6
CONTINUOUS
 62
         7
  5
9F4
 10
281.2241542573
 20
48.5305057957
 30
0.0
  0
VERTEX
  8
52572015
  6
CONTINUOUS
 62
         7
  5
9F5
 10
281.6573674099
 20
48.9435551816
 30
0.0
  0
VERTEX
  8
52572015
  6
CONTINUOUS
 62
         7
  5
9F6
 10
282.0769151
 20
49.403302799
 30
0.0
  0
VERTEX
  8
52572015
  6
CONTINUOUS
 62
         7
  5
9F7
 10
282.4809704874
 20
49.9070158905
 30
0.0
  0
VERTEX
  8
52572015
  6
CONTINUOUS
 62
         7
  5
9F8
 10
282.8678869659
 20
50.4515992723
 30
0.0
  0
VERTEX
  8
52572015
  6
CONTINUOUS
 62
         7
  5
9F9
 10
283.236218871
 20
51.033653346
 30
0.0
  0
VERTEX
  8
52572015
  6
CONTINUOUS
 62
         7
  5
9FA
 10
283.5847367795
 20
51.6495369991
 30
0.0
  0
VERTEX
  8
52572015
  6
CONTINUOUS
 62
         7
  5
9FB
 10
283.9124371732
 20
52.2954331467
 30
0.0
  0
VERTEX
  8
52572015
  6
CONTINUOUS
 62
         7
  5
9FC
 10
284.2185464867
 20
52.9674146952
 30
0.0
  0
VERTEX
  8
52572015
  6
CONTINUOUS
 62
         7
  5
9FD
 10
284.502519792
 20
53.6615088452
 30
0.0
  0
VERTEX
  8
52572015
  6
CONTINUOUS
 62
         7
  5
9FE
 10
284.7640345718
 20
54.3737578915
 30
0.0
  0
VERTEX
  8
52572015
  6
CONTINUOUS
 62
         7
  5
9FF
 10
285.0029801873
 20
55.1002749871
 30
0.0
  0
VERTEX
  8
52572015
  6
CONTINUOUS
 62
         7
  5
A00
 10
285.2194437573
 20
55.8372936917
 30
0.0
  0
VERTEX
  8
52572015
  6
CONTINUOUS
 62
         7
  5
A01
 10
285.4136932219
 20
56.5812104984
 30
0.0
  0
VERTEX
  8
52572015
  6
CONTINUOUS
 62
         7
  5
A02
 10
285.5861583831
 20
57.3286198925
 30
0.0
  0
VERTEX
  8
52572015
  6
CONTINUOUS
 62
         7
  5
A03
 10
285.7374106832
 20
58.0763418347
 30
0.0
  0
SEQEND
  8
52572015
  6
CONTINUOUS
 62
         7
  5
A04
  0
POLYLINE
  8
52572015
  6
CONTINUOUS
 62
         7
  5
A05
 66
         1
 10
0.0
 20
0.0
 30
0.0
  0
VERTEX
  8
52572015
  6
CONTINUOUS
 62
         7
  5
A06
 10
285.7374106832
 20
70.0763418347
 30
0.0
  0
VERTEX
  8
52572015
  6
CONTINUOUS
 62
         7
  5
A07
 10
285.5014684408
 20
71.2029742416
 30
0.0
  0
VERTEX
  8
52572015
  6
CONTINUOUS
 62
         7
  5
A08
 10
285.2197711604
 20
72.3142080563
 30
0.0
  0
VERTEX
  8
52572015
  6
CONTINUOUS
 62
         7
  5
A09
 10
284.8921806346
 20
73.399387068
 30
0.0
  0
VERTEX
  8
52572015
  6
CONTINUOUS
 62
         7
  5
A0A
 10
284.7113517633
 20
73.928787076
 30
0.0
  0
VERTEX
  8
52572015
  6
CONTINUOUS
 62
         7
  5
A0B
 10
284.5193670569
 20
74.4475596292
 30
0.0
  0
VERTEX
  8
52572015
  6
CONTINUOUS
 62
         7
  5
A0C
 10
284.316444269
 20
74.9543396085
 30
0.0
  0
VERTEX
  8
52572015
  6
CONTINUOUS
 62
         7
  5
A0D
 10
284.1028556524
 20
75.4477831183
 30
0.0
  0
VERTEX
  8
52572015
  6
CONTINUOUS
 62
         7
  5
A0E
 10
283.8789274466
 20
75.9265782172
 30
0.0
  0
VERTEX
  8
52572015
  6
CONTINUOUS
 62
         7
  5
A0F
 10
283.6450387381
 20
76.3894556271
 30
0.0
  0
VERTEX
  8
52572015
  6
CONTINUOUS
 62
         7
  5
A10
 10
283.4016196868
 20
76.8351992486
 30
0.0
  0
VERTEX
  8
52572015
  6
CONTINUOUS
 62
         7
  5
A11
 10
283.1491491313
 20
77.2626563108
 30
0.0
  0
VERTEX
  8
52572015
  6
CONTINUOUS
 62
         7
  5
A12
 10
282.888151594
 20
77.6707469837
 30
0.0
  0
VERTEX
  8
52572015
  6
CONTINUOUS
 62
         7
  5
A13
 10
282.6191937244
 20
78.0584732888
 30
0.0
  0
VERTEX
  8
52572015
  6
CONTINUOUS
 62
         7
  5
A14
 10
282.3428802286
 20
78.4249271583
 30
0.0
  0
VERTEX
  8
52572015
  6
CONTINUOUS
 62
         7
  5
A15
 10
282.0598493473
 20
78.7692975055
 30
0.0
  0
VERTEX
  8
52572015
  6
CONTINUOUS
 62
         7
  5
A16
 10
281.7707679512
 20
79.0908761919
 30
0.0
  0
VERTEX
  8
52572015
  6
CONTINUOUS
 62
         7
  5
A17
 10
281.4763263352
 20
79.3890628
 30
0.0
  0
VERTEX
  8
52572015
  6
CONTINUOUS
 62
         7
  5
A18
 10
281.1772327934
 20
79.6633681437
 30
0.0
  0
VERTEX
  8
52572015
  6
CONTINUOUS
 62
         7
  5
A19
 10
280.8742080661
 20
79.9134164801
 30
0.0
  0
VERTEX
  8
52572015
  6
CONTINUOUS
 62
         7
  5
A1A
 10
280.5679797455
 20
80.1389464088
 30
0.0
  0
VERTEX
  8
52572015
  6
CONTINUOUS
 62
         7
  5
A1B
 10
280.2592767312
 20
80.3398104785
 30
0.0
  0
VERTEX
  8
52572015
  6
CONTINUOUS
 62
         7
  5
A1C
 10
279.9488238172
 20
80.5159735416
 30
0.0
  0
VERTEX
  8
52572015
  6
CONTINUOUS
 62
         7
  5
A1D
 10
279.6373364916
 20
80.6675099241
 30
0.0
  0
VERTEX
  8
52572015
  6
CONTINUOUS
 62
         7
  5
A1E
 10
279.3255160192
 20
80.7945995002
 30
0.0
  0
VERTEX
  8
52572015
  6
CONTINUOUS
 62
         7
  5
A1F
 10
279.0140448695
 20
80.897522778
 30
0.0
  0
VERTEX
  8
52572015
  6
CONTINUOUS
 62
         7
  5
A20
 10
278.7035825425
 20
80.9766551156
 30
0.0
  0
VERTEX
  8
52572015
  6
CONTINUOUS
 62
         7
  5
A21
 10
278.3947618337
 20
81.032460201
 30
0.0
  0
VERTEX
  8
52572015
  6
CONTINUOUS
 62
         7
  5
A22
 10
278.0881855681
 20
81.0654829316
 30
0.0
  0
VERTEX
  8
52572015
  6
CONTINUOUS
 62
         7
  5
A23
 10
277.7844238229
 20
81.0763418347
 30
0.0
  0
SEQEND
  8
52572015
  6
CONTINUOUS
 62
         7
  5
A24
  0
POLYLINE
  8
52572015
  6
CONTINUOUS
 62
         7
  5
A25
 66
         1
 10
0.0
 20
0.0
 30
0.0
  0
VERTEX
  8
52572015
  6
CONTINUOUS
 62
         7
  5
A26
 10
276.0523730153
 20
49.0763418347
 30
0.0
  0
VERTEX
  8
52572015
  6
CONTINUOUS
 62
         7
  5
A27
 10
276.3103588508
 20
49.0852186868
 30
0.0
  0
VERTEX
  8
52572015
  6
CONTINUOUS
 62
         7
  5
A28
 10
276.5705392527
 20
49.1121841571
 30
0.0
  0
VERTEX
  8
52572015
  6
CONTINUOUS
 62
         7
  5
A29
 10
276.832464631
 20
49.1577015386
 30
0.0
  0
VERTEX
  8
52572015
  6
CONTINUOUS
 62
         7
  5
A2A
 10
277.0956618087
 20
49.2221776383
 30
0.0
  0
VERTEX
  8
52572015
  6
CONTINUOUS
 62
         7
  5
A2B
 10
277.3596361148
 20
49.3059575217
 30
0.0
  0
VERTEX
  8
52572015
  6
CONTINUOUS
 62
         7
  5
A2C
 10
277.6238738044
 20
49.4093196052
 30
0.0
  0
VERTEX
  8
52572015
  6
CONTINUOUS
 62
         7
  5
A2D
 10
277.8878447886
 20
49.5324711849
 30
0.0
  0
VERTEX
  8
52572015
  6
CONTINUOUS
 62
         7
  5
A2E
 10
278.1510056546
 20
49.6755444894
 30
0.0
  0
VERTEX
  8
52572015
  6
CONTINUOUS
 62
         7
  5
A2F
 10
278.4128029457
 20
49.8385933409
 30
0.0
  0
VERTEX
  8
52572015
  6
CONTINUOUS
 62
         7
  5
A30
 10
278.6726766664
 20
50.0215904991
 30
0.0
  0
VERTEX
  8
52572015
  6
CONTINUOUS
 62
         7
  5
A31
 10
278.9300639703
 20
50.2244257553
 30
0.0
  0
VERTEX
  8
52572015
  6
CONTINUOUS
 62
         7
  5
A32
 10
279.1844029854
 20
50.44690483
 30
0.0
  0
VERTEX
  8
52572015
  6
CONTINUOUS
 62
         7
  5
A33
 10
279.4351367246
 20
50.688749118
 30
0.0
  0
VERTEX
  8
52572015
  6
CONTINUOUS
 62
         7
  5
A34
 10
279.6817170258
 20
50.9495963045
 30
0.0
  0
VERTEX
  8
52572015
  6
CONTINUOUS
 62
         7
  5
A35
 10
279.9236084669
 20
51.2290018644
 30
0.0
  0
VERTEX
  8
52572015
  6
CONTINUOUS
 62
         7
  5
A36
 10
280.1602921966
 20
51.5264414367
 30
0.0
  0
VERTEX
  8
52572015
  6
CONTINUOUS
 62
         7
  5
A37
 10
280.391269624
 20
51.8413140506
 30
0.0
  0
VERTEX
  8
52572015
  6
CONTINUOUS
 62
         7
  5
A38
 10
280.6160659132
 20
52.1729461623
 30
0.0
  0
VERTEX
  8
52572015
  6
CONTINUOUS
 62
         7
  5
A39
 10
280.8342332314
 20
52.5205964457
 30
0.0
  0
VERTEX
  8
52572015
  6
CONTINUOUS
 62
         7
  5
A3A
 10
281.0453537027
 20
52.8834612661
 30
0.0
  0
VERTEX
  8
52572015
  6
CONTINUOUS
 62
         7
  5
A3B
 10
281.4449477418
 20
53.6513453706
 30
0.0
  0
VERTEX
  8
52572015
  6
CONTINUOUS
 62
         7
  5
A3C
 10
281.8121943499
 20
54.4691657265
 30
0.0
  0
VERTEX
  8
52572015
  6
CONTINUOUS
 62
         7
  5
A3D
 10
282.1450466583
 20
55.3289244147
 30
0.0
  0
VERTEX
  8
52572015
  6
CONTINUOUS
 62
         7
  5
A3E
 10
282.4420906795
 20
56.2222962093
 30
0.0
  0
VERTEX
  8
52572015
  6
CONTINUOUS
 62
         7
  5
A3F
 10
282.7025450473
 20
57.1408643615
 30
0.0
  0
VERTEX
  8
52572015
  6
CONTINUOUS
 62
         7
  5
A40
 10
282.9262365578
 20
58.0763418347
 30
0.0
  0
SEQEND
  8
52572015
  6
CONTINUOUS
 62
         7
  5
A41
  0
POLYLINE
  8
52572015
  6
CONTINUOUS
 62
         7
  5
A42
 66
         1
 10
0.0
 20
0.0
 30
0.0
  0
VERTEX
  8
52572015
  6
CONTINUOUS
 62
         7
  5
A43
 10
282.9262365578
 20
70.0763418347
 30
0.0
  0
VERTEX
  8
52572015
  6
CONTINUOUS
 62
         7
  5
A44
 10
282.7025450473
 20
71.0118193079
 30
0.0
  0
VERTEX
  8
52572015
  6
CONTINUOUS
 62
         7
  5
A45
 10
282.4420906795
 20
71.9303874602
 30
0.0
  0
VERTEX
  8
52572015
  6
CONTINUOUS
 62
         7
  5
A46
 10
282.1450466583
 20
72.8237592547
 30
0.0
  0
VERTEX
  8
52572015
  6
CONTINUOUS
 62
         7
  5
A47
 10
281.8121943499
 20
73.6835179429
 30
0.0
  0
VERTEX
  8
52572015
  6
CONTINUOUS
 62
         7
  5
A48
 10
281.4449477418
 20
74.5013382989
 30
0.0
  0
VERTEX
  8
52572015
  6
CONTINUOUS
 62
         7
  5
A49
 10
281.0453537027
 20
75.2692224034
 30
0.0
  0
VERTEX
  8
52572015
  6
CONTINUOUS
 62
         7
  5
A4A
 10
280.8342332314
 20
75.6320872237
 30
0.0
  0
VERTEX
  8
52572015
  6
CONTINUOUS
 62
         7
  5
A4B
 10
280.6160659132
 20
75.9797375071
 30
0.0
  0
VERTEX
  8
52572015
  6
CONTINUOUS
 62
         7
  5
A4C
 10
280.391269624
 20
76.3113696188
 30
0.0
  0
VERTEX
  8
52572015
  6
CONTINUOUS
 62
         7
  5
A4D
 10
280.1602921966
 20
76.6262422327
 30
0.0
  0
VERTEX
  8
52572015
  6
CONTINUOUS
 62
         7
  5
A4E
 10
279.9236084669
 20
76.923681805
 30
0.0
  0
VERTEX
  8
52572015
  6
CONTINUOUS
 62
         7
  5
A4F
 10
279.6817170258
 20
77.203087365
 30
0.0
  0
VERTEX
  8
52572015
  6
CONTINUOUS
 62
         7
  5
A50
 10
279.4351367246
 20
77.4639345515
 30
0.0
  0
VERTEX
  8
52572015
  6
CONTINUOUS
 62
         7
  5
A51
 10
279.1844029854
 20
77.7057788394
 30
0.0
  0
VERTEX
  8
52572015
  6
CONTINUOUS
 62
         7
  5
A52
 10
278.9300639703
 20
77.9282579141
 30
0.0
  0
VERTEX
  8
52572015
  6
CONTINUOUS
 62
         7
  5
A53
 10
278.6726766664
 20
78.1310931703
 30
0.0
  0
VERTEX
  8
52572015
  6
CONTINUOUS
 62
         7
  5
A54
 10
278.4128029457
 20
78.3140903286
 30
0.0
  0
VERTEX
  8
52572015
  6
CONTINUOUS
 62
         7
  5
A55
 10
278.1510056546
 20
78.4771391801
 30
0.0
  0
VERTEX
  8
52572015
  6
CONTINUOUS
 62
         7
  5
A56
 10
277.8878447886
 20
78.6202124845
 30
0.0
  0
VERTEX
  8
52572015
  6
CONTINUOUS
 62
         7
  5
A57
 10
277.6238738044
 20
78.7433640642
 30
0.0
  0
VERTEX
  8
52572015
  6
CONTINUOUS
 62
         7
  5
A58
 10
277.3596361148
 20
78.8467261477
 30
0.0
  0
VERTEX
  8
52572015
  6
CONTINUOUS
 62
         7
  5
A59
 10
277.0956618087
 20
78.9305060311
 30
0.0
  0
VERTEX
  8
52572015
  6
CONTINUOUS
 62
         7
  5
A5A
 10
276.832464631
 20
78.9949821308
 30
0.0
  0
VERTEX
  8
52572015
  6
CONTINUOUS
 62
         7
  5
A5B
 10
276.5705392527
 20
79.0404995124
 30
0.0
  0
VERTEX
  8
52572015
  6
CONTINUOUS
 62
         7
  5
A5C
 10
276.3103588508
 20
79.0674649826
 30
0.0
  0
VERTEX
  8
52572015
  6
CONTINUOUS
 62
         7
  5
A5D
 10
276.0523730153
 20
79.0763418347
 30
0.0
  0
SEQEND
  8
52572015
  6
CONTINUOUS
 62
         7
  5
A5E
  0
POLYLINE
  8
52572015
  6
CONTINUOUS
 62
         7
  5
A5F
 66
         1
 10
0.0
 20
0.0
 30
0.0
  0
VERTEX
  8
52572015
  6
CONTINUOUS
 62
         7
  5
A60
 10
269.9901951888
 20
49.0763418347
 30
0.0
  0
VERTEX
  8
52572015
  6
CONTINUOUS
 62
         7
  5
A61
 10
270.2481810243
 20
49.0852186868
 30
0.0
  0
VERTEX
  8
52572015
  6
CONTINUOUS
 62
         7
  5
A62
 10
270.5083614262
 20
49.1121841571
 30
0.0
  0
VERTEX
  8
52572015
  6
CONTINUOUS
 62
         7
  5
A63
 10
270.7702868045
 20
49.1577015386
 30
0.0
  0
VERTEX
  8
52572015
  6
CONTINUOUS
 62
         7
  5
A64
 10
271.0334839822
 20
49.2221776383
 30
0.0
  0
VERTEX
  8
52572015
  6
CONTINUOUS
 62
         7
  5
A65
 10
271.2974582884
 20
49.3059575217
 30
0.0
  0
VERTEX
  8
52572015
  6
CONTINUOUS
 62
         7
  5
A66
 10
271.5616959779
 20
49.4093196052
 30
0.0
  0
VERTEX
  8
52572015
  6
CONTINUOUS
 62
         7
  5
A67
 10
271.8256669621
 20
49.5324711849
 30
0.0
  0
VERTEX
  8
52572015
  6
CONTINUOUS
 62
         7
  5
A68
 10
272.0888278281
 20
49.6755444894
 30
0.0
  0
VERTEX
  8
52572015
  6
CONTINUOUS
 62
         7
  5
A69
 10
272.3506251192
 20
49.8385933409
 30
0.0
  0
VERTEX
  8
52572015
  6
CONTINUOUS
 62
         7
  5
A6A
 10
272.6104988399
 20
50.0215904991
 30
0.0
  0
VERTEX
  8
52572015
  6
CONTINUOUS
 62
         7
  5
A6B
 10
272.8678861438
 20
50.2244257553
 30
0.0
  0
VERTEX
  8
52572015
  6
CONTINUOUS
 62
         7
  5
A6C
 10
273.1222251589
 20
50.44690483
 30
0.0
  0
VERTEX
  8
52572015
  6
CONTINUOUS
 62
         7
  5
A6D
 10
273.3729588981
 20
50.688749118
 30
0.0
  0
VERTEX
  8
52572015
  6
CONTINUOUS
 62
         7
  5
A6E
 10
273.6195391993
 20
50.9495963045
 30
0.0
  0
VERTEX
  8
52572015
  6
CONTINUOUS
 62
         7
  5
A6F
 10
273.8614306404
 20
51.2290018644
 30
0.0
  0
VERTEX
  8
52572015
  6
CONTINUOUS
 62
         7
  5
A70
 10
274.0981143701
 20
51.5264414367
 30
0.0
  0
VERTEX
  8
52572015
  6
CONTINUOUS
 62
         7
  5
A71
 10
274.3290917975
 20
51.8413140506
 30
0.0
  0
VERTEX
  8
52572015
  6
CONTINUOUS
 62
         7
  5
A72
 10
274.5538880867
 20
52.1729461623
 30
0.0
  0
VERTEX
  8
52572015
  6
CONTINUOUS
 62
         7
  5
A73
 10
274.7720554049
 20
52.5205964457
 30
0.0
  0
VERTEX
  8
52572015
  6
CONTINUOUS
 62
         7
  5
A74
 10
274.9831758762
 20
52.8834612661
 30
0.0
  0
VERTEX
  8
52572015
  6
CONTINUOUS
 62
         7
  5
A75
 10
275.3827699153
 20
53.6513453706
 30
0.0
  0
VERTEX
  8
52572015
  6
CONTINUOUS
 62
         7
  5
A76
 10
275.7500165234
 20
54.4691657265
 30
0.0
  0
VERTEX
  8
52572015
  6
CONTINUOUS
 62
         7
  5
A77
 10
276.0828688318
 20
55.3289244147
 30
0.0
  0
VERTEX
  8
52572015
  6
CONTINUOUS
 62
         7
  5
A78
 10
276.379912853
 20
56.2222962093
 30
0.0
  0
VERTEX
  8
52572015
  6
CONTINUOUS
 62
         7
  5
A79
 10
276.6403672208
 20
57.1408643615
 30
0.0
  0
VERTEX
  8
52572015
  6
CONTINUOUS
 62
         7
  5
A7A
 10
276.8640587313
 20
58.0763418347
 30
0.0
  0
SEQEND
  8
52572015
  6
CONTINUOUS
 62
         7
  5
A7B
  0
POLYLINE
  8
52572015
  6
CONTINUOUS
 62
         7
  5
A7C
 66
         1
 10
0.0
 20
0.0
 30
0.0
  0
VERTEX
  8
52572015
  6
CONTINUOUS
 62
         7
  5
A7D
 10
276.8640587313
 20
70.0763418347
 30
0.0
  0
VERTEX
  8
52572015
  6
CONTINUOUS
 62
         7
  5
A7E
 10
276.7289576996
 20
70.6608933983
 30
0.0
  0
VERTEX
  8
52572015
  6
CONTINUOUS
 62
         7
  5
A7F
 10
276.5789629973
 20
71.2424115429
 30
0.0
  0
VERTEX
  8
52572015
  6
CONTINUOUS
 62
         7
  5
A80
 10
276.4138575649
 20
71.81883799
 30
0.0
  0
VERTEX
  8
52572015
  6
CONTINUOUS
 62
         7
  5
A81
 10
276.2335116538
 20
72.3880202495
 30
0.0
  0
VERTEX
  8
52572015
  6
CONTINUOUS
 62
         7
  5
A82
 10
276.0378909275
 20
72.9477287054
 30
0.0
  0
VERTEX
  8
52572015
  6
CONTINUOUS
 62
         7
  5
A83
 10
275.8270636508
 20
73.4956765369
 30
0.0
  0
VERTEX
  8
52572015
  6
CONTINUOUS
 62
         7
  5
A84
 10
275.6012067022
 20
74.0295422842
 30
0.0
  0
VERTEX
  8
52572015
  6
CONTINUOUS
 62
         7
  5
A85
 10
275.3606101524
 20
74.5469947502
 30
0.0
  0
VERTEX
  8
52572015
  6
CONTINUOUS
 62
         7
  5
A86
 10
275.105680171
 20
75.0457198293
 30
0.0
  0
VERTEX
  8
52572015
  6
CONTINUOUS
 62
         7
  5
A87
 10
274.836940059
 20
75.5234487466
 30
0.0
  0
VERTEX
  8
52572015
  6
CONTINUOUS
 62
         7
  5
A88
 10
274.5550292477
 20
75.9779871016
 30
0.0
  0
VERTEX
  8
52572015
  6
CONTINUOUS
 62
         7
  5
A89
 10
274.2607001614
 20
76.4072440367
 30
0.0
  0
VERTEX
  8
52572015
  6
CONTINUOUS
 62
         7
  5
A8A
 10
273.954812907
 20
76.8092608007
 30
0.0
  0
VERTEX
  8
52572015
  6
CONTINUOUS
 62
         7
  5
A8B
 10
273.6383278227
 20
77.182237956
 30
0.0
  0
VERTEX
  8
52572015
  6
CONTINUOUS
 62
         7
  5
A8C
 10
273.3122959948
 20
77.5245604878
 30
0.0
  0
VERTEX
  8
52572015
  6
CONTINUOUS
 62
         7
  5
A8D
 10
272.977847922
 20
77.8348201148
 30
0.0
  0
VERTEX
  8
52572015
  6
CONTINUOUS
 62
         7
  5
A8E
 10
272.636180577
 20
78.1118341775
 30
0.0
  0
VERTEX
  8
52572015
  6
CONTINUOUS
 62
         7
  5
A8F
 10
272.2885431707
 20
78.3546605809
 30
0.0
  0
VERTEX
  8
52572015
  6
CONTINUOUS
 62
         7
  5
A90
 10
271.9362219758
 20
78.5626083992
 30
0.0
  0
VERTEX
  8
52572015
  6
CONTINUOUS
 62
         7
  5
A91
 10
271.5805245923
 20
78.735243893
 30
0.0
  0
VERTEX
  8
52572015
  6
CONTINUOUS
 62
         7
  5
A92
 10
271.2227640581
 20
78.8723918458
 30
0.0
  0
VERTEX
  8
52572015
  6
CONTINUOUS
 62
         7
  5
A93
 10
270.8642432004
 20
78.9741322848
 30
0.0
  0
VERTEX
  8
52572015
  6
CONTINUOUS
 62
         7
  5
A94
 10
270.5062396091
 20
79.0407927978
 30
0.0
  0
VERTEX
  8
52572015
  6
CONTINUOUS
 62
         7
  5
A95
 10
270.1499915742
 20
79.0729367969
 30
0.0
  0
VERTEX
  8
52572015
  6
CONTINUOUS
 62
         7
  5
A96
 10
269.7966852871
 20
79.0713481926
 30
0.0
  0
VERTEX
  8
52572015
  6
CONTINUOUS
 62
         7
  5
A97
 10
269.4474435451
 20
79.03701303
 30
0.0
  0
VERTEX
  8
52572015
  6
CONTINUOUS
 62
         7
  5
A98
 10
269.1033161376
 20
78.971098704
 30
0.0
  0
VERTEX
  8
52572015
  6
CONTINUOUS
 62
         7
  5
A99
 10
268.7652720286
 20
78.8749313961
 30
0.0
  0
VERTEX
  8
52572015
  6
CONTINUOUS
 62
         7
  5
A9A
 10
268.4341933821
 20
78.7499723844
 30
0.0
  0
VERTEX
  8
52572015
  6
CONTINUOUS
 62
         7
  5
A9B
 10
268.1108714223
 20
78.5977938531
 30
0.0
  0
VERTEX
  8
52572015
  6
CONTINUOUS
 62
         7
  5
A9C
 10
267.7960040618
 20
78.4200547847
 30
0.0
  0
VERTEX
  8
52572015
  6
CONTINUOUS
 62
         7
  5
A9D
 10
267.4901951888
 20
78.2184774584
 30
0.0
  0
SEQEND
  8
52572015
  6
CONTINUOUS
 62
         7
  5
A9E
  0
POLYLINE
  8
52572015
  6
CONTINUOUS
 62
         7
  5
A9F
 66
         1
 10
0.0
 20
0.0
 30
0.0
  0
VERTEX
  8
52572015
  6
CONTINUOUS
 62
         7
  5
AA0
 10
267.4901951888
 20
49.934206211
 30
0.0
  0
VERTEX
  8
52572015
  6
CONTINUOUS
 62
         7
  5
AA1
 10
267.7917740357
 20
49.7352199214
 30
0.0
  0
VERTEX
  8
52572015
  6
CONTINUOUS
 62
         7
  5
AA2
 10
268.0981276872
 20
49.5615107204
 30
0.0
  0
VERTEX
  8
52572015
  6
CONTINUOUS
 62
         7
  5
AA3
 10
268.4084557356
 20
49.413722655
 30
0.0
  0
VERTEX
  8
52572015
  6
CONTINUOUS
 62
         7
  5
AA4
 10
268.7219303484
 20
49.2923634399
 30
0.0
  0
VERTEX
  8
52572015
  6
CONTINUOUS
 62
         7
  5
AA5
 10
269.0377035835
 20
49.19779893
 30
0.0
  0
VERTEX
  8
52572015
  6
CONTINUOUS
 62
         7
  5
AA6
 10
269.3549150176
 20
49.1302494887
 30
0.0
  0
VERTEX
  8
52572015
  6
CONTINUOUS
 62
         7
  5
AA7
 10
269.6726995437
 20
49.0897883263
 30
0.0
  0
VERTEX
  8
52572015
  6
CONTINUOUS
 62
         7
  5
AA8
 10
269.9901951888
 20
49.0763418347
 30
0.0
  0
SEQEND
  8
52572015
  6
CONTINUOUS
 62
         7
  5
AA9
  0
POLYLINE
  8
52572015
  6
CONTINUOUS
 62
         7
  5
AAA
 66
         1
 10
0.0
 20
0.0
 30
0.0
  0
VERTEX
  8
52572015
  6
CONTINUOUS
 62
         7
  5
AAB
 10
268.4901951888
 20
50.0763418347
 30
0.0
  0
VERTEX
  8
52572015
  6
CONTINUOUS
 62
         7
  5
AAC
 10
268.7251196918
 20
50.0842282734
 30
0.0
  0
VERTEX
  8
52572015
  6
CONTINUOUS
 62
         7
  5
AAD
 10
268.9619361631
 20
50.1081693768
 30
0.0
  0
VERTEX
  8
52572015
  6
CONTINUOUS
 62
         7
  5
AAE
 10
269.2002543896
 20
50.1485543677
 30
0.0
  0
VERTEX
  8
52572015
  6
CONTINUOUS
 62
         7
  5
AAF
 10
269.4396648361
 20
50.2057243447
 30
0.0
  0
VERTEX
  8
52572015
  6
CONTINUOUS
 62
         7
  5
AB0
 10
269.6797404053
 20
50.2799680824
 30
0.0
  0
VERTEX
  8
52572015
  6
CONTINUOUS
 62
         7
  5
AB1
 10
269.9200384522
 20
50.371518123
 30
0.0
  0
VERTEX
  8
52572015
  6
CONTINUOUS
 62
         7
  5
AB2
 10
270.1601030405
 20
50.4805472251
 30
0.0
  0
VERTEX
  8
52572015
  6
CONTINUOUS
 62
         7
  5
AB3
 10
270.3994674221
 20
50.6071652393
 30
0.0
  0
VERTEX
  8
52572015
  6
CONTINUOUS
 62
         7
  5
AB4
 10
270.6376567175
 20
50.7514164716
 30
0.0
  0
VERTEX
  8
52572015
  6
CONTINUOUS
 62
         7
  5
AB5
 10
270.874190769
 20
50.9132775905
 30
0.0
  0
VERTEX
  8
52572015
  6
CONTINUOUS
 62
         7
  5
AB6
 10
271.1085871343
 20
51.09265613
 30
0.0
  0
VERTEX
  8
52572015
  6
CONTINUOUS
 62
         7
  5
AB7
 10
271.340364185
 20
51.2893896266
 30
0.0
  0
VERTEX
  8
52572015
  6
CONTINUOUS
 62
         7
  5
AB8
 10
271.5690442692
 20
51.5032454237
 30
0.0
  0
VERTEX
  8
52572015
  6
CONTINUOUS
 62
         7
  5
AB9
 10
271.7941568978
 20
51.7339211603
 30
0.0
  0
VERTEX
  8
52572015
  6
CONTINUOUS
 62
         7
  5
ABA
 10
272.0152419101
 20
51.9810459535
 30
0.0
  0
VERTEX
  8
52572015
  6
CONTINUOUS
 62
         7
  5
ABB
 10
272.2318525756
 20
52.2441822685
 30
0.0
  0
VERTEX
  8
52572015
  6
CONTINUOUS
 62
         7
  5
ABC
 10
272.6499489094
 20
52.8164219444
 30
0.0
  0
VERTEX
  8
52572015
  6
CONTINUOUS
 62
         7
  5
ABD
 10
273.0452503775
 20
53.4459190344
 30
0.0
  0
VERTEX
  8
52572015
  6
CONTINUOUS
 62
         7
  5
ABE
 10
273.4149490829
 20
54.127110893
 30
0.0
  0
VERTEX
  8
52572015
  6
CONTINUOUS
 62
         7
  5
ABF
 10
273.7566894101
 20
54.8537524764
 30
0.0
  0
VERTEX
  8
52572015
  6
CONTINUOUS
 62
         7
  5
AC0
 10
274.0686134846
 20
55.6190965816
 30
0.0
  0
VERTEX
  8
52572015
  6
CONTINUOUS
 62
         7
  5
AC1
 10
274.3493858859
 20
56.416084822
 30
0.0
  0
VERTEX
  8
52572015
  6
CONTINUOUS
 62
         7
  5
AC2
 10
274.598197588
 20
57.2375388132
 30
0.0
  0
VERTEX
  8
52572015
  6
CONTINUOUS
 62
         7
  5
AC3
 10
274.8147505092
 20
58.0763418347
 30
0.0
  0
SEQEND
  8
52572015
  6
CONTINUOUS
 62
         7
  5
AC4
  0
POLYLINE
  8
52572015
  6
CONTINUOUS
 62
         7
  5
AC5
 66
         1
 10
0.0
 20
0.0
 30
0.0
  0
VERTEX
  8
52572015
  6
CONTINUOUS
 62
         7
  5
AC6
 10
274.8147505092
 20
70.0763418347
 30
0.0
  0
VERTEX
  8
52572015
  6
CONTINUOUS
 62
         7
  5
AC7
 10
274.598197588
 20
70.9151448562
 30
0.0
  0
VERTEX
  8
52572015
  6
CONTINUOUS
 62
         7
  5
AC8
 10
274.3493858859
 20
71.7365988474
 30
0.0
  0
VERTEX
  8
52572015
  6
CONTINUOUS
 62
         7
  5
AC9
 10
274.0686134846
 20
72.5335870879
 30
0.0
  0
VERTEX
  8
52572015
  6
CONTINUOUS
 62
         7
  5
ACA
 10
273.7566894101
 20
73.298931193
 30
0.0
  0
VERTEX
  8
52572015
  6
CONTINUOUS
 62
         7
  5
ACB
 10
273.4149490829
 20
74.0255727765
 30
0.0
  0
VERTEX
  8
52572015
  6
CONTINUOUS
 62
         7
  5
ACC
 10
273.0452503775
 20
74.706764635
 30
0.0
  0
VERTEX
  8
52572015
  6
CONTINUOUS
 62
         7
  5
ACD
 10
272.6499489094
 20
75.336261725
 30
0.0
  0
VERTEX
  8
52572015
  6
CONTINUOUS
 62
         7
  5
ACE
 10
272.2318525756
 20
75.9085014009
 30
0.0
  0
VERTEX
  8
52572015
  6
CONTINUOUS
 62
         7
  5
ACF
 10
272.0152419101
 20
76.1716377159
 30
0.0
  0
VERTEX
  8
52572015
  6
CONTINUOUS
 62
         7
  5
AD0
 10
271.7941568978
 20
76.4187625091
 30
0.0
  0
VERTEX
  8
52572015
  6
CONTINUOUS
 62
         7
  5
AD1
 10
271.5690442692
 20
76.6494382457
 30
0.0
  0
VERTEX
  8
52572015
  6
CONTINUOUS
 62
         7
  5
AD2
 10
271.340364185
 20
76.8632940428
 30
0.0
  0
VERTEX
  8
52572015
  6
CONTINUOUS
 62
         7
  5
AD3
 10
271.1085871343
 20
77.0600275394
 30
0.0
  0
VERTEX
  8
52572015
  6
CONTINUOUS
 62
         7
  5
AD4
 10
270.874190769
 20
77.2394060789
 30
0.0
  0
VERTEX
  8
52572015
  6
CONTINUOUS
 62
         7
  5
AD5
 10
270.6376567175
 20
77.4012671978
 30
0.0
  0
VERTEX
  8
52572015
  6
CONTINUOUS
 62
         7
  5
AD6
 10
270.3994674221
 20
77.5455184301
 30
0.0
  0
VERTEX
  8
52572015
  6
CONTINUOUS
 62
         7
  5
AD7
 10
270.1601030405
 20
77.6721364444
 30
0.0
  0
VERTEX
  8
52572015
  6
CONTINUOUS
 62
         7
  5
AD8
 10
269.9200384522
 20
77.7811655464
 30
0.0
  0
VERTEX
  8
52572015
  6
CONTINUOUS
 62
         7
  5
AD9
 10
269.6797404053
 20
77.872715587
 30
0.0
  0
VERTEX
  8
52572015
  6
CONTINUOUS
 62
         7
  5
ADA
 10
269.4396648361
 20
77.9469593248
 30
0.0
  0
VERTEX
  8
52572015
  6
CONTINUOUS
 62
         7
  5
ADB
 10
269.2002543896
 20
78.0041293017
 30
0.0
  0
VERTEX
  8
52572015
  6
CONTINUOUS
 62
         7
  5
ADC
 10
268.9619361631
 20
78.0445142926
 30
0.0
  0
VERTEX
  8
52572015
  6
CONTINUOUS
 62
         7
  5
ADD
 10
268.7251196918
 20
78.068455396
 30
0.0
  0
VERTEX
  8
52572015
  6
CONTINUOUS
 62
         7
  5
ADE
 10
268.4901951888
 20
78.0763418347
 30
0.0
  0
SEQEND
  8
52572015
  6
CONTINUOUS
 62
         7
  5
ADF
  0
LINE
  8
52572015
  6
CONTINUOUS
 62
         7
  5
AE0
 10
250.198405821
 20
48.7303716797
 30
0.0
 11
247.5292641384
 21
50.2714013486
 31
0.0
  0
LINE
  8
52572015
  6
CONTINUOUS
 62
         7
  5
AE1
 10
236.908405821
 20
68.6672675743
 30
0.0
 11
236.908405821
 21
71.7493269122
 31
0.0
  0
LINE
  8
52572015
  6
CONTINUOUS
 62
         7
  5
AE2
 10
239.5775475037
 20
54.8623270882
 30
0.0
 11
236.908405821
 21
56.4033567572
 31
0.0
  0
LINE
  8
52572015
  6
CONTINUOUS
 62
         7
  5
AE3
 10
236.908405821
 20
56.4033567572
 30
0.0
 11
236.908405821
 21
59.4854160952
 31
0.0
  0
LINE
  8
52572015
  6
CONTINUOUS
 62
         7
  5
AE4
 10
236.908405821
 20
71.7493269122
 30
0.0
 11
239.5775475037
 21
73.2903565812
 31
0.0
  0
LINE
  8
52572015
  6
CONTINUOUS
 62
         7
  5
AE5
 10
250.198405821
 20
79.4223119898
 30
0.0
 11
252.8675475037
 21
77.8812823208
 31
0.0
  0
LINE
  8
52572015
  6
CONTINUOUS
 62
         7
  5
AE6
 10
247.5292641384
 20
77.8812823208
 30
0.0
 11
250.198405821
 21
79.4223119898
 31
0.0
  0
LINE
  8
52572015
  6
CONTINUOUS
 62
         7
  5
AE7
 10
260.8192641384
 20
73.2903565812
 30
0.0
 11
263.488405821
 21
71.7493269122
 31
0.0
  0
LINE
  8
52572015
  6
CONTINUOUS
 62
         7
  5
AE8
 10
263.488405821
 20
71.7493269122
 30
0.0
 11
263.488405821
 21
68.6672675743
 31
0.0
  0
LINE
  8
52572015
  6
CONTINUOUS
 62
         7
  5
AE9
 10
263.488405821
 20
56.4033567572
 30
0.0
 11
260.8192641384
 21
54.8623270882
 31
0.0
  0
LINE
  8
52572015
  6
CONTINUOUS
 62
         7
  5
AEA
 10
252.8675475037
 20
50.2714013486
 30
0.0
 11
250.198405821
 21
48.7303716797
 31
0.0
  0
LINE
  8
52572015
  6
CONTINUOUS
 62
         7
  5
AEB
 10
263.488405821
 20
59.4854160952
 30
0.0
 11
263.488405821
 21
56.4033567572
 31
0.0
  0
LINE
  8
52572015
  6
CONTINUOUS
 62
         7
  5
AEC
 10
272.7070565335
 20
73.0763418347
 30
0.0
 11
261.1899485529
 21
73.0763418347
 31
0.0
  0
LINE
  8
52572015
  6
CONTINUOUS
 62
         7
  5
AED
 10
293.2070565335
 20
70.0763418347
 30
0.0
 11
272.7070565335
 21
70.0763418347
 31
0.0
  0
LINE
  8
52572015
  6
CONTINUOUS
 62
         7
  5
AEE
 10
293.2070565335
 20
58.0763418347
 30
0.0
 11
294.2070565335
 21
58.6536921039
 31
0.0
  0
LINE
  8
52572015
  6
CONTINUOUS
 62
         7
  5
AEF
 10
297.2070565335
 20
68.0763418347
 30
0.0
 11
294.2070565335
 21
68.0763418347
 31
0.0
  0
LINE
  8
52572015
  6
CONTINUOUS
 62
         7
  5
AF0
 10
304.3249935576
 20
50.8263418347
 30
0.0
 11
310.3871713841
 21
50.8263418347
 31
0.0
  0
LINE
  8
52572015
  6
CONTINUOUS
 62
         7
  5
AF1
 10
327.1303291906
 20
82.0392666151
 30
0.0
 11
326.5529789214
 21
82.855763196
 31
0.0
  0
LINE
  8
52572015
  6
CONTINUOUS
 62
         7
  5
AF2
 10
310.3871713841
 20
41.0763418347
 30
0.0
 11
318.61441272
 21
41.0763418347
 31
0.0
  0
LINE
  8
52572015
  6
CONTINUOUS
 62
         7
  5
AF3
 10
292.5258191118
 20
51.6263418347
 30
0.0
 11
304.3249935576
 21
51.6263418347
 31
0.0
  0
LINE
  8
52572015
  6
CONTINUOUS
 62
         7
  5
AF4
 10
331.9264369947
 20
96.5763418347
 30
0.0
 11
318.61441272
 21
96.5763418347
 31
0.0
  0
LINE
  8
52572015
  6
CONTINUOUS
 62
         7
  5
AF5
 10
318.61441272
 20
31.5763418347
 30
0.0
 11
331.9264369947
 21
31.5763418347
 31
0.0
  0
LINE
  8
52572015
  6
CONTINUOUS
 62
         7
  5
AF6
 10
280.9423076554
 20
46.8763418347
 30
0.0
 11
283.7135889475
 21
46.8763418347
 31
0.0
  0
LINE
  8
52572015
  6
CONTINUOUS
 62
         7
  5
AF7
 10
326.5529789214
 20
45.2969204734
 30
0.0
 11
327.1303291906
 21
46.1134170543
 31
0.0
  0
LINE
  8
52572015
  6
CONTINUOUS
 62
         7
  5
AF8
 10
269.9901951888
 20
49.0763418347
 30
0.0
 11
276.0523730153
 21
49.0763418347
 31
0.0
  0
LINE
  8
52572015
  6
CONTINUOUS
 62
         7
  5
AF9
 10
267.4901951888
 20
78.2184774584
 30
0.0
 11
267.2891850621
 21
78.0763418347
 31
0.0
  0
LINE
  8
52572015
  6
CONTINUOUS
 62
         7
  5
AFA
 10
277.7844238229
 20
47.0763418347
 30
0.0
 11
280.9423076554
 21
47.0763418347
 31
0.0
  0
LINE
  8
52572015
  6
CONTINUOUS
 62
         7
  5
AFB
 10
252.5296945151
 20
50.0763418347
 30
0.0
 11
268.4901951888
 21
50.0763418347
 31
0.0
  0
ENDBLK
  8
52572015
  6
CONTINUOUS
 62
         7
  5
AFC
  0
ENDSEC
  0
SECTION
  2
ENTITIES
  0
INSERT
  8
0
 62
         0
 48
0.0
  5
34
  2
SE1
 10
0.0
 20
0.0
 30
0.0
  0
INSERT
  8
0
 62
         0
 48
0.0
  5
38
  2
SE0
 10
0.0
 20
0.0
 30
0.0
  0
INSERT
  8
0
 62
         0
 48
0.0
  5
3B
  2
SE3
 10
0.0
 20
0.0
 30
0.0
  0
INSERT
  8
0
 62
         0
 48
0.0
  5
3F
  2
SE2
 10
0.0
 20
0.0
 30
0.0
  0
INSERT
  8
0
 62
         0
 48
0.0
  5
42
  2
SE5
 10
0.0
 20
0.0
 30
0.0
  0
INSERT
  8
0
 62
         0
 48
0.0
  5
46
  2
SE4
 10
0.0
 20
0.0
 30
0.0
  0
INSERT
  8
0
 62
         0
 48
0.0
  5
49
  2
SE7
 10
0.0
 20
0.0
 30
0.0
  0
INSERT
  8
0
 62
         0
 48
0.0
  5
4D
  2
SE6
 10
0.0
 20
0.0
 30
0.0
  0
ENDSEC
  0
EOF
