  0
SECTION
  2
HEADER
  9
$ACADVER
  1
AC1014
  9
$ACADMAINTVER
 70
         0
  9
$DWGCODEPAGE
  3
ANSI_1252
  9
$INSBASE
 10
0.0
 20
0.0
 30
0.0
  9
$EXTMIN
 10
0.0
 20
0.0
 30
0.0
  9
$EXTMAX
 10
420.0
 20
297.0
 30
0.0
  9
$LIMMIN
 10
0.0
 20
0.0
  9
$LIMMAX
 10
420.0
 20
297.0
  9
$ORTHOMODE
 70
         0
  9
$REGENMODE
 70
         1
  9
$FILLMODE
 70
         1
  9
$QTEXTMODE
 70
         0
  9
$MIRRTEXT
 70
         1
  9
$DRAGMODE
 70
         2
  9
$LTSCALE
 40
25.4
  9
$OSMODE
 70
         0
  9
$ATTMODE
 70
         1
  9
$TEXTSIZE
 40
0.2
  9
$TRACEWID
 40
0.05
  9
$TEXTSTYLE
  7
Standard
  9
$CLAYER
  8
0
  9
$CELTYPE
  6
CONTINUOUS
  9
$CECOLOR
 62
       256
  9
$CELTSCALE
 40
1.0
  9
$DELOBJ
 70
         1
  9
$DISPSILH
 70
         0
  9
$DIMSCALE
 40
1.0
  9
$DIMASZ
 40
0.18
  9
$DIMEXO
 40
0.0625
  9
$DIMDLI
 40
0.38
  9
$DIMRND
 40
0.0
  9
$DIMDLE
 40
0.0
  9
$DIMEXE
 40
0.18
  9
$DIMTP
 40
0.0
  9
$DIMTM
 40
0.0
  9
$DIMTXT
 40
0.18
  9
$DIMCEN
 40
0.09
  9
$DIMTSZ
 40
0.0
  9
$DIMTOL
 70
         0
  9
$DIMLIM
 70
         0
  9
$DIMTIH
 70
         1
  9
$DIMTOH
 70
         1
  9
$DIMSE1
 70
         0
  9
$DIMSE2
 70
         0
  9
$DIMTAD
 70
         0
  9
$DIMZIN
 70
         0
  9
$DIMBLK
  1

  9
$DIMASO
 70
         1
  9
$DIMSHO
 70
         1
  9
$DIMPOST
  1

  9
$DIMAPOST
  1

  9
$DIMALT
 70
         0
  9
$DIMALTD
 70
         2
  9
$DIMALTF
 40
25.4
  9
$DIMLFAC
 40
1.0
  9
$DIMTOFL
 70
         0
  9
$DIMTVP
 40
0.0
  9
$DIMTIX
 70
         0
  9
$DIMSOXD
 70
         0
  9
$DIMSAH
 70
         0
  9
$DIMBLK1
  1

  9
$DIMBLK2
  1

  9
$DIMSTYLE
  2
Standard
  9
$DIMCLRD
 70
         0
  9
$DIMCLRE
 70
         0
  9
$DIMCLRT
 70
         0
  9
$DIMTFAC
 40
1.0
  9
$DIMGAP
 40
0.09
  9
$DIMJUST
 70
         0
  9
$DIMSD1
 70
         0
  9
$DIMSD2
 70
         0
  9
$DIMTOLJ
 70
         1
  9
$DIMTZIN
 70
         0
  9
$DIMALTZ
 70
         0
  9
$DIMALTTZ
 70
         0
  9
$DIMFIT
 70
         3
  9
$DIMUPT
 70
         0
  9
$DIMUNIT
 70
         2
  9
$DIMDEC
 70
         4
  9
$DIMTDEC
 70
         4
  9
$DIMALTU
 70
         2
  9
$DIMALTTD
 70
         2
  9
$DIMTXSTY
  7
Standard
  9
$DIMAUNIT
 70
         0
  9
$LUNITS
 70
         2
  9
$LUPREC
 70
         4
  9
$SKETCHINC
 40
0.1
  9
$FILLETRAD
 40
0.0
  9
$AUNITS
 70
         0
  9
$AUPREC
 70
         0
  9
$MENU
  1
acad
  9
$ELEVATION
 40
0.0
  9
$PELEVATION
 40
0.0
  9
$THICKNESS
 40
0.0
  9
$LIMCHECK
 70
         0
  9
$BLIPMODE
 70
         1
  9
$CHAMFERA
 40
0.0
  9
$CHAMFERB
 40
0.0
  9
$CHAMFERC
 40
0.0
  9
$CHAMFERD
 40
0.0
  9
$SKPOLY
 70
         0
  9
$TDCREATE
 40
0.000000000
  9
$TDUPDATE
 40
0.000000000
  9
$TDINDWG
 40
0.0000000000
  9
$TDUSRTIMER
 40
0.0000000000
  9
$USRTIMER
 70
         1
  9
$ANGBASE
 50
0.0
  9
$ANGDIR
 70
         0
  9
$PDMODE
 70
         0
  9
$PDSIZE
 40
0.0
  9
$PLINEWID
 40
0.0
  9
$COORDS
 70
         0
  9
$SPLFRAME
 70
         0
  9
$SPLINETYPE
 70
         6
  9
$SPLINESEGS
 70
         8
  9
$ATTDIA
 70
         0
  9
$ATTREQ
 70
         1
  9
$HANDLING
 70
         1
  9
$HANDSEED
  5
37F
  9
$SURFTAB1
 70
         6
  9
$SURFTAB2
 70
         6
  9
$SURFTYPE
 70
         6
  9
$SURFU
 70
         6
  9
$SURFV
 70
         6
  9
$UCSNAME
  2

  9
$UCSORG
 10
0.0
 20
0.0
 30
0.0
  9
$UCSXDIR
 10
1.0
 20
0.0
 30
0.0
  9
$UCSYDIR
 10
0.0
 20
1.0
 30
0.0
  9
$PUCSNAME
  2

  9
$PUCSORG
 10
0.0
 20
0.0
 30
0.0
  9
$PUCSXDIR
 10
1.0
 20
0.0
 30
0.0
  9
$PUCSYDIR
 10
0.0
 20
1.0
 30
0.0
  9
$USERI1
 70
         0
  9
$USERI2
 70
         0
  9
$USERI3
 70
         0
  9
$USERI4
 70
         0
  9
$USERI5
 70
         0
  9
$USERR1
 40
0.0
  9
$USERR2
 40
0.0
  9
$USERR3
 40
0.0
  9
$USERR4
 40
0.0
  9
$USERR5
 40
0.0
  9
$WORLDVIEW
 70
         1
  9
$SHADEDGE
 70
         3
  9
$SHADEDIF
 70
        70
  9
$TILEMODE
 70
         1
  9
$MAXACTVP
 70
        16
  9
$PINSBASE
 10
0.0
 20
0.0
 30
0.0
  9
$PLIMCHECK
 70
         0
  9
$PEXTMIN
 10
1.0000000000E+20
 20
1.0000000000E+20
 30
1.0000000000E+20
  9
$PEXTMAX
 10
-1.0000000000E+20
 20
-1.0000000000E+20
 30
-1.0000000000E+20
  9
$PLIMMIN
 10
0.0
 20
0.0
  9
$PLIMMAX
 10
12.0
 20
9.0
  9
$UNITMODE
 70
         0
  9
$VISRETAIN
 70
         0
  9
$PLINEGEN
 70
         1
  9
$PSLTSCALE
 70
         0
  9
$TREEDEPTH
 70
      3020
  9
$PICKSTYLE
 70
         1
  9
$CMLSTYLE
  2
Standard
  9
$CMLJUST
 70
         0
  9
$CMLSCALE
 40
1.0
  9
$PROXYGRAPHICS
 70
         0
  9
$MEASUREMENT
 70
         0
  0
ENDSEC
  0
SECTION
  2
CLASSES
  0
CLASS
  1
LWPOLYLINE
  2
AcDbPolyline
  3
"AutoCAD"
 90
        0
280
         0
281
         1
  0
CLASS
  1
IMAGE
  2
AcDbRasterImage
  3
ISM
 90
      127
280
         0
281
         1
  0
CLASS
  1
OLE2FRAME
  2
AcDbOle2Frame
  3
""
 90
        0
280
         0
281
         1
  0
CLASS
  1
HATCH
  2
AcDbHatch
  3
"ACAD_SEDONA"
 90
        0
280
         0
281
         1
  0
CLASS
  1
DICTIONARYVAR
  2
AcDbDictionaryVar
  3
"AutoCAD"
 90
        0
280
         0
281
         0
  0
CLASS
  1
RASTERVARIABLES
  2
AcDbRasterVariables
  3
ISM
 90
        0
280
         0
281
         0
  0
CLASS
  1
IMAGEDEF
  2
AcDbRasterImageDef
  3
ISM
 90
        0
280
         0
281
         0
  0
CLASS
  1
IMAGEDEF_REACTOR
  2
AcDbRasterImageDefReactor
  3
ISM
 90
        1
280
         0
281
         0
  0
CLASS
  1
IDBUFFER
  2
AcDbIdBuffer
  3
"Acad"
 90
        0
280
         0
281
         0
  0
CLASS
  1
SPATIAL_FILTER
  2
AcDbSpatialFilter
  3
"Acad"
 90
        0
280
         0
281
         0
  0
CLASS
  1
XRECORD
  2
AcDbXrecord
  3
"<Built In>"
 90
        0
280
         0
281
         0
  0
CLASS
  1
SORTENTSTABLE
  2
AcDbSortentsTable
  3
"AutoCAD"
 90
        0
280
         0
281
         0
  0
CLASS
  1
LAYER_INDEX
  2
AcDbLayerIndex
  3
"Acad"
 90
        0
280
         0
281
         0
  0
CLASS
  1
SPATIAL_INDEX
  2
AcDbSpatialIndex
  3
"Acad"
 90
        0
280
         0
281
         0
  0
CLASS
  1
OBJECT_PTR
  2
CAseDLPNTableRecord
  3
"ASE-LPNTableRecord"
 90
        1
280
         0
281
         0
  0
CLASS
  1
LAYOUT
  2
AcDbLayout
  3
"AutoCAD 2000"
 90
        1
280
         0
281
         0
  0
CLASS
  1
PLOTSETTINGS
  2
AcDbPlotSettings
  3
"AutoCAD 2000"
 90
        1
280
         0
281
         0
  0
CLASS
  1
ACDBDICTIONARYWDFLT
  2
AcDbDictionaryWithDefault
  3
"AutoCAD 2000"
 90
        1
280
         0
281
         0
  0
CLASS
  1
ACDBPLACEHOLDER
  2
AcDbPlaceHolder
  3
"AutoCAD 2000"
 90
        1
280
         0
281
         0
  0
CLASS
  1
VBA_PROJECT
  2
AcDbVbaProject
  3
"acadvba"
 90
        1
280
         0
281
         0
  0
CLASS
  1
WIPEOUT
  2
AcDbWipeout
  3
WipeOut|AutoCAD Express Tool|expresstools@autodesk.com
 90
      127
280
         0
281
         1
  0
CLASS
  1
WIPEOUTVARIABLES
  2
AcDbWipeoutVariables
  3
WipeOut|AutoCAD Express Tool|expresstools@autodesk.com
 90
        0
280
         0
281
         0
  0
CLASS
  1
RTEXT
  2
RText
  3
RText|AutoCAD Express Tool|expresstools@autodesk.com
 90
        0
280
         0
281
         1
  0
CLASS
  1
ARCALIGNEDTEXT
  2
AcDbArcAlignedText
  3
ATEXT|AutoCAD Express Tool|expresstools@autodesk.com
 90
        0
280
         0
281
         1
  0
ENDSEC
  0
SECTION
  2
TABLES
  0
TABLE
  2
VPORT
  5
7
100
AcDbSymbolTable
 70
         1
  0
VPORT
  5
15
100
AcDbSymbolTableRecord
100
AcDbViewportTableRecord
  2
*ACTIVE
 70
         0
 10
0.0
 20
0.0
 11
1.0
 21
1.0
 12
210.0
 22
148.5
 13
0.0
 23
0.0
 14
1.0
 24
1.0
 15
0.0
 25
0.0
 16
0.0
 26
0.0
 36
1.0
 17
0.0
 27
0.0
 37
0.0
 40
297.0
 41
1.604229
 42
50.0
 43
0.0
 44
0.0
 50
0.0
 51
0.0
 71
         0
 72
       100
 73
         1
 74
         1
 75
         0
 76
         0
 77
         0
 78
         0
  0
ENDTAB
  0
TABLE
  2
LTYPE
  5
4
100
AcDbSymbolTable
 70
         7
  0
LTYPE
  5
11
100
AcDbSymbolTableRecord
100
AcDbLinetypeTableRecord
  2
ByBlock
 70
        64
  3

 72
        65
 73
         0
 40
0.0
  0
LTYPE
  5
12
100
AcDbSymbolTableRecord
100
AcDbLinetypeTableRecord
  2
ByLayer
 70
        64
  3

 72
        65
 73
         0
 40
0.0
  0
LTYPE
  5
13
100
AcDbSymbolTableRecord
100
AcDbLinetypeTableRecord
  2
CONTINUOUS
 70
         0
  3
Solid line
 72
        65
 73
         0
 40
0.0
  0
LTYPE
  5
28
100
AcDbSymbolTableRecord
100
AcDbLinetypeTableRecord
  2
HIDDEN2
 70
        64
  3
_ _ _ _ _ _ _ _ _ _ _ _ _ _ _ _ _ _ _ _ _ _ _ _
 72
        65
 73
         2
 40
0.1875
 49
0.125
 74
         0
 49
-0.0625
 74
         0
  0
LTYPE
  5
29
100
AcDbSymbolTableRecord
100
AcDbLinetypeTableRecord
  2
CENTER2
 70
        64
  3
___ _ ___ _ ___ _ ___ _ ___ _ ___ _ ___ _ ___ _
 72
        65
 73
         4
 40
1.125
 49
0.75
 74
         0
 49
-0.125
 74
         0
 49
0.125
 74
         0
 49
-0.125
 74
         0
  0
LTYPE
  5
2A
100
AcDbSymbolTableRecord
100
AcDbLinetypeTableRecord
  2
PHANTOM2
 70
        64
  3
___ _ _ ___ _ _ ___ _ _ ___ _ _ ___ _ _ ___ _ _
 72
        65
 73
         6
 40
1.25
 49
0.625
 74
         0
 49
-0.125
 74
         0
 49
0.125
 74
         0
 49
-0.125
 74
         0
 49
0.125
 74
         0
 49
-0.125
 74
         0
  0
LTYPE
  5
2B
100
AcDbSymbolTableRecord
100
AcDbLinetypeTableRecord
  2
DOT2
 70
        64
  3
...............................................
 72
        65
 73
         2
 40
0.125
 49
0.0
 74
         0
 49
-0.125
 74
         0
  0
ENDTAB
  0
TABLE
  2
LAYER
  5
2
100
AcDbSymbolTable
 70
         3
  0
LAYER
  5
14
100
AcDbSymbolTableRecord
100
AcDbLayerTableRecord
  2
0
 70
         0
 62
         7
  6
CONTINUOUS
  0
LAYER
  5
2D
100
AcDbSymbolTableRecord
100
AcDbLayerTableRecord
  2
DEFAULT
 70
         0
 62
         7
  6
CONTINUOUS
  0
LAYER
  5
37
100
AcDbSymbolTableRecord
100
AcDbLayerTableRecord
  2
STAP_DN50
 70
         0
 62
         7
  6
CONTINUOUS
  0
ENDTAB
  0
TABLE
  2
STYLE
  5
3
100
AcDbSymbolTable
 70
         1
  0
STYLE
  5
17
100
AcDbSymbolTableRecord
100
AcDbTextStyleTableRecord
  2
Standard
 70
         0
 40
0.0
 41
1.0
 50
0.0
 71
         0
 42
0.2
  3
txt
  4

  0
ENDTAB
  0
TABLE
  2
VIEW
  5
5
100
AcDbSymbolTable
 70
         0
  0
ENDTAB
  0
TABLE
  2
UCS
  5
6
100
AcDbSymbolTable
 70
         0
  0
ENDTAB
  0
TABLE
  2
APPID
  5
8
100
AcDbSymbolTable
 70
         1
  0
APPID
  5
16
100
AcDbSymbolTableRecord
100
AcDbRegAppTableRecord
  2
ACAD
 70
         0
  0
ENDTAB
  0
TABLE
  2
DIMSTYLE
  5
9
100
AcDbSymbolTable
 70
         1
  0
DIMSTYLE
105
18
100
AcDbSymbolTableRecord
100
AcDbDimStyleTableRecord
  2
Standard
 70
         0
  3

  4

  5

  6

  7

 40
1.0
 41
0.18
 42
0.0625
 43
0.38
 44
0.18
 45
0.0
 46
0.0
 47
0.0
 48
0.0
 71
         0
 72
         0
 73
         1
 74
         1
 75
         0
 76
         0
 77
         0
 78
         0
140
0.18
141
0.09
142
0.0
143
25.4
144
1.0
145
0.0
146
1.0
147
0.09
170
         0
171
         2
172
         0
173
         0
174
         0
175
         0
176
         0
177
         0
178
         0
270
         2
271
         4
272
         4
273
         2
274
         2
275
         0
280
         0
281
         0
282
         0
283
         1
284
         0
285
         0
286
         0
287
         0
288
         0
340
17
  0
ENDTAB
  0
TABLE
  2
BLOCK_RECORD
  5
1
100
AcDbSymbolTable
 70
         8
  0
BLOCK_RECORD
  5
A
100
AcDbSymbolTableRecord
100
AcDbBlockTableRecord
  2
*MODEL_SPACE
  0
BLOCK_RECORD
  5
B
100
AcDbSymbolTableRecord
100
AcDbBlockTableRecord
  2
*PAPER_SPACE
  0
BLOCK_RECORD
  5
38
100
AcDbSymbolTableRecord
100
AcDbBlockTableRecord
  2
SE0
  0
BLOCK_RECORD
  5
39
100
AcDbSymbolTableRecord
100
AcDbBlockTableRecord
  2
SE1
  0
BLOCK_RECORD
  5
3F
100
AcDbSymbolTableRecord
100
AcDbBlockTableRecord
  2
SE2
  0
BLOCK_RECORD
  5
40
100
AcDbSymbolTableRecord
100
AcDbBlockTableRecord
  2
SE3
  0
BLOCK_RECORD
  5
46
100
AcDbSymbolTableRecord
100
AcDbBlockTableRecord
  2
SE4
  0
BLOCK_RECORD
  5
47
100
AcDbSymbolTableRecord
100
AcDbBlockTableRecord
  2
SE5
  0
BLOCK_RECORD
  5
4D
100
AcDbSymbolTableRecord
100
AcDbBlockTableRecord
  2
SE6
  0
BLOCK_RECORD
  5
4E
100
AcDbSymbolTableRecord
100
AcDbBlockTableRecord
  2
SE7
  0
ENDTAB
  0
ENDSEC
  0
SECTION
  2
BLOCKS
  0
BLOCK
  5
D
100
AcDbEntity
  8
0
100
AcDbBlockBegin
  2
*MODEL_SPACE
 70
         0
 10
0.0
 20
0.0
 30
0.0
  3
*MODEL_SPACE
  1

  0
ENDBLK
  5
E
100
AcDbEntity
  8
0
100
AcDbBlockEnd
  0
BLOCK
  5
F
100
AcDbEntity
 67
         1
  8
0
100
AcDbBlockBegin
  2
*PAPER_SPACE
 70
         0
 10
0.0
 20
0.0
 30
0.0
  3
*PAPER_SPACE
  1

  0
ENDBLK
  5
10
100
AcDbEntity
 67
         1
  8
0
100
AcDbBlockEnd
  0
BLOCK
  5
141
100
AcDbEntity
  8
0
 62
         1
 48
0.0
100
AcDbBlockBegin
  2
SE0
 70
         0
 10
0.0
 20
0.0
 30
0.0
  3
SE0
  1

  0
ENDBLK
  5
142
100
AcDbEntity
  8
0
 62
         1
 48
0.0
100
AcDbBlockEnd
  0
BLOCK
  5
54
100
AcDbEntity
  8
0
 62
         1
 48
0.0
100
AcDbBlockBegin
  2
SE1
 70
         0
 10
0.0
 20
0.0
 30
0.0
  3
SE1
  1

  0
LINE
  5
55
100
AcDbEntity
  8
STAP_DN50
  6
CONTINUOUS
 62
         7
100
AcDbLine
 10
51.2666681747
 20
141.5048175853
 30
0.0
 11
50.8937357144
 21
141.3259095994
 31
0.0
  0
LINE
  5
56
100
AcDbEntity
  8
STAP_DN50
  6
CONTINUOUS
 62
         7
100
AcDbLine
 10
59.665160393
 20
163.8627773984
 30
0.0
 11
60.2320964255
 21
163.8675322584
 31
0.0
  0
ARC
  5
57
100
AcDbEntity
  8
STAP_DN50
  6
CONTINUOUS
 62
         7
100
AcDbCircle
 10
-65.6367398936
 20
430.3999785991
 30
0.0
 40
311.3452233712
100
AcDbArc
 50
293.3282083261
 51
294.7257506029
  0
LINE
  5
58
100
AcDbEntity
  8
STAP_DN50
  6
CONTINUOUS
 62
         7
100
AcDbLine
 10
160.0770532254
 20
148.6336363287
 30
0.0
 11
53.8252123336
 21
120.1635413674
 31
0.0
  0
LINE
  5
59
100
AcDbEntity
  8
STAP_DN50
  6
CONTINUOUS
 62
         7
100
AcDbLine
 10
161.8111408276
 20
142.1619332925
 30
0.0
 11
55.5592999358
 21
113.6918383313
 31
0.0
  0
LINE
  5
5A
100
AcDbEntity
  8
STAP_DN50
  6
CONTINUOUS
 62
         7
100
AcDbLine
 10
21.5678872245
 20
229.0416936521
 30
0.0
 11
21.5678872245
 21
162.0416936521
 31
0.0
  0
LINE
  5
5B
100
AcDbEntity
  8
STAP_DN50
  6
CONTINUOUS
 62
         7
100
AcDbLine
 10
147.4087905049
 20
167.1870405879
 30
0.0
 11
50.8937357144
 21
141.3259095994
 31
0.0
  0
LINE
  5
5C
100
AcDbEntity
  8
STAP_DN50
  6
CONTINUOUS
 62
         7
100
AcDbLine
 10
143.4187296761
 20
166.8346350702
 30
0.0
 11
147.4087905049
 21
167.1870405879
 31
0.0
  0
LINE
  5
5D
100
AcDbEntity
  8
STAP_DN50
  6
CONTINUOUS
 62
         7
100
AcDbLine
 10
113.4987965278
 20
163.394751656
 30
0.0
 11
78.6285128099
 21
154.051287294
 31
0.0
  0
LINE
  5
5E
100
AcDbEntity
  8
STAP_DN50
  6
CONTINUOUS
 62
         7
100
AcDbLine
 10
157.0151910469
 20
150.4014032816
 30
0.0
 11
55.5929792866
 21
123.2254035459
 31
0.0
  0
LINE
  5
5F
100
AcDbEntity
  8
STAP_DN50
  6
CONTINUOUS
 62
         7
100
AcDbLine
 10
126.8564135535
 20
228.0916936521
 30
0.0
 11
126.8564135535
 21
169.1124957831
 31
0.0
  0
LINE
  5
60
100
AcDbEntity
  8
STAP_DN50
  6
CONTINUOUS
 62
         7
100
AcDbLine
 10
129.3678872245
 20
229.5416936521
 30
0.0
 11
129.3678872245
 21
167.3459492924
 31
0.0
  0
LINE
  5
61
100
AcDbEntity
  8
STAP_DN50
  6
CONTINUOUS
 62
         7
100
AcDbLine
 10
53.2793608955
 20
228.0916936521
 30
0.0
 11
53.2793608955
 21
163.6393723814
 31
0.0
  0
LINE
  5
62
100
AcDbEntity
  8
STAP_DN50
  6
CONTINUOUS
 62
         7
100
AcDbLine
 10
50.7678872245
 20
229.5416936521
 30
0.0
 11
50.7678872245
 21
162.0779236154
 31
0.0
  0
LINE
  5
63
100
AcDbEntity
  8
STAP_DN50
  6
CONTINUOUS
 62
         7
100
AcDbLine
 10
158.5678872245
 20
229.0416936521
 30
0.0
 11
158.5678872245
 21
162.0416936521
 31
0.0
  0
LINE
  5
64
100
AcDbEntity
  8
STAP_DN50
  6
CONTINUOUS
 62
         7
100
AcDbLine
 10
142.7678872245
 20
229.5416936521
 30
0.0
 11
142.7678872245
 21
166.9809830343
 31
0.0
  0
LINE
  5
65
100
AcDbEntity
  8
STAP_DN50
  6
CONTINUOUS
 62
         7
100
AcDbLine
 10
37.3678872245
 20
229.5416936521
 30
0.0
 11
37.3678872245
 21
161.5416936521
 31
0.0
  0
ARC
  5
66
100
AcDbEntity
  8
STAP_DN50
  6
CONTINUOUS
 62
         7
100
AcDbCircle
 10
142.955257103
 20
227.6003134303
 30
0.0
 40
15.167735061
100
AcDbArc
 50
338.7377372552
 51
21.2622627448
  0
ARC
  5
67
100
AcDbEntity
  8
STAP_DN50
  6
CONTINUOUS
 62
         7
100
AcDbCircle
 10
72.4637709897
 20
182.2625785491
 30
0.0
 40
85.6622612847
100
AcDbArc
 50
351.0822121515
 51
8.9177878485
  0
ARC
  5
68
100
AcDbEntity
  8
STAP_DN50
  6
CONTINUOUS
 62
         7
100
AcDbCircle
 10
21.9372422202
 20
227.6003134303
 30
0.0
 40
15.167735061
100
AcDbArc
 50
338.7377372552
 51
21.2622627448
  0
ARC
  5
69
100
AcDbEntity
  8
STAP_DN50
  6
CONTINUOUS
 62
         7
100
AcDbCircle
 10
37.180517346
 20
227.6003134303
 30
0.0
 40
15.167735061
100
AcDbArc
 50
158.7377372552
 51
201.2622627448
  0
ARC
  5
6A
100
AcDbEntity
  8
STAP_DN50
  6
CONTINUOUS
 62
         7
100
AcDbCircle
 10
107.6720034594
 20
208.8208087552
 30
0.0
 40
85.6622612847
100
AcDbArc
 50
171.0822121515
 51
188.9177878485
  0
ARC
  5
6B
100
AcDbEntity
  8
STAP_DN50
  6
CONTINUOUS
 62
         7
100
AcDbCircle
 10
21.9372422202
 20
163.483073874
 30
0.0
 40
15.167735061
100
AcDbArc
 50
338.7377372552
 51
21.2622627448
  0
LINE
  5
6C
100
AcDbEntity
  8
STAP_DN50
  6
CONTINUOUS
 62
         7
100
AcDbLine
 10
144.0632606914
 20
233.1007030023
 30
0.0
 11
157.0905286405
 21
233.1007030023
 31
0.0
  0
LINE
  5
6D
100
AcDbEntity
  8
STAP_DN50
  6
CONTINUOUS
 62
         7
100
AcDbLine
 10
144.0632606914
 20
222.0999238583
 30
0.0
 11
157.0905286405
 21
222.0999238583
 31
0.0
  0
ARC
  5
6E
100
AcDbEntity
  8
STAP_DN50
  6
CONTINUOUS
 62
         7
100
AcDbCircle
 10
228.6900183422
 20
182.2625785491
 30
0.0
 40
85.6622612847
100
AcDbArc
 50
171.0822121515
 51
188.9177878485
  0
ARC
  5
6F
100
AcDbEntity
  8
STAP_DN50
  6
CONTINUOUS
 62
         7
100
AcDbCircle
 10
305.8236279955
 20
420.8790675225
 30
0.0
 40
308.8942707312
100
AcDbArc
 50
234.5930412471
 51
235.1625870421
  0
SPLINE
  5
70
100
AcDbEntity
  8
STAP_DN50
  6
CONTINUOUS
 62
         7
100
AcDbSpline
210
0.0
220
0.0
230
1.0
 70
         8
 71
         3
 72
        22
 73
        18
 74
         0
 42
0.0
 43
0.0
 40
0.0
 40
0.0
 40
0.0
 40
0.0
 40
0.125
 40
0.125
 40
0.25
 40
0.25
 40
0.375
 40
0.375
 40
0.5
 40
0.5
 40
0.625
 40
0.625
 40
0.75
 40
0.75
 40
0.875
 40
0.875
 40
1.0
 40
1.0
 40
1.0
 40
1.0
 10
111.96673160642297
 20
169.11249578311927
 30
0.0
 10
110.42465231871884
 20
169.798942898581
 30
0.0
 10
108.80348380035036
 20
170.46069847468613
 30
0.0
 10
105.37310562895181
 20
171.64203091654133
 30
0.0
 10
103.55112526130759
 20
172.16297480490411
 30
0.0
 10
99.81386671700028
 20
172.87380965869104
 30
0.0
 10
97.84796377046267
 20
173.06526979002086
 30
0.0
 10
93.981311784000113
 20
172.95382411830479
 30
0.0
 10
92.038896950500003
 20
172.64328298488158
 30
0.0
 10
88.451749263263537
 20
171.62892763038349
 30
0.0
 10
86.764652920621458
 20
170.92439082526008
 30
0.0
 10
83.755730224680022
 20
169.40361612501471
 30
0.0
 10
82.400856266074626
 20
168.57749672665332
 30
0.0
 10
79.998584507726036
 20
166.97866562606163
 30
0.0
 10
78.968887498957159
 20
166.21852657100908
 30
0.0
 10
77.216432862995504
 20
164.86986892917838
 30
0.0
 10
76.513002045798487
 20
164.29490697768716
 30
0.0
 10
75.99825789901854
 20
163.86753225835062
 30
0.0
  0
LINE
  5
71
100
AcDbEntity
  8
STAP_DN50
  6
CONTINUOUS
 62
         7
100
AcDbLine
 10
50.7678872245
 20
162.0779236154
 30
0.0
 11
53.2793608955
 21
163.6393723814
 31
0.0
  0
LINE
  5
72
100
AcDbEntity
  8
STAP_DN50
  6
CONTINUOUS
 62
         7
100
AcDbLine
 10
21.5678872245
 20
162.0416936521
 30
0.0
 11
23.0452458086
 21
157.982684302
 31
0.0
  0
LINE
  5
73
100
AcDbEntity
  8
STAP_DN50
  6
CONTINUOUS
 62
         7
100
AcDbLine
 10
143.4187296761
 20
166.8346350702
 30
0.0
 11
142.7678872245
 21
166.9809830343
 31
0.0
  0
LINE
  5
74
100
AcDbEntity
  8
STAP_DN50
  6
CONTINUOUS
 62
         7
100
AcDbLine
 10
39.62084364
 20
129.1090115597
 30
0.0
 11
24.135205132
 21
144.5946500677
 31
0.0
  0
LINE
  5
75
100
AcDbEntity
  8
STAP_DN50
  6
CONTINUOUS
 62
         7
100
AcDbLine
 10
51.6770142593
 20
146.0442189691
 30
0.0
 11
41.0704125415
 21
156.6508206869
 31
0.0
  0
LINE
  5
76
100
AcDbEntity
  8
STAP_DN50
  6
CONTINUOUS
 62
         7
100
AcDbLine
 10
50.6163540875
 20
140.033811329
 30
0.0
 11
35.0600049014
 21
155.5901605151
 31
0.0
  0
LINE
  5
77
100
AcDbEntity
  8
STAP_DN50
  6
CONTINUOUS
 62
         7
100
AcDbLine
 10
36.1206650731
 20
156.6508206869
 30
0.0
 11
51.2666681747
 21
141.5048175853
 31
0.0
  0
ARC
  5
78
100
AcDbEntity
  8
STAP_DN50
  6
CONTINUOUS
 62
         7
100
AcDbCircle
 10
58.9736356795
 20
92.251877371
 30
0.0
 40
71.6142388716
100
AcDbArc
 50
89.4467292552
 51
94.5605829958
  0
LINE
  5
79
100
AcDbEntity
  8
STAP_DN50
  6
CONTINUOUS
 62
         7
100
AcDbLine
 10
55.5929792866
 20
123.2254035459
 30
0.0
 11
53.8252123336
 21
120.1635413674
 31
0.0
  0
LINE
  5
7A
100
AcDbEntity
  8
STAP_DN50
  6
CONTINUOUS
 62
         7
100
AcDbLine
 10
53.8252123336
 20
120.1635413674
 30
0.0
 11
55.5592999358
 21
113.6918383313
 31
0.0
  0
LINE
  5
7B
100
AcDbEntity
  8
STAP_DN50
  6
CONTINUOUS
 62
         7
100
AcDbLine
 10
25.5140633554
 20
122.0025884087
 30
0.0
 11
17.0287819811
 21
130.487869783
 31
0.0
  0
LINE
  5
7C
100
AcDbEntity
  8
STAP_DN50
  6
CONTINUOUS
 62
         7
100
AcDbLine
 10
23.3220323336
 20
118.5377651809
 30
0.0
 11
13.5639587533
 21
128.2958387613
 31
0.0
  0
LINE
  5
7D
100
AcDbEntity
  8
STAP_DN50
  6
CONTINUOUS
 62
         7
100
AcDbLine
 10
24.0291391148
 20
119.2448719621
 30
0.0
 11
14.2710655345
 21
129.0029455425
 31
0.0
  0
LINE
  5
7E
100
AcDbEntity
  8
STAP_DN50
  6
CONTINUOUS
 62
         7
100
AcDbLine
 10
29.022800791
 20
120.6151713166
 30
0.0
 11
15.641364889
 21
133.9966072186
 31
0.0
  0
LINE
  5
7F
100
AcDbEntity
  8
STAP_DN50
  6
CONTINUOUS
 62
         7
100
AcDbLine
 10
33.6189948687
 20
125.2113653944
 30
0.0
 11
20.2375589667
 21
138.5928012963
 31
0.0
  0
LINE
  5
80
100
AcDbEntity
  8
STAP_DN50
  6
CONTINUOUS
 62
         7
100
AcDbLine
 10
21.5542653807
 20
118.0427904341
 30
0.0
 11
13.0689840064
 21
126.5280718083
 31
0.0
  0
LINE
  5
81
100
AcDbEntity
  8
STAP_DN50
  6
CONTINUOUS
 62
         7
100
AcDbLine
 10
17.6651780841
 20
112.8809109314
 30
0.0
 11
7.9071045037
 21
122.6389845117
 31
0.0
  0
LINE
  5
82
100
AcDbEntity
  8
STAP_DN50
  6
CONTINUOUS
 62
         7
100
AcDbLine
 10
21.5542653807
 20
116.7699982279
 30
0.0
 11
11.7961918003
 21
126.5280718083
 31
0.0
  0
LINE
  5
83
100
AcDbEntity
  8
STAP_DN50
  6
CONTINUOUS
 62
         7
100
AcDbLine
 10
37.3678872245
 20
161.5416936521
 30
0.0
 11
45.9757805475
 21
161.5416936521
 31
0.0
  0
LINE
  5
84
100
AcDbEntity
  8
STAP_DN50
  6
CONTINUOUS
 62
         7
100
AcDbLine
 10
50.9801659389
 20
140.4406573253
 30
0.0
 11
55.5929792866
 21
123.2254035459
 31
0.0
  0
LINE
  5
85
100
AcDbEntity
  8
STAP_DN50
  6
CONTINUOUS
 62
         7
100
AcDbLine
 10
41.0704125415
 20
156.6508206869
 30
0.0
 11
36.1206650731
 21
156.6508206869
 31
0.0
  0
LINE
  5
86
100
AcDbEntity
  8
STAP_DN50
  6
CONTINUOUS
 62
         7
100
AcDbLine
 10
45.9695128829
 20
161.5499210283
 30
0.0
 11
41.0704125415
 21
156.6508206869
 31
0.0
  0
SPLINE
  5
87
100
AcDbEntity
  8
STAP_DN50
  6
CONTINUOUS
 62
         7
100
AcDbSpline
210
0.0
220
0.0
230
1.0
 70
         8
 71
         3
 72
        14
 73
        10
 74
         0
 42
0.0
 43
0.0
 40
0.0
 40
0.0
 40
0.0
 40
0.0
 40
0.125
 40
0.125
 40
0.25
 40
0.25
 40
0.5000000000000001
 40
0.5000000000000001
 40
0.5007708230180765
 40
0.5007708230180765
 40
0.5007708230180765
 40
0.5007708230180765
 10
50.893735714428189
 20
141.32590959936061
 30
0.0
 10
50.909646252220398
 20
141.17935545007461
 30
0.0
 10
50.92352962104399
 20
141.04847067447326
 30
0.0
 10
50.947413165090737
 20
140.82012307747917
 30
0.0
 10
50.957456775896247
 20
140.72223262246072
 30
0.0
 10
50.981424902889486
 20
140.4865160730499
 30
0.0
 10
50.989211195235413
 20
140.407209943532
 30
0.0
 10
50.989260048370582
 20
140.40671812425265
 30
0.0
 10
50.989260123163049
 20
140.40671737359122
 30
0.0
 10
50.989260122571075
 20
140.4067173840611
 30
0.0
  0
LINE
  5
88
100
AcDbEntity
  8
STAP_DN50
  6
CONTINUOUS
 62
         7
100
AcDbLine
 10
143.4187296761
 20
166.8346350702
 30
0.0
 11
144.0632606914
 21
168.983463446
 31
0.0
  0
ARC
  5
89
100
AcDbEntity
  8
STAP_DN50
  6
CONTINUOUS
 62
         7
100
AcDbCircle
 10
-48.5542438932
 20
208.8208087552
 30
0.0
 40
85.6622612847
100
AcDbArc
 50
351.0822121515
 51
8.9177878485
  0
LINE
  5
8A
100
AcDbEntity
  8
STAP_DN50
  6
CONTINUOUS
 62
         7
100
AcDbLine
 10
144.0632606914
 20
195.5416936521
 30
0.0
 11
157.0905286405
 21
195.5416936521
 31
0.0
  0
ARC
  5
8B
100
AcDbEntity
  8
STAP_DN50
  6
CONTINUOUS
 62
         7
100
AcDbCircle
 10
228.6900183422
 20
208.8208087552
 30
0.0
 40
85.6622612847
100
AcDbArc
 50
171.0822121515
 51
188.9177878485
  0
ARC
  5
8C
100
AcDbEntity
  8
STAP_DN50
  6
CONTINUOUS
 62
         7
100
AcDbCircle
 10
158.1985322289
 20
227.6003134303
 30
0.0
 40
15.167735061
100
AcDbArc
 50
158.7377372552
 51
201.2622627448
  0
LINE
  5
8D
100
AcDbEntity
  8
STAP_DN50
  6
CONTINUOUS
 62
         7
100
AcDbLine
 10
23.0452458086
 20
157.982684302
 30
0.0
 11
36.0725137576
 21
157.982684302
 31
0.0
  0
LINE
  5
8E
100
AcDbEntity
  8
STAP_DN50
  6
CONTINUOUS
 62
         7
100
AcDbLine
 10
154.9837929199
 20
157.982684302
 30
0.0
 11
157.0905286405
 21
157.982684302
 31
0.0
  0
LINE
  5
8F
100
AcDbEntity
  8
STAP_DN50
  6
CONTINUOUS
 62
         7
100
AcDbLine
 10
23.0452458086
 20
168.983463446
 30
0.0
 11
36.0725137576
 21
168.983463446
 31
0.0
  0
LINE
  5
90
100
AcDbEntity
  8
STAP_DN50
  6
CONTINUOUS
 62
         7
100
AcDbLine
 10
144.0632606914
 20
168.983463446
 30
0.0
 11
157.0905286405
 21
168.983463446
 31
0.0
  0
LINE
  5
91
100
AcDbEntity
  8
STAP_DN50
  6
CONTINUOUS
 62
         7
100
AcDbLine
 10
23.0452458086
 20
195.5416936521
 30
0.0
 11
36.0725137576
 21
195.5416936521
 31
0.0
  0
ARC
  5
92
100
AcDbEntity
  8
STAP_DN50
  6
CONTINUOUS
 62
         7
100
AcDbCircle
 10
142.955257103
 20
163.483073874
 30
0.0
 40
15.167735061
100
AcDbArc
 50
338.7377372552
 51
21.2622627448
  0
ARC
  5
93
100
AcDbEntity
  8
STAP_DN50
  6
CONTINUOUS
 62
         7
100
AcDbCircle
 10
37.180517346
 20
163.483073874
 30
0.0
 40
15.167735061
100
AcDbArc
 50
158.7377372552
 51
201.2622627448
  0
ARC
  5
94
100
AcDbEntity
  8
STAP_DN50
  6
CONTINUOUS
 62
         7
100
AcDbCircle
 10
107.6720034594
 20
182.2625785491
 30
0.0
 40
85.6622612847
100
AcDbArc
 50
171.0822121515
 51
188.9177878485
  0
ARC
  5
95
100
AcDbEntity
  8
STAP_DN50
  6
CONTINUOUS
 62
         7
100
AcDbCircle
 10
72.4637709897
 20
208.8208087552
 30
0.0
 40
85.6622612847
100
AcDbArc
 50
351.0822121515
 51
8.9177878485
  0
LINE
  5
96
100
AcDbEntity
  8
STAP_DN50
  6
CONTINUOUS
 62
         7
100
AcDbLine
 10
23.0452458086
 20
222.0999238583
 30
0.0
 11
36.0725137576
 21
222.0999238583
 31
0.0
  0
ARC
  5
97
100
AcDbEntity
  8
STAP_DN50
  6
CONTINUOUS
 62
         7
100
AcDbCircle
 10
-48.5542438932
 20
182.2625785491
 30
0.0
 40
85.6622612847
100
AcDbArc
 50
351.0822121515
 51
8.9177878485
  0
LINE
  5
98
100
AcDbEntity
  8
STAP_DN50
  6
CONTINUOUS
 62
         7
100
AcDbLine
 10
156.5267868378
 20
133.2920064095
 30
0.0
 11
154.9813055157
 21
132.8778959373
 31
0.0
  0
LINE
  5
99
100
AcDbEntity
  8
STAP_DN50
  6
CONTINUOUS
 62
         7
100
AcDbLine
 10
147.6078704166
 20
26.1322404996
 30
0.0
 11
144.7608609204
 21
36.7574245888
 31
0.0
  0
LINE
  5
9A
100
AcDbEntity
  8
STAP_DN50
  6
CONTINUOUS
 62
         7
100
AcDbLine
 10
143.0704907244
 20
36.3044912598
 30
0.0
 11
140.0293669445
 21
47.6541197187
 31
0.0
  0
LINE
  5
9B
100
AcDbEntity
  8
STAP_DN50
  6
CONTINUOUS
 62
         7
100
AcDbLine
 10
144.7130716056
 20
136.4261368475
 30
0.0
 11
145.7080584912
 21
137.8471253848
 31
0.0
  0
SPLINE
  5
9C
100
AcDbEntity
  8
STAP_DN50
  6
CONTINUOUS
 62
         7
100
AcDbSpline
210
0.0
220
0.0
230
1.0
 70
         8
 71
         3
 72
        12
 73
         8
 74
         0
 42
0.0
 43
0.0
 40
0.5004707061587355
 40
0.5004707061587355
 40
0.5004707061587355
 40
0.5004707061587355
 40
0.6250000000000022
 40
0.6250000000000022
 40
0.7500000000000027
 40
0.7500000000000027
 40
1.0
 40
1.0
 40
1.0
 40
1.0
 10
162.87827387337859
 20
68.632679034347078
 30
0.0
 10
162.87827637250666
 20
68.632655466914699
 30
0.0
 10
162.87963968414971
 20
68.619979857583473
 30
0.0
 10
162.88518758480265
 20
68.569096488602824
 30
0.0
 10
162.88941340710429
 20
68.530513455598154
 30
0.0
 10
162.90664999464042
 20
68.376654036876403
 30
0.0
 10
162.92391052769023
 20
68.225392691726839
 30
0.0
 10
162.94866310522454
 20
68.025644665136753
 30
0.0
  0
LINE
  5
9D
100
AcDbEntity
  8
STAP_DN50
  6
CONTINUOUS
 62
         7
100
AcDbLine
 10
143.8029393413
 20
120.5134123155
 30
0.0
 11
140.7544253707
 21
131.8906213412
 31
0.0
  0
LINE
  5
9E
100
AcDbEntity
  8
STAP_DN50
  6
CONTINUOUS
 62
         7
100
AcDbLine
 10
78.9306064174
 20
115.3249789796
 30
0.0
 11
81.9791203879
 21
103.9477699539
 31
0.0
  0
LINE
  5
9F
100
AcDbEntity
  8
STAP_DN50
  6
CONTINUOUS
 62
         7
100
AcDbLine
 10
143.8004238596
 20
120.3870154294
 30
0.0
 11
143.8029393413
 21
120.5134123155
 31
0.0
  0
LINE
  5
A0
100
AcDbEntity
  8
STAP_DN50
  6
CONTINUOUS
 62
         7
100
AcDbLine
 10
81.9791203879
 20
103.9477699539
 30
0.0
 11
82.044497302
 21
103.8395647805
 31
0.0
  0
LINE
  5
A1
100
AcDbEntity
  8
STAP_DN50
  6
CONTINUOUS
 62
         7
100
AcDbLine
 10
81.9791203879
 20
103.9477699539
 30
0.0
 11
143.8029393413
 21
120.5134123155
 31
0.0
  0
LINE
  5
A2
100
AcDbEntity
  8
STAP_DN50
  6
CONTINUOUS
 62
         7
100
AcDbLine
 10
78.9306064174
 20
115.3249789796
 30
0.0
 11
140.7544253707
 21
131.8906213412
 31
0.0
  0
ARC
  5
A3
100
AcDbEntity
  8
STAP_DN50
  6
CONTINUOUS
 62
         7
100
AcDbCircle
 10
1597.4736236077
 20
1017.9562691558
 30
0.0
 40
1769.7838246728
100
AcDbArc
 50
211.098653034
 51
211.7103050606
  0
LINE
  5
A4
100
AcDbEntity
  8
STAP_DN50
  6
CONTINUOUS
 62
         7
100
AcDbLine
 10
60.2501716593
 20
197.7836205976
 30
0.0
 11
60.2501716593
 21
190.5416936521
 31
0.0
  0
LINE
  5
A5
100
AcDbEntity
  8
STAP_DN50
  6
CONTINUOUS
 62
         7
100
AcDbLine
 10
63.2305845762
 20
190.5416936521
 30
0.0
 11
63.2305845762
 21
197.7836205976
 31
0.0
  0
LINE
  5
A6
100
AcDbEntity
  8
STAP_DN50
  6
CONTINUOUS
 62
         7
100
AcDbLine
 10
63.2305845762
 20
197.7836205976
 30
0.0
 11
64.8451954814
 21
197.7836205976
 31
0.0
  0
LINE
  5
A7
100
AcDbEntity
  8
STAP_DN50
  6
CONTINUOUS
 62
         7
100
AcDbLine
 10
64.8451954814
 20
197.7836205976
 30
0.0
 11
65.6657354497
 21
200.5416936521
 31
0.0
  0
LINE
  5
A8
100
AcDbEntity
  8
STAP_DN50
  6
CONTINUOUS
 62
         7
100
AcDbLine
 10
65.6657354497
 20
200.5416936521
 30
0.0
 11
58.8631944227
 21
200.5416936521
 31
0.0
  0
LINE
  5
A9
100
AcDbEntity
  8
STAP_DN50
  6
CONTINUOUS
 62
         7
100
AcDbLine
 10
58.8631944227
 20
200.5416936521
 30
0.0
 11
58.0532420669
 21
197.7836205976
 31
0.0
  0
LINE
  5
AA
100
AcDbEntity
  8
STAP_DN50
  6
CONTINUOUS
 62
         7
100
AcDbLine
 10
58.0532420669
 20
197.7836205976
 30
0.0
 11
60.2501716593
 21
197.7836205976
 31
0.0
  0
LINE
  5
AB
100
AcDbEntity
  8
STAP_DN50
  6
CONTINUOUS
 62
         7
100
AcDbLine
 10
60.2501716593
 20
190.5416936521
 30
0.0
 11
63.2305845762
 21
190.5416936521
 31
0.0
  0
LINE
  5
AC
100
AcDbEntity
  8
STAP_DN50
  6
CONTINUOUS
 62
         7
100
AcDbLine
 10
115.9245696477
 20
190.5416936521
 30
0.0
 11
120.9245696477
 21
195.5416936521
 31
0.0
  0
LINE
  5
AD
100
AcDbEntity
  8
STAP_DN50
  6
CONTINUOUS
 62
         7
100
AcDbLine
 10
120.9245696477
 20
195.5416936521
 30
0.0
 11
115.9245696477
 21
200.5416936521
 31
0.0
  0
LINE
  5
AE
100
AcDbEntity
  8
STAP_DN50
  6
CONTINUOUS
 62
         7
100
AcDbLine
 10
115.9245696477
 20
200.5416936521
 30
0.0
 11
113.5000063867
 21
200.5416936521
 31
0.0
  0
LINE
  5
AF
100
AcDbEntity
  8
STAP_DN50
  6
CONTINUOUS
 62
         7
100
AcDbLine
 10
113.5000063867
 20
200.5416936521
 30
0.0
 11
113.5000063867
 21
197.0371939168
 31
0.0
  0
LINE
  5
B0
100
AcDbEntity
  8
STAP_DN50
  6
CONTINUOUS
 62
         7
100
AcDbLine
 10
113.5000063867
 20
197.0371939168
 30
0.0
 11
103.8335161803
 21
197.0371939168
 31
0.0
  0
LINE
  5
B1
100
AcDbEntity
  8
STAP_DN50
  6
CONTINUOUS
 62
         7
100
AcDbLine
 10
103.8335161803
 20
197.0371939168
 30
0.0
 11
103.8335161803
 21
194.0461933875
 31
0.0
  0
LINE
  5
B2
100
AcDbEntity
  8
STAP_DN50
  6
CONTINUOUS
 62
         7
100
AcDbLine
 10
103.8335161803
 20
194.0461933875
 30
0.0
 11
113.5000063867
 21
194.0461933875
 31
0.0
  0
LINE
  5
B3
100
AcDbEntity
  8
STAP_DN50
  6
CONTINUOUS
 62
         7
100
AcDbLine
 10
113.5000063867
 20
194.0461933875
 30
0.0
 11
113.5000063867
 21
190.5416936521
 31
0.0
  0
LINE
  5
B4
100
AcDbEntity
  8
STAP_DN50
  6
CONTINUOUS
 62
         7
100
AcDbLine
 10
67.3226968049
 20
193.1197772943
 30
0.0
 11
69.2708175036
 21
193.1197772943
 31
0.0
  0
LINE
  5
B5
100
AcDbEntity
  8
STAP_DN50
  6
CONTINUOUS
 62
         7
100
AcDbLine
 10
68.4926279854
 20
198.0641923287
 30
0.0
 11
67.3226968049
 21
193.1197772943
 31
0.0
  0
LINE
  5
B6
100
AcDbEntity
  8
STAP_DN50
  6
CONTINUOUS
 62
         7
100
AcDbLine
 10
70.287228303
 20
190.5416936521
 30
0.0
 11
68.4926279854
 21
198.0641923287
 31
0.0
  0
LINE
  5
B7
100
AcDbEntity
  8
STAP_DN50
  6
CONTINUOUS
 62
         7
100
AcDbLine
 10
73.4476306323
 20
190.5416936521
 30
0.0
 11
70.287228303
 21
190.5416936521
 31
0.0
  0
LINE
  5
B8
100
AcDbEntity
  8
STAP_DN50
  6
CONTINUOUS
 62
         7
100
AcDbLine
 10
70.4778053279
 20
200.5416936521
 30
0.0
 11
73.4476306323
 21
190.5416936521
 31
0.0
  0
LINE
  5
B9
100
AcDbEntity
  8
STAP_DN50
  6
CONTINUOUS
 62
         7
100
AcDbLine
 10
113.5000063867
 20
190.5416936521
 30
0.0
 11
115.9245696477
 21
190.5416936521
 31
0.0
  0
LINE
  5
BA
100
AcDbEntity
  8
STAP_DN50
  6
CONTINUOUS
 62
         7
100
AcDbLine
 10
63.5323315322
 20
190.5416936521
 30
0.0
 11
66.5021568366
 21
200.5416936521
 31
0.0
  0
LINE
  5
BB
100
AcDbEntity
  8
STAP_DN50
  6
CONTINUOUS
 62
         7
100
AcDbLine
 10
68.4926279854
 20
190.5416936521
 30
0.0
 11
63.5323315322
 21
190.5416936521
 31
0.0
  0
LINE
  5
BC
100
AcDbEntity
  8
STAP_DN50
  6
CONTINUOUS
 62
         7
100
AcDbLine
 10
69.2708175036
 20
193.1197772943
 30
0.0
 11
68.4926279854
 21
190.5416936521
 31
0.0
  0
CIRCLE
  5
BD
100
AcDbEntity
  8
STAP_DN50
  6
CONTINUOUS
 62
         7
100
AcDbCircle
 10
51.5475935232
 20
157.2045054916
 30
0.0
 40
4.0
  0
LINE
  5
BE
100
AcDbEntity
  8
STAP_DN50
  6
CONTINUOUS
 62
         7
100
AcDbLine
 10
66.5021568366
 20
200.5416936521
 30
0.0
 11
70.4778053279
 21
200.5416936521
 31
0.0
  0
CIRCLE
  5
BF
100
AcDbEntity
  8
STAP_DN50
  6
CONTINUOUS
 62
         7
100
AcDbCircle
 10
51.5475935232
 20
157.2045054916
 30
0.0
 40
2.6
  0
LINE
  5
C0
100
AcDbEntity
  8
STAP_DN50
  6
CONTINUOUS
 62
         7
100
AcDbLine
 10
51.67701301
 20
141.7190613267
 30
0.0
 11
51.2666681747
 21
141.5048175853
 31
0.0
  0
ARC
  5
C1
100
AcDbEntity
  8
STAP_DN50
  6
CONTINUOUS
 62
         7
100
AcDbCircle
 10
59.7132196231
 20
60.0841246706
 30
0.0
 40
102.3853211887
100
AcDbArc
 50
95.0122819727
 51
97.7190365168
  0
LINE
  5
C2
100
AcDbEntity
  8
STAP_DN50
  6
CONTINUOUS
 62
         7
100
AcDbLine
 10
56.0669797632
 20
150.434184473
 30
0.0
 11
59.665160393
 21
163.8627773984
 31
0.0
  0
ELLIPSE
  5
C3
100
AcDbEntity
  8
STAP_DN50
  6
CONTINUOUS
 62
         7
100
AcDbEllipse
 10
100.6317934484
 20
157.982684302
 30
0.0
 11
54.652696642801125
 21
-2.7463861941433576
 31
0.0
210
0.0
220
0.0
230
1.0
 40
0.394712285
 41
0.1266307817293632
 42
0.5636740620160429
  0
LINE
  5
C4
100
AcDbEntity
  8
STAP_DN50
  6
CONTINUOUS
 62
         7
100
AcDbLine
 10
60.2320964255
 20
163.8675322584
 30
0.0
 11
75.998257899
 21
163.8675322584
 31
0.0
  0
LINE
  5
C5
100
AcDbEntity
  8
STAP_DN50
  6
CONTINUOUS
 62
         7
100
AcDbLine
 10
111.9667316064
 20
169.1124957831
 30
0.0
 11
126.8564135535
 21
169.1124957831
 31
0.0
  0
LINE
  5
C6
100
AcDbEntity
  8
STAP_DN50
  6
CONTINUOUS
 62
         7
100
AcDbLine
 10
78.6285128099
 20
154.051287294
 30
0.0
 11
64.5912908147
 21
147.5987973181
 31
0.0
  0
LINE
  5
C7
100
AcDbEntity
  8
STAP_DN50
  6
CONTINUOUS
 62
         7
100
AcDbLine
 10
142.6700948104
 20
167.3459492924
 30
0.0
 11
142.7779595472
 21
166.9433926142
 31
0.0
  0
LINE
  5
C8
100
AcDbEntity
  8
STAP_DN50
  6
CONTINUOUS
 62
         7
100
AcDbLine
 10
75.998257899
 20
163.8675322584
 30
0.0
 11
78.6285128099
 21
154.051287294
 31
0.0
  0
LINE
  5
C9
100
AcDbEntity
  8
STAP_DN50
  6
CONTINUOUS
 62
         7
100
AcDbLine
 10
111.9667316064
 20
169.1124957831
 30
0.0
 11
113.4987965278
 21
163.394751656
 31
0.0
  0
LINE
  5
CA
100
AcDbEntity
  8
STAP_DN50
  6
CONTINUOUS
 62
         7
100
AcDbLine
 10
129.3678872245
 20
167.3459492924
 30
0.0
 11
142.6700948104
 21
167.3459492924
 31
0.0
  0
ARC
  5
CB
100
AcDbEntity
  8
STAP_DN50
  6
CONTINUOUS
 62
         7
100
AcDbCircle
 10
192.8758150228
 20
-368.9672333741
 30
0.0
 40
538.2471497095
100
AcDbArc
 50
95.3405881634
 51
98.4805218822
  0
LINE
  5
CC
100
AcDbEntity
  8
STAP_DN50
  6
CONTINUOUS
 62
         7
100
AcDbLine
 10
117.2077666395
 20
41.539090347
 30
0.0
 11
105.1289813177
 21
38.3025895745
 31
0.0
  0
LINE
  5
CD
100
AcDbEntity
  8
STAP_DN50
  6
CONTINUOUS
 62
         7
100
AcDbLine
 10
117.2077666395
 20
41.539090347
 30
0.0
 11
144.4983765499
 21
48.8515872335
 31
0.0
  0
LINE
  5
CE
100
AcDbEntity
  8
STAP_DN50
  6
CONTINUOUS
 62
         7
100
AcDbLine
 10
114.9420195866
 20
49.9949734656
 30
0.0
 11
142.232629497
 21
57.307470352
 31
0.0
  0
ARC
  5
CF
100
AcDbEntity
  8
STAP_DN50
  6
CONTINUOUS
 62
         7
100
AcDbCircle
 10
-1288.9451508699
 20
115.194107494
 30
0.0
 40
1432.3479681193
100
AcDbArc
 50
357.6838285296
 51
359.4521989195
  0
LINE
  5
D0
100
AcDbEntity
  8
STAP_DN50
  6
CONTINUOUS
 62
         7
100
AcDbLine
 10
73.3206450101
 20
117.2965937956
 30
0.0
 11
73.2345604602
 21
117.2735275099
 31
0.0
  0
LINE
  5
D1
100
AcDbEntity
  8
STAP_DN50
  6
CONTINUOUS
 62
         7
100
AcDbLine
 10
162.6496010572
 20
21.1303064353
 30
0.0
 11
163.1474389386
 21
21.2637016936
 31
0.0
  0
LINE
  5
D2
100
AcDbEntity
  8
STAP_DN50
  6
CONTINUOUS
 62
         7
100
AcDbLine
 10
134.1211911104
 20
13.4861420287
 30
0.0
 11
143.8773954524
 21
16.1003091033
 31
0.0
  0
LINE
  5
D3
100
AcDbEntity
  8
STAP_DN50
  6
CONTINUOUS
 62
         7
100
AcDbLine
 10
160.889350528
 20
29.6910023697
 30
0.0
 11
160.3915126466
 21
29.5576071115
 31
0.0
  0
LINE
  5
D4
100
AcDbEntity
  8
STAP_DN50
  6
CONTINUOUS
 62
         7
100
AcDbLine
 10
131.8631026998
 20
21.9134427049
 30
0.0
 11
141.6193070418
 21
24.5276097795
 31
0.0
  0
LINE
  5
D5
100
AcDbEntity
  8
STAP_DN50
  6
CONTINUOUS
 62
         7
100
AcDbLine
 10
163.7615748515
 20
127.155407808
 30
0.0
 11
162.7392396234
 21
130.9708148219
 31
0.0
  0
LINE
  5
D6
100
AcDbEntity
  8
STAP_DN50
  6
CONTINUOUS
 62
         7
100
AcDbLine
 10
23.0452458086
 20
233.1007030023
 30
0.0
 11
36.0725137576
 21
233.1007030023
 31
0.0
  0
LINE
  5
D7
100
AcDbEntity
  8
STAP_DN50
  6
CONTINUOUS
 62
         7
100
AcDbLine
 10
165.8526760042
 20
57.5239916414
 30
0.0
 11
174.5480253255
 21
59.8539034699
 31
0.0
  0
LINE
  5
D8
100
AcDbEntity
  8
STAP_DN50
  6
CONTINUOUS
 62
         7
100
AcDbLine
 10
154.6189588526
 20
134.2301920942
 30
0.0
 11
145.9250349983
 21
131.9006622184
 31
0.0
  0
LINE
  5
D9
100
AcDbEntity
  8
STAP_DN50
  6
CONTINUOUS
 62
         7
100
AcDbLine
 10
21.9785294494
 20
121.2954816275
 30
0.0
 11
24.099849793
 21
123.4168019711
 31
0.0
  0
LINE
  5
DA
100
AcDbEntity
  8
STAP_DN50
  6
CONTINUOUS
 62
         7
100
AcDbLine
 10
21.5542653807
 20
118.0427904341
 30
0.0
 11
22.6856362306
 21
119.174161284
 31
0.0
  0
LINE
  5
DB
100
AcDbEntity
  8
STAP_DN50
  6
CONTINUOUS
 62
         7
100
AcDbLine
 10
23.3220323336
 20
118.5377651809
 30
0.0
 11
24.0291391148
 21
119.2448719621
 31
0.0
  0
LINE
  5
DC
100
AcDbEntity
  8
STAP_DN50
  6
CONTINUOUS
 62
         7
100
AcDbLine
 10
21.5542653807
 20
116.7699982279
 30
0.0
 11
21.5542653807
 21
118.0427904341
 31
0.0
  0
LINE
  5
DD
100
AcDbEntity
  8
STAP_DN50
  6
CONTINUOUS
 62
         7
100
AcDbLine
 10
17.6651780841
 20
112.8809109314
 30
0.0
 11
21.5542653807
 21
116.7699982279
 31
0.0
  0
LINE
  5
DE
100
AcDbEntity
  8
STAP_DN50
  6
CONTINUOUS
 62
         7
100
AcDbLine
 10
25.5140633554
 20
122.0025884087
 30
0.0
 11
26.5747235271
 21
123.0632485805
 31
0.0
  0
LINE
  5
DF
100
AcDbEntity
  8
STAP_DN50
  6
CONTINUOUS
 62
         7
100
AcDbLine
 10
29.022800791
 20
120.6151713166
 30
0.0
 11
33.6189948687
 21
125.2113653944
 31
0.0
  0
LINE
  5
E0
100
AcDbEntity
  8
STAP_DN50
  6
CONTINUOUS
 62
         7
100
AcDbLine
 10
24.135205132
 20
144.5946500677
 30
0.0
 11
20.2375589667
 21
138.5928012963
 31
0.0
  0
LINE
  5
E1
100
AcDbEntity
  8
STAP_DN50
  6
CONTINUOUS
 62
         7
100
AcDbLine
 10
39.62084364
 20
129.1090115597
 30
0.0
 11
50.5809987484
 21
140.0691666681
 31
0.0
  0
LINE
  5
E2
100
AcDbEntity
  8
STAP_DN50
  6
CONTINUOUS
 62
         7
100
AcDbLine
 10
50.6163540875
 20
140.033811329
 30
0.0
 11
50.9892601238
 21
140.4067173653
 31
0.0
  0
LINE
  5
E3
100
AcDbEntity
  8
STAP_DN50
  6
CONTINUOUS
 62
         7
100
AcDbLine
 10
57.6702671675
 20
144.5137617071
 30
0.0
 11
51.6659588008
 21
141.7139067338
 31
0.0
  0
LINE
  5
E4
100
AcDbEntity
  8
STAP_DN50
  6
CONTINUOUS
 62
         7
100
AcDbLine
 10
56.0669797632
 20
150.434184473
 30
0.0
 11
57.6546109018
 21
144.5090643999
 31
0.0
  0
LINE
  5
E5
100
AcDbEntity
  8
STAP_DN50
  6
CONTINUOUS
 62
         7
100
AcDbLine
 10
157.0905286405
 20
157.982684302
 30
0.0
 11
158.5678872245
 21
162.0416936521
 31
0.0
  0
LINE
  5
E6
100
AcDbEntity
  8
STAP_DN50
  6
CONTINUOUS
 62
         7
100
AcDbLine
 10
36.0725137576
 20
157.982684302
 30
0.0
 11
37.3678872245
 21
161.5416936521
 31
0.0
  0
LINE
  5
E7
100
AcDbEntity
  8
STAP_DN50
  6
CONTINUOUS
 62
         7
100
AcDbLine
 10
129.3678872245
 20
229.5416936521
 30
0.0
 11
126.8564135535
 21
228.0916936521
 31
0.0
  0
LINE
  5
E8
100
AcDbEntity
  8
STAP_DN50
  6
CONTINUOUS
 62
         7
100
AcDbLine
 10
144.0632606914
 20
233.1007030023
 30
0.0
 11
142.7678872245
 21
229.5416936521
 31
0.0
  0
LINE
  5
E9
100
AcDbEntity
  8
STAP_DN50
  6
CONTINUOUS
 62
         7
100
AcDbLine
 10
23.0452458086
 20
233.1007030023
 30
0.0
 11
21.5678872245
 21
229.0416936521
 31
0.0
  0
LINE
  5
EA
100
AcDbEntity
  8
STAP_DN50
  6
CONTINUOUS
 62
         7
100
AcDbLine
 10
160.0770532254
 20
148.6336363287
 30
0.0
 11
157.0151910469
 21
150.4014032816
 31
0.0
  0
LINE
  5
EB
100
AcDbEntity
  8
STAP_DN50
  6
CONTINUOUS
 62
         7
100
AcDbLine
 10
161.8111408276
 20
142.1619332925
 30
0.0
 11
160.0770532254
 21
148.6336363287
 31
0.0
  0
LINE
  5
EC
100
AcDbEntity
  8
STAP_DN50
  6
CONTINUOUS
 62
         7
100
AcDbLine
 10
142.7678872245
 20
229.5416936521
 30
0.0
 11
129.3678872245
 21
229.5416936521
 31
0.0
  0
LINE
  5
ED
100
AcDbEntity
  8
STAP_DN50
  6
CONTINUOUS
 62
         7
100
AcDbLine
 10
50.7678872245
 20
229.5416936521
 30
0.0
 11
37.3678872245
 21
229.5416936521
 31
0.0
  0
LINE
  5
EE
100
AcDbEntity
  8
STAP_DN50
  6
CONTINUOUS
 62
         7
100
AcDbLine
 10
157.0151910469
 20
150.4014032816
 30
0.0
 11
154.9837929199
 21
157.982684302
 31
0.0
  0
LINE
  5
EF
100
AcDbEntity
  8
STAP_DN50
  6
CONTINUOUS
 62
         7
100
AcDbLine
 10
51.6770142593
 20
141.7190619787
 30
0.0
 11
51.6770142593
 21
146.0442189691
 31
0.0
  0
LINE
  5
F0
100
AcDbEntity
  8
STAP_DN50
  6
CONTINUOUS
 62
         7
100
AcDbLine
 10
53.2793608955
 20
228.0916936521
 30
0.0
 11
50.7678872245
 21
229.5416936521
 31
0.0
  0
LINE
  5
F1
100
AcDbEntity
  8
STAP_DN50
  6
CONTINUOUS
 62
         7
100
AcDbLine
 10
51.6770142593
 20
146.0442189691
 30
0.0
 11
56.0669797632
 21
150.434184473
 31
0.0
  0
LINE
  5
F2
100
AcDbEntity
  8
STAP_DN50
  6
CONTINUOUS
 62
         7
100
AcDbLine
 10
126.8564135535
 20
228.0916936521
 30
0.0
 11
53.2793608955
 21
228.0916936521
 31
0.0
  0
LINE
  5
F3
100
AcDbEntity
  8
STAP_DN50
  6
CONTINUOUS
 62
         7
100
AcDbLine
 10
156.974212163
 20
125.4402670749
 30
0.0
 11
158.5196934851
 21
125.8543775471
 31
0.0
  0
LINE
  5
F4
100
AcDbEntity
  8
STAP_DN50
  6
CONTINUOUS
 62
         7
100
AcDbLine
 10
145.9267560012
 20
131.8966050189
 30
0.0
 11
144.7130716056
 21
136.4261368475
 31
0.0
  0
LINE
  5
F5
100
AcDbEntity
  8
STAP_DN50
  6
CONTINUOUS
 62
         7
100
AcDbLine
 10
166.5923271674
 20
54.771643459
 30
0.0
 11
165.8511970632
 21
57.5375786631
 31
0.0
  0
LINE
  5
F6
100
AcDbEntity
  8
STAP_DN50
  6
CONTINUOUS
 62
         7
100
AcDbLine
 10
163.1474389386
 20
21.2637016936
 30
0.0
 11
160.889350528
 21
29.6910023697
 31
0.0
  0
LINE
  5
F7
100
AcDbEntity
  8
STAP_DN50
  6
CONTINUOUS
 62
         7
100
AcDbLine
 10
112.5930592136
 20
16.7500501146
 30
0.0
 11
114.8511476241
 21
8.3227494385
 31
0.0
  0
LINE
  5
F8
100
AcDbEntity
  8
STAP_DN50
  6
CONTINUOUS
 62
         7
100
AcDbLine
 10
123.0275298289
 20
30.933996074
 30
0.0
 11
125.8745393251
 21
20.3088119848
 31
0.0
  0
ARC
  5
F9
100
AcDbEntity
  8
STAP_DN50
  6
CONTINUOUS
 62
         7
100
AcDbCircle
 10
113.9392469973
 20
108.3185915382
 30
0.0
 40
100.0
100
AcDbArc
 50
270.5224878141
 51
299.4775121859
  0
LINE
  5
FA
100
AcDbEntity
  8
STAP_DN50
  6
CONTINUOUS
 62
         7
100
AcDbLine
 10
121.676776245
 20
42.7365578618
 30
0.0
 11
124.7179000249
 21
31.3869294029
 31
0.0
  0
LINE
  5
FB
100
AcDbEntity
  8
STAP_DN50
  6
CONTINUOUS
 62
         7
100
AcDbLine
 10
71.6623822722
 20
118.006646239
 30
0.0
 11
73.2345604602
 21
117.2735275099
 31
0.0
  0
LINE
  5
FC
100
AcDbEntity
  8
STAP_DN50
  6
CONTINUOUS
 62
         7
100
AcDbLine
 10
73.2345604602
 20
117.2735275099
 30
0.0
 11
95.113816022
 21
35.6190341215
 31
0.0
  0
LINE
  5
FD
100
AcDbEntity
  8
STAP_DN50
  6
CONTINUOUS
 62
         7
100
AcDbLine
 10
162.8817696959
 20
68.6196324672
 30
0.0
 11
148.6432263896
 21
121.7585995122
 31
0.0
  0
LINE
  5
FE
100
AcDbEntity
  8
STAP_DN50
  6
CONTINUOUS
 62
         7
100
AcDbLine
 10
171.5716063068
 20
70.9620504722
 30
0.0
 11
162.8762569855
 21
68.6321386437
 31
0.0
  0
LINE
  5
FF
100
AcDbEntity
  8
STAP_DN50
  6
CONTINUOUS
 62
         7
100
AcDbLine
 10
148.6432263896
 20
121.7585995122
 30
0.0
 11
157.3365588262
 21
124.0879709181
 31
0.0
  0
LINE
  5
100
100
AcDbEntity
  8
STAP_DN50
  6
CONTINUOUS
 62
         7
100
AcDbLine
 10
162.7392396234
 20
130.9708148219
 30
0.0
 11
161.7169043952
 21
134.7862218357
 31
0.0
  0
LINE
  5
101
100
AcDbEntity
  8
STAP_DN50
  6
CONTINUOUS
 62
         7
100
AcDbLine
 10
156.5009049333
 20
133.3885989921
 30
0.0
 11
161.7169043952
 21
134.7862218357
 31
0.0
  0
LINE
  5
102
100
AcDbEntity
  8
STAP_DN50
  6
CONTINUOUS
 62
         7
100
AcDbLine
 10
157.5232401614
 20
129.5731919783
 30
0.0
 11
156.5009049333
 21
133.3885989921
 31
0.0
  0
LINE
  5
103
100
AcDbEntity
  8
STAP_DN50
  6
CONTINUOUS
 62
         7
100
AcDbLine
 10
157.5232401614
 20
129.5731919783
 30
0.0
 11
162.7392396234
 21
130.9708148219
 31
0.0
  0
LINE
  5
104
100
AcDbEntity
  8
STAP_DN50
  6
CONTINUOUS
 62
         7
100
AcDbLine
 10
158.5455753896
 20
125.7577849645
 30
0.0
 11
157.5232401614
 21
129.5731919783
 31
0.0
  0
LINE
  5
105
100
AcDbEntity
  8
STAP_DN50
  6
CONTINUOUS
 62
         7
100
AcDbLine
 10
158.5455753896
 20
125.7577849645
 30
0.0
 11
163.7615748515
 21
127.155407808
 31
0.0
  0
LINE
  5
106
100
AcDbEntity
  8
STAP_DN50
  6
CONTINUOUS
 62
         7
100
AcDbLine
 10
174.5480253255
 20
59.8539034699
 30
0.0
 11
171.5716063068
 21
70.9620504722
 31
0.0
  0
ARC
  5
107
100
AcDbEntity
  8
STAP_DN50
  6
CONTINUOUS
 62
         7
100
AcDbCircle
 10
184.3080627174
 20
136.5615312133
 30
0.0
 40
38.6643716838
100
AcDbArc
 50
186.9234288262
 51
187.9251922978
  0
ARC
  5
108
100
AcDbEntity
  8
STAP_DN50
  6
CONTINUOUS
 62
         7
100
AcDbCircle
 10
184.1843865786
 20
136.9013161186
 30
0.0
 40
38.63257607
100
AcDbArc
 50
202.0743939912
 51
203.0769822954
  0
LINE
  5
109
100
AcDbEntity
  8
STAP_DN50
  6
CONTINUOUS
 62
         7
100
AcDbLine
 10
154.6189588526
 20
134.2301920942
 30
0.0
 11
157.3365588262
 21
124.0879709181
 31
0.0
  0
ARC
  5
10A
100
AcDbEntity
  8
STAP_DN50
  6
CONTINUOUS
 62
         7
100
AcDbCircle
 10
201.5812272865
 20
73.3071359487
 30
0.0
 40
39.0573404809
100
AcDbArc
 50
202.9375166735
 51
203.833990754
  0
LINE
  5
10B
100
AcDbEntity
  8
STAP_DN50
  6
CONTINUOUS
 62
         7
100
AcDbLine
 10
166.5062426175
 20
54.7485771734
 30
0.0
 11
166.5923271674
 21
54.771643459
 31
0.0
  0
LINE
  5
10C
100
AcDbEntity
  8
STAP_DN50
  6
CONTINUOUS
 62
         7
100
AcDbLine
 10
166.5062426175
 20
54.7485771734
 30
0.0
 11
161.7310348735
 21
53.4690641147
 31
0.0
  0
LINE
  5
10D
100
AcDbEntity
  8
STAP_DN50
  6
CONTINUOUS
 62
         7
100
AcDbLine
 10
156.5771618717
 20
52.088088006
 30
0.0
 11
144.4983765499
 21
48.8515872335
 31
0.0
  0
LINE
  5
10E
100
AcDbEntity
  8
STAP_DN50
  6
CONTINUOUS
 62
         7
100
AcDbLine
 10
161.7310348735
 20
53.4690641147
 30
0.0
 11
156.5771618717
 21
52.088088006
 31
0.0
  0
LINE
  5
10F
100
AcDbEntity
  8
STAP_DN50
  6
CONTINUOUS
 62
         7
100
AcDbLine
 10
105.1289813177
 20
38.3025895745
 30
0.0
 11
99.975108316
 21
36.9216134658
 31
0.0
  0
LINE
  5
110
100
AcDbEntity
  8
STAP_DN50
  6
CONTINUOUS
 62
         7
100
AcDbLine
 10
95.199900572
 20
35.6421004071
 30
0.0
 11
95.113816022
 21
35.6190341215
 31
0.0
  0
LINE
  5
111
100
AcDbEntity
  8
STAP_DN50
  6
CONTINUOUS
 62
         7
100
AcDbLine
 10
99.975108316
 20
36.9216134658
 30
0.0
 11
95.199900572
 21
35.6421004071
 31
0.0
  0
LINE
  5
112
100
AcDbEntity
  8
STAP_DN50
  6
CONTINUOUS
 62
         7
100
AcDbLine
 10
18.4429955435
 20
129.0736562206
 30
0.0
 11
16.3216751999
 21
126.952335877
 31
0.0
  0
LINE
  5
113
100
AcDbEntity
  8
STAP_DN50
  6
CONTINUOUS
 62
         7
100
AcDbLine
 10
14.2003548563
 20
127.6594426582
 30
0.0
 11
13.0689840064
 21
126.5280718083
 31
0.0
  0
LINE
  5
114
100
AcDbEntity
  8
STAP_DN50
  6
CONTINUOUS
 62
         7
100
AcDbLine
 10
14.2710655345
 20
129.0029455425
 30
0.0
 11
13.5639587533
 21
128.2958387613
 31
0.0
  0
LINE
  5
115
100
AcDbEntity
  8
STAP_DN50
  6
CONTINUOUS
 62
         7
100
AcDbLine
 10
13.0689840064
 20
126.5280718083
 30
0.0
 11
11.7961918003
 21
126.5280718083
 31
0.0
  0
LINE
  5
116
100
AcDbEntity
  8
STAP_DN50
  6
CONTINUOUS
 62
         7
100
AcDbLine
 10
11.7961918003
 20
126.5280718083
 30
0.0
 11
7.9071045037
 21
122.6389845117
 31
0.0
  0
LINE
  5
117
100
AcDbEntity
  8
STAP_DN50
  6
CONTINUOUS
 62
         7
100
AcDbLine
 10
143.3373512599
 20
101.4997338917
 30
0.0
 11
156.5771618717
 21
52.088088006
 31
0.0
  0
LINE
  5
118
100
AcDbEntity
  8
STAP_DN50
  6
CONTINUOUS
 62
         7
100
AcDbLine
 10
91.889170706
 20
87.7142354602
 30
0.0
 11
105.1289813177
 21
38.3025895745
 31
0.0
  0
LINE
  5
119
100
AcDbEntity
  8
STAP_DN50
  6
CONTINUOUS
 62
         7
100
AcDbLine
 10
18.0894421529
 20
131.5485299548
 30
0.0
 11
17.0287819811
 21
130.487869783
 31
0.0
  0
LINE
  5
11A
100
AcDbEntity
  8
STAP_DN50
  6
CONTINUOUS
 62
         7
100
AcDbLine
 10
20.2375589667
 20
138.5928012963
 30
0.0
 11
15.641364889
 21
133.9966072186
 31
0.0
  0
LINE
  5
11B
100
AcDbEntity
  8
STAP_DN50
  6
CONTINUOUS
 62
         7
100
AcDbLine
 10
33.6189948687
 20
125.2113653944
 30
0.0
 11
39.62084364
 21
129.1090115597
 31
0.0
  0
LINE
  5
11C
100
AcDbEntity
  8
STAP_DN50
  6
CONTINUOUS
 62
         7
100
AcDbLine
 10
35.0953602404
 20
155.554805176
 30
0.0
 11
24.135205132
 21
144.5946500677
 31
0.0
  0
LINE
  5
11D
100
AcDbEntity
  8
STAP_DN50
  6
CONTINUOUS
 62
         7
100
AcDbLine
 10
36.1206650731
 20
156.6508206869
 30
0.0
 11
35.0600049014
 21
155.5901605151
 31
0.0
  0
LINE
  5
11E
100
AcDbEntity
  8
STAP_DN50
  6
CONTINUOUS
 62
         7
100
AcDbLine
 10
144.4983765499
 20
48.8515872335
 30
0.0
 11
142.232629497
 21
57.307470352
 31
0.0
  0
LINE
  5
11F
100
AcDbEntity
  8
STAP_DN50
  6
CONTINUOUS
 62
         7
100
AcDbLine
 10
121.2487061194
 20
19.069323713
 30
0.0
 11
113.090897095
 21
16.8834453729
 31
0.0
  0
LINE
  5
120
100
AcDbEntity
  8
STAP_DN50
  6
CONTINUOUS
 62
         7
100
AcDbLine
 10
115.3489855055
 20
8.4561446967
 30
0.0
 11
113.090897095
 21
16.8834453729
 31
0.0
  0
LINE
  5
121
100
AcDbEntity
  8
STAP_DN50
  6
CONTINUOUS
 62
         7
100
AcDbLine
 10
129.9797240868
 20
21.4087929265
 30
0.0
 11
121.2487061194
 21
19.069323713
 31
0.0
  0
LINE
  5
122
100
AcDbEntity
  8
STAP_DN50
  6
CONTINUOUS
 62
         7
100
AcDbLine
 10
123.9292544223
 20
9.0653812544
 30
0.0
 11
121.2487061194
 21
19.069323713
 31
0.0
  0
LINE
  5
123
100
AcDbEntity
  8
STAP_DN50
  6
CONTINUOUS
 62
         7
100
AcDbLine
 10
114.9420195866
 20
49.9949734656
 30
0.0
 11
117.2077666395
 21
41.539090347
 31
0.0
  0
LINE
  5
124
100
AcDbEntity
  8
STAP_DN50
  6
CONTINUOUS
 62
         7
100
AcDbLine
 10
132.6602723897
 20
11.4048504679
 30
0.0
 11
129.9797240868
 21
21.4087929265
 31
0.0
  0
LINE
  5
125
100
AcDbEntity
  8
STAP_DN50
  6
CONTINUOUS
 62
         7
100
AcDbLine
 10
152.2337036222
 20
27.3717287714
 30
0.0
 11
143.5026856548
 21
25.0322595579
 31
0.0
  0
LINE
  5
126
100
AcDbEntity
  8
STAP_DN50
  6
CONTINUOUS
 62
         7
100
AcDbLine
 10
154.9142519251
 20
17.3677863128
 30
0.0
 11
152.2337036222
 21
27.3717287714
 31
0.0
  0
LINE
  5
127
100
AcDbEntity
  8
STAP_DN50
  6
CONTINUOUS
 62
         7
100
AcDbLine
 10
143.5026856548
 20
25.0322595579
 30
0.0
 11
141.6193070418
 21
24.5276097795
 31
0.0
  0
LINE
  5
128
100
AcDbEntity
  8
STAP_DN50
  6
CONTINUOUS
 62
         7
100
AcDbLine
 10
146.1832339577
 20
15.0283170993
 30
0.0
 11
143.5026856548
 21
25.0322595579
 31
0.0
  0
ELLIPSE
  5
129
100
AcDbEntity
  8
STAP_DN50
  6
CONTINUOUS
 62
         7
100
AcDbEllipse
 10
104.1241850457
 20
105.6886536181
 30
0.0
 11
25.740779969566987
 21
-96.065898672290558
 31
0.0
210
0.0
220
0.0
230
1.0
 40
0.2249510543
 41
0.1417777617070631
 42
0.2304913038364768
  0
LINE
  5
12A
100
AcDbEntity
  8
STAP_DN50
  6
CONTINUOUS
 62
         7
100
AcDbLine
 10
132.6602723897
 20
11.4048504679
 30
0.0
 11
123.9292544223
 21
9.0653812544
 31
0.0
  0
ELLIPSE
  5
12B
100
AcDbEntity
  8
STAP_DN50
  6
CONTINUOUS
 62
         7
100
AcDbEllipse
 10
111.6732613989
 20
107.7114225284
 30
0.0
 11
25.740779964400939
 21
-96.065898671526099
 31
0.0
210
0.0
220
0.0
230
1.0
 40
0.9743700648
 41
6.0526940033858194
 42
6.141407545516179
  0
LINE
  5
12C
100
AcDbEntity
  8
STAP_DN50
  6
CONTINUOUS
 62
         7
100
AcDbLine
 10
131.8631026998
 20
21.9134427049
 30
0.0
 11
134.1211911104
 21
13.4861420287
 31
0.0
  0
LINE
  5
12D
100
AcDbEntity
  8
STAP_DN50
  6
CONTINUOUS
 62
         7
100
AcDbLine
 10
160.3915126466
 20
29.5576071115
 30
0.0
 11
162.6496010572
 21
21.1303064353
 31
0.0
  0
ELLIPSE
  5
12E
100
AcDbEntity
  8
STAP_DN50
  6
CONTINUOUS
 62
         7
100
AcDbEllipse
 10
116.2052325941
 20
108.9257605524
 30
0.0
 11
25.740779981338051
 21
-96.065898669094338
 31
0.0
210
0.0
220
0.0
230
1.0
 40
0.9743700648
 41
0.1417777615864782
 42
0.2304913037159707
  0
LINE
  5
12F
100
AcDbEntity
  8
STAP_DN50
  6
CONTINUOUS
 62
         7
100
AcDbLine
 10
154.9142519251
 20
17.3677863128
 30
0.0
 11
146.1832339577
 21
15.0283170993
 31
0.0
  0
ELLIPSE
  5
130
100
AcDbEntity
  8
STAP_DN50
  6
CONTINUOUS
 62
         7
100
AcDbEllipse
 10
123.7543089473
 20
110.9485294642
 30
0.0
 11
25.740779969137691
 21
-96.065898671716909
 31
0.0
210
0.0
220
0.0
230
1.0
 40
0.2249510543
 41
6.0526940033422667
 42
6.1414075454719796
  0
LINE
  5
131
100
AcDbEntity
  8
STAP_DN50
  6
CONTINUOUS
 62
         7
100
AcDbLine
 10
143.8773954524
 20
16.1003091033
 30
0.0
 11
141.6193070418
 21
24.5276097795
 31
0.0
  0
LINE
  5
132
100
AcDbEntity
  8
STAP_DN50
  6
CONTINUOUS
 62
         7
100
AcDbLine
 10
158.5678872245
 20
229.0416936521
 30
0.0
 11
157.0905286405
 21
233.1007030023
 31
0.0
  0
LINE
  5
133
100
AcDbEntity
  8
STAP_DN50
  6
CONTINUOUS
 62
         7
100
AcDbLine
 10
37.3678872245
 20
229.5416936521
 30
0.0
 11
36.0725137576
 21
233.1007030023
 31
0.0
  0
LINE
  5
134
100
AcDbEntity
  8
STAP_DN50
  6
CONTINUOUS
 62
         7
100
AcDbLine
 10
113.090897095
 20
16.8834453729
 30
0.0
 11
112.5930592136
 21
16.7500501146
 31
0.0
  0
LINE
  5
135
100
AcDbEntity
  8
STAP_DN50
  6
CONTINUOUS
 62
         7
100
AcDbLine
 10
123.0275298289
 20
30.933996074
 30
0.0
 11
144.7608609204
 21
36.7574245888
 31
0.0
  0
LINE
  5
136
100
AcDbEntity
  8
STAP_DN50
  6
CONTINUOUS
 62
         7
100
AcDbLine
 10
115.3489855055
 20
8.4561446967
 30
0.0
 11
114.8511476241
 21
8.3227494385
 31
0.0
  0
LINE
  5
137
100
AcDbEntity
  8
STAP_DN50
  6
CONTINUOUS
 62
         7
100
AcDbLine
 10
152.2337036222
 20
27.3717287714
 30
0.0
 11
160.3915126466
 21
29.5576071115
 31
0.0
  0
LINE
  5
138
100
AcDbEntity
  8
STAP_DN50
  6
CONTINUOUS
 62
         7
100
AcDbLine
 10
129.9797240868
 20
21.4087929265
 30
0.0
 11
131.8631026998
 21
21.9134427049
 31
0.0
  0
LINE
  5
139
100
AcDbEntity
  8
STAP_DN50
  6
CONTINUOUS
 62
         7
100
AcDbLine
 10
143.3373512599
 20
101.4997338917
 30
0.0
 11
143.8004238596
 21
120.3870154294
 31
0.0
  0
ARC
  5
13A
100
AcDbEntity
  8
STAP_DN50
  6
CONTINUOUS
 62
         7
100
AcDbCircle
 10
1325.4479073524
 20
815.7230406616
 30
0.0
 40
1432.3630745057
100
AcDbArc
 50
210.5478104063
 51
212.3161621446
  0
LINE
  5
13B
100
AcDbEntity
  8
STAP_DN50
  6
CONTINUOUS
 62
         7
100
AcDbLine
 10
144.6269870557
 20
136.4030705619
 30
0.0
 11
144.7130716056
 21
136.4261368475
 31
0.0
  0
ARC
  5
13C
100
AcDbEntity
  8
STAP_DN50
  6
CONTINUOUS
 62
         7
100
AcDbCircle
 10
64.7101585753
 20
83.8296295337
 30
0.0
 40
34.5568831573
100
AcDbArc
 50
65.7003743261
 51
75.5716867588
  0
ARC
  5
13D
100
AcDbEntity
  8
STAP_DN50
  6
CONTINUOUS
 62
         7
100
AcDbCircle
 10
170.7097438101
 20
110.1010459569
 30
0.0
 40
37.0419586177
100
AcDbArc
 50
134.7601775034
 51
143.9677614117
  0
SPLINE
  5
13E
100
AcDbEntity
  8
STAP_DN50
  6
CONTINUOUS
 62
         7
100
AcDbSpline
210
0.0
220
0.0
230
1.0
 70
         8
 71
         3
 72
        14
 73
        10
 74
         0
 42
0.0
 43
0.0
 40
0.0
 40
0.0
 40
0.0
 40
0.0
 40
0.25
 40
0.25
 40
0.5
 40
0.5
 40
0.75
 40
0.75
 40
1.0
 40
1.0
 40
1.0
 40
1.0
 10
165.61213455398294
 20
58.085433893861392
 30
0.0
 10
165.42015354542099
 20
58.539121685651452
 30
0.0
 10
164.94512986179376
 20
59.17394993428077
 30
0.0
 10
163.93990085672377
 20
60.743512915644779
 30
0.0
 10
163.41578549223487
 20
61.705340287417556
 30
0.0
 10
162.85773601224071
 20
63.782676014186471
 30
0.0
 10
162.82948683893073
 20
64.885615271576967
 30
0.0
 10
162.91514820211438
 20
66.748174987320112
 30
0.0
 10
163.00934128056471
 20
67.535984719033081
 30
0.0
 10
162.94866310522454
 20
68.025644665136753
 30
0.0
  0
ARC
  5
13F
100
AcDbEntity
  8
STAP_DN50
  6
CONTINUOUS
 62
         7
100
AcDbCircle
 10
159.2246654735
 20
130.0290875167
 30
0.0
 40
13.2662003161
100
AcDbArc
 50
174.8041273259
 51
215.1958726741
  0
ENDBLK
  5
140
100
AcDbEntity
  8
STAP_DN50
  6
CONTINUOUS
 62
         7
100
AcDbBlockEnd
  0
BLOCK
  5
208
100
AcDbEntity
  8
0
 62
         1
 48
0.0
100
AcDbBlockBegin
  2
SE2
 70
         0
 10
0.0
 20
0.0
 30
0.0
  3
SE2
  1

  0
ENDBLK
  5
209
100
AcDbEntity
  8
0
 62
         1
 48
0.0
100
AcDbBlockEnd
  0
BLOCK
  5
143
100
AcDbEntity
  8
0
 62
         1
 48
0.0
100
AcDbBlockBegin
  2
SE3
 70
         0
 10
0.0
 20
0.0
 30
0.0
  3
SE3
  1

  0
ELLIPSE
  5
144
100
AcDbEntity
  8
STAP_DN50
  6
CONTINUOUS
 62
         7
100
AcDbEllipse
 10
106.9511327795
 20
326.943195232
 30
0.0
 11
0.0000000000011137
 21
-54.999999999999957
 31
0.0
210
0.0
220
0.0
230
1.0
 40
0.9659258263
 41
3.1415926535897931
 42
6.2831853071795862
  0
ELLIPSE
  5
145
100
AcDbEntity
  8
STAP_DN50
  6
CONTINUOUS
 62
         7
100
AcDbEllipse
 10
108.6852203817
 20
326.943195232
 30
0.0
 11
0.0000000000001527
 21
-55.000000000000028
 31
0.0
210
0.0
220
0.0
230
1.0
 40
0.9659258263
 41
0.0000000000000001
 42
1.4220362585785202
  0
ELLIPSE
  5
146
100
AcDbEntity
  8
STAP_DN50
  6
CONTINUOUS
 62
         7
100
AcDbEllipse
 10
108.6852203817
 20
326.943195232
 30
0.0
 11
0.0000000000001527
 21
-55.000000000000028
 31
0.0
210
0.0
220
0.0
230
1.0
 40
0.9659258263
 41
1.7195563950112687
 42
6.2831853071795862
  0
LINE
  5
147
100
AcDbEntity
  8
STAP_DN50
  6
CONTINUOUS
 62
         7
100
AcDbLine
 10
21.5678872245
 20
360.443195232
 30
0.0
 11
21.5678872245
 21
336.3433773325
 31
0.0
  0
LINE
  5
148
100
AcDbEntity
  8
STAP_DN50
  6
CONTINUOUS
 62
         7
100
AcDbLine
 10
21.5678872245
 20
317.5430131315
 30
0.0
 11
21.5678872245
 21
293.443195232
 31
0.0
  0
ELLIPSE
  5
149
100
AcDbEntity
  8
STAP_DN50
  6
CONTINUOUS
 62
         7
100
AcDbEllipse
 10
101.4641690233
 20
326.943195232
 30
0.0
 11
0.000000000001733
 21
-52.500000000000149
 31
0.0
210
0.0
220
0.0
230
1.0
 40
0.9659258263
 41
3.5492706445837432
 42
4.6378868630588412
  0
LINE
  5
14A
100
AcDbEntity
  8
STAP_DN50
  6
CONTINUOUS
 62
         7
100
AcDbLine
 10
53.2793608955
 20
294.393195232
 30
0.0
 11
53.2793608955
 21
310.5792633104
 31
0.0
  0
LINE
  5
14B
100
AcDbEntity
  8
STAP_DN50
  6
CONTINUOUS
 62
         7
100
AcDbLine
 10
53.2793608955
 20
343.3071271536
 30
0.0
 11
53.2793608955
 21
359.493195232
 31
0.0
  0
LINE
  5
14C
100
AcDbEntity
  8
STAP_DN50
  6
CONTINUOUS
 62
         7
100
AcDbLine
 10
50.7678872245
 20
292.943195232
 30
0.0
 11
50.7678872245
 21
319.443195232
 31
0.0
  0
LINE
  5
14D
100
AcDbEntity
  8
STAP_DN50
  6
CONTINUOUS
 62
         7
100
AcDbLine
 10
50.7678872245
 20
340.443195232
 30
0.0
 11
50.7678872245
 21
360.943195232
 31
0.0
  0
LINE
  5
14E
100
AcDbEntity
  8
STAP_DN50
  6
CONTINUOUS
 62
         7
100
AcDbLine
 10
37.3678872245
 20
360.943195232
 30
0.0
 11
37.3678872245
 21
337.893195232
 31
0.0
  0
LINE
  5
14F
100
AcDbEntity
  8
STAP_DN50
  6
CONTINUOUS
 62
         7
100
AcDbLine
 10
37.3678872245
 20
315.993195232
 30
0.0
 11
37.3678872245
 21
292.943195232
 31
0.0
  0
LINE
  5
150
100
AcDbEntity
  8
STAP_DN50
  6
CONTINUOUS
 62
         7
100
AcDbLine
 10
158.5678872245
 20
360.443195232
 30
0.0
 11
158.5678872245
 21
345.8659077773
 31
0.0
  0
LINE
  5
151
100
AcDbEntity
  8
STAP_DN50
  6
CONTINUOUS
 62
         7
100
AcDbLine
 10
158.5678872245
 20
308.0204826867
 30
0.0
 11
158.5678872245
 21
293.443195232
 31
0.0
  0
ARC
  5
152
100
AcDbEntity
  8
STAP_DN50
  6
CONTINUOUS
 62
         7
100
AcDbCircle
 10
142.955257103
 20
359.0018150101
 30
0.0
 40
15.167735061
100
AcDbArc
 50
338.7377372552
 51
21.2622627448
  0
ARC
  5
153
100
AcDbEntity
  8
STAP_DN50
  6
CONTINUOUS
 62
         7
100
AcDbCircle
 10
21.9372422202
 20
294.8845754538
 30
0.0
 40
15.167735061
100
AcDbArc
 50
338.7377372552
 51
21.2622627448
  0
ARC
  5
154
100
AcDbEntity
  8
STAP_DN50
  6
CONTINUOUS
 62
         7
100
AcDbCircle
 10
-48.5542438932
 20
340.222310335
 30
0.0
 40
85.6622612847
100
AcDbArc
 50
358.441512117
 51
8.9177878485
  0
ARC
  5
155
100
AcDbEntity
  8
STAP_DN50
  6
CONTINUOUS
 62
         7
100
AcDbCircle
 10
-48.5542438932
 20
313.6640801289
 30
0.0
 40
85.6622612847
100
AcDbArc
 50
351.0822121515
 51
1.55846925
  0
LINE
  5
156
100
AcDbEntity
  8
STAP_DN50
  6
CONTINUOUS
 62
         7
100
AcDbLine
 10
23.0452458086
 20
289.3841858818
 30
0.0
 11
36.0725137576
 21
289.3841858818
 31
0.0
  0
LINE
  5
157
100
AcDbEntity
  8
STAP_DN50
  6
CONTINUOUS
 62
         7
100
AcDbLine
 10
147.4947788287
 20
289.3841858818
 30
0.0
 11
157.0905286405
 21
289.3841858818
 31
0.0
  0
LINE
  5
158
100
AcDbEntity
  8
STAP_DN50
  6
CONTINUOUS
 62
         7
100
AcDbLine
 10
21.5678872245
 20
293.443195232
 30
0.0
 11
23.0452458086
 21
289.3841858818
 31
0.0
  0
ELLIPSE
  5
159
100
AcDbEntity
  8
STAP_DN50
  6
CONTINUOUS
 62
         7
100
AcDbEllipse
 10
42.8381794944
 20
326.943195232
 30
0.0
 11
0.0
 21
11.000000000006359
 31
0.0
210
0.0
220
0.0
230
1.0
 40
0.7071067812
 41
0.0
 42
0.09538241192666
  0
ELLIPSE
  5
15A
100
AcDbEntity
  8
STAP_DN50
  6
CONTINUOUS
 62
         7
100
AcDbEllipse
 10
42.8381794944
 20
326.943195232
 30
0.0
 11
0.0
 21
11.000000000006359
 31
0.0
210
0.0
220
0.0
230
1.0
 40
0.7071067812
 41
3.0462102416631334
 42
6.2831853071795862
  0
ELLIPSE
  5
15B
100
AcDbEntity
  8
STAP_DN50
  6
CONTINUOUS
 62
         7
100
AcDbEllipse
 10
43.8988396662
 20
326.943195232
 30
0.0
 11
0.0000000000000069
 21
11.00000000000635
 31
0.0
210
0.0
220
0.0
230
1.0
 40
0.7071067812
 41
-1.1354312832374331
 42
0.0000000000000009
  0
ELLIPSE
  5
15C
100
AcDbEntity
  8
STAP_DN50
  6
CONTINUOUS
 62
         7
100
AcDbEllipse
 10
43.8988396662
 20
326.943195232
 30
0.0
 11
0.0000000000000069
 21
11.00000000000635
 31
0.0
210
0.0
220
0.0
230
1.0
 40
0.7071067812
 41
3.141592653589794
 42
4.2770239368272271
  0
ELLIPSE
  5
15D
100
AcDbEntity
  8
STAP_DN50
  6
CONTINUOUS
 62
         7
100
AcDbEllipse
 10
42.8381794944
 20
326.943195232
 30
0.0
 11
0.0000000000000069
 21
-10.949999999997917
 31
0.0
210
0.0
220
0.0
230
1.0
 40
0.7071067812
 41
0.0
 42
3.1415926535897931
  0
ELLIPSE
  5
15E
100
AcDbEntity
  8
STAP_DN50
  6
CONTINUOUS
 62
         7
100
AcDbEllipse
 10
31.878024386
 20
326.943195232
 30
0.0
 11
0.0
 21
10.949999999997898
 31
0.0
210
0.0
220
0.0
230
1.0
 40
0.7071067812
 41
0.0
 42
0.2141905671097579
  0
ELLIPSE
  5
15F
100
AcDbEntity
  8
STAP_DN50
  6
CONTINUOUS
 62
         7
100
AcDbEllipse
 10
31.878024386
 20
326.943195232
 30
0.0
 11
0.0
 21
10.949999999997898
 31
0.0
210
0.0
220
0.0
230
1.0
 40
0.7071067812
 41
2.9274020864800354
 42
6.2831853071795862
  0
LINE
  5
160
100
AcDbEntity
  8
STAP_DN50
  6
CONTINUOUS
 62
         7
100
AcDbLine
 10
106.9511327795
 20
271.943195232
 30
0.0
 11
108.6852203817
 21
271.943195232
 31
0.0
  0
ELLIPSE
  5
161
100
AcDbEntity
  8
STAP_DN50
  6
CONTINUOUS
 62
         7
100
AcDbEllipse
 10
21.2714226682
 20
326.943195232
 30
0.0
 11
0.0
 21
6.0000000000071338
 31
0.0
210
0.0
220
0.0
230
1.0
 40
0.7071067812
 41
3.2141563172955383
 42
6.210621643473841
  0
ELLIPSE
  5
162
100
AcDbEntity
  8
STAP_DN50
  6
CONTINUOUS
 62
         7
100
AcDbEllipse
 10
21.2714226682
 20
326.943195232
 30
0.0
 11
0.0
 21
-3.9999999999932774
 31
0.0
210
0.0
220
0.0
230
1.0
 40
0.7071067812
 41
1.2287889530720872
 42
1.9128037005177059
  0
ELLIPSE
  5
163
100
AcDbEntity
  8
STAP_DN50
  6
CONTINUOUS
 62
         7
100
AcDbEllipse
 10
22.33208284
 20
326.943195232
 30
0.0
 11
0.0
 21
6.0000000000037348
 31
0.0
210
0.0
220
0.0
230
1.0
 40
0.7071067812
 41
3.1415926535897931
 42
6.2831853071795862
  0
ELLIPSE
  5
164
100
AcDbEntity
  8
STAP_DN50
  6
CONTINUOUS
 62
         7
100
AcDbEllipse
 10
22.33208284
 20
326.943195232
 30
0.0
 11
0.0
 21
9.4621040683213185
 31
0.0
210
0.0
220
0.0
230
1.0
 40
0.7071067812
 41
0.0
 42
0.7661991487644011
  0
ELLIPSE
  5
165
100
AcDbEntity
  8
STAP_DN50
  6
CONTINUOUS
 62
         7
100
AcDbEllipse
 10
22.33208284
 20
326.943195232
 30
0.0
 11
0.0
 21
9.4621040683213185
 31
0.0
210
0.0
220
0.0
230
1.0
 40
0.7071067812
 41
2.375393504825392
 42
6.2831853071795862
  0
ELLIPSE
  5
166
100
AcDbEntity
  8
STAP_DN50
  6
CONTINUOUS
 62
         7
100
AcDbEllipse
 10
26.9282769177
 20
326.943195232
 30
0.0
 11
0.0
 21
9.4621040683066813
 31
0.0
210
0.0
220
0.0
230
1.0
 40
0.7071067812
 41
3.1415926535897931
 42
6.2831853071795862
  0
ELLIPSE
  5
167
100
AcDbEntity
  8
STAP_DN50
  6
CONTINUOUS
 62
         7
100
AcDbEllipse
 10
18.4429955435
 20
326.943195232
 30
0.0
 11
0.0
 21
-6.8999999999820156
 31
0.0
210
0.0
220
0.0
230
1.0
 40
0.7071067812
 41
0.0
 42
3.3237579042440335
  0
ELLIPSE
  5
168
100
AcDbEntity
  8
STAP_DN50
  6
CONTINUOUS
 62
         7
100
AcDbEllipse
 10
18.4429955435
 20
326.943195232
 30
0.0
 11
0.0
 21
-6.8999999999820156
 31
0.0
210
0.0
220
0.0
230
1.0
 40
0.7071067812
 41
6.1010200565253454
 42
6.2831853071795862
  0
ELLIPSE
  5
169
100
AcDbEntity
  8
STAP_DN50
  6
CONTINUOUS
 62
         7
100
AcDbEllipse
 10
19.1501023247
 20
326.943195232
 30
0.0
 11
0.0
 21
-6.8999999999797588
 31
0.0
210
0.0
220
0.0
230
1.0
 40
0.7071067812
 41
0.0
 42
3.1415926535897931
  0
LINE
  5
16A
100
AcDbEntity
  8
STAP_DN50
  6
CONTINUOUS
 62
         7
100
AcDbLine
 10
37.3678872245
 20
292.943195232
 30
0.0
 11
50.7678872245
 21
292.943195232
 31
0.0
  0
ELLIPSE
  5
16B
100
AcDbEntity
  8
STAP_DN50
  6
CONTINUOUS
 62
         7
100
AcDbEllipse
 10
18.4429955435
 20
326.943195232
 30
0.0
 11
0.0
 21
-5.999999999996402
 31
0.0
210
0.0
220
0.0
230
1.0
 40
0.7071067812
 41
0.1796311460902328
 42
2.9619615074995602
  0
ELLIPSE
  5
16C
100
AcDbEntity
  8
STAP_DN50
  6
CONTINUOUS
 62
         7
100
AcDbEllipse
 10
16.6752285905
 20
326.943195232
 30
0.0
 11
0.0
 21
6.899999999987644
 31
0.0
210
0.0
220
0.0
230
1.0
 40
0.7071067812
 41
3.1415926535897931
 42
6.2831853071795862
  0
ELLIPSE
  5
16D
100
AcDbEntity
  8
STAP_DN50
  6
CONTINUOUS
 62
         7
100
AcDbEllipse
 10
12.7861412939
 20
326.943195232
 30
0.0
 11
0.0
 21
-6.900000000000035
 31
0.0
210
0.0
220
0.0
230
1.0
 40
0.7071067812
 41
0.0
 42
6.2831853071795862
  0
LINE
  5
16E
100
AcDbEntity
  8
STAP_DN50
  6
CONTINUOUS
 62
         7
100
AcDbLine
 10
53.2793608955
 20
359.493195232
 30
0.0
 11
50.7678872245
 21
360.943195232
 31
0.0
  0
ARC
  5
16F
100
AcDbEntity
  8
STAP_DN50
  6
CONTINUOUS
 62
         7
100
AcDbCircle
 10
-28.6840879661
 20
326.943195232
 30
0.0
 40
79.6737126236
100
AcDbArc
 50
357.1886951935
 51
2.8113048065
  0
ELLIPSE
  5
170
100
AcDbEntity
  8
STAP_DN50
  6
CONTINUOUS
 62
         7
100
AcDbEllipse
 10
101.4641690233
 20
326.943195232
 30
0.0
 11
-0.0000000000003643
 21
52.499999999999851
 31
0.0
210
0.0
220
0.0
230
1.0
 40
0.9659258263
 41
1.6452984441207055
 42
2.7339146625958146
  0
LINE
  5
171
100
AcDbEntity
  8
STAP_DN50
  6
CONTINUOUS
 62
         7
100
AcDbLine
 10
147.4947788287
 20
364.5022045821
 30
0.0
 11
157.0905286405
 21
364.5022045821
 31
0.0
  0
LINE
  5
172
100
AcDbEntity
  8
STAP_DN50
  6
CONTINUOUS
 62
         7
100
AcDbLine
 10
23.0452458086
 20
364.5022045821
 30
0.0
 11
36.0725137576
 21
364.5022045821
 31
0.0
  0
LINE
  5
173
100
AcDbEntity
  8
STAP_DN50
  6
CONTINUOUS
 62
         7
100
AcDbLine
 10
23.0452458086
 20
353.5014254381
 30
0.0
 11
36.0725137576
 21
353.5014254381
 31
0.0
  0
LINE
  5
174
100
AcDbEntity
  8
STAP_DN50
  6
CONTINUOUS
 62
         7
100
AcDbLine
 10
155.2069639543
 20
353.5014254381
 30
0.0
 11
157.0905286405
 21
353.5014254381
 31
0.0
  0
LINE
  5
175
100
AcDbEntity
  8
STAP_DN50
  6
CONTINUOUS
 62
         7
100
AcDbLine
 10
155.2069639543
 20
300.3849650258
 30
0.0
 11
157.0905286405
 21
300.3849650258
 31
0.0
  0
LINE
  5
176
100
AcDbEntity
  8
STAP_DN50
  6
CONTINUOUS
 62
         7
100
AcDbLine
 10
23.0452458086
 20
300.3849650258
 30
0.0
 11
36.0725137576
 21
300.3849650258
 31
0.0
  0
ARC
  5
177
100
AcDbEntity
  8
STAP_DN50
  6
CONTINUOUS
 62
         7
100
AcDbCircle
 10
72.4637709897
 20
313.6640801289
 30
0.0
 40
85.6622612847
100
AcDbArc
 50
351.0822121515
 51
354.8341307504
  0
ARC
  5
178
100
AcDbEntity
  8
STAP_DN50
  6
CONTINUOUS
 62
         7
100
AcDbCircle
 10
142.955257103
 20
294.8845754538
 30
0.0
 40
15.167735061
100
AcDbArc
 50
338.7377372552
 51
21.2622627448
  0
ARC
  5
179
100
AcDbEntity
  8
STAP_DN50
  6
CONTINUOUS
 62
         7
100
AcDbCircle
 10
72.4637709897
 20
340.222310335
 30
0.0
 40
85.6622612847
100
AcDbArc
 50
5.2003404377
 51
8.9177878485
  0
ARC
  5
17A
100
AcDbEntity
  8
STAP_DN50
  6
CONTINUOUS
 62
         7
100
AcDbCircle
 10
107.6720034594
 20
340.222310335
 30
0.0
 40
85.6622612847
100
AcDbArc
 50
171.0822121515
 51
182.5861550038
  0
ARC
  5
17B
100
AcDbEntity
  8
STAP_DN50
  6
CONTINUOUS
 62
         7
100
AcDbCircle
 10
37.180517346
 20
359.0018150101
 30
0.0
 40
15.167735061
100
AcDbArc
 50
158.7377372552
 51
201.2622627448
  0
ARC
  5
17C
100
AcDbEntity
  8
STAP_DN50
  6
CONTINUOUS
 62
         7
100
AcDbCircle
 10
37.180517346
 20
294.8845754538
 30
0.0
 40
15.167735061
100
AcDbArc
 50
158.7377372552
 51
201.2622627448
  0
ARC
  5
17D
100
AcDbEntity
  8
STAP_DN50
  6
CONTINUOUS
 62
         7
100
AcDbCircle
 10
107.6720034594
 20
313.6640801289
 30
0.0
 40
85.6622612847
100
AcDbArc
 50
177.4385537512
 51
188.9177878485
  0
ARC
  5
17E
100
AcDbEntity
  8
STAP_DN50
  6
CONTINUOUS
 62
         7
100
AcDbCircle
 10
21.9372422202
 20
359.0018150101
 30
0.0
 40
15.167735061
100
AcDbArc
 50
338.7377372552
 51
21.2622627448
  0
LINE
  5
17F
100
AcDbEntity
  8
STAP_DN50
  6
CONTINUOUS
 62
         7
100
AcDbLine
 10
107.7793537238
 20
375.193195232
 30
0.0
 11
107.6628851535
 21
375.193195232
 31
0.0
  0
LINE
  5
180
100
AcDbEntity
  8
STAP_DN50
  6
CONTINUOUS
 62
         7
100
AcDbLine
 10
107.6628851535
 20
376.843195232
 30
0.0
 11
107.0028965885
 21
376.843195232
 31
0.0
  0
LINE
  5
181
100
AcDbEntity
  8
STAP_DN50
  6
CONTINUOUS
 62
         7
100
AcDbLine
 10
81.9791203879
 20
334.9960658875
 30
0.0
 11
82.044497302
 21
335.0023705427
 31
0.0
  0
LINE
  5
182
100
AcDbEntity
  8
STAP_DN50
  6
CONTINUOUS
 62
         7
100
AcDbLine
 10
78.9306064174
 20
334.9960658875
 30
0.0
 11
81.9791203879
 21
334.9960658875
 31
0.0
  0
ELLIPSE
  5
183
100
AcDbEntity
  8
STAP_DN50
  6
CONTINUOUS
 62
         7
100
AcDbEllipse
 10
112.8910298646
 20
326.943195232
 30
0.0
 11
-0.0000000000006453
 21
-32.99999999999968
 31
0.0
210
0.0
220
0.0
230
1.0
 40
0.9659258263
 41
2.4223177894297674
 42
4.4658733827302095
  0
ELLIPSE
  5
184
100
AcDbEntity
  8
STAP_DN50
  6
CONTINUOUS
 62
         7
100
AcDbEllipse
 10
109.8425158941
 20
326.943195232
 30
0.0
 11
0.0000000000005794
 21
-32.999999999999773
 31
0.0
210
0.0
220
0.0
230
1.0
 40
0.9659258263
 41
3.1415926535897931
 42
4.4658733827301704
  0
ARC
  5
185
100
AcDbEntity
  8
STAP_DN50
  6
CONTINUOUS
 62
         7
100
AcDbCircle
 10
-442.3711288146
 20
5874.3998792823
 30
0.0
 40
5564.1653919294
100
AcDbArc
 50
275.4080822816
 51
275.5099175429
  0
ELLIPSE
  5
186
100
AcDbEntity
  8
STAP_DN50
  6
CONTINUOUS
 62
         7
100
AcDbEllipse
 10
59.5388017091
 20
326.943195232
 30
0.0
 11
0.0
 21
33.050000000062944
 31
0.0
210
0.0
220
0.0
230
1.0
 40
0.2965679853
 41
2.9897236061723551
 42
3.1415926535897931
  0
ELLIPSE
  5
187
100
AcDbEntity
  8
STAP_DN50
  6
CONTINUOUS
 62
         7
100
AcDbEllipse
 10
62.4075969857
 20
326.943195232
 30
0.0
 11
0.0000000000002429
 21
33.050000000059889
 31
0.0
210
0.0
220
0.0
230
1.0
 40
0.2389411355
 41
2.9897236061724044
 42
3.0942152059483186
  0
LINE
  5
188
100
AcDbEntity
  8
STAP_DN50
  6
CONTINUOUS
 62
         7
100
AcDbLine
 10
58.0559617824
 20
294.2735992749
 30
0.0
 11
61.2128913082
 21
294.2735992749
 31
0.0
  0
LINE
  5
189
100
AcDbEntity
  8
STAP_DN50
  6
CONTINUOUS
 62
         7
100
AcDbLine
 10
61.2128913082
 20
294.7795122961
 30
0.0
 11
61.2128913082
 21
294.2735992749
 31
0.0
  0
LINE
  5
18A
100
AcDbEntity
  8
STAP_DN50
  6
CONTINUOUS
 62
         7
100
AcDbLine
 10
58.0559617824
 20
294.7795122961
 30
0.0
 11
58.0559617824
 21
294.2735992749
 31
0.0
  0
LINE
  5
18B
100
AcDbEntity
  8
STAP_DN50
  6
CONTINUOUS
 62
         7
100
AcDbLine
 10
60.2501716593
 20
359.993195232
 30
0.0
 11
60.2501716593
 21
359.6127911891
 31
0.0
  0
LINE
  5
18C
100
AcDbEntity
  8
STAP_DN50
  6
CONTINUOUS
 62
         7
100
AcDbLine
 10
58.0532420669
 20
359.9170676701
 30
0.0
 11
60.2501716593
 21
359.9170676702
 31
0.0
  0
LINE
  5
18D
100
AcDbEntity
  8
STAP_DN50
  6
CONTINUOUS
 62
         7
100
AcDbLine
 10
58.0532420669
 20
359.493195232
 30
0.0
 11
58.0532420669
 21
359.9170676701
 31
0.0
  0
LINE
  5
18E
100
AcDbEntity
  8
STAP_DN50
  6
CONTINUOUS
 62
         7
100
AcDbLine
 10
60.2501716593
 20
359.1068781679
 30
0.0
 11
60.2501716593
 21
359.6127911891
 31
0.0
  0
LINE
  5
18F
100
AcDbEntity
  8
STAP_DN50
  6
CONTINUOUS
 62
         7
100
AcDbLine
 10
60.2501716593
 20
359.6127911891
 30
0.0
 11
61.7677022998
 21
359.6127911891
 31
0.0
  0
LINE
  5
190
100
AcDbEntity
  8
STAP_DN50
  6
CONTINUOUS
 62
         7
100
AcDbLine
 10
52.4583051429
 20
340.443195232
 30
0.0
 11
47.5475935232
 21
340.443195232
 31
0.0
  0
ELLIPSE
  5
191
100
AcDbEntity
  8
STAP_DN50
  6
CONTINUOUS
 62
         7
100
AcDbEllipse
 10
106.7699594479
 20
326.943195232
 30
0.0
 11
-0.0000000000007008
 21
-50.049999999999947
 31
0.0
210
0.0
220
0.0
230
1.0
 40
0.9659258263
 41
0.0198097274186667
 42
0.1721032852376984
  0
ELLIPSE
  5
192
100
AcDbEntity
  8
STAP_DN50
  6
CONTINUOUS
 62
         7
100
AcDbEllipse
 10
106.7699594479
 20
326.943195232
 30
0.0
 11
-0.0000000000007008
 21
-50.049999999999947
 31
0.0
210
0.0
220
0.0
230
1.0
 40
0.9659258263
 41
2.9694893683521157
 42
3.1217829261709191
  0
ELLIPSE
  5
193
100
AcDbEntity
  8
STAP_DN50
  6
CONTINUOUS
 62
         7
100
AcDbEllipse
 10
108.6852203817
 20
326.943195232
 30
0.0
 11
0.000000000001197
 21
-50.049999999999912
 31
0.0
210
0.0
220
0.0
230
1.0
 40
0.9659258263
 41
0.0
 42
1.3899926785137164
  0
ELLIPSE
  5
194
100
AcDbEntity
  8
STAP_DN50
  6
CONTINUOUS
 62
         7
100
AcDbEllipse
 10
108.6852203817
 20
326.943195232
 30
0.0
 11
0.000000000001197
 21
-50.049999999999912
 31
0.0
210
0.0
220
0.0
230
1.0
 40
0.9659258263
 41
1.7515999750760296
 42
6.2831853071795862
  0
SPLINE
  5
195
100
AcDbEntity
  8
STAP_DN50
  6
CONTINUOUS
 62
         7
100
AcDbSpline
210
0.0
220
0.0
230
1.0
 70
         8
 71
         3
 72
         8
 73
         4
 74
         0
 42
0.0
 43
0.0
 40
0.9182759198833081
 40
0.9182759198833081
 40
0.9182759198833081
 40
0.9182759198833081
 40
0.9889132104592052
 40
0.9889132104592052
 40
0.9889132104592052
 40
0.9889132104592052
 10
49.563657416776259
 20
334.41658738659112
 30
0.0
 10
50.086798987641345
 20
334.37001765629549
 30
0.0
 10
50.674662735381744
 20
334.26225865524566
 30
0.0
 10
51.268024874248511
 20
334.13063289165234
 30
0.0
  0
LINE
  5
196
100
AcDbEntity
  8
STAP_DN50
  6
CONTINUOUS
 62
         7
100
AcDbLine
 10
61.3840955834
 20
359.1068781679
 30
0.0
 11
60.2501716593
 21
359.1068781679
 31
0.0
  0
LINE
  5
197
100
AcDbEntity
  8
STAP_DN50
  6
CONTINUOUS
 62
         7
100
AcDbLine
 10
61.2128913082
 20
294.7795122961
 30
0.0
 11
58.0559617824
 21
294.7795122961
 31
0.0
  0
ELLIPSE
  5
198
100
AcDbEntity
  8
STAP_DN50
  6
CONTINUOUS
 62
         7
100
AcDbEllipse
 10
62.4075969857
 20
326.943195232
 30
0.0
 11
0.0000000000003608
 21
32.550000000072018
 31
0.0
210
0.0
220
0.0
230
1.0
 40
0.2389411355
 41
2.987372220837571
 42
3.026136282343808
  0
LINE
  5
199
100
AcDbEntity
  8
STAP_DN50
  6
CONTINUOUS
 62
         7
100
AcDbLine
 10
153.9186877152
 20
317.943195232
 30
0.0
 11
156.5771618717
 21
317.943195232
 31
0.0
  0
ELLIPSE
  5
19A
100
AcDbEntity
  8
STAP_DN50
  6
CONTINUOUS
 62
         7
100
AcDbEllipse
 10
128.5873245418
 20
326.943195232
 30
0.0
 11
-0.00000000000102
 21
-16.749999999989015
 31
0.0
210
0.0
220
0.0
230
1.0
 40
0.9659258263
 41
3.1415926535897931
 42
4.1451405818553972
  0
ARC
  5
19B
100
AcDbEntity
  8
STAP_DN50
  6
CONTINUOUS
 62
         7
100
AcDbCircle
 10
111.5335985428
 20
326.943195232
 30
0.0
 40
38.2990450286
100
AcDbArc
 50
176.157577013
 51
183.842422987
  0
ELLIPSE
  5
19C
100
AcDbEntity
  8
STAP_DN50
  6
CONTINUOUS
 62
         7
100
AcDbEllipse
 10
130.8530715947
 20
326.943195232
 30
0.0
 11
-0.0000000000002012
 21
-16.74999999998904
 31
0.0
210
0.0
220
0.0
230
1.0
 40
0.9659258263
 41
3.1860148372707648
 42
4.1451405818553511
  0
LINE
  5
19D
100
AcDbEntity
  8
STAP_DN50
  6
CONTINUOUS
 62
         7
100
AcDbLine
 10
117.2077666395
 20
335.943195232
 30
0.0
 11
105.1289813177
 21
335.943195232
 31
0.0
  0
ELLIPSE
  5
19E
100
AcDbEntity
  8
STAP_DN50
  6
CONTINUOUS
 62
         7
100
AcDbEllipse
 10
138.9992932814
 20
326.943195232
 30
0.0
 11
0.0000000000019429
 21
-24.999999999996078
 31
0.0
210
0.0
220
0.0
230
1.0
 40
0.9659258263
 41
2.9381855910967256
 42
3.344999716082711
  0
ELLIPSE
  5
19F
100
AcDbEntity
  8
STAP_DN50
  6
CONTINUOUS
 62
         7
100
AcDbEllipse
 10
138.9992932814
 20
326.943195232
 30
0.0
 11
-0.0000000000013115
 21
24.99999999999158
 31
0.0
210
0.0
220
0.0
230
1.0
 40
0.9659258263
 41
2.9381855910967336
 42
3.3449997160827403
  0
ELLIPSE
  5
1A0
100
AcDbEntity
  8
STAP_DN50
  6
CONTINUOUS
 62
         7
100
AcDbEllipse
 10
138.9992932814
 20
326.943195232
 30
0.0
 11
0.0000000000523817
 21
25.000000000002203
 31
0.0
210
0.0
220
0.0
230
1.0
 40
0.9659258263
 41
4.5089819178937587
 42
4.9157960428796779
  0
ELLIPSE
  5
1A1
100
AcDbEntity
  8
STAP_DN50
  6
CONTINUOUS
 62
         7
100
AcDbEllipse
 10
136.7412048708
 20
326.943195232
 30
0.0
 11
0.0000000000003331
 21
24.9999999999973
 31
0.0
210
0.0
220
0.0
230
1.0
 40
0.9659258263
 41
2.9381855910968233
 42
3.1415926535897931
  0
ELLIPSE
  5
1A2
100
AcDbEntity
  8
STAP_DN50
  6
CONTINUOUS
 62
         7
100
AcDbEllipse
 10
136.7412048708
 20
326.943195232
 30
0.0
 11
-0.0000000000012906
 21
-24.999999999996021
 31
0.0
210
0.0
220
0.0
230
1.0
 40
0.9659258263
 41
3.1415926535897936
 42
3.3449997160828238
  0
LINE
  5
1A3
100
AcDbEntity
  8
STAP_DN50
  6
CONTINUOUS
 62
         7
100
AcDbLine
 10
165.3613294577
 20
321.193195232
 30
0.0
 11
173.0598158161
 21
321.193195232
 31
0.0
  0
LINE
  5
1A4
100
AcDbEntity
  8
STAP_DN50
  6
CONTINUOUS
 62
         7
100
AcDbLine
 10
62.0625935119
 20
359.993195232
 30
0.0
 11
60.2501716593
 21
359.993195232
 31
0.0
  0
LINE
  5
1A5
100
AcDbEntity
  8
STAP_DN50
  6
CONTINUOUS
 62
         7
100
AcDbLine
 10
18.4429955435
 20
320.043195232
 30
0.0
 11
19.1501023247
 21
320.043195232
 31
0.0
  0
LINE
  5
1A6
100
AcDbEntity
  8
STAP_DN50
  6
CONTINUOUS
 62
         7
100
AcDbLine
 10
12.7861412939
 20
320.043195232
 30
0.0
 11
16.6752285905
 21
320.043195232
 31
0.0
  0
LINE
  5
1A7
100
AcDbEntity
  8
STAP_DN50
  6
CONTINUOUS
 62
         7
100
AcDbLine
 10
42.8381794944
 20
315.943195232
 30
0.0
 11
43.8988396662
 21
315.943195232
 31
0.0
  0
LINE
  5
1A8
100
AcDbEntity
  8
STAP_DN50
  6
CONTINUOUS
 62
         7
100
AcDbLine
 10
31.878024386
 20
315.993195232
 30
0.0
 11
42.8381794944
 21
315.993195232
 31
0.0
  0
LINE
  5
1A9
100
AcDbEntity
  8
STAP_DN50
  6
CONTINUOUS
 62
         7
100
AcDbLine
 10
30.2322373478
 20
337.642974204
 30
0.0
 11
26.2089805106
 21
336.4052993003
 31
0.0
  0
LINE
  5
1AA
100
AcDbEntity
  8
STAP_DN50
  6
CONTINUOUS
 62
         7
100
AcDbLine
 10
21.5594590853
 20
320.943195232
 30
0.0
 11
22.33208284
 21
320.943195232
 31
0.0
  0
LINE
  5
1AB
100
AcDbEntity
  8
STAP_DN50
  6
CONTINUOUS
 62
         7
100
AcDbLine
 10
22.33208284
 20
317.4810911637
 30
0.0
 11
26.9282769177
 21
317.4810911637
 31
0.0
  0
LINE
  5
1AC
100
AcDbEntity
  8
STAP_DN50
  6
CONTINUOUS
 62
         7
100
AcDbLine
 10
157.0905286405
 20
289.3841858818
 30
0.0
 11
158.5678872245
 21
293.443195232
 31
0.0
  0
LINE
  5
1AD
100
AcDbEntity
  8
STAP_DN50
  6
CONTINUOUS
 62
         7
100
AcDbLine
 10
36.0725137576
 20
289.3841858818
 30
0.0
 11
37.3678872245
 21
292.943195232
 31
0.0
  0
LINE
  5
1AE
100
AcDbEntity
  8
STAP_DN50
  6
CONTINUOUS
 62
         7
100
AcDbLine
 10
23.0452458086
 20
364.5022045821
 30
0.0
 11
21.5678872245
 21
360.443195232
 31
0.0
  0
LINE
  5
1AF
100
AcDbEntity
  8
STAP_DN50
  6
CONTINUOUS
 62
         7
100
AcDbLine
 10
108.6852203817
 20
381.943195232
 30
0.0
 11
106.9511327795
 21
381.943195232
 31
0.0
  0
LINE
  5
1B0
100
AcDbEntity
  8
STAP_DN50
  6
CONTINUOUS
 62
         7
100
AcDbLine
 10
50.7678872245
 20
360.943195232
 30
0.0
 11
37.3678872245
 21
360.943195232
 31
0.0
  0
LINE
  5
1B1
100
AcDbEntity
  8
STAP_DN50
  6
CONTINUOUS
 62
         7
100
AcDbLine
 10
50.7678872245
 20
292.943195232
 30
0.0
 11
53.2793608955
 21
294.393195232
 31
0.0
  0
LINE
  5
1B2
100
AcDbEntity
  8
STAP_DN50
  6
CONTINUOUS
 62
         7
100
AcDbLine
 10
49.5887430046
 20
319.443195232
 30
0.0
 11
51.2731907991
 21
319.443195232
 31
0.0
  0
LINE
  5
1B3
100
AcDbEntity
  8
STAP_DN50
  6
CONTINUOUS
 62
         7
100
AcDbLine
 10
47.5475935232
 20
340.443195232
 30
0.0
 11
47.5475935232
 21
336.6577817174
 31
0.0
  0
LINE
  5
1B4
100
AcDbEntity
  8
STAP_DN50
  6
CONTINUOUS
 62
         7
100
AcDbLine
 10
60.2501716593
 20
359.493195232
 30
0.0
 11
53.2793608955
 21
359.493195232
 31
0.0
  0
LINE
  5
1B5
100
AcDbEntity
  8
STAP_DN50
  6
CONTINUOUS
 62
         7
100
AcDbLine
 10
128.5873245418
 20
310.193195232
 30
0.0
 11
130.1382748577
 21
310.193195232
 31
0.0
  0
LINE
  5
1B6
100
AcDbEntity
  8
STAP_DN50
  6
CONTINUOUS
 62
         7
100
AcDbLine
 10
109.8425158941
 20
293.943195232
 30
0.0
 11
112.8910298646
 21
293.943195232
 31
0.0
  0
LINE
  5
1B7
100
AcDbEntity
  8
STAP_DN50
  6
CONTINUOUS
 62
         7
100
AcDbLine
 10
136.7412048708
 20
301.943195232
 30
0.0
 11
138.9992932814
 21
301.943195232
 31
0.0
  0
LINE
  5
1B8
100
AcDbEntity
  8
STAP_DN50
  6
CONTINUOUS
 62
         7
100
AcDbLine
 10
138.9992932814
 20
351.943195232
 30
0.0
 11
136.7412048708
 21
351.943195232
 31
0.0
  0
LINE
  5
1B9
100
AcDbEntity
  8
STAP_DN50
  6
CONTINUOUS
 62
         7
100
AcDbLine
 10
130.1382748577
 20
343.693195232
 30
0.0
 11
128.5873245418
 21
343.693195232
 31
0.0
  0
LINE
  5
1BA
100
AcDbEntity
  8
STAP_DN50
  6
CONTINUOUS
 62
         7
100
AcDbLine
 10
107.6628851535
 20
278.693195232
 30
0.0
 11
107.7793537238
 21
278.693195232
 31
0.0
  0
LINE
  5
1BB
100
AcDbEntity
  8
STAP_DN50
  6
CONTINUOUS
 62
         7
100
AcDbLine
 10
112.8910298646
 20
359.943195232
 30
0.0
 11
109.8425158941
 21
359.943195232
 31
0.0
  0
LINE
  5
1BC
100
AcDbEntity
  8
STAP_DN50
  6
CONTINUOUS
 62
         7
100
AcDbLine
 10
107.0028965885
 20
277.043195232
 30
0.0
 11
107.6628851535
 21
277.043195232
 31
0.0
  0
LINE
  5
1BD
100
AcDbEntity
  8
STAP_DN50
  6
CONTINUOUS
 62
         7
100
AcDbLine
 10
53.2793608955
 20
294.393195232
 30
0.0
 11
58.0559617824
 21
294.393195232
 31
0.0
  0
LINE
  5
1BE
100
AcDbEntity
  8
STAP_DN50
  6
CONTINUOUS
 62
         7
100
AcDbLine
 10
173.0598158161
 20
332.693195232
 30
0.0
 11
165.3613294577
 21
332.693195232
 31
0.0
  0
LINE
  5
1BF
100
AcDbEntity
  8
STAP_DN50
  6
CONTINUOUS
 62
         7
100
AcDbLine
 10
59.5388017091
 20
293.893195232
 30
0.0
 11
62.0625935119
 21
293.893195232
 31
0.0
  0
ELLIPSE
  5
1C0
100
AcDbEntity
  8
STAP_DN50
  6
CONTINUOUS
 62
         7
100
AcDbEllipse
 10
173.0598158161
 20
326.943195232
 30
0.0
 11
0.0
 21
-5.7499999999999787
 31
0.0
210
0.0
220
0.0
230
1.0
 40
0.2588190451
 41
0.0
 42
3.1415926535897931
  0
LINE
  5
1C1
100
AcDbEntity
  8
STAP_DN50
  6
CONTINUOUS
 62
         7
100
AcDbLine
 10
156.5771618717
 20
317.943195232
 30
0.0
 11
161.7310348735
 21
318.8840199212
 31
0.0
  0
ELLIPSE
  5
1C2
100
AcDbEntity
  8
STAP_DN50
  6
CONTINUOUS
 62
         7
100
AcDbEllipse
 10
160.7246473165
 20
324.7928664393
 30
0.0
 11
0.0000000000000971
 21
-6.0000000000000044
 31
0.0
210
0.0
220
0.0
230
1.0
 40
0.9659258263
 41
0.1745329251994364
 42
1.5013751350247695
  0
ARC
  5
1C3
100
AcDbEntity
  8
STAP_DN50
  6
CONTINUOUS
 62
         7
100
AcDbCircle
 10
128.2932890849
 20
326.943195232
 30
0.0
 40
38.2990450286
100
AcDbArc
 50
356.157577013
 51
3.842422987
  0
ELLIPSE
  5
1C4
100
AcDbEntity
  8
STAP_DN50
  6
CONTINUOUS
 62
         7
100
AcDbEllipse
 10
160.7246473165
 20
329.0935240247
 30
0.0
 11
-0.0000000000000971
 21
5.9999999999999742
 31
0.0
210
0.0
220
0.0
230
1.0
 40
0.9659258263
 41
4.7818101721547759
 42
6.1086523819801464
  0
LINE
  5
1C5
100
AcDbEntity
  8
STAP_DN50
  6
CONTINUOUS
 62
         7
100
AcDbLine
 10
161.7310348735
 20
335.0023705427
 30
0.0
 11
156.5771618717
 21
335.943195232
 31
0.0
  0
LINE
  5
1C6
100
AcDbEntity
  8
STAP_DN50
  6
CONTINUOUS
 62
         7
100
AcDbLine
 10
156.5771618717
 20
335.943195232
 30
0.0
 11
153.9186877152
 21
335.943195232
 31
0.0
  0
LINE
  5
1C7
100
AcDbEntity
  8
STAP_DN50
  6
CONTINUOUS
 62
         7
100
AcDbLine
 10
105.1289813177
 20
335.943195232
 30
0.0
 11
99.975108316
 21
335.0023705427
 31
0.0
  0
LINE
  5
1C8
100
AcDbEntity
  8
STAP_DN50
  6
CONTINUOUS
 62
         7
100
AcDbLine
 10
105.1289813177
 20
317.943195232
 30
0.0
 11
117.2077666395
 21
317.943195232
 31
0.0
  0
ELLIPSE
  5
1C9
100
AcDbEntity
  8
STAP_DN50
  6
CONTINUOUS
 62
         7
100
AcDbEllipse
 10
100.9814958729
 20
329.0935240247
 30
0.0
 11
-0.0000000000000226
 21
6.0000000000000107
 31
0.0
210
0.0
220
0.0
230
1.0
 40
0.9659258263
 41
0.1745329251994
 42
1.5013751350247815
  0
ARC
  5
1CA
100
AcDbEntity
  8
STAP_DN50
  6
CONTINUOUS
 62
         7
100
AcDbCircle
 10
133.4128541046
 20
326.943195232
 30
0.0
 40
38.2990450286
100
AcDbArc
 50
176.157577013
 51
183.842422987
  0
ELLIPSE
  5
1CB
100
AcDbEntity
  8
STAP_DN50
  6
CONTINUOUS
 62
         7
100
AcDbEllipse
 10
100.9814958729
 20
324.7928664393
 30
0.0
 11
0.0000000000000937
 21
-6.000000000000008
 31
0.0
210
0.0
220
0.0
230
1.0
 40
0.9659258263
 41
4.7818101721547768
 42
6.1086523819801704
  0
LINE
  5
1CC
100
AcDbEntity
  8
STAP_DN50
  6
CONTINUOUS
 62
         7
100
AcDbLine
 10
99.975108316
 20
318.8840199212
 30
0.0
 11
105.1289813177
 21
317.943195232
 31
0.0
  0
LINE
  5
1CD
100
AcDbEntity
  8
STAP_DN50
  6
CONTINUOUS
 62
         7
100
AcDbLine
 10
19.1501023247
 20
333.843195232
 30
0.0
 11
18.4429955435
 21
333.843195232
 31
0.0
  0
LINE
  5
1CE
100
AcDbEntity
  8
STAP_DN50
  6
CONTINUOUS
 62
         7
100
AcDbLine
 10
16.6752285905
 20
333.843195232
 30
0.0
 11
12.7861412939
 21
333.843195232
 31
0.0
  0
LINE
  5
1CF
100
AcDbEntity
  8
STAP_DN50
  6
CONTINUOUS
 62
         7
100
AcDbLine
 10
91.889170706
 20
317.943195232
 30
0.0
 11
105.1289813177
 21
317.943195232
 31
0.0
  0
LINE
  5
1D0
100
AcDbEntity
  8
STAP_DN50
  6
CONTINUOUS
 62
         7
100
AcDbLine
 10
91.889170706
 20
335.943195232
 30
0.0
 11
105.1289813177
 21
335.943195232
 31
0.0
  0
LINE
  5
1D1
100
AcDbEntity
  8
STAP_DN50
  6
CONTINUOUS
 62
         7
100
AcDbLine
 10
43.8988396662
 20
337.943195232
 30
0.0
 11
42.8381794944
 21
337.943195232
 31
0.0
  0
LINE
  5
1D2
100
AcDbEntity
  8
STAP_DN50
  6
CONTINUOUS
 62
         7
100
AcDbLine
 10
42.8381794944
 20
337.893195232
 30
0.0
 11
31.878024386
 21
337.893195232
 31
0.0
  0
LINE
  5
1D3
100
AcDbEntity
  8
STAP_DN50
  6
CONTINUOUS
 62
         7
100
AcDbLine
 10
26.2089805106
 20
317.4810911637
 30
0.0
 11
30.2322373478
 21
316.24341626
 31
0.0
  0
LINE
  5
1D4
100
AcDbEntity
  8
STAP_DN50
  6
CONTINUOUS
 62
         7
100
AcDbLine
 10
22.33208284
 20
332.943195232
 30
0.0
 11
21.5594590853
 21
332.943195232
 31
0.0
  0
LINE
  5
1D5
100
AcDbEntity
  8
STAP_DN50
  6
CONTINUOUS
 62
         7
100
AcDbLine
 10
26.9282769177
 20
336.4052993003
 30
0.0
 11
22.33208284
 21
336.4052993003
 31
0.0
  0
LINE
  5
1D6
100
AcDbEntity
  8
STAP_DN50
  6
CONTINUOUS
 62
         7
100
AcDbLine
 10
81.9791203879
 20
318.8903245765
 30
0.0
 11
78.9306064174
 21
318.8903245765
 31
0.0
  0
LINE
  5
1D7
100
AcDbEntity
  8
STAP_DN50
  6
CONTINUOUS
 62
         7
100
AcDbLine
 10
82.044497302
 20
318.8840199212
 30
0.0
 11
81.9791203879
 21
318.8903245765
 31
0.0
  0
LINE
  5
1D8
100
AcDbEntity
  8
STAP_DN50
  6
CONTINUOUS
 62
         7
100
AcDbLine
 10
132.6602723897
 20
342.9822101643
 30
0.0
 11
129.9797240868
 21
342.9822101643
 31
0.0
  0
ELLIPSE
  5
1D9
100
AcDbEntity
  8
STAP_DN50
  6
CONTINUOUS
 62
         7
100
AcDbEllipse
 10
136.7412048708
 20
326.943195232
 30
0.0
 11
0.0000000000009506
 21
17.499999999999886
 31
0.0
210
0.0
220
0.0
230
1.0
 40
0.9659258263
 41
0.4115168460675444
 42
1.1592794807274582
  0
LINE
  5
1DA
100
AcDbEntity
  8
STAP_DN50
  6
CONTINUOUS
 62
         7
100
AcDbLine
 10
123.9292544223
 20
333.943195232
 30
0.0
 11
121.2487061194
 21
333.943195232
 31
0.0
  0
LINE
  5
1DB
100
AcDbEntity
  8
STAP_DN50
  6
CONTINUOUS
 62
         7
100
AcDbLine
 10
121.2487061194
 20
333.943195232
 30
0.0
 11
113.090897095
 21
331.9933782152
 31
0.0
  0
LINE
  5
1DC
100
AcDbEntity
  8
STAP_DN50
  6
CONTINUOUS
 62
         7
100
AcDbLine
 10
115.3489855055
 20
331.9933782152
 30
0.0
 11
113.090897095
 21
331.9933782152
 31
0.0
  0
LINE
  5
1DD
100
AcDbEntity
  8
STAP_DN50
  6
CONTINUOUS
 62
         7
100
AcDbLine
 10
131.8631026998
 20
351.4277955317
 30
0.0
 11
134.1211911104
 21
351.4277955317
 31
0.0
  0
ELLIPSE
  5
1DE
100
AcDbEntity
  8
STAP_DN50
  6
CONTINUOUS
 62
         7
100
AcDbEllipse
 10
104.1241850457
 20
329.2891161464
 30
0.0
 11
23.119702007511005
 21
96.73016085963674
 31
0.0
210
0.0
220
0.0
230
1.0
 40
0.2521855297
 41
4.9143693579676029
 42
5.0030829000970218
  0
ELLIPSE
  5
1DF
100
AcDbEntity
  8
STAP_DN50
  6
CONTINUOUS
 62
         7
100
AcDbEllipse
 10
139.4217531737
 20
326.943195232
 30
0.0
 11
-0.000000000000222
 21
17.500000000000036
 31
0.0
210
0.0
220
0.0
230
1.0
 40
0.9659258263
 41
0.4115168460674828
 42
1.1592794807273972
  0
ELLIPSE
  5
1E0
100
AcDbEntity
  8
STAP_DN50
  6
CONTINUOUS
 62
         7
100
AcDbEllipse
 10
111.6732613989
 20
337.1044950787
 30
0.0
 11
97.070380330927449
 21
21.646845105612371
 31
0.0
210
0.0
220
0.0
230
1.0
 40
0.0582216171
 41
4.7372786488784122
 42
4.8259921910093535
  0
ELLIPSE
  5
1E1
100
AcDbEntity
  8
STAP_DN50
  6
CONTINUOUS
 62
         7
100
AcDbEllipse
 10
116.2052325941
 20
337.1044950788
 30
0.0
 11
97.070380332246614
 21
-21.646845105832469
 31
0.0
210
0.0
220
0.0
230
1.0
 40
0.0582216171
 41
1.0849240506139886
 42
1.1736375927435134
  0
ELLIPSE
  5
1E2
100
AcDbEntity
  8
STAP_DN50
  6
CONTINUOUS
 62
         7
100
AcDbEllipse
 10
139.4217531737
 20
326.943195232
 30
0.0
 11
0.0000000000008188
 21
17.500000000000075
 31
0.0
210
0.0
220
0.0
230
1.0
 40
0.9659258263
 41
5.1239058264522246
 42
5.8716684611121472
  0
ELLIPSE
  5
1E3
100
AcDbEntity
  8
STAP_DN50
  6
CONTINUOUS
 62
         7
100
AcDbEllipse
 10
123.7543089473
 20
329.2891161466
 30
0.0
 11
-23.119702007111297
 21
96.73016085929973
 31
0.0
210
0.0
220
0.0
230
1.0
 40
0.2521855297
 41
4.7939641262294312
 42
4.8826776683591691
  0
LINE
  5
1E4
100
AcDbEntity
  8
STAP_DN50
  6
CONTINUOUS
 62
         7
100
AcDbLine
 10
129.9797240868
 20
310.9041802996
 30
0.0
 11
131.8631026998
 21
302.4585949323
 31
0.0
  0
ELLIPSE
  5
1E5
100
AcDbEntity
  8
STAP_DN50
  6
CONTINUOUS
 62
         7
100
AcDbEllipse
 10
136.7412048708
 20
326.943195232
 30
0.0
 11
0.0000000000015821
 21
-17.499999999999865
 31
0.0
210
0.0
220
0.0
230
1.0
 40
0.9659258263
 41
5.1239058264520931
 42
5.8716684611120096
  0
ELLIPSE
  5
1E6
100
AcDbEntity
  8
STAP_DN50
  6
CONTINUOUS
 62
         7
100
AcDbEllipse
 10
123.7543089473
 20
324.5972743174
 30
0.0
 11
-23.119702007096741
 21
-96.730160859179676
 31
0.0
210
0.0
220
0.0
230
1.0
 40
0.2521855297
 41
1.4005076388203332
 42
1.4892211809501639
  0
ELLIPSE
  5
1E7
100
AcDbEntity
  8
STAP_DN50
  6
CONTINUOUS
 62
         7
100
AcDbEllipse
 10
139.4217531737
 20
326.943195232
 30
0.0
 11
0.0000000000014849
 21
-17.500000000000071
 31
0.0
210
0.0
220
0.0
230
1.0
 40
0.9659258263
 41
0.4115168460674095
 42
1.1592794807273283
  0
ELLIPSE
  5
1E8
100
AcDbEntity
  8
STAP_DN50
  6
CONTINUOUS
 62
         7
100
AcDbEllipse
 10
116.205232594
 20
316.7818953851
 30
0.0
 11
97.070380332453496
 21
21.646845105870732
 31
0.0
210
0.0
220
0.0
230
1.0
 40
0.0582216171
 41
5.1095477144356138
 42
5.1982612565648196
  0
LINE
  5
1E9
100
AcDbEntity
  8
STAP_DN50
  6
CONTINUOUS
 62
         7
100
AcDbLine
 10
158.5678872245
 20
360.443195232
 30
0.0
 11
157.0905286405
 21
364.5022045821
 31
0.0
  0
ELLIPSE
  5
1EA
100
AcDbEntity
  8
STAP_DN50
  6
CONTINUOUS
 62
         7
100
AcDbEllipse
 10
107.0028965885
 20
326.943195232
 30
0.0
 11
-0.0000000000006661
 21
49.900000000000155
 31
0.0
210
0.0
220
0.0
230
1.0
 40
0.9659258263
 41
0.0
 42
0.0688564916465863
  0
ELLIPSE
  5
1EB
100
AcDbEntity
  8
STAP_DN50
  6
CONTINUOUS
 62
         7
100
AcDbEllipse
 10
107.0028965885
 20
326.943195232
 30
0.0
 11
-0.0000000000006661
 21
49.900000000000155
 31
0.0
210
0.0
220
0.0
230
1.0
 40
0.9659258263
 41
3.0727361619431797
 42
3.1415926535897931
  0
LINE
  5
1EC
100
AcDbEntity
  8
STAP_DN50
  6
CONTINUOUS
 62
         7
100
AcDbLine
 10
134.1211911104
 20
302.4585949323
 30
0.0
 11
131.8631026998
 21
302.4585949323
 31
0.0
  0
LINE
  5
1ED
100
AcDbEntity
  8
STAP_DN50
  6
CONTINUOUS
 62
         7
100
AcDbLine
 10
132.6602723897
 20
310.9041802996
 30
0.0
 11
129.9797240868
 21
310.9041802996
 31
0.0
  0
LINE
  5
1EE
100
AcDbEntity
  8
STAP_DN50
  6
CONTINUOUS
 62
         7
100
AcDbLine
 10
123.9292544223
 20
319.943195232
 30
0.0
 11
121.2487061194
 21
319.943195232
 31
0.0
  0
ELLIPSE
  5
1EF
100
AcDbEntity
  8
STAP_DN50
  6
CONTINUOUS
 62
         7
100
AcDbEllipse
 10
111.6732613987
 20
316.7818953852
 30
0.0
 11
97.070380331683026
 21
-21.646845105776496
 31
0.0
210
0.0
220
0.0
230
1.0
 40
0.0582216171
 41
1.4571931161707425
 42
1.5459066583005445
  0
ELLIPSE
  5
1F0
100
AcDbEntity
  8
STAP_DN50
  6
CONTINUOUS
 62
         7
100
AcDbEllipse
 10
139.4217531737
 20
326.943195232
 30
0.0
 11
-0.0000000000018249
 21
-17.500000000000146
 31
0.0
210
0.0
220
0.0
230
1.0
 40
0.9659258263
 41
5.1239058264522743
 42
5.8716684611121943
  0
ELLIPSE
  5
1F1
100
AcDbEntity
  8
STAP_DN50
  6
CONTINUOUS
 62
         7
100
AcDbEllipse
 10
104.1241850461
 20
324.5972743172
 30
0.0
 11
23.119702007243252
 21
-96.730160858896951
 31
0.0
210
0.0
220
0.0
230
1.0
 40
0.2521855297
 41
1.2801024070844795
 42
1.3688159492145524
  0
LINE
  5
1F2
100
AcDbEntity
  8
STAP_DN50
  6
CONTINUOUS
 62
         7
100
AcDbLine
 10
113.090897095
 20
321.8930122487
 30
0.0
 11
115.3489855055
 21
321.8930122487
 31
0.0
  0
LINE
  5
1F3
100
AcDbEntity
  8
STAP_DN50
  6
CONTINUOUS
 62
         7
100
AcDbLine
 10
37.3678872245
 20
360.943195232
 30
0.0
 11
36.0725137576
 21
364.5022045821
 31
0.0
  0
ELLIPSE
  5
1F4
100
AcDbEntity
  8
STAP_DN50
  6
CONTINUOUS
 62
         7
100
AcDbEllipse
 10
107.6628851535
 20
326.943195232
 30
0.0
 11
-0.0000000000003469
 21
-49.900000000000134
 31
0.0
210
0.0
220
0.0
230
1.0
 40
0.9659258263
 41
0.0
 42
1.3894431521575457
  0
ELLIPSE
  5
1F5
100
AcDbEntity
  8
STAP_DN50
  6
CONTINUOUS
 62
         7
100
AcDbEllipse
 10
107.6628851535
 20
326.943195232
 30
0.0
 11
-0.0000000000003469
 21
-49.900000000000134
 31
0.0
210
0.0
220
0.0
230
1.0
 40
0.9659258263
 41
1.752149501432261
 42
3.2733044016800918
  0
ELLIPSE
  5
1F6
100
AcDbEntity
  8
STAP_DN50
  6
CONTINUOUS
 62
         7
100
AcDbEllipse
 10
107.6628851535
 20
326.943195232
 30
0.0
 11
-0.0000000000003469
 21
-49.900000000000134
 31
0.0
210
0.0
220
0.0
230
1.0
 40
0.9659258263
 41
6.1514735590893004
 42
6.2831853071795862
  0
ELLIPSE
  5
1F7
100
AcDbEntity
  8
STAP_DN50
  6
CONTINUOUS
 62
         7
100
AcDbEllipse
 10
107.6628851535
 20
326.943195232
 30
0.0
 11
-0.000000000001367
 21
48.249999999999787
 31
0.0
210
0.0
220
0.0
230
1.0
 40
0.9659258263
 41
0.0
 42
3.1415926535897931
  0
ELLIPSE
  5
1F8
100
AcDbEntity
  8
STAP_DN50
  6
CONTINUOUS
 62
         7
100
AcDbEllipse
 10
107.7793537238
 20
326.943195232
 30
0.0
 11
-0.000000000001367
 21
48.249999999999787
 31
0.0
210
0.0
220
0.0
230
1.0
 40
0.9659258263
 41
0.0
 42
4.5072729978551864
  0
ELLIPSE
  5
1F9
100
AcDbEntity
  8
STAP_DN50
  6
CONTINUOUS
 62
         7
100
AcDbEllipse
 10
107.7793537238
 20
326.943195232
 30
0.0
 11
-0.000000000001367
 21
48.249999999999787
 31
0.0
210
0.0
220
0.0
230
1.0
 40
0.9659258263
 41
4.9175049629141343
 42
6.2831853071795862
  0
ELLIPSE
  5
1FA
100
AcDbEntity
  8
STAP_DN50
  6
CONTINUOUS
 62
         7
100
AcDbEllipse
 10
107.7793537238
 20
326.943195232
 30
0.0
 11
-0.0000000000021129
 21
42.500000000001236
 31
0.0
210
0.0
220
0.0
230
1.0
 40
0.9659258263
 41
0.0000000000000001
 42
4.0861142360211264
  0
ELLIPSE
  5
1FB
100
AcDbEntity
  8
STAP_DN50
  6
CONTINUOUS
 62
         7
100
AcDbEllipse
 10
107.7793537238
 20
326.943195232
 30
0.0
 11
-0.0000000000021129
 21
42.500000000001236
 31
0.0
210
0.0
220
0.0
230
1.0
 40
0.9659258263
 41
5.3386637247481588
 42
6.2831853071795862
  0
ELLIPSE
  5
1FC
100
AcDbEntity
  8
STAP_DN50
  6
CONTINUOUS
 62
         7
100
AcDbEllipse
 10
109.8425158941
 20
326.943195232
 30
0.0
 11
0.0000000000003331
 21
32.999999999999666
 31
0.0
210
0.0
220
0.0
230
1.0
 40
0.9659258263
 41
1.8173119244494074
 42
3.1415926535897931
  0
ELLIPSE
  5
1FD
100
AcDbEntity
  8
STAP_DN50
  6
CONTINUOUS
 62
         7
100
AcDbEllipse
 10
112.8910298646
 20
326.943195232
 30
0.0
 11
-0.0000000000003712
 21
32.999999999999616
 31
0.0
210
0.0
220
0.0
230
1.0
 40
0.9659258263
 41
1.8173119244493889
 42
3.860867517749822
  0
ELLIPSE
  5
1FE
100
AcDbEntity
  8
STAP_DN50
  6
CONTINUOUS
 62
         7
100
AcDbEllipse
 10
128.5873245418
 20
326.943195232
 30
0.0
 11
0.000000000000222
 21
16.749999999989015
 31
0.0
210
0.0
220
0.0
230
1.0
 40
0.9659258263
 41
2.1380447253242614
 42
3.1415926535897931
  0
ELLIPSE
  5
1FF
100
AcDbEntity
  8
STAP_DN50
  6
CONTINUOUS
 62
         7
100
AcDbEllipse
 10
130.8530715947
 20
326.943195232
 30
0.0
 11
0.0000000000009992
 21
16.749999999989011
 31
0.0
210
0.0
220
0.0
230
1.0
 40
0.9659258263
 41
2.1380447253243062
 42
3.0971704699088565
  0
LINE
  5
200
100
AcDbEntity
  8
STAP_DN50
  6
CONTINUOUS
 62
         7
100
AcDbLine
 10
121.2487061194
 20
319.943195232
 30
0.0
 11
113.090897095
 21
321.8930122487
 31
0.0
  0
ELLIPSE
  5
201
100
AcDbEntity
  8
STAP_DN50
  6
CONTINUOUS
 62
         7
100
AcDbEllipse
 10
138.9992932814
 20
326.943195232
 30
0.0
 11
-0.0000000000375117
 21
-25.000000000003158
 31
0.0
210
0.0
220
0.0
230
1.0
 40
0.9659258263
 41
4.5089819178931965
 42
4.9157960428790908
  0
ELLIPSE
  5
202
100
AcDbEntity
  8
STAP_DN50
  6
CONTINUOUS
 62
         7
100
AcDbEllipse
 10
136.7412048708
 20
326.943195232
 30
0.0
 11
0.0000000000994066
 21
-25.000000000000782
 31
0.0
210
0.0
220
0.0
230
1.0
 40
0.9659258263
 41
4.5089819178878727
 42
4.915796042873799
  0
LINE
  5
203
100
AcDbEntity
  8
STAP_DN50
  6
CONTINUOUS
 62
         7
100
AcDbLine
 10
91.889170706
 20
317.943195232
 30
0.0
 11
82.044497302
 21
318.8840199212
 31
0.0
  0
LINE
  5
204
100
AcDbEntity
  8
STAP_DN50
  6
CONTINUOUS
 62
         7
100
AcDbLine
 10
129.9797240868
 20
342.9822101643
 30
0.0
 11
131.8631026998
 21
351.4277955317
 31
0.0
  0
ARC
  5
205
100
AcDbEntity
  8
STAP_DN50
  6
CONTINUOUS
 62
         7
100
AcDbCircle
 10
79.5679174404
 20
328.7330417408
 30
0.0
 40
6.2953662961
100
AcDbArc
 50
95.8102881845
 51
172.913221735
  0
ARC
  5
206
100
AcDbEntity
  8
STAP_DN50
  6
CONTINUOUS
 62
         7
100
AcDbCircle
 10
79.5548935183
 20
325.1400313607
 30
0.0
 40
6.2808096033
100
AcDbArc
 50
186.9808783281
 51
264.2956117524
  0
ENDBLK
  5
207
100
AcDbEntity
  8
STAP_DN50
  6
CONTINUOUS
 62
         7
100
AcDbBlockEnd
  0
BLOCK
  5
2F5
100
AcDbEntity
  8
0
 62
         1
 48
0.0
100
AcDbBlockBegin
  2
SE4
 70
         0
 10
0.0
 20
0.0
 30
0.0
  3
SE4
  1

  0
ENDBLK
  5
2F6
100
AcDbEntity
  8
0
 62
         1
 48
0.0
100
AcDbBlockEnd
  0
BLOCK
  5
20A
100
AcDbEntity
  8
0
 62
         1
 48
0.0
100
AcDbBlockBegin
  2
SE5
 70
         0
 10
0.0
 20
0.0
 30
0.0
  3
SE5
  1

  0
SPLINE
  5
20B
100
AcDbEntity
  8
STAP_DN50
  6
CONTINUOUS
 62
         7
100
AcDbSpline
210
0.0
220
0.0
230
1.0
 70
         8
 71
         3
 72
        14
 73
        10
 74
         0
 42
0.0
 43
0.0
 40
0.4999244470374818
 40
0.4999244470374818
 40
0.4999244470374818
 40
0.4999244470374818
 40
0.4999999999999997
 40
0.4999999999999997
 40
0.6249999999999996
 40
0.6249999999999996
 40
0.7499999999999996
 40
0.7499999999999996
 40
1.0
 40
1.0
 40
1.0
 40
1.0
 10
351.78564618762459
 20
144.50675022441942
 30
0.0
 10
351.78564619575269
 20
144.50675022130571
 30
0.0
 10
351.78564613428989
 20
144.50675024804966
 30
0.0
 10
351.78542916848244
 20
144.50684395404795
 30
0.0
 10
351.60179256290019
 20
144.58599679772766
 30
0.0
 10
350.89835206588651
 20
144.89111279487457
 30
0.0
 10
350.38228652838217
 20
145.11549664416353
 30
0.0
 10
348.43281815960444
 20
145.97203054789463
 30
0.0
 10
346.6385439484157
 20
146.77181850667762
 30
0.0
 10
344.84958636958544
 20
147.5987973180919
 30
0.0
  0
LINE
  5
20C
100
AcDbEntity
  8
STAP_DN50
  6
CONTINUOUS
 62
         7
100
AcDbLine
 10
249.3638239588
 20
148.6336363287
 30
0.0
 11
355.6156648506
 21
120.1635413674
 31
0.0
  0
LINE
  5
20D
100
AcDbEntity
  8
STAP_DN50
  6
CONTINUOUS
 62
         7
100
AcDbLine
 10
247.6297363567
 20
142.1619332925
 30
0.0
 11
353.8815772484
 21
113.6918383313
 31
0.0
  0
LINE
  5
20E
100
AcDbEntity
  8
STAP_DN50
  6
CONTINUOUS
 62
         7
100
AcDbLine
 10
387.8729899597
 20
229.0416936521
 30
0.0
 11
387.8729899597
 21
162.0416936521
 31
0.0
  0
ELLIPSE
  5
20F
100
AcDbEntity
  8
STAP_DN50
  6
CONTINUOUS
 62
         7
100
AcDbEllipse
 10
308.8090837358
 20
157.982684302
 30
0.0
 11
-54.652696642795377
 21
-2.7463861941440721
 31
0.0
210
0.0
220
0.0
230
1.0
 40
0.394712285
 41
5.7195112451635026
 42
6.1565545254502014
  0
LINE
  5
210
100
AcDbEntity
  8
STAP_DN50
  6
CONTINUOUS
 62
         7
100
AcDbLine
 10
330.8123643743
 20
154.051287294
 30
0.0
 11
295.9420806564
 21
163.394751656
 31
0.0
  0
LINE
  5
211
100
AcDbEntity
  8
STAP_DN50
  6
CONTINUOUS
 62
         7
100
AcDbLine
 10
262.0320866793
 20
167.1870405879
 30
0.0
 11
266.0221475081
 21
166.8346350702
 31
0.0
  0
LINE
  5
212
100
AcDbEntity
  8
STAP_DN50
  6
CONTINUOUS
 62
         7
100
AcDbLine
 10
252.4256861373
 20
150.4014032816
 30
0.0
 11
353.8478978977
 21
123.2254035459
 31
0.0
  0
LINE
  5
213
100
AcDbEntity
  8
STAP_DN50
  6
CONTINUOUS
 62
         7
100
AcDbLine
 10
282.5844636307
 20
228.0916936521
 30
0.0
 11
282.5844636307
 21
169.1124957831
 31
0.0
  0
LINE
  5
214
100
AcDbEntity
  8
STAP_DN50
  6
CONTINUOUS
 62
         7
100
AcDbLine
 10
280.0729899597
 20
229.5416936521
 30
0.0
 11
280.0729899597
 21
167.3459492924
 31
0.0
  0
LINE
  5
215
100
AcDbEntity
  8
STAP_DN50
  6
CONTINUOUS
 62
         7
100
AcDbLine
 10
356.1615162888
 20
228.0916936521
 30
0.0
 11
356.1615162888
 21
163.6393723814
 31
0.0
  0
LINE
  5
216
100
AcDbEntity
  8
STAP_DN50
  6
CONTINUOUS
 62
         7
100
AcDbLine
 10
358.6729899597
 20
229.5416936521
 30
0.0
 11
358.6729899597
 21
162.0779236154
 31
0.0
  0
LINE
  5
217
100
AcDbEntity
  8
STAP_DN50
  6
CONTINUOUS
 62
         7
100
AcDbLine
 10
250.8729899597
 20
229.0416936521
 30
0.0
 11
250.8729899597
 21
162.0416936521
 31
0.0
  0
LINE
  5
218
100
AcDbEntity
  8
STAP_DN50
  6
CONTINUOUS
 62
         7
100
AcDbLine
 10
266.6729899597
 20
229.5416936521
 30
0.0
 11
266.6729899597
 21
166.9809830343
 31
0.0
  0
LINE
  5
219
100
AcDbEntity
  8
STAP_DN50
  6
CONTINUOUS
 62
         7
100
AcDbLine
 10
372.0729899597
 20
229.5416936521
 30
0.0
 11
372.0729899597
 21
161.5416936521
 31
0.0
  0
ARC
  5
21A
100
AcDbEntity
  8
STAP_DN50
  6
CONTINUOUS
 62
         7
100
AcDbCircle
 10
457.9951210775
 20
208.8208087552
 30
0.0
 40
85.6622612847
100
AcDbArc
 50
171.0822121515
 51
188.9177878485
  0
ARC
  5
21B
100
AcDbEntity
  8
STAP_DN50
  6
CONTINUOUS
 62
         7
100
AcDbCircle
 10
372.2603598382
 20
227.6003134303
 30
0.0
 40
15.167735061
100
AcDbArc
 50
338.7377372552
 51
21.2622627448
  0
ARC
  5
21C
100
AcDbEntity
  8
STAP_DN50
  6
CONTINUOUS
 62
         7
100
AcDbCircle
 10
301.7688737249
 20
208.8208087552
 30
0.0
 40
85.6622612847
100
AcDbArc
 50
351.0822121515
 51
8.9177878485
  0
ARC
  5
21D
100
AcDbEntity
  8
STAP_DN50
  6
CONTINUOUS
 62
         7
100
AcDbCircle
 10
387.5036349641
 20
163.483073874
 30
0.0
 40
15.167735061
100
AcDbArc
 50
158.7377372552
 51
201.2622627448
  0
ARC
  5
21E
100
AcDbEntity
  8
STAP_DN50
  6
CONTINUOUS
 62
         7
100
AcDbCircle
 10
457.9951210775
 20
182.2625785491
 30
0.0
 40
85.6622612847
100
AcDbArc
 50
171.0822121515
 51
188.9177878485
  0
LINE
  5
21F
100
AcDbEntity
  8
STAP_DN50
  6
CONTINUOUS
 62
         7
100
AcDbLine
 10
265.3776164928
 20
222.0999238583
 30
0.0
 11
252.3503485438
 21
222.0999238583
 31
0.0
  0
LINE
  5
220
100
AcDbEntity
  8
STAP_DN50
  6
CONTINUOUS
 62
         7
100
AcDbLine
 10
386.3956313757
 20
195.5416936521
 30
0.0
 11
373.3683634267
 21
195.5416936521
 31
0.0
  0
LINE
  5
221
100
AcDbEntity
  8
STAP_DN50
  6
CONTINUOUS
 62
         7
100
AcDbLine
 10
265.3776164928
 20
195.5416936521
 30
0.0
 11
252.3503485438
 21
195.5416936521
 31
0.0
  0
LINE
  5
222
100
AcDbEntity
  8
STAP_DN50
  6
CONTINUOUS
 62
         7
100
AcDbLine
 10
265.3776164928
 20
233.1007030023
 30
0.0
 11
252.3503485438
 21
233.1007030023
 31
0.0
  0
LINE
  5
223
100
AcDbEntity
  8
STAP_DN50
  6
CONTINUOUS
 62
         7
100
AcDbLine
 10
333.4426192852
 20
163.8675322584
 30
0.0
 11
330.8123643743
 21
154.051287294
 31
0.0
  0
SPLINE
  5
224
100
AcDbEntity
  8
STAP_DN50
  6
CONTINUOUS
 62
         7
100
AcDbSpline
210
0.0
220
0.0
230
1.0
 70
         8
 71
         3
 72
        26
 73
        22
 74
         0
 42
0.0
 43
0.0
 40
0.0
 40
0.0
 40
0.0
 40
0.0
 40
0.1249999999999999
 40
0.1249999999999999
 40
0.2499999999999998
 40
0.2499999999999998
 40
0.3749999999999997
 40
0.3749999999999997
 40
0.4999999999999996
 40
0.4999999999999996
 40
0.5624999999999996
 40
0.5624999999999996
 40
0.6249999999999994
 40
0.6249999999999994
 40
0.6874999999999994
 40
0.6874999999999994
 40
0.7499999999999996
 40
0.7499999999999996
 40
0.8749999999999998
 40
0.8749999999999998
 40
1.0
 40
1.0
 40
1.0
 40
1.0
 10
333.44261928522184
 20
163.86753225835062
 30
0.0
 10
332.9255750924786
 20
164.29681662834406
 30
0.0
 10
332.21156831615457
 20
164.88002762410608
 30
0.0
 10
330.46618374151359
 20
166.22274248344368
 30
0.0
 10
329.42035142448577
 20
166.99420736921567
 30
0.0
 10
327.01838208502767
 20
168.59094250827155
 30
0.0
 10
325.68038934079414
 20
169.40686933202903
 30
0.0
 10
322.65440584865894
 20
170.93456223596525
 30
0.0
 10
320.97886409659122
 20
171.63316139691415
 30
0.0
 10
318.27963879626031
 20
172.39442844360994
 30
0.0
 10
317.33509921002786
 20
172.60308599327072
 30
0.0
 10
315.43868222131044
 20
172.89581905147298
 30
0.0
 10
314.48076897578471
 20
172.98255331620581
 30
0.0
 10
312.54623600504021
 20
173.03726793817981
 30
0.0
 10
311.56070524840936
 20
173.00407854563244
 30
0.0
 10
309.62975736941519
 20
172.83184853198006
 30
0.0
 10
308.68180513956281
 20
172.6943358161457
 30
0.0
 10
305.88166593852316
 20
172.16081929616473
 30
0.0
 10
304.05793778279201
 20
171.63894128086852
 30
0.0
 10
300.63280748702783
 20
170.4588211012159
 30
0.0
 10
299.01401310699765
 20
169.79795834787021
 30
0.0
 10
297.47414557781741
 20
169.11249578311927
 30
0.0
  0
LINE
  5
225
100
AcDbEntity
  8
STAP_DN50
  6
CONTINUOUS
 62
         7
100
AcDbLine
 10
333.4426192852
 20
163.8675322584
 30
0.0
 11
349.2087807587
 21
163.8675322584
 31
0.0
  0
LINE
  5
226
100
AcDbEntity
  8
STAP_DN50
  6
CONTINUOUS
 62
         7
100
AcDbLine
 10
356.1615162888
 20
163.6393723814
 30
0.0
 11
358.6729899597
 21
162.0779236154
 31
0.0
  0
LINE
  5
227
100
AcDbEntity
  8
STAP_DN50
  6
CONTINUOUS
 62
         7
100
AcDbLine
 10
387.8729899597
 20
229.0416936521
 30
0.0
 11
386.3956313757
 21
233.1007030023
 31
0.0
  0
LINE
  5
228
100
AcDbEntity
  8
STAP_DN50
  6
CONTINUOUS
 62
         7
100
AcDbLine
 10
369.8200335442
 20
129.1090115597
 30
0.0
 11
385.3056720522
 21
144.5946500677
 31
0.0
  0
LINE
  5
229
100
AcDbEntity
  8
STAP_DN50
  6
CONTINUOUS
 62
         7
100
AcDbLine
 10
357.763862925
 20
146.0442189691
 30
0.0
 11
368.3704646428
 21
156.6508206869
 31
0.0
  0
LINE
  5
22A
100
AcDbEntity
  8
STAP_DN50
  6
CONTINUOUS
 62
         7
100
AcDbLine
 10
358.8245230968
 20
140.033811329
 30
0.0
 11
374.3808722829
 21
155.5901605151
 31
0.0
  0
LINE
  5
22B
100
AcDbEntity
  8
STAP_DN50
  6
CONTINUOUS
 62
         7
100
AcDbLine
 10
373.3202121111
 20
156.6508206869
 30
0.0
 11
358.1742090095
 21
141.5048175853
 31
0.0
  0
ARC
  5
22C
100
AcDbEntity
  8
STAP_DN50
  6
CONTINUOUS
 62
         7
100
AcDbCircle
 10
350.484315851
 20
92.7399297553
 30
0.0
 40
71.1263774523
100
AcDbArc
 50
85.4218670693
 51
90.5708206797
  0
LINE
  5
22D
100
AcDbEntity
  8
STAP_DN50
  6
CONTINUOUS
 62
         7
100
AcDbLine
 10
252.4256861373
 20
150.4014032816
 30
0.0
 11
249.3638239588
 21
148.6336363287
 31
0.0
  0
LINE
  5
22E
100
AcDbEntity
  8
STAP_DN50
  6
CONTINUOUS
 62
         7
100
AcDbLine
 10
249.3638239588
 20
148.6336363287
 30
0.0
 11
247.6297363567
 21
142.1619332925
 31
0.0
  0
LINE
  5
22F
100
AcDbEntity
  8
STAP_DN50
  6
CONTINUOUS
 62
         7
100
AcDbLine
 10
383.9268138289
 20
122.0025884087
 30
0.0
 11
392.4120952031
 21
130.487869783
 31
0.0
  0
LINE
  5
230
100
AcDbEntity
  8
STAP_DN50
  6
CONTINUOUS
 62
         7
100
AcDbLine
 10
386.1188448506
 20
118.5377651809
 30
0.0
 11
395.876918431
 21
128.2958387613
 31
0.0
  0
LINE
  5
231
100
AcDbEntity
  8
STAP_DN50
  6
CONTINUOUS
 62
         7
100
AcDbLine
 10
385.4117380694
 20
119.2448719621
 30
0.0
 11
395.1698116498
 21
129.0029455425
 31
0.0
  0
LINE
  5
232
100
AcDbEntity
  8
STAP_DN50
  6
CONTINUOUS
 62
         7
100
AcDbLine
 10
380.4180763932
 20
120.6151713166
 30
0.0
 11
393.7995122952
 21
133.9966072186
 31
0.0
  0
LINE
  5
233
100
AcDbEntity
  8
STAP_DN50
  6
CONTINUOUS
 62
         7
100
AcDbLine
 10
375.8218823155
 20
125.2113653944
 30
0.0
 11
389.2033182175
 21
138.5928012963
 31
0.0
  0
LINE
  5
234
100
AcDbEntity
  8
STAP_DN50
  6
CONTINUOUS
 62
         7
100
AcDbLine
 10
387.8866118036
 20
118.0427904341
 30
0.0
 11
396.3718931778
 21
126.5280718083
 31
0.0
  0
LINE
  5
235
100
AcDbEntity
  8
STAP_DN50
  6
CONTINUOUS
 62
         7
100
AcDbLine
 10
391.7756991001
 20
112.8809109314
 30
0.0
 11
401.5337726805
 21
122.6389845117
 31
0.0
  0
LINE
  5
236
100
AcDbEntity
  8
STAP_DN50
  6
CONTINUOUS
 62
         7
100
AcDbLine
 10
387.8866118036
 20
116.7699982279
 30
0.0
 11
397.6446853839
 21
126.5280718083
 31
0.0
  0
LINE
  5
237
100
AcDbEntity
  8
STAP_DN50
  6
CONTINUOUS
 62
         7
100
AcDbLine
 10
372.0729899597
 20
229.5416936521
 30
0.0
 11
358.6729899597
 21
229.5416936521
 31
0.0
  0
LINE
  5
238
100
AcDbEntity
  8
STAP_DN50
  6
CONTINUOUS
 62
         7
100
AcDbLine
 10
254.4570842643
 20
157.982684302
 30
0.0
 11
252.4256861373
 21
150.4014032816
 31
0.0
  0
LINE
  5
239
100
AcDbEntity
  8
STAP_DN50
  6
CONTINUOUS
 62
         7
100
AcDbLine
 10
357.763862925
 20
146.0442189691
 30
0.0
 11
357.763862925
 21
141.7190619787
 31
0.0
  0
LINE
  5
23A
100
AcDbEntity
  8
STAP_DN50
  6
CONTINUOUS
 62
         7
100
AcDbLine
 10
353.3738974211
 20
150.434184473
 30
0.0
 11
357.763862925
 21
146.0442189691
 31
0.0
  0
SPLINE
  5
23B
100
AcDbEntity
  8
STAP_DN50
  6
CONTINUOUS
 62
         7
100
AcDbSpline
210
0.0
220
0.0
230
1.0
 70
         8
 71
         3
 72
        14
 73
        10
 74
         0
 42
0.0
 43
0.0
 40
0.5007708230180765
 40
0.5007708230180765
 40
0.5007708230180765
 40
0.5007708230180765
 40
0.6250000000000001
 40
0.6250000000000001
 40
0.7500000000000001
 40
0.7500000000000001
 40
0.875
 40
0.875
 40
1.0
 40
1.0
 40
1.0
 40
1.0
 10
358.45161706166931
 20
140.4067173840611
 30
0.0
 10
358.45161715707559
 20
140.40671907142908
 30
0.0
 10
358.45357528380578
 20
140.42649033865513
 30
0.0
 10
358.46152795595225
 20
140.50608131476022
 30
0.0
 10
358.46748743787907
 20
140.56553636935956
 30
0.0
 10
358.48331813716754
 20
140.72122894302191
 30
0.0
 10
358.49319013542049
 20
140.81747290036694
 30
0.0
 10
358.5170263070587
 20
141.0454300138833
 30
0.0
 10
358.53106049616116
 20
141.17778554196548
 30
0.0
 10
358.54714146981217
 20
141.32590959936064
 30
0.0
  0
LINE
  5
23C
100
AcDbEntity
  8
STAP_DN50
  6
CONTINUOUS
 62
         7
100
AcDbLine
 10
358.5471414698
 20
141.3259095994
 30
0.0
 11
358.1742090095
 21
141.5048175853
 31
0.0
  0
LINE
  5
23D
100
AcDbEntity
  8
STAP_DN50
  6
CONTINUOUS
 62
         7
100
AcDbLine
 10
358.5471414698
 20
141.3259095994
 30
0.0
 11
262.0320866793
 21
167.1870405879
 31
0.0
  0
ARC
  5
23E
100
AcDbEntity
  8
STAP_DN50
  6
CONTINUOUS
 62
         7
100
AcDbCircle
 10
335.2573526004
 20
-139.5495642548
 30
0.0
 40
314.1095210594
100
AcDbArc
 50
102.6118677534
 51
102.7335502934
  0
LINE
  5
23F
100
AcDbEntity
  8
STAP_DN50
  6
CONTINUOUS
 62
         7
100
AcDbLine
 10
265.3776164928
 20
168.983463446
 30
0.0
 11
266.0221475081
 21
166.8346350702
 31
0.0
  0
ARC
  5
240
100
AcDbEntity
  8
STAP_DN50
  6
CONTINUOUS
 62
         7
100
AcDbCircle
 10
251.2423449554
 20
227.6003134303
 30
0.0
 40
15.167735061
100
AcDbArc
 50
338.7377372552
 51
21.2622627448
  0
ARC
  5
241
100
AcDbEntity
  8
STAP_DN50
  6
CONTINUOUS
 62
         7
100
AcDbCircle
 10
180.750858842
 20
208.8208087552
 30
0.0
 40
85.6622612847
100
AcDbArc
 50
351.0822121515
 51
8.9177878485
  0
ARC
  5
242
100
AcDbEntity
  8
STAP_DN50
  6
CONTINUOUS
 62
         7
100
AcDbCircle
 10
180.750858842
 20
182.2625785491
 30
0.0
 40
85.6622612847
100
AcDbArc
 50
351.0822121515
 51
8.9177878485
  0
LINE
  5
243
100
AcDbEntity
  8
STAP_DN50
  6
CONTINUOUS
 62
         7
100
AcDbLine
 10
254.4570842643
 20
157.982684302
 30
0.0
 11
252.3503485438
 21
157.982684302
 31
0.0
  0
LINE
  5
244
100
AcDbEntity
  8
STAP_DN50
  6
CONTINUOUS
 62
         7
100
AcDbLine
 10
386.3956313757
 20
157.982684302
 30
0.0
 11
373.3683634267
 21
157.982684302
 31
0.0
  0
LINE
  5
245
100
AcDbEntity
  8
STAP_DN50
  6
CONTINUOUS
 62
         7
100
AcDbLine
 10
386.3956313757
 20
168.983463446
 30
0.0
 11
373.3683634267
 21
168.983463446
 31
0.0
  0
LINE
  5
246
100
AcDbEntity
  8
STAP_DN50
  6
CONTINUOUS
 62
         7
100
AcDbLine
 10
265.3776164928
 20
168.983463446
 30
0.0
 11
252.3503485438
 21
168.983463446
 31
0.0
  0
ARC
  5
247
100
AcDbEntity
  8
STAP_DN50
  6
CONTINUOUS
 62
         7
100
AcDbCircle
 10
266.4856200812
 20
163.483073874
 30
0.0
 40
15.167735061
100
AcDbArc
 50
158.7377372552
 51
201.2622627448
  0
ARC
  5
248
100
AcDbEntity
  8
STAP_DN50
  6
CONTINUOUS
 62
         7
100
AcDbCircle
 10
336.9771061946
 20
208.8208087552
 30
0.0
 40
85.6622612847
100
AcDbArc
 50
171.0822121515
 51
188.9177878485
  0
ARC
  5
249
100
AcDbEntity
  8
STAP_DN50
  6
CONTINUOUS
 62
         7
100
AcDbCircle
 10
336.9771061946
 20
182.2625785491
 30
0.0
 40
85.6622612847
100
AcDbArc
 50
171.0822121515
 51
188.9177878485
  0
ARC
  5
24A
100
AcDbEntity
  8
STAP_DN50
  6
CONTINUOUS
 62
         7
100
AcDbCircle
 10
266.4856200812
 20
227.6003134303
 30
0.0
 40
15.167735061
100
AcDbArc
 50
158.7377372552
 51
201.2622627448
  0
LINE
  5
24B
100
AcDbEntity
  8
STAP_DN50
  6
CONTINUOUS
 62
         7
100
AcDbLine
 10
386.3956313757
 20
222.0999238583
 30
0.0
 11
373.3683634267
 21
222.0999238583
 31
0.0
  0
ARC
  5
24C
100
AcDbEntity
  8
STAP_DN50
  6
CONTINUOUS
 62
         7
100
AcDbCircle
 10
372.2603598382
 20
163.483073874
 30
0.0
 40
15.167735061
100
AcDbArc
 50
338.7377372552
 51
21.2622627448
  0
ARC
  5
24D
100
AcDbEntity
  8
STAP_DN50
  6
CONTINUOUS
 62
         7
100
AcDbCircle
 10
301.7688737249
 20
182.2625785491
 30
0.0
 40
85.6622612847
100
AcDbArc
 50
351.0822121515
 51
8.9177878485
  0
ARC
  5
24E
100
AcDbEntity
  8
STAP_DN50
  6
CONTINUOUS
 62
         7
100
AcDbCircle
 10
387.5036349641
 20
227.6003134303
 30
0.0
 40
15.167735061
100
AcDbArc
 50
158.7377372552
 51
201.2622627448
  0
LINE
  5
24F
100
AcDbEntity
  8
STAP_DN50
  6
CONTINUOUS
 62
         7
100
AcDbLine
 10
250.9211836992
 20
125.8543775471
 30
0.0
 11
252.4666650212
 21
125.4402670749
 31
0.0
  0
LINE
  5
250
100
AcDbEntity
  8
STAP_DN50
  6
CONTINUOUS
 62
         7
100
AcDbLine
 10
283.5663378592
 20
20.3088119848
 30
0.0
 11
286.4133473553
 21
30.933996074
 31
0.0
  0
LINE
  5
251
100
AcDbEntity
  8
STAP_DN50
  6
CONTINUOUS
 62
         7
100
AcDbLine
 10
284.7229771593
 20
31.3869294029
 30
0.0
 11
287.7641009393
 21
42.7365578618
 31
0.0
  0
LINE
  5
252
100
AcDbEntity
  8
STAP_DN50
  6
CONTINUOUS
 62
         7
100
AcDbLine
 10
336.206316724
 20
117.2735275099
 30
0.0
 11
337.778494912
 21
118.006646239
 31
0.0
  0
SPLINE
  5
253
100
AcDbEntity
  8
STAP_DN50
  6
CONTINUOUS
 62
         7
100
AcDbSpline
210
0.0
220
0.0
230
1.0
 70
         8
 71
         3
 72
        12
 73
         8
 74
         0
 42
0.0
 43
0.0
 40
0.0
 40
0.0
 40
0.0
 40
0.0
 40
0.2500000000000009
 40
0.2500000000000009
 40
0.5000000000000018
 40
0.5000000000000018
 40
0.5004707061587355
 40
0.5004707061587355
 40
0.5004707061587355
 40
0.5004707061587355
 10
246.49221407901604
 20
68.025644665137364
 30
0.0
 10
246.51696577275979
 20
68.22538555972676
 30
0.0
 10
246.53411843916206
 20
68.37571732165631
 30
0.0
 10
246.55699874529736
 20
68.579886836874053
 30
0.0
 10
246.56258764668485
 20
68.632534058205152
 30
0.0
 10
246.56260331031203
 20
68.632679031745127
 30
0.0
 10
246.56260332030823
 20
68.632679123429227
 30
0.0
 10
246.56260331086182
 20
68.632679034347078
 30
0.0
  0
LINE
  5
254
100
AcDbEntity
  8
STAP_DN50
  6
CONTINUOUS
 62
         7
100
AcDbLine
 10
268.6864518135
 20
131.8906213412
 30
0.0
 11
265.637937843
 21
120.5134123155
 31
0.0
  0
ARC
  5
255
100
AcDbEntity
  8
STAP_DN50
  6
CONTINUOUS
 62
         7
100
AcDbCircle
 10
1698.3841507023
 20
115.1940605638
 30
0.0
 40
1432.3460904047
100
AcDbArc
 50
180.5477999213
 51
182.3161726296
  0
ARC
  5
256
100
AcDbEntity
  8
STAP_DN50
  6
CONTINUOUS
 62
         7
100
AcDbCircle
 10
-915.9861830353
 20
815.7102995374
 30
0.0
 40
1432.3386450757
100
AcDbArc
 50
327.683822774
 51
329.4522046751
  0
ARC
  5
257
100
AcDbEntity
  8
STAP_DN50
  6
CONTINUOUS
 62
         7
100
AcDbCircle
 10
250.2162117107
 20
130.0290875167
 30
0.0
 40
13.2662003161
100
AcDbArc
 50
324.8041273259
 51
5.1958726741
  0
LINE
  5
258
100
AcDbEntity
  8
STAP_DN50
  6
CONTINUOUS
 62
         7
100
AcDbLine
 10
295.9408707975
 20
197.0371939168
 30
0.0
 11
295.9408707975
 21
200.5416936521
 31
0.0
  0
LINE
  5
259
100
AcDbEntity
  8
STAP_DN50
  6
CONTINUOUS
 62
         7
100
AcDbLine
 10
348.4192355485
 20
200.5416936521
 30
0.0
 11
351.3849154018
 21
190.5416936521
 31
0.0
  0
LINE
  5
25A
100
AcDbEntity
  8
STAP_DN50
  6
CONTINUOUS
 62
         7
100
AcDbLine
 10
346.4307629261
 20
198.063307485
 30
0.0
 11
345.2623060227
 21
193.1222543019
 31
0.0
  0
LINE
  5
25B
100
AcDbEntity
  8
STAP_DN50
  6
CONTINUOUS
 62
         7
100
AcDbLine
 10
346.4307629261
 20
190.5416936521
 30
0.0
 11
341.4739905918
 21
190.5416936521
 31
0.0
  0
LINE
  5
25C
100
AcDbEntity
  8
STAP_DN50
  6
CONTINUOUS
 62
         7
100
AcDbLine
 10
347.2141006258
 20
193.1222543019
 30
0.0
 11
346.4307629261
 21
190.5416936521
 31
0.0
  0
LINE
  5
25D
100
AcDbEntity
  8
STAP_DN50
  6
CONTINUOUS
 62
         7
100
AcDbLine
 10
345.2623060227
 20
193.1222543019
 30
0.0
 11
347.2141006258
 21
193.1222543019
 31
0.0
  0
LINE
  5
25E
100
AcDbEntity
  8
STAP_DN50
  6
CONTINUOUS
 62
         7
100
AcDbLine
 10
348.227985876
 20
190.5416936521
 30
0.0
 11
346.4307629261
 21
198.063307485
 31
0.0
  0
LINE
  5
25F
100
AcDbEntity
  8
STAP_DN50
  6
CONTINUOUS
 62
         7
100
AcDbLine
 10
351.3849154018
 20
190.5416936521
 30
0.0
 11
348.227985876
 21
190.5416936521
 31
0.0
  0
LINE
  5
260
100
AcDbEntity
  8
STAP_DN50
  6
CONTINUOUS
 62
         7
100
AcDbLine
 10
341.4739905918
 20
190.5416936521
 30
0.0
 11
344.4396704451
 21
200.5416936521
 31
0.0
  0
LINE
  5
261
100
AcDbEntity
  8
STAP_DN50
  6
CONTINUOUS
 62
         7
100
AcDbLine
 10
341.167467144
 20
190.5416936521
 30
0.0
 11
341.167467144
 21
197.780362764
 31
0.0
  0
LINE
  5
262
100
AcDbEntity
  8
STAP_DN50
  6
CONTINUOUS
 62
         7
100
AcDbLine
 10
338.1886879981
 20
197.780362764
 30
0.0
 11
338.1886879981
 21
190.5416936521
 31
0.0
  0
LINE
  5
263
100
AcDbEntity
  8
STAP_DN50
  6
CONTINUOUS
 62
         7
100
AcDbLine
 10
341.167467144
 20
197.780362764
 30
0.0
 11
342.7839198556
 21
197.780362764
 31
0.0
  0
LINE
  5
264
100
AcDbEntity
  8
STAP_DN50
  6
CONTINUOUS
 62
         7
100
AcDbLine
 10
342.7839198556
 20
197.780362764
 30
0.0
 11
343.6065554333
 21
200.5416936522
 31
0.0
  0
LINE
  5
265
100
AcDbEntity
  8
STAP_DN50
  6
CONTINUOUS
 62
         7
100
AcDbLine
 10
343.6065554333
 20
200.5416936521
 30
0.0
 11
336.802782837
 21
200.5416936521
 31
0.0
  0
LINE
  5
266
100
AcDbEntity
  8
STAP_DN50
  6
CONTINUOUS
 62
         7
100
AcDbLine
 10
336.802782837
 20
200.5416936521
 30
0.0
 11
335.9932465519
 21
197.780362764
 31
0.0
  0
LINE
  5
267
100
AcDbEntity
  8
STAP_DN50
  6
CONTINUOUS
 62
         7
100
AcDbLine
 10
335.9932465519
 20
197.780362764
 30
0.0
 11
338.1886879981
 21
197.780362764
 31
0.0
  0
LINE
  5
268
100
AcDbEntity
  8
STAP_DN50
  6
CONTINUOUS
 62
         7
100
AcDbLine
 10
344.4396704451
 20
200.5416936521
 30
0.0
 11
348.4192355485
 21
200.5416936521
 31
0.0
  0
LINE
  5
269
100
AcDbEntity
  8
STAP_DN50
  6
CONTINUOUS
 62
         7
100
AcDbLine
 10
338.1886879981
 20
190.5416936521
 30
0.0
 11
341.167467144
 21
190.5416936521
 31
0.0
  0
LINE
  5
26A
100
AcDbEntity
  8
STAP_DN50
  6
CONTINUOUS
 62
         7
100
AcDbLine
 10
357.7638641743
 20
141.7190613267
 30
0.0
 11
358.1742090095
 21
141.5048175853
 31
0.0
  0
LINE
  5
26B
100
AcDbEntity
  8
STAP_DN50
  6
CONTINUOUS
 62
         7
100
AcDbLine
 10
293.5163075365
 20
200.5416936521
 30
0.0
 11
288.5163075365
 21
195.5416936521
 31
0.0
  0
LINE
  5
26C
100
AcDbEntity
  8
STAP_DN50
  6
CONTINUOUS
 62
         7
100
AcDbLine
 10
288.5163075365
 20
195.5416936521
 30
0.0
 11
293.5163075365
 21
190.5416936521
 31
0.0
  0
LINE
  5
26D
100
AcDbEntity
  8
STAP_DN50
  6
CONTINUOUS
 62
         7
100
AcDbLine
 10
305.607361004
 20
194.0461933875
 30
0.0
 11
305.607361004
 21
197.0371939168
 31
0.0
  0
LINE
  5
26E
100
AcDbEntity
  8
STAP_DN50
  6
CONTINUOUS
 62
         7
100
AcDbLine
 10
305.607361004
 20
197.0371939168
 30
0.0
 11
295.9408707975
 21
197.0371939168
 31
0.0
  0
LINE
  5
26F
100
AcDbEntity
  8
STAP_DN50
  6
CONTINUOUS
 62
         7
100
AcDbLine
 10
295.9408707975
 20
200.5416936521
 30
0.0
 11
293.5163075365
 21
200.5416936521
 31
0.0
  0
LINE
  5
270
100
AcDbEntity
  8
STAP_DN50
  6
CONTINUOUS
 62
         7
100
AcDbLine
 10
293.5163075365
 20
190.5416936521
 30
0.0
 11
295.9408707975
 21
190.5416936521
 31
0.0
  0
LINE
  5
271
100
AcDbEntity
  8
STAP_DN50
  6
CONTINUOUS
 62
         7
100
AcDbLine
 10
295.9408707975
 20
190.5416936521
 30
0.0
 11
295.9408707975
 21
194.0461933875
 31
0.0
  0
LINE
  5
272
100
AcDbEntity
  8
STAP_DN50
  6
CONTINUOUS
 62
         7
100
AcDbLine
 10
295.9408707975
 20
194.0461933875
 30
0.0
 11
305.607361004
 21
194.0461933875
 31
0.0
  0
ARC
  5
273
100
AcDbEntity
  8
STAP_DN50
  6
CONTINUOUS
 62
         7
100
AcDbCircle
 10
349.7276575611
 20
60.0841246706
 30
0.0
 40
102.3853211887
100
AcDbArc
 50
82.2809634832
 51
84.9877180273
  0
LINE
  5
274
100
AcDbEntity
  8
STAP_DN50
  6
CONTINUOUS
 62
         7
100
AcDbLine
 10
353.3738974211
 20
150.434184473
 30
0.0
 11
349.7757167912
 21
163.8627773984
 31
0.0
  0
LINE
  5
275
100
AcDbEntity
  8
STAP_DN50
  6
CONTINUOUS
 62
         7
100
AcDbLine
 10
349.2087807587
 20
163.8675322584
 30
0.0
 11
349.7757167912
 21
163.8627773984
 31
0.0
  0
LINE
  5
276
100
AcDbEntity
  8
STAP_DN50
  6
CONTINUOUS
 62
         7
100
AcDbLine
 10
282.5844636307
 20
169.1124957831
 30
0.0
 11
297.4741455778
 21
169.1124957831
 31
0.0
  0
LINE
  5
277
100
AcDbEntity
  8
STAP_DN50
  6
CONTINUOUS
 62
         7
100
AcDbLine
 10
266.7707823738
 20
167.3459492924
 30
0.0
 11
280.0729899597
 21
167.3459492924
 31
0.0
  0
ARC
  5
278
100
AcDbEntity
  8
STAP_DN50
  6
CONTINUOUS
 62
         7
100
AcDbCircle
 10
103.6172491887
 20
420.8790675225
 30
0.0
 40
308.8942707312
100
AcDbArc
 50
304.8374129579
 51
305.4069587529
  0
ARC
  5
279
100
AcDbEntity
  8
STAP_DN50
  6
CONTINUOUS
 62
         7
100
AcDbCircle
 10
216.5633825962
 20
-368.9810911483
 30
0.0
 40
538.2611036545
100
AcDbArc
 50
81.519518828
 51
84.6593711264
  0
LINE
  5
27A
100
AcDbEntity
  8
STAP_DN50
  6
CONTINUOUS
 62
         7
100
AcDbLine
 10
266.7707823738
 20
167.3459492924
 30
0.0
 11
266.662917637
 21
166.9433926142
 31
0.0
  0
LINE
  5
27B
100
AcDbEntity
  8
STAP_DN50
  6
CONTINUOUS
 62
         7
100
AcDbLine
 10
297.4741455778
 20
169.1124957831
 30
0.0
 11
295.9420806564
 21
163.394751656
 31
0.0
  0
LINE
  5
27C
100
AcDbEntity
  8
STAP_DN50
  6
CONTINUOUS
 62
         7
100
AcDbLine
 10
344.8495863696
 20
147.5987973181
 30
0.0
 11
330.8123643743
 21
154.051287294
 31
0.0
  0
LINE
  5
27D
100
AcDbEntity
  8
STAP_DN50
  6
CONTINUOUS
 62
         7
100
AcDbLine
 10
264.9425006343
 20
48.8515872335
 30
0.0
 11
252.8637153125
 21
52.088088006
 31
0.0
  0
LINE
  5
27E
100
AcDbEntity
  8
STAP_DN50
  6
CONTINUOUS
 62
         7
100
AcDbLine
 10
336.1202321741
 20
117.2965937956
 30
0.0
 11
336.206316724
 21
117.2735275099
 31
0.0
  0
LINE
  5
27F
100
AcDbEntity
  8
STAP_DN50
  6
CONTINUOUS
 62
         7
100
AcDbLine
 10
246.791276127
 20
21.1303064353
 30
0.0
 11
246.2934382457
 21
21.2637016936
 31
0.0
  0
LINE
  5
280
100
AcDbEntity
  8
STAP_DN50
  6
CONTINUOUS
 62
         7
100
AcDbLine
 10
265.5634817319
 20
16.1003091033
 30
0.0
 11
275.3196860739
 21
13.4861420287
 31
0.0
  0
LINE
  5
281
100
AcDbEntity
  8
STAP_DN50
  6
CONTINUOUS
 62
         7
100
AcDbLine
 10
248.5515266562
 20
29.6910023697
 30
0.0
 11
249.0493645376
 21
29.5576071115
 31
0.0
  0
LINE
  5
282
100
AcDbEntity
  8
STAP_DN50
  6
CONTINUOUS
 62
         7
100
AcDbLine
 10
267.8215701424
 20
24.5276097795
 30
0.0
 11
277.5777744844
 21
21.9134427049
 31
0.0
  0
LINE
  5
283
100
AcDbEntity
  8
STAP_DN50
  6
CONTINUOUS
 62
         7
100
AcDbLine
 10
246.7016375608
 20
130.9708148219
 30
0.0
 11
245.6793023327
 21
127.155407808
 31
0.0
  0
LINE
  5
284
100
AcDbEntity
  8
STAP_DN50
  6
CONTINUOUS
 62
         7
100
AcDbLine
 10
247.723972789
 20
134.7862218357
 30
0.0
 11
246.7016375608
 21
130.9708148219
 31
0.0
  0
LINE
  5
285
100
AcDbEntity
  8
STAP_DN50
  6
CONTINUOUS
 62
         7
100
AcDbLine
 10
386.3956313757
 20
233.1007030023
 30
0.0
 11
373.3683634267
 21
233.1007030023
 31
0.0
  0
LINE
  5
286
100
AcDbEntity
  8
STAP_DN50
  6
CONTINUOUS
 62
         7
100
AcDbLine
 10
246.5646201987
 20
68.6321386437
 30
0.0
 11
237.8692708774
 21
70.9620504722
 31
0.0
  0
LINE
  5
287
100
AcDbEntity
  8
STAP_DN50
  6
CONTINUOUS
 62
         7
100
AcDbLine
 10
252.1043183581
 20
124.0879709181
 30
0.0
 11
260.7976507947
 21
121.7585995122
 31
0.0
  0
LINE
  5
288
100
AcDbEntity
  8
STAP_DN50
  6
CONTINUOUS
 62
         7
100
AcDbLine
 10
393.1192019843
 20
126.952335877
 30
0.0
 11
390.9978816408
 21
129.0736562206
 31
0.0
  0
LINE
  5
289
100
AcDbEntity
  8
STAP_DN50
  6
CONTINUOUS
 62
         7
100
AcDbLine
 10
396.3718931778
 20
126.5280718083
 30
0.0
 11
395.2405223279
 21
127.6594426582
 31
0.0
  0
LINE
  5
28A
100
AcDbEntity
  8
STAP_DN50
  6
CONTINUOUS
 62
         7
100
AcDbLine
 10
395.8769184309
 20
128.2958387613
 30
0.0
 11
395.1698116498
 21
129.0029455425
 31
0.0
  0
LINE
  5
28B
100
AcDbEntity
  8
STAP_DN50
  6
CONTINUOUS
 62
         7
100
AcDbLine
 10
397.6446853839
 20
126.5280718083
 30
0.0
 11
396.3718931778
 21
126.5280718083
 31
0.0
  0
LINE
  5
28C
100
AcDbEntity
  8
STAP_DN50
  6
CONTINUOUS
 62
         7
100
AcDbLine
 10
401.5337726805
 20
122.6389845117
 30
0.0
 11
397.6446853839
 21
126.5280718083
 31
0.0
  0
LINE
  5
28D
100
AcDbEntity
  8
STAP_DN50
  6
CONTINUOUS
 62
         7
100
AcDbLine
 10
392.4120952031
 20
130.487869783
 30
0.0
 11
391.3514350314
 21
131.5485299548
 31
0.0
  0
LINE
  5
28E
100
AcDbEntity
  8
STAP_DN50
  6
CONTINUOUS
 62
         7
100
AcDbLine
 10
393.7995122952
 20
133.9966072186
 30
0.0
 11
389.2033182175
 21
138.5928012963
 31
0.0
  0
LINE
  5
28F
100
AcDbEntity
  8
STAP_DN50
  6
CONTINUOUS
 62
         7
100
AcDbLine
 10
369.8200335442
 20
129.1090115597
 30
0.0
 11
375.8218823155
 21
125.2113653944
 31
0.0
  0
LINE
  5
290
100
AcDbEntity
  8
STAP_DN50
  6
CONTINUOUS
 62
         7
100
AcDbLine
 10
385.3056720522
 20
144.5946500677
 30
0.0
 11
374.3455169438
 21
155.554805176
 31
0.0
  0
LINE
  5
291
100
AcDbEntity
  8
STAP_DN50
  6
CONTINUOUS
 62
         7
100
AcDbLine
 10
374.3808722829
 20
155.5901605151
 30
0.0
 11
373.3202121111
 21
156.6508206869
 31
0.0
  0
LINE
  5
292
100
AcDbEntity
  8
STAP_DN50
  6
CONTINUOUS
 62
         7
100
AcDbLine
 10
357.7749183834
 20
141.7139067338
 30
0.0
 11
351.7706100167
 21
144.5137617071
 31
0.0
  0
LINE
  5
293
100
AcDbEntity
  8
STAP_DN50
  6
CONTINUOUS
 62
         7
100
AcDbLine
 10
351.7862662824
 20
144.5090643999
 30
0.0
 11
353.3738974211
 21
150.434184473
 31
0.0
  0
LINE
  5
294
100
AcDbEntity
  8
STAP_DN50
  6
CONTINUOUS
 62
         7
100
AcDbLine
 10
252.3503485438
 20
233.1007030023
 30
0.0
 11
250.8729899597
 21
229.0416936521
 31
0.0
  0
LINE
  5
295
100
AcDbEntity
  8
STAP_DN50
  6
CONTINUOUS
 62
         7
100
AcDbLine
 10
373.3683634267
 20
233.1007030023
 30
0.0
 11
372.0729899597
 21
229.5416936521
 31
0.0
  0
LINE
  5
296
100
AcDbEntity
  8
STAP_DN50
  6
CONTINUOUS
 62
         7
100
AcDbLine
 10
282.5844636307
 20
228.0916936521
 30
0.0
 11
280.0729899597
 21
229.5416936521
 31
0.0
  0
LINE
  5
297
100
AcDbEntity
  8
STAP_DN50
  6
CONTINUOUS
 62
         7
100
AcDbLine
 10
266.6729899597
 20
229.5416936521
 30
0.0
 11
265.3776164928
 21
233.1007030023
 31
0.0
  0
LINE
  5
298
100
AcDbEntity
  8
STAP_DN50
  6
CONTINUOUS
 62
         7
100
AcDbLine
 10
386.3956313757
 20
157.982684302
 30
0.0
 11
387.8729899597
 21
162.0416936521
 31
0.0
  0
LINE
  5
299
100
AcDbEntity
  8
STAP_DN50
  6
CONTINUOUS
 62
         7
100
AcDbLine
 10
355.6156648506
 20
120.1635413674
 30
0.0
 11
353.8478978977
 21
123.2254035459
 31
0.0
  0
LINE
  5
29A
100
AcDbEntity
  8
STAP_DN50
  6
CONTINUOUS
 62
         7
100
AcDbLine
 10
353.8815772484
 20
113.6918383313
 30
0.0
 11
355.6156648506
 21
120.1635413674
 31
0.0
  0
LINE
  5
29B
100
AcDbEntity
  8
STAP_DN50
  6
CONTINUOUS
 62
         7
100
AcDbLine
 10
280.0729899597
 20
229.5416936521
 30
0.0
 11
266.6729899597
 21
229.5416936521
 31
0.0
  0
LINE
  5
29C
100
AcDbEntity
  8
STAP_DN50
  6
CONTINUOUS
 62
         7
100
AcDbLine
 10
363.4650966368
 20
161.5416936521
 30
0.0
 11
372.0729899597
 21
161.5416936521
 31
0.0
  0
LINE
  5
29D
100
AcDbEntity
  8
STAP_DN50
  6
CONTINUOUS
 62
         7
100
AcDbLine
 10
353.8478978977
 20
123.2254035459
 30
0.0
 11
358.4607112454
 21
140.4406573253
 31
0.0
  0
LINE
  5
29E
100
AcDbEntity
  8
STAP_DN50
  6
CONTINUOUS
 62
         7
100
AcDbLine
 10
373.3202121111
 20
156.6508206869
 30
0.0
 11
368.3704646428
 21
156.6508206869
 31
0.0
  0
LINE
  5
29F
100
AcDbEntity
  8
STAP_DN50
  6
CONTINUOUS
 62
         7
100
AcDbLine
 10
358.6729899597
 20
229.5416936521
 30
0.0
 11
356.1615162888
 21
228.0916936521
 31
0.0
  0
LINE
  5
2A0
100
AcDbEntity
  8
STAP_DN50
  6
CONTINUOUS
 62
         7
100
AcDbLine
 10
368.3704646428
 20
156.6508206869
 30
0.0
 11
363.4713643014
 21
161.5499210283
 31
0.0
  0
LINE
  5
2A1
100
AcDbEntity
  8
STAP_DN50
  6
CONTINUOUS
 62
         7
100
AcDbLine
 10
356.1615162888
 20
228.0916936521
 30
0.0
 11
282.5844636307
 21
228.0916936521
 31
0.0
  0
LINE
  5
2A2
100
AcDbEntity
  8
STAP_DN50
  6
CONTINUOUS
 62
         7
100
AcDbLine
 10
254.4595716685
 20
132.8778959373
 30
0.0
 11
252.9140903465
 21
133.2920064095
 31
0.0
  0
LINE
  5
2A3
100
AcDbEntity
  8
STAP_DN50
  6
CONTINUOUS
 62
         7
100
AcDbLine
 10
264.7278055786
 20
136.4261368475
 30
0.0
 11
263.5141211831
 21
131.8966050189
 31
0.0
  0
LINE
  5
2A4
100
AcDbEntity
  8
STAP_DN50
  6
CONTINUOUS
 62
         7
100
AcDbLine
 10
243.5896801211
 20
57.5375786631
 30
0.0
 11
242.8485500168
 21
54.771643459
 31
0.0
  0
LINE
  5
2A5
100
AcDbEntity
  8
STAP_DN50
  6
CONTINUOUS
 62
         7
100
AcDbLine
 10
248.5515266562
 20
29.6910023697
 30
0.0
 11
246.2934382457
 21
21.2637016936
 31
0.0
  0
LINE
  5
2A6
100
AcDbEntity
  8
STAP_DN50
  6
CONTINUOUS
 62
         7
100
AcDbLine
 10
294.5897295601
 20
8.3227494385
 30
0.0
 11
296.8478179707
 21
16.7500501146
 31
0.0
  0
LINE
  5
2A7
100
AcDbEntity
  8
STAP_DN50
  6
CONTINUOUS
 62
         7
100
AcDbLine
 10
264.6800162638
 20
36.7574245888
 30
0.0
 11
261.8330067677
 21
26.1322404996
 31
0.0
  0
ARC
  5
2A8
100
AcDbEntity
  8
STAP_DN50
  6
CONTINUOUS
 62
         7
100
AcDbCircle
 10
295.501630187
 20
108.3185915382
 30
0.0
 40
100.0
100
AcDbArc
 50
240.5224878141
 51
269.4775121859
  0
LINE
  5
2A9
100
AcDbEntity
  8
STAP_DN50
  6
CONTINUOUS
 62
         7
100
AcDbLine
 10
269.4115102398
 20
47.6541197187
 30
0.0
 11
266.3703864598
 21
36.3044912598
 31
0.0
  0
LINE
  5
2AA
100
AcDbEntity
  8
STAP_DN50
  6
CONTINUOUS
 62
         7
100
AcDbLine
 10
263.7328186931
 20
137.8471253848
 30
0.0
 11
264.7278055786
 21
136.4261368475
 31
0.0
  0
LINE
  5
2AB
100
AcDbEntity
  8
STAP_DN50
  6
CONTINUOUS
 62
         7
100
AcDbLine
 10
314.3270611622
 20
35.6190341215
 30
0.0
 11
336.206316724
 21
117.2735275099
 31
0.0
  0
LINE
  5
2AC
100
AcDbEntity
  8
STAP_DN50
  6
CONTINUOUS
 62
         7
100
AcDbLine
 10
260.7976507947
 20
121.7585995122
 30
0.0
 11
246.5591074883
 21
68.6196324672
 31
0.0
  0
LINE
  5
2AD
100
AcDbEntity
  8
STAP_DN50
  6
CONTINUOUS
 62
         7
100
AcDbLine
 10
234.8928518588
 20
59.8539034699
 30
0.0
 11
243.58820118
 21
57.5239916414
 31
0.0
  0
LINE
  5
2AE
100
AcDbEntity
  8
STAP_DN50
  6
CONTINUOUS
 62
         7
100
AcDbLine
 10
263.5158421859
 20
131.9006622184
 30
0.0
 11
254.8219183317
 21
134.2301920942
 31
0.0
  0
LINE
  5
2AF
100
AcDbEntity
  8
STAP_DN50
  6
CONTINUOUS
 62
         7
100
AcDbLine
 10
251.9176370228
 20
129.5731919783
 30
0.0
 11
250.8953017947
 21
125.7577849645
 31
0.0
  0
LINE
  5
2B0
100
AcDbEntity
  8
STAP_DN50
  6
CONTINUOUS
 62
         7
100
AcDbLine
 10
252.939972251
 20
133.3885989921
 30
0.0
 11
251.9176370228
 21
129.5731919783
 31
0.0
  0
LINE
  5
2B1
100
AcDbEntity
  8
STAP_DN50
  6
CONTINUOUS
 62
         7
100
AcDbLine
 10
250.8953017947
 20
125.7577849645
 30
0.0
 11
245.6793023327
 21
127.155407808
 31
0.0
  0
LINE
  5
2B2
100
AcDbEntity
  8
STAP_DN50
  6
CONTINUOUS
 62
         7
100
AcDbLine
 10
251.9176370228
 20
129.5731919783
 30
0.0
 11
246.7016375608
 21
130.9708148219
 31
0.0
  0
LINE
  5
2B3
100
AcDbEntity
  8
STAP_DN50
  6
CONTINUOUS
 62
         7
100
AcDbLine
 10
252.939972251
 20
133.3885989921
 30
0.0
 11
247.723972789
 21
134.7862218357
 31
0.0
  0
LINE
  5
2B4
100
AcDbEntity
  8
STAP_DN50
  6
CONTINUOUS
 62
         7
100
AcDbLine
 10
234.8928518588
 20
59.8539034699
 30
0.0
 11
237.8692708774
 21
70.9620504722
 31
0.0
  0
SPLINE
  5
2B5
100
AcDbEntity
  8
STAP_DN50
  6
CONTINUOUS
 62
         7
100
AcDbSpline
210
0.0
220
0.0
230
1.0
 70
         8
 71
         3
 72
        14
 73
        10
 74
         0
 42
0.0
 43
0.0
 40
0.0
 40
0.0
 40
0.0
 40
0.0
 40
0.25
 40
0.25
 40
0.5
 40
0.5
 40
0.75
 40
0.75
 40
1.0
 40
1.0
 40
1.0
 40
1.0
 10
246.49221407901604
 20
68.025644665137364
 30
0.0
 10
246.43163061357959
 20
67.536749007778695
 30
0.0
 10
246.52559906668529
 20
66.749459775612777
 30
0.0
 10
246.61137143101496
 20
64.887563858376652
 30
0.0
 10
246.58435496528972
 20
63.792539238121535
 30
0.0
 10
246.02897212814884
 20
61.714488986553128
 30
0.0
 10
245.50196700117576
 20
60.745190984166669
 30
0.0
 10
244.49650222666415
 20
59.174997635859178
 30
0.0
 10
244.02102376200952
 20
58.539830934073059
 30
0.0
 10
243.82874263025732
 20
58.085433893860838
 30
0.0
  0
ARC
  5
2B6
100
AcDbEntity
  8
STAP_DN50
  6
CONTINUOUS
 62
         7
100
AcDbCircle
 10
225.1328144669
 20
136.5615312133
 30
0.0
 40
38.6643716837
100
AcDbArc
 50
352.0748077022
 51
353.0765711738
  0
ARC
  5
2B7
100
AcDbEntity
  8
STAP_DN50
  6
CONTINUOUS
 62
         7
100
AcDbCircle
 10
225.2564906054
 20
136.9013161188
 30
0.0
 40
38.6325760703
100
AcDbArc
 50
336.9230177046
 51
337.9256060088
  0
LINE
  5
2B8
100
AcDbEntity
  8
STAP_DN50
  6
CONTINUOUS
 62
         7
100
AcDbLine
 10
254.8219183317
 20
134.2301920942
 30
0.0
 11
252.1043183581
 21
124.0879709181
 31
0.0
  0
SPLINE
  5
2B9
100
AcDbEntity
  8
STAP_DN50
  6
CONTINUOUS
 62
         7
100
AcDbSpline
210
0.0
220
0.0
230
1.0
 70
         8
 71
         3
 72
        12
 73
         8
 74
         0
 42
0.0
 43
0.0
 40
0.5004707061587289
 40
0.5004707061587289
 40
0.5004707061587289
 40
0.5004707061587289
 40
0.6250000000000006
 40
0.6250000000000006
 40
0.7500000000000007
 40
0.7500000000000007
 40
1.0
 40
1.0
 40
1.0
 40
1.0
 10
243.58618430858377
 20
57.52453209323194
 30
0.0
 10
243.58619392799159
 20
57.524553752791157
 30
0.0
 10
243.59135107014106
 20
57.536212808301954
 30
0.0
 10
243.61198813172828
 20
57.583053048795769
 30
0.0
 10
243.62761997876541
 20
57.618579846683645
 30
0.0
 10
243.68962236544542
 20
57.760444305676117
 30
0.0
 10
243.7503049779163
 20
57.900070739711509
 30
0.0
 10
243.82874263025732
 20
58.085433893860838
 30
0.0
  0
LINE
  5
2BA
100
AcDbEntity
  8
STAP_DN50
  6
CONTINUOUS
 62
         7
100
AcDbLine
 10
242.9346345668
 20
54.7485771734
 30
0.0
 11
242.8485500168
 21
54.771643459
 31
0.0
  0
LINE
  5
2BB
100
AcDbEntity
  8
STAP_DN50
  6
CONTINUOUS
 62
         7
100
AcDbLine
 10
247.7098423108
 20
53.4690641147
 30
0.0
 11
242.9346345668
 21
54.7485771734
 31
0.0
  0
LINE
  5
2BC
100
AcDbEntity
  8
STAP_DN50
  6
CONTINUOUS
 62
         7
100
AcDbLine
 10
304.3118958665
 20
38.3025895745
 30
0.0
 11
292.2331105447
 21
41.539090347
 31
0.0
  0
LINE
  5
2BD
100
AcDbEntity
  8
STAP_DN50
  6
CONTINUOUS
 62
         7
100
AcDbLine
 10
252.8637153125
 20
52.088088006
 30
0.0
 11
247.7098423108
 21
53.4690641147
 31
0.0
  0
LINE
  5
2BE
100
AcDbEntity
  8
STAP_DN50
  6
CONTINUOUS
 62
         7
100
AcDbLine
 10
314.2409766123
 20
35.6421004071
 30
0.0
 11
314.3270611622
 21
35.6190341215
 31
0.0
  0
LINE
  5
2BF
100
AcDbEntity
  8
STAP_DN50
  6
CONTINUOUS
 62
         7
100
AcDbLine
 10
314.2409766123
 20
35.6421004071
 30
0.0
 11
309.4657688683
 21
36.9216134658
 31
0.0
  0
LINE
  5
2C0
100
AcDbEntity
  8
STAP_DN50
  6
CONTINUOUS
 62
         7
100
AcDbLine
 10
309.4657688683
 20
36.9216134658
 30
0.0
 11
304.3118958665
 21
38.3025895745
 31
0.0
  0
LINE
  5
2C1
100
AcDbEntity
  8
STAP_DN50
  6
CONTINUOUS
 62
         7
100
AcDbLine
 10
385.3410273913
 20
123.4168019711
 30
0.0
 11
387.4623477348
 21
121.2954816275
 31
0.0
  0
LINE
  5
2C2
100
AcDbEntity
  8
STAP_DN50
  6
CONTINUOUS
 62
         7
100
AcDbLine
 10
386.7552409537
 20
119.174161284
 30
0.0
 11
387.8866118036
 21
118.0427904341
 31
0.0
  0
LINE
  5
2C3
100
AcDbEntity
  8
STAP_DN50
  6
CONTINUOUS
 62
         7
100
AcDbLine
 10
385.4117380694
 20
119.2448719621
 30
0.0
 11
386.1188448506
 21
118.5377651809
 31
0.0
  0
LINE
  5
2C4
100
AcDbEntity
  8
STAP_DN50
  6
CONTINUOUS
 62
         7
100
AcDbLine
 10
387.8866118036
 20
118.0427904341
 30
0.0
 11
387.8866118036
 21
116.7699982279
 31
0.0
  0
LINE
  5
2C5
100
AcDbEntity
  8
STAP_DN50
  6
CONTINUOUS
 62
         7
100
AcDbLine
 10
387.8866118036
 20
116.7699982279
 30
0.0
 11
391.7756991001
 21
112.8809109314
 31
0.0
  0
LINE
  5
2C6
100
AcDbEntity
  8
STAP_DN50
  6
CONTINUOUS
 62
         7
100
AcDbLine
 10
317.5517064783
 20
87.7142354602
 30
0.0
 11
304.3118958665
 21
38.3025895745
 31
0.0
  0
LINE
  5
2C7
100
AcDbEntity
  8
STAP_DN50
  6
CONTINUOUS
 62
         7
100
AcDbLine
 10
266.1035259243
 20
101.4997338917
 30
0.0
 11
252.8637153125
 21
52.088088006
 31
0.0
  0
LINE
  5
2C8
100
AcDbEntity
  8
STAP_DN50
  6
CONTINUOUS
 62
         7
100
AcDbLine
 10
382.8661536571
 20
123.0632485805
 30
0.0
 11
383.9268138289
 21
122.0025884087
 31
0.0
  0
LINE
  5
2C9
100
AcDbEntity
  8
STAP_DN50
  6
CONTINUOUS
 62
         7
100
AcDbLine
 10
375.8218823155
 20
125.2113653944
 30
0.0
 11
380.4180763932
 21
120.6151713166
 31
0.0
  0
LINE
  5
2CA
100
AcDbEntity
  8
STAP_DN50
  6
CONTINUOUS
 62
         7
100
AcDbLine
 10
389.2033182175
 20
138.5928012963
 30
0.0
 11
385.3056720522
 21
144.5946500677
 31
0.0
  0
LINE
  5
2CB
100
AcDbEntity
  8
STAP_DN50
  6
CONTINUOUS
 62
         7
100
AcDbLine
 10
358.8598784358
 20
140.0691666681
 30
0.0
 11
369.8200335442
 21
129.1090115597
 31
0.0
  0
LINE
  5
2CC
100
AcDbEntity
  8
STAP_DN50
  6
CONTINUOUS
 62
         7
100
AcDbLine
 10
358.4356337061
 20
140.4227007196
 30
0.0
 11
358.8245230968
 21
140.033811329
 31
0.0
  0
LINE
  5
2CD
100
AcDbEntity
  8
STAP_DN50
  6
CONTINUOUS
 62
         7
100
AcDbLine
 10
327.4617567963
 20
103.9477699539
 30
0.0
 11
330.5102707668
 21
115.3249789796
 31
0.0
  0
LINE
  5
2CE
100
AcDbEntity
  8
STAP_DN50
  6
CONTINUOUS
 62
         7
100
AcDbLine
 10
327.3963798822
 20
103.8395647805
 30
0.0
 11
327.4617567963
 21
103.9477699539
 31
0.0
  0
LINE
  5
2CF
100
AcDbEntity
  8
STAP_DN50
  6
CONTINUOUS
 62
         7
100
AcDbLine
 10
265.637937843
 20
120.5134123155
 30
0.0
 11
265.6404533247
 21
120.3870154294
 31
0.0
  0
LINE
  5
2D0
100
AcDbEntity
  8
STAP_DN50
  6
CONTINUOUS
 62
         7
100
AcDbLine
 10
292.2331105447
 20
41.539090347
 30
0.0
 11
294.4988575976
 21
49.9949734656
 31
0.0
  0
LINE
  5
2D1
100
AcDbEntity
  8
STAP_DN50
  6
CONTINUOUS
 62
         7
100
AcDbLine
 10
267.2082476872
 20
57.307470352
 30
0.0
 11
264.9425006343
 21
48.8515872335
 31
0.0
  0
LINE
  5
2D2
100
AcDbEntity
  8
STAP_DN50
  6
CONTINUOUS
 62
         7
100
AcDbLine
 10
257.207173562
 20
27.3717287714
 30
0.0
 11
249.0493645376
 21
29.5576071115
 31
0.0
  0
LINE
  5
2D3
100
AcDbEntity
  8
STAP_DN50
  6
CONTINUOUS
 62
         7
100
AcDbLine
 10
265.9381915294
 20
25.0322595579
 30
0.0
 11
257.207173562
 21
27.3717287714
 31
0.0
  0
LINE
  5
2D4
100
AcDbEntity
  8
STAP_DN50
  6
CONTINUOUS
 62
         7
100
AcDbLine
 10
254.5266252591
 20
17.3677863128
 30
0.0
 11
257.207173562
 21
27.3717287714
 31
0.0
  0
LINE
  5
2D5
100
AcDbEntity
  8
STAP_DN50
  6
CONTINUOUS
 62
         7
100
AcDbLine
 10
246.791276127
 20
21.1303064353
 30
0.0
 11
249.0493645376
 21
29.5576071115
 31
0.0
  0
LINE
  5
2D6
100
AcDbEntity
  8
STAP_DN50
  6
CONTINUOUS
 62
         7
100
AcDbLine
 10
288.1921710648
 20
19.069323713
 30
0.0
 11
279.4611530975
 21
21.4087929265
 31
0.0
  0
LINE
  5
2D7
100
AcDbEntity
  8
STAP_DN50
  6
CONTINUOUS
 62
         7
100
AcDbLine
 10
279.4611530975
 20
21.4087929265
 30
0.0
 11
277.5777744844
 21
21.9134427049
 31
0.0
  0
LINE
  5
2D8
100
AcDbEntity
  8
STAP_DN50
  6
CONTINUOUS
 62
         7
100
AcDbLine
 10
263.2576432265
 20
15.0283170993
 30
0.0
 11
265.9381915294
 21
25.0322595579
 31
0.0
  0
ELLIPSE
  5
2D9
100
AcDbEntity
  8
STAP_DN50
  6
CONTINUOUS
 62
         7
100
AcDbEllipse
 10
285.6865682369
 20
110.948529464
 30
0.0
 11
-25.740779969080528
 21
-96.065898671491453
 31
0.0
210
0.0
220
0.0
230
1.0
 40
0.2249510543
 41
0.1417777617077835
 42
0.2304913038375988
  0
LINE
  5
2DA
100
AcDbEntity
  8
STAP_DN50
  6
CONTINUOUS
 62
         7
100
AcDbLine
 10
263.2576432265
 20
15.0283170993
 30
0.0
 11
254.5266252591
 21
17.3677863128
 31
0.0
  0
ELLIPSE
  5
2DB
100
AcDbEntity
  8
STAP_DN50
  6
CONTINUOUS
 62
         7
100
AcDbEllipse
 10
293.2356445902
 20
108.9257605528
 30
0.0
 11
-25.740779981585742
 21
-96.065898669348357
 31
0.0
210
0.0
220
0.0
230
1.0
 40
0.9743700648
 41
6.0526940034659038
 42
6.1414075455950927
  0
LINE
  5
2DC
100
AcDbEntity
  8
STAP_DN50
  6
CONTINUOUS
 62
         7
100
AcDbLine
 10
267.8215701424
 20
24.5276097795
 30
0.0
 11
265.5634817319
 21
16.1003091033
 31
0.0
  0
LINE
  5
2DD
100
AcDbEntity
  8
STAP_DN50
  6
CONTINUOUS
 62
         7
100
AcDbLine
 10
296.3499800893
 20
16.8834453729
 30
0.0
 11
294.0918916787
 21
8.4561446967
 31
0.0
  0
LINE
  5
2DE
100
AcDbEntity
  8
STAP_DN50
  6
CONTINUOUS
 62
         7
100
AcDbLine
 10
285.5116227619
 20
9.0653812544
 30
0.0
 11
288.1921710648
 21
19.069323713
 31
0.0
  0
LINE
  5
2DF
100
AcDbEntity
  8
STAP_DN50
  6
CONTINUOUS
 62
         7
100
AcDbLine
 10
276.7806047946
 20
11.4048504679
 30
0.0
 11
279.4611530975
 21
21.4087929265
 31
0.0
  0
ELLIPSE
  5
2E0
100
AcDbEntity
  8
STAP_DN50
  6
CONTINUOUS
 62
         7
100
AcDbEllipse
 10
297.7676157855
 20
107.71142253
 30
0.0
 11
-25.740779959735498
 21
-96.065898674267913
 31
0.0
210
0.0
220
0.0
230
1.0
 40
0.9743700648
 41
0.1417777616112451
 42
0.2304913037407808
  0
LINE
  5
2E1
100
AcDbEntity
  8
STAP_DN50
  6
CONTINUOUS
 62
         7
100
AcDbLine
 10
285.5116227619
 20
9.0653812544
 30
0.0
 11
276.7806047946
 21
11.4048504679
 31
0.0
  0
ELLIPSE
  5
2E2
100
AcDbEntity
  8
STAP_DN50
  6
CONTINUOUS
 62
         7
100
AcDbEllipse
 10
305.3166921381
 20
105.6886536168
 30
0.0
 11
-25.740779969129807
 21
-96.065898670917917
 31
0.0
210
0.0
220
0.0
230
1.0
 40
0.2249510543
 41
6.0526940033412959
 42
6.1414075454713615
  0
LINE
  5
2E3
100
AcDbEntity
  8
STAP_DN50
  6
CONTINUOUS
 62
         7
100
AcDbLine
 10
275.3196860739
 20
13.4861420287
 30
0.0
 11
277.5777744844
 21
21.9134427049
 31
0.0
  0
LINE
  5
2E4
100
AcDbEntity
  8
STAP_DN50
  6
CONTINUOUS
 62
         7
100
AcDbLine
 10
250.8729899597
 20
162.0416936521
 30
0.0
 11
252.3503485438
 21
157.982684302
 31
0.0
  0
LINE
  5
2E5
100
AcDbEntity
  8
STAP_DN50
  6
CONTINUOUS
 62
         7
100
AcDbLine
 10
264.9425006343
 20
48.8515872335
 30
0.0
 11
292.2331105447
 21
41.539090347
 31
0.0
  0
LINE
  5
2E6
100
AcDbEntity
  8
STAP_DN50
  6
CONTINUOUS
 62
         7
100
AcDbLine
 10
267.2082476872
 20
57.307470352
 30
0.0
 11
294.4988575976
 21
49.9949734656
 31
0.0
  0
LINE
  5
2E7
100
AcDbEntity
  8
STAP_DN50
  6
CONTINUOUS
 62
         7
100
AcDbLine
 10
265.637937843
 20
120.5134123155
 30
0.0
 11
327.4617567963
 21
103.9477699539
 31
0.0
  0
LINE
  5
2E8
100
AcDbEntity
  8
STAP_DN50
  6
CONTINUOUS
 62
         7
100
AcDbLine
 10
372.0729899597
 20
161.5416936521
 30
0.0
 11
373.3683634267
 21
157.982684302
 31
0.0
  0
LINE
  5
2E9
100
AcDbEntity
  8
STAP_DN50
  6
CONTINUOUS
 62
         7
100
AcDbLine
 10
268.6864518135
 20
131.8906213412
 30
0.0
 11
330.5102707668
 21
115.3249789796
 31
0.0
  0
LINE
  5
2EA
100
AcDbEntity
  8
STAP_DN50
  6
CONTINUOUS
 62
         7
100
AcDbLine
 10
296.3499800893
 20
16.8834453729
 30
0.0
 11
296.8478179707
 21
16.7500501146
 31
0.0
  0
LINE
  5
2EB
100
AcDbEntity
  8
STAP_DN50
  6
CONTINUOUS
 62
         7
100
AcDbLine
 10
288.1921710648
 20
19.069323713
 30
0.0
 11
296.3499800893
 21
16.8834453729
 31
0.0
  0
LINE
  5
2EC
100
AcDbEntity
  8
STAP_DN50
  6
CONTINUOUS
 62
         7
100
AcDbLine
 10
286.4133473553
 20
30.933996074
 30
0.0
 11
264.6800162638
 21
36.7574245888
 31
0.0
  0
LINE
  5
2ED
100
AcDbEntity
  8
STAP_DN50
  6
CONTINUOUS
 62
         7
100
AcDbLine
 10
265.9381915294
 20
25.0322595579
 30
0.0
 11
267.8215701424
 21
24.5276097795
 31
0.0
  0
LINE
  5
2EE
100
AcDbEntity
  8
STAP_DN50
  6
CONTINUOUS
 62
         7
100
AcDbLine
 10
294.0918916787
 20
8.4561446967
 30
0.0
 11
294.5897295601
 21
8.3227494385
 31
0.0
  0
LINE
  5
2EF
100
AcDbEntity
  8
STAP_DN50
  6
CONTINUOUS
 62
         7
100
AcDbLine
 10
265.6404533247
 20
120.3870154294
 30
0.0
 11
266.1035259243
 21
101.4997338917
 31
0.0
  0
LINE
  5
2F0
100
AcDbEntity
  8
STAP_DN50
  6
CONTINUOUS
 62
         7
100
AcDbLine
 10
317.5517064783
 20
87.7142354602
 30
0.0
 11
327.3963798822
 21
103.8395647805
 31
0.0
  0
LINE
  5
2F1
100
AcDbEntity
  8
STAP_DN50
  6
CONTINUOUS
 62
         7
100
AcDbLine
 10
264.8138901286
 20
136.4030705619
 30
0.0
 11
264.7278055786
 21
136.4261368475
 31
0.0
  0
ARC
  5
2F2
100
AcDbEntity
  8
STAP_DN50
  6
CONTINUOUS
 62
         7
100
AcDbCircle
 10
240.6235080062
 20
111.725072541
 30
0.0
 40
34.5568831573
100
AcDbArc
 50
35.7003743261
 51
45.5716867588
  0
ARC
  5
2F3
100
AcDbEntity
  8
STAP_DN50
  6
CONTINUOUS
 62
         7
100
AcDbCircle
 10
345.5575498217
 20
81.4769939395
 30
0.0
 40
37.0419586177
100
AcDbArc
 50
104.7601775034
 51
113.9677614117
  0
ENDBLK
  5
2F4
100
AcDbEntity
  8
STAP_DN50
  6
CONTINUOUS
 62
         7
100
AcDbBlockEnd
  0
BLOCK
  5
37B
100
AcDbEntity
  8
0
 62
         1
 48
0.0
100
AcDbBlockBegin
  2
SE6
 70
         0
 10
0.0
 20
0.0
 30
0.0
  3
SE6
  1

  0
ENDBLK
  5
37C
100
AcDbEntity
  8
0
 62
         1
 48
0.0
100
AcDbBlockEnd
  0
BLOCK
  5
2F7
100
AcDbEntity
  8
0
 62
         1
 48
0.0
100
AcDbBlockBegin
  2
SE7
 70
         0
 10
0.0
 20
0.0
 30
0.0
  3
SE7
  1

  0
ELLIPSE
  5
2F8
100
AcDbEntity
  8
STAP_DN50
  6
CONTINUOUS
 62
         7
100
AcDbEllipse
 10
307.0135034157
 20
326.943195232
 30
0.0
 11
-0.0000000000000103
 21
-55.0
 31
0.0
210
0.0
220
0.0
230
1.0
 40
0.2588190451
 41
0.0000000000000007
 42
1.445010343633091
  0
ELLIPSE
  5
2F9
100
AcDbEntity
  8
STAP_DN50
  6
CONTINUOUS
 62
         7
100
AcDbEllipse
 10
307.0135034157
 20
326.943195232
 30
0.0
 11
-0.0000000000000103
 21
-55.0
 31
0.0
210
0.0
220
0.0
230
1.0
 40
0.2588190451
 41
1.6965823099567003
 42
3.4128564073158194
  0
ELLIPSE
  5
2FA
100
AcDbEntity
  8
STAP_DN50
  6
CONTINUOUS
 62
         7
100
AcDbEllipse
 10
307.0135034157
 20
326.943195232
 30
0.0
 11
-0.0000000000000103
 21
-55.0
 31
0.0
210
0.0
220
0.0
230
1.0
 40
0.2588190451
 41
6.0119215534535675
 42
6.2831853071795862
  0
ELLIPSE
  5
2FB
100
AcDbEntity
  8
STAP_DN50
  6
CONTINUOUS
 62
         7
100
AcDbEllipse
 10
313.4852064518
 20
326.943195232
 30
0.0
 11
-0.0000000000000172
 21
-55.0
 31
0.0
210
0.0
220
0.0
230
1.0
 40
0.2588190451
 41
0.0000000000000012
 42
1.5001161592015129
  0
ELLIPSE
  5
2FC
100
AcDbEntity
  8
STAP_DN50
  6
CONTINUOUS
 62
         7
100
AcDbEllipse
 10
313.4852064518
 20
326.943195232
 30
0.0
 11
-0.0000000000000172
 21
-55.0
 31
0.0
210
0.0
220
0.0
230
1.0
 40
0.2588190451
 41
1.6414764943882785
 42
3.141592653589794
  0
ELLIPSE
  5
2FD
100
AcDbEntity
  8
STAP_DN50
  6
CONTINUOUS
 62
         7
100
AcDbEllipse
 10
281.5966311467
 20
326.943195232
 30
0.0
 11
-0.0000000000000014
 21
-23.499999999999975
 31
0.0
210
0.0
220
0.0
230
1.0
 40
0.2588190451
 41
2.1827504824831818
 42
3.1415926535897931
  0
ELLIPSE
  5
2FE
100
AcDbEntity
  8
STAP_DN50
  6
CONTINUOUS
 62
         7
100
AcDbEllipse
 10
281.5966311467
 20
326.943195232
 30
0.0
 11
-0.0000000000000055
 21
23.500000000000025
 31
0.0
210
0.0
220
0.0
230
1.0
 40
0.2588190451
 41
3.1415926535897931
 42
4.3589593880699828
  0
ELLIPSE
  5
2FF
100
AcDbEntity
  8
STAP_DN50
  6
CONTINUOUS
 62
         7
100
AcDbEllipse
 10
304.5986888499
 20
326.943195232
 30
0.0
 11
-0.0000000000000032
 21
-52.499999999999979
 31
0.0
210
0.0
220
0.0
230
1.0
 40
0.2588190451
 41
0.0000000000000002
 42
1.4245178346070937
  0
ELLIPSE
  5
300
100
AcDbEntity
  8
STAP_DN50
  6
CONTINUOUS
 62
         7
100
AcDbEllipse
 10
304.5986888499
 20
326.943195232
 30
0.0
 11
-0.0000000000000032
 21
-52.499999999999979
 31
0.0
210
0.0
220
0.0
230
1.0
 40
0.2588190451
 41
1.7170748189826996
 42
3.1415926535897931
  0
ELLIPSE
  5
301
100
AcDbEntity
  8
STAP_DN50
  6
CONTINUOUS
 62
         7
100
AcDbEllipse
 10
286.5358758983
 20
326.943195232
 30
0.0
 11
-0.000000000000031
 21
-52.500000000000085
 31
0.0
210
0.0
220
0.0
230
1.0
 40
0.2588190451
 41
1.7809103621277942
 42
4.2482880107344307
  0
CIRCLE
  5
302
100
AcDbEntity
  8
STAP_DN50
  6
CONTINUOUS
 62
         7
100
AcDbCircle
 10
245.8703986116
 20
326.943195232
 30
0.0
 40
33.5
  0
LINE
  5
303
100
AcDbEntity
  8
STAP_DN50
  6
CONTINUOUS
 62
         7
100
AcDbLine
 10
245.8703986116
 20
364.5022045821
 30
0.0
 11
219.3121684054
 21
353.5014254381
 31
0.0
  0
LINE
  5
304
100
AcDbEntity
  8
STAP_DN50
  6
CONTINUOUS
 62
         7
100
AcDbLine
 10
219.3121684054
 20
353.5014254381
 30
0.0
 11
208.3113892614
 21
326.943195232
 31
0.0
  0
LINE
  5
305
100
AcDbEntity
  8
STAP_DN50
  6
CONTINUOUS
 62
         7
100
AcDbLine
 10
208.3113892614
 20
326.943195232
 30
0.0
 11
219.3121684054
 21
300.3849650258
 31
0.0
  0
LINE
  5
306
100
AcDbEntity
  8
STAP_DN50
  6
CONTINUOUS
 62
         7
100
AcDbLine
 10
219.3121684054
 20
300.3849650258
 30
0.0
 11
245.8703986116
 21
289.3841858818
 31
0.0
  0
LINE
  5
307
100
AcDbEntity
  8
STAP_DN50
  6
CONTINUOUS
 62
         7
100
AcDbLine
 10
302.7443380726
 20
274.443195232
 30
0.0
 11
303.199233939
 21
273.9543778119
 31
0.0
  0
LINE
  5
308
100
AcDbEntity
  8
STAP_DN50
  6
CONTINUOUS
 62
         7
100
AcDbLine
 10
307.0135034157
 20
271.943195232
 30
0.0
 11
313.4852064518
 21
271.943195232
 31
0.0
  0
ELLIPSE
  5
309
100
AcDbEntity
  8
STAP_DN50
  6
CONTINUOUS
 62
         7
100
AcDbEllipse
 10
292.5394461699
 20
326.943195232
 30
0.0
 11
0.0000000000000007
 21
11.000000000006352
 31
0.0
210
0.0
220
0.0
230
1.0
 40
0.7071067812
 41
0.0000000000000002
 42
3.1415926535897931
  0
ELLIPSE
  5
30A
100
AcDbEntity
  8
STAP_DN50
  6
CONTINUOUS
 62
         7
100
AcDbEllipse
 10
293.6001063417
 20
326.943195232
 30
0.0
 11
0.0000000000000076
 21
11.000000000006358
 31
0.0
210
0.0
220
0.0
230
1.0
 40
0.7071067812
 41
0.000000000000001
 42
3.2369750655164506
  0
ELLIPSE
  5
30B
100
AcDbEntity
  8
STAP_DN50
  6
CONTINUOUS
 62
         7
100
AcDbEllipse
 10
293.6001063417
 20
326.943195232
 30
0.0
 11
0.0000000000000076
 21
11.000000000006358
 31
0.0
210
0.0
220
0.0
230
1.0
 40
0.7071067812
 41
6.1878028952529283
 42
6.2831853071795862
  0
ELLIPSE
  5
30C
100
AcDbEntity
  8
STAP_DN50
  6
CONTINUOUS
 62
         7
100
AcDbEllipse
 10
293.6001063417
 20
326.943195232
 30
0.0
 11
0.0000000000000007
 21
10.949999999997916
 31
0.0
210
0.0
220
0.0
230
1.0
 40
0.7071067812
 41
0.0
 42
3.1415926535897931
  0
ELLIPSE
  5
30D
100
AcDbEntity
  8
STAP_DN50
  6
CONTINUOUS
 62
         7
100
AcDbEllipse
 10
304.5602614501
 20
326.943195232
 30
0.0
 11
0.0000000000000076
 21
10.9499999999979
 31
0.0
210
0.0
220
0.0
230
1.0
 40
0.7071067812
 41
0.0
 42
3.3557832206995526
  0
ELLIPSE
  5
30E
100
AcDbEntity
  8
STAP_DN50
  6
CONTINUOUS
 62
         7
100
AcDbEllipse
 10
304.5602614501
 20
326.943195232
 30
0.0
 11
0.0000000000000076
 21
10.9499999999979
 31
0.0
210
0.0
220
0.0
230
1.0
 40
0.7071067812
 41
6.0689947400698276
 42
6.2831853071795862
  0
ELLIPSE
  5
30F
100
AcDbEntity
  8
STAP_DN50
  6
CONTINUOUS
 62
         7
100
AcDbEllipse
 10
315.1668631679
 20
326.943195232
 30
0.0
 11
0.0000000000000004
 21
6.0000000000071347
 31
0.0
210
0.0
220
0.0
230
1.0
 40
0.7071067812
 41
0.0725636637057485
 42
3.0690289898840448
  0
ELLIPSE
  5
310
100
AcDbEntity
  8
STAP_DN50
  6
CONTINUOUS
 62
         7
100
AcDbEllipse
 10
315.1668631679
 20
326.943195232
 30
0.0
 11
-0.0000000000000002
 21
-3.9999999999932778
 31
0.0
210
0.0
220
0.0
230
1.0
 40
0.7071067812
 41
4.37038160666176
 42
5.0543963541076202
  0
ELLIPSE
  5
311
100
AcDbEntity
  8
STAP_DN50
  6
CONTINUOUS
 62
         7
100
AcDbEllipse
 10
309.5100089184
 20
326.943195232
 30
0.0
 11
0.0000000000000006
 21
9.4621040683066813
 31
0.0
210
0.0
220
0.0
230
1.0
 40
0.7071067812
 41
0.0
 42
3.1415926535897931
  0
ELLIPSE
  5
312
100
AcDbEntity
  8
STAP_DN50
  6
CONTINUOUS
 62
         7
100
AcDbEllipse
 10
314.1062029961
 20
326.943195232
 30
0.0
 11
0.0000000000000142
 21
6.0000000000037348
 31
0.0
210
0.0
220
0.0
230
1.0
 40
0.7071067812
 41
0.0000000000000034
 42
3.1415926535897931
  0
ELLIPSE
  5
313
100
AcDbEntity
  8
STAP_DN50
  6
CONTINUOUS
 62
         7
100
AcDbEllipse
 10
314.1062029961
 20
326.943195232
 30
0.0
 11
0.0000000000000145
 21
9.4621040683213202
 31
0.0
210
0.0
220
0.0
230
1.0
 40
0.7071067812
 41
0.0
 42
3.9077918023542821
  0
ELLIPSE
  5
314
100
AcDbEntity
  8
STAP_DN50
  6
CONTINUOUS
 62
         7
100
AcDbEllipse
 10
314.1062029961
 20
326.943195232
 30
0.0
 11
0.0000000000000145
 21
9.4621040683213202
 31
0.0
210
0.0
220
0.0
230
1.0
 40
0.7071067812
 41
5.5169861584150999
 42
6.2831853071795862
  0
ELLIPSE
  5
315
100
AcDbEntity
  8
STAP_DN50
  6
CONTINUOUS
 62
         7
100
AcDbEllipse
 10
317.9952902926
 20
326.943195232
 30
0.0
 11
-0.0000000000000004
 21
-6.8999999999820156
 31
0.0
210
0.0
220
0.0
230
1.0
 40
0.7071067812
 41
0.0
 42
0.1821652506541954
  0
ELLIPSE
  5
316
100
AcDbEntity
  8
STAP_DN50
  6
CONTINUOUS
 62
         7
100
AcDbEllipse
 10
317.9952902926
 20
326.943195232
 30
0.0
 11
-0.0000000000000004
 21
-6.8999999999820156
 31
0.0
210
0.0
220
0.0
230
1.0
 40
0.7071067812
 41
2.959427402935598
 42
6.2831853071795862
  0
ELLIPSE
  5
317
100
AcDbEntity
  8
STAP_DN50
  6
CONTINUOUS
 62
         7
100
AcDbEllipse
 10
317.2881835114
 20
326.943195232
 30
0.0
 11
-0.0000000000000004
 21
-6.8999999999797588
 31
0.0
210
0.0
220
0.0
230
1.0
 40
0.7071067812
 41
3.1415926535897931
 42
6.2831853071795862
  0
LINE
  5
318
100
AcDbEntity
  8
STAP_DN50
  6
CONTINUOUS
 62
         7
100
AcDbLine
 10
286.5358758983
 20
274.443195232
 30
0.0
 11
304.5986888499
 21
274.443195232
 31
0.0
  0
ELLIPSE
  5
319
100
AcDbEntity
  8
STAP_DN50
  6
CONTINUOUS
 62
         7
100
AcDbEllipse
 10
317.9952902926
 20
326.943195232
 30
0.0
 11
-0.0000000000000004
 21
-5.999999999996402
 31
0.0
210
0.0
220
0.0
230
1.0
 40
0.7071067812
 41
3.3212237996798666
 42
6.1035541610895123
  0
ELLIPSE
  5
31A
100
AcDbEntity
  8
STAP_DN50
  6
CONTINUOUS
 62
         7
100
AcDbEllipse
 10
323.6521445422
 20
326.943195232
 30
0.0
 11
-0.0000000000000004
 21
-6.900000000000035
 31
0.0
210
0.0
220
0.0
230
1.0
 40
0.7071067812
 41
0.0
 42
6.2831853071795862
  0
ELLIPSE
  5
31B
100
AcDbEntity
  8
STAP_DN50
  6
CONTINUOUS
 62
         7
100
AcDbEllipse
 10
319.7630572456
 20
326.943195232
 30
0.0
 11
0.0000000000000004
 21
6.899999999987644
 31
0.0
210
0.0
220
0.0
230
1.0
 40
0.7071067812
 41
0.0
 42
3.1415926535897931
  0
LINE
  5
31C
100
AcDbEntity
  8
STAP_DN50
  6
CONTINUOUS
 62
         7
100
AcDbLine
 10
288.2075867721
 20
336.0793863593
 30
0.0
 11
288.2075867721
 21
340.443195232
 31
0.0
  0
ELLIPSE
  5
31D
100
AcDbEntity
  8
STAP_DN50
  6
CONTINUOUS
 62
         7
100
AcDbEllipse
 10
286.5358758983
 20
326.943195232
 30
0.0
 11
-0.0000000000000107
 21
52.500000000000021
 31
0.0
210
0.0
220
0.0
230
1.0
 40
0.2588190451
 41
2.0348972964451546
 42
4.5022749450517932
  0
LINE
  5
31E
100
AcDbEntity
  8
STAP_DN50
  6
CONTINUOUS
 62
         7
100
AcDbLine
 10
283.4294079617
 20
326.943195232
 30
0.0
 11
272.4286288177
 21
353.5014254381
 31
0.0
  0
LINE
  5
31F
100
AcDbEntity
  8
STAP_DN50
  6
CONTINUOUS
 62
         7
100
AcDbLine
 10
272.4286288177
 20
353.5014254381
 30
0.0
 11
245.8703986116
 21
364.5022045821
 31
0.0
  0
LINE
  5
320
100
AcDbEntity
  8
STAP_DN50
  6
CONTINUOUS
 62
         7
100
AcDbLine
 10
245.8703986116
 20
289.3841858818
 30
0.0
 11
272.4286288177
 21
300.3849650258
 31
0.0
  0
LINE
  5
321
100
AcDbEntity
  8
STAP_DN50
  6
CONTINUOUS
 62
         7
100
AcDbLine
 10
272.4286288177
 20
300.3849650258
 30
0.0
 11
283.4294079617
 21
326.943195232
 31
0.0
  0
LINE
  5
322
100
AcDbEntity
  8
STAP_DN50
  6
CONTINUOUS
 62
         7
100
AcDbLine
 10
418.1915660215
 20
338.193195232
 30
0.0
 11
407.5663819324
 21
338.193195232
 31
0.0
  0
LINE
  5
323
100
AcDbEntity
  8
STAP_DN50
  6
CONTINUOUS
 62
         7
100
AcDbLine
 10
407.5663819324
 20
336.443195232
 30
0.0
 11
399.7872604642
 21
336.443195232
 31
0.0
  0
LINE
  5
324
100
AcDbEntity
  8
STAP_DN50
  6
CONTINUOUS
 62
         7
100
AcDbLine
 10
337.4643223098
 20
334.9960658875
 30
0.0
 11
337.5725274832
 21
335.0023705427
 31
0.0
  0
LINE
  5
325
100
AcDbEntity
  8
STAP_DN50
  6
CONTINUOUS
 62
         7
100
AcDbLine
 10
327.5668447034
 20
334.9960658875
 30
0.0
 11
337.4643223098
 21
334.9960658875
 31
0.0
  0
ELLIPSE
  5
326
100
AcDbEntity
  8
STAP_DN50
  6
CONTINUOUS
 62
         7
100
AcDbEllipse
 10
329.181501129
 20
326.943195232
 30
0.0
 11
0.0000000000000119
 21
-32.999999999999602
 31
0.0
210
0.0
220
0.0
230
1.0
 40
0.2588190451
 41
1.8173119244493963
 42
3.1415926535897918
  0
ARC
  5
327
100
AcDbEntity
  8
STAP_DN50
  6
CONTINUOUS
 62
         7
100
AcDbCircle
 10
-32.5377316577
 20
6817.1935603879
 30
0.0
 40
6492.7485878962
100
AcDbArc
 50
273.2678389933
 51
273.4103802827
  0
LINE
  5
328
100
AcDbEntity
  8
STAP_DN50
  6
CONTINUOUS
 62
         7
100
AcDbLine
 10
280.2075867721
 20
340.443195232
 30
0.0
 11
288.2075867721
 21
340.443195232
 31
0.0
  0
SPLINE
  5
329
100
AcDbEntity
  8
STAP_DN50
  6
CONTINUOUS
 62
         7
100
AcDbSpline
210
0.0
220
0.0
230
1.0
 70
         8
 71
         3
 72
        12
 73
         8
 74
         0
 42
0.0
 43
0.0
 40
0.5957179306669231
 40
0.5957179306669231
 40
0.5957179306669231
 40
0.5957179306669231
 40
0.6249999999999989
 40
0.6249999999999989
 40
0.7499999999999993
 40
0.7499999999999993
 40
0.8678628853021033
 40
0.8678628853021033
 40
0.8678628853021033
 40
0.8678628853021033
 10
280.90906071760725
 20
333.00685219882422
 30
0.0
 10
281.04987614300381
 20
332.97354137683902
 30
0.0
 10
281.21032708317142
 20
332.95532915648204
 30
0.0
 10
282.145565669897
 20
332.95833873375238
 30
0.0
 10
283.18001965982245
 20
333.31495094737443
 30
0.0
 10
285.15787266242165
 20
334.00326172524382
 30
0.0
 10
286.12549787433176
 20
334.31230520525787
 30
0.0
 10
286.87202739587946
 20
334.40942684464096
 30
0.0
  0
ELLIPSE
  5
32A
100
AcDbEntity
  8
STAP_DN50
  6
CONTINUOUS
 62
         7
100
AcDbEllipse
 10
396.2167534735
 20
326.943195232
 30
0.0
 11
-0.0000000000000288
 21
-16.749999999989036
 31
0.0
210
0.0
220
0.0
230
1.0
 40
0.2588190451
 41
2.1380447253242481
 42
3.1415926535897931
  0
ELLIPSE
  5
32B
100
AcDbEntity
  8
STAP_DN50
  6
CONTINUOUS
 62
         7
100
AcDbEllipse
 10
387.7608703549
 20
326.943195232
 30
0.0
 11
-0.000000000000001
 21
-16.749999999989033
 31
0.0
210
0.0
220
0.0
230
1.0
 40
0.2588190451
 41
2.1380447253242476
 42
3.0697340576298711
  0
ELLIPSE
  5
32C
100
AcDbEntity
  8
STAP_DN50
  6
CONTINUOUS
 62
         7
100
AcDbEllipse
 10
426.6188666977
 20
326.943195232
 30
0.0
 11
0.0000000000003593
 21
-24.999999999996064
 31
0.0
210
0.0
220
0.0
230
1.0
 40
0.2588190451
 41
2.9381855910967998
 42
3.1415926535897905
  0
ELLIPSE
  5
32D
100
AcDbEntity
  8
STAP_DN50
  6
CONTINUOUS
 62
         7
100
AcDbEllipse
 10
426.6188666977
 20
326.943195232
 30
0.0
 11
0.0000000000000015
 21
24.999999999991289
 31
0.0
210
0.0
220
0.0
230
1.0
 40
0.2588190451
 41
3.141592653589802
 42
3.3449997160827913
  0
ELLIPSE
  5
32E
100
AcDbEntity
  8
STAP_DN50
  6
CONTINUOUS
 62
         7
100
AcDbEllipse
 10
418.1915660215
 20
326.943195232
 30
0.0
 11
0.0000000000003624
 21
24.999999999997307
 31
0.0
210
0.0
220
0.0
230
1.0
 40
0.2588190451
 41
2.9381855910968024
 42
3.3449997160827909
  0
ELLIPSE
  5
32F
100
AcDbEntity
  8
STAP_DN50
  6
CONTINUOUS
 62
         7
100
AcDbEllipse
 10
418.1915660215
 20
326.943195232
 30
0.0
 11
0.0000000000003593
 21
-24.999999999995975
 31
0.0
210
0.0
220
0.0
230
1.0
 40
0.2588190451
 41
2.938185591096806
 42
3.3449997160827727
  0
LINE
  5
330
100
AcDbEntity
  8
STAP_DN50
  6
CONTINUOUS
 62
         7
100
AcDbLine
 10
317.9952902926
 20
333.843195232
 30
0.0
 11
317.2881835114
 21
333.843195232
 31
0.0
  0
LINE
  5
331
100
AcDbEntity
  8
STAP_DN50
  6
CONTINUOUS
 62
         7
100
AcDbLine
 10
323.6521445422
 20
333.843195232
 30
0.0
 11
319.7630572456
 21
333.843195232
 31
0.0
  0
LINE
  5
332
100
AcDbEntity
  8
STAP_DN50
  6
CONTINUOUS
 62
         7
100
AcDbLine
 10
293.6001063417
 20
337.943195232
 30
0.0
 11
292.5394461699
 21
337.943195232
 31
0.0
  0
LINE
  5
333
100
AcDbEntity
  8
STAP_DN50
  6
CONTINUOUS
 62
         7
100
AcDbLine
 10
304.5602614501
 20
337.893195232
 30
0.0
 11
293.6001063417
 21
337.893195232
 31
0.0
  0
LINE
  5
334
100
AcDbEntity
  8
STAP_DN50
  6
CONTINUOUS
 62
         7
100
AcDbLine
 10
306.2060484883
 20
316.24341626
 30
0.0
 11
310.2293053255
 21
317.4810911637
 31
0.0
  0
LINE
  5
335
100
AcDbEntity
  8
STAP_DN50
  6
CONTINUOUS
 62
         7
100
AcDbLine
 10
314.8788267508
 20
332.943195232
 30
0.0
 11
314.1062029961
 21
332.943195232
 31
0.0
  0
LINE
  5
336
100
AcDbEntity
  8
STAP_DN50
  6
CONTINUOUS
 62
         7
100
AcDbLine
 10
314.1062029961
 20
336.4052993003
 30
0.0
 11
309.5100089184
 21
336.4052993003
 31
0.0
  0
LINE
  5
337
100
AcDbEntity
  8
STAP_DN50
  6
CONTINUOUS
 62
         7
100
AcDbLine
 10
280.3228062439
 20
319.443195232
 30
0.0
 11
286.8495428315
 21
319.443195232
 31
0.0
  0
LINE
  5
338
100
AcDbEntity
  8
STAP_DN50
  6
CONTINUOUS
 62
         7
100
AcDbLine
 10
281.5966311467
 20
350.443195232
 30
0.0
 11
273.695389246
 21
350.443195232
 31
0.0
  0
LINE
  5
339
100
AcDbEntity
  8
STAP_DN50
  6
CONTINUOUS
 62
         7
100
AcDbLine
 10
273.695389246
 20
303.443195232
 30
0.0
 11
281.5966311467
 21
303.443195232
 31
0.0
  0
LINE
  5
33A
100
AcDbEntity
  8
STAP_DN50
  6
CONTINUOUS
 62
         7
100
AcDbLine
 10
303.199233939
 20
379.9320126521
 30
0.0
 11
302.7443380726
 21
379.443195232
 31
0.0
  0
LINE
  5
33B
100
AcDbEntity
  8
STAP_DN50
  6
CONTINUOUS
 62
         7
100
AcDbLine
 10
313.4852064518
 20
381.943195232
 30
0.0
 11
307.0135034157
 21
381.943195232
 31
0.0
  0
LINE
  5
33C
100
AcDbEntity
  8
STAP_DN50
  6
CONTINUOUS
 62
         7
100
AcDbLine
 10
304.5986888499
 20
379.443195232
 30
0.0
 11
286.5358758983
 21
379.443195232
 31
0.0
  0
LINE
  5
33D
100
AcDbEntity
  8
STAP_DN50
  6
CONTINUOUS
 62
         7
100
AcDbLine
 10
280.2075867721
 20
340.443195232
 30
0.0
 11
280.2075867721
 21
334.7213596435
 31
0.0
  0
LINE
  5
33E
100
AcDbEntity
  8
STAP_DN50
  6
CONTINUOUS
 62
         7
100
AcDbLine
 10
387.9166987899
 20
310.193195232
 30
0.0
 11
396.2167534735
 21
310.193195232
 31
0.0
  0
LINE
  5
33F
100
AcDbEntity
  8
STAP_DN50
  6
CONTINUOUS
 62
         7
100
AcDbLine
 10
426.6188666977
 20
351.943195232
 30
0.0
 11
418.1915660215
 21
351.943195232
 31
0.0
  0
LINE
  5
340
100
AcDbEntity
  8
STAP_DN50
  6
CONTINUOUS
 62
         7
100
AcDbLine
 10
418.1915660215
 20
301.943195232
 30
0.0
 11
426.6188666977
 21
301.943195232
 31
0.0
  0
LINE
  5
341
100
AcDbEntity
  8
STAP_DN50
  6
CONTINUOUS
 62
         7
100
AcDbLine
 10
329.7947193846
 20
294.0283589301
 30
0.0
 11
388.0721250756
 21
310.2364222606
 31
0.0
  0
LINE
  5
342
100
AcDbEntity
  8
STAP_DN50
  6
CONTINUOUS
 62
         7
100
AcDbLine
 10
324.8732444363
 20
293.943195232
 30
0.0
 11
329.181501129
 21
293.943195232
 31
0.0
  0
LINE
  5
343
100
AcDbEntity
  8
STAP_DN50
  6
CONTINUOUS
 62
         7
100
AcDbLine
 10
407.5663819324
 20
315.693195232
 30
0.0
 11
418.1915660215
 21
315.693195232
 31
0.0
  0
LINE
  5
344
100
AcDbEntity
  8
STAP_DN50
  6
CONTINUOUS
 62
         7
100
AcDbLine
 10
399.7872604642
 20
317.443195232
 30
0.0
 11
407.5663819324
 21
317.443195232
 31
0.0
  0
LINE
  5
345
100
AcDbEntity
  8
STAP_DN50
  6
CONTINUOUS
 62
         7
100
AcDbLine
 10
396.2167534735
 20
343.693195232
 30
0.0
 11
387.9166987899
 21
343.693195232
 31
0.0
  0
LINE
  5
346
100
AcDbEntity
  8
STAP_DN50
  6
CONTINUOUS
 62
         7
100
AcDbLine
 10
388.0721250756
 20
343.6499682034
 30
0.0
 11
329.7947193846
 21
359.8580315339
 31
0.0
  0
LINE
  5
347
100
AcDbEntity
  8
STAP_DN50
  6
CONTINUOUS
 62
         7
100
AcDbLine
 10
329.181501129
 20
359.943195232
 30
0.0
 11
324.8732444363
 21
359.943195232
 31
0.0
  0
LINE
  5
348
100
AcDbEntity
  8
STAP_DN50
  6
CONTINUOUS
 62
         7
100
AcDbLine
 10
403.1095026892
 20
335.943195232
 30
0.0
 11
404.4904787979
 21
335.0023705427
 31
0.0
  0
LINE
  5
349
100
AcDbEntity
  8
STAP_DN50
  6
CONTINUOUS
 62
         7
100
AcDbLine
 10
404.4904787979
 20
318.8840199212
 30
0.0
 11
403.1095026892
 21
317.943195232
 31
0.0
  0
ELLIPSE
  5
34A
100
AcDbEntity
  8
STAP_DN50
  6
CONTINUOUS
 62
         7
100
AcDbEllipse
 10
396.2167534735
 20
326.943195232
 30
0.0
 11
-0.0000000000016908
 21
36.999999999944016
 31
0.0
210
0.0
220
0.0
230
1.0
 40
0.2588190451
 41
4.6429677886145289
 42
4.7818101721549544
  0
ELLIPSE
  5
34B
100
AcDbEntity
  8
STAP_DN50
  6
CONTINUOUS
 62
         7
100
AcDbEllipse
 10
404.2208180648
 20
329.0935240247
 30
0.0
 11
0.0000000000000559
 21
6.0000000000000071
 31
0.0
210
0.0
220
0.0
230
1.0
 40
0.2588190451
 41
4.7818101721548034
 42
6.108652381980189
  0
ELLIPSE
  5
34C
100
AcDbEntity
  8
STAP_DN50
  6
CONTINUOUS
 62
         7
100
AcDbEllipse
 10
404.2208180648
 20
324.7928664393
 30
0.0
 11
-0.0000000000000559
 21
-5.9999999999999991
 31
0.0
210
0.0
220
0.0
230
1.0
 40
0.2588190451
 41
0.1745329251993955
 42
1.5013751350247968
  0
LINE
  5
34D
100
AcDbEntity
  8
STAP_DN50
  6
CONTINUOUS
 62
         7
100
AcDbLine
 10
353.6978568035
 20
317.943195232
 30
0.0
 11
403.1095026892
 21
317.943195232
 31
0.0
  0
LINE
  5
34E
100
AcDbEntity
  8
STAP_DN50
  6
CONTINUOUS
 62
         7
100
AcDbLine
 10
353.6978568035
 20
335.943195232
 30
0.0
 11
403.1095026892
 21
335.943195232
 31
0.0
  0
LINE
  5
34F
100
AcDbEntity
  8
STAP_DN50
  6
CONTINUOUS
 62
         7
100
AcDbLine
 10
317.2881835114
 20
320.043195232
 30
0.0
 11
317.9952902926
 21
320.043195232
 31
0.0
  0
LINE
  5
350
100
AcDbEntity
  8
STAP_DN50
  6
CONTINUOUS
 62
         7
100
AcDbLine
 10
319.7630572456
 20
320.043195232
 30
0.0
 11
323.6521445422
 21
320.043195232
 31
0.0
  0
LINE
  5
351
100
AcDbEntity
  8
STAP_DN50
  6
CONTINUOUS
 62
         7
100
AcDbLine
 10
337.4643223098
 20
318.8903245765
 30
0.0
 11
327.5668447034
 21
318.8903245765
 31
0.0
  0
LINE
  5
352
100
AcDbEntity
  8
STAP_DN50
  6
CONTINUOUS
 62
         7
100
AcDbLine
 10
337.5725274832
 20
318.8840199212
 30
0.0
 11
337.4643223098
 21
318.8903245765
 31
0.0
  0
LINE
  5
353
100
AcDbEntity
  8
STAP_DN50
  6
CONTINUOUS
 62
         7
100
AcDbLine
 10
292.5394461699
 20
315.943195232
 30
0.0
 11
293.6001063417
 21
315.943195232
 31
0.0
  0
LINE
  5
354
100
AcDbEntity
  8
STAP_DN50
  6
CONTINUOUS
 62
         7
100
AcDbLine
 10
293.6001063417
 20
315.993195232
 30
0.0
 11
304.5602614501
 21
315.993195232
 31
0.0
  0
LINE
  5
355
100
AcDbEntity
  8
STAP_DN50
  6
CONTINUOUS
 62
         7
100
AcDbLine
 10
310.2293053255
 20
336.4052993003
 30
0.0
 11
306.2060484883
 21
337.642974204
 31
0.0
  0
LINE
  5
356
100
AcDbEntity
  8
STAP_DN50
  6
CONTINUOUS
 62
         7
100
AcDbLine
 10
314.1062029961
 20
320.943195232
 30
0.0
 11
314.8788267508
 21
320.943195232
 31
0.0
  0
LINE
  5
357
100
AcDbEntity
  8
STAP_DN50
  6
CONTINUOUS
 62
         7
100
AcDbLine
 10
309.5100089184
 20
317.4810911637
 30
0.0
 11
314.1062029961
 21
317.4810911637
 31
0.0
  0
LINE
  5
358
100
AcDbEntity
  8
STAP_DN50
  6
CONTINUOUS
 62
         7
100
AcDbLine
 10
430.0072417958
 20
342.9822101643
 30
0.0
 11
420.0032993373
 21
342.9822101643
 31
0.0
  0
LINE
  5
359
100
AcDbEntity
  8
STAP_DN50
  6
CONTINUOUS
 62
         7
100
AcDbLine
 10
432.3467110093
 20
333.943195232
 30
0.0
 11
422.3427685507
 21
333.943195232
 31
0.0
  0
ELLIPSE
  5
35A
100
AcDbEntity
  8
STAP_DN50
  6
CONTINUOUS
 62
         7
100
AcDbEllipse
 10
418.1915660215
 20
326.943195232
 30
0.0
 11
0.0000000000000011
 21
17.499999999999996
 31
0.0
210
0.0
220
0.0
230
1.0
 40
0.2588190451
 41
5.1239058264521775
 42
5.8716684611120957
  0
LINE
  5
35B
100
AcDbEntity
  8
STAP_DN50
  6
CONTINUOUS
 62
         7
100
AcDbLine
 10
422.3427685507
 20
333.943195232
 30
0.0
 11
424.5286468908
 21
331.9933782152
 31
0.0
  0
LINE
  5
35C
100
AcDbEntity
  8
STAP_DN50
  6
CONTINUOUS
 62
         7
100
AcDbLine
 10
432.955947567
 20
331.9933782152
 30
0.0
 11
424.5286468908
 21
331.9933782152
 31
0.0
  0
ELLIPSE
  5
35D
100
AcDbEntity
  8
STAP_DN50
  6
CONTINUOUS
 62
         7
100
AcDbEllipse
 10
335.7234386456
 20
329.2891161464
 30
0.0
 11
66.203273991439616
 21
-74.218401718973396
 31
0.0
210
0.0
220
0.0
230
1.0
 40
0.9411692099
 41
1.0141906153030487
 42
1.1029041574324354
  0
LINE
  5
35E
100
AcDbEntity
  8
STAP_DN50
  6
CONTINUOUS
 62
         7
100
AcDbLine
 10
419.4986495589
 20
351.4277955317
 30
0.0
 11
427.925950235
 21
351.4277955317
 31
0.0
  0
ELLIPSE
  5
35F
100
AcDbEntity
  8
STAP_DN50
  6
CONTINUOUS
 62
         7
100
AcDbEllipse
 10
428.1955084801
 20
326.943195232
 30
0.0
 11
0.0000000000000011
 21
17.500000000000021
 31
0.0
210
0.0
220
0.0
230
1.0
 40
0.2588190451
 41
5.1239058264521731
 42
5.8716684611120931
  0
ELLIPSE
  5
360
100
AcDbEntity
  8
STAP_DN50
  6
CONTINUOUS
 62
         7
100
AcDbEllipse
 10
333.7006697353
 20
337.1044950787
 30
0.0
 11
99.277662531099097
 21
-5.9321465851295763
 31
0.0
210
0.0
220
0.0
230
1.0
 40
0.217286033
 41
0.0378724497681684
 42
0.1265859918985146
  0
LINE
  5
361
100
AcDbEntity
  8
STAP_DN50
  6
CONTINUOUS
 62
         7
100
AcDbLine
 10
416.3798327058
 20
342.9822101643
 30
0.0
 11
416.8844824842
 21
351.4277955317
 31
0.0
  0
ELLIPSE
  5
362
100
AcDbEntity
  8
STAP_DN50
  6
CONTINUOUS
 62
         7
100
AcDbEllipse
 10
418.1915660215
 20
326.943195232
 30
0.0
 11
-0.0000000000000267
 21
17.500000000000085
 31
0.0
210
0.0
220
0.0
230
1.0
 40
0.2588190451
 41
0.4115168460674931
 42
0.8725738534323362
  0
ELLIPSE
  5
363
100
AcDbEntity
  8
STAP_DN50
  6
CONTINUOUS
 62
         7
100
AcDbEllipse
 10
418.1915660215
 20
326.943195232
 30
0.0
 11
-0.0000000000000566
 21
-17.499999999999577
 31
0.0
210
0.0
220
0.0
230
1.0
 40
0.2588190451
 41
5.410611453747241
 42
5.8716684611120868
  0
LINE
  5
364
100
AcDbEntity
  8
STAP_DN50
  6
CONTINUOUS
 62
         7
100
AcDbLine
 10
420.0032993373
 20
310.9041802996
 30
0.0
 11
419.4986495589
 21
302.4585949323
 31
0.0
  0
ELLIPSE
  5
365
100
AcDbEntity
  8
STAP_DN50
  6
CONTINUOUS
 62
         7
100
AcDbEllipse
 10
418.1915660215
 20
326.943195232
 30
0.0
 11
-0.0000000000000011
 21
-17.499999999999996
 31
0.0
210
0.0
220
0.0
230
1.0
 40
0.2588190451
 41
0.4115168460674903
 42
1.159279480727412
  0
ELLIPSE
  5
366
100
AcDbEntity
  8
STAP_DN50
  6
CONTINUOUS
 62
         7
100
AcDbEllipse
 10
335.7234386469
 20
324.5972743172
 30
0.0
 11
66.203273987283268
 21
74.218401721485023
 31
0.0
210
0.0
220
0.0
230
1.0
 40
0.9411692099
 41
5.1802811496986845
 42
5.2689946918287465
  0
LINE
  5
367
100
AcDbEntity
  8
STAP_DN50
  6
CONTINUOUS
 62
         7
100
AcDbLine
 10
427.925950235
 20
302.4585949323
 30
0.0
 11
419.4986495589
 21
302.4585949323
 31
0.0
  0
ELLIPSE
  5
368
100
AcDbEntity
  8
STAP_DN50
  6
CONTINUOUS
 62
         7
100
AcDbEllipse
 10
428.1955084801
 20
326.943195232
 30
0.0
 11
-0.0000000000000011
 21
-17.500000000000025
 31
0.0
210
0.0
220
0.0
230
1.0
 40
0.2588190451
 41
0.4115168460674933
 42
1.1592794807274092
  0
LINE
  5
369
100
AcDbEntity
  8
STAP_DN50
  6
CONTINUOUS
 62
         7
100
AcDbLine
 10
430.0072417958
 20
310.9041802996
 30
0.0
 11
420.0032993373
 21
310.9041802996
 31
0.0
  0
LINE
  5
36A
100
AcDbEntity
  8
STAP_DN50
  6
CONTINUOUS
 62
         7
100
AcDbLine
 10
432.3467110093
 20
319.943195232
 30
0.0
 11
422.3427685507
 21
319.943195232
 31
0.0
  0
ELLIPSE
  5
36B
100
AcDbEntity
  8
STAP_DN50
  6
CONTINUOUS
 62
         7
100
AcDbEllipse
 10
333.7006697338
 20
316.7818953852
 30
0.0
 11
99.27766253263799
 21
5.9321465851954605
 31
0.0
210
0.0
220
0.0
230
1.0
 40
0.217286033
 41
6.1565993152821159
 42
6.2453128574117756
  0
LINE
  5
36C
100
AcDbEntity
  8
STAP_DN50
  6
CONTINUOUS
 62
         7
100
AcDbLine
 10
424.5286468908
 20
321.8930122487
 30
0.0
 11
432.955947567
 21
321.8930122487
 31
0.0
  0
ELLIPSE
  5
36D
100
AcDbEntity
  8
STAP_DN50
  6
CONTINUOUS
 62
         7
100
AcDbEllipse
 10
396.2167534735
 20
326.943195232
 30
0.0
 11
0.000000000000001
 21
16.749999999989029
 31
0.0
210
0.0
220
0.0
230
1.0
 40
0.2588190451
 41
3.1415926535897931
 42
4.1451405818553386
  0
ELLIPSE
  5
36E
100
AcDbEntity
  8
STAP_DN50
  6
CONTINUOUS
 62
         7
100
AcDbEllipse
 10
387.7608703549
 20
326.943195232
 30
0.0
 11
0.000000000000001
 21
16.749999999989029
 31
0.0
210
0.0
220
0.0
230
1.0
 40
0.2588190451
 41
3.2134512495497121
 42
4.1451405818553422
  0
ELLIPSE
  5
36F
100
AcDbEntity
  8
STAP_DN50
  6
CONTINUOUS
 62
         7
100
AcDbEllipse
 10
329.181501129
 20
326.943195232
 30
0.0
 11
0.000000000000002
 21
32.999999999999673
 31
0.0
210
0.0
220
0.0
230
1.0
 40
0.2588190451
 41
3.1415926535897931
 42
4.4658733827301873
  0
ELLIPSE
  5
370
100
AcDbEntity
  8
STAP_DN50
  6
CONTINUOUS
 62
         7
100
AcDbEllipse
 10
407.5663819324
 20
326.943195232
 30
0.0
 11
-0.0000000000000007
 21
-11.249999999999989
 31
0.0
210
0.0
220
0.0
230
1.0
 40
0.2588190451
 41
0.0000000000000002
 42
3.7068618376087903
  0
ELLIPSE
  5
371
100
AcDbEntity
  8
STAP_DN50
  6
CONTINUOUS
 62
         7
100
AcDbEllipse
 10
407.5663819324
 20
326.943195232
 30
0.0
 11
-0.0000000000000007
 21
-11.249999999999989
 31
0.0
210
0.0
220
0.0
230
1.0
 40
0.2588190451
 41
5.7179161231605891
 42
6.2831853071795862
  0
ELLIPSE
  5
372
100
AcDbEntity
  8
STAP_DN50
  6
CONTINUOUS
 62
         7
100
AcDbEllipse
 10
407.5663819324
 20
326.943195232
 30
0.0
 11
-0.0000000000000006
 21
-9.4999999999999964
 31
0.0
210
0.0
220
0.0
230
1.0
 40
0.2588190451
 41
0.0000000000000002
 42
3.1415926535897931
  0
ELLIPSE
  5
373
100
AcDbEntity
  8
STAP_DN50
  6
CONTINUOUS
 62
         7
100
AcDbEllipse
 10
418.1915660215
 20
326.943195232
 30
0.0
 11
-0.0000000000000007
 21
-11.249999999999989
 31
0.0
210
0.0
220
0.0
230
1.0
 40
0.2588190451
 41
0.0000000000000002
 42
3.1415926535897931
  0
LINE
  5
374
100
AcDbEntity
  8
STAP_DN50
  6
CONTINUOUS
 62
         7
100
AcDbLine
 10
416.3798327058
 20
310.9041802996
 30
0.0
 11
416.8844824842
 21
302.4585949323
 31
0.0
  0
LINE
  5
375
100
AcDbEntity
  8
STAP_DN50
  6
CONTINUOUS
 62
         7
100
AcDbLine
 10
422.3427685507
 20
319.943195232
 30
0.0
 11
424.5286468908
 21
321.8930122487
 31
0.0
  0
ELLIPSE
  5
376
100
AcDbEntity
  8
STAP_DN50
  6
CONTINUOUS
 62
         7
100
AcDbEllipse
 10
426.6188666977
 20
326.943195232
 30
0.0
 11
0.0000000000000817
 21
-25.000000000002917
 31
0.0
210
0.0
220
0.0
230
1.0
 40
0.2588190451
 41
1.3673892643019467
 42
1.7742033892878448
  0
ELLIPSE
  5
377
100
AcDbEntity
  8
STAP_DN50
  6
CONTINUOUS
 62
         7
100
AcDbEllipse
 10
418.1915660215
 20
326.943195232
 30
0.0
 11
-0.0000000000000293
 21
-25.000000000000078
 31
0.0
210
0.0
220
0.0
230
1.0
 40
0.2588190451
 41
1.3673892643019245
 42
1.7742033892878739
  0
LINE
  5
378
100
AcDbEntity
  8
STAP_DN50
  6
CONTINUOUS
 62
         7
100
AcDbLine
 10
420.0032993373
 20
342.9822101643
 30
0.0
 11
419.4986495589
 21
351.4277955317
 31
0.0
  0
LINE
  5
379
100
AcDbEntity
  8
STAP_DN50
  6
CONTINUOUS
 62
         7
100
AcDbLine
 10
353.6978568035
 20
317.943195232
 30
0.0
 11
337.5725274832
 21
318.8840199212
 31
0.0
  0
ENDBLK
  5
37A
100
AcDbEntity
  8
STAP_DN50
  6
CONTINUOUS
 62
         7
100
AcDbBlockEnd
  0
ENDSEC
  0
SECTION
  2
ENTITIES
  0
INSERT
  5
3A
102
{ACAD_XDICTIONARY
360
3B
102
}
100
AcDbEntity
  8
0
 62
         0
 48
0.0
100
AcDbBlockReference
  2
SE1
 10
0.0
 20
0.0
 30
0.0
  0
INSERT
  5
3E
100
AcDbEntity
  8
0
 62
         0
 48
0.0
100
AcDbBlockReference
  2
SE0
 10
0.0
 20
0.0
 30
0.0
  0
INSERT
  5
41
102
{ACAD_XDICTIONARY
360
42
102
}
100
AcDbEntity
  8
0
 62
         0
 48
0.0
100
AcDbBlockReference
  2
SE3
 10
0.0
 20
0.0
 30
0.0
  0
INSERT
  5
45
100
AcDbEntity
  8
0
 62
         0
 48
0.0
100
AcDbBlockReference
  2
SE2
 10
0.0
 20
0.0
 30
0.0
  0
INSERT
  5
48
102
{ACAD_XDICTIONARY
360
49
102
}
100
AcDbEntity
  8
0
 62
         0
 48
0.0
100
AcDbBlockReference
  2
SE5
 10
0.0
 20
0.0
 30
0.0
  0
INSERT
  5
4C
100
AcDbEntity
  8
0
 62
         0
 48
0.0
100
AcDbBlockReference
  2
SE4
 10
0.0
 20
0.0
 30
0.0
  0
INSERT
  5
4F
102
{ACAD_XDICTIONARY
360
50
102
}
100
AcDbEntity
  8
0
 62
         0
 48
0.0
100
AcDbBlockReference
  2
SE7
 10
0.0
 20
0.0
 30
0.0
  0
INSERT
  5
53
100
AcDbEntity
  8
0
 62
         0
 48
0.0
100
AcDbBlockReference
  2
SE6
 10
0.0
 20
0.0
 30
0.0
  0
ENDSEC
  0
SECTION
  2
OBJECTS
  0
DICTIONARY
  5
19
100
AcDbDictionary
  3
ACAD_GROUP
350
1A
  3
ACAD_MLINESTYLE
350
1B
  3
ACDBVARIABLEDICTIONARY
350
37D
  0
DICTIONARY
  5
1A
102
{ACAD_REACTORS
330
19
102
}
100
AcDbDictionary
  0
DICTIONARY
  5
1B
102
{ACAD_REACTORS
330
19
102
}
100
AcDbDictionary
  3
STANDARD
350
1C
  0
MLINESTYLE
  5
1C
102
{ACAD_REACTORS
330
1B
102
}
100
AcDbMlineStyle
  2
Standard
 70
         0
  3

 62
         0
 51
90.0
 52
90.0
 71
         2
 49
0.5
 62
       256
  6
ByLayer
 49
-0.5
 62
       256
  6
ByLayer
  0
DICTIONARY
  5
22
102
{ACAD_REACTORS
330
19
102
}
100
AcDbDictionary
  0
DICTIONARY
  5
3B
100
AcDbDictionary
  3
ACAD_FILTER
350
3C
  0
DICTIONARY
  5
3C
100
AcDbDictionary
  3
SPATIAL
350
3D
  0
SPATIAL_FILTER
  5
3D
100
AcDbFilter
100
AcDbSpatialFilter
 70
         2
 10
1.5571045037
 20
1.9727494385
 10
180.8980253255
 20
239.4507030023
210
0.0
220
0.0
230
1.0
 11
0.0
 21
0.0
 31
0.0
 71
         1
 72
         0
 73
         0
 40
1.0
 40
0.0
 40
0.0
 40
0.0
 40
0.0
 40
1.0
 40
0.0
 40
0.0
 40
0.0
 40
0.0
 40
1.0
 40
0.0
 40
1.0
 40
0.0
 40
0.0
 40
0.0
 40
0.0
 40
1.0
 40
0.0
 40
0.0
 40
0.0
 40
0.0
 40
1.0
 40
0.0
  0
DICTIONARY
  5
42
100
AcDbDictionary
  3
ACAD_FILTER
350
43
  0
DICTIONARY
  5
43
100
AcDbDictionary
  3
SPATIAL
350
44
  0
SPATIAL_FILTER
  5
44
100
AcDbFilter
100
AcDbSpatialFilter
 70
         2
 10
1.5571045037
 20
265.593195232
 10
180.8980253255
 20
388.293195232
210
0.0
220
0.0
230
1.0
 11
0.0
 21
0.0
 31
0.0
 71
         1
 72
         0
 73
         0
 40
1.0
 40
0.0
 40
0.0
 40
0.0
 40
0.0
 40
1.0
 40
0.0
 40
0.0
 40
0.0
 40
0.0
 40
1.0
 40
0.0
 40
1.0
 40
0.0
 40
0.0
 40
0.0
 40
0.0
 40
1.0
 40
0.0
 40
0.0
 40
0.0
 40
0.0
 40
1.0
 40
0.0
  0
DICTIONARY
  5
49
100
AcDbDictionary
  3
ACAD_FILTER
350
4A
  0
DICTIONARY
  5
4A
100
AcDbDictionary
  3
SPATIAL
350
4B
  0
SPATIAL_FILTER
  5
4B
100
AcDbFilter
100
AcDbSpatialFilter
 70
         2
 10
228.5428518588
 20
1.9727494385
 10
407.8837726805
 20
239.4507030023
210
0.0
220
0.0
230
1.0
 11
0.0
 21
0.0
 31
0.0
 71
         1
 72
         0
 73
         0
 40
1.0
 40
0.0
 40
0.0
 40
0.0
 40
0.0
 40
1.0
 40
0.0
 40
0.0
 40
0.0
 40
0.0
 40
1.0
 40
0.0
 40
1.0
 40
0.0
 40
0.0
 40
0.0
 40
0.0
 40
1.0
 40
0.0
 40
0.0
 40
0.0
 40
0.0
 40
1.0
 40
0.0
  0
DICTIONARY
  5
50
100
AcDbDictionary
  3
ACAD_FILTER
350
51
  0
DICTIONARY
  5
51
100
AcDbDictionary
  3
SPATIAL
350
52
  0
SPATIAL_FILTER
  5
52
100
AcDbFilter
100
AcDbSpatialFilter
 70
         2
 10
201.9613892614
 20
265.593195232
 10
439.4393428253
 20
388.293195232
210
0.0
220
0.0
230
1.0
 11
0.0
 21
0.0
 31
0.0
 71
         1
 72
         0
 73
         0
 40
1.0
 40
0.0
 40
0.0
 40
0.0
 40
0.0
 40
1.0
 40
0.0
 40
0.0
 40
0.0
 40
0.0
 40
1.0
 40
0.0
 40
1.0
 40
0.0
 40
0.0
 40
0.0
 40
0.0
 40
1.0
 40
0.0
 40
0.0
 40
0.0
 40
0.0
 40
1.0
 40
0.0
  0
DICTIONARY
  5
37D
100
AcDbDictionary
  3
DIMASSOC
350
37E
  0
DICTIONARYVAR
  5
37E
100
DictionaryVariables
280
         0
  1
2
  0
ENDSEC
  0
EOF
