  0
SECTION
  2
HEADER
  9
$ACADVER
  1
AC1014
  9
$ACADMAINTVER
 70
         0
  9
$DWGCODEPAGE
  3
ANSI_1252
  9
$INSBASE
 10
0.0
 20
0.0
 30
0.0
  9
$EXTMIN
 10
0.0
 20
0.0
 30
0.0
  9
$EXTMAX
 10
420.0
 20
297.0
 30
0.0
  9
$LIMMIN
 10
0.0
 20
0.0
  9
$LIMMAX
 10
420.0
 20
297.0
  9
$ORTHOMODE
 70
         0
  9
$REGENMODE
 70
         1
  9
$FILLMODE
 70
         1
  9
$QTEXTMODE
 70
         0
  9
$MIRRTEXT
 70
         1
  9
$DRAGMODE
 70
         2
  9
$LTSCALE
 40
25.4
  9
$OSMODE
 70
         0
  9
$ATTMODE
 70
         1
  9
$TEXTSIZE
 40
0.2
  9
$TRACEWID
 40
0.05
  9
$TEXTSTYLE
  7
Standard
  9
$CLAYER
  8
0
  9
$CELTYPE
  6
CONTINUOUS
  9
$CECOLOR
 62
       256
  9
$CELTSCALE
 40
1.0
  9
$DELOBJ
 70
         1
  9
$DISPSILH
 70
         0
  9
$DIMSCALE
 40
1.0
  9
$DIMASZ
 40
0.18
  9
$DIMEXO
 40
0.0625
  9
$DIMDLI
 40
0.38
  9
$DIMRND
 40
0.0
  9
$DIMDLE
 40
0.0
  9
$DIMEXE
 40
0.18
  9
$DIMTP
 40
0.0
  9
$DIMTM
 40
0.0
  9
$DIMTXT
 40
0.18
  9
$DIMCEN
 40
0.09
  9
$DIMTSZ
 40
0.0
  9
$DIMTOL
 70
         0
  9
$DIMLIM
 70
         0
  9
$DIMTIH
 70
         1
  9
$DIMTOH
 70
         1
  9
$DIMSE1
 70
         0
  9
$DIMSE2
 70
         0
  9
$DIMTAD
 70
         0
  9
$DIMZIN
 70
         0
  9
$DIMBLK
  1

  9
$DIMASO
 70
         1
  9
$DIMSHO
 70
         1
  9
$DIMPOST
  1

  9
$DIMAPOST
  1

  9
$DIMALT
 70
         0
  9
$DIMALTD
 70
         2
  9
$DIMALTF
 40
25.4
  9
$DIMLFAC
 40
1.0
  9
$DIMTOFL
 70
         0
  9
$DIMTVP
 40
0.0
  9
$DIMTIX
 70
         0
  9
$DIMSOXD
 70
         0
  9
$DIMSAH
 70
         0
  9
$DIMBLK1
  1

  9
$DIMBLK2
  1

  9
$DIMSTYLE
  2
Standard
  9
$DIMCLRD
 70
         0
  9
$DIMCLRE
 70
         0
  9
$DIMCLRT
 70
         0
  9
$DIMTFAC
 40
1.0
  9
$DIMGAP
 40
0.09
  9
$DIMJUST
 70
         0
  9
$DIMSD1
 70
         0
  9
$DIMSD2
 70
         0
  9
$DIMTOLJ
 70
         1
  9
$DIMTZIN
 70
         0
  9
$DIMALTZ
 70
         0
  9
$DIMALTTZ
 70
         0
  9
$DIMFIT
 70
         3
  9
$DIMUPT
 70
         0
  9
$DIMUNIT
 70
         2
  9
$DIMDEC
 70
         4
  9
$DIMTDEC
 70
         4
  9
$DIMALTU
 70
         2
  9
$DIMALTTD
 70
         2
  9
$DIMTXSTY
  7
Standard
  9
$DIMAUNIT
 70
         0
  9
$LUNITS
 70
         2
  9
$LUPREC
 70
         4
  9
$SKETCHINC
 40
0.1
  9
$FILLETRAD
 40
0.0
  9
$AUNITS
 70
         0
  9
$AUPREC
 70
         0
  9
$MENU
  1
acad
  9
$ELEVATION
 40
0.0
  9
$PELEVATION
 40
0.0
  9
$THICKNESS
 40
0.0
  9
$LIMCHECK
 70
         0
  9
$BLIPMODE
 70
         1
  9
$CHAMFERA
 40
0.0
  9
$CHAMFERB
 40
0.0
  9
$CHAMFERC
 40
0.0
  9
$CHAMFERD
 40
0.0
  9
$SKPOLY
 70
         0
  9
$TDCREATE
 40
0.000000000
  9
$TDUPDATE
 40
0.000000000
  9
$TDINDWG
 40
0.0000000000
  9
$TDUSRTIMER
 40
0.0000000000
  9
$USRTIMER
 70
         1
  9
$ANGBASE
 50
0.0
  9
$ANGDIR
 70
         0
  9
$PDMODE
 70
         0
  9
$PDSIZE
 40
0.0
  9
$PLINEWID
 40
0.0
  9
$COORDS
 70
         0
  9
$SPLFRAME
 70
         0
  9
$SPLINETYPE
 70
         6
  9
$SPLINESEGS
 70
         8
  9
$ATTDIA
 70
         0
  9
$ATTREQ
 70
         1
  9
$HANDLING
 70
         1
  9
$HANDSEED
  5
480
  9
$SURFTAB1
 70
         6
  9
$SURFTAB2
 70
         6
  9
$SURFTYPE
 70
         6
  9
$SURFU
 70
         6
  9
$SURFV
 70
         6
  9
$UCSNAME
  2

  9
$UCSORG
 10
0.0
 20
0.0
 30
0.0
  9
$UCSXDIR
 10
1.0
 20
0.0
 30
0.0
  9
$UCSYDIR
 10
0.0
 20
1.0
 30
0.0
  9
$PUCSNAME
  2

  9
$PUCSORG
 10
0.0
 20
0.0
 30
0.0
  9
$PUCSXDIR
 10
1.0
 20
0.0
 30
0.0
  9
$PUCSYDIR
 10
0.0
 20
1.0
 30
0.0
  9
$USERI1
 70
         0
  9
$USERI2
 70
         0
  9
$USERI3
 70
         0
  9
$USERI4
 70
         0
  9
$USERI5
 70
         0
  9
$USERR1
 40
0.0
  9
$USERR2
 40
0.0
  9
$USERR3
 40
0.0
  9
$USERR4
 40
0.0
  9
$USERR5
 40
0.0
  9
$WORLDVIEW
 70
         1
  9
$SHADEDGE
 70
         3
  9
$SHADEDIF
 70
        70
  9
$TILEMODE
 70
         1
  9
$MAXACTVP
 70
        16
  9
$PINSBASE
 10
0.0
 20
0.0
 30
0.0
  9
$PLIMCHECK
 70
         0
  9
$PEXTMIN
 10
1.0000000000E+20
 20
1.0000000000E+20
 30
1.0000000000E+20
  9
$PEXTMAX
 10
-1.0000000000E+20
 20
-1.0000000000E+20
 30
-1.0000000000E+20
  9
$PLIMMIN
 10
0.0
 20
0.0
  9
$PLIMMAX
 10
12.0
 20
9.0
  9
$UNITMODE
 70
         0
  9
$VISRETAIN
 70
         0
  9
$PLINEGEN
 70
         1
  9
$PSLTSCALE
 70
         0
  9
$TREEDEPTH
 70
      3020
  9
$PICKSTYLE
 70
         1
  9
$CMLSTYLE
  2
Standard
  9
$CMLJUST
 70
         0
  9
$CMLSCALE
 40
1.0
  9
$PROXYGRAPHICS
 70
         0
  9
$MEASUREMENT
 70
         0
  0
ENDSEC
  0
SECTION
  2
CLASSES
  0
CLASS
  1
LWPOLYLINE
  2
AcDbPolyline
  3
"AutoCAD"
 90
        0
280
         0
281
         1
  0
CLASS
  1
IMAGE
  2
AcDbRasterImage
  3
ISM
 90
      127
280
         0
281
         1
  0
CLASS
  1
OLE2FRAME
  2
AcDbOle2Frame
  3
""
 90
        0
280
         0
281
         1
  0
CLASS
  1
HATCH
  2
AcDbHatch
  3
"ACAD_SEDONA"
 90
        0
280
         0
281
         1
  0
CLASS
  1
DICTIONARYVAR
  2
AcDbDictionaryVar
  3
"AutoCAD"
 90
        0
280
         0
281
         0
  0
CLASS
  1
RASTERVARIABLES
  2
AcDbRasterVariables
  3
ISM
 90
        0
280
         0
281
         0
  0
CLASS
  1
IMAGEDEF
  2
AcDbRasterImageDef
  3
ISM
 90
        0
280
         0
281
         0
  0
CLASS
  1
IMAGEDEF_REACTOR
  2
AcDbRasterImageDefReactor
  3
ISM
 90
        1
280
         0
281
         0
  0
CLASS
  1
IDBUFFER
  2
AcDbIdBuffer
  3
"Acad"
 90
        0
280
         0
281
         0
  0
CLASS
  1
SPATIAL_FILTER
  2
AcDbSpatialFilter
  3
"Acad"
 90
        0
280
         0
281
         0
  0
CLASS
  1
XRECORD
  2
AcDbXrecord
  3
"<Built In>"
 90
        0
280
         0
281
         0
  0
CLASS
  1
SORTENTSTABLE
  2
AcDbSortentsTable
  3
"AutoCAD"
 90
        0
280
         0
281
         0
  0
CLASS
  1
LAYER_INDEX
  2
AcDbLayerIndex
  3
"Acad"
 90
        0
280
         0
281
         0
  0
CLASS
  1
SPATIAL_INDEX
  2
AcDbSpatialIndex
  3
"Acad"
 90
        0
280
         0
281
         0
  0
CLASS
  1
OBJECT_PTR
  2
CAseDLPNTableRecord
  3
"ASE-LPNTableRecord"
 90
        1
280
         0
281
         0
  0
CLASS
  1
LAYOUT
  2
AcDbLayout
  3
"AutoCAD 2000"
 90
        1
280
         0
281
         0
  0
CLASS
  1
PLOTSETTINGS
  2
AcDbPlotSettings
  3
"AutoCAD 2000"
 90
        1
280
         0
281
         0
  0
CLASS
  1
ACDBDICTIONARYWDFLT
  2
AcDbDictionaryWithDefault
  3
"AutoCAD 2000"
 90
        1
280
         0
281
         0
  0
CLASS
  1
ACDBPLACEHOLDER
  2
AcDbPlaceHolder
  3
"AutoCAD 2000"
 90
        1
280
         0
281
         0
  0
CLASS
  1
VBA_PROJECT
  2
AcDbVbaProject
  3
"acadvba"
 90
        1
280
         0
281
         0
  0
CLASS
  1
WIPEOUT
  2
AcDbWipeout
  3
WipeOut|AutoCAD Express Tool|expresstools@autodesk.com
 90
      127
280
         0
281
         1
  0
CLASS
  1
WIPEOUTVARIABLES
  2
AcDbWipeoutVariables
  3
WipeOut|AutoCAD Express Tool|expresstools@autodesk.com
 90
        0
280
         0
281
         0
  0
CLASS
  1
RTEXT
  2
RText
  3
RText|AutoCAD Express Tool|expresstools@autodesk.com
 90
        0
280
         0
281
         1
  0
CLASS
  1
ARCALIGNEDTEXT
  2
AcDbArcAlignedText
  3
ATEXT|AutoCAD Express Tool|expresstools@autodesk.com
 90
        0
280
         0
281
         1
  0
ENDSEC
  0
SECTION
  2
TABLES
  0
TABLE
  2
VPORT
  5
7
100
AcDbSymbolTable
 70
         1
  0
VPORT
  5
15
100
AcDbSymbolTableRecord
100
AcDbViewportTableRecord
  2
*ACTIVE
 70
         0
 10
0.0
 20
0.0
 11
1.0
 21
1.0
 12
210.0
 22
148.5
 13
0.0
 23
0.0
 14
1.0
 24
1.0
 15
0.0
 25
0.0
 16
0.0
 26
0.0
 36
1.0
 17
0.0
 27
0.0
 37
0.0
 40
297.0
 41
1.604229
 42
50.0
 43
0.0
 44
0.0
 50
0.0
 51
0.0
 71
         0
 72
       100
 73
         1
 74
         1
 75
         0
 76
         0
 77
         0
 78
         0
  0
ENDTAB
  0
TABLE
  2
LTYPE
  5
4
100
AcDbSymbolTable
 70
         7
  0
LTYPE
  5
11
100
AcDbSymbolTableRecord
100
AcDbLinetypeTableRecord
  2
ByBlock
 70
        64
  3

 72
        65
 73
         0
 40
0.0
  0
LTYPE
  5
12
100
AcDbSymbolTableRecord
100
AcDbLinetypeTableRecord
  2
ByLayer
 70
        64
  3

 72
        65
 73
         0
 40
0.0
  0
LTYPE
  5
13
100
AcDbSymbolTableRecord
100
AcDbLinetypeTableRecord
  2
CONTINUOUS
 70
         0
  3
Solid line
 72
        65
 73
         0
 40
0.0
  0
LTYPE
  5
28
100
AcDbSymbolTableRecord
100
AcDbLinetypeTableRecord
  2
HIDDEN2
 70
        64
  3
_ _ _ _ _ _ _ _ _ _ _ _ _ _ _ _ _ _ _ _ _ _ _ _
 72
        65
 73
         2
 40
0.1875
 49
0.125
 74
         0
 49
-0.0625
 74
         0
  0
LTYPE
  5
29
100
AcDbSymbolTableRecord
100
AcDbLinetypeTableRecord
  2
CENTER2
 70
        64
  3
___ _ ___ _ ___ _ ___ _ ___ _ ___ _ ___ _ ___ _
 72
        65
 73
         4
 40
1.125
 49
0.75
 74
         0
 49
-0.125
 74
         0
 49
0.125
 74
         0
 49
-0.125
 74
         0
  0
LTYPE
  5
2A
100
AcDbSymbolTableRecord
100
AcDbLinetypeTableRecord
  2
PHANTOM2
 70
        64
  3
___ _ _ ___ _ _ ___ _ _ ___ _ _ ___ _ _ ___ _ _
 72
        65
 73
         6
 40
1.25
 49
0.625
 74
         0
 49
-0.125
 74
         0
 49
0.125
 74
         0
 49
-0.125
 74
         0
 49
0.125
 74
         0
 49
-0.125
 74
         0
  0
LTYPE
  5
2B
100
AcDbSymbolTableRecord
100
AcDbLinetypeTableRecord
  2
DOT2
 70
        64
  3
...............................................
 72
        65
 73
         2
 40
0.125
 49
0.0
 74
         0
 49
-0.125
 74
         0
  0
ENDTAB
  0
TABLE
  2
LAYER
  5
2
100
AcDbSymbolTable
 70
         3
  0
LAYER
  5
14
100
AcDbSymbolTableRecord
100
AcDbLayerTableRecord
  2
0
 70
         0
 62
         7
  6
CONTINUOUS
  0
LAYER
  5
2D
100
AcDbSymbolTableRecord
100
AcDbLayerTableRecord
  2
DEFAULT
 70
         0
 62
         7
  6
CONTINUOUS
  0
LAYER
  5
37
100
AcDbSymbolTableRecord
100
AcDbLayerTableRecord
  2
STAP_DN100_20-80
 70
         0
 62
         7
  6
CONTINUOUS
  0
ENDTAB
  0
TABLE
  2
STYLE
  5
3
100
AcDbSymbolTable
 70
         1
  0
STYLE
  5
17
100
AcDbSymbolTableRecord
100
AcDbTextStyleTableRecord
  2
Standard
 70
         0
 40
0.0
 41
1.0
 50
0.0
 71
         0
 42
0.2
  3
txt
  4

  0
ENDTAB
  0
TABLE
  2
VIEW
  5
5
100
AcDbSymbolTable
 70
         0
  0
ENDTAB
  0
TABLE
  2
UCS
  5
6
100
AcDbSymbolTable
 70
         0
  0
ENDTAB
  0
TABLE
  2
APPID
  5
8
100
AcDbSymbolTable
 70
         1
  0
APPID
  5
16
100
AcDbSymbolTableRecord
100
AcDbRegAppTableRecord
  2
ACAD
 70
         0
  0
ENDTAB
  0
TABLE
  2
DIMSTYLE
  5
9
100
AcDbSymbolTable
 70
         1
  0
DIMSTYLE
105
18
100
AcDbSymbolTableRecord
100
AcDbDimStyleTableRecord
  2
Standard
 70
         0
  3

  4

  5

  6

  7

 40
1.0
 41
0.18
 42
0.0625
 43
0.38
 44
0.18
 45
0.0
 46
0.0
 47
0.0
 48
0.0
 71
         0
 72
         0
 73
         1
 74
         1
 75
         0
 76
         0
 77
         0
 78
         0
140
0.18
141
0.09
142
0.0
143
25.4
144
1.0
145
0.0
146
1.0
147
0.09
170
         0
171
         2
172
         0
173
         0
174
         0
175
         0
176
         0
177
         0
178
         0
270
         2
271
         4
272
         4
273
         2
274
         2
275
         0
280
         0
281
         0
282
         0
283
         1
284
         0
285
         0
286
         0
287
         0
288
         0
340
17
  0
ENDTAB
  0
TABLE
  2
BLOCK_RECORD
  5
1
100
AcDbSymbolTable
 70
         8
  0
BLOCK_RECORD
  5
A
100
AcDbSymbolTableRecord
100
AcDbBlockTableRecord
  2
*MODEL_SPACE
  0
BLOCK_RECORD
  5
B
100
AcDbSymbolTableRecord
100
AcDbBlockTableRecord
  2
*PAPER_SPACE
  0
BLOCK_RECORD
  5
38
100
AcDbSymbolTableRecord
100
AcDbBlockTableRecord
  2
SE0
  0
BLOCK_RECORD
  5
39
100
AcDbSymbolTableRecord
100
AcDbBlockTableRecord
  2
SE1
  0
BLOCK_RECORD
  5
3F
100
AcDbSymbolTableRecord
100
AcDbBlockTableRecord
  2
SE2
  0
BLOCK_RECORD
  5
40
100
AcDbSymbolTableRecord
100
AcDbBlockTableRecord
  2
SE3
  0
BLOCK_RECORD
  5
46
100
AcDbSymbolTableRecord
100
AcDbBlockTableRecord
  2
SE4
  0
BLOCK_RECORD
  5
47
100
AcDbSymbolTableRecord
100
AcDbBlockTableRecord
  2
SE5
  0
BLOCK_RECORD
  5
4D
100
AcDbSymbolTableRecord
100
AcDbBlockTableRecord
  2
SE6
  0
BLOCK_RECORD
  5
4E
100
AcDbSymbolTableRecord
100
AcDbBlockTableRecord
  2
SE7
  0
ENDTAB
  0
ENDSEC
  0
SECTION
  2
BLOCKS
  0
BLOCK
  5
D
100
AcDbEntity
  8
0
100
AcDbBlockBegin
  2
*MODEL_SPACE
 70
         0
 10
0.0
 20
0.0
 30
0.0
  3
*MODEL_SPACE
  1

  0
ENDBLK
  5
E
100
AcDbEntity
  8
0
100
AcDbBlockEnd
  0
BLOCK
  5
F
100
AcDbEntity
 67
         1
  8
0
100
AcDbBlockBegin
  2
*PAPER_SPACE
 70
         0
 10
0.0
 20
0.0
 30
0.0
  3
*PAPER_SPACE
  1

  0
ENDBLK
  5
10
100
AcDbEntity
 67
         1
  8
0
100
AcDbBlockEnd
  0
BLOCK
  5
177
100
AcDbEntity
  8
0
 62
         1
 48
0.0
100
AcDbBlockBegin
  2
SE0
 70
         0
 10
0.0
 20
0.0
 30
0.0
  3
SE0
  1

  0
ENDBLK
  5
178
100
AcDbEntity
  8
0
 62
         1
 48
0.0
100
AcDbBlockEnd
  0
BLOCK
  5
54
100
AcDbEntity
  8
0
 62
         1
 48
0.0
100
AcDbBlockBegin
  2
SE1
 70
         0
 10
0.0
 20
0.0
 30
0.0
  3
SE1
  1

  0
LINE
  5
55
100
AcDbEntity
  8
STAP_DN100_20-80
  6
CONTINUOUS
 62
         7
100
AcDbLine
 10
54.9559642891
 20
243.5528952723
 30
0.0
 11
54.9559642891
 21
251.4567428496
 31
0.0
  0
LINE
  5
56
100
AcDbEntity
  8
STAP_DN100_20-80
  6
CONTINUOUS
 62
         7
100
AcDbLine
 10
56.4559642891
 20
237.9548190609
 30
0.0
 11
56.4559642891
 21
240.9548190609
 31
0.0
  0
LINE
  5
57
100
AcDbEntity
  8
STAP_DN100_20-80
  6
CONTINUOUS
 62
         7
100
AcDbLine
 10
28.9559642891
 20
243.5528952723
 30
0.0
 11
27.4559642891
 21
240.9548190609
 31
0.0
  0
LINE
  5
58
100
AcDbEntity
  8
STAP_DN100_20-80
  6
CONTINUOUS
 62
         7
100
AcDbLine
 10
50.2859642891
 20
263.0548190609
 30
0.0
 11
50.2859642891
 21
265.5625063534
 31
0.0
  0
LINE
  5
59
100
AcDbEntity
  8
STAP_DN100_20-80
  6
CONTINUOUS
 62
         7
100
AcDbLine
 10
364.7216722362
 20
265.5548190609
 30
0.0
 11
372.4559642891
 21
265.5548190609
 31
0.0
  0
LINE
  5
5A
100
AcDbEntity
  8
STAP_DN100_20-80
  6
CONTINUOUS
 62
         7
100
AcDbLine
 10
63.2559642891
 20
319.5548190609
 30
0.0
 11
95.319731526
 21
319.5548190609
 31
0.0
  0
LINE
  5
5B
100
AcDbEntity
  8
STAP_DN100_20-80
  6
CONTINUOUS
 62
         7
100
AcDbLine
 10
121.5133511488
 20
289.1586160821
 30
0.0
 11
138.3633511488
 21
259.9735599746
 31
0.0
  0
LINE
  5
5C
100
AcDbEntity
  8
STAP_DN100_20-80
  6
CONTINUOUS
 62
         7
100
AcDbLine
 10
63.2559642891
 20
431.5548190609
 30
0.0
 11
49.7559642891
 21
445.0548190609
 31
0.0
  0
LINE
  5
5D
100
AcDbEntity
  8
STAP_DN100_20-80
  6
CONTINUOUS
 62
         7
100
AcDbLine
 10
35.9559642891
 20
218.4548190609
 30
0.0
 11
35.9559642891
 21
216.9548190609
 31
0.0
  0
LINE
  5
5E
100
AcDbEntity
  8
STAP_DN100_20-80
  6
CONTINUOUS
 62
         7
100
AcDbLine
 10
35.9559642891
 20
216.9548190609
 30
0.0
 11
35.0559642891
 21
216.0548190609
 31
0.0
  0
LINE
  5
5F
100
AcDbEntity
  8
STAP_DN100_20-80
  6
CONTINUOUS
 62
         7
100
AcDbLine
 10
35.0559642891
 20
216.0548190609
 30
0.0
 11
35.0559642891
 21
210.4548190609
 31
0.0
  0
LINE
  5
60
100
AcDbEntity
  8
STAP_DN100_20-80
  6
CONTINUOUS
 62
         7
100
AcDbLine
 10
37.9559642891
 20
222.4548190609
 30
0.0
 11
37.9559642891
 21
219.4548190609
 31
0.0
  0
LINE
  5
61
100
AcDbEntity
  8
STAP_DN100_20-80
  6
CONTINUOUS
 62
         7
100
AcDbLine
 10
35.2059642891
 20
219.4548190609
 30
0.0
 11
35.2059642891
 21
218.4548190609
 31
0.0
  0
LINE
  5
62
100
AcDbEntity
  8
STAP_DN100_20-80
  6
CONTINUOUS
 62
         7
100
AcDbLine
 10
35.1059642891
 20
231.4548190609
 30
0.0
 11
35.1059642891
 21
222.4548190609
 31
0.0
  0
LINE
  5
63
100
AcDbEntity
  8
STAP_DN100_20-80
  6
CONTINUOUS
 62
         7
100
AcDbLine
 10
54.9559642891
 20
236.4548190609
 30
0.0
 11
54.9559642891
 21
237.9548190609
 31
0.0
  0
LINE
  5
64
100
AcDbEntity
  8
STAP_DN100_20-80
  6
CONTINUOUS
 62
         7
100
AcDbLine
 10
54.8059642891
 20
257.0548190609
 30
0.0
 11
54.8059642891
 21
258.0548190609
 31
0.0
  0
LINE
  5
65
100
AcDbEntity
  8
STAP_DN100_20-80
  6
CONTINUOUS
 62
         7
100
AcDbLine
 10
56.4559642891
 20
254.0548190609
 30
0.0
 11
56.4559642891
 21
257.0548190609
 31
0.0
  0
LINE
  5
66
100
AcDbEntity
  8
STAP_DN100_20-80
  6
CONTINUOUS
 62
         7
100
AcDbLine
 10
54.9559642891
 20
251.4567428496
 30
0.0
 11
56.4559642891
 21
254.0548190609
 31
0.0
  0
LINE
  5
67
100
AcDbEntity
  8
STAP_DN100_20-80
  6
CONTINUOUS
 62
         7
100
AcDbLine
 10
351.9559642891
 20
242.0548190609
 30
0.0
 11
351.9559642891
 21
240.5548190609
 31
0.0
  0
LINE
  5
68
100
AcDbEntity
  8
STAP_DN100_20-80
  6
CONTINUOUS
 62
         7
100
AcDbLine
 10
351.0559642891
 20
239.6548190609
 30
0.0
 11
351.0559642891
 21
234.0548190609
 31
0.0
  0
LINE
  5
69
100
AcDbEntity
  8
STAP_DN100_20-80
  6
CONTINUOUS
 62
         7
100
AcDbLine
 10
351.9559642891
 20
240.5548190609
 30
0.0
 11
351.0559642891
 21
239.6548190609
 31
0.0
  0
LINE
  5
6A
100
AcDbEntity
  8
STAP_DN100_20-80
  6
CONTINUOUS
 62
         7
100
AcDbLine
 10
353.9559642891
 20
246.0548190609
 30
0.0
 11
353.9559642891
 21
243.0548190609
 31
0.0
  0
LINE
  5
6B
100
AcDbEntity
  8
STAP_DN100_20-80
  6
CONTINUOUS
 62
         7
100
AcDbLine
 10
351.2059642891
 20
243.0548190609
 30
0.0
 11
351.2059642891
 21
242.0548190609
 31
0.0
  0
LINE
  5
6C
100
AcDbEntity
  8
STAP_DN100_20-80
  6
CONTINUOUS
 62
         7
100
AcDbLine
 10
351.1059642891
 20
265.5548190609
 30
0.0
 11
351.1059642891
 21
246.0548190609
 31
0.0
  0
LINE
  5
6D
100
AcDbEntity
  8
STAP_DN100_20-80
  6
CONTINUOUS
 62
         7
100
AcDbLine
 10
126.5464329116
 20
239.6410627503
 30
0.0
 11
154.5464329116
 21
191.1436401384
 31
0.0
  0
LINE
  5
6E
100
AcDbEntity
  8
STAP_DN100_20-80
  6
CONTINUOUS
 62
         7
100
AcDbLine
 10
143.6345128239
 20
184.8436401384
 30
0.0
 11
147.8845128239
 21
177.4824242062
 31
0.0
  0
LINE
  5
6F
100
AcDbEntity
  8
STAP_DN100_20-80
  6
CONTINUOUS
 62
         7
100
AcDbLine
 10
50.1830834652
 20
265.5548190609
 30
0.0
 11
55.9559642891
 21
265.5548190609
 31
0.0
  0
LINE
  5
70
100
AcDbEntity
  8
STAP_DN100_20-80
  6
CONTINUOUS
 62
         7
100
AcDbLine
 10
296.2186081868
 20
319.5548190609
 30
0.0
 11
336.6559642891
 21
319.5548190609
 31
0.0
  0
LINE
  5
71
100
AcDbEntity
  8
STAP_DN100_20-80
  6
CONTINUOUS
 62
         7
100
AcDbLine
 10
125.8059827939
 20
252.7235599746
 30
0.0
 11
131.6559827939
 21
242.5910627503
 31
0.0
  0
LINE
  5
72
100
AcDbEntity
  8
STAP_DN100_20-80
  6
CONTINUOUS
 62
         7
100
AcDbLine
 10
24.9559642891
 20
298.5548190609
 30
0.0
 11
27.4559642891
 21
298.5548190609
 31
0.0
  0
LINE
  5
73
100
AcDbEntity
  8
STAP_DN100_20-80
  6
CONTINUOUS
 62
         7
100
AcDbLine
 10
336.6559642891
 20
319.5548190609
 30
0.0
 11
343.9856052203
 21
312.2251781297
 31
0.0
  0
LINE
  5
74
100
AcDbEntity
  8
STAP_DN100_20-80
  6
CONTINUOUS
 62
         7
100
AcDbLine
 10
372.4559642891
 20
298.5548190609
 30
0.0
 11
374.9559642891
 21
298.5548190609
 31
0.0
  0
LINE
  5
75
100
AcDbEntity
  8
STAP_DN100_20-80
  6
CONTINUOUS
 62
         7
100
AcDbLine
 10
156.4258862375
 20
173.753534408
 30
0.0
 11
159.4258862375
 21
168.5573819852
 31
0.0
  0
LINE
  5
76
100
AcDbEntity
  8
STAP_DN100_20-80
  6
CONTINUOUS
 62
         7
100
AcDbLine
 10
285.3769840471
 20
248.2034854406
 30
0.0
 11
288.3769840471
 21
243.0073330179
 31
0.0
  0
LINE
  5
77
100
AcDbEntity
  8
STAP_DN100_20-80
  6
CONTINUOUS
 62
         7
100
AcDbLine
 10
176.3746904932
 20
185.270981915
 30
0.0
 11
179.3746904932
 21
180.0748294923
 31
0.0
  0
LINE
  5
78
100
AcDbEntity
  8
STAP_DN100_20-80
  6
CONTINUOUS
 62
         7
100
AcDbLine
 10
210.9270330144
 20
205.2197861708
 30
0.0
 11
213.9270330144
 21
200.023633748
 31
0.0
  0
LINE
  5
79
100
AcDbEntity
  8
STAP_DN100_20-80
  6
CONTINUOUS
 62
         7
100
AcDbLine
 10
250.8246415259
 20
228.2546811849
 30
0.0
 11
253.8246415259
 21
223.0585287622
 31
0.0
  0
LINE
  5
7A
100
AcDbEntity
  8
STAP_DN100_20-80
  6
CONTINUOUS
 62
         7
100
AcDbLine
 10
305.3257883028
 20
259.7209329477
 30
0.0
 11
308.3257883028
 21
254.524780525
 31
0.0
  0
LINE
  5
7B
100
AcDbEntity
  8
STAP_DN100_20-80
  6
CONTINUOUS
 62
         7
100
AcDbLine
 10
363.0338314673
 20
144.8328731021
 30
0.0
 11
364.4194721133
 21
145.6328731021
 31
0.0
  0
LINE
  5
7C
100
AcDbEntity
  8
STAP_DN100_20-80
  6
CONTINUOUS
 62
         7
100
AcDbLine
 10
231.8780971109
 20
78.0012687112
 30
0.0
 11
230.4924564649
 21
77.2012687112
 31
0.0
  0
LINE
  5
7D
100
AcDbEntity
  8
STAP_DN100_20-80
  6
CONTINUOUS
 62
         7
100
AcDbLine
 10
166.928741458
 20
162.496852621
 30
0.0
 11
173.9778149463
 21
166.5666370971
 31
0.0
  0
LINE
  5
7E
100
AcDbEntity
  8
STAP_DN100_20-80
  6
CONTINUOUS
 62
         7
100
AcDbLine
 10
291.3316086361
 20
94.0247660613
 30
0.0
 11
300.6816086361
 21
77.8300910105
 31
0.0
  0
LINE
  5
7F
100
AcDbEntity
  8
STAP_DN100_20-80
  6
CONTINUOUS
 62
         7
100
AcDbLine
 10
274.6761640699
 20
87.8728422726
 30
0.0
 11
276.1761640699
 21
85.2747660613
 31
0.0
  0
ARC
  5
80
100
AcDbEntity
  8
STAP_DN100_20-80
  6
CONTINUOUS
 62
         7
100
AcDbCircle
 10
234.3059642891
 20
220.7960794046
 30
0.0
 40
200.0
100
AcDbArc
 50
282.5423968763
 51
317.4576031237
  0
LINE
  5
81
100
AcDbEntity
  8
STAP_DN100_20-80
  6
CONTINUOUS
 62
         7
100
AcDbLine
 10
147.451500122
 20
177.2324242062
 30
0.0
 11
151.201500122
 21
170.7372336778
 31
0.0
  0
LINE
  5
82
100
AcDbEntity
  8
STAP_DN100_20-80
  6
CONTINUOUS
 62
         7
100
AcDbLine
 10
173.9397389401
 20
166.6222860324
 30
0.0
 11
185.3061710746
 21
158.6634245693
 31
0.0
  0
LINE
  5
83
100
AcDbEntity
  8
STAP_DN100_20-80
  6
CONTINUOUS
 62
         7
100
AcDbLine
 10
28.9559642891
 20
251.4567428496
 30
0.0
 11
28.9559642891
 21
243.5528952723
 31
0.0
  0
LINE
  5
84
100
AcDbEntity
  8
STAP_DN100_20-80
  6
CONTINUOUS
 62
         7
100
AcDbLine
 10
27.4559642891
 20
240.9548190609
 30
0.0
 11
27.4559642891
 21
237.9548190609
 31
0.0
  0
LINE
  5
85
100
AcDbEntity
  8
STAP_DN100_20-80
  6
CONTINUOUS
 62
         7
100
AcDbLine
 10
56.4559642891
 20
240.9548190609
 30
0.0
 11
54.9559642891
 21
243.5528952723
 31
0.0
  0
LINE
  5
86
100
AcDbEntity
  8
STAP_DN100_20-80
  6
CONTINUOUS
 62
         7
100
AcDbLine
 10
33.6259642891
 20
265.5548190609
 30
0.0
 11
33.6259642891
 21
263.0548190609
 31
0.0
  0
LINE
  5
87
100
AcDbEntity
  8
STAP_DN100_20-80
  6
CONTINUOUS
 62
         7
100
AcDbLine
 10
372.4559642891
 20
485.5548190609
 30
0.0
 11
350.1559642891
 21
485.5548190609
 31
0.0
  0
LINE
  5
88
100
AcDbEntity
  8
STAP_DN100_20-80
  6
CONTINUOUS
 62
         7
100
AcDbLine
 10
343.9559642891
 20
312.2289019196
 30
0.0
 11
343.9559642891
 21
265.5548190609
 31
0.0
  0
LINE
  5
89
100
AcDbEntity
  8
STAP_DN100_20-80
  6
CONTINUOUS
 62
         7
100
AcDbLine
 10
144.9559642891
 20
431.5548190609
 30
0.0
 11
63.2559642891
 21
431.5548190609
 31
0.0
  0
LINE
  5
8A
100
AcDbEntity
  8
STAP_DN100_20-80
  6
CONTINUOUS
 62
         7
100
AcDbLine
 10
248.3485774294
 20
323.4735599746
 30
0.0
 11
244.2602105897
 21
330.5548190609
 31
0.0
  0
LINE
  5
8B
100
AcDbEntity
  8
STAP_DN100_20-80
  6
CONTINUOUS
 62
         7
100
AcDbLine
 10
55.9263233578
 20
312.2251781297
 30
0.0
 11
63.2559642891
 21
319.5548190609
 31
0.0
  0
LINE
  5
8C
100
AcDbEntity
  8
STAP_DN100_20-80
  6
CONTINUOUS
 62
         7
100
AcDbLine
 10
47.9559642891
 20
216.9548190609
 30
0.0
 11
47.9559642891
 21
218.4548190609
 31
0.0
  0
LINE
  5
8D
100
AcDbEntity
  8
STAP_DN100_20-80
  6
CONTINUOUS
 62
         7
100
AcDbLine
 10
48.8559642891
 20
216.0548190609
 30
0.0
 11
47.9559642891
 21
216.9548190609
 31
0.0
  0
LINE
  5
8E
100
AcDbEntity
  8
STAP_DN100_20-80
  6
CONTINUOUS
 62
         7
100
AcDbLine
 10
48.8559642891
 20
210.4548190609
 30
0.0
 11
48.8559642891
 21
216.0548190609
 31
0.0
  0
LINE
  5
8F
100
AcDbEntity
  8
STAP_DN100_20-80
  6
CONTINUOUS
 62
         7
100
AcDbLine
 10
45.9559642891
 20
219.4548190609
 30
0.0
 11
45.9559642891
 21
222.4548190609
 31
0.0
  0
LINE
  5
90
100
AcDbEntity
  8
STAP_DN100_20-80
  6
CONTINUOUS
 62
         7
100
AcDbLine
 10
48.7059642891
 20
218.4548190609
 30
0.0
 11
48.7059642891
 21
219.4548190609
 31
0.0
  0
LINE
  5
91
100
AcDbEntity
  8
STAP_DN100_20-80
  6
CONTINUOUS
 62
         7
100
AcDbLine
 10
48.8059642891
 20
222.4548190609
 30
0.0
 11
48.8059642891
 21
231.4548190609
 31
0.0
  0
LINE
  5
92
100
AcDbEntity
  8
STAP_DN100_20-80
  6
CONTINUOUS
 62
         7
100
AcDbLine
 10
28.9559642891
 20
237.9548190609
 30
0.0
 11
28.9559642891
 21
236.4548190609
 31
0.0
  0
LINE
  5
93
100
AcDbEntity
  8
STAP_DN100_20-80
  6
CONTINUOUS
 62
         7
100
AcDbLine
 10
29.1059642891
 20
258.0548190609
 30
0.0
 11
29.1059642891
 21
257.0548190609
 31
0.0
  0
LINE
  5
94
100
AcDbEntity
  8
STAP_DN100_20-80
  6
CONTINUOUS
 62
         7
100
AcDbLine
 10
27.4559642891
 20
257.0548190609
 30
0.0
 11
27.4559642891
 21
254.0548190609
 31
0.0
  0
LINE
  5
95
100
AcDbEntity
  8
STAP_DN100_20-80
  6
CONTINUOUS
 62
         7
100
AcDbLine
 10
27.4559642891
 20
254.0548190609
 30
0.0
 11
28.9559642891
 21
251.4567428496
 31
0.0
  0
LINE
  5
96
100
AcDbEntity
  8
STAP_DN100_20-80
  6
CONTINUOUS
 62
         7
100
AcDbLine
 10
269.844440062
 20
39.2416337424
 30
0.0
 11
277.7383602037
 21
25.5689629861
 31
0.0
  0
LINE
  5
97
100
AcDbEntity
  8
STAP_DN100_20-80
  6
CONTINUOUS
 62
         7
100
AcDbLine
 10
381.6614086579
 20
85.5689629861
 30
0.0
 11
373.7674885162
 21
99.2416337424
 31
0.0
  0
LINE
  5
98
100
AcDbEntity
  8
STAP_DN100_20-80
  6
CONTINUOUS
 62
         7
100
AcDbLine
 10
311.1710092937
 20
248.6619161305
 30
0.0
 11
304.9210092937
 21
259.4872336778
 31
0.0
  0
LINE
  5
99
100
AcDbEntity
  8
STAP_DN100_20-80
  6
CONTINUOUS
 62
         7
100
AcDbLine
 10
363.9559642891
 20
240.5548190609
 30
0.0
 11
363.9559642891
 21
242.0548190609
 31
0.0
  0
LINE
  5
9A
100
AcDbEntity
  8
STAP_DN100_20-80
  6
CONTINUOUS
 62
         7
100
AcDbLine
 10
364.8559642891
 20
234.0548190609
 30
0.0
 11
364.8559642891
 21
239.6548190609
 31
0.0
  0
LINE
  5
9B
100
AcDbEntity
  8
STAP_DN100_20-80
  6
CONTINUOUS
 62
         7
100
AcDbLine
 10
364.8559642891
 20
239.6548190609
 30
0.0
 11
363.9559642891
 21
240.5548190609
 31
0.0
  0
LINE
  5
9C
100
AcDbEntity
  8
STAP_DN100_20-80
  6
CONTINUOUS
 62
         7
100
AcDbLine
 10
361.9559642891
 20
243.0548190609
 30
0.0
 11
361.9559642891
 21
246.0548190609
 31
0.0
  0
LINE
  5
9D
100
AcDbEntity
  8
STAP_DN100_20-80
  6
CONTINUOUS
 62
         7
100
AcDbLine
 10
364.7059642891
 20
242.0548190609
 30
0.0
 11
364.7059642891
 21
243.0548190609
 31
0.0
  0
LINE
  5
9E
100
AcDbEntity
  8
STAP_DN100_20-80
  6
CONTINUOUS
 62
         7
100
AcDbLine
 10
364.8059642891
 20
246.0548190609
 30
0.0
 11
364.8059642891
 21
265.5599971122
 31
0.0
  0
LINE
  5
9F
100
AcDbEntity
  8
STAP_DN100_20-80
  6
CONTINUOUS
 62
         7
100
AcDbLine
 10
299.8654956666
 20
275.0436401384
 30
0.0
 11
271.8654956666
 21
323.5410627503
 31
0.0
  0
LINE
  5
A0
100
AcDbEntity
  8
STAP_DN100_20-80
  6
CONTINUOUS
 62
         7
100
AcDbLine
 10
315.0274157543
 20
273.9824242062
 30
0.0
 11
310.7774157543
 21
281.3436401384
 31
0.0
  0
ARC
  5
A1
100
AcDbEntity
  8
STAP_DN100_20-80
  6
CONTINUOUS
 62
         7
100
AcDbCircle
 10
144.9559642891
 20
375.5548190609
 30
0.0
 40
56.0
100
AcDbArc
 50
79.1559374363
 51
90.0
  0
LINE
  5
A2
100
AcDbEntity
  8
STAP_DN100_20-80
  6
CONTINUOUS
 62
         7
100
AcDbLine
 10
49.7559642891
 20
485.5548190609
 30
0.0
 11
27.4559642891
 21
485.5548190609
 31
0.0
  0
LINE
  5
A3
100
AcDbEntity
  8
STAP_DN100_20-80
  6
CONTINUOUS
 62
         7
100
AcDbLine
 10
219.0293203279
 20
409.5548190609
 30
0.0
 11
220.2826606475
 21
413.6837161005
 31
0.0
  0
LINE
  5
A4
100
AcDbEntity
  8
STAP_DN100_20-80
  6
CONTINUOUS
 62
         7
100
AcDbLine
 10
211.098484593
 20
409.5548190609
 30
0.0
 11
219.0293203279
 21
409.5548190609
 31
0.0
  0
LINE
  5
A5
100
AcDbEntity
  8
STAP_DN100_20-80
  6
CONTINUOUS
 62
         7
100
AcDbLine
 10
55.9559642891
 20
265.5548190609
 30
0.0
 11
55.9559642891
 21
312.2289019196
 31
0.0
  0
LINE
  5
A6
100
AcDbEntity
  8
STAP_DN100_20-80
  6
CONTINUOUS
 62
         7
100
AcDbLine
 10
217.1597892825
 20
413.6837161005
 30
0.0
 11
219.0293203279
 21
421.5894011935
 31
0.0
  0
LINE
  5
A7
100
AcDbEntity
  8
STAP_DN100_20-80
  6
CONTINUOUS
 62
         7
100
AcDbLine
 10
220.2826606475
 20
413.6837161005
 30
0.0
 11
217.1597892825
 21
413.6837161005
 31
0.0
  0
LINE
  5
A8
100
AcDbEntity
  8
STAP_DN100_20-80
  6
CONTINUOUS
 62
         7
100
AcDbLine
 10
215.8435723582
 20
425.5548190609
 30
0.0
 11
211.098484593
 21
409.5548190609
 31
0.0
  0
LINE
  5
A9
100
AcDbEntity
  8
STAP_DN100_20-80
  6
CONTINUOUS
 62
         7
100
AcDbLine
 10
219.0293203279
 20
421.5894011935
 30
0.0
 11
221.9048770478
 21
409.5548190609
 31
0.0
  0
LINE
  5
AA
100
AcDbEntity
  8
STAP_DN100_20-80
  6
CONTINUOUS
 62
         7
100
AcDbLine
 10
221.9048770478
 20
409.5548190609
 30
0.0
 11
226.9559642891
 21
409.5548190609
 31
0.0
  0
LINE
  5
AB
100
AcDbEntity
  8
STAP_DN100_20-80
  6
CONTINUOUS
 62
         7
100
AcDbLine
 10
226.9559642891
 20
409.5548190609
 30
0.0
 11
222.2108765238
 21
425.5548190609
 31
0.0
  0
LINE
  5
AC
100
AcDbEntity
  8
STAP_DN100_20-80
  6
CONTINUOUS
 62
         7
100
AcDbLine
 10
222.2108765238
 20
425.5548190609
 30
0.0
 11
215.8435723582
 21
425.5548190609
 31
0.0
  0
LINE
  5
AD
100
AcDbEntity
  8
STAP_DN100_20-80
  6
CONTINUOUS
 62
         7
100
AcDbLine
 10
95.2887199037
 20
319.5810098083
 30
0.0
 11
115.0181606204
 21
285.4086160821
 31
0.0
  0
LINE
  5
AE
100
AcDbEntity
  8
STAP_DN100_20-80
  6
CONTINUOUS
 62
         7
100
AcDbLine
 10
336.6559642891
 20
431.5548190609
 30
0.0
 11
276.950809513
 21
431.5548190609
 31
0.0
  0
LINE
  5
AF
100
AcDbEntity
  8
STAP_DN100_20-80
  6
CONTINUOUS
 62
         7
100
AcDbLine
 10
266.7559457843
 20
320.5910627503
 30
0.0
 11
262.0716719351
 21
328.7044630535
 31
0.0
  0
LINE
  5
B0
100
AcDbEntity
  8
STAP_DN100_20-80
  6
CONTINUOUS
 62
         7
100
AcDbLine
 10
27.4559642891
 20
452.5548190609
 30
0.0
 11
24.9559642891
 21
452.5548190609
 31
0.0
  0
LINE
  5
B1
100
AcDbEntity
  8
STAP_DN100_20-80
  6
CONTINUOUS
 62
         7
100
AcDbLine
 10
210.6080470766
 20
409.5548190609
 30
0.0
 11
205.8420004431
 21
409.5548190609
 31
0.0
  0
LINE
  5
B2
100
AcDbEntity
  8
STAP_DN100_20-80
  6
CONTINUOUS
 62
         7
100
AcDbLine
 10
205.8420004431
 20
409.5548190609
 30
0.0
 11
205.8420004431
 21
421.1366896399
 31
0.0
  0
LINE
  5
B3
100
AcDbEntity
  8
STAP_DN100_20-80
  6
CONTINUOUS
 62
         7
100
AcDbLine
 10
203.6245521853
 20
425.5548190609
 30
0.0
 11
214.5105883394
 21
425.5548190609
 31
0.0
  0
LINE
  5
B4
100
AcDbEntity
  8
STAP_DN100_20-80
  6
CONTINUOUS
 62
         7
100
AcDbLine
 10
213.1943714151
 20
421.1366896399
 30
0.0
 11
210.6080470766
 21
421.1366896399
 31
0.0
  0
LINE
  5
B5
100
AcDbEntity
  8
STAP_DN100_20-80
  6
CONTINUOUS
 62
         7
100
AcDbLine
 10
205.8420004431
 20
421.1366896399
 30
0.0
 11
202.3292941293
 21
421.1366896399
 31
0.0
  0
LINE
  5
B6
100
AcDbEntity
  8
STAP_DN100_20-80
  6
CONTINUOUS
 62
         7
100
AcDbLine
 10
214.5105883394
 20
425.5548190609
 30
0.0
 11
213.1943714151
 21
421.1366896399
 31
0.0
  0
LINE
  5
B7
100
AcDbEntity
  8
STAP_DN100_20-80
  6
CONTINUOUS
 62
         7
100
AcDbLine
 10
210.6080470766
 20
421.1366896399
 30
0.0
 11
210.6080470766
 21
409.5548190609
 31
0.0
  0
LINE
  5
B8
100
AcDbEntity
  8
STAP_DN100_20-80
  6
CONTINUOUS
 62
         7
100
AcDbLine
 10
202.3292941293
 20
421.1366896399
 30
0.0
 11
203.6245521853
 21
425.5548190609
 31
0.0
  0
LINE
  5
B9
100
AcDbEntity
  8
STAP_DN100_20-80
  6
CONTINUOUS
 62
         7
100
AcDbLine
 10
350.1559642891
 20
445.0548190609
 30
0.0
 11
336.6559642891
 21
431.5548190609
 31
0.0
  0
LINE
  5
BA
100
AcDbEntity
  8
STAP_DN100_20-80
  6
CONTINUOUS
 62
         7
100
AcDbLine
 10
109.3186897619
 20
375.5531816493
 30
0.0
 11
103.0727908118
 21
369.3031816493
 31
0.0
  0
LINE
  5
BB
100
AcDbEntity
  8
STAP_DN100_20-80
  6
CONTINUOUS
 62
         7
100
AcDbLine
 10
103.0727908118
 20
381.8031816493
 30
0.0
 11
109.3186897619
 21
375.5531816493
 31
0.0
  0
LINE
  5
BC
100
AcDbEntity
  8
STAP_DN100_20-80
  6
CONTINUOUS
 62
         7
100
AcDbLine
 10
99.9123436446
 20
381.8031816493
 30
0.0
 11
103.0727908118
 21
381.8031816493
 31
0.0
  0
LINE
  5
BD
100
AcDbEntity
  8
STAP_DN100_20-80
  6
CONTINUOUS
 62
         7
100
AcDbLine
 10
99.9123436446
 20
377.424743085
 30
0.0
 11
99.9123436446
 21
381.8031816493
 31
0.0
  0
LINE
  5
BE
100
AcDbEntity
  8
STAP_DN100_20-80
  6
CONTINUOUS
 62
         7
100
AcDbLine
 10
87.9559642891
 20
377.424743085
 30
0.0
 11
99.9123436446
 21
377.424743085
 31
0.0
  0
LINE
  5
BF
100
AcDbEntity
  8
STAP_DN100_20-80
  6
CONTINUOUS
 62
         7
100
AcDbLine
 10
87.9559642891
 20
373.6848950368
 30
0.0
 11
87.9559642891
 21
377.424743085
 31
0.0
  0
LINE
  5
C0
100
AcDbEntity
  8
STAP_DN100_20-80
  6
CONTINUOUS
 62
         7
100
AcDbLine
 10
99.9123436446
 20
373.6848950368
 30
0.0
 11
87.9559642891
 21
373.6848950368
 31
0.0
  0
LINE
  5
C1
100
AcDbEntity
  8
STAP_DN100_20-80
  6
CONTINUOUS
 62
         7
100
AcDbLine
 10
103.0727908118
 20
369.3031816493
 30
0.0
 11
99.9123436446
 21
369.3031816493
 31
0.0
  0
LINE
  5
C2
100
AcDbEntity
  8
STAP_DN100_20-80
  6
CONTINUOUS
 62
         7
100
AcDbLine
 10
374.9559642891
 20
452.5548190609
 30
0.0
 11
372.4559642891
 21
452.5548190609
 31
0.0
  0
LINE
  5
C3
100
AcDbEntity
  8
STAP_DN100_20-80
  6
CONTINUOUS
 62
         7
100
AcDbLine
 10
48.7059642891
 20
218.4548190609
 30
0.0
 11
35.2059642891
 21
218.4548190609
 31
0.0
  0
LINE
  5
C4
100
AcDbEntity
  8
STAP_DN100_20-80
  6
CONTINUOUS
 62
         7
100
AcDbLine
 10
47.9559642891
 20
216.9548190609
 30
0.0
 11
35.9559642891
 21
216.9548190609
 31
0.0
  0
LINE
  5
C5
100
AcDbEntity
  8
STAP_DN100_20-80
  6
CONTINUOUS
 62
         7
100
AcDbLine
 10
48.8559642891
 20
210.4548190609
 30
0.0
 11
35.0559642891
 21
210.4548190609
 31
0.0
  0
LINE
  5
C6
100
AcDbEntity
  8
STAP_DN100_20-80
  6
CONTINUOUS
 62
         7
100
AcDbLine
 10
48.8559642891
 20
216.0548190609
 30
0.0
 11
35.0559642891
 21
216.0548190609
 31
0.0
  0
LINE
  5
C7
100
AcDbEntity
  8
STAP_DN100_20-80
  6
CONTINUOUS
 62
         7
100
AcDbLine
 10
99.9123436446
 20
369.3031816493
 30
0.0
 11
99.9123436446
 21
373.6848950368
 31
0.0
  0
LINE
  5
C8
100
AcDbEntity
  8
STAP_DN100_20-80
  6
CONTINUOUS
 62
         7
100
AcDbLine
 10
48.7059642891
 20
219.4548190609
 30
0.0
 11
35.2059642891
 21
219.4548190609
 31
0.0
  0
LINE
  5
C9
100
AcDbEntity
  8
STAP_DN100_20-80
  6
CONTINUOUS
 62
         7
100
AcDbLine
 10
48.8059642891
 20
222.4548190609
 30
0.0
 11
35.1059642891
 21
222.4548190609
 31
0.0
  0
LINE
  5
CA
100
AcDbEntity
  8
STAP_DN100_20-80
  6
CONTINUOUS
 62
         7
100
AcDbLine
 10
41.9559642891
 20
231.4548190609
 30
0.0
 11
52.9034642891
 21
231.4548190609
 31
0.0
  0
LINE
  5
CB
100
AcDbEntity
  8
STAP_DN100_20-80
  6
CONTINUOUS
 62
         7
100
AcDbLine
 10
31.0084642891
 20
231.4548190609
 30
0.0
 11
41.9559642891
 21
231.4548190609
 31
0.0
  0
LINE
  5
CC
100
AcDbEntity
  8
STAP_DN100_20-80
  6
CONTINUOUS
 62
         7
100
AcDbLine
 10
52.9034642891
 20
231.4548190609
 30
0.0
 11
52.9034642891
 21
236.4548190609
 31
0.0
  0
LINE
  5
CD
100
AcDbEntity
  8
STAP_DN100_20-80
  6
CONTINUOUS
 62
         7
100
AcDbLine
 10
31.0084642891
 20
231.4548190609
 30
0.0
 11
31.0084642891
 21
236.4548190609
 31
0.0
  0
LINE
  5
CE
100
AcDbEntity
  8
STAP_DN100_20-80
  6
CONTINUOUS
 62
         7
100
AcDbLine
 10
41.9559642891
 20
231.4548190609
 30
0.0
 11
41.9559642891
 21
236.4548190609
 31
0.0
  0
LINE
  5
CF
100
AcDbEntity
  8
STAP_DN100_20-80
  6
CONTINUOUS
 62
         7
100
AcDbLine
 10
54.9559642891
 20
236.4548190609
 30
0.0
 11
28.9559642891
 21
236.4548190609
 31
0.0
  0
CIRCLE
  5
D0
100
AcDbEntity
  8
STAP_DN100_20-80
  6
CONTINUOUS
 62
         7
100
AcDbCircle
 10
41.9559642891
 20
247.5048190609
 30
0.0
 40
6.0
  0
LINE
  5
D1
100
AcDbEntity
  8
STAP_DN100_20-80
  6
CONTINUOUS
 62
         7
100
AcDbLine
 10
56.4559642891
 20
257.0548190609
 30
0.0
 11
27.4559642891
 21
257.0548190609
 31
0.0
  0
LINE
  5
D2
100
AcDbEntity
  8
STAP_DN100_20-80
  6
CONTINUOUS
 62
         7
100
AcDbLine
 10
56.4559642891
 20
254.0548190609
 30
0.0
 11
27.4559642891
 21
254.0548190609
 31
0.0
  0
LINE
  5
D3
100
AcDbEntity
  8
STAP_DN100_20-80
  6
CONTINUOUS
 62
         7
100
AcDbLine
 10
56.4559642891
 20
237.9548190609
 30
0.0
 11
27.4559642891
 21
237.9548190609
 31
0.0
  0
LINE
  5
D4
100
AcDbEntity
  8
STAP_DN100_20-80
  6
CONTINUOUS
 62
         7
100
AcDbLine
 10
54.9559642891
 20
251.4567428496
 30
0.0
 11
46.4706401765
 21
251.4567428496
 31
0.0
  0
LINE
  5
D5
100
AcDbEntity
  8
STAP_DN100_20-80
  6
CONTINUOUS
 62
         7
100
AcDbLine
 10
37.4412884016
 20
251.4567428496
 30
0.0
 11
28.9559642891
 21
251.4567428496
 31
0.0
  0
LINE
  5
D6
100
AcDbEntity
  8
STAP_DN100_20-80
  6
CONTINUOUS
 62
         7
100
AcDbLine
 10
54.9559642891
 20
243.5528952723
 30
0.0
 11
46.4706401765
 21
243.5528952723
 31
0.0
  0
LINE
  5
D7
100
AcDbEntity
  8
STAP_DN100_20-80
  6
CONTINUOUS
 62
         7
100
AcDbLine
 10
37.4412884016
 20
243.5528952723
 30
0.0
 11
28.9559642891
 21
243.5528952723
 31
0.0
  0
LINE
  5
D8
100
AcDbEntity
  8
STAP_DN100_20-80
  6
CONTINUOUS
 62
         7
100
AcDbLine
 10
56.4559642891
 20
240.9548190609
 30
0.0
 11
27.4559642891
 21
240.9548190609
 31
0.0
  0
LINE
  5
D9
100
AcDbEntity
  8
STAP_DN100_20-80
  6
CONTINUOUS
 62
         7
100
AcDbLine
 10
27.0084642891
 20
263.0548190609
 30
0.0
 11
41.9559642891
 21
263.0548190609
 31
0.0
  0
LINE
  5
DA
100
AcDbEntity
  8
STAP_DN100_20-80
  6
CONTINUOUS
 62
         7
100
AcDbLine
 10
27.0084642891
 20
258.0548190609
 30
0.0
 11
41.9559642891
 21
258.0548190609
 31
0.0
  0
LINE
  5
DB
100
AcDbEntity
  8
STAP_DN100_20-80
  6
CONTINUOUS
 62
         7
100
AcDbLine
 10
41.9559642891
 20
263.0548190609
 30
0.0
 11
56.9034642891
 21
263.0548190609
 31
0.0
  0
LINE
  5
DC
100
AcDbEntity
  8
STAP_DN100_20-80
  6
CONTINUOUS
 62
         7
100
AcDbLine
 10
41.9559642891
 20
258.0548190609
 30
0.0
 11
56.9034642891
 21
258.0548190609
 31
0.0
  0
LINE
  5
DD
100
AcDbEntity
  8
STAP_DN100_20-80
  6
CONTINUOUS
 62
         7
100
AcDbLine
 10
27.0084642891
 20
258.0548190609
 30
0.0
 11
27.0084642891
 21
263.0548190609
 31
0.0
  0
LINE
  5
DE
100
AcDbEntity
  8
STAP_DN100_20-80
  6
CONTINUOUS
 62
         7
100
AcDbLine
 10
41.9559642891
 20
258.0548190609
 30
0.0
 11
41.9559642891
 21
263.0548190609
 31
0.0
  0
LINE
  5
DF
100
AcDbEntity
  8
STAP_DN100_20-80
  6
CONTINUOUS
 62
         7
100
AcDbLine
 10
56.9034642891
 20
258.0548190609
 30
0.0
 11
56.9034642891
 21
263.0548190609
 31
0.0
  0
ARC
  5
E0
100
AcDbEntity
  8
STAP_DN100_20-80
  6
CONTINUOUS
 62
         7
100
AcDbCircle
 10
100.1214266214
 20
132.0112329256
 30
0.0
 40
80.404567027
100
AcDbArc
 50
26.7899849568
 51
29.9983351591
  0
ARC
  5
E1
100
AcDbEntity
  8
STAP_DN100_20-80
  6
CONTINUOUS
 62
         7
100
AcDbCircle
 10
-724.2045020251
 20
136.4591591795
 30
0.0
 40
1040.3085906384
100
AcDbArc
 50
0.4374241362
 51
4.6230947333
  0
ARC
  5
E2
100
AcDbEntity
  8
STAP_DN100_20-80
  6
CONTINUOUS
 62
         7
100
AcDbCircle
 10
385.5739138203
 20
228.1370219839
 30
0.0
 40
73.2738684388
100
AcDbArc
 50
176.6865279917
 51
186.1329383543
  0
LINE
  5
E3
100
AcDbEntity
  8
STAP_DN100_20-80
  6
CONTINUOUS
 62
         7
100
AcDbLine
 10
316.3836011765
 20
130.3345059693
 30
0.0
 11
324.343181624
 21
116.5481082273
 31
0.0
  0
ARC
  5
E4
100
AcDbEntity
  8
STAP_DN100_20-80
  6
CONTINUOUS
 62
         7
100
AcDbCircle
 10
150.9462188428
 20
91.4680989806
 30
0.0
 40
75.6904328586
100
AcDbArc
 50
54.0121704152
 51
63.1572584151
  0
ARC
  5
E5
100
AcDbEntity
  8
STAP_DN100_20-80
  6
CONTINUOUS
 62
         7
100
AcDbCircle
 10
788.0957477001
 20
1011.1395879112
 30
0.0
 40
1043.1482706116
100
AcDbArc
 50
235.3781374503
 51
239.5529940604
  0
LINE
  5
E6
100
AcDbEntity
  8
STAP_DN100_20-80
  6
CONTINUOUS
 62
         7
100
AcDbLine
 10
279.5687469542
 20
90.6975763179
 30
0.0
 11
271.6091665067
 21
104.4839740599
 31
0.0
  0
LINE
  5
E7
100
AcDbEntity
  8
STAP_DN100_20-80
  6
CONTINUOUS
 62
         7
100
AcDbLine
 10
351.0040689087
 20
86.0991673043
 30
0.0
 11
373.4126499025
 21
99.0367675732
 31
0.0
  0
LINE
  5
E8
100
AcDbEntity
  8
STAP_DN100_20-80
  6
CONTINUOUS
 62
         7
100
AcDbLine
 10
336.0241985894
 20
77.4505351431
 30
0.0
 11
351.0040689087
 21
86.0991673043
 31
0.0
  0
LINE
  5
E9
100
AcDbEntity
  8
STAP_DN100_20-80
  6
CONTINUOUS
 62
         7
100
AcDbLine
 10
327.8681421156
 20
72.7416337424
 30
0.0
 11
336.0241985894
 21
77.4505351431
 31
0.0
  0
LINE
  5
EA
100
AcDbEntity
  8
STAP_DN100_20-80
  6
CONTINUOUS
 62
         7
100
AcDbLine
 10
381.3065700442
 20
85.3640968169
 30
0.0
 11
381.6614086578
 21
85.5689629861
 31
0.0
  0
LINE
  5
EB
100
AcDbEntity
  8
STAP_DN100_20-80
  6
CONTINUOUS
 62
         7
100
AcDbLine
 10
373.4126499025
 20
99.0367675732
 30
0.0
 11
373.7674885162
 21
99.2416337424
 31
0.0
  0
LINE
  5
EC
100
AcDbEntity
  8
STAP_DN100_20-80
  6
CONTINUOUS
 62
         7
100
AcDbLine
 10
276.1761640699
 20
85.2747660613
 30
0.0
 11
330.7357645083
 21
116.7747660613
 31
0.0
  0
LINE
  5
ED
100
AcDbEntity
  8
STAP_DN100_20-80
  6
CONTINUOUS
 62
         7
100
AcDbLine
 10
171.895738585
 20
168.2513010954
 30
0.0
 11
311.1710092937
 21
248.6619161305
 31
0.0
  0
LINE
  5
EE
100
AcDbEntity
  8
STAP_DN100_20-80
  6
CONTINUOUS
 62
         7
100
AcDbLine
 10
147.451500122
 20
177.2324242062
 30
0.0
 11
315.4604284562
 21
274.2324242062
 31
0.0
  0
LINE
  5
EF
100
AcDbEntity
  8
STAP_DN100_20-80
  6
CONTINUOUS
 62
         7
100
AcDbLine
 10
151.201500122
 20
170.7372336778
 30
0.0
 11
319.2104284562
 21
267.7372336778
 31
0.0
  0
LINE
  5
F0
100
AcDbEntity
  8
STAP_DN100_20-80
  6
CONTINUOUS
 62
         7
100
AcDbLine
 10
373.4126499025
 20
99.0367675732
 30
0.0
 11
381.3065700442
 21
85.3640968169
 31
0.0
  0
LINE
  5
F1
100
AcDbEntity
  8
STAP_DN100_20-80
  6
CONTINUOUS
 62
         7
100
AcDbLine
 10
351.0040689087
 20
86.0991673043
 30
0.0
 11
361.7305291931
 21
67.5203931064
 31
0.0
  0
LINE
  5
F2
100
AcDbEntity
  8
STAP_DN100_20-80
  6
CONTINUOUS
 62
         7
100
AcDbLine
 10
336.0241985894
 20
77.4505351431
 30
0.0
 11
346.7506588738
 21
58.8717609451
 31
0.0
  0
ELLIPSE
  5
F3
100
AcDbEntity
  8
STAP_DN100_20-80
  6
CONTINUOUS
 62
         7
100
AcDbEllipse
 10
242.2911461241
 20
225.4063262831
 30
0.0
 11
99.087356175438728
 21
-171.62433529334737
 31
0.0
210
0.0
220
0.0
230
1.0
 40
0.9396926208
 41
0.1319155938258772
 42
0.2738920925437808
  0
LINE
  5
F4
100
AcDbEntity
  8
STAP_DN100_20-80
  6
CONTINUOUS
 62
         7
100
AcDbLine
 10
361.7305291931
 20
67.5203931064
 30
0.0
 11
346.7506588738
 21
58.8717609451
 31
0.0
  0
ELLIPSE
  5
F5
100
AcDbEntity
  8
STAP_DN100_20-80
  6
CONTINUOUS
 62
         7
100
AcDbEllipse
 10
256.2450710679
 20
233.462628603
 30
0.0
 11
99.087356178867608
 21
-171.62433528865017
 31
0.0
210
0.0
220
0.0
230
1.0
 40
0.3420201433
 41
6.0092932146568083
 42
6.1512697133754903
  0
ELLIPSE
  5
F6
100
AcDbEntity
  8
STAP_DN100_20-80
  6
CONTINUOUS
 62
         7
100
AcDbEllipse
 10
226.3207824556
 20
216.1858325253
 30
0.0
 11
99.087356179768847
 21
-171.624335296064
 31
0.0
210
0.0
220
0.0
230
1.0
 40
0.9396926208
 41
6.0092932146742575
 42
6.1512697133903869
  0
LINE
  5
F7
100
AcDbEntity
  8
STAP_DN100_20-80
  6
CONTINUOUS
 62
         7
100
AcDbLine
 10
327.8681421156
 20
72.7416337424
 30
0.0
 11
335.7620622573
 21
59.0689629861
 31
0.0
  0
LINE
  5
F8
100
AcDbEntity
  8
STAP_DN100_20-80
  6
CONTINUOUS
 62
         7
100
AcDbLine
 10
270.1992786757
 20
39.4464999115
 30
0.0
 11
292.6078596694
 21
52.3841001804
 31
0.0
  0
LINE
  5
F9
100
AcDbEntity
  8
STAP_DN100_20-80
  6
CONTINUOUS
 62
         7
100
AcDbLine
 10
270.1992786757
 20
39.4464999115
 30
0.0
 11
278.0931988174
 21
25.7738291552
 31
0.0
  0
LINE
  5
FA
100
AcDbEntity
  8
STAP_DN100_20-80
  6
CONTINUOUS
 62
         7
100
AcDbLine
 10
292.6078596694
 20
52.3841001804
 30
0.0
 11
307.5877299887
 21
61.0327323416
 31
0.0
  0
LINE
  5
FB
100
AcDbEntity
  8
STAP_DN100_20-80
  6
CONTINUOUS
 62
         7
100
AcDbLine
 10
292.6078596694
 20
52.3841001804
 30
0.0
 11
303.3343199538
 21
33.8053259825
 31
0.0
  0
LINE
  5
FC
100
AcDbEntity
  8
STAP_DN100_20-80
  6
CONTINUOUS
 62
         7
100
AcDbLine
 10
307.5877299887
 20
61.0327323416
 30
0.0
 11
315.7437864626
 21
65.7416337424
 31
0.0
  0
LINE
  5
FD
100
AcDbEntity
  8
STAP_DN100_20-80
  6
CONTINUOUS
 62
         7
100
AcDbLine
 10
307.5877299887
 20
61.0327323416
 30
0.0
 11
318.3141902731
 21
42.4539581437
 31
0.0
  0
ELLIPSE
  5
FE
100
AcDbEntity
  8
STAP_DN100_20-80
  6
CONTINUOUS
 62
         7
100
AcDbEllipse
 10
212.3668575136
 20
208.1295302
 30
0.0
 11
99.087356180240107
 21
-171.62433529212234
 31
0.0
210
0.0
220
0.0
230
1.0
 40
0.3420201433
 41
0.1319155938024021
 42
0.2738920925198258
  0
LINE
  5
FF
100
AcDbEntity
  8
STAP_DN100_20-80
  6
CONTINUOUS
 62
         7
100
AcDbLine
 10
318.3141902731
 20
42.4539581437
 30
0.0
 11
303.3343199538
 21
33.8053259825
 31
0.0
  0
LINE
  5
100
100
AcDbEntity
  8
STAP_DN100_20-80
  6
CONTINUOUS
 62
         7
100
AcDbLine
 10
315.7437864626
 20
65.7416337424
 30
0.0
 11
323.6377066043
 21
52.068962986
 31
0.0
  0
LINE
  5
101
100
AcDbEntity
  8
STAP_DN100_20-80
  6
CONTINUOUS
 62
         7
100
AcDbLine
 10
338.0439406101
 20
78.6166337424
 30
0.0
 11
329.0439406101
 21
94.2050910105
 31
0.0
  0
LINE
  5
102
100
AcDbEntity
  8
STAP_DN100_20-80
  6
CONTINUOUS
 62
         7
100
AcDbLine
 10
305.5679879681
 20
59.8666337424
 30
0.0
 11
296.5679879681
 21
75.4550910105
 31
0.0
  0
LINE
  5
103
100
AcDbEntity
  8
STAP_DN100_20-80
  6
CONTINUOUS
 62
         7
100
AcDbLine
 10
321.8059642891
 20
69.2416337424
 30
0.0
 11
312.8059642891
 21
84.8300910105
 31
0.0
  0
LINE
  5
104
100
AcDbEntity
  8
STAP_DN100_20-80
  6
CONTINUOUS
 62
         7
100
AcDbLine
 10
329.0439406101
 20
94.2050910105
 30
0.0
 11
312.8059642891
 21
84.8300910105
 31
0.0
  0
LINE
  5
105
100
AcDbEntity
  8
STAP_DN100_20-80
  6
CONTINUOUS
 62
         7
100
AcDbLine
 10
312.8059642891
 20
84.8300910105
 30
0.0
 11
296.5679879681
 21
75.4550910105
 31
0.0
  0
LINE
  5
106
100
AcDbEntity
  8
STAP_DN100_20-80
  6
CONTINUOUS
 62
         7
100
AcDbLine
 10
279.5687469542
 20
90.6975763179
 30
0.0
 11
273.6657108312
 21
87.2894568233
 31
0.0
  0
LINE
  5
107
100
AcDbEntity
  8
STAP_DN100_20-80
  6
CONTINUOUS
 62
         7
100
AcDbLine
 10
243.3125888051
 20
69.7650736508
 30
0.0
 11
238.3030971109
 21
66.8728422726
 31
0.0
  0
LINE
  5
108
100
AcDbEntity
  8
STAP_DN100_20-80
  6
CONTINUOUS
 62
         7
100
AcDbLine
 10
360.5550356605
 20
137.4550319032
 30
0.0
 11
330.2019136345
 21
119.9306487307
 31
0.0
  0
LINE
  5
109
100
AcDbEntity
  8
STAP_DN100_20-80
  6
CONTINUOUS
 62
         7
100
AcDbLine
 10
316.0737713287
 20
144.401309021
 30
0.0
 11
330.2019136345
 21
119.9306487307
 31
0.0
  0
LINE
  5
10A
100
AcDbEntity
  8
STAP_DN100_20-80
  6
CONTINUOUS
 62
         7
100
AcDbLine
 10
330.2019136345
 20
119.9306487307
 30
0.0
 11
324.343181624
 21
116.5481082273
 31
0.0
  0
LINE
  5
10B
100
AcDbEntity
  8
STAP_DN100_20-80
  6
CONTINUOUS
 62
         7
100
AcDbLine
 10
259.4895337467
 20
111.8433157907
 30
0.0
 11
273.6657108312
 21
87.2894568233
 31
0.0
  0
LINE
  5
10C
100
AcDbEntity
  8
STAP_DN100_20-80
  6
CONTINUOUS
 62
         7
100
AcDbLine
 10
273.6657108312
 20
87.2894568233
 30
0.0
 11
243.3125888051
 21
69.7650736508
 31
0.0
  0
LINE
  5
10D
100
AcDbEntity
  8
STAP_DN100_20-80
  6
CONTINUOUS
 62
         7
100
AcDbLine
 10
312.4482113984
 20
232.3474212286
 30
0.0
 11
365.5645273547
 21
140.3472632813
 31
0.0
  0
LINE
  5
10E
100
AcDbEntity
  8
STAP_DN100_20-80
  6
CONTINUOUS
 62
         7
100
AcDbLine
 10
185.1320497131
 20
158.9677978573
 30
0.0
 11
238.3030971109
 21
66.8728422726
 31
0.0
  0
ARC
  5
10F
100
AcDbEntity
  8
STAP_DN100_20-80
  6
CONTINUOUS
 62
         7
100
AcDbCircle
 10
532.3577498013
 20
547.5534626057
 30
0.0
 40
514.1015418868
100
AcDbArc
 50
237.9426965025
 51
239.522978424
  0
LINE
  5
110
100
AcDbEntity
  8
STAP_DN100_20-80
  6
CONTINUOUS
 62
         7
100
AcDbLine
 10
271.6091665067
 20
104.4839740599
 30
0.0
 11
316.3836011765
 21
130.3345059693
 31
0.0
  0
LINE
  5
111
100
AcDbEntity
  8
STAP_DN100_20-80
  6
CONTINUOUS
 62
         7
100
AcDbLine
 10
316.0737713287
 20
144.401309021
 30
0.0
 11
316.3836011765
 21
130.3345059693
 31
0.0
  0
LINE
  5
112
100
AcDbEntity
  8
STAP_DN100_20-80
  6
CONTINUOUS
 62
         7
100
AcDbLine
 10
365.5645273547
 20
140.3472632813
 30
0.0
 11
360.5550356605
 21
137.4550319032
 31
0.0
  0
ARC
  5
113
100
AcDbEntity
  8
STAP_DN100_20-80
  6
CONTINUOUS
 62
         7
100
AcDbCircle
 10
144.9559642891
 20
375.5548190609
 30
0.0
 40
55.8905179793
100
AcDbArc
 50
45.0300753242
 51
79.7583897449
  0
SPLINE
  5
114
100
AcDbEntity
  8
STAP_DN100_20-80
  6
CONTINUOUS
 62
         7
100
AcDbSpline
210
0.0
220
0.0
230
1.0
 70
         8
 71
         3
 72
         8
 73
         4
 74
         0
 42
0.0
 43
0.0
 40
0.0
 40
0.0
 40
0.0
 40
0.0
 40
1.0
 40
1.0
 40
1.0
 40
1.0
 10
184.45577823765225
 20
415.09612275752829
 30
0.0
 10
192.26786934107437
 20
407.29222869520737
 30
0.0
 10
200.07932159203295
 20
399.48769505505146
 30
0.0
 10
207.89036615134
 20
391.68275349571951
 30
0.0
  0
LINE
  5
115
100
AcDbEntity
  8
STAP_DN100_20-80
  6
CONTINUOUS
 62
         7
100
AcDbLine
 10
351.2059642891
 20
242.0548190609
 30
0.0
 11
364.7059642891
 21
242.0548190609
 31
0.0
  0
LINE
  5
116
100
AcDbEntity
  8
STAP_DN100_20-80
  6
CONTINUOUS
 62
         7
100
AcDbLine
 10
351.2059642891
 20
243.0548190609
 30
0.0
 11
364.7059642891
 21
243.0548190609
 31
0.0
  0
LINE
  5
117
100
AcDbEntity
  8
STAP_DN100_20-80
  6
CONTINUOUS
 62
         7
100
AcDbLine
 10
351.1059642891
 20
246.0548190609
 30
0.0
 11
364.8059642891
 21
246.0548190609
 31
0.0
  0
LINE
  5
118
100
AcDbEntity
  8
STAP_DN100_20-80
  6
CONTINUOUS
 62
         7
100
AcDbLine
 10
351.9559642891
 20
240.5548190609
 30
0.0
 11
363.9559642891
 21
240.5548190609
 31
0.0
  0
LINE
  5
119
100
AcDbEntity
  8
STAP_DN100_20-80
  6
CONTINUOUS
 62
         7
100
AcDbLine
 10
351.0559642891
 20
234.0548190609
 30
0.0
 11
364.8559642891
 21
234.0548190609
 31
0.0
  0
LINE
  5
11A
100
AcDbEntity
  8
STAP_DN100_20-80
  6
CONTINUOUS
 62
         7
100
AcDbLine
 10
351.0559642891
 20
239.6548190609
 30
0.0
 11
364.8559642891
 21
239.6548190609
 31
0.0
  0
LINE
  5
11B
100
AcDbEntity
  8
STAP_DN100_20-80
  6
CONTINUOUS
 62
         7
100
AcDbLine
 10
165.7549923736
 20
179.1396963469
 30
0.0
 11
169.7549923736
 21
172.2114931167
 31
0.0
  0
ARC
  5
11C
100
AcDbEntity
  8
STAP_DN100_20-80
  6
CONTINUOUS
 62
         7
100
AcDbCircle
 10
114.8380534621
 20
94.2456457452
 30
0.0
 40
93.4473994041
100
AcDbArc
 50
50.7200812879
 51
52.3681045929
  0
LINE
  5
11D
100
AcDbEntity
  8
STAP_DN100_20-80
  6
CONTINUOUS
 62
         7
100
AcDbLine
 10
162.4287414579
 20
170.2910812551
 30
0.0
 11
163.428741458
 21
168.5590304475
 31
0.0
  0
LINE
  5
11E
100
AcDbEntity
  8
STAP_DN100_20-80
  6
CONTINUOUS
 62
         7
100
AcDbLine
 10
166.928741458
 20
162.496852621
 30
0.0
 11
163.428741458
 21
168.5590304475
 31
0.0
  0
LINE
  5
11F
100
AcDbEntity
  8
STAP_DN100_20-80
  6
CONTINUOUS
 62
         7
100
AcDbLine
 10
310.8960092937
 20
249.1382301026
 30
0.0
 11
313.0434642891
 21
250.3780638222
 31
0.0
  0
LINE
  5
120
100
AcDbEntity
  8
STAP_DN100_20-80
  6
CONTINUOUS
 62
         7
100
AcDbLine
 10
306.9460092937
 20
255.9798307925
 30
0.0
 11
307.3507883028
 21
256.2135300623
 31
0.0
  0
LINE
  5
121
100
AcDbEntity
  8
STAP_DN100_20-80
  6
CONTINUOUS
 62
         7
100
AcDbLine
 10
308.9210092937
 20
252.5590304475
 30
0.0
 11
312.0559642891
 21
254.368997558
 31
0.0
  0
LINE
  5
122
100
AcDbEntity
  8
STAP_DN100_20-80
  6
CONTINUOUS
 62
         7
100
AcDbLine
 10
313.0434642891
 20
250.3780638222
 30
0.0
 11
312.0559642891
 21
254.368997558
 31
0.0
  0
LINE
  5
123
100
AcDbEntity
  8
STAP_DN100_20-80
  6
CONTINUOUS
 62
         7
100
AcDbLine
 10
312.0559642891
 20
254.368997558
 30
0.0
 11
310.5559642891
 21
255.812373231
 31
0.0
  0
LINE
  5
124
100
AcDbEntity
  8
STAP_DN100_20-80
  6
CONTINUOUS
 62
         7
100
AcDbLine
 10
164.0181008119
 20
164.3382301026
 30
0.0
 11
159.3415636315
 21
161.6382301026
 31
0.0
  0
LINE
  5
125
100
AcDbEntity
  8
STAP_DN100_20-80
  6
CONTINUOUS
 62
         7
100
AcDbLine
 10
162.0431008119
 20
167.7590304475
 30
0.0
 11
157.3665636315
 21
165.0590304475
 31
0.0
  0
LINE
  5
126
100
AcDbEntity
  8
STAP_DN100_20-80
  6
CONTINUOUS
 62
         7
100
AcDbLine
 10
158.4508862375
 20
170.2461315226
 30
0.0
 11
155.3915636315
 21
168.4798307925
 31
0.0
  0
LINE
  5
127
100
AcDbEntity
  8
STAP_DN100_20-80
  6
CONTINUOUS
 62
         7
100
AcDbLine
 10
162.0431008119
 20
167.7590304475
 30
0.0
 11
164.0181008119
 21
164.3382301026
 31
0.0
  0
LINE
  5
128
100
AcDbEntity
  8
STAP_DN100_20-80
  6
CONTINUOUS
 62
         7
100
AcDbLine
 10
161.0431008119
 20
169.4910812551
 30
0.0
 11
162.0431008119
 21
167.7590304475
 31
0.0
  0
LINE
  5
129
100
AcDbEntity
  8
STAP_DN100_20-80
  6
CONTINUOUS
 62
         7
100
AcDbLine
 10
231.2771896832
 20
75.8420709067
 30
0.0
 11
226.6006525028
 21
73.1420709067
 31
0.0
  0
LINE
  5
12A
100
AcDbEntity
  8
STAP_DN100_20-80
  6
CONTINUOUS
 62
         7
100
AcDbLine
 10
157.3665636315
 20
165.0590304475
 30
0.0
 11
159.3415636315
 21
161.6382301026
 31
0.0
  0
LINE
  5
12B
100
AcDbEntity
  8
STAP_DN100_20-80
  6
CONTINUOUS
 62
         7
100
AcDbLine
 10
155.3915636315
 20
168.4798307925
 30
0.0
 11
157.3665636315
 21
165.0590304475
 31
0.0
  0
LINE
  5
12C
100
AcDbEntity
  8
STAP_DN100_20-80
  6
CONTINUOUS
 62
         7
100
AcDbLine
 10
230.1369229016
 20
77.8170709067
 30
0.0
 11
231.2771896832
 21
75.8420709067
 31
0.0
  0
LINE
  5
12D
100
AcDbEntity
  8
STAP_DN100_20-80
  6
CONTINUOUS
 62
         7
100
AcDbLine
 10
230.1369229016
 20
77.8170709067
 30
0.0
 11
225.4603857211
 21
75.1170709067
 31
0.0
  0
LINE
  5
12E
100
AcDbEntity
  8
STAP_DN100_20-80
  6
CONTINUOUS
 62
         7
100
AcDbLine
 10
234.6979900282
 20
69.9170709067
 30
0.0
 11
230.0214528477
 21
67.2170709067
 31
0.0
  0
LINE
  5
12F
100
AcDbEntity
  8
STAP_DN100_20-80
  6
CONTINUOUS
 62
         7
100
AcDbLine
 10
233.5577232465
 20
71.8920709067
 30
0.0
 11
228.8811860661
 21
69.1920709067
 31
0.0
  0
LINE
  5
130
100
AcDbEntity
  8
STAP_DN100_20-80
  6
CONTINUOUS
 62
         7
100
AcDbLine
 10
225.4603857211
 20
75.1170709067
 30
0.0
 11
226.6006525028
 21
73.1420709067
 31
0.0
  0
LINE
  5
131
100
AcDbEntity
  8
STAP_DN100_20-80
  6
CONTINUOUS
 62
         7
100
AcDbLine
 10
233.5577232465
 20
71.8920709067
 30
0.0
 11
234.6979900282
 21
69.9170709067
 31
0.0
  0
LINE
  5
132
100
AcDbEntity
  8
STAP_DN100_20-80
  6
CONTINUOUS
 62
         7
100
AcDbLine
 10
228.8811860661
 20
69.1920709067
 30
0.0
 11
230.0214528477
 21
67.2170709067
 31
0.0
  0
LINE
  5
133
100
AcDbEntity
  8
STAP_DN100_20-80
  6
CONTINUOUS
 62
         7
100
AcDbLine
 10
231.2771896832
 20
75.8420709067
 30
0.0
 11
233.5577232465
 21
71.8920709067
 31
0.0
  0
LINE
  5
134
100
AcDbEntity
  8
STAP_DN100_20-80
  6
CONTINUOUS
 62
         7
100
AcDbLine
 10
360.21393855
 20
152.9170709067
 30
0.0
 11
364.8904757304
 21
155.6170709067
 31
0.0
  0
LINE
  5
135
100
AcDbEntity
  8
STAP_DN100_20-80
  6
CONTINUOUS
 62
         7
100
AcDbLine
 10
364.7750056766
 20
145.0170709067
 30
0.0
 11
369.451542857
 21
147.7170709067
 31
0.0
  0
LINE
  5
136
100
AcDbEntity
  8
STAP_DN100_20-80
  6
CONTINUOUS
 62
         7
100
AcDbLine
 10
361.3542053317
 20
150.9420709067
 30
0.0
 11
366.0307425121
 21
153.6420709067
 31
0.0
  0
LINE
  5
137
100
AcDbEntity
  8
STAP_DN100_20-80
  6
CONTINUOUS
 62
         7
100
AcDbLine
 10
363.634738895
 20
146.9920709067
 30
0.0
 11
368.3112760754
 21
149.6920709067
 31
0.0
  0
LINE
  5
138
100
AcDbEntity
  8
STAP_DN100_20-80
  6
CONTINUOUS
 62
         7
100
AcDbLine
 10
226.6006525028
 20
73.1420709067
 30
0.0
 11
228.8811860661
 21
69.1920709067
 31
0.0
  0
LINE
  5
139
100
AcDbEntity
  8
STAP_DN100_20-80
  6
CONTINUOUS
 62
         7
100
AcDbLine
 10
361.3542053317
 20
150.9420709067
 30
0.0
 11
360.21393855
 21
152.9170709067
 31
0.0
  0
LINE
  5
13A
100
AcDbEntity
  8
STAP_DN100_20-80
  6
CONTINUOUS
 62
         7
100
AcDbLine
 10
366.0307425121
 20
153.6420709067
 30
0.0
 11
364.8904757304
 21
155.6170709067
 31
0.0
  0
LINE
  5
13B
100
AcDbEntity
  8
STAP_DN100_20-80
  6
CONTINUOUS
 62
         7
100
AcDbLine
 10
364.7750056766
 20
145.0170709067
 30
0.0
 11
363.634738895
 21
146.9920709067
 31
0.0
  0
LINE
  5
13C
100
AcDbEntity
  8
STAP_DN100_20-80
  6
CONTINUOUS
 62
         7
100
AcDbLine
 10
363.634738895
 20
146.9920709067
 30
0.0
 11
361.3542053317
 21
150.9420709067
 31
0.0
  0
LINE
  5
13D
100
AcDbEntity
  8
STAP_DN100_20-80
  6
CONTINUOUS
 62
         7
100
AcDbLine
 10
363.0338314673
 20
144.8328731021
 30
0.0
 11
359.1838314673
 21
151.5012687112
 31
0.0
  0
LINE
  5
13E
100
AcDbEntity
  8
STAP_DN100_20-80
  6
CONTINUOUS
 62
         7
100
AcDbLine
 10
369.451542857
 20
147.7170709067
 30
0.0
 11
368.3112760754
 21
149.6920709067
 31
0.0
  0
LINE
  5
13F
100
AcDbEntity
  8
STAP_DN100_20-80
  6
CONTINUOUS
 62
         7
100
AcDbLine
 10
368.3112760754
 20
149.6920709067
 30
0.0
 11
366.0307425121
 21
153.6420709067
 31
0.0
  0
LINE
  5
140
100
AcDbEntity
  8
STAP_DN100_20-80
  6
CONTINUOUS
 62
         7
100
AcDbLine
 10
308.3257883028
 20
254.524780525
 30
0.0
 11
316.9860423407
 21
259.524780525
 31
0.0
  0
LINE
  5
141
100
AcDbEntity
  8
STAP_DN100_20-80
  6
CONTINUOUS
 62
         7
100
AcDbLine
 10
288.3769840471
 20
243.0073330179
 30
0.0
 11
297.0372380849
 21
248.0073330179
 31
0.0
  0
LINE
  5
142
100
AcDbEntity
  8
STAP_DN100_20-80
  6
CONTINUOUS
 62
         7
100
AcDbLine
 10
213.9270330144
 20
200.023633748
 30
0.0
 11
222.5872870523
 21
205.023633748
 31
0.0
  0
LINE
  5
143
100
AcDbEntity
  8
STAP_DN100_20-80
  6
CONTINUOUS
 62
         7
100
AcDbLine
 10
253.8246415259
 20
223.0585287622
 30
0.0
 11
262.4848955637
 21
228.0585287622
 31
0.0
  0
LINE
  5
144
100
AcDbEntity
  8
STAP_DN100_20-80
  6
CONTINUOUS
 62
         7
100
AcDbLine
 10
159.4258862375
 20
168.5573819852
 30
0.0
 11
168.0861402753
 21
173.5573819852
 31
0.0
  0
LINE
  5
145
100
AcDbEntity
  8
STAP_DN100_20-80
  6
CONTINUOUS
 62
         7
100
AcDbLine
 10
179.3746904932
 20
180.0748294923
 30
0.0
 11
188.0349445311
 21
185.0748294923
 31
0.0
  0
ARC
  5
146
100
AcDbEntity
  8
STAP_DN100_20-80
  6
CONTINUOUS
 62
         7
100
AcDbCircle
 10
358.174315829
 20
153.973531271
 30
0.0
 40
112.4835334849
100
AcDbArc
 50
94.0877777297
 51
97.2618316015
  0
ARC
  5
147
100
AcDbEntity
  8
STAP_DN100_20-80
  6
CONTINUOUS
 62
         7
100
AcDbCircle
 10
41.9559642883
 20
155.8619787004
 30
0.0
 40
110.0086729596
100
AcDbArc
 50
85.6573325342
 51
94.3426677494
  0
LINE
  5
148
100
AcDbEntity
  8
STAP_DN100_20-80
  6
CONTINUOUS
 62
         7
100
AcDbLine
 10
229.3597310817
 20
404.0780971176
 30
0.0
 11
171.1544395945
 21
370.4732564092
 31
0.0
  0
SPLINE
  5
149
100
AcDbEntity
  8
STAP_DN100_20-80
  6
CONTINUOUS
 62
         7
100
AcDbSpline
210
0.0
220
0.0
230
1.0
 70
         8
 71
         3
 72
        10
 73
         6
 74
         0
 42
0.0
 43
0.0
 40
0.500688502938908
 40
0.500688502938908
 40
0.500688502938908
 40
0.500688502938908
 40
0.75
 40
0.75
 40
1.0
 40
1.0
 40
1.0
 40
1.0
 10
343.95596512444229
 20
312.25481860161932
 30
0.0
 10
343.95616539810737
 20
312.25470864989535
 30
0.0
 10
344.65372004167898
 20
311.71972596948382
 30
0.0
 10
346.94594551270063
 20
309.84462846193549
 30
0.0
 10
348.4882089818804
 20
308.53583498713431
 30
0.0
 10
350.15596428908054
 20
307.03409226966807
 30
0.0
  0
LINE
  5
14A
100
AcDbEntity
  8
STAP_DN100_20-80
  6
CONTINUOUS
 62
         7
100
AcDbLine
 10
229.3597310817
 20
404.0780971176
 30
0.0
 11
276.950809513
 21
431.5548190609
 31
0.0
  0
LINE
  5
14B
100
AcDbEntity
  8
STAP_DN100_20-80
  6
CONTINUOUS
 62
         7
100
AcDbLine
 10
193.9544395945
 20
330.9824979966
 30
0.0
 11
238.7349197918
 21
356.836520293
 31
0.0
  0
ELLIPSE
  5
14C
100
AcDbEntity
  8
STAP_DN100_20-80
  6
CONTINUOUS
 62
         7
100
AcDbEllipse
 10
433.8637291091
 20
375.5548190609
 30
0.0
 11
220.87180884525961
 21
-8.7458789051013532
 31
0.0
210
0.0
220
0.0
230
1.0
 40
0.2504295784
 41
2.7639884007639179
 42
3.6392260282756159
  0
LINE
  5
14D
100
AcDbEntity
  8
STAP_DN100_20-80
  6
CONTINUOUS
 62
         7
100
AcDbLine
 10
125.8059827939
 20
252.7235599746
 30
0.0
 11
258.8868488632
 21
329.5578338237
 31
0.0
  0
ARC
  5
14E
100
AcDbEntity
  8
STAP_DN100_20-80
  6
CONTINUOUS
 62
         7
100
AcDbCircle
 10
593.4304483567
 20
886.5773218046
 30
0.0
 40
662.4359267943
100
AcDbArc
 50
235.1397670519
 51
237.0726438512
  0
LINE
  5
14F
100
AcDbEntity
  8
STAP_DN100_20-80
  6
CONTINUOUS
 62
         7
100
AcDbLine
 10
171.1544395945
 20
370.4732564092
 30
0.0
 11
97.9320342109
 21
328.1982809503
 31
0.0
  0
LINE
  5
150
100
AcDbEntity
  8
STAP_DN100_20-80
  6
CONTINUOUS
 62
         7
100
AcDbLine
 10
115.0181606204
 20
285.4086160821
 30
0.0
 11
193.9544395945
 21
330.9824979966
 31
0.0
  0
ARC
  5
151
100
AcDbEntity
  8
STAP_DN100_20-80
  6
CONTINUOUS
 62
         7
100
AcDbCircle
 10
125.8681784986
 20
222.9370430031
 30
0.0
 40
113.4256710239
100
AcDbArc
 50
128.0515564183
 51
132.1467373963
  0
ARC
  5
152
100
AcDbEntity
  8
STAP_DN100_20-80
  6
CONTINUOUS
 62
         7
100
AcDbCircle
 10
-60.7053045097
 20
371.7133837156
 30
0.0
 40
164.4973233977
100
AcDbArc
 50
341.5136634737
 51
344.6607467753
  0
LINE
  5
153
100
AcDbEntity
  8
STAP_DN100_20-80
  6
CONTINUOUS
 62
         7
100
AcDbLine
 10
111.8334763558
 20
336.2242823147
 30
0.0
 11
144.9559642891
 21
392.2908945414
 31
0.0
  0
LINE
  5
154
100
AcDbEntity
  8
STAP_DN100_20-80
  6
CONTINUOUS
 62
         7
100
AcDbLine
 10
271.8654956666
 20
323.5410627503
 30
0.0
 11
126.5464329116
 21
239.6410627503
 31
0.0
  0
LINE
  5
155
100
AcDbEntity
  8
STAP_DN100_20-80
  6
CONTINUOUS
 62
         7
100
AcDbLine
 10
310.7774157543
 20
281.3436401384
 30
0.0
 11
143.6345128239
 21
184.8436401384
 31
0.0
  0
LINE
  5
156
100
AcDbEntity
  8
STAP_DN100_20-80
  6
CONTINUOUS
 62
         7
100
AcDbLine
 10
275.2187587054
 20
430.5548190609
 30
0.0
 11
154.8932677463
 21
430.5548190609
 31
0.0
  0
ARC
  5
157
100
AcDbEntity
  8
STAP_DN100_20-80
  6
CONTINUOUS
 62
         7
100
AcDbCircle
 10
357.9559642887
 20
155.762602419
 30
0.0
 40
110.0056968304
100
AcDbArc
 50
86.429910847
 51
93.5700893829
  0
LINE
  5
158
100
AcDbEntity
  8
STAP_DN100_20-80
  6
CONTINUOUS
 62
         7
100
AcDbLine
 10
374.9559642891
 20
452.5548190609
 30
0.0
 11
374.9559642891
 21
298.5548190609
 31
0.0
  0
LINE
  5
159
100
AcDbEntity
  8
STAP_DN100_20-80
  6
CONTINUOUS
 62
         7
100
AcDbLine
 10
372.4559642891
 20
485.5548190609
 30
0.0
 11
372.4559642891
 21
265.5548190609
 31
0.0
  0
LINE
  5
15A
100
AcDbEntity
  8
STAP_DN100_20-80
  6
CONTINUOUS
 62
         7
100
AcDbLine
 10
336.6559642891
 20
431.5548190609
 30
0.0
 11
336.6559642891
 21
319.5548190609
 31
0.0
  0
LINE
  5
15B
100
AcDbEntity
  8
STAP_DN100_20-80
  6
CONTINUOUS
 62
         7
100
AcDbLine
 10
63.2559642891
 20
431.5548190609
 30
0.0
 11
63.2559642891
 21
319.5548190609
 31
0.0
  0
LINE
  5
15C
100
AcDbEntity
  8
STAP_DN100_20-80
  6
CONTINUOUS
 62
         7
100
AcDbLine
 10
350.1559642891
 20
485.5548190609
 30
0.0
 11
350.1559642891
 21
266.1709079953
 31
0.0
  0
LINE
  5
15D
100
AcDbEntity
  8
STAP_DN100_20-80
  6
CONTINUOUS
 62
         7
100
AcDbLine
 10
27.4559642891
 20
485.5548190609
 30
0.0
 11
27.4559642891
 21
265.5548190609
 31
0.0
  0
LINE
  5
15E
100
AcDbEntity
  8
STAP_DN100_20-80
  6
CONTINUOUS
 62
         7
100
AcDbLine
 10
49.7559642891
 20
485.5548190609
 30
0.0
 11
49.7559642891
 21
266.1709079953
 31
0.0
  0
LINE
  5
15F
100
AcDbEntity
  8
STAP_DN100_20-80
  6
CONTINUOUS
 62
         7
100
AcDbLine
 10
233.3466615091
 20
330.5548190609
 30
0.0
 11
255.1660493036
 21
330.5548190609
 31
0.0
  0
LINE
  5
160
100
AcDbEntity
  8
STAP_DN100_20-80
  6
CONTINUOUS
 62
         7
100
AcDbLine
 10
255.1660493036
 20
330.5548190609
 30
0.0
 11
296.2186081868
 21
319.5548190609
 31
0.0
  0
LINE
  5
161
100
AcDbEntity
  8
STAP_DN100_20-80
  6
CONTINUOUS
 62
         7
100
AcDbLine
 10
24.9559642891
 20
452.5548190609
 30
0.0
 11
24.9559642891
 21
298.5548190609
 31
0.0
  0
ARC
  5
162
100
AcDbEntity
  8
STAP_DN100_20-80
  6
CONTINUOUS
 62
         7
100
AcDbCircle
 10
41.7376127491
 20
153.973531271
 30
0.0
 40
112.4835334849
100
AcDbArc
 50
82.7381683985
 51
85.9122222703
  0
LINE
  5
163
100
AcDbEntity
  8
STAP_DN100_20-80
  6
CONTINUOUS
 62
         7
100
AcDbLine
 10
278.0931988174
 20
25.7738291552
 30
0.0
 11
277.7383602037
 21
25.5689629861
 31
0.0
  0
LINE
  5
164
100
AcDbEntity
  8
STAP_DN100_20-80
  6
CONTINUOUS
 62
         7
100
AcDbLine
 10
323.6377066043
 20
52.068962986
 30
0.0
 11
335.7620622573
 21
59.0689629861
 31
0.0
  0
LINE
  5
165
100
AcDbEntity
  8
STAP_DN100_20-80
  6
CONTINUOUS
 62
         7
100
AcDbLine
 10
270.1992786757
 20
39.4464999115
 30
0.0
 11
269.844440062
 21
39.2416337423
 31
0.0
  0
LINE
  5
166
100
AcDbEntity
  8
STAP_DN100_20-80
  6
CONTINUOUS
 62
         7
100
AcDbLine
 10
315.7437864626
 20
65.7416337424
 30
0.0
 11
327.8681421156
 21
72.7416337424
 31
0.0
  0
LINE
  5
167
100
AcDbEntity
  8
STAP_DN100_20-80
  6
CONTINUOUS
 62
         7
100
AcDbLine
 10
343.9559642891
 20
265.5548190609
 30
0.0
 11
351.1059642891
 21
265.5548190609
 31
0.0
  0
LINE
  5
168
100
AcDbEntity
  8
STAP_DN100_20-80
  6
CONTINUOUS
 62
         7
100
AcDbLine
 10
27.4559642891
 20
265.5548190609
 30
0.0
 11
33.6259642891
 21
265.5548190609
 31
0.0
  0
LINE
  5
169
100
AcDbEntity
  8
STAP_DN100_20-80
  6
CONTINUOUS
 62
         7
100
AcDbLine
 10
168.0861402753
 20
173.5573819852
 30
0.0
 11
165.0861402753
 21
178.753534408
 31
0.0
  0
LINE
  5
16A
100
AcDbEntity
  8
STAP_DN100_20-80
  6
CONTINUOUS
 62
         7
100
AcDbLine
 10
297.0372380849
 20
248.0073330179
 30
0.0
 11
294.0372380849
 21
253.2034854406
 31
0.0
  0
LINE
  5
16B
100
AcDbEntity
  8
STAP_DN100_20-80
  6
CONTINUOUS
 62
         7
100
AcDbLine
 10
188.0349445311
 20
185.0748294923
 30
0.0
 11
185.0349445311
 21
190.270981915
 31
0.0
  0
LINE
  5
16C
100
AcDbEntity
  8
STAP_DN100_20-80
  6
CONTINUOUS
 62
         7
100
AcDbLine
 10
222.5872870523
 20
205.023633748
 30
0.0
 11
219.5872870523
 21
210.2197861708
 31
0.0
  0
LINE
  5
16D
100
AcDbEntity
  8
STAP_DN100_20-80
  6
CONTINUOUS
 62
         7
100
AcDbLine
 10
262.4848955637
 20
228.0585287622
 30
0.0
 11
259.4848955637
 21
233.2546811849
 31
0.0
  0
LINE
  5
16E
100
AcDbEntity
  8
STAP_DN100_20-80
  6
CONTINUOUS
 62
         7
100
AcDbLine
 10
316.9860423407
 20
259.524780525
 30
0.0
 11
313.9860423407
 21
264.7209329477
 31
0.0
  0
LINE
  5
16F
100
AcDbEntity
  8
STAP_DN100_20-80
  6
CONTINUOUS
 62
         7
100
AcDbLine
 10
360.5694721133
 20
152.3012687112
 30
0.0
 11
359.1838314673
 21
151.5012687112
 31
0.0
  0
LINE
  5
170
100
AcDbEntity
  8
STAP_DN100_20-80
  6
CONTINUOUS
 62
         7
100
AcDbLine
 10
234.3424564649
 20
70.5328731021
 30
0.0
 11
235.7280971109
 21
71.3328731021
 31
0.0
  0
LINE
  5
171
100
AcDbEntity
  8
STAP_DN100_20-80
  6
CONTINUOUS
 62
         7
100
AcDbLine
 10
163.9681008119
 20
164.424832643
 30
0.0
 11
165.353741458
 21
165.224832643
 31
0.0
  0
LINE
  5
172
100
AcDbEntity
  8
STAP_DN100_20-80
  6
CONTINUOUS
 62
         7
100
AcDbLine
 10
324.9303199421
 20
91.8300910105
 30
0.0
 11
315.5803199421
 21
108.0247660613
 31
0.0
  0
LINE
  5
173
100
AcDbEntity
  8
STAP_DN100_20-80
  6
CONTINUOUS
 62
         7
100
AcDbLine
 10
330.7357645083
 20
116.7747660613
 30
0.0
 11
329.2357645083
 21
119.3728422726
 31
0.0
  0
LINE
  5
174
100
AcDbEntity
  8
STAP_DN100_20-80
  6
CONTINUOUS
 62
         7
100
AcDbLine
 10
319.2104284562
 20
267.7372336778
 30
0.0
 11
315.4604284562
 21
274.2324242062
 31
0.0
  0
LINE
  5
175
100
AcDbEntity
  8
STAP_DN100_20-80
  6
CONTINUOUS
 62
         7
100
AcDbLine
 10
312.6248680011
 20
232.0442350649
 30
0.0
 11
311.1710092937
 21
248.6619161305
 31
0.0
  0
ENDBLK
  5
176
100
AcDbEntity
  8
STAP_DN100_20-80
  6
CONTINUOUS
 62
         7
100
AcDbBlockEnd
  0
BLOCK
  5
274
100
AcDbEntity
  8
0
 62
         1
 48
0.0
100
AcDbBlockBegin
  2
SE2
 70
         0
 10
0.0
 20
0.0
 30
0.0
  3
SE2
  1

  0
ENDBLK
  5
275
100
AcDbEntity
  8
0
 62
         1
 48
0.0
100
AcDbBlockEnd
  0
BLOCK
  5
179
100
AcDbEntity
  8
0
 62
         1
 48
0.0
100
AcDbBlockBegin
  2
SE3
 70
         0
 10
0.0
 20
0.0
 30
0.0
  3
SE3
  1

  0
LINE
  5
17A
100
AcDbEntity
  8
STAP_DN100_20-80
  6
CONTINUOUS
 62
         7
100
AcDbLine
 10
350.1559642891
 20
579.0654316478
 30
0.0
 11
372.4559642891
 21
579.0654316478
 31
0.0
  0
LINE
  5
17B
100
AcDbEntity
  8
STAP_DN100_20-80
  6
CONTINUOUS
 62
         7
100
AcDbLine
 10
115.907154784
 20
745.0654316478
 30
0.0
 11
109.3170534248
 21
745.0654316478
 31
0.0
  0
LINE
  5
17C
100
AcDbEntity
  8
STAP_DN100_20-80
  6
CONTINUOUS
 62
         7
100
AcDbLine
 10
63.2559642891
 20
745.0654316478
 30
0.0
 11
49.7559642891
 21
758.5654316478
 31
0.0
  0
LINE
  5
17D
100
AcDbEntity
  8
STAP_DN100_20-80
  6
CONTINUOUS
 62
         7
100
AcDbLine
 10
27.4559642891
 20
579.0654316478
 30
0.0
 11
49.7559642891
 21
579.0654316478
 31
0.0
  0
LINE
  5
17E
100
AcDbEntity
  8
STAP_DN100_20-80
  6
CONTINUOUS
 62
         7
100
AcDbLine
 10
153.7059642891
 20
618.0654316478
 30
0.0
 11
160.4934663072
 21
618.0654316478
 31
0.0
  0
LINE
  5
17F
100
AcDbEntity
  8
STAP_DN100_20-80
  6
CONTINUOUS
 62
         7
100
AcDbLine
 10
303.7971444801
 20
633.0654316478
 30
0.0
 11
314.6121072796
 21
633.0654316478
 31
0.0
  0
LINE
  5
180
100
AcDbEntity
  8
STAP_DN100_20-80
  6
CONTINUOUS
 62
         7
100
AcDbLine
 10
24.9559642891
 20
612.0654316478
 30
0.0
 11
27.4559642891
 21
612.0654316478
 31
0.0
  0
LINE
  5
181
100
AcDbEntity
  8
STAP_DN100_20-80
  6
CONTINUOUS
 62
         7
100
AcDbLine
 10
337.1744713593
 20
632.5469245776
 30
0.0
 11
350.1559642891
 21
619.5654316478
 31
0.0
  0
LINE
  5
182
100
AcDbEntity
  8
STAP_DN100_20-80
  6
CONTINUOUS
 62
         7
100
AcDbLine
 10
372.4559642891
 20
612.0654316478
 30
0.0
 11
374.9559642891
 21
612.0654316478
 31
0.0
  0
LINE
  5
183
100
AcDbEntity
  8
STAP_DN100_20-80
  6
CONTINUOUS
 62
         7
100
AcDbLine
 10
35.9559642891
 20
711.5654316478
 30
0.0
 11
35.9559642891
 21
702.2658104303
 31
0.0
  0
LINE
  5
184
100
AcDbEntity
  8
STAP_DN100_20-80
  6
CONTINUOUS
 62
         7
100
AcDbLine
 10
160.7560132564
 20
661.0305366337
 30
0.0
 11
163.7560132564
 21
661.0305366337
 31
0.0
  0
LINE
  5
185
100
AcDbEntity
  8
STAP_DN100_20-80
  6
CONTINUOUS
 62
         7
100
AcDbLine
 10
160.7560132564
 20
707.1003266619
 30
0.0
 11
163.7560132564
 21
707.1003266619
 31
0.0
  0
LINE
  5
186
100
AcDbEntity
  8
STAP_DN100_20-80
  6
CONTINUOUS
 62
         7
100
AcDbLine
 10
289.8610908403
 20
746.9979351734
 30
0.0
 11
292.707111066
 21
746.9979351734
 31
0.0
  0
LINE
  5
187
100
AcDbEntity
  8
STAP_DN100_20-80
  6
CONTINUOUS
 62
         7
100
AcDbLine
 10
255.1547685448
 20
770.0328301875
 30
0.0
 11
258.1547685448
 21
770.0328301875
 31
0.0
  0
LINE
  5
188
100
AcDbEntity
  8
STAP_DN100_20-80
  6
CONTINUOUS
 62
         7
100
AcDbLine
 10
215.2571600333
 20
770.0328301875
 30
0.0
 11
218.2571600333
 21
770.0328301875
 31
0.0
  0
LINE
  5
189
100
AcDbEntity
  8
STAP_DN100_20-80
  6
CONTINUOUS
 62
         7
100
AcDbLine
 10
180.7048175122
 20
746.9979351734
 30
0.0
 11
183.7048175122
 21
746.9979351734
 31
0.0
  0
LINE
  5
18A
100
AcDbEntity
  8
STAP_DN100_20-80
  6
CONTINUOUS
 62
         7
100
AcDbLine
 10
289.707111066
 20
621.1329281222
 30
0.0
 11
292.707111066
 21
621.1329281222
 31
0.0
  0
LINE
  5
18B
100
AcDbEntity
  8
STAP_DN100_20-80
  6
CONTINUOUS
 62
         7
100
AcDbLine
 10
255.1547685448
 20
598.0980331081
 30
0.0
 11
258.1547685448
 21
598.0980331081
 31
0.0
  0
LINE
  5
18C
100
AcDbEntity
  8
STAP_DN100_20-80
  6
CONTINUOUS
 62
         7
100
AcDbLine
 10
215.2571600333
 20
598.0980331081
 30
0.0
 11
218.2571600333
 21
598.0980331081
 31
0.0
  0
LINE
  5
18D
100
AcDbEntity
  8
STAP_DN100_20-80
  6
CONTINUOUS
 62
         7
100
AcDbLine
 10
180.7048175122
 20
621.1329281222
 30
0.0
 11
183.7048175122
 21
621.1329281222
 31
0.0
  0
LINE
  5
18E
100
AcDbEntity
  8
STAP_DN100_20-80
  6
CONTINUOUS
 62
         7
100
AcDbLine
 10
233.8030971109
 20
692.9154316478
 30
0.0
 11
233.58659076
 21
692.9154316478
 31
0.0
  0
LINE
  5
18F
100
AcDbEntity
  8
STAP_DN100_20-80
  6
CONTINUOUS
 62
         7
100
AcDbLine
 10
163.428741458
 20
692.9154316478
 30
0.0
 11
162.6589030073
 21
692.9154316478
 31
0.0
  0
LINE
  5
190
100
AcDbEntity
  8
STAP_DN100_20-80
  6
CONTINUOUS
 62
         7
100
AcDbLine
 10
308.7138656627
 20
651.1397837082
 30
0.0
 11
305.252990255
 21
653.4470339799
 31
0.0
  0
LINE
  5
191
100
AcDbEntity
  8
STAP_DN100_20-80
  6
CONTINUOUS
 62
         7
100
AcDbLine
 10
293.9963838416
 20
657.5654316478
 30
0.0
 11
303.4559642891
 21
657.5654316478
 31
0.0
  0
LINE
  5
192
100
AcDbEntity
  8
STAP_DN100_20-80
  6
CONTINUOUS
 62
         7
100
AcDbLine
 10
231.4559642891
 20
592.0654316478
 30
0.0
 11
235.2059642891
 21
592.0654316478
 31
0.0
  0
LINE
  5
193
100
AcDbEntity
  8
STAP_DN100_20-80
  6
CONTINUOUS
 62
         7
100
AcDbLine
 10
329.6998844308
 20
749.0654316478
 30
0.0
 11
321.8059642891
 21
749.0654316478
 31
0.0
  0
LINE
  5
194
100
AcDbEntity
  8
STAP_DN100_20-80
  6
CONTINUOUS
 62
         7
100
AcDbLine
 10
297.7626140113
 20
641.5996728027
 30
0.0
 11
306.7609839205
 21
655.832193954
 31
0.0
  0
LINE
  5
195
100
AcDbEntity
  8
STAP_DN100_20-80
  6
CONTINUOUS
 62
         7
100
AcDbLine
 10
372.4559642891
 20
799.0654316478
 30
0.0
 11
350.1559642891
 21
799.0654316478
 31
0.0
  0
LINE
  5
196
100
AcDbEntity
  8
STAP_DN100_20-80
  6
CONTINUOUS
 62
         7
100
AcDbLine
 10
87.9559642891
 20
745.0654316478
 30
0.0
 11
63.2559642891
 21
745.0654316478
 31
0.0
  0
LINE
  5
197
100
AcDbEntity
  8
STAP_DN100_20-80
  6
CONTINUOUS
 62
         7
100
AcDbLine
 10
49.7559642891
 20
619.5654316478
 30
0.0
 11
63.2559642891
 21
633.0654316478
 31
0.0
  0
LINE
  5
198
100
AcDbEntity
  8
STAP_DN100_20-80
  6
CONTINUOUS
 62
         7
100
AcDbLine
 10
109.3170534248
 20
746.0654316478
 30
0.0
 11
87.9559642891
 21
746.0654316478
 31
0.0
  0
LINE
  5
199
100
AcDbEntity
  8
STAP_DN100_20-80
  6
CONTINUOUS
 62
         7
100
AcDbLine
 10
87.9559642891
 20
632.0654316478
 30
0.0
 11
109.3170534248
 21
632.0654316478
 31
0.0
  0
LINE
  5
19A
100
AcDbEntity
  8
STAP_DN100_20-80
  6
CONTINUOUS
 62
         7
100
AcDbLine
 10
321.8059642891
 20
629.0654316478
 30
0.0
 11
329.6998844308
 21
629.0654316478
 31
0.0
  0
LINE
  5
19B
100
AcDbEntity
  8
STAP_DN100_20-80
  6
CONTINUOUS
 62
         7
100
AcDbLine
 10
241.4559642891
 20
769.5654316478
 30
0.0
 11
235.2059642891
 21
769.5654316478
 31
0.0
  0
LINE
  5
19C
100
AcDbEntity
  8
STAP_DN100_20-80
  6
CONTINUOUS
 62
         7
100
AcDbLine
 10
235.2059642891
 20
608.5654316478
 30
0.0
 11
241.4559642891
 21
608.5654316478
 31
0.0
  0
LINE
  5
19D
100
AcDbEntity
  8
STAP_DN100_20-80
  6
CONTINUOUS
 62
         7
100
AcDbLine
 10
49.7559642891
 20
799.0654316478
 30
0.0
 11
27.4559642891
 21
799.0654316478
 31
0.0
  0
LINE
  5
19E
100
AcDbEntity
  8
STAP_DN100_20-80
  6
CONTINUOUS
 62
         7
100
AcDbLine
 10
160.4934663072
 20
760.0654316478
 30
0.0
 11
153.7059642891
 21
760.0654316478
 31
0.0
  0
LINE
  5
19F
100
AcDbEntity
  8
STAP_DN100_20-80
  6
CONTINUOUS
 62
         7
100
AcDbLine
 10
314.6121072795
 20
745.0654316478
 30
0.0
 11
303.7971444801
 21
745.0654316478
 31
0.0
  0
LINE
  5
1A0
100
AcDbEntity
  8
STAP_DN100_20-80
  6
CONTINUOUS
 62
         7
100
AcDbLine
 10
27.4559642891
 20
766.0654316478
 30
0.0
 11
24.9559642891
 21
766.0654316478
 31
0.0
  0
LINE
  5
1A1
100
AcDbEntity
  8
STAP_DN100_20-80
  6
CONTINUOUS
 62
         7
100
AcDbLine
 10
350.1559642891
 20
758.5654316478
 30
0.0
 11
337.1744713593
 21
745.5839387181
 31
0.0
  0
LINE
  5
1A2
100
AcDbEntity
  8
STAP_DN100_20-80
  6
CONTINUOUS
 62
         7
100
AcDbLine
 10
87.9559642891
 20
746.0654316478
 30
0.0
 11
87.9559642891
 21
746.034751322
 31
0.0
  0
LINE
  5
1A3
100
AcDbEntity
  8
STAP_DN100_20-80
  6
CONTINUOUS
 62
         7
100
AcDbLine
 10
99.9123436446
 20
746.034751322
 30
0.0
 11
87.9559642891
 21
746.034751322
 31
0.0
  0
ELLIPSE
  5
1A4
100
AcDbEntity
  8
STAP_DN100_20-80
  6
CONTINUOUS
 62
         7
100
AcDbEllipse
 10
109.3203260989
 20
689.0654316512
 30
0.0
 11
0.0000001481370304
 21
56.999999996380652
 31
0.0
210
0.0
220
0.0
230
1.0
 40
0.9993438321
 41
0.0000287290716615
 42
0.1098989408412238
  0
LINE
  5
1A5
100
AcDbEntity
  8
STAP_DN100_20-80
  6
CONTINUOUS
 62
         7
100
AcDbLine
 10
103.0727908118
 20
745.7215613221
 30
0.0
 11
99.9123436446
 21
745.7215613221
 31
0.0
  0
LINE
  5
1A6
100
AcDbEntity
  8
STAP_DN100_20-80
  6
CONTINUOUS
 62
         7
100
AcDbLine
 10
374.9559642891
 20
766.0654316478
 30
0.0
 11
372.4559642891
 21
766.0654316478
 31
0.0
  0
LINE
  5
1A7
100
AcDbEntity
  8
STAP_DN100_20-80
  6
CONTINUOUS
 62
         7
100
AcDbLine
 10
99.9123436446
 20
632.0961119736
 30
0.0
 11
99.9123436446
 21
632.4093019735
 31
0.0
  0
LINE
  5
1A8
100
AcDbEntity
  8
STAP_DN100_20-80
  6
CONTINUOUS
 62
         7
100
AcDbLine
 10
87.9559642891
 20
632.0961119736
 30
0.0
 11
99.9123436446
 21
632.0961119736
 31
0.0
  0
LINE
  5
1A9
100
AcDbEntity
  8
STAP_DN100_20-80
  6
CONTINUOUS
 62
         7
100
AcDbLine
 10
87.9559642891
 20
632.0654316478
 30
0.0
 11
87.9559642891
 21
632.0961119736
 31
0.0
  0
ELLIPSE
  5
1AA
100
AcDbEntity
  8
STAP_DN100_20-80
  6
CONTINUOUS
 62
         7
100
AcDbEllipse
 10
109.3203260988
 20
689.0654316429
 30
0.0
 11
0.0000002109120656
 21
-56.999999994858989
 31
0.0
210
0.0
220
0.0
230
1.0
 40
0.9993438321
 41
6.1732863652360201
 42
6.283156576983389
  0
LINE
  5
1AB
100
AcDbEntity
  8
STAP_DN100_20-80
  6
CONTINUOUS
 62
         7
100
AcDbLine
 10
87.9559642891
 20
746.034751322
 30
0.0
 11
87.9559642891
 21
745.0342031561
 31
0.0
  0
LINE
  5
1AC
100
AcDbEntity
  8
STAP_DN100_20-80
  6
CONTINUOUS
 62
         7
100
AcDbLine
 10
109.3186897619
 20
746.0654316242
 30
0.0
 11
109.3186897619
 21
745.0654316239
 31
0.0
  0
LINE
  5
1AD
100
AcDbEntity
  8
STAP_DN100_20-80
  6
CONTINUOUS
 62
         7
100
AcDbLine
 10
103.0727908118
 20
745.7215613221
 30
0.0
 11
103.0727908118
 21
744.7153824984
 31
0.0
  0
LINE
  5
1AE
100
AcDbEntity
  8
STAP_DN100_20-80
  6
CONTINUOUS
 62
         7
100
AcDbLine
 10
99.9123436446
 20
745.7215613221
 30
0.0
 11
99.9123436446
 21
744.7153824984
 31
0.0
  0
LINE
  5
1AF
100
AcDbEntity
  8
STAP_DN100_20-80
  6
CONTINUOUS
 62
         7
100
AcDbLine
 10
99.9123436446
 20
745.7215613221
 30
0.0
 11
99.9123436446
 21
746.034751322
 31
0.0
  0
LINE
  5
1B0
100
AcDbEntity
  8
STAP_DN100_20-80
  6
CONTINUOUS
 62
         7
100
AcDbLine
 10
99.9123436446
 20
632.4093019735
 30
0.0
 11
103.0727908118
 21
632.4093019735
 31
0.0
  0
CIRCLE
  5
1B1
100
AcDbEntity
  8
STAP_DN100_20-80
  6
CONTINUOUS
 62
         7
100
AcDbCircle
 10
41.9559642891
 20
689.0654316478
 30
0.0
 40
6.9
  0
LINE
  5
1B2
100
AcDbEntity
  8
STAP_DN100_20-80
  6
CONTINUOUS
 62
         7
100
AcDbLine
 10
41.9559642891
 20
701.7065157917
 30
0.0
 11
52.9034642891
 21
695.3859737198
 31
0.0
  0
LINE
  5
1B3
100
AcDbEntity
  8
STAP_DN100_20-80
  6
CONTINUOUS
 62
         7
100
AcDbLine
 10
52.9034642891
 20
695.3859737198
 30
0.0
 11
52.9034642891
 21
682.7448895759
 31
0.0
  0
LINE
  5
1B4
100
AcDbEntity
  8
STAP_DN100_20-80
  6
CONTINUOUS
 62
         7
100
AcDbLine
 10
31.0084642891
 20
682.7448895759
 30
0.0
 11
31.0084642891
 21
695.3859737198
 31
0.0
  0
LINE
  5
1B5
100
AcDbEntity
  8
STAP_DN100_20-80
  6
CONTINUOUS
 62
         7
100
AcDbLine
 10
31.0084642891
 20
695.3859737198
 30
0.0
 11
41.9559642891
 21
701.7065157917
 31
0.0
  0
LINE
  5
1B6
100
AcDbEntity
  8
STAP_DN100_20-80
  6
CONTINUOUS
 62
         7
100
AcDbLine
 10
41.9559642891
 20
676.4243475039
 30
0.0
 11
31.0084642891
 21
682.7448895759
 31
0.0
  0
LINE
  5
1B7
100
AcDbEntity
  8
STAP_DN100_20-80
  6
CONTINUOUS
 62
         7
100
AcDbLine
 10
52.9034642891
 20
682.7448895759
 30
0.0
 11
41.9559642891
 21
676.4243475039
 31
0.0
  0
LINE
  5
1B8
100
AcDbEntity
  8
STAP_DN100_20-80
  6
CONTINUOUS
 62
         7
100
AcDbLine
 10
47.9559642891
 20
711.5654316478
 30
0.0
 11
35.9559642891
 21
711.5654316478
 31
0.0
  0
CIRCLE
  5
1B9
100
AcDbEntity
  8
STAP_DN100_20-80
  6
CONTINUOUS
 62
         7
100
AcDbCircle
 10
41.9559642891
 20
689.0654316478
 30
0.0
 40
13.0
  0
CIRCLE
  5
1BA
100
AcDbEntity
  8
STAP_DN100_20-80
  6
CONTINUOUS
 62
         7
100
AcDbCircle
 10
41.9559642891
 20
689.0654316478
 30
0.0
 40
14.5
  0
LINE
  5
1BB
100
AcDbEntity
  8
STAP_DN100_20-80
  6
CONTINUOUS
 62
         7
100
AcDbLine
 10
56.9034642891
 20
680.4354884991
 30
0.0
 11
41.9559642891
 21
671.8055453504
 31
0.0
  0
LINE
  5
1BC
100
AcDbEntity
  8
STAP_DN100_20-80
  6
CONTINUOUS
 62
         7
100
AcDbLine
 10
27.0084642891
 20
680.4354884991
 30
0.0
 11
27.0084642891
 21
697.6953747965
 31
0.0
  0
LINE
  5
1BD
100
AcDbEntity
  8
STAP_DN100_20-80
  6
CONTINUOUS
 62
         7
100
AcDbLine
 10
27.0084642891
 20
697.6953747965
 30
0.0
 11
35.9559642891
 21
702.8612163301
 31
0.0
  0
LINE
  5
1BE
100
AcDbEntity
  8
STAP_DN100_20-80
  6
CONTINUOUS
 62
         7
100
AcDbLine
 10
47.9559642891
 20
702.8612163301
 30
0.0
 11
56.9034642891
 21
697.6953747965
 31
0.0
  0
LINE
  5
1BF
100
AcDbEntity
  8
STAP_DN100_20-80
  6
CONTINUOUS
 62
         7
100
AcDbLine
 10
41.9559642891
 20
671.8055453504
 30
0.0
 11
27.0084642891
 21
680.4354884991
 31
0.0
  0
LINE
  5
1C0
100
AcDbEntity
  8
STAP_DN100_20-80
  6
CONTINUOUS
 62
         7
100
AcDbLine
 10
56.9034642891
 20
697.6953747965
 30
0.0
 11
56.9034642891
 21
680.4354884991
 31
0.0
  0
SPLINE
  5
1C1
100
AcDbEntity
  8
STAP_DN100_20-80
  6
CONTINUOUS
 62
         7
100
AcDbSpline
210
0.0
220
0.0
230
1.0
 70
         8
 71
         3
 72
        12
 73
         8
 74
         0
 42
0.0
 43
0.0
 40
0.0
 40
0.0
 40
0.0
 40
0.0
 40
0.2500000000000002
 40
0.2500000000000002
 40
0.5000000000000004
 40
0.5000000000000004
 40
1.0
 40
1.0
 40
1.0
 40
1.0
 10
169.75499237363923
 20
696.06543164781476
 30
0.0
 10
169.96084082184575
 20
696.06543164781476
 30
0.0
 10
170.16086108872241
 20
696.02939730966364
 30
0.0
 10
170.54998278938041
 20
695.88831185612685
 30
0.0
 10
170.73982851123233
 20
695.78267640028798
 30
0.0
 10
171.28850668090791
 20
695.36079752049409
 30
0.0
 10
171.61126486843165
 20
694.95614027819556
 30
0.0
 10
171.89573858502328
 20
694.42733429519797
 30
0.0
  0
ARC
  5
1C2
100
AcDbEntity
  8
STAP_DN100_20-80
  6
CONTINUOUS
 62
         7
100
AcDbCircle
 10
-465.5269592702
 20
-6509.7877438635
 30
0.0
 40
7217.3610996954
100
AcDbArc
 50
84.2346560624
 51
84.7456180122
  0
ARC
  5
1C3
100
AcDbEntity
  8
STAP_DN100_20-80
  6
CONTINUOUS
 62
         7
100
AcDbCircle
 10
-465.5340465501
 20
7887.9920788061
 30
0.0
 40
7217.4349116465
100
AcDbArc
 50
275.2543846006
 51
275.7653413248
  0
SPLINE
  5
1C4
100
AcDbEntity
  8
STAP_DN100_20-80
  6
CONTINUOUS
 62
         7
100
AcDbSpline
210
0.0
220
0.0
230
1.0
 70
         8
 71
         3
 72
        30
 73
        26
 74
         0
 42
0.0
 43
0.0
 40
0.0
 40
0.0
 40
0.0
 40
0.0
 40
0.0625000000000006
 40
0.0625000000000006
 40
0.0937500000000012
 40
0.0937500000000012
 40
0.1250000000000018
 40
0.1250000000000018
 40
0.1562500000000024
 40
0.1562500000000024
 40
0.187500000000003
 40
0.187500000000003
 40
0.2500000000000018
 40
0.2500000000000018
 40
0.3750000000000015
 40
0.3750000000000015
 40
0.5000000000000011
 40
0.5000000000000011
 40
0.6250000000000008
 40
0.6250000000000008
 40
0.7500000000000006
 40
0.7500000000000006
 40
0.8750000000000002
 40
0.8750000000000002
 40
1.0
 40
1.0
 40
1.0
 40
1.0
 10
185.1320497130568
 20
684.13912906606902
 30
0.0
 10
185.10925134738687
 20
683.8211885919136
 30
0.0
 10
185.1261375633913
 20
683.50519928821518
 30
0.0
 10
185.21044712949222
 20
683.03411544857113
 30
0.0
 10
185.24853258049745
 20
682.87794198798849
 30
0.0
 10
185.34101208837993
 20
682.57584597293737
 30
0.0
 10
185.39559708331163
 20
682.4286645510474
 30
0.0
 10
185.51984089559193
 20
682.14128992606163
 30
0.0
 10
185.58996566063257
 20
682.00036316770752
 30
0.0
 10
185.74091800964021
 20
681.73025809772355
 30
0.0
 10
185.8218286051243
 20
681.60063889950607
 30
0.0
 10
186.07840398349163
 20
681.22564246788295
 30
0.0
 10
186.26778751780981
 20
680.99400204164124
 30
0.0
 10
186.87841830056308
 20
680.34177469590838
 30
0.0
 10
187.32528939301346
 20
679.97889769120354
 30
0.0
 10
188.26003366313824
 20
679.34174245259044
 30
0.0
 10
188.75252391374747
 20
679.06688142385337
 30
0.0
 10
189.74614030629112
 20
678.5916387251167
 30
0.0
 10
190.24971055178443
 20
678.38965572964912
 30
0.0
 10
191.26645549919559
 20
678.03870700264611
 30
0.0
 10
191.77967807157904
 20
677.88996860402938
 30
0.0
 10
192.81369372825048
 20
677.63620343317587
 30
0.0
 10
193.33557198055246
 20
677.5311132724371
 30
0.0
 10
194.37925887579527
 20
677.3601395827634
 30
0.0
 10
194.90113514504785
 20
677.29416079854218
 30
0.0
 10
195.42293088558898
 20
677.24547479498358
 30
0.0
  0
SPLINE
  5
1C5
100
AcDbEntity
  8
STAP_DN100_20-80
  6
CONTINUOUS
 62
         7
100
AcDbSpline
210
0.0
220
0.0
230
1.0
 70
         8
 71
         3
 72
        28
 73
        24
 74
         0
 42
0.0
 43
0.0
 40
0.0
 40
0.0
 40
0.0
 40
0.0
 40
0.2499999999999982
 40
0.2499999999999982
 40
0.3749999999999982
 40
0.3749999999999982
 40
0.4999999999999982
 40
0.4999999999999982
 40
0.6249999999999983
 40
0.6249999999999983
 40
0.7499999999999982
 40
0.7499999999999982
 40
0.8124999999999979
 40
0.8124999999999979
 40
0.8437499999999981
 40
0.8437499999999981
 40
0.8749999999999983
 40
0.8749999999999983
 40
0.9374999999999993
 40
0.9374999999999993
 40
0.9687499999999997
 40
0.9687499999999997
 40
1.0
 40
1.0
 40
1.0
 40
1.0
 10
195.42293088558904
 20
700.88538850064594
 30
0.0
 10
194.37728470471077
 20
700.78782478034691
 30
0.0
 10
193.33748292882544
 20
700.62262725340929
 30
0.0
 10
191.79091485590814
 20
700.24393802891814
 30
0.0
 10
191.27761339362871
 20
700.09565654640346
 30
0.0
 10
190.25700347299838
 20
699.74406966777428
 30
0.0
 10
189.74750185362154
 20
699.53994568051439
 30
0.0
 10
188.7485368831145
 20
699.06200481982989
 30
0.0
 10
188.25950028870361
 20
698.78908630847695
 30
0.0
 10
187.31830735189115
 20
698.14687472502112
 30
0.0
 10
186.87265055635444
 20
697.78350699042278
 30
0.0
 10
186.26617161237718
 20
697.13484252092792
 30
0.0
 10
186.07453370765609
 20
696.90023627525704
 30
0.0
 10
185.81805537258697
 20
696.52436230209378
 30
0.0
 10
185.73738128433121
 20
696.39468926822985
 30
0.0
 10
185.58723028708647
 20
696.12517556853845
 30
0.0
 10
185.51739483992108
 20
695.98437967903897
 30
0.0
 10
185.33207196502053
 20
695.55431378247647
 30
0.0
 10
185.23936827158812
 20
695.25613618742375
 30
0.0
 10
185.15509082177846
 20
694.78852207829402
 30
0.0
 10
185.13623811516607
 20
694.62819966196662
 30
0.0
 10
185.11916112643141
 20
694.30967645626924
 30
0.0
 10
185.12065735261933
 20
694.15060932313827
 30
0.0
 10
185.1320497130568
 20
693.99173422956051
 30
0.0
  0
ARC
  5
1C6
100
AcDbEntity
  8
STAP_DN100_20-80
  6
CONTINUOUS
 62
         7
100
AcDbCircle
 10
116.5052115445
 20
689.0654316478
 30
0.0
 40
68.8034255989
100
AcDbArc
 50
355.8941278394
 51
4.1058721606
  0
ELLIPSE
  5
1C7
100
AcDbEntity
  8
STAP_DN100_20-80
  6
CONTINUOUS
 62
         7
100
AcDbEllipse
 10
301.9559642891
 20
689.0654316478
 30
0.0
 11
0.0000000000003331
 21
-31.499999999990667
 31
0.0
210
0.0
220
0.0
230
1.0
 40
0.8660254038
 41
4.1041434014742642
 42
4.409212937129098
  0
ELLIPSE
  5
1C8
100
AcDbEntity
  8
STAP_DN100_20-80
  6
CONTINUOUS
 62
         7
100
AcDbEllipse
 10
301.9559642891
 20
689.0654316478
 30
0.0
 11
0.0000000000003331
 21
-31.499999999990667
 31
0.0
210
0.0
220
0.0
230
1.0
 40
0.8660254038
 41
5.0155650236408835
 42
5.3206345592950965
  0
LINE
  5
1C9
100
AcDbEntity
  8
STAP_DN100_20-80
  6
CONTINUOUS
 62
         7
100
AcDbLine
 10
315.7437864626
 20
629.4751639861
 30
0.0
 11
307.5877299887
 21
655.3503645239
 31
0.0
  0
ELLIPSE
  5
1CA
100
AcDbEntity
  8
STAP_DN100_20-80
  6
CONTINUOUS
 62
         7
100
AcDbEllipse
 10
321.8059642891
 20
689.0654316478
 30
0.0
 11
-0.0000000000011657
 21
-37.499999999983743
 31
0.0
210
0.0
220
0.0
230
1.0
 40
0.8660254038
 41
5.1655482064504694
 42
5.8300260811148075
  0
LINE
  5
1CB
100
AcDbEntity
  8
STAP_DN100_20-80
  6
CONTINUOUS
 62
         7
100
AcDbLine
 10
292.6078596694
 20
672.6476288464
 30
0.0
 11
270.1992786757
 21
682.0654316478
 31
0.0
  0
ELLIPSE
  5
1CC
100
AcDbEntity
  8
STAP_DN100_20-80
  6
CONTINUOUS
 62
         7
100
AcDbEllipse
 10
329.6998844308
 20
689.0654316478
 30
0.0
 11
0.0000000000185685
 21
59.999999999965468
 31
0.0
210
0.0
220
0.0
230
1.0
 40
0.8660254038
 41
4.5954560189225955
 42
4.8293219418475548
  0
ELLIPSE
  5
1CD
100
AcDbEntity
  8
STAP_DN100_20-80
  6
CONTINUOUS
 62
         7
100
AcDbEllipse
 10
235.2059642891
 20
689.0654316478
 30
0.0
 11
0.0000000000000555
 21
97.000000000004704
 31
0.0
210
0.0
220
0.0
230
1.0
 40
0.8660254038
 41
0.0000000000000003
 42
4.1655750675113925
  0
ELLIPSE
  5
1CE
100
AcDbEntity
  8
STAP_DN100_20-80
  6
CONTINUOUS
 62
         7
100
AcDbEllipse
 10
235.2059642891
 20
689.0654316478
 30
0.0
 11
0.0000000000000555
 21
97.000000000004704
 31
0.0
210
0.0
220
0.0
230
1.0
 40
0.8660254038
 41
5.1715247660558594
 42
6.2831853071795862
  0
ELLIPSE
  5
1CF
100
AcDbEntity
  8
STAP_DN100_20-80
  6
CONTINUOUS
 62
         7
100
AcDbEllipse
 10
231.4559642891
 20
689.0654316478
 30
0.0
 11
-0.000000000000222
 21
-97.000000000005542
 31
0.0
210
0.0
220
0.0
230
1.0
 40
0.8660254038
 41
3.1415926535897931
 42
6.2831853071795862
  0
ELLIPSE
  5
1D0
100
AcDbEntity
  8
STAP_DN100_20-80
  6
CONTINUOUS
 62
         7
100
AcDbEllipse
 10
235.2059642891
 20
689.0654316478
 30
0.0
 11
0.0000000000000416
 21
-80.500000000004178
 31
0.0
210
0.0
220
0.0
230
1.0
 40
0.8660254038
 41
3.1415926535897931
 42
4.6253224980372956
  0
ELLIPSE
  5
1D1
100
AcDbEntity
  8
STAP_DN100_20-80
  6
CONTINUOUS
 62
         7
100
AcDbEllipse
 10
241.4559642891
 20
689.0654316478
 30
0.0
 11
0.0
 21
-80.500000000003453
 31
0.0
210
0.0
220
0.0
230
1.0
 40
0.8660254038
 41
2.2014053496102655
 42
4.6457321441726673
  0
ELLIPSE
  5
1D2
100
AcDbEntity
  8
STAP_DN100_20-80
  6
CONTINUOUS
 62
         7
100
AcDbEllipse
 10
293.9963838416
 20
689.0654316478
 30
0.0
 11
-0.000000000000111
 21
31.499999999990674
 31
0.0
210
0.0
220
0.0
230
1.0
 40
0.8660254038
 41
2.1790419057053092
 42
3.1415926535897913
  0
ELLIPSE
  5
1D3
100
AcDbEntity
  8
STAP_DN100_20-80
  6
CONTINUOUS
 62
         7
100
AcDbEllipse
 10
303.4559642891
 20
689.0654316478
 30
0.0
 11
-0.0000000000000833
 21
31.499999999990731
 31
0.0
210
0.0
220
0.0
230
1.0
 40
0.8660254038
 41
0.0000000000000011
 42
1.2437363658793448
  0
ELLIPSE
  5
1D4
100
AcDbEntity
  8
STAP_DN100_20-80
  6
CONTINUOUS
 62
         7
100
AcDbEllipse
 10
303.4559642891
 20
689.0654316478
 30
0.0
 11
-0.0000000000000833
 21
31.499999999990731
 31
0.0
210
0.0
220
0.0
230
1.0
 40
0.8660254038
 41
1.8978562877110765
 42
3.1677875395614516
  0
ELLIPSE
  5
1D5
100
AcDbEntity
  8
STAP_DN100_20-80
  6
CONTINUOUS
 62
         7
100
AcDbEllipse
 10
303.4559642891
 20
689.0654316478
 30
0.0
 11
-0.0000000000000833
 21
31.499999999990731
 31
0.0
210
0.0
220
0.0
230
1.0
 40
0.8660254038
 41
6.2569904212081946
 42
6.2831853071795862
  0
ELLIPSE
  5
1D6
100
AcDbEntity
  8
STAP_DN100_20-80
  6
CONTINUOUS
 62
         7
100
AcDbEllipse
 10
242.2911461241
 20
714.398530054
 30
0.0
 11
189.00753173650091
 21
-59.576585719008655
 31
0.0
210
0.0
220
0.0
230
1.0
 40
0.1710100717
 41
0.7998128512255432
 42
0.9417893499434589
  0
ELLIPSE
  5
1D7
100
AcDbEntity
  8
STAP_DN100_20-80
  6
CONTINUOUS
 62
         7
100
AcDbEllipse
 10
332.5324245735
 20
689.0654316478
 30
0.0
 11
-0.0000000000028311
 21
37.499999999983125
 31
0.0
210
0.0
220
0.0
230
1.0
 40
0.8660254038
 41
5.1655482064503682
 42
5.8300260811147142
  0
ELLIPSE
  5
1D8
100
AcDbEntity
  8
STAP_DN100_20-80
  6
CONTINUOUS
 62
         7
100
AcDbEllipse
 10
256.2450710679
 20
698.2859254105
 30
0.0
 11
76.782644150479612
 21
-182.695490300388
 31
0.0
210
0.0
220
0.0
230
1.0
 40
0.4698463104
 41
1.5077546387850365
 42
1.6497311375037187
  0
ELLIPSE
  5
1D9
100
AcDbEntity
  8
STAP_DN100_20-80
  6
CONTINUOUS
 62
         7
100
AcDbEllipse
 10
226.3207824556
 20
714.3985300543
 30
0.0
 11
189.00753173947581
 21
59.576585719587598
 31
0.0
210
0.0
220
0.0
230
1.0
 40
0.1710100717
 41
4.9355882709221053
 42
5.0775647696382329
  0
LINE
  5
1DA
100
AcDbEntity
  8
STAP_DN100_20-80
  6
CONTINUOUS
 62
         7
100
AcDbLine
 10
307.5877299887
 20
722.7804987718
 30
0.0
 11
315.7437864626
 21
748.6556993096
 31
0.0
  0
LINE
  5
1DB
100
AcDbEntity
  8
STAP_DN100_20-80
  6
CONTINUOUS
 62
         7
100
AcDbLine
 10
307.5877299887
 20
722.7804987718
 30
0.0
 11
318.3141902731
 21
722.7804987718
 31
0.0
  0
ELLIPSE
  5
1DC
100
AcDbEntity
  8
STAP_DN100_20-80
  6
CONTINUOUS
 62
         7
100
AcDbEllipse
 10
321.8059642891
 20
689.0654316478
 30
0.0
 11
0.0000000000020817
 21
37.499999999982059
 31
0.0
210
0.0
220
0.0
230
1.0
 40
0.8660254038
 41
0.4531592260657933
 42
1.1176371007301511
  0
LINE
  5
1DD
100
AcDbEntity
  8
STAP_DN100_20-80
  6
CONTINUOUS
 62
         7
100
AcDbLine
 10
292.6078596694
 20
705.4832344492
 30
0.0
 11
303.3343199538
 21
705.4832344492
 31
0.0
  0
LINE
  5
1DE
100
AcDbEntity
  8
STAP_DN100_20-80
  6
CONTINUOUS
 62
         7
100
AcDbLine
 10
270.1992786757
 20
696.0654316478
 30
0.0
 11
292.6078596694
 21
705.4832344492
 31
0.0
  0
ELLIPSE
  5
1DF
100
AcDbEntity
  8
STAP_DN100_20-80
  6
CONTINUOUS
 62
         7
100
AcDbEllipse
 10
212.3668575136
 20
698.2859254098
 30
0.0
 11
76.782644150765563
 21
182.69549030216282
 31
0.0
210
0.0
220
0.0
230
1.0
 40
0.4698463104
 41
5.0392618559938995
 42
5.1812383547113239
  0
ELLIPSE
  5
1E0
100
AcDbEntity
  8
STAP_DN100_20-80
  6
CONTINUOUS
 62
         7
100
AcDbEllipse
 10
332.5324245735
 20
689.0654316478
 30
0.0
 11
-0.0000000000054123
 21
37.499999999983537
 31
0.0
210
0.0
220
0.0
230
1.0
 40
0.8660254038
 41
0.4531592260656044
 42
1.1176371007299568
  0
LINE
  5
1E1
100
AcDbEntity
  8
STAP_DN100_20-80
  6
CONTINUOUS
 62
         7
100
AcDbLine
 10
270.1992786757
 20
696.0654316478
 30
0.0
 11
278.0931988174
 21
696.0654316478
 31
0.0
  0
LINE
  5
1E2
100
AcDbEntity
  8
STAP_DN100_20-80
  6
CONTINUOUS
 62
         7
100
AcDbLine
 10
315.7437864626
 20
629.4751639861
 30
0.0
 11
323.6377066043
 21
629.4751639861
 31
0.0
  0
LINE
  5
1E3
100
AcDbEntity
  8
STAP_DN100_20-80
  6
CONTINUOUS
 62
         7
100
AcDbLine
 10
315.7437864626
 20
748.6556993096
 30
0.0
 11
323.6377066043
 21
748.6556993096
 31
0.0
  0
LINE
  5
1E4
100
AcDbEntity
  8
STAP_DN100_20-80
  6
CONTINUOUS
 62
         7
100
AcDbLine
 10
307.5877299887
 20
655.3503645239
 30
0.0
 11
318.3141902731
 21
655.3503645239
 31
0.0
  0
LINE
  5
1E5
100
AcDbEntity
  8
STAP_DN100_20-80
  6
CONTINUOUS
 62
         7
100
AcDbLine
 10
292.6078596694
 20
672.6476288464
 30
0.0
 11
303.3343199538
 21
672.6476288464
 31
0.0
  0
ELLIPSE
  5
1E6
100
AcDbEntity
  8
STAP_DN100_20-80
  6
CONTINUOUS
 62
         7
100
AcDbEllipse
 10
226.3207824572
 20
663.7323332417
 30
0.0
 11
189.00753173682784
 21
-59.576585719008968
 31
0.0
210
0.0
220
0.0
230
1.0
 40
0.1710100717
 41
1.2056205375439915
 42
1.3475970362620395
  0
ELLIPSE
  5
1E7
100
AcDbEntity
  8
STAP_DN100_20-80
  6
CONTINUOUS
 62
         7
100
AcDbEllipse
 10
332.5324245735
 20
689.0654316478
 30
0.0
 11
-0.0000000000034972
 21
-37.499999999983665
 31
0.0
210
0.0
220
0.0
230
1.0
 40
0.8660254038
 41
5.1655482064505209
 42
5.830026081114859
  0
ELLIPSE
  5
1E8
100
AcDbEntity
  8
STAP_DN100_20-80
  6
CONTINUOUS
 62
         7
100
AcDbEllipse
 10
212.3668575124
 20
679.8449378862
 30
0.0
 11
76.782644151635907
 21
-182.69549030308184
 31
0.0
210
0.0
220
0.0
230
1.0
 40
0.4698463104
 41
1.1019469524656573
 42
1.2439234511823103
  0
LINE
  5
1E9
100
AcDbEntity
  8
STAP_DN100_20-80
  6
CONTINUOUS
 62
         7
100
AcDbLine
 10
270.1992786757
 20
682.0654316478
 30
0.0
 11
278.0931988174
 21
682.0654316478
 31
0.0
  0
ELLIPSE
  5
1EA
100
AcDbEntity
  8
STAP_DN100_20-80
  6
CONTINUOUS
 62
         7
100
AcDbEllipse
 10
332.5324245735
 20
689.0654316478
 30
0.0
 11
-0.0000000000090483
 21
-37.499999999981242
 31
0.0
210
0.0
220
0.0
230
1.0
 40
0.8660254038
 41
0.4531592260659582
 42
1.1176371007303216
  0
ELLIPSE
  5
1EB
100
AcDbEntity
  8
STAP_DN100_20-80
  6
CONTINUOUS
 62
         7
100
AcDbEllipse
 10
242.2911461248
 20
663.7323332417
 30
0.0
 11
189.00753173579167
 21
59.576585718877737
 31
0.0
210
0.0
220
0.0
230
1.0
 40
0.1710100717
 41
5.3413959572345977
 42
5.4833724559528401
  0
ELLIPSE
  5
1EC
100
AcDbEntity
  8
STAP_DN100_20-80
  6
CONTINUOUS
 62
         7
100
AcDbEllipse
 10
256.2450710661
 20
679.8449378859
 30
0.0
 11
-76.782644151281019
 21
-182.69549030238818
 31
0.0
210
0.0
220
0.0
230
1.0
 40
0.4698463104
 41
1.4918615160867283
 42
1.6338380148039542
  0
LINE
  5
1ED
100
AcDbEntity
  8
STAP_DN100_20-80
  6
CONTINUOUS
 62
         7
100
AcDbLine
 10
279.5687469542
 20
707.0654316478
 30
0.0
 11
273.6657108312
 21
707.0654316478
 31
0.0
  0
LINE
  5
1EE
100
AcDbEntity
  8
STAP_DN100_20-80
  6
CONTINUOUS
 62
         7
100
AcDbLine
 10
259.4895337467
 20
707.0654316478
 30
0.0
 11
273.6657108312
 21
707.0654316478
 31
0.0
  0
LINE
  5
1EF
100
AcDbEntity
  8
STAP_DN100_20-80
  6
CONTINUOUS
 62
         7
100
AcDbLine
 10
273.6657108312
 20
707.0654316478
 30
0.0
 11
243.3125888051
 21
700.8853885006
 31
0.0
  0
ELLIPSE
  5
1F0
100
AcDbEntity
  8
STAP_DN100_20-80
  6
CONTINUOUS
 62
         7
100
AcDbEllipse
 10
244.3652749374
 20
693.9917342296
 30
0.0
 11
0.0000000000001388
 21
7.000000000000008
 31
0.0
210
0.0
220
0.0
230
1.0
 40
0.8660254038
 41
0.1745329251994722
 42
1.5707963267949139
  0
LINE
  5
1F1
100
AcDbEntity
  8
STAP_DN100_20-80
  6
CONTINUOUS
 62
         7
100
AcDbLine
 10
259.4895337467
 20
671.0654316478
 30
0.0
 11
273.6657108312
 21
671.0654316478
 31
0.0
  0
ELLIPSE
  5
1F2
100
AcDbEntity
  8
STAP_DN100_20-80
  6
CONTINUOUS
 62
         7
100
AcDbEllipse
 10
293.9963838416
 20
689.0654316478
 30
0.0
 11
-0.0000000000001943
 21
-31.499999999990731
 31
0.0
210
0.0
220
0.0
230
1.0
 40
0.8660254038
 41
3.141592653589794
 42
4.1041434014742855
  0
LINE
  5
1F3
100
AcDbEntity
  8
STAP_DN100_20-80
  6
CONTINUOUS
 62
         7
100
AcDbLine
 10
273.6657108312
 20
671.0654316478
 30
0.0
 11
279.5687469542
 21
671.0654316478
 31
0.0
  0
LINE
  5
1F4
100
AcDbEntity
  8
STAP_DN100_20-80
  6
CONTINUOUS
 62
         7
100
AcDbLine
 10
243.3125888051
 20
677.245474795
 30
0.0
 11
273.6657108312
 21
671.0654316478
 31
0.0
  0
ELLIPSE
  5
1F5
100
AcDbEntity
  8
STAP_DN100_20-80
  6
CONTINUOUS
 62
         7
100
AcDbEllipse
 10
233.8030971109
 20
689.0654316478
 30
0.0
 11
0.0
 21
3.8500000000000001
 31
0.0
210
0.0
220
0.0
230
1.0
 40
0.5
 41
3.1415926535897931
 42
6.2831853071795862
  0
ARC
  5
1F6
100
AcDbEntity
  8
STAP_DN100_20-80
  6
CONTINUOUS
 62
         7
100
AcDbCircle
 10
166.1797685601
 20
689.0654316478
 30
0.0
 40
7.837238884
100
AcDbArc
 50
316.830645948
 51
43.169354052
  0
LINE
  5
1F7
100
AcDbEntity
  8
STAP_DN100_20-80
  6
CONTINUOUS
 62
         7
100
AcDbLine
 10
159.4287414579
 20
696.0654316478
 30
0.0
 11
159.4287414579
 21
693.6264987744
 31
0.0
  0
LINE
  5
1F8
100
AcDbEntity
  8
STAP_DN100_20-80
  6
CONTINUOUS
 62
         7
100
AcDbLine
 10
159.4287414579
 20
684.5043645212
 30
0.0
 11
159.4287414579
 21
682.0654316478
 31
0.0
  0
LINE
  5
1F9
100
AcDbEntity
  8
STAP_DN100_20-80
  6
CONTINUOUS
 62
         7
100
AcDbLine
 10
163.428741458
 20
682.0654316478
 30
0.0
 11
159.4287414579
 21
682.0654316478
 31
0.0
  0
LINE
  5
1FA
100
AcDbEntity
  8
STAP_DN100_20-80
  6
CONTINUOUS
 62
         7
100
AcDbLine
 10
159.4287414579
 20
696.0654316478
 30
0.0
 11
163.428741458
 21
696.0654316478
 31
0.0
  0
ELLIPSE
  5
1FB
100
AcDbEntity
  8
STAP_DN100_20-80
  6
CONTINUOUS
 62
         7
100
AcDbEllipse
 10
163.428741458
 20
689.0654316478
 30
0.0
 11
0.0
 21
7.0
 31
0.0
210
0.0
220
0.0
230
1.0
 40
0.5
 41
3.1415926535897931
 42
6.2831853071795862
  0
LINE
  5
1FC
100
AcDbEntity
  8
STAP_DN100_20-80
  6
CONTINUOUS
 62
         7
100
AcDbLine
 10
169.7549923736
 20
696.0654316478
 30
0.0
 11
163.428741458
 21
696.0654316478
 31
0.0
  0
LINE
  5
1FD
100
AcDbEntity
  8
STAP_DN100_20-80
  6
CONTINUOUS
 62
         7
100
AcDbLine
 10
169.7549923736
 20
682.0654316478
 30
0.0
 11
163.428741458
 21
682.0654316478
 31
0.0
  0
SPLINE
  5
1FE
100
AcDbEntity
  8
STAP_DN100_20-80
  6
CONTINUOUS
 62
         7
100
AcDbSpline
210
0.0
220
0.0
230
1.0
 70
         8
 71
         3
 72
        12
 73
         8
 74
         0
 42
0.0
 43
0.0
 40
0.0
 40
0.0
 40
0.0
 40
0.0
 40
0.2499999999999965
 40
0.2499999999999965
 40
0.4999999999999929
 40
0.4999999999999929
 40
1.0
 40
1.0
 40
1.0
 40
1.0
 10
171.89573858502328
 20
683.70352900043156
 30
0.0
 10
171.75350106963057
 20
683.43912478746097
 30
0.0
 10
171.60133316800818
 20
683.20618096790179
 30
0.0
 10
171.27663658964471
 20
682.80058853527783
 30
0.0
 10
171.10339203253722
 20
682.62739411841449
 30
0.0
 10
170.5544547640429
 20
682.20633320734044
 30
0.0
 10
170.16669064882487
 20
682.06543164781476
 30
0.0
 10
169.75499237363923
 20
682.06543164781476
 30
0.0
  0
ELLIPSE
  5
1FF
100
AcDbEntity
  8
STAP_DN100_20-80
  6
CONTINUOUS
 62
         7
100
AcDbEllipse
 10
241.4559642891
 20
689.0654316478
 30
0.0
 11
-0.0000000000398154
 21
80.499999999986869
 31
0.0
210
0.0
220
0.0
230
1.0
 40
0.8660254038
 41
1.6374531630064879
 42
4.0817799575687452
  0
LINE
  5
200
100
AcDbEntity
  8
STAP_DN100_20-80
  6
CONTINUOUS
 62
         7
100
AcDbLine
 10
296.7108293884
 20
639.9792844796
 30
0.0
 11
297.7998753759
 21
639.2532538213
 31
0.0
  0
ELLIPSE
  5
201
100
AcDbEntity
  8
STAP_DN100_20-80
  6
CONTINUOUS
 62
         7
100
AcDbEllipse
 10
304.8309642891
 20
645.3154316478
 30
0.0
 11
-3.8829013735764137
 21
-5.8243520603650234
 31
0.0
210
0.0
220
0.0
230
1.0
 40
0.4330127019
 41
0.2810349015027898
 42
2.5941124222298346
  0
ELLIPSE
  5
202
100
AcDbEntity
  8
STAP_DN100_20-80
  6
CONTINUOUS
 62
         7
100
AcDbEllipse
 10
304.8309642891
 20
645.3154316478
 30
0.0
 11
-3.8829013735764137
 21
-5.8243520603650234
 31
0.0
210
0.0
220
0.0
230
1.0
 40
0.4330127019
 41
3.0186931643443224
 42
3.1415926535897931
  0
LINE
  5
203
100
AcDbEntity
  8
STAP_DN100_20-80
  6
CONTINUOUS
 62
         7
100
AcDbLine
 10
309.2284235876
 20
647.6504587822
 30
0.0
 11
310.2240082766
 21
646.9867356562
 31
0.0
  0
LINE
  5
204
100
AcDbEntity
  8
STAP_DN100_20-80
  6
CONTINUOUS
 62
         7
100
AcDbLine
 10
308.9934642891
 20
646.4904316478
 30
0.0
 11
310.7494460517
 21
645.3197771394
 31
0.0
  0
LINE
  5
205
100
AcDbEntity
  8
STAP_DN100_20-80
  6
CONTINUOUS
 62
         7
100
AcDbLine
 10
307.0184642891
 20
642.5404316478
 30
0.0
 11
311.0684642891
 21
639.8404316478
 31
0.0
  0
LINE
  5
206
100
AcDbEntity
  8
STAP_DN100_20-80
  6
CONTINUOUS
 62
         7
100
AcDbLine
 10
304.366885126
 20
640.3581510898
 30
0.0
 11
308.1059642891
 21
637.8654316478
 31
0.0
  0
LINE
  5
207
100
AcDbEntity
  8
STAP_DN100_20-80
  6
CONTINUOUS
 62
         7
100
AcDbLine
 10
297.7998753759
 20
639.2532538213
 30
0.0
 11
301.7998753758
 21
639.2532538213
 31
0.0
  0
LINE
  5
208
100
AcDbEntity
  8
STAP_DN100_20-80
  6
CONTINUOUS
 62
         7
100
AcDbLine
 10
311.0684642891
 20
639.8404316478
 30
0.0
 11
311.9321170651
 21
641.5677371997
 31
0.0
  0
LINE
  5
209
100
AcDbEntity
  8
STAP_DN100_20-80
  6
CONTINUOUS
 62
         7
100
AcDbLine
 10
305.9505413162
 20
641.8284829992
 30
0.0
 11
307.0184642891
 21
642.5404316478
 31
0.0
  0
LINE
  5
20A
100
AcDbEntity
  8
STAP_DN100_20-80
  6
CONTINUOUS
 62
         7
100
AcDbLine
 10
307.0184642891
 20
642.5404316478
 30
0.0
 11
308.9934642891
 21
646.4904316478
 31
0.0
  0
LINE
  5
20B
100
AcDbEntity
  8
STAP_DN100_20-80
  6
CONTINUOUS
 62
         7
100
AcDbLine
 10
308.9934642891
 20
646.4904316478
 30
0.0
 11
308.9129338598
 21
646.6514925065
 31
0.0
  0
LINE
  5
20C
100
AcDbEntity
  8
STAP_DN100_20-80
  6
CONTINUOUS
 62
         7
100
AcDbLine
 10
308.1059642891
 20
637.8654316478
 30
0.0
 11
311.0684642891
 21
639.8404316478
 31
0.0
  0
LINE
  5
20D
100
AcDbEntity
  8
STAP_DN100_20-80
  6
CONTINUOUS
 62
         7
100
AcDbLine
 10
162.0431008119
 20
693.6264987744
 30
0.0
 11
157.3665636315
 21
693.6264987744
 31
0.0
  0
LINE
  5
20E
100
AcDbEntity
  8
STAP_DN100_20-80
  6
CONTINUOUS
 62
         7
100
AcDbLine
 10
164.0181008119
 20
691.3459652111
 30
0.0
 11
159.3415636315
 21
691.3459652111
 31
0.0
  0
LINE
  5
20F
100
AcDbEntity
  8
STAP_DN100_20-80
  6
CONTINUOUS
 62
         7
100
AcDbLine
 10
162.0431008119
 20
693.6264987744
 30
0.0
 11
164.0181008119
 21
691.3459652111
 31
0.0
  0
LINE
  5
210
100
AcDbEntity
  8
STAP_DN100_20-80
  6
CONTINUOUS
 62
         7
100
AcDbLine
 10
164.0181008119
 20
691.3459652111
 30
0.0
 11
164.0181008119
 21
686.7848980845
 31
0.0
  0
LINE
  5
211
100
AcDbEntity
  8
STAP_DN100_20-80
  6
CONTINUOUS
 62
         7
100
AcDbLine
 10
162.0431008119
 20
684.5043645212
 30
0.0
 11
157.3665636315
 21
684.5043645212
 31
0.0
  0
LINE
  5
212
100
AcDbEntity
  8
STAP_DN100_20-80
  6
CONTINUOUS
 62
         7
100
AcDbLine
 10
164.0181008119
 20
686.7848980845
 30
0.0
 11
162.0431008119
 21
684.5043645212
 31
0.0
  0
LINE
  5
213
100
AcDbEntity
  8
STAP_DN100_20-80
  6
CONTINUOUS
 62
         7
100
AcDbLine
 10
164.0181008119
 20
686.7848980845
 30
0.0
 11
159.3415636315
 21
686.7848980845
 31
0.0
  0
ELLIPSE
  5
214
100
AcDbEntity
  8
STAP_DN100_20-80
  6
CONTINUOUS
 62
         7
100
AcDbEllipse
 10
163.428741458
 20
689.0654316478
 30
0.0
 11
0.0
 21
3.8500000000000001
 31
0.0
210
0.0
220
0.0
230
1.0
 40
0.5
 41
3.1415926535897931
 42
6.2831853071795862
  0
LINE
  5
215
100
AcDbEntity
  8
STAP_DN100_20-80
  6
CONTINUOUS
 62
         7
100
AcDbLine
 10
157.3665636315
 20
684.5043645212
 30
0.0
 11
155.3915636315
 21
686.7848980845
 31
0.0
  0
LINE
  5
216
100
AcDbEntity
  8
STAP_DN100_20-80
  6
CONTINUOUS
 62
         7
100
AcDbLine
 10
157.3665636315
 20
693.6264987744
 30
0.0
 11
159.3415636315
 21
691.3459652111
 31
0.0
  0
LINE
  5
217
100
AcDbEntity
  8
STAP_DN100_20-80
  6
CONTINUOUS
 62
         7
100
AcDbLine
 10
155.3915636315
 20
691.3459652111
 30
0.0
 11
157.3665636315
 21
693.6264987744
 31
0.0
  0
LINE
  5
218
100
AcDbEntity
  8
STAP_DN100_20-80
  6
CONTINUOUS
 62
         7
100
AcDbLine
 10
155.3915636315
 20
686.7848980845
 30
0.0
 11
155.3915636315
 21
691.3459652111
 31
0.0
  0
LINE
  5
219
100
AcDbEntity
  8
STAP_DN100_20-80
  6
CONTINUOUS
 62
         7
100
AcDbLine
 10
159.3415636315
 20
691.3459652111
 30
0.0
 11
159.3415636315
 21
686.7848980845
 31
0.0
  0
LINE
  5
21A
100
AcDbEntity
  8
STAP_DN100_20-80
  6
CONTINUOUS
 62
         7
100
AcDbLine
 10
159.3415636315
 20
686.7848980845
 30
0.0
 11
157.3665636315
 21
684.5043645212
 31
0.0
  0
LINE
  5
21B
100
AcDbEntity
  8
STAP_DN100_20-80
  6
CONTINUOUS
 62
         7
100
AcDbLine
 10
233.5577232465
 20
693.0154316478
 30
0.0
 11
228.8811860661
 21
693.0154316478
 31
0.0
  0
LINE
  5
21C
100
AcDbEntity
  8
STAP_DN100_20-80
  6
CONTINUOUS
 62
         7
100
AcDbLine
 10
233.5577232465
 20
685.1154316478
 30
0.0
 11
228.8811860661
 21
685.1154316478
 31
0.0
  0
LINE
  5
21D
100
AcDbEntity
  8
STAP_DN100_20-80
  6
CONTINUOUS
 62
         7
100
AcDbLine
 10
234.6979900282
 20
689.0654316478
 30
0.0
 11
230.0214528477
 21
689.0654316478
 31
0.0
  0
LINE
  5
21E
100
AcDbEntity
  8
STAP_DN100_20-80
  6
CONTINUOUS
 62
         7
100
AcDbLine
 10
233.5577232465
 20
693.0154316478
 30
0.0
 11
234.6979900282
 21
689.0654316478
 31
0.0
  0
LINE
  5
21F
100
AcDbEntity
  8
STAP_DN100_20-80
  6
CONTINUOUS
 62
         7
100
AcDbLine
 10
225.4603857211
 20
689.0654316478
 30
0.0
 11
226.6006525028
 21
693.0154316478
 31
0.0
  0
LINE
  5
220
100
AcDbEntity
  8
STAP_DN100_20-80
  6
CONTINUOUS
 62
         7
100
AcDbLine
 10
226.6006525028
 20
685.1154316478
 30
0.0
 11
225.4603857211
 21
689.0654316478
 31
0.0
  0
LINE
  5
221
100
AcDbEntity
  8
STAP_DN100_20-80
  6
CONTINUOUS
 62
         7
100
AcDbLine
 10
228.8811860661
 20
685.1154316478
 30
0.0
 11
226.6006525028
 21
685.1154316478
 31
0.0
  0
LINE
  5
222
100
AcDbEntity
  8
STAP_DN100_20-80
  6
CONTINUOUS
 62
         7
100
AcDbLine
 10
228.8811860661
 20
693.0154316478
 30
0.0
 11
230.0214528477
 21
689.0654316478
 31
0.0
  0
LINE
  5
223
100
AcDbEntity
  8
STAP_DN100_20-80
  6
CONTINUOUS
 62
         7
100
AcDbLine
 10
230.0214528477
 20
689.0654316478
 30
0.0
 11
228.8811860661
 21
685.1154316478
 31
0.0
  0
LINE
  5
224
100
AcDbEntity
  8
STAP_DN100_20-80
  6
CONTINUOUS
 62
         7
100
AcDbLine
 10
234.6979900282
 20
689.0654316478
 30
0.0
 11
233.5577232465
 21
685.1154316478
 31
0.0
  0
LINE
  5
225
100
AcDbEntity
  8
STAP_DN100_20-80
  6
CONTINUOUS
 62
         7
100
AcDbLine
 10
226.6006525028
 20
693.0154316478
 30
0.0
 11
228.8811860661
 21
693.0154316478
 31
0.0
  0
ELLIPSE
  5
226
100
AcDbEntity
  8
STAP_DN100_20-80
  6
CONTINUOUS
 62
         7
100
AcDbEllipse
 10
183.7048175122
 20
626.1329281222
 30
0.0
 11
0.0000000000000069
 21
-4.9999999999999902
 31
0.0
210
0.0
220
0.0
230
1.0
 40
0.8660254038
 41
0.0
 42
6.2831853071795862
  0
ELLIPSE
  5
227
100
AcDbEntity
  8
STAP_DN100_20-80
  6
CONTINUOUS
 62
         7
100
AcDbEllipse
 10
180.7048175122
 20
626.1329281222
 30
0.0
 11
0.0000000000000069
 21
-4.9999999999999902
 31
0.0
210
0.0
220
0.0
230
1.0
 40
0.8660254038
 41
3.1415926535897918
 42
6.2831853071795845
  0
ELLIPSE
  5
228
100
AcDbEntity
  8
STAP_DN100_20-80
  6
CONTINUOUS
 62
         7
100
AcDbEllipse
 10
292.707111066
 20
626.1329281222
 30
0.0
 11
0.0
 21
-4.9999999999999902
 31
0.0
210
0.0
220
0.0
230
1.0
 40
0.8660254038
 41
0.0
 42
6.2831853071795862
  0
ELLIPSE
  5
229
100
AcDbEntity
  8
STAP_DN100_20-80
  6
CONTINUOUS
 62
         7
100
AcDbEllipse
 10
258.1547685448
 20
603.0980331081
 30
0.0
 11
0.0
 21
-4.9999999999999902
 31
0.0
210
0.0
220
0.0
230
1.0
 40
0.8660254038
 41
0.0
 42
6.2831853071795862
  0
ELLIPSE
  5
22A
100
AcDbEntity
  8
STAP_DN100_20-80
  6
CONTINUOUS
 62
         7
100
AcDbEllipse
 10
218.2571600333
 20
603.0980331081
 30
0.0
 11
0.0000000000000139
 21
5.0000000000000044
 31
0.0
210
0.0
220
0.0
230
1.0
 40
0.8660254038
 41
0.0
 42
6.2831853071795862
  0
ELLIPSE
  5
22B
100
AcDbEntity
  8
STAP_DN100_20-80
  6
CONTINUOUS
 62
         7
100
AcDbEllipse
 10
255.1547685448
 20
603.0980331081
 30
0.0
 11
0.0
 21
-4.9999999999999902
 31
0.0
210
0.0
220
0.0
230
1.0
 40
0.8660254038
 41
3.1415926535897931
 42
6.2831853071795862
  0
ELLIPSE
  5
22C
100
AcDbEntity
  8
STAP_DN100_20-80
  6
CONTINUOUS
 62
         7
100
AcDbEllipse
 10
215.2571600333
 20
603.0980331081
 30
0.0
 11
0.0000000000000139
 21
5.0000000000000044
 31
0.0
210
0.0
220
0.0
230
1.0
 40
0.8660254038
 41
0.0
 42
3.1415926535897931
  0
ELLIPSE
  5
22D
100
AcDbEntity
  8
STAP_DN100_20-80
  6
CONTINUOUS
 62
         7
100
AcDbEllipse
 10
289.707111066
 20
626.1329281222
 30
0.0
 11
0.0
 21
-4.9999999999999902
 31
0.0
210
0.0
220
0.0
230
1.0
 40
0.8660254038
 41
4.6258216516254347
 42
6.2831853071795862
  0
ELLIPSE
  5
22E
100
AcDbEntity
  8
STAP_DN100_20-80
  6
CONTINUOUS
 62
         7
100
AcDbEllipse
 10
292.707111066
 20
751.9979351734
 30
0.0
 11
0.0
 21
-5.0000000000000044
 31
0.0
210
0.0
220
0.0
230
1.0
 40
0.8660254038
 41
0.0
 42
6.2831853071795862
  0
ELLIPSE
  5
22F
100
AcDbEntity
  8
STAP_DN100_20-80
  6
CONTINUOUS
 62
         7
100
AcDbEllipse
 10
258.1547685448
 20
775.0328301875
 30
0.0
 11
0.0
 21
-4.9999999999999902
 31
0.0
210
0.0
220
0.0
230
1.0
 40
0.8660254038
 41
0.0
 42
6.2831853071795862
  0
ELLIPSE
  5
230
100
AcDbEntity
  8
STAP_DN100_20-80
  6
CONTINUOUS
 62
         7
100
AcDbEllipse
 10
218.2571600333
 20
775.0328301875
 30
0.0
 11
0.0000000000000139
 21
5.0000000000000044
 31
0.0
210
0.0
220
0.0
230
1.0
 40
0.8660254038
 41
0.0
 42
6.2831853071795862
  0
ELLIPSE
  5
231
100
AcDbEntity
  8
STAP_DN100_20-80
  6
CONTINUOUS
 62
         7
100
AcDbEllipse
 10
215.2571600333
 20
775.0328301875
 30
0.0
 11
0.0000000000000139
 21
5.0000000000000044
 31
0.0
210
0.0
220
0.0
230
1.0
 40
0.8660254038
 41
0.0
 42
3.1415926535897931
  0
ELLIPSE
  5
232
100
AcDbEntity
  8
STAP_DN100_20-80
  6
CONTINUOUS
 62
         7
100
AcDbEllipse
 10
289.707111066
 20
751.9979351734
 30
0.0
 11
0.0
 21
-5.0000000000000044
 31
0.0
210
0.0
220
0.0
230
1.0
 40
0.8660254038
 41
3.1415926535897931
 42
4.7989563091439216
  0
ELLIPSE
  5
233
100
AcDbEntity
  8
STAP_DN100_20-80
  6
CONTINUOUS
 62
         7
100
AcDbEllipse
 10
255.1547685448
 20
775.0328301875
 30
0.0
 11
0.0
 21
-4.9999999999999902
 31
0.0
210
0.0
220
0.0
230
1.0
 40
0.8660254038
 41
3.1415926535897931
 42
6.2831853071795862
  0
ELLIPSE
  5
234
100
AcDbEntity
  8
STAP_DN100_20-80
  6
CONTINUOUS
 62
         7
100
AcDbEllipse
 10
183.7048175122
 20
751.9979351734
 30
0.0
 11
0.0000000000000139
 21
5.0000000000000044
 31
0.0
210
0.0
220
0.0
230
1.0
 40
0.8660254038
 41
0.0
 42
6.2831853071795862
  0
ELLIPSE
  5
235
100
AcDbEntity
  8
STAP_DN100_20-80
  6
CONTINUOUS
 62
         7
100
AcDbEllipse
 10
180.7048175122
 20
751.9979351734
 30
0.0
 11
0.0000000000000139
 21
5.0000000000000044
 31
0.0
210
0.0
220
0.0
230
1.0
 40
0.8660254038
 41
0.0
 42
3.1415926535897931
  0
ELLIPSE
  5
236
100
AcDbEntity
  8
STAP_DN100_20-80
  6
CONTINUOUS
 62
         7
100
AcDbEllipse
 10
163.7560132564
 20
666.0305366337
 30
0.0
 11
0.0000000000000069
 21
5.0000000000000009
 31
0.0
210
0.0
220
0.0
230
1.0
 40
0.8660254038
 41
0.0
 42
6.2831853071795862
  0
ELLIPSE
  5
237
100
AcDbEntity
  8
STAP_DN100_20-80
  6
CONTINUOUS
 62
         7
100
AcDbEllipse
 10
160.7560132564
 20
666.0305366337
 30
0.0
 11
0.0000000000000069
 21
-4.9999999999999973
 31
0.0
210
0.0
220
0.0
230
1.0
 40
0.8660254038
 41
3.1415926535897851
 42
6.2831853071795845
  0
ELLIPSE
  5
238
100
AcDbEntity
  8
STAP_DN100_20-80
  6
CONTINUOUS
 62
         7
100
AcDbEllipse
 10
160.7560132564
 20
712.1003266619
 30
0.0
 11
0.0000000000000069
 21
-4.9999999999999973
 31
0.0
210
0.0
220
0.0
230
1.0
 40
0.8660254038
 41
3.1415926535897918
 42
6.2831853071795845
  0
ELLIPSE
  5
239
100
AcDbEntity
  8
STAP_DN100_20-80
  6
CONTINUOUS
 62
         7
100
AcDbEllipse
 10
163.7560132564
 20
712.1003266619
 30
0.0
 11
0.0000000000000069
 21
4.9999999999999973
 31
0.0
210
0.0
220
0.0
230
1.0
 40
0.8660254038
 41
0.0
 42
6.2831853071795862
  0
ELLIPSE
  5
23A
100
AcDbEntity
  8
STAP_DN100_20-80
  6
CONTINUOUS
 62
         7
100
AcDbEllipse
 10
193.3559642891
 20
689.0654316478
 30
0.0
 11
-0.000000000000111
 21
77.999999999999972
 31
0.0
210
0.0
220
0.0
230
1.0
 40
0.8660254038
 41
1.0414939447463261
 42
2.1000987088434644
  0
ELLIPSE
  5
23B
100
AcDbEntity
  8
STAP_DN100_20-80
  6
CONTINUOUS
 62
         7
100
AcDbEllipse
 10
153.7059642891
 20
689.0654316478
 30
0.0
 11
-0.0000000000104448
 21
-71.000000000000156
 31
0.0
210
0.0
220
0.0
230
1.0
 40
0.8660254038
 41
3.1415926535897931
 42
4.2778709823521703
  0
ELLIPSE
  5
23C
100
AcDbEntity
  8
STAP_DN100_20-80
  6
CONTINUOUS
 62
         7
100
AcDbEllipse
 10
176.5059642891
 20
689.0654316478
 30
0.0
 11
0.0000000000001596
 21
71.000000000000057
 31
0.0
210
0.0
220
0.0
230
1.0
 40
0.8660254038
 41
0.3599914538319247
 42
2.7816011997578753
  0
ELLIPSE
  5
23D
100
AcDbEntity
  8
STAP_DN100_20-80
  6
CONTINUOUS
 62
         7
100
AcDbEllipse
 10
176.5059642891
 20
689.0654316478
 30
0.0
 11
-0.0000000000002429
 21
63.5
 31
0.0
210
0.0
220
0.0
230
1.0
 40
0.8660254038
 41
0.7710682763746193
 42
2.3705243772151667
  0
ARC
  5
23E
100
AcDbEntity
  8
STAP_DN100_20-80
  6
CONTINUOUS
 62
         7
100
AcDbCircle
 10
266.8457245037
 20
689.0654316478
 30
0.0
 40
171.5377307374
100
AcDbArc
 50
169.9654420767
 51
190.0345579233
  0
ELLIPSE
  5
23F
100
AcDbEntity
  8
STAP_DN100_20-80
  6
CONTINUOUS
 62
         7
100
AcDbEllipse
 10
199.2059642891
 20
689.0654316478
 30
0.0
 11
0.0000000000001318
 21
-83.90000000000289
 31
0.0
210
0.0
220
0.0
230
1.0
 40
0.8660254038
 41
3.3698651337375725
 42
6.0549128270318047
  0
ELLIPSE
  5
240
100
AcDbEntity
  8
STAP_DN100_20-80
  6
CONTINUOUS
 62
         7
100
AcDbEllipse
 10
227.2059642891
 20
689.0654316478
 30
0.0
 11
0.0000000000000833
 21
-96.500000000000028
 31
0.0
210
0.0
220
0.0
230
1.0
 40
0.8660254038
 41
3.2183900710084212
 42
6.2063878897609577
  0
LINE
  5
241
100
AcDbEntity
  8
STAP_DN100_20-80
  6
CONTINUOUS
 62
         7
100
AcDbLine
 10
99.9123436446
 20
633.4154807972
 30
0.0
 11
103.0727908118
 21
633.4154807972
 31
0.0
  0
ELLIPSE
  5
242
100
AcDbEntity
  8
STAP_DN100_20-80
  6
CONTINUOUS
 62
         7
100
AcDbEllipse
 10
109.3203260991
 20
689.0654316484
 30
0.0
 11
-0.0000000231437855
 21
-56.000000000382826
 31
0.0
210
0.0
220
0.0
230
1.0
 40
0.999343832
 41
6.1713157336228361
 42
6.2831560680445424
  0
LINE
  5
243
100
AcDbEntity
  8
STAP_DN100_20-80
  6
CONTINUOUS
 62
         7
100
AcDbLine
 10
103.0727908118
 20
744.7153824984
 30
0.0
 11
99.9123436446
 21
744.7153824984
 31
0.0
  0
ELLIPSE
  5
244
100
AcDbEntity
  8
STAP_DN100_20-80
  6
CONTINUOUS
 62
         7
100
AcDbEllipse
 10
109.3203260988
 20
689.065431653
 30
0.0
 11
0.0000002182612494
 21
55.999999994304709
 31
0.0
210
0.0
220
0.0
230
1.0
 40
0.9993438321
 41
0.0000292433836285
 42
0.1118695778695162
  0
LINE
  5
245
100
AcDbEntity
  8
STAP_DN100_20-80
  6
CONTINUOUS
 62
         7
100
AcDbLine
 10
99.9123436446
 20
745.0342031561
 30
0.0
 11
87.9559642891
 21
745.0342031561
 31
0.0
  0
LINE
  5
246
100
AcDbEntity
  8
STAP_DN100_20-80
  6
CONTINUOUS
 62
         7
100
AcDbLine
 10
87.9559642891
 20
633.0966601396
 30
0.0
 11
99.9123436446
 21
633.0966601395
 31
0.0
  0
LINE
  5
247
100
AcDbEntity
  8
STAP_DN100_20-80
  6
CONTINUOUS
 62
         7
100
AcDbLine
 10
63.2559642891
 20
633.0654316478
 30
0.0
 11
87.9559642891
 21
633.0654316478
 31
0.0
  0
LINE
  5
248
100
AcDbEntity
  8
STAP_DN100_20-80
  6
CONTINUOUS
 62
         7
100
AcDbLine
 10
87.9559642891
 20
633.0966601396
 30
0.0
 11
87.9559642891
 21
632.0961119736
 31
0.0
  0
LINE
  5
249
100
AcDbEntity
  8
STAP_DN100_20-80
  6
CONTINUOUS
 62
         7
100
AcDbLine
 10
99.9123436446
 20
633.4154807972
 30
0.0
 11
99.9123436446
 21
632.4093019735
 31
0.0
  0
LINE
  5
24A
100
AcDbEntity
  8
STAP_DN100_20-80
  6
CONTINUOUS
 62
         7
100
AcDbLine
 10
109.3186897619
 20
633.0654316718
 30
0.0
 11
109.3186897619
 21
632.0654316713
 31
0.0
  0
LINE
  5
24B
100
AcDbEntity
  8
STAP_DN100_20-80
  6
CONTINUOUS
 62
         7
100
AcDbLine
 10
103.0727908118
 20
633.4154807972
 30
0.0
 11
103.0727908118
 21
632.4093019735
 31
0.0
  0
LINE
  5
24C
100
AcDbEntity
  8
STAP_DN100_20-80
  6
CONTINUOUS
 62
         7
100
AcDbLine
 10
374.9559642891
 20
766.0654316478
 30
0.0
 11
374.9559642891
 21
699.2305706731
 31
0.0
  0
LINE
  5
24D
100
AcDbEntity
  8
STAP_DN100_20-80
  6
CONTINUOUS
 62
         7
100
AcDbLine
 10
374.9559642891
 20
678.9002926226
 30
0.0
 11
374.9559642891
 21
612.0654316478
 31
0.0
  0
LINE
  5
24E
100
AcDbEntity
  8
STAP_DN100_20-80
  6
CONTINUOUS
 62
         7
100
AcDbLine
 10
372.4559642891
 20
799.0654316478
 30
0.0
 11
372.4559642891
 21
700.4454506793
 31
0.0
  0
LINE
  5
24F
100
AcDbEntity
  8
STAP_DN100_20-80
  6
CONTINUOUS
 62
         7
100
AcDbLine
 10
372.4559642891
 20
677.6854126163
 30
0.0
 11
372.4559642891
 21
579.0654316478
 31
0.0
  0
LINE
  5
250
100
AcDbEntity
  8
STAP_DN100_20-80
  6
CONTINUOUS
 62
         7
100
AcDbLine
 10
63.2559642891
 20
745.0654316478
 30
0.0
 11
63.2559642891
 21
633.0654316478
 31
0.0
  0
LINE
  5
251
100
AcDbEntity
  8
STAP_DN100_20-80
  6
CONTINUOUS
 62
         7
100
AcDbLine
 10
27.4559642891
 20
799.0654316478
 30
0.0
 11
27.4559642891
 21
697.953739042
 31
0.0
  0
LINE
  5
252
100
AcDbEntity
  8
STAP_DN100_20-80
  6
CONTINUOUS
 62
         7
100
AcDbLine
 10
27.4559642891
 20
680.1771242536
 30
0.0
 11
27.4559642891
 21
579.0654316478
 31
0.0
  0
LINE
  5
253
100
AcDbEntity
  8
STAP_DN100_20-80
  6
CONTINUOUS
 62
         7
100
AcDbLine
 10
49.7559642891
 20
579.0654316478
 30
0.0
 11
49.7559642891
 21
676.3088774501
 31
0.0
  0
LINE
  5
254
100
AcDbEntity
  8
STAP_DN100_20-80
  6
CONTINUOUS
 62
         7
100
AcDbLine
 10
49.7559642891
 20
701.8219858456
 30
0.0
 11
49.7559642891
 21
799.0654316478
 31
0.0
  0
LINE
  5
255
100
AcDbEntity
  8
STAP_DN100_20-80
  6
CONTINUOUS
 62
         7
100
AcDbLine
 10
350.1559642891
 20
579.0654316478
 30
0.0
 11
350.1559642891
 21
657.5673185214
 31
0.0
  0
LINE
  5
256
100
AcDbEntity
  8
STAP_DN100_20-80
  6
CONTINUOUS
 62
         7
100
AcDbLine
 10
350.1559642891
 20
720.5635447742
 30
0.0
 11
350.1559642891
 21
799.0654316478
 31
0.0
  0
LINE
  5
257
100
AcDbEntity
  8
STAP_DN100_20-80
  6
CONTINUOUS
 62
         7
100
AcDbLine
 10
24.9559642891
 20
766.0654316478
 30
0.0
 11
24.9559642891
 21
612.0654316478
 31
0.0
  0
ELLIPSE
  5
258
100
AcDbEntity
  8
STAP_DN100_20-80
  6
CONTINUOUS
 62
         7
100
AcDbEllipse
 10
153.7059642891
 20
689.0654316478
 30
0.0
 11
0.0000000000003001
 21
71.000000000000128
 31
0.0
210
0.0
220
0.0
230
1.0
 40
0.8660254038
 41
2.005314324827542
 42
3.1415926535897931
  0
ELLIPSE
  5
259
100
AcDbEntity
  8
STAP_DN100_20-80
  6
CONTINUOUS
 62
         7
100
AcDbEllipse
 10
329.6998844308
 20
689.0654316479
 30
0.0
 11
-0.0000000000070222
 21
-59.999999999956408
 31
0.0
210
0.0
220
0.0
230
1.0
 40
0.8660254038
 41
3.0246596921273441
 42
3.2585256150527058
  0
ELLIPSE
  5
25A
100
AcDbEntity
  8
STAP_DN100_20-80
  6
CONTINUOUS
 62
         7
100
AcDbEllipse
 10
329.6998844308
 20
689.0654316478
 30
0.0
 11
0.0000000000051903
 21
59.999999999983885
 31
0.0
210
0.0
220
0.0
230
1.0
 40
0.8660254038
 41
3.0246596921272992
 42
3.2585256150521764
  0
ELLIPSE
  5
25B
100
AcDbEntity
  8
STAP_DN100_20-80
  6
CONTINUOUS
 62
         7
100
AcDbEllipse
 10
329.6998844308
 20
689.0654316478
 30
0.0
 11
-0.0000000000718037
 21
-60.000000000011205
 31
0.0
210
0.0
220
0.0
230
1.0
 40
0.8660254038
 41
4.5954560189234899
 42
4.8293219418482405
  0
ELLIPSE
  5
25C
100
AcDbEntity
  8
STAP_DN100_20-80
  6
CONTINUOUS
 62
         7
100
AcDbEllipse
 10
321.8059642891
 20
689.0654316479
 30
0.0
 11
-0.0000000000008327
 21
60.000000000056339
 31
0.0
210
0.0
220
0.0
230
1.0
 40
0.8660254038
 41
3.0246596921272793
 42
3.1415926535897931
  0
ELLIPSE
  5
25D
100
AcDbEntity
  8
STAP_DN100_20-80
  6
CONTINUOUS
 62
         7
100
AcDbEllipse
 10
321.8059642891
 20
689.0654316477
 30
0.0
 11
0.000000000003969
 21
-60.000000000164036
 31
0.0
210
0.0
220
0.0
230
1.0
 40
0.8660254038
 41
3.1415926535897922
 42
3.2585256150523327
  0
ELLIPSE
  5
25E
100
AcDbEntity
  8
STAP_DN100_20-80
  6
CONTINUOUS
 62
         7
100
AcDbEllipse
 10
321.8059642892
 20
689.0654316478
 30
0.0
 11
0.000000000090955
 21
-60.0000000000611
 31
0.0
210
0.0
220
0.0
230
1.0
 40
0.8660254038
 41
4.5954560189212001
 42
4.8293219418457918
  0
LINE
  5
25F
100
AcDbEntity
  8
STAP_DN100_20-80
  6
CONTINUOUS
 62
         7
100
AcDbLine
 10
238.3030971109
 20
693.9917342296
 30
0.0
 11
238.3030971109
 21
684.1391290661
 31
0.0
  0
ELLIPSE
  5
260
100
AcDbEntity
  8
STAP_DN100_20-80
  6
CONTINUOUS
 62
         7
100
AcDbEllipse
 10
244.3652749374
 20
684.1391290661
 30
0.0
 11
-0.0000000000000139
 21
-7.0000000000000346
 31
0.0
210
0.0
220
0.0
230
1.0
 40
0.8660254038
 41
4.7123889803846915
 42
6.1086523819801126
  0
ELLIPSE
  5
261
100
AcDbEntity
  8
STAP_DN100_20-80
  6
CONTINUOUS
 62
         7
100
AcDbEllipse
 10
235.2059642891
 20
689.0654316478
 30
0.0
 11
0.0000000000005412
 21
80.50000000000442
 31
0.0
210
0.0
220
0.0
230
1.0
 40
0.8660254038
 41
1.6578628091422949
 42
3.1415926535897931
  0
LINE
  5
262
100
AcDbEntity
  8
STAP_DN100_20-80
  6
CONTINUOUS
 62
         7
100
AcDbLine
 10
109.3170534248
 20
633.0654316478
 30
0.0
 11
115.907154784
 21
633.0654316478
 31
0.0
  0
LINE
  5
263
100
AcDbEntity
  8
STAP_DN100_20-80
  6
CONTINUOUS
 62
         7
100
AcDbLine
 10
47.9559642891
 20
702.2658104303
 30
0.0
 11
47.9559642891
 21
711.5654316478
 31
0.0
  0
LINE
  5
264
100
AcDbEntity
  8
STAP_DN100_20-80
  6
CONTINUOUS
 62
         7
100
AcDbLine
 10
163.7560132564
 20
671.0305366337
 30
0.0
 11
160.7560132564
 21
671.0305366337
 31
0.0
  0
LINE
  5
265
100
AcDbEntity
  8
STAP_DN100_20-80
  6
CONTINUOUS
 62
         7
100
AcDbLine
 10
163.7560132564
 20
717.1003266619
 30
0.0
 11
160.7560132564
 21
717.1003266619
 31
0.0
  0
LINE
  5
266
100
AcDbEntity
  8
STAP_DN100_20-80
  6
CONTINUOUS
 62
         7
100
AcDbLine
 10
292.707111066
 20
756.9979351734
 30
0.0
 11
289.707111066
 21
756.9979351734
 31
0.0
  0
LINE
  5
267
100
AcDbEntity
  8
STAP_DN100_20-80
  6
CONTINUOUS
 62
         7
100
AcDbLine
 10
258.1547685448
 20
780.0328301875
 30
0.0
 11
255.1547685448
 21
780.0328301875
 31
0.0
  0
LINE
  5
268
100
AcDbEntity
  8
STAP_DN100_20-80
  6
CONTINUOUS
 62
         7
100
AcDbLine
 10
218.2571600333
 20
780.0328301875
 30
0.0
 11
215.2571600333
 21
780.0328301875
 31
0.0
  0
LINE
  5
269
100
AcDbEntity
  8
STAP_DN100_20-80
  6
CONTINUOUS
 62
         7
100
AcDbLine
 10
183.7048175122
 20
756.9979351734
 30
0.0
 11
180.7048175122
 21
756.9979351734
 31
0.0
  0
LINE
  5
26A
100
AcDbEntity
  8
STAP_DN100_20-80
  6
CONTINUOUS
 62
         7
100
AcDbLine
 10
292.707111066
 20
631.1329281222
 30
0.0
 11
289.8610908403
 21
631.1329281222
 31
0.0
  0
LINE
  5
26B
100
AcDbEntity
  8
STAP_DN100_20-80
  6
CONTINUOUS
 62
         7
100
AcDbLine
 10
258.1547685448
 20
608.0980331081
 30
0.0
 11
255.1547685448
 21
608.0980331081
 31
0.0
  0
LINE
  5
26C
100
AcDbEntity
  8
STAP_DN100_20-80
  6
CONTINUOUS
 62
         7
100
AcDbLine
 10
218.2571600333
 20
608.0980331081
 30
0.0
 11
215.2571600333
 21
608.0980331081
 31
0.0
  0
LINE
  5
26D
100
AcDbEntity
  8
STAP_DN100_20-80
  6
CONTINUOUS
 62
         7
100
AcDbLine
 10
183.7048175122
 20
631.1329281222
 30
0.0
 11
180.7048175122
 21
631.1329281222
 31
0.0
  0
LINE
  5
26E
100
AcDbEntity
  8
STAP_DN100_20-80
  6
CONTINUOUS
 62
         7
100
AcDbLine
 10
233.58659076
 20
685.2154316478
 30
0.0
 11
233.8030971109
 21
685.2154316478
 31
0.0
  0
LINE
  5
26F
100
AcDbEntity
  8
STAP_DN100_20-80
  6
CONTINUOUS
 62
         7
100
AcDbLine
 10
162.6589030073
 20
685.2154316478
 30
0.0
 11
163.428741458
 21
685.2154316478
 31
0.0
  0
LINE
  5
270
100
AcDbEntity
  8
STAP_DN100_20-80
  6
CONTINUOUS
 62
         7
100
AcDbLine
 10
303.4559642891
 20
720.5654316478
 30
0.0
 11
293.9963838416
 21
720.5654316478
 31
0.0
  0
LINE
  5
271
100
AcDbEntity
  8
STAP_DN100_20-80
  6
CONTINUOUS
 62
         7
100
AcDbLine
 10
235.2059642891
 20
786.0654316478
 30
0.0
 11
231.4559642891
 21
786.0654316478
 31
0.0
  0
LINE
  5
272
100
AcDbEntity
  8
STAP_DN100_20-80
  6
CONTINUOUS
 62
         7
100
AcDbLine
 10
306.7609839205
 20
722.2986693416
 30
0.0
 11
297.7626140113
 21
736.531190493
 31
0.0
  0
ENDBLK
  5
273
100
AcDbEntity
  8
STAP_DN100_20-80
  6
CONTINUOUS
 62
         7
100
AcDbBlockEnd
  0
BLOCK
  5
3A8
100
AcDbEntity
  8
0
 62
         1
 48
0.0
100
AcDbBlockBegin
  2
SE4
 70
         0
 10
0.0
 20
0.0
 30
0.0
  3
SE4
  1

  0
ENDBLK
  5
3A9
100
AcDbEntity
  8
0
 62
         1
 48
0.0
100
AcDbBlockEnd
  0
BLOCK
  5
276
100
AcDbEntity
  8
0
 62
         1
 48
0.0
100
AcDbBlockBegin
  2
SE5
 70
         0
 10
0.0
 20
0.0
 30
0.0
  3
SE5
  1

  0
LINE
  5
277
100
AcDbEntity
  8
STAP_DN100_20-80
  6
CONTINUOUS
 62
         7
100
AcDbLine
 10
854.897530015
 20
243.5528952723
 30
0.0
 11
854.897530015
 21
251.4567428496
 31
0.0
  0
LINE
  5
278
100
AcDbEntity
  8
STAP_DN100_20-80
  6
CONTINUOUS
 62
         7
100
AcDbLine
 10
828.897530015
 20
243.5528952723
 30
0.0
 11
827.397530015
 21
240.9548190609
 31
0.0
  0
LINE
  5
279
100
AcDbEntity
  8
STAP_DN100_20-80
  6
CONTINUOUS
 62
         7
100
AcDbLine
 10
856.397530015
 20
237.9548190609
 30
0.0
 11
856.397530015
 21
240.9548190609
 31
0.0
  0
LINE
  5
27A
100
AcDbEntity
  8
STAP_DN100_20-80
  6
CONTINUOUS
 62
         7
100
AcDbLine
 10
850.227530015
 20
263.0548190609
 30
0.0
 11
850.227530015
 21
265.5548190609
 31
0.0
  0
LINE
  5
27B
100
AcDbEntity
  8
STAP_DN100_20-80
  6
CONTINUOUS
 62
         7
100
AcDbLine
 10
511.397530015
 20
265.5548190609
 30
0.0
 11
519.131822068
 21
265.5548190609
 31
0.0
  0
LINE
  5
27C
100
AcDbEntity
  8
STAP_DN100_20-80
  6
CONTINUOUS
 62
         7
100
AcDbLine
 10
820.597530015
 20
431.5548190609
 30
0.0
 11
738.897530015
 21
431.5548190609
 31
0.0
  0
LINE
  5
27D
100
AcDbEntity
  8
STAP_DN100_20-80
  6
CONTINUOUS
 62
         7
100
AcDbLine
 10
639.5932837144
 20
330.5548190609
 30
0.0
 11
635.5049168747
 21
323.4735599746
 31
0.0
  0
LINE
  5
27E
100
AcDbEntity
  8
STAP_DN100_20-80
  6
CONTINUOUS
 62
         7
100
AcDbLine
 10
820.597530015
 20
319.5548190609
 30
0.0
 11
827.9271709463
 21
312.2251781297
 31
0.0
  0
LINE
  5
27F
100
AcDbEntity
  8
STAP_DN100_20-80
  6
CONTINUOUS
 62
         7
100
AcDbLine
 10
835.897530015
 20
218.4548190609
 30
0.0
 11
835.897530015
 21
216.9548190609
 31
0.0
  0
LINE
  5
280
100
AcDbEntity
  8
STAP_DN100_20-80
  6
CONTINUOUS
 62
         7
100
AcDbLine
 10
834.997530015
 20
216.0548190609
 30
0.0
 11
834.997530015
 21
210.4548190609
 31
0.0
  0
LINE
  5
281
100
AcDbEntity
  8
STAP_DN100_20-80
  6
CONTINUOUS
 62
         7
100
AcDbLine
 10
835.897530015
 20
216.9548190609
 30
0.0
 11
834.997530015
 21
216.0548190609
 31
0.0
  0
LINE
  5
282
100
AcDbEntity
  8
STAP_DN100_20-80
  6
CONTINUOUS
 62
         7
100
AcDbLine
 10
837.897530015
 20
222.4548190609
 30
0.0
 11
837.897530015
 21
219.4548190609
 31
0.0
  0
LINE
  5
283
100
AcDbEntity
  8
STAP_DN100_20-80
  6
CONTINUOUS
 62
         7
100
AcDbLine
 10
835.147530015
 20
219.4548190609
 30
0.0
 11
835.147530015
 21
218.4548190609
 31
0.0
  0
LINE
  5
284
100
AcDbEntity
  8
STAP_DN100_20-80
  6
CONTINUOUS
 62
         7
100
AcDbLine
 10
835.047530015
 20
231.4548190609
 30
0.0
 11
835.047530015
 21
222.4548190609
 31
0.0
  0
LINE
  5
285
100
AcDbEntity
  8
STAP_DN100_20-80
  6
CONTINUOUS
 62
         7
100
AcDbLine
 10
854.897530015
 20
236.4548190609
 30
0.0
 11
854.897530015
 21
237.9548190609
 31
0.0
  0
LINE
  5
286
100
AcDbEntity
  8
STAP_DN100_20-80
  6
CONTINUOUS
 62
         7
100
AcDbLine
 10
854.747530015
 20
257.0548190609
 30
0.0
 11
854.747530015
 21
258.0548190609
 31
0.0
  0
LINE
  5
287
100
AcDbEntity
  8
STAP_DN100_20-80
  6
CONTINUOUS
 62
         7
100
AcDbLine
 10
856.397530015
 20
254.0548190609
 30
0.0
 11
856.397530015
 21
257.0548190609
 31
0.0
  0
LINE
  5
288
100
AcDbEntity
  8
STAP_DN100_20-80
  6
CONTINUOUS
 62
         7
100
AcDbLine
 10
854.897530015
 20
251.4567428496
 30
0.0
 11
856.397530015
 21
254.0548190609
 31
0.0
  0
LINE
  5
289
100
AcDbEntity
  8
STAP_DN100_20-80
  6
CONTINUOUS
 62
         7
100
AcDbLine
 10
519.897530015
 20
242.0548190609
 30
0.0
 11
519.897530015
 21
240.5548190609
 31
0.0
  0
LINE
  5
28A
100
AcDbEntity
  8
STAP_DN100_20-80
  6
CONTINUOUS
 62
         7
100
AcDbLine
 10
519.897530015
 20
240.5548190609
 30
0.0
 11
518.997530015
 21
239.6548190609
 31
0.0
  0
LINE
  5
28B
100
AcDbEntity
  8
STAP_DN100_20-80
  6
CONTINUOUS
 62
         7
100
AcDbLine
 10
518.997530015
 20
239.6548190609
 30
0.0
 11
518.997530015
 21
234.0548190609
 31
0.0
  0
LINE
  5
28C
100
AcDbEntity
  8
STAP_DN100_20-80
  6
CONTINUOUS
 62
         7
100
AcDbLine
 10
521.897530015
 20
246.0548190609
 30
0.0
 11
521.897530015
 21
243.0548190609
 31
0.0
  0
LINE
  5
28D
100
AcDbEntity
  8
STAP_DN100_20-80
  6
CONTINUOUS
 62
         7
100
AcDbLine
 10
519.147530015
 20
243.0548190609
 30
0.0
 11
519.147530015
 21
242.0548190609
 31
0.0
  0
LINE
  5
28E
100
AcDbEntity
  8
STAP_DN100_20-80
  6
CONTINUOUS
 62
         7
100
AcDbLine
 10
519.047530015
 20
265.5599971122
 30
0.0
 11
519.047530015
 21
246.0548190609
 31
0.0
  0
LINE
  5
28F
100
AcDbEntity
  8
STAP_DN100_20-80
  6
CONTINUOUS
 62
         7
100
AcDbLine
 10
611.9879986375
 20
323.5410627503
 30
0.0
 11
583.9879986375
 21
275.0436401384
 31
0.0
  0
LINE
  5
290
100
AcDbEntity
  8
STAP_DN100_20-80
  6
CONTINUOUS
 62
         7
100
AcDbLine
 10
573.0760785498
 20
281.3436401384
 30
0.0
 11
568.8260785498
 21
273.9824242062
 31
0.0
  0
LINE
  5
291
100
AcDbEntity
  8
STAP_DN100_20-80
  6
CONTINUOUS
 62
         7
100
AcDbLine
 10
827.897530015
 20
265.5548190609
 30
0.0
 11
833.6704108389
 21
265.5548190609
 31
0.0
  0
LINE
  5
292
100
AcDbEntity
  8
STAP_DN100_20-80
  6
CONTINUOUS
 62
         7
100
AcDbLine
 10
606.9026847912
 20
431.5548190609
 30
0.0
 11
547.197530015
 21
431.5548190609
 31
0.0
  0
LINE
  5
293
100
AcDbEntity
  8
STAP_DN100_20-80
  6
CONTINUOUS
 62
         7
100
AcDbLine
 10
621.781822369
 20
328.7044630535
 30
0.0
 11
617.0975485199
 21
320.5910627503
 31
0.0
  0
LINE
  5
294
100
AcDbEntity
  8
STAP_DN100_20-80
  6
CONTINUOUS
 62
         7
100
AcDbLine
 10
858.897530015
 20
452.5548190609
 30
0.0
 11
856.397530015
 21
452.5548190609
 31
0.0
  0
LINE
  5
295
100
AcDbEntity
  8
STAP_DN100_20-80
  6
CONTINUOUS
 62
         7
100
AcDbLine
 10
547.197530015
 20
431.5548190609
 30
0.0
 11
533.697530015
 21
445.0548190609
 31
0.0
  0
LINE
  5
296
100
AcDbEntity
  8
STAP_DN100_20-80
  6
CONTINUOUS
 62
         7
100
AcDbLine
 10
511.397530015
 20
452.5548190609
 30
0.0
 11
508.897530015
 21
452.5548190609
 31
0.0
  0
LINE
  5
297
100
AcDbEntity
  8
STAP_DN100_20-80
  6
CONTINUOUS
 62
         7
100
AcDbLine
 10
718.7673540288
 20
178.753534408
 30
0.0
 11
715.7673540288
 21
173.5573819852
 31
0.0
  0
LINE
  5
298
100
AcDbEntity
  8
STAP_DN100_20-80
  6
CONTINUOUS
 62
         7
100
AcDbLine
 10
569.8674519634
 20
264.7209329477
 30
0.0
 11
566.8674519634
 21
259.524780525
 31
0.0
  0
LINE
  5
299
100
AcDbEntity
  8
STAP_DN100_20-80
  6
CONTINUOUS
 62
         7
100
AcDbLine
 10
589.8162562192
 20
253.2034854406
 30
0.0
 11
586.8162562192
 21
248.0073330179
 31
0.0
  0
LINE
  5
29A
100
AcDbEntity
  8
STAP_DN100_20-80
  6
CONTINUOUS
 62
         7
100
AcDbLine
 10
624.3685987404
 20
233.2546811849
 30
0.0
 11
621.3685987404
 21
228.0585287622
 31
0.0
  0
LINE
  5
29B
100
AcDbEntity
  8
STAP_DN100_20-80
  6
CONTINUOUS
 62
         7
100
AcDbLine
 10
524.6696628369
 20
151.5012687112
 30
0.0
 11
523.2840221908
 21
152.3012687112
 31
0.0
  0
LINE
  5
29C
100
AcDbEntity
  8
STAP_DN100_20-80
  6
CONTINUOUS
 62
         7
100
AcDbLine
 10
698.818549773
 20
190.270981915
 30
0.0
 11
695.818549773
 21
185.0748294923
 31
0.0
  0
LINE
  5
29D
100
AcDbEntity
  8
STAP_DN100_20-80
  6
CONTINUOUS
 62
         7
100
AcDbLine
 10
664.2662072519
 20
210.2197861708
 30
0.0
 11
661.2662072519
 21
205.023633748
 31
0.0
  0
LINE
  5
29E
100
AcDbEntity
  8
STAP_DN100_20-80
  6
CONTINUOUS
 62
         7
100
AcDbLine
 10
648.1253971932
 20
71.3328731021
 30
0.0
 11
649.5110378393
 21
70.5328731021
 31
0.0
  0
LINE
  5
29F
100
AcDbEntity
  8
STAP_DN100_20-80
  6
CONTINUOUS
 62
         7
100
AcDbLine
 10
718.4997528462
 20
165.224832643
 30
0.0
 11
719.8853934922
 21
164.424832643
 31
0.0
  0
LINE
  5
2A0
100
AcDbEntity
  8
STAP_DN100_20-80
  6
CONTINUOUS
 62
         7
100
AcDbLine
 10
580.947530015
 20
253.5318396677
 30
0.0
 11
580.760030015
 21
253.6400928431
 31
0.0
  0
LINE
  5
2A1
100
AcDbEntity
  8
STAP_DN100_20-80
  6
CONTINUOUS
 62
         7
100
AcDbLine
 10
575.522530015
 20
244.1354640366
 30
0.0
 11
581.6278752245
 21
240.6105413364
 31
0.0
  0
LINE
  5
2A2
100
AcDbEntity
  8
STAP_DN100_20-80
  6
CONTINUOUS
 62
         7
100
AcDbLine
 10
709.8756793578
 20
166.5666370971
 30
0.0
 11
716.9247528462
 21
162.496852621
 31
0.0
  0
LINE
  5
2A3
100
AcDbEntity
  8
STAP_DN100_20-80
  6
CONTINUOUS
 62
         7
100
AcDbLine
 10
568.2731743621
 20
108.0247660613
 30
0.0
 11
558.9231743621
 21
91.8300910105
 31
0.0
  0
LINE
  5
2A4
100
AcDbEntity
  8
STAP_DN100_20-80
  6
CONTINUOUS
 62
         7
100
AcDbLine
 10
554.6177297958
 20
119.3728422726
 30
0.0
 11
553.1177297958
 21
116.7747660613
 31
0.0
  0
ARC
  5
2A5
100
AcDbEntity
  8
STAP_DN100_20-80
  6
CONTINUOUS
 62
         7
100
AcDbCircle
 10
649.547530015
 20
220.7960794046
 30
0.0
 40
200.0
100
AcDbArc
 50
222.5423968763
 51
257.4576031237
  0
LINE
  5
2A6
100
AcDbEntity
  8
STAP_DN100_20-80
  6
CONTINUOUS
 62
         7
100
AcDbLine
 10
568.393065848
 20
274.2324242062
 30
0.0
 11
564.643065848
 21
267.7372336778
 31
0.0
  0
LINE
  5
2A7
100
AcDbEntity
  8
STAP_DN100_20-80
  6
CONTINUOUS
 62
         7
100
AcDbLine
 10
572.6824850104
 20
248.6619161305
 30
0.0
 11
571.2286263031
 21
232.0442350649
 31
0.0
  0
LINE
  5
2A8
100
AcDbEntity
  8
STAP_DN100_20-80
  6
CONTINUOUS
 62
         7
100
AcDbLine
 10
828.897530015
 20
251.4567428496
 30
0.0
 11
828.897530015
 21
243.5528952723
 31
0.0
  0
LINE
  5
2A9
100
AcDbEntity
  8
STAP_DN100_20-80
  6
CONTINUOUS
 62
         7
100
AcDbLine
 10
856.397530015
 20
240.9548190609
 30
0.0
 11
854.897530015
 21
243.5528952723
 31
0.0
  0
LINE
  5
2AA
100
AcDbEntity
  8
STAP_DN100_20-80
  6
CONTINUOUS
 62
         7
100
AcDbLine
 10
827.397530015
 20
240.9548190609
 30
0.0
 11
827.397530015
 21
237.9548190609
 31
0.0
  0
LINE
  5
2AB
100
AcDbEntity
  8
STAP_DN100_20-80
  6
CONTINUOUS
 62
         7
100
AcDbLine
 10
833.567530015
 20
265.5548190609
 30
0.0
 11
833.567530015
 21
263.0548190609
 31
0.0
  0
LINE
  5
2AC
100
AcDbEntity
  8
STAP_DN100_20-80
  6
CONTINUOUS
 62
         7
100
AcDbLine
 10
532.747530015
 20
265.5548190609
 30
0.0
 11
539.897530015
 21
265.5548190609
 31
0.0
  0
LINE
  5
2AD
100
AcDbEntity
  8
STAP_DN100_20-80
  6
CONTINUOUS
 62
         7
100
AcDbLine
 10
539.897530015
 20
265.5548190609
 30
0.0
 11
539.897530015
 21
312.2289019196
 31
0.0
  0
LINE
  5
2AE
100
AcDbEntity
  8
STAP_DN100_20-80
  6
CONTINUOUS
 62
         7
100
AcDbLine
 10
788.5337627782
 20
319.5548190609
 30
0.0
 11
820.597530015
 21
319.5548190609
 31
0.0
  0
LINE
  5
2AF
100
AcDbEntity
  8
STAP_DN100_20-80
  6
CONTINUOUS
 62
         7
100
AcDbLine
 10
745.4901431554
 20
259.9735599746
 30
0.0
 11
762.3401431554
 21
289.1586160821
 31
0.0
  0
LINE
  5
2B0
100
AcDbEntity
  8
STAP_DN100_20-80
  6
CONTINUOUS
 62
         7
100
AcDbLine
 10
834.097530015
 20
445.0548190609
 30
0.0
 11
820.597530015
 21
431.5548190609
 31
0.0
  0
LINE
  5
2B1
100
AcDbEntity
  8
STAP_DN100_20-80
  6
CONTINUOUS
 62
         7
100
AcDbLine
 10
847.897530015
 20
216.9548190609
 30
0.0
 11
847.897530015
 21
218.4548190609
 31
0.0
  0
LINE
  5
2B2
100
AcDbEntity
  8
STAP_DN100_20-80
  6
CONTINUOUS
 62
         7
100
AcDbLine
 10
848.797530015
 20
210.4548190609
 30
0.0
 11
848.797530015
 21
216.0548190609
 31
0.0
  0
LINE
  5
2B3
100
AcDbEntity
  8
STAP_DN100_20-80
  6
CONTINUOUS
 62
         7
100
AcDbLine
 10
848.797530015
 20
216.0548190609
 30
0.0
 11
847.897530015
 21
216.9548190609
 31
0.0
  0
LINE
  5
2B4
100
AcDbEntity
  8
STAP_DN100_20-80
  6
CONTINUOUS
 62
         7
100
AcDbLine
 10
845.897530015
 20
219.4548190609
 30
0.0
 11
845.897530015
 21
222.4548190609
 31
0.0
  0
LINE
  5
2B5
100
AcDbEntity
  8
STAP_DN100_20-80
  6
CONTINUOUS
 62
         7
100
AcDbLine
 10
848.647530015
 20
218.4548190609
 30
0.0
 11
848.647530015
 21
219.4548190609
 31
0.0
  0
LINE
  5
2B6
100
AcDbEntity
  8
STAP_DN100_20-80
  6
CONTINUOUS
 62
         7
100
AcDbLine
 10
848.747530015
 20
222.4548190609
 30
0.0
 11
848.747530015
 21
231.4548190609
 31
0.0
  0
LINE
  5
2B7
100
AcDbEntity
  8
STAP_DN100_20-80
  6
CONTINUOUS
 62
         7
100
AcDbLine
 10
828.897530015
 20
237.9548190609
 30
0.0
 11
828.897530015
 21
236.4548190609
 31
0.0
  0
LINE
  5
2B8
100
AcDbEntity
  8
STAP_DN100_20-80
  6
CONTINUOUS
 62
         7
100
AcDbLine
 10
829.047530015
 20
258.0548190609
 30
0.0
 11
829.047530015
 21
257.0548190609
 31
0.0
  0
LINE
  5
2B9
100
AcDbEntity
  8
STAP_DN100_20-80
  6
CONTINUOUS
 62
         7
100
AcDbLine
 10
827.397530015
 20
257.0548190609
 30
0.0
 11
827.397530015
 21
254.0548190609
 31
0.0
  0
LINE
  5
2BA
100
AcDbEntity
  8
STAP_DN100_20-80
  6
CONTINUOUS
 62
         7
100
AcDbLine
 10
827.397530015
 20
254.0548190609
 30
0.0
 11
828.897530015
 21
251.4567428496
 31
0.0
  0
LINE
  5
2BB
100
AcDbEntity
  8
STAP_DN100_20-80
  6
CONTINUOUS
 62
         7
100
AcDbLine
 10
606.1151341004
 20
25.5689629861
 30
0.0
 11
614.0090542421
 21
39.2416337424
 31
0.0
  0
LINE
  5
2BC
100
AcDbEntity
  8
STAP_DN100_20-80
  6
CONTINUOUS
 62
         7
100
AcDbLine
 10
510.086005788
 20
99.2416337424
 30
0.0
 11
502.1920856463
 21
85.5689629861
 31
0.0
  0
LINE
  5
2BD
100
AcDbEntity
  8
STAP_DN100_20-80
  6
CONTINUOUS
 62
         7
100
AcDbLine
 10
578.9324850104
 20
259.4872336778
 30
0.0
 11
576.9074850104
 21
255.9798307925
 31
0.0
  0
LINE
  5
2BE
100
AcDbEntity
  8
STAP_DN100_20-80
  6
CONTINUOUS
 62
         7
100
AcDbLine
 10
572.9574850104
 20
249.1382301026
 30
0.0
 11
572.6824850104
 21
248.6619161305
 31
0.0
  0
LINE
  5
2BF
100
AcDbEntity
  8
STAP_DN100_20-80
  6
CONTINUOUS
 62
         7
100
AcDbLine
 10
531.897530015
 20
240.5548190609
 30
0.0
 11
531.897530015
 21
242.0548190609
 31
0.0
  0
LINE
  5
2C0
100
AcDbEntity
  8
STAP_DN100_20-80
  6
CONTINUOUS
 62
         7
100
AcDbLine
 10
532.797530015
 20
239.6548190609
 30
0.0
 11
531.897530015
 21
240.5548190609
 31
0.0
  0
LINE
  5
2C1
100
AcDbEntity
  8
STAP_DN100_20-80
  6
CONTINUOUS
 62
         7
100
AcDbLine
 10
532.797530015
 20
234.0548190609
 30
0.0
 11
532.797530015
 21
239.6548190609
 31
0.0
  0
LINE
  5
2C2
100
AcDbEntity
  8
STAP_DN100_20-80
  6
CONTINUOUS
 62
         7
100
AcDbLine
 10
529.897530015
 20
243.0548190609
 30
0.0
 11
529.897530015
 21
246.0548190609
 31
0.0
  0
LINE
  5
2C3
100
AcDbEntity
  8
STAP_DN100_20-80
  6
CONTINUOUS
 62
         7
100
AcDbLine
 10
532.647530015
 20
242.0548190609
 30
0.0
 11
532.647530015
 21
243.0548190609
 31
0.0
  0
LINE
  5
2C4
100
AcDbEntity
  8
STAP_DN100_20-80
  6
CONTINUOUS
 62
         7
100
AcDbLine
 10
532.747530015
 20
246.0548190609
 30
0.0
 11
532.747530015
 21
265.5548190609
 31
0.0
  0
LINE
  5
2C5
100
AcDbEntity
  8
STAP_DN100_20-80
  6
CONTINUOUS
 62
         7
100
AcDbLine
 10
668.0266890405
 20
421.1366896399
 30
0.0
 11
665.440364702
 21
421.1366896399
 31
0.0
  0
LINE
  5
2C6
100
AcDbEntity
  8
STAP_DN100_20-80
  6
CONTINUOUS
 62
         7
100
AcDbLine
 10
669.3429059647
 20
425.5548190609
 30
0.0
 11
668.0266890405
 21
421.1366896399
 31
0.0
  0
LINE
  5
2C7
100
AcDbEntity
  8
STAP_DN100_20-80
  6
CONTINUOUS
 62
         7
100
AcDbLine
 10
665.440364702
 20
421.1366896399
 30
0.0
 11
665.440364702
 21
409.5548190609
 31
0.0
  0
LINE
  5
2C8
100
AcDbEntity
  8
STAP_DN100_20-80
  6
CONTINUOUS
 62
         7
100
AcDbLine
 10
660.6743180685
 20
409.5548190609
 30
0.0
 11
660.6743180685
 21
421.1366896399
 31
0.0
  0
LINE
  5
2C9
100
AcDbEntity
  8
STAP_DN100_20-80
  6
CONTINUOUS
 62
         7
100
AcDbLine
 10
665.440364702
 20
409.5548190609
 30
0.0
 11
660.6743180685
 21
409.5548190609
 31
0.0
  0
LINE
  5
2CA
100
AcDbEntity
  8
STAP_DN100_20-80
  6
CONTINUOUS
 62
         7
100
AcDbLine
 10
729.3070613926
 20
191.1436401384
 30
0.0
 11
757.3070613926
 21
239.6410627503
 31
0.0
  0
LINE
  5
2CB
100
AcDbEntity
  8
STAP_DN100_20-80
  6
CONTINUOUS
 62
         7
100
AcDbLine
 10
735.9689814802
 20
177.4824242062
 30
0.0
 11
740.2189814802
 21
184.8436401384
 31
0.0
  0
LINE
  5
2CC
100
AcDbEntity
  8
STAP_DN100_20-80
  6
CONTINUOUS
 62
         7
100
AcDbLine
 10
660.6743180685
 20
421.1366896399
 30
0.0
 11
657.1616117546
 21
421.1366896399
 31
0.0
  0
LINE
  5
2CD
100
AcDbEntity
  8
STAP_DN100_20-80
  6
CONTINUOUS
 62
         7
100
AcDbLine
 10
658.4568698107
 20
425.5548190609
 30
0.0
 11
669.3429059647
 21
425.5548190609
 31
0.0
  0
LINE
  5
2CE
100
AcDbEntity
  8
STAP_DN100_20-80
  6
CONTINUOUS
 62
         7
100
AcDbLine
 10
657.1616117546
 20
421.1366896399
 30
0.0
 11
658.4568698107
 21
425.5548190609
 31
0.0
  0
ARC
  5
2CF
100
AcDbEntity
  8
STAP_DN100_20-80
  6
CONTINUOUS
 62
         7
100
AcDbCircle
 10
738.897530015
 20
375.5548190609
 30
0.0
 40
56.0
100
AcDbArc
 50
90.0
 51
100.8440625637
  0
LINE
  5
2D0
100
AcDbEntity
  8
STAP_DN100_20-80
  6
CONTINUOUS
 62
         7
100
AcDbLine
 10
665.9308022183
 20
409.5548190609
 30
0.0
 11
673.8616379532
 21
409.5548190609
 31
0.0
  0
LINE
  5
2D1
100
AcDbEntity
  8
STAP_DN100_20-80
  6
CONTINUOUS
 62
         7
100
AcDbLine
 10
677.0431941492
 20
425.5548190609
 30
0.0
 11
670.6758899836
 21
425.5548190609
 31
0.0
  0
LINE
  5
2D2
100
AcDbEntity
  8
STAP_DN100_20-80
  6
CONTINUOUS
 62
         7
100
AcDbLine
 10
681.7882819144
 20
409.5548190609
 30
0.0
 11
677.0431941492
 21
425.5548190609
 31
0.0
  0
LINE
  5
2D3
100
AcDbEntity
  8
STAP_DN100_20-80
  6
CONTINUOUS
 62
         7
100
AcDbLine
 10
670.6758899836
 20
425.5548190609
 30
0.0
 11
665.9308022183
 21
409.5548190609
 31
0.0
  0
LINE
  5
2D4
100
AcDbEntity
  8
STAP_DN100_20-80
  6
CONTINUOUS
 62
         7
100
AcDbLine
 10
673.8616379532
 20
409.5548190609
 30
0.0
 11
675.1149782728
 21
413.6837161005
 31
0.0
  0
LINE
  5
2D5
100
AcDbEntity
  8
STAP_DN100_20-80
  6
CONTINUOUS
 62
         7
100
AcDbLine
 10
676.7371946732
 20
409.5548190609
 30
0.0
 11
681.7882819144
 21
409.5548190609
 31
0.0
  0
LINE
  5
2D6
100
AcDbEntity
  8
STAP_DN100_20-80
  6
CONTINUOUS
 62
         7
100
AcDbLine
 10
675.1149782728
 20
413.6837161005
 30
0.0
 11
671.9921069079
 21
413.6837161005
 31
0.0
  0
LINE
  5
2D7
100
AcDbEntity
  8
STAP_DN100_20-80
  6
CONTINUOUS
 62
         7
100
AcDbLine
 10
671.9921069079
 20
413.6837161005
 30
0.0
 11
673.8616379532
 21
421.5894011935
 31
0.0
  0
LINE
  5
2D8
100
AcDbEntity
  8
STAP_DN100_20-80
  6
CONTINUOUS
 62
         7
100
AcDbLine
 10
673.8616379532
 20
421.5894011935
 30
0.0
 11
676.7371946732
 21
409.5548190609
 31
0.0
  0
LINE
  5
2D9
100
AcDbEntity
  8
STAP_DN100_20-80
  6
CONTINUOUS
 62
         7
100
AcDbLine
 10
850.227530015
 20
265.5548190609
 30
0.0
 11
856.397530015
 21
265.5548190609
 31
0.0
  0
LINE
  5
2DA
100
AcDbEntity
  8
STAP_DN100_20-80
  6
CONTINUOUS
 62
         7
100
AcDbLine
 10
827.897530015
 20
312.2289019196
 30
0.0
 11
827.897530015
 21
265.5548190609
 31
0.0
  0
LINE
  5
2DB
100
AcDbEntity
  8
STAP_DN100_20-80
  6
CONTINUOUS
 62
         7
100
AcDbLine
 10
768.8353336837
 20
285.4086160821
 30
0.0
 11
788.5647744004
 21
319.5810098083
 31
0.0
  0
LINE
  5
2DC
100
AcDbEntity
  8
STAP_DN100_20-80
  6
CONTINUOUS
 62
         7
100
AcDbLine
 10
547.197530015
 20
319.5548190609
 30
0.0
 11
587.6348861173
 21
319.5548190609
 31
0.0
  0
LINE
  5
2DD
100
AcDbEntity
  8
STAP_DN100_20-80
  6
CONTINUOUS
 62
         7
100
AcDbLine
 10
752.1975115102
 20
242.5910627503
 30
0.0
 11
758.0475115102
 21
252.7235599746
 31
0.0
  0
LINE
  5
2DE
100
AcDbEntity
  8
STAP_DN100_20-80
  6
CONTINUOUS
 62
         7
100
AcDbLine
 10
856.397530015
 20
298.5548190609
 30
0.0
 11
858.897530015
 21
298.5548190609
 31
0.0
  0
LINE
  5
2DF
100
AcDbEntity
  8
STAP_DN100_20-80
  6
CONTINUOUS
 62
         7
100
AcDbLine
 10
539.8678890838
 20
312.2251781297
 30
0.0
 11
547.197530015
 21
319.5548190609
 31
0.0
  0
LINE
  5
2E0
100
AcDbEntity
  8
STAP_DN100_20-80
  6
CONTINUOUS
 62
         7
100
AcDbLine
 10
508.897530015
 20
298.5548190609
 30
0.0
 11
511.397530015
 21
298.5548190609
 31
0.0
  0
LINE
  5
2E1
100
AcDbEntity
  8
STAP_DN100_20-80
  6
CONTINUOUS
 62
         7
100
AcDbLine
 10
795.897530015
 20
373.6848950368
 30
0.0
 11
783.9411506595
 21
373.6848950368
 31
0.0
  0
LINE
  5
2E2
100
AcDbEntity
  8
STAP_DN100_20-80
  6
CONTINUOUS
 62
         7
100
AcDbLine
 10
795.897530015
 20
377.424743085
 30
0.0
 11
795.897530015
 21
373.6848950368
 31
0.0
  0
LINE
  5
2E3
100
AcDbEntity
  8
STAP_DN100_20-80
  6
CONTINUOUS
 62
         7
100
AcDbLine
 10
783.9411506595
 20
377.424743085
 30
0.0
 11
795.897530015
 21
377.424743085
 31
0.0
  0
LINE
  5
2E4
100
AcDbEntity
  8
STAP_DN100_20-80
  6
CONTINUOUS
 62
         7
100
AcDbLine
 10
783.9411506595
 20
381.8031816493
 30
0.0
 11
783.9411506595
 21
377.424743085
 31
0.0
  0
LINE
  5
2E5
100
AcDbEntity
  8
STAP_DN100_20-80
  6
CONTINUOUS
 62
         7
100
AcDbLine
 10
780.7807034923
 20
381.8031816493
 30
0.0
 11
783.9411506595
 21
381.8031816493
 31
0.0
  0
LINE
  5
2E6
100
AcDbEntity
  8
STAP_DN100_20-80
  6
CONTINUOUS
 62
         7
100
AcDbLine
 10
774.5348045422
 20
375.5531816493
 30
0.0
 11
780.7807034923
 21
381.8031816493
 31
0.0
  0
LINE
  5
2E7
100
AcDbEntity
  8
STAP_DN100_20-80
  6
CONTINUOUS
 62
         7
100
AcDbLine
 10
780.7807034923
 20
369.3031816493
 30
0.0
 11
774.5348045422
 21
375.5531816493
 31
0.0
  0
LINE
  5
2E8
100
AcDbEntity
  8
STAP_DN100_20-80
  6
CONTINUOUS
 62
         7
100
AcDbLine
 10
783.9411506595
 20
373.6848950368
 30
0.0
 11
783.9411506595
 21
369.3031816493
 31
0.0
  0
LINE
  5
2E9
100
AcDbEntity
  8
STAP_DN100_20-80
  6
CONTINUOUS
 62
         7
100
AcDbLine
 10
835.147530015
 20
218.4548190609
 30
0.0
 11
848.647530015
 21
218.4548190609
 31
0.0
  0
LINE
  5
2EA
100
AcDbEntity
  8
STAP_DN100_20-80
  6
CONTINUOUS
 62
         7
100
AcDbLine
 10
834.997530015
 20
210.4548190609
 30
0.0
 11
848.797530015
 21
210.4548190609
 31
0.0
  0
LINE
  5
2EB
100
AcDbEntity
  8
STAP_DN100_20-80
  6
CONTINUOUS
 62
         7
100
AcDbLine
 10
834.997530015
 20
216.0548190609
 30
0.0
 11
848.797530015
 21
216.0548190609
 31
0.0
  0
LINE
  5
2EC
100
AcDbEntity
  8
STAP_DN100_20-80
  6
CONTINUOUS
 62
         7
100
AcDbLine
 10
835.897530015
 20
216.9548190609
 30
0.0
 11
847.897530015
 21
216.9548190609
 31
0.0
  0
LINE
  5
2ED
100
AcDbEntity
  8
STAP_DN100_20-80
  6
CONTINUOUS
 62
         7
100
AcDbLine
 10
783.9411506595
 20
369.3031816493
 30
0.0
 11
780.7807034923
 21
369.3031816493
 31
0.0
  0
LINE
  5
2EE
100
AcDbEntity
  8
STAP_DN100_20-80
  6
CONTINUOUS
 62
         7
100
AcDbLine
 10
835.147530015
 20
219.4548190609
 30
0.0
 11
848.647530015
 21
219.4548190609
 31
0.0
  0
LINE
  5
2EF
100
AcDbEntity
  8
STAP_DN100_20-80
  6
CONTINUOUS
 62
         7
100
AcDbLine
 10
835.047530015
 20
222.4548190609
 30
0.0
 11
848.747530015
 21
222.4548190609
 31
0.0
  0
LINE
  5
2F0
100
AcDbEntity
  8
STAP_DN100_20-80
  6
CONTINUOUS
 62
         7
100
AcDbLine
 10
830.950030015
 20
231.4548190609
 30
0.0
 11
841.897530015
 21
231.4548190609
 31
0.0
  0
LINE
  5
2F1
100
AcDbEntity
  8
STAP_DN100_20-80
  6
CONTINUOUS
 62
         7
100
AcDbLine
 10
841.897530015
 20
231.4548190609
 30
0.0
 11
852.845030015
 21
231.4548190609
 31
0.0
  0
LINE
  5
2F2
100
AcDbEntity
  8
STAP_DN100_20-80
  6
CONTINUOUS
 62
         7
100
AcDbLine
 10
830.950030015
 20
231.4548190609
 30
0.0
 11
830.950030015
 21
236.4548190609
 31
0.0
  0
LINE
  5
2F3
100
AcDbEntity
  8
STAP_DN100_20-80
  6
CONTINUOUS
 62
         7
100
AcDbLine
 10
841.897530015
 20
231.4548190609
 30
0.0
 11
841.897530015
 21
236.4548190609
 31
0.0
  0
LINE
  5
2F4
100
AcDbEntity
  8
STAP_DN100_20-80
  6
CONTINUOUS
 62
         7
100
AcDbLine
 10
852.845030015
 20
231.4548190609
 30
0.0
 11
852.845030015
 21
236.4548190609
 31
0.0
  0
LINE
  5
2F5
100
AcDbEntity
  8
STAP_DN100_20-80
  6
CONTINUOUS
 62
         7
100
AcDbLine
 10
828.897530015
 20
236.4548190609
 30
0.0
 11
854.897530015
 21
236.4548190609
 31
0.0
  0
LINE
  5
2F6
100
AcDbEntity
  8
STAP_DN100_20-80
  6
CONTINUOUS
 62
         7
100
AcDbLine
 10
827.397530015
 20
257.0548190609
 30
0.0
 11
856.397530015
 21
257.0548190609
 31
0.0
  0
LINE
  5
2F7
100
AcDbEntity
  8
STAP_DN100_20-80
  6
CONTINUOUS
 62
         7
100
AcDbLine
 10
827.397530015
 20
254.0548190609
 30
0.0
 11
856.397530015
 21
254.0548190609
 31
0.0
  0
LINE
  5
2F8
100
AcDbEntity
  8
STAP_DN100_20-80
  6
CONTINUOUS
 62
         7
100
AcDbLine
 10
828.897530015
 20
243.5528952723
 30
0.0
 11
854.897530015
 21
243.5528952723
 31
0.0
  0
LINE
  5
2F9
100
AcDbEntity
  8
STAP_DN100_20-80
  6
CONTINUOUS
 62
         7
100
AcDbLine
 10
827.397530015
 20
237.9548190609
 30
0.0
 11
856.397530015
 21
237.9548190609
 31
0.0
  0
LINE
  5
2FA
100
AcDbEntity
  8
STAP_DN100_20-80
  6
CONTINUOUS
 62
         7
100
AcDbLine
 10
827.397530015
 20
240.9548190609
 30
0.0
 11
856.397530015
 21
240.9548190609
 31
0.0
  0
LINE
  5
2FB
100
AcDbEntity
  8
STAP_DN100_20-80
  6
CONTINUOUS
 62
         7
100
AcDbLine
 10
828.897530015
 20
251.4567428496
 30
0.0
 11
854.897530015
 21
251.4567428496
 31
0.0
  0
LINE
  5
2FC
100
AcDbEntity
  8
STAP_DN100_20-80
  6
CONTINUOUS
 62
         7
100
AcDbLine
 10
841.897530015
 20
263.0548190609
 30
0.0
 11
856.845030015
 21
263.0548190609
 31
0.0
  0
LINE
  5
2FD
100
AcDbEntity
  8
STAP_DN100_20-80
  6
CONTINUOUS
 62
         7
100
AcDbLine
 10
826.950030015
 20
263.0548190609
 30
0.0
 11
841.897530015
 21
263.0548190609
 31
0.0
  0
LINE
  5
2FE
100
AcDbEntity
  8
STAP_DN100_20-80
  6
CONTINUOUS
 62
         7
100
AcDbLine
 10
841.897530015
 20
258.0548190609
 30
0.0
 11
856.845030015
 21
258.0548190609
 31
0.0
  0
LINE
  5
2FF
100
AcDbEntity
  8
STAP_DN100_20-80
  6
CONTINUOUS
 62
         7
100
AcDbLine
 10
826.950030015
 20
258.0548190609
 30
0.0
 11
841.897530015
 21
258.0548190609
 31
0.0
  0
LINE
  5
300
100
AcDbEntity
  8
STAP_DN100_20-80
  6
CONTINUOUS
 62
         7
100
AcDbLine
 10
856.845030015
 20
258.0548190609
 30
0.0
 11
856.845030015
 21
263.0548190609
 31
0.0
  0
LINE
  5
301
100
AcDbEntity
  8
STAP_DN100_20-80
  6
CONTINUOUS
 62
         7
100
AcDbLine
 10
826.950030015
 20
258.0548190609
 30
0.0
 11
826.950030015
 21
263.0548190609
 31
0.0
  0
LINE
  5
302
100
AcDbEntity
  8
STAP_DN100_20-80
  6
CONTINUOUS
 62
         7
100
AcDbLine
 10
841.897530015
 20
258.0548190609
 30
0.0
 11
841.897530015
 21
263.0548190609
 31
0.0
  0
ARC
  5
303
100
AcDbEntity
  8
STAP_DN100_20-80
  6
CONTINUOUS
 62
         7
100
AcDbCircle
 10
578.0443199813
 20
250.6500931663
 30
0.0
 40
10.9000653305
100
AcDbArc
 50
306.176677652
 51
330.5113064978
  0
LINE
  5
304
100
AcDbEntity
  8
STAP_DN100_20-80
  6
CONTINUOUS
 62
         7
100
AcDbLine
 10
567.4698931277
 20
130.3345059693
 30
0.0
 11
567.7797229755
 21
144.401309021
 31
0.0
  0
ARC
  5
305
100
AcDbEntity
  8
STAP_DN100_20-80
  6
CONTINUOUS
 62
         7
100
AcDbCircle
 10
1608.0616150486
 20
136.4589992679
 30
0.0
 40
1040.3122104732
100
AcDbArc
 50
175.3769125521
 51
179.5625685784
  0
ARC
  5
306
100
AcDbEntity
  8
STAP_DN100_20-80
  6
CONTINUOUS
 62
         7
100
AcDbCircle
 10
95.7638862235
 20
1011.1299634083
 30
0.0
 40
1043.1368621466
100
AcDbArc
 50
300.4469830999
 51
304.6218853893
  0
ARC
  5
307
100
AcDbEntity
  8
STAP_DN100_20-80
  6
CONTINUOUS
 62
         7
100
AcDbCircle
 10
495.9314753096
 20
228.1961524346
 30
0.0
 40
75.6150958598
100
AcDbArc
 50
354.0125984197
 51
3.1658863325
  0
LINE
  5
308
100
AcDbEntity
  8
STAP_DN100_20-80
  6
CONTINUOUS
 62
         7
100
AcDbLine
 10
559.5103126801
 20
116.5481082273
 30
0.0
 11
567.4698931277
 21
130.3345059693
 31
0.0
  0
LINE
  5
309
100
AcDbEntity
  8
STAP_DN100_20-80
  6
CONTINUOUS
 62
         7
100
AcDbLine
 10
612.2443277974
 20
104.4839740599
 30
0.0
 11
604.2847473499
 21
90.6975763179
 31
0.0
  0
ARC
  5
30A
100
AcDbEntity
  8
STAP_DN100_20-80
  6
CONTINUOUS
 62
         7
100
AcDbCircle
 10
731.6763182595
 20
93.4813611891
 30
0.0
 40
73.338329665
100
AcDbArc
 50
116.6948689131
 51
126.1339247099
  0
LINE
  5
30B
100
AcDbEntity
  8
STAP_DN100_20-80
  6
CONTINUOUS
 62
         7
100
AcDbLine
 10
591.2456346347
 20
52.3841001804
 30
0.0
 11
613.6542156284
 21
39.4464999115
 31
0.0
  0
LINE
  5
30C
100
AcDbEntity
  8
STAP_DN100_20-80
  6
CONTINUOUS
 62
         7
100
AcDbLine
 10
576.2657643154
 20
61.0327323416
 30
0.0
 11
591.2456346347
 21
52.3841001804
 31
0.0
  0
LINE
  5
30D
100
AcDbEntity
  8
STAP_DN100_20-80
  6
CONTINUOUS
 62
         7
100
AcDbLine
 10
568.1097078415
 20
65.7416337424
 30
0.0
 11
576.2657643154
 21
61.0327323416
 31
0.0
  0
LINE
  5
30E
100
AcDbEntity
  8
STAP_DN100_20-80
  6
CONTINUOUS
 62
         7
100
AcDbLine
 10
502.5469242599
 20
85.3640968169
 30
0.0
 11
502.1920856463
 21
85.5689629861
 31
0.0
  0
LINE
  5
30F
100
AcDbEntity
  8
STAP_DN100_20-80
  6
CONTINUOUS
 62
         7
100
AcDbLine
 10
510.4408444016
 20
99.0367675732
 30
0.0
 11
510.086005788
 21
99.2416337424
 31
0.0
  0
LINE
  5
310
100
AcDbEntity
  8
STAP_DN100_20-80
  6
CONTINUOUS
 62
         7
100
AcDbLine
 10
607.6773302342
 20
85.2747660613
 30
0.0
 11
553.1177297958
 21
116.7747660613
 31
0.0
  0
LINE
  5
311
100
AcDbEntity
  8
STAP_DN100_20-80
  6
CONTINUOUS
 62
         7
100
AcDbLine
 10
574.4507580624
 20
247.6410032079
 30
0.0
 11
572.6824850104
 21
248.6619161305
 31
0.0
  0
LINE
  5
312
100
AcDbEntity
  8
STAP_DN100_20-80
  6
CONTINUOUS
 62
         7
100
AcDbLine
 10
567.4698931277
 20
130.3345059693
 30
0.0
 11
612.2443277974
 21
104.4839740599
 31
0.0
  0
LINE
  5
313
100
AcDbEntity
  8
STAP_DN100_20-80
  6
CONTINUOUS
 62
         7
100
AcDbLine
 10
736.4019941821
 20
177.2324242062
 30
0.0
 11
568.393065848
 21
274.2324242062
 31
0.0
  0
LINE
  5
314
100
AcDbEntity
  8
STAP_DN100_20-80
  6
CONTINUOUS
 62
         7
100
AcDbLine
 10
732.6519941821
 20
170.7372336778
 30
0.0
 11
564.643065848
 21
267.7372336778
 31
0.0
  0
LINE
  5
315
100
AcDbEntity
  8
STAP_DN100_20-80
  6
CONTINUOUS
 62
         7
100
AcDbLine
 10
613.6542156284
 20
39.4464999115
 30
0.0
 11
605.7602954868
 21
25.7738291552
 31
0.0
  0
LINE
  5
316
100
AcDbEntity
  8
STAP_DN100_20-80
  6
CONTINUOUS
 62
         7
100
AcDbLine
 10
591.2456346347
 20
52.3841001804
 30
0.0
 11
580.5191743503
 21
33.8053259825
 31
0.0
  0
LINE
  5
317
100
AcDbEntity
  8
STAP_DN100_20-80
  6
CONTINUOUS
 62
         7
100
AcDbLine
 10
576.2657643154
 20
61.0327323416
 30
0.0
 11
565.539304031
 21
42.4539581437
 31
0.0
  0
LINE
  5
318
100
AcDbEntity
  8
STAP_DN100_20-80
  6
CONTINUOUS
 62
         7
100
AcDbLine
 10
568.1097078415
 20
65.7416337424
 30
0.0
 11
560.2157876998
 21
52.0689629861
 31
0.0
  0
ELLIPSE
  5
319
100
AcDbEntity
  8
STAP_DN100_20-80
  6
CONTINUOUS
 62
         7
100
AcDbEllipse
 10
657.5327118469
 20
216.1858325205
 30
0.0
 11
-99.087356184324761
 21
-171.6243352878017
 31
0.0
210
0.0
220
0.0
230
1.0
 40
0.9396926208
 41
0.131915593829072
 42
0.2738920925471224
  0
LINE
  5
31A
100
AcDbEntity
  8
STAP_DN100_20-80
  6
CONTINUOUS
 62
         7
100
AcDbLine
 10
580.5191743503
 20
33.8053259825
 30
0.0
 11
565.539304031
 21
42.4539581437
 31
0.0
  0
ELLIPSE
  5
31B
100
AcDbEntity
  8
STAP_DN100_20-80
  6
CONTINUOUS
 62
         7
100
AcDbEllipse
 10
671.4866367917
 20
208.1295302017
 30
0.0
 11
-99.087356181390803
 21
-171.62433529378282
 31
0.0
210
0.0
220
0.0
230
1.0
 40
0.3420201433
 41
6.0092932146614437
 42
6.1512697133780954
  0
LINE
  5
31C
100
AcDbEntity
  8
STAP_DN100_20-80
  6
CONTINUOUS
 62
         7
100
AcDbLine
 10
510.4408444016
 20
99.0367675732
 30
0.0
 11
532.8494253954
 21
86.0991673043
 31
0.0
  0
LINE
  5
31D
100
AcDbEntity
  8
STAP_DN100_20-80
  6
CONTINUOUS
 62
         7
100
AcDbLine
 10
510.4408444016
 20
99.0367675732
 30
0.0
 11
502.54692426
 21
85.3640968169
 31
0.0
  0
LINE
  5
31E
100
AcDbEntity
  8
STAP_DN100_20-80
  6
CONTINUOUS
 62
         7
100
AcDbLine
 10
532.8494253954
 20
86.0991673043
 30
0.0
 11
547.8292957147
 21
77.4505351431
 31
0.0
  0
LINE
  5
31F
100
AcDbEntity
  8
STAP_DN100_20-80
  6
CONTINUOUS
 62
         7
100
AcDbLine
 10
532.8494253954
 20
86.0991673043
 30
0.0
 11
522.122965111
 21
67.5203931064
 31
0.0
  0
LINE
  5
320
100
AcDbEntity
  8
STAP_DN100_20-80
  6
CONTINUOUS
 62
         7
100
AcDbLine
 10
547.8292957147
 20
77.4505351431
 30
0.0
 11
555.9853521885
 21
72.7416337424
 31
0.0
  0
LINE
  5
321
100
AcDbEntity
  8
STAP_DN100_20-80
  6
CONTINUOUS
 62
         7
100
AcDbLine
 10
537.1028354303
 20
58.8717609452
 30
0.0
 11
522.122965111
 21
67.5203931064
 31
0.0
  0
ELLIPSE
  5
322
100
AcDbEntity
  8
STAP_DN100_20-80
  6
CONTINUOUS
 62
         7
100
AcDbEllipse
 10
641.5623481793
 20
225.4063262823
 30
0.0
 11
-99.087356173568452
 21
-171.62433529326324
 31
0.0
210
0.0
220
0.0
230
1.0
 40
0.9396926208
 41
6.0092932146276254
 42
6.1512697133458571
  0
ELLIPSE
  5
323
100
AcDbEntity
  8
STAP_DN100_20-80
  6
CONTINUOUS
 62
         7
100
AcDbEllipse
 10
627.6084232381
 20
233.4626286068
 30
0.0
 11
-99.087356180707175
 21
-171.62433529248847
 31
0.0
210
0.0
220
0.0
230
1.0
 40
0.3420201433
 41
0.1319155938021135
 42
0.2738920925193402
  0
LINE
  5
324
100
AcDbEntity
  8
STAP_DN100_20-80
  6
CONTINUOUS
 62
         7
100
AcDbLine
 10
545.8095536941
 20
78.6166337424
 30
0.0
 11
554.8095536941
 21
94.2050910105
 31
0.0
  0
LINE
  5
325
100
AcDbEntity
  8
STAP_DN100_20-80
  6
CONTINUOUS
 62
         7
100
AcDbLine
 10
562.047530015
 20
69.2416337424
 30
0.0
 11
571.047530015
 21
84.8300910105
 31
0.0
  0
LINE
  5
326
100
AcDbEntity
  8
STAP_DN100_20-80
  6
CONTINUOUS
 62
         7
100
AcDbLine
 10
578.285506336
 20
59.8666337424
 30
0.0
 11
587.285506336
 21
75.4550910105
 31
0.0
  0
LINE
  5
327
100
AcDbEntity
  8
STAP_DN100_20-80
  6
CONTINUOUS
 62
         7
100
AcDbLine
 10
547.8292957147
 20
77.4505351431
 30
0.0
 11
537.1028354303
 21
58.8717609452
 31
0.0
  0
LINE
  5
328
100
AcDbEntity
  8
STAP_DN100_20-80
  6
CONTINUOUS
 62
         7
100
AcDbLine
 10
555.9853521885
 20
72.7416337424
 30
0.0
 11
548.0914320469
 21
59.0689629861
 31
0.0
  0
LINE
  5
329
100
AcDbEntity
  8
STAP_DN100_20-80
  6
CONTINUOUS
 62
         7
100
AcDbLine
 10
571.047530015
 20
84.8300910105
 30
0.0
 11
554.8095536941
 21
94.2050910105
 31
0.0
  0
LINE
  5
32A
100
AcDbEntity
  8
STAP_DN100_20-80
  6
CONTINUOUS
 62
         7
100
AcDbLine
 10
587.285506336
 20
75.4550910105
 30
0.0
 11
571.047530015
 21
84.8300910105
 31
0.0
  0
LINE
  5
32B
100
AcDbEntity
  8
STAP_DN100_20-80
  6
CONTINUOUS
 62
         7
100
AcDbLine
 10
624.3639605574
 20
111.8433157907
 30
0.0
 11
612.2443277974
 21
104.4839740599
 31
0.0
  0
LINE
  5
32C
100
AcDbEntity
  8
STAP_DN100_20-80
  6
CONTINUOUS
 62
         7
100
AcDbLine
 10
698.7214445911
 20
158.9677978573
 30
0.0
 11
645.5503971932
 21
66.8728422726
 31
0.0
  0
LINE
  5
32D
100
AcDbEntity
  8
STAP_DN100_20-80
  6
CONTINUOUS
 62
         7
100
AcDbLine
 10
571.4052829058
 20
232.3474212286
 30
0.0
 11
518.2889669494
 21
140.3472632813
 31
0.0
  0
LINE
  5
32E
100
AcDbEntity
  8
STAP_DN100_20-80
  6
CONTINUOUS
 62
         7
100
AcDbLine
 10
567.7797229755
 20
144.401309021
 30
0.0
 11
553.6515806696
 21
119.9306487307
 31
0.0
  0
LINE
  5
32F
100
AcDbEntity
  8
STAP_DN100_20-80
  6
CONTINUOUS
 62
         7
100
AcDbLine
 10
624.3639605574
 20
111.8433157907
 30
0.0
 11
610.1877834729
 21
87.2894568233
 31
0.0
  0
LINE
  5
330
100
AcDbEntity
  8
STAP_DN100_20-80
  6
CONTINUOUS
 62
         7
100
AcDbLine
 10
559.5103126801
 20
116.5481082273
 30
0.0
 11
553.6515806696
 21
119.9306487307
 31
0.0
  0
LINE
  5
331
100
AcDbEntity
  8
STAP_DN100_20-80
  6
CONTINUOUS
 62
         7
100
AcDbLine
 10
553.6515806696
 20
119.9306487307
 30
0.0
 11
523.2984586436
 21
137.4550319032
 31
0.0
  0
LINE
  5
332
100
AcDbEntity
  8
STAP_DN100_20-80
  6
CONTINUOUS
 62
         7
100
AcDbLine
 10
610.1877834729
 20
87.2894568233
 30
0.0
 11
604.2847473499
 21
90.6975763179
 31
0.0
  0
LINE
  5
333
100
AcDbEntity
  8
STAP_DN100_20-80
  6
CONTINUOUS
 62
         7
100
AcDbLine
 10
640.540905499
 20
69.7650736508
 30
0.0
 11
610.1877834729
 21
87.2894568233
 31
0.0
  0
LINE
  5
334
100
AcDbEntity
  8
STAP_DN100_20-80
  6
CONTINUOUS
 62
         7
100
AcDbLine
 10
523.2984586436
 20
137.4550319032
 30
0.0
 11
518.2889669494
 21
140.3472632813
 31
0.0
  0
SPLINE
  5
335
100
AcDbEntity
  8
STAP_DN100_20-80
  6
CONTINUOUS
 62
         7
100
AcDbSpline
210
0.0
220
0.0
230
1.0
 70
         8
 71
         3
 72
         8
 73
         4
 74
         0
 42
0.0
 43
0.0
 40
0.0
 40
0.0
 40
0.0
 40
0.0
 40
1.0
 40
1.0
 40
1.0
 40
1.0
 10
699.39771606647332
 20
415.09612275752829
 30
0.0
 10
691.58562496305126
 20
407.29222869520737
 30
0.0
 10
683.77417271209265
 20
399.48769505505146
 30
0.0
 10
675.96312815278554
 20
391.68275349571951
 30
0.0
  0
LINE
  5
336
100
AcDbEntity
  8
STAP_DN100_20-80
  6
CONTINUOUS
 62
         7
100
AcDbLine
 10
532.647530015
 20
243.0548190609
 30
0.0
 11
519.147530015
 21
243.0548190609
 31
0.0
  0
LINE
  5
337
100
AcDbEntity
  8
STAP_DN100_20-80
  6
CONTINUOUS
 62
         7
100
AcDbLine
 10
532.647530015
 20
242.0548190609
 30
0.0
 11
519.147530015
 21
242.0548190609
 31
0.0
  0
LINE
  5
338
100
AcDbEntity
  8
STAP_DN100_20-80
  6
CONTINUOUS
 62
         7
100
AcDbLine
 10
532.747530015
 20
246.0548190609
 30
0.0
 11
519.047530015
 21
246.0548190609
 31
0.0
  0
LINE
  5
339
100
AcDbEntity
  8
STAP_DN100_20-80
  6
CONTINUOUS
 62
         7
100
AcDbLine
 10
531.897530015
 20
240.5548190609
 30
0.0
 11
519.897530015
 21
240.5548190609
 31
0.0
  0
LINE
  5
33A
100
AcDbEntity
  8
STAP_DN100_20-80
  6
CONTINUOUS
 62
         7
100
AcDbLine
 10
532.797530015
 20
239.6548190609
 30
0.0
 11
518.997530015
 21
239.6548190609
 31
0.0
  0
LINE
  5
33B
100
AcDbEntity
  8
STAP_DN100_20-80
  6
CONTINUOUS
 62
         7
100
AcDbLine
 10
532.797530015
 20
234.0548190609
 30
0.0
 11
518.997530015
 21
234.0548190609
 31
0.0
  0
SPLINE
  5
33C
100
AcDbEntity
  8
STAP_DN100_20-80
  6
CONTINUOUS
 62
         7
100
AcDbSpline
210
0.0
220
0.0
230
1.0
 70
         8
 71
         3
 72
        18
 73
        14
 74
         0
 42
0.0
 43
0.0
 40
0.0
 40
0.0
 40
0.0
 40
0.0
 40
0.1249999999999984
 40
0.1249999999999984
 40
0.2499999999999968
 40
0.2499999999999968
 40
0.3124999999999982
 40
0.3124999999999982
 40
0.3749999999999997
 40
0.3749999999999997
 40
0.4375000000000012
 40
0.4375000000000012
 40
0.4997958310507203
 40
0.4997958310507203
 40
0.4997958310507203
 40
0.4997958310507203
 10
584.47837941495823
 20
241.85155332067171
 30
0.0
 10
584.26957739124566
 20
241.53761930522117
 30
0.0
 10
584.0416247743741
 20
241.26196097660244
 30
0.0
 10
583.57532503720779
 20
240.82373244550229
 30
0.0
 10
583.33497019100298
 20
240.65684781106194
 30
0.0
 10
582.96472270377751
 20
240.49013300904406
 30
0.0
 10
582.84009425244631
 20
240.44905427522858
 30
0.0
 10
582.59464575239338
 20
240.39767815423673
 30
0.0
 10
582.47299188374143
 20
240.38696577260615
 30
0.0
 10
582.23201088590099
 20
240.39544111482735
 30
0.0
 10
582.11268333318276
 20
240.41462512175195
 30
0.0
 10
581.8769487085242
 20
240.48386838402811
 30
0.0
 10
581.76084314054344
 20
240.5340039864254
 30
0.0
 10
581.64917759612638
 20
240.59824478194548
 30
0.0
  0
LINE
  5
33D
100
AcDbEntity
  8
STAP_DN100_20-80
  6
CONTINUOUS
 62
         7
100
AcDbLine
 10
714.0985019305
 20
172.2114931167
 30
0.0
 11
718.0985019305
 21
179.1396963469
 31
0.0
  0
ARC
  5
33E
100
AcDbEntity
  8
STAP_DN100_20-80
  6
CONTINUOUS
 62
         7
100
AcDbCircle
 10
769.015440842
 20
94.2456457453
 30
0.0
 40
93.447399404
100
AcDbArc
 50
127.6318954071
 51
129.2799187121
  0
LINE
  5
33F
100
AcDbEntity
  8
STAP_DN100_20-80
  6
CONTINUOUS
 62
         7
100
AcDbLine
 10
720.4247528462
 20
168.5590304475
 30
0.0
 11
721.4247528462
 21
170.2910812551
 31
0.0
  0
LINE
  5
340
100
AcDbEntity
  8
STAP_DN100_20-80
  6
CONTINUOUS
 62
         7
100
AcDbLine
 10
716.9247528462
 20
162.496852621
 30
0.0
 11
720.4247528462
 21
168.5590304475
 31
0.0
  0
LINE
  5
341
100
AcDbEntity
  8
STAP_DN100_20-80
  6
CONTINUOUS
 62
         7
100
AcDbLine
 10
584.478379415
 20
241.8515533207
 30
0.0
 11
711.9577557191
 21
168.2513010954
 31
0.0
  0
ARC
  5
342
100
AcDbEntity
  8
STAP_DN100_20-80
  6
CONTINUOUS
 62
         7
100
AcDbCircle
 10
783.7647338443
 20
131.9935747006
 30
0.0
 40
80.4416859023
100
AcDbArc
 50
150.0024052621
 51
153.209274622
  0
LINE
  5
343
100
AcDbEntity
  8
STAP_DN100_20-80
  6
CONTINUOUS
 62
         7
100
AcDbLine
 10
588.532312932
 20
247.0165672128
 30
0.0
 11
587.532312932
 21
245.2845164053
 31
0.0
  0
LINE
  5
344
100
AcDbEntity
  8
STAP_DN100_20-80
  6
CONTINUOUS
 62
         7
100
AcDbLine
 10
577.9664411018
 20
255.3684422081
 30
0.0
 11
579.9914411018
 21
258.8758450934
 31
0.0
  0
ELLIPSE
  5
345
100
AcDbEntity
  8
STAP_DN100_20-80
  6
CONTINUOUS
 62
         7
100
AcDbEllipse
 10
579.022530015
 20
250.1976418631
 30
0.0
 11
3.4999999999992539
 21
6.0621778264914887
 31
0.0
210
0.0
220
0.0
230
1.0
 40
0.5
 41
2.170364131239138
 42
4.7123889803846346
  0
LINE
  5
346
100
AcDbEntity
  8
STAP_DN100_20-80
  6
CONTINUOUS
 62
         7
100
AcDbLine
 10
586.0536189283
 20
255.3758450934
 30
0.0
 11
582.0536189283
 21
248.4476418631
 31
0.0
  0
LINE
  5
347
100
AcDbEntity
  8
STAP_DN100_20-80
  6
CONTINUOUS
 62
         7
100
AcDbLine
 10
576.835030015
 20
246.8995284504
 30
0.0
 11
572.785030015
 21
249.2377970406
 31
0.0
  0
LINE
  5
348
100
AcDbEntity
  8
STAP_DN100_20-80
  6
CONTINUOUS
 62
         7
100
AcDbLine
 10
579.797530015
 20
249.7501954045
 30
0.0
 11
575.747530015
 21
252.0884639947
 31
0.0
  0
LINE
  5
349
100
AcDbEntity
  8
STAP_DN100_20-80
  6
CONTINUOUS
 62
         7
100
AcDbLine
 10
580.785030015
 20
253.7411291403
 30
0.0
 11
576.735030015
 21
256.0793977305
 31
0.0
  0
LINE
  5
34A
100
AcDbEntity
  8
STAP_DN100_20-80
  6
CONTINUOUS
 62
         7
100
AcDbLine
 10
571.797530015
 20
254.368997558
 30
0.0
 11
574.760030015
 21
257.2196645121
 31
0.0
  0
LINE
  5
34B
100
AcDbEntity
  8
STAP_DN100_20-80
  6
CONTINUOUS
 62
         7
100
AcDbLine
 10
570.810030015
 20
250.3780638222
 30
0.0
 11
571.797530015
 21
254.368997558
 31
0.0
  0
LINE
  5
34C
100
AcDbEntity
  8
STAP_DN100_20-80
  6
CONTINUOUS
 62
         7
100
AcDbLine
 10
572.785030015
 20
249.2377970406
 30
0.0
 11
570.810030015
 21
250.3780638222
 31
0.0
  0
LINE
  5
34D
100
AcDbEntity
  8
STAP_DN100_20-80
  6
CONTINUOUS
 62
         7
100
AcDbLine
 10
579.797530015
 20
249.7501954045
 30
0.0
 11
576.835030015
 21
246.8995284504
 31
0.0
  0
LINE
  5
34E
100
AcDbEntity
  8
STAP_DN100_20-80
  6
CONTINUOUS
 62
         7
100
AcDbLine
 10
580.785030015
 20
253.7411291403
 30
0.0
 11
579.797530015
 21
249.7501954045
 31
0.0
  0
LINE
  5
34F
100
AcDbEntity
  8
STAP_DN100_20-80
  6
CONTINUOUS
 62
         7
100
AcDbLine
 10
725.4026080666
 20
170.2461315226
 30
0.0
 11
728.4619306727
 21
168.4798307925
 31
0.0
  0
ELLIPSE
  5
350
100
AcDbEntity
  8
STAP_DN100_20-80
  6
CONTINUOUS
 62
         7
100
AcDbEllipse
 10
579.022530015
 20
250.1976418631
 30
0.0
 11
1.9249999999995937
 21
3.3341978045703105
 31
0.0
210
0.0
220
0.0
230
1.0
 40
0.5
 41
3.1415926535897931
 42
6.2831853071795862
  0
LINE
  5
351
100
AcDbEntity
  8
STAP_DN100_20-80
  6
CONTINUOUS
 62
         7
100
AcDbLine
 10
574.760030015
 20
257.2196645121
 30
0.0
 11
576.735030015
 21
256.0793977305
 31
0.0
  0
LINE
  5
352
100
AcDbEntity
  8
STAP_DN100_20-80
  6
CONTINUOUS
 62
         7
100
AcDbLine
 10
575.747530015
 20
252.0884639947
 30
0.0
 11
572.785030015
 21
249.2377970406
 31
0.0
  0
LINE
  5
353
100
AcDbEntity
  8
STAP_DN100_20-80
  6
CONTINUOUS
 62
         7
100
AcDbLine
 10
576.735030015
 20
256.0793977305
 30
0.0
 11
575.747530015
 21
252.0884639947
 31
0.0
  0
LINE
  5
354
100
AcDbEntity
  8
STAP_DN100_20-80
  6
CONTINUOUS
 62
         7
100
AcDbLine
 10
721.8103934922
 20
167.7590304475
 30
0.0
 11
722.8103934922
 21
169.4910812551
 31
0.0
  0
LINE
  5
355
100
AcDbEntity
  8
STAP_DN100_20-80
  6
CONTINUOUS
 62
         7
100
AcDbLine
 10
721.8103934922
 20
167.7590304475
 30
0.0
 11
726.4869306727
 21
165.0590304475
 31
0.0
  0
LINE
  5
356
100
AcDbEntity
  8
STAP_DN100_20-80
  6
CONTINUOUS
 62
         7
100
AcDbLine
 10
719.8353934922
 20
164.3382301026
 30
0.0
 11
721.8103934922
 21
167.7590304475
 31
0.0
  0
LINE
  5
357
100
AcDbEntity
  8
STAP_DN100_20-80
  6
CONTINUOUS
 62
         7
100
AcDbLine
 10
719.8353934922
 20
164.3382301026
 30
0.0
 11
724.5119306727
 21
161.6382301026
 31
0.0
  0
LINE
  5
358
100
AcDbEntity
  8
STAP_DN100_20-80
  6
CONTINUOUS
 62
         7
100
AcDbLine
 10
726.4869306727
 20
165.0590304475
 30
0.0
 11
728.4619306727
 21
168.4798307925
 31
0.0
  0
LINE
  5
359
100
AcDbEntity
  8
STAP_DN100_20-80
  6
CONTINUOUS
 62
         7
100
AcDbLine
 10
724.5119306727
 20
161.6382301026
 30
0.0
 11
726.4869306727
 21
165.0590304475
 31
0.0
  0
LINE
  5
35A
100
AcDbEntity
  8
STAP_DN100_20-80
  6
CONTINUOUS
 62
         7
100
AcDbLine
 10
652.5763046209
 20
75.8420709067
 30
0.0
 11
653.7165714026
 21
77.8170709067
 31
0.0
  0
LINE
  5
35B
100
AcDbEntity
  8
STAP_DN100_20-80
  6
CONTINUOUS
 62
         7
100
AcDbLine
 10
653.7165714026
 20
77.8170709067
 30
0.0
 11
658.393108583
 21
75.1170709067
 31
0.0
  0
LINE
  5
35C
100
AcDbEntity
  8
STAP_DN100_20-80
  6
CONTINUOUS
 62
         7
100
AcDbLine
 10
652.5763046209
 20
75.8420709067
 30
0.0
 11
657.2528418014
 21
73.1420709067
 31
0.0
  0
LINE
  5
35D
100
AcDbEntity
  8
STAP_DN100_20-80
  6
CONTINUOUS
 62
         7
100
AcDbLine
 10
650.2957710576
 20
71.8920709067
 30
0.0
 11
652.5763046209
 21
75.8420709067
 31
0.0
  0
LINE
  5
35E
100
AcDbEntity
  8
STAP_DN100_20-80
  6
CONTINUOUS
 62
         7
100
AcDbLine
 10
650.2957710576
 20
71.8920709067
 30
0.0
 11
654.9723082381
 21
69.1920709067
 31
0.0
  0
LINE
  5
35F
100
AcDbEntity
  8
STAP_DN100_20-80
  6
CONTINUOUS
 62
         7
100
AcDbLine
 10
649.155504276
 20
69.9170709067
 30
0.0
 11
653.8320414564
 21
67.2170709067
 31
0.0
  0
LINE
  5
360
100
AcDbEntity
  8
STAP_DN100_20-80
  6
CONTINUOUS
 62
         7
100
AcDbLine
 10
657.2528418014
 20
73.1420709067
 30
0.0
 11
658.393108583
 21
75.1170709067
 31
0.0
  0
LINE
  5
361
100
AcDbEntity
  8
STAP_DN100_20-80
  6
CONTINUOUS
 62
         7
100
AcDbLine
 10
654.9723082381
 20
69.1920709067
 30
0.0
 11
657.2528418014
 21
73.1420709067
 31
0.0
  0
LINE
  5
362
100
AcDbEntity
  8
STAP_DN100_20-80
  6
CONTINUOUS
 62
         7
100
AcDbLine
 10
653.8320414564
 20
67.2170709067
 30
0.0
 11
654.9723082381
 21
69.1920709067
 31
0.0
  0
LINE
  5
363
100
AcDbEntity
  8
STAP_DN100_20-80
  6
CONTINUOUS
 62
         7
100
AcDbLine
 10
649.155504276
 20
69.9170709067
 30
0.0
 11
650.2957710576
 21
71.8920709067
 31
0.0
  0
LINE
  5
364
100
AcDbEntity
  8
STAP_DN100_20-80
  6
CONTINUOUS
 62
         7
100
AcDbLine
 10
523.6395557541
 20
152.9170709067
 30
0.0
 11
518.9630185737
 21
155.6170709067
 31
0.0
  0
LINE
  5
365
100
AcDbEntity
  8
STAP_DN100_20-80
  6
CONTINUOUS
 62
         7
100
AcDbLine
 10
519.0784886275
 20
145.0170709067
 30
0.0
 11
514.4019514471
 21
147.7170709067
 31
0.0
  0
LINE
  5
366
100
AcDbEntity
  8
STAP_DN100_20-80
  6
CONTINUOUS
 62
         7
100
AcDbLine
 10
520.2187554092
 20
146.9920709067
 30
0.0
 11
515.5422182287
 21
149.6920709067
 31
0.0
  0
LINE
  5
367
100
AcDbEntity
  8
STAP_DN100_20-80
  6
CONTINUOUS
 62
         7
100
AcDbLine
 10
522.4992889725
 20
150.9420709067
 30
0.0
 11
517.822751792
 21
153.6420709067
 31
0.0
  0
LINE
  5
368
100
AcDbEntity
  8
STAP_DN100_20-80
  6
CONTINUOUS
 62
         7
100
AcDbLine
 10
518.9630185737
 20
155.6170709067
 30
0.0
 11
517.822751792
 21
153.6420709067
 31
0.0
  0
LINE
  5
369
100
AcDbEntity
  8
STAP_DN100_20-80
  6
CONTINUOUS
 62
         7
100
AcDbLine
 10
523.6395557541
 20
152.9170709067
 30
0.0
 11
522.4992889725
 21
150.9420709067
 31
0.0
  0
LINE
  5
36A
100
AcDbEntity
  8
STAP_DN100_20-80
  6
CONTINUOUS
 62
         7
100
AcDbLine
 10
520.2187554092
 20
146.9920709067
 30
0.0
 11
519.0784886275
 21
145.0170709067
 31
0.0
  0
LINE
  5
36B
100
AcDbEntity
  8
STAP_DN100_20-80
  6
CONTINUOUS
 62
         7
100
AcDbLine
 10
522.4992889725
 20
150.9420709067
 30
0.0
 11
520.2187554092
 21
146.9920709067
 31
0.0
  0
LINE
  5
36C
100
AcDbEntity
  8
STAP_DN100_20-80
  6
CONTINUOUS
 62
         7
100
AcDbLine
 10
520.8196628369
 20
144.8328731021
 30
0.0
 11
524.6696628369
 21
151.5012687112
 31
0.0
  0
LINE
  5
36D
100
AcDbEntity
  8
STAP_DN100_20-80
  6
CONTINUOUS
 62
         7
100
AcDbLine
 10
515.5422182287
 20
149.6920709067
 30
0.0
 11
514.4019514471
 21
147.7170709067
 31
0.0
  0
LINE
  5
36E
100
AcDbEntity
  8
STAP_DN100_20-80
  6
CONTINUOUS
 62
         7
100
AcDbLine
 10
517.822751792
 20
153.6420709067
 30
0.0
 11
515.5422182287
 21
149.6920709067
 31
0.0
  0
LINE
  5
36F
100
AcDbEntity
  8
STAP_DN100_20-80
  6
CONTINUOUS
 62
         7
100
AcDbLine
 10
695.818549773
 20
185.0748294923
 30
0.0
 11
704.4788038109
 21
180.0748294923
 31
0.0
  0
LINE
  5
370
100
AcDbEntity
  8
STAP_DN100_20-80
  6
CONTINUOUS
 62
         7
100
AcDbLine
 10
566.8674519634
 20
259.524780525
 30
0.0
 11
573.297530015
 21
255.812373231
 31
0.0
  0
LINE
  5
371
100
AcDbEntity
  8
STAP_DN100_20-80
  6
CONTINUOUS
 62
         7
100
AcDbLine
 10
586.8162562192
 20
248.0073330179
 30
0.0
 11
595.476510257
 21
243.0073330179
 31
0.0
  0
LINE
  5
372
100
AcDbEntity
  8
STAP_DN100_20-80
  6
CONTINUOUS
 62
         7
100
AcDbLine
 10
661.2662072519
 20
205.023633748
 30
0.0
 11
669.9264612897
 21
200.023633748
 31
0.0
  0
LINE
  5
373
100
AcDbEntity
  8
STAP_DN100_20-80
  6
CONTINUOUS
 62
         7
100
AcDbLine
 10
621.3685987404
 20
228.0585287622
 30
0.0
 11
630.0288527782
 21
223.0585287622
 31
0.0
  0
LINE
  5
374
100
AcDbEntity
  8
STAP_DN100_20-80
  6
CONTINUOUS
 62
         7
100
AcDbLine
 10
715.7673540288
 20
173.5573819852
 30
0.0
 11
724.4276080666
 21
168.5573819852
 31
0.0
  0
SPLINE
  5
375
100
AcDbEntity
  8
STAP_DN100_20-80
  6
CONTINUOUS
 62
         7
100
AcDbSpline
210
0.0
220
0.0
230
1.0
 70
         8
 71
         3
 72
        12
 73
         8
 74
         0
 42
0.0
 43
0.0
 40
0.5003693654700739
 40
0.5003693654700739
 40
0.5003693654700739
 40
0.5003693654700739
 40
0.625
 40
0.625
 40
0.75
 40
0.75
 40
1.0
 40
1.0
 40
1.0
 40
1.0
 10
539.89752999775794
 20
265.55481906967441
 30
0.0
 10
539.89752390658452
 20
265.55482131711807
 30
0.0
 10
539.75626008327572
 20
265.57304794188337
 30
0.0
 10
539.205630112726
 20
265.64107712746431
 30
0.0
 10
538.78719267395513
 20
265.69190351522019
 30
0.0
 10
537.18051937479788
 20
265.87267336778626
 30
0.0
 10
535.6123823221825
 20
266.03436279550272
 30
0.0
 10
533.697530015045
 20
266.17090799534213
 30
0.0
  0
ARC
  5
376
100
AcDbEntity
  8
STAP_DN100_20-80
  6
CONTINUOUS
 62
         7
100
AcDbCircle
 10
841.8975300158
 20
155.8619787004
 30
0.0
 40
110.0086729596
100
AcDbArc
 50
85.6573322506
 51
94.3426674658
  0
LINE
  5
377
100
AcDbEntity
  8
STAP_DN100_20-80
  6
CONTINUOUS
 62
         7
100
AcDbLine
 10
712.6990547096
 20
370.4732564092
 30
0.0
 11
654.4937632224
 21
404.0780971176
 31
0.0
  0
LINE
  5
378
100
AcDbEntity
  8
STAP_DN100_20-80
  6
CONTINUOUS
 62
         7
100
AcDbLine
 10
645.1185745123
 20
356.836520293
 30
0.0
 11
689.8990547096
 21
330.9824979966
 31
0.0
  0
ARC
  5
379
100
AcDbEntity
  8
STAP_DN100_20-80
  6
CONTINUOUS
 62
         7
100
AcDbCircle
 10
609.8097442241
 20
222.9370430032
 30
0.0
 40
113.4256710235
100
AcDbArc
 50
128.0515564181
 51
132.1467373961
  0
LINE
  5
37A
100
AcDbEntity
  8
STAP_DN100_20-80
  6
CONTINUOUS
 62
         7
100
AcDbLine
 10
654.4937632224
 20
404.0780971176
 30
0.0
 11
606.9026847912
 21
431.5548190609
 31
0.0
  0
ELLIPSE
  5
37B
100
AcDbEntity
  8
STAP_DN100_20-80
  6
CONTINUOUS
 62
         7
100
AcDbEllipse
 10
449.9897651951
 20
375.5548190609
 30
0.0
 11
-220.87180884526427
 21
-8.7458789051014225
 31
0.0
210
0.0
220
0.0
230
1.0
 40
0.2504295784
 41
2.6439592789039734
 42
3.5191969064156652
  0
LINE
  5
37C
100
AcDbEntity
  8
STAP_DN100_20-80
  6
CONTINUOUS
 62
         7
100
AcDbLine
 10
758.0475115102
 20
252.7235599746
 30
0.0
 11
624.9666454409
 21
329.5578338237
 31
0.0
  0
LINE
  5
37D
100
AcDbEntity
  8
STAP_DN100_20-80
  6
CONTINUOUS
 62
         7
100
AcDbLine
 10
768.8353336837
 20
285.4086160821
 30
0.0
 11
689.8990547096
 21
330.9824979966
 31
0.0
  0
ARC
  5
37E
100
AcDbEntity
  8
STAP_DN100_20-80
  6
CONTINUOUS
 62
         7
100
AcDbCircle
 10
757.9853158056
 20
222.9370430028
 30
0.0
 40
113.4256710241
100
AcDbArc
 50
47.8532626039
 51
51.9484435819
  0
ARC
  5
37F
100
AcDbEntity
  8
STAP_DN100_20-80
  6
CONTINUOUS
 62
         7
100
AcDbCircle
 10
944.5587988138
 20
371.7133837157
 30
0.0
 40
164.4973233978
100
AcDbArc
 50
195.3392532248
 51
198.4863365263
  0
LINE
  5
380
100
AcDbEntity
  8
STAP_DN100_20-80
  6
CONTINUOUS
 62
         7
100
AcDbLine
 10
738.897530015
 20
392.2908945414
 30
0.0
 11
772.0200179484
 21
336.2242823147
 31
0.0
  0
LINE
  5
381
100
AcDbEntity
  8
STAP_DN100_20-80
  6
CONTINUOUS
 62
         7
100
AcDbLine
 10
611.9879986375
 20
323.5410627503
 30
0.0
 11
757.3070613926
 21
239.6410627503
 31
0.0
  0
LINE
  5
382
100
AcDbEntity
  8
STAP_DN100_20-80
  6
CONTINUOUS
 62
         7
100
AcDbLine
 10
573.0760785498
 20
281.3436401384
 30
0.0
 11
740.2189814802
 21
184.8436401384
 31
0.0
  0
LINE
  5
383
100
AcDbEntity
  8
STAP_DN100_20-80
  6
CONTINUOUS
 62
         7
100
AcDbLine
 10
608.6347355987
 20
430.5548190609
 30
0.0
 11
728.9602265579
 21
430.5548190609
 31
0.0
  0
ARC
  5
384
100
AcDbEntity
  8
STAP_DN100_20-80
  6
CONTINUOUS
 62
         7
100
AcDbCircle
 10
738.897530015
 20
375.5548190609
 30
0.0
 40
55.8905179793
100
AcDbArc
 50
100.2416102551
 51
134.9699246758
  0
ARC
  5
385
100
AcDbEntity
  8
STAP_DN100_20-80
  6
CONTINUOUS
 62
         7
100
AcDbCircle
 10
525.8975300155
 20
155.762602419
 30
0.0
 40
110.0056968304
100
AcDbArc
 50
86.4299106171
 51
93.570089153
  0
LINE
  5
386
100
AcDbEntity
  8
STAP_DN100_20-80
  6
CONTINUOUS
 62
         7
100
AcDbLine
 10
508.897530015
 20
452.5548190609
 30
0.0
 11
508.897530015
 21
298.5548190609
 31
0.0
  0
LINE
  5
387
100
AcDbEntity
  8
STAP_DN100_20-80
  6
CONTINUOUS
 62
         7
100
AcDbLine
 10
511.397530015
 20
485.5548190609
 30
0.0
 11
511.397530015
 21
265.5548190609
 31
0.0
  0
LINE
  5
388
100
AcDbEntity
  8
STAP_DN100_20-80
  6
CONTINUOUS
 62
         7
100
AcDbLine
 10
547.197530015
 20
431.5548190609
 30
0.0
 11
547.197530015
 21
319.5548190609
 31
0.0
  0
LINE
  5
389
100
AcDbEntity
  8
STAP_DN100_20-80
  6
CONTINUOUS
 62
         7
100
AcDbLine
 10
820.597530015
 20
431.5548190609
 30
0.0
 11
820.597530015
 21
319.5548190609
 31
0.0
  0
LINE
  5
38A
100
AcDbEntity
  8
STAP_DN100_20-80
  6
CONTINUOUS
 62
         7
100
AcDbLine
 10
533.697530015
 20
485.5548190609
 30
0.0
 11
533.697530015
 21
266.1709079953
 31
0.0
  0
LINE
  5
38B
100
AcDbEntity
  8
STAP_DN100_20-80
  6
CONTINUOUS
 62
         7
100
AcDbLine
 10
856.397530015
 20
485.5548190609
 30
0.0
 11
856.397530015
 21
265.5548190609
 31
0.0
  0
LINE
  5
38C
100
AcDbEntity
  8
STAP_DN100_20-80
  6
CONTINUOUS
 62
         7
100
AcDbLine
 10
834.097530015
 20
485.5548190609
 30
0.0
 11
834.097530015
 21
266.1709079953
 31
0.0
  0
LINE
  5
38D
100
AcDbEntity
  8
STAP_DN100_20-80
  6
CONTINUOUS
 62
         7
100
AcDbLine
 10
628.6874450006
 20
330.5548190609
 30
0.0
 11
587.6348861173
 21
319.5548190609
 31
0.0
  0
LINE
  5
38E
100
AcDbEntity
  8
STAP_DN100_20-80
  6
CONTINUOUS
 62
         7
100
AcDbLine
 10
628.6874450006
 20
330.5548190609
 30
0.0
 11
650.506832795
 21
330.5548190609
 31
0.0
  0
LINE
  5
38F
100
AcDbEntity
  8
STAP_DN100_20-80
  6
CONTINUOUS
 62
         7
100
AcDbLine
 10
858.897530015
 20
452.5548190609
 30
0.0
 11
858.897530015
 21
298.5548190609
 31
0.0
  0
ARC
  5
390
100
AcDbEntity
  8
STAP_DN100_20-80
  6
CONTINUOUS
 62
         7
100
AcDbCircle
 10
290.4093375852
 20
886.5977267732
 30
0.0
 40
662.4605054443
100
AcDbArc
 50
302.9273920091
 51
304.8601970878
  0
LINE
  5
391
100
AcDbEntity
  8
STAP_DN100_20-80
  6
CONTINUOUS
 62
         7
100
AcDbLine
 10
785.9214600933
 20
328.1982809503
 30
0.0
 11
712.6990547096
 21
370.4732564092
 31
0.0
  0
SPLINE
  5
392
100
AcDbEntity
  8
STAP_DN100_20-80
  6
CONTINUOUS
 62
         7
100
AcDbSpline
210
0.0
220
0.0
230
1.0
 70
         8
 71
         3
 72
        12
 73
         8
 74
         0
 42
0.0
 43
0.0
 40
0.5003693654700741
 40
0.5003693654700741
 40
0.5003693654700741
 40
0.5003693654700741
 40
0.625
 40
0.625
 40
0.75
 40
0.75
 40
1.0
 40
1.0
 40
1.0
 40
1.0
 10
827.89753003233216
 20
265.55481906967441
 30
0.0
 10
827.89753612350557
 20
265.55482131711807
 30
0.0
 10
828.03879994681449
 20
265.57304794188337
 30
0.0
 10
828.58942991736421
 20
265.64107712746431
 30
0.0
 10
829.00786735613497
 20
265.69190351522019
 30
0.0
 10
830.61454065529233
 20
265.87267336778632
 30
0.0
 10
832.18267770790771
 20
266.03436279550272
 30
0.0
 10
834.09753001504509
 20
266.17090799534213
 30
0.0
  0
LINE
  5
393
100
AcDbEntity
  8
STAP_DN100_20-80
  6
CONTINUOUS
 62
         7
100
AcDbLine
 10
605.7602954868
 20
25.7738291552
 30
0.0
 11
606.1151341004
 21
25.5689629861
 31
0.0
  0
LINE
  5
394
100
AcDbEntity
  8
STAP_DN100_20-80
  6
CONTINUOUS
 62
         7
100
AcDbLine
 10
548.0914320469
 20
59.0689629861
 30
0.0
 11
560.2157876998
 21
52.0689629861
 31
0.0
  0
LINE
  5
395
100
AcDbEntity
  8
STAP_DN100_20-80
  6
CONTINUOUS
 62
         7
100
AcDbLine
 10
613.6542156284
 20
39.4464999115
 30
0.0
 11
614.0090542421
 21
39.2416337423
 31
0.0
  0
LINE
  5
396
100
AcDbEntity
  8
STAP_DN100_20-80
  6
CONTINUOUS
 62
         7
100
AcDbLine
 10
555.9853521885
 20
72.7416337424
 30
0.0
 11
568.1097078415
 21
65.7416337424
 31
0.0
  0
LINE
  5
397
100
AcDbEntity
  8
STAP_DN100_20-80
  6
CONTINUOUS
 62
         7
100
AcDbLine
 10
645.5503971932
 20
66.8728422726
 30
0.0
 11
640.540905499
 21
69.7650736508
 31
0.0
  0
LINE
  5
398
100
AcDbEntity
  8
STAP_DN100_20-80
  6
CONTINUOUS
 62
         7
100
AcDbLine
 10
533.697530015
 20
485.5548190609
 30
0.0
 11
511.397530015
 21
485.5548190609
 31
0.0
  0
LINE
  5
399
100
AcDbEntity
  8
STAP_DN100_20-80
  6
CONTINUOUS
 62
         7
100
AcDbLine
 10
856.397530015
 20
485.5548190609
 30
0.0
 11
834.097530015
 21
485.5548190609
 31
0.0
  0
LINE
  5
39A
100
AcDbEntity
  8
STAP_DN100_20-80
  6
CONTINUOUS
 62
         7
100
AcDbLine
 10
724.4276080666
 20
168.5573819852
 30
0.0
 11
727.4276080666
 21
173.753534408
 31
0.0
  0
LINE
  5
39B
100
AcDbEntity
  8
STAP_DN100_20-80
  6
CONTINUOUS
 62
         7
100
AcDbLine
 10
576.5027060013
 20
256.2135300623
 30
0.0
 11
578.5277060013
 21
259.7209329477
 31
0.0
  0
LINE
  5
39C
100
AcDbEntity
  8
STAP_DN100_20-80
  6
CONTINUOUS
 62
         7
100
AcDbLine
 10
595.476510257
 20
243.0073330179
 30
0.0
 11
598.476510257
 21
248.2034854406
 31
0.0
  0
LINE
  5
39D
100
AcDbEntity
  8
STAP_DN100_20-80
  6
CONTINUOUS
 62
         7
100
AcDbLine
 10
630.0288527782
 20
223.0585287622
 30
0.0
 11
633.0288527782
 21
228.2546811849
 31
0.0
  0
LINE
  5
39E
100
AcDbEntity
  8
STAP_DN100_20-80
  6
CONTINUOUS
 62
         7
100
AcDbLine
 10
519.4340221908
 20
145.6328731021
 30
0.0
 11
520.8196628369
 21
144.8328731021
 31
0.0
  0
LINE
  5
39F
100
AcDbEntity
  8
STAP_DN100_20-80
  6
CONTINUOUS
 62
         7
100
AcDbLine
 10
704.4788038109
 20
180.0748294923
 30
0.0
 11
707.4788038109
 21
185.270981915
 31
0.0
  0
LINE
  5
3A0
100
AcDbEntity
  8
STAP_DN100_20-80
  6
CONTINUOUS
 62
         7
100
AcDbLine
 10
669.9264612897
 20
200.023633748
 30
0.0
 11
672.9264612897
 21
205.2197861708
 31
0.0
  0
LINE
  5
3A1
100
AcDbEntity
  8
STAP_DN100_20-80
  6
CONTINUOUS
 62
         7
100
AcDbLine
 10
653.3610378393
 20
77.2012687112
 30
0.0
 11
651.9753971932
 21
78.0012687112
 31
0.0
  0
LINE
  5
3A2
100
AcDbEntity
  8
STAP_DN100_20-80
  6
CONTINUOUS
 62
         7
100
AcDbLine
 10
576.910030015
 20
246.971697234
 30
0.0
 11
577.097530015
 21
246.8634440585
 31
0.0
  0
LINE
  5
3A3
100
AcDbEntity
  8
STAP_DN100_20-80
  6
CONTINUOUS
 62
         7
100
AcDbLine
 10
583.171885668
 20
77.8300910105
 30
0.0
 11
592.521885668
 21
94.0247660613
 31
0.0
  0
LINE
  5
3A4
100
AcDbEntity
  8
STAP_DN100_20-80
  6
CONTINUOUS
 62
         7
100
AcDbLine
 10
607.6773302342
 20
85.2747660613
 30
0.0
 11
609.1773302342
 21
87.8728422726
 31
0.0
  0
LINE
  5
3A5
100
AcDbEntity
  8
STAP_DN100_20-80
  6
CONTINUOUS
 62
         7
100
AcDbLine
 10
732.6519941821
 20
170.7372336778
 30
0.0
 11
736.4019941821
 21
177.2324242062
 31
0.0
  0
LINE
  5
3A6
100
AcDbEntity
  8
STAP_DN100_20-80
  6
CONTINUOUS
 62
         7
100
AcDbLine
 10
698.5473232296
 20
158.6634245693
 30
0.0
 11
709.913755364
 21
166.6222860324
 31
0.0
  0
ENDBLK
  5
3A7
100
AcDbEntity
  8
STAP_DN100_20-80
  6
CONTINUOUS
 62
         7
100
AcDbBlockEnd
  0
BLOCK
  5
47C
100
AcDbEntity
  8
0
 62
         1
 48
0.0
100
AcDbBlockBegin
  2
SE6
 70
         0
 10
0.0
 20
0.0
 30
0.0
  3
SE6
  1

  0
ENDBLK
  5
47D
100
AcDbEntity
  8
0
 62
         1
 48
0.0
100
AcDbBlockEnd
  0
BLOCK
  5
3AA
100
AcDbEntity
  8
0
 62
         1
 48
0.0
100
AcDbBlockBegin
  2
SE7
 70
         0
 10
0.0
 20
0.0
 30
0.0
  3
SE7
  1

  0
LINE
  5
3AB
100
AcDbEntity
  8
STAP_DN100_20-80
  6
CONTINUOUS
 62
         7
100
AcDbLine
 10
703.1875678349
 20
703.5654316478
 30
0.0
 11
700.1875678349
 21
703.5654316478
 31
0.0
  0
LINE
  5
3AC
100
AcDbEntity
  8
STAP_DN100_20-80
  6
CONTINUOUS
 62
         7
100
AcDbLine
 10
697.5894916236
 20
676.0654316478
 30
0.0
 11
700.1875678349
 21
674.5654316478
 31
0.0
  0
LINE
  5
3AD
100
AcDbEntity
  8
STAP_DN100_20-80
  6
CONTINUOUS
 62
         7
100
AcDbLine
 10
678.0875678349
 20
697.3954316478
 30
0.0
 11
675.2737446727
 21
697.3954316478
 31
0.0
  0
LINE
  5
3AE
100
AcDbEntity
  8
STAP_DN100_20-80
  6
CONTINUOUS
 62
         7
100
AcDbLine
 10
722.6875678349
 20
683.0654316478
 30
0.0
 11
724.1875678349
 21
683.0654316478
 31
0.0
  0
LINE
  5
3AF
100
AcDbEntity
  8
STAP_DN100_20-80
  6
CONTINUOUS
 62
         7
100
AcDbLine
 10
725.0875678349
 20
682.1654316478
 30
0.0
 11
730.6875678349
 21
682.1654316478
 31
0.0
  0
LINE
  5
3B0
100
AcDbEntity
  8
STAP_DN100_20-80
  6
CONTINUOUS
 62
         7
100
AcDbLine
 10
724.1875678349
 20
683.0654316478
 30
0.0
 11
725.0875678349
 21
682.1654316478
 31
0.0
  0
LINE
  5
3B1
100
AcDbEntity
  8
STAP_DN100_20-80
  6
CONTINUOUS
 62
         7
100
AcDbLine
 10
718.6875678349
 20
685.0654316478
 30
0.0
 11
721.6875678349
 21
685.0654316478
 31
0.0
  0
LINE
  5
3B2
100
AcDbEntity
  8
STAP_DN100_20-80
  6
CONTINUOUS
 62
         7
100
AcDbLine
 10
721.6875678349
 20
682.3154316478
 30
0.0
 11
722.6875678349
 21
682.3154316478
 31
0.0
  0
LINE
  5
3B3
100
AcDbEntity
  8
STAP_DN100_20-80
  6
CONTINUOUS
 62
         7
100
AcDbLine
 10
709.6875678349
 20
682.2154316478
 30
0.0
 11
718.6875678349
 21
682.2154316478
 31
0.0
  0
LINE
  5
3B4
100
AcDbEntity
  8
STAP_DN100_20-80
  6
CONTINUOUS
 62
         7
100
AcDbLine
 10
704.6875678349
 20
702.0654316478
 30
0.0
 11
703.1875678349
 21
702.0654316478
 31
0.0
  0
LINE
  5
3B5
100
AcDbEntity
  8
STAP_DN100_20-80
  6
CONTINUOUS
 62
         7
100
AcDbLine
 10
684.0875678349
 20
701.9154316478
 30
0.0
 11
683.0875678349
 21
701.9154316478
 31
0.0
  0
LINE
  5
3B6
100
AcDbEntity
  8
STAP_DN100_20-80
  6
CONTINUOUS
 62
         7
100
AcDbLine
 10
687.0875678349
 20
703.5654316478
 30
0.0
 11
684.0875678349
 21
703.5654316478
 31
0.0
  0
LINE
  5
3B7
100
AcDbEntity
  8
STAP_DN100_20-80
  6
CONTINUOUS
 62
         7
100
AcDbLine
 10
687.6475744707
 20
703.2421116659
 30
0.0
 11
687.0875678349
 21
703.5654316478
 31
0.0
  0
LINE
  5
3B8
100
AcDbEntity
  8
STAP_DN100_20-80
  6
CONTINUOUS
 62
         7
100
AcDbLine
 10
708.0487467575
 20
592.5654316478
 30
0.0
 11
715.4099626896
 21
592.5654316478
 31
0.0
  0
LINE
  5
3B9
100
AcDbEntity
  8
STAP_DN100_20-80
  6
CONTINUOUS
 62
         7
100
AcDbLine
 10
659.5513241455
 20
605.1654316478
 30
0.0
 11
708.0487467575
 21
605.1654316478
 31
0.0
  0
LINE
  5
3BA
100
AcDbEntity
  8
STAP_DN100_20-80
  6
CONTINUOUS
 62
         7
100
AcDbLine
 10
649.4188269213
 20
611.0654316478
 30
0.0
 11
659.5513241455
 21
611.0654316478
 31
0.0
  0
LINE
  5
3BB
100
AcDbEntity
  8
STAP_DN100_20-80
  6
CONTINUOUS
 62
         7
100
AcDbLine
 10
687.6375678349
 20
711.5654316478
 30
0.0
 11
687.6375678349
 21
703.2394453108
 31
0.0
  0
LINE
  5
3BC
100
AcDbEntity
  8
STAP_DN100_20-80
  6
CONTINUOUS
 62
         7
100
AcDbLine
 10
768.335328378
 20
661.0305366337
 30
0.0
 11
770.0850049106
 21
661.0305366337
 31
0.0
  0
LINE
  5
3BD
100
AcDbEntity
  8
STAP_DN100_20-80
  6
CONTINUOUS
 62
         7
100
AcDbLine
 10
769.5594881778
 20
707.1003266619
 30
0.0
 11
770.0850049106
 21
707.1003266619
 31
0.0
  0
LINE
  5
3BE
100
AcDbEntity
  8
STAP_DN100_20-80
  6
CONTINUOUS
 62
         7
100
AcDbLine
 10
756.5251437031
 20
621.1329281222
 30
0.0
 11
758.5675574035
 21
621.1329281222
 31
0.0
  0
LINE
  5
3BF
100
AcDbEntity
  8
STAP_DN100_20-80
  6
CONTINUOUS
 62
         7
100
AcDbLine
 10
825.8931528097
 20
657.5654316478
 30
0.0
 11
840.1176208346
 21
657.5654316478
 31
0.0
  0
LINE
  5
3C0
100
AcDbEntity
  8
STAP_DN100_20-80
  6
CONTINUOUS
 62
         7
100
AcDbLine
 10
885.5734239098
 20
749.0654316478
 30
0.0
 11
871.9007531535
 21
749.0654316478
 31
0.0
  0
LINE
  5
3C1
100
AcDbEntity
  8
STAP_DN100_20-80
  6
CONTINUOUS
 62
         7
100
AcDbLine
 10
715.4099626896
 20
592.0654316478
 30
0.0
 11
721.905153218
 21
592.0654316478
 31
0.0
  0
LINE
  5
3C2
100
AcDbEntity
  8
STAP_DN100_20-80
  6
CONTINUOUS
 62
         7
100
AcDbLine
 10
754.8246742782
 20
617.8318684021
 30
0.0
 11
827.9734067996
 21
658.7284775605
 31
0.0
  0
LINE
  5
3C3
100
AcDbEntity
  8
STAP_DN100_20-80
  6
CONTINUOUS
 62
         7
100
AcDbLine
 10
689.6856440463
 20
676.0654316478
 30
0.0
 11
697.5894916236
 21
676.0654316478
 31
0.0
  0
LINE
  5
3C4
100
AcDbEntity
  8
STAP_DN100_20-80
  6
CONTINUOUS
 62
         7
100
AcDbLine
 10
700.1875678349
 20
674.5654316478
 30
0.0
 11
703.1875678349
 21
674.5654316478
 31
0.0
  0
LINE
  5
3C5
100
AcDbEntity
  8
STAP_DN100_20-80
  6
CONTINUOUS
 62
         7
100
AcDbLine
 10
700.1875678349
 20
703.5654316478
 30
0.0
 11
699.6275611992
 21
703.2421116659
 31
0.0
  0
LINE
  5
3C6
100
AcDbEntity
  8
STAP_DN100_20-80
  6
CONTINUOUS
 62
         7
100
AcDbLine
 10
675.2720328258
 20
680.7354316478
 30
0.0
 11
678.0875678349
 21
680.7354316478
 31
0.0
  0
LINE
  5
3C7
100
AcDbEntity
  8
STAP_DN100_20-80
  6
CONTINUOUS
 62
         7
100
AcDbLine
 10
724.1875678349
 20
695.0654316478
 30
0.0
 11
722.6875678349
 21
695.0654316478
 31
0.0
  0
LINE
  5
3C8
100
AcDbEntity
  8
STAP_DN100_20-80
  6
CONTINUOUS
 62
         7
100
AcDbLine
 10
730.6875678349
 20
695.9654316478
 30
0.0
 11
725.0875678349
 21
695.9654316478
 31
0.0
  0
LINE
  5
3C9
100
AcDbEntity
  8
STAP_DN100_20-80
  6
CONTINUOUS
 62
         7
100
AcDbLine
 10
725.0875678349
 20
695.9654316478
 30
0.0
 11
724.1875678349
 21
695.0654316478
 31
0.0
  0
LINE
  5
3CA
100
AcDbEntity
  8
STAP_DN100_20-80
  6
CONTINUOUS
 62
         7
100
AcDbLine
 10
721.6875678349
 20
693.0654316478
 30
0.0
 11
718.6875678349
 21
693.0654316478
 31
0.0
  0
LINE
  5
3CB
100
AcDbEntity
  8
STAP_DN100_20-80
  6
CONTINUOUS
 62
         7
100
AcDbLine
 10
722.6875678349
 20
695.8154316478
 30
0.0
 11
721.6875678349
 21
695.8154316478
 31
0.0
  0
LINE
  5
3CC
100
AcDbEntity
  8
STAP_DN100_20-80
  6
CONTINUOUS
 62
         7
100
AcDbLine
 10
718.6875678349
 20
695.9154316478
 30
0.0
 11
709.6875678349
 21
695.9154316478
 31
0.0
  0
LINE
  5
3CD
100
AcDbEntity
  8
STAP_DN100_20-80
  6
CONTINUOUS
 62
         7
100
AcDbLine
 10
703.1875678349
 20
676.0654316478
 30
0.0
 11
704.6875678349
 21
676.0654316478
 31
0.0
  0
LINE
  5
3CE
100
AcDbEntity
  8
STAP_DN100_20-80
  6
CONTINUOUS
 62
         7
100
AcDbLine
 10
683.0875678349
 20
676.2154316478
 30
0.0
 11
684.0875678349
 21
676.2154316478
 31
0.0
  0
LINE
  5
3CF
100
AcDbEntity
  8
STAP_DN100_20-80
  6
CONTINUOUS
 62
         7
100
AcDbLine
 10
684.0875678349
 20
674.5654316478
 30
0.0
 11
687.0875678349
 21
674.5654316478
 31
0.0
  0
LINE
  5
3D0
100
AcDbEntity
  8
STAP_DN100_20-80
  6
CONTINUOUS
 62
         7
100
AcDbLine
 10
687.0875678349
 20
674.5654316478
 30
0.0
 11
689.6856440463
 21
676.0654316478
 31
0.0
  0
LINE
  5
3D1
100
AcDbEntity
  8
STAP_DN100_20-80
  6
CONTINUOUS
 62
         7
100
AcDbLine
 10
871.9007531535
 20
629.0654316478
 30
0.0
 11
885.5734239098
 21
629.0654316478
 31
0.0
  0
LINE
  5
3D2
100
AcDbEntity
  8
STAP_DN100_20-80
  6
CONTINUOUS
 62
         7
100
AcDbLine
 10
715.4099626896
 20
785.5654316478
 30
0.0
 11
708.0487467575
 21
785.5654316478
 31
0.0
  0
LINE
  5
3D3
100
AcDbEntity
  8
STAP_DN100_20-80
  6
CONTINUOUS
 62
         7
100
AcDbLine
 10
708.0487467575
 20
772.9654316478
 30
0.0
 11
659.5513241455
 21
772.9654316478
 31
0.0
  0
LINE
  5
3D4
100
AcDbEntity
  8
STAP_DN100_20-80
  6
CONTINUOUS
 62
         7
100
AcDbLine
 10
659.5513241455
 20
767.0654316478
 30
0.0
 11
649.4188269213
 21
767.0654316478
 31
0.0
  0
LINE
  5
3D5
100
AcDbEntity
  8
STAP_DN100_20-80
  6
CONTINUOUS
 62
         7
100
AcDbLine
 10
722.6875678349
 20
682.3154316478
 30
0.0
 11
722.6875678349
 21
695.8154316478
 31
0.0
  0
LINE
  5
3D6
100
AcDbEntity
  8
STAP_DN100_20-80
  6
CONTINUOUS
 62
         7
100
AcDbLine
 10
730.6875678349
 20
682.1654316478
 30
0.0
 11
730.6875678349
 21
695.9654316478
 31
0.0
  0
LINE
  5
3D7
100
AcDbEntity
  8
STAP_DN100_20-80
  6
CONTINUOUS
 62
         7
100
AcDbLine
 10
725.0875678349
 20
682.1654316478
 30
0.0
 11
725.0875678349
 21
695.9654316478
 31
0.0
  0
LINE
  5
3D8
100
AcDbEntity
  8
STAP_DN100_20-80
  6
CONTINUOUS
 62
         7
100
AcDbLine
 10
724.1875678349
 20
683.0654316478
 30
0.0
 11
724.1875678349
 21
695.0654316478
 31
0.0
  0
LINE
  5
3D9
100
AcDbEntity
  8
STAP_DN100_20-80
  6
CONTINUOUS
 62
         7
100
AcDbLine
 10
721.6875678349
 20
682.3154316478
 30
0.0
 11
721.6875678349
 21
695.8154316478
 31
0.0
  0
LINE
  5
3DA
100
AcDbEntity
  8
STAP_DN100_20-80
  6
CONTINUOUS
 62
         7
100
AcDbLine
 10
718.6875678349
 20
682.2154316478
 30
0.0
 11
718.6875678349
 21
695.9154316478
 31
0.0
  0
LINE
  5
3DB
100
AcDbEntity
  8
STAP_DN100_20-80
  6
CONTINUOUS
 62
         7
100
AcDbLine
 10
709.6875678349
 20
695.3859737198
 30
0.0
 11
709.6875678349
 21
701.7065157917
 31
0.0
  0
LINE
  5
3DC
100
AcDbEntity
  8
STAP_DN100_20-80
  6
CONTINUOUS
 62
         7
100
AcDbLine
 10
709.6875678349
 20
676.4243475039
 30
0.0
 11
709.6875678349
 21
682.7448895759
 31
0.0
  0
LINE
  5
3DD
100
AcDbEntity
  8
STAP_DN100_20-80
  6
CONTINUOUS
 62
         7
100
AcDbLine
 10
709.6875678349
 20
682.7448895759
 30
0.0
 11
709.6875678349
 21
695.3859737198
 31
0.0
  0
LINE
  5
3DE
100
AcDbEntity
  8
STAP_DN100_20-80
  6
CONTINUOUS
 62
         7
100
AcDbLine
 10
687.6375678349
 20
711.5654316478
 30
0.0
 11
699.6375678349
 21
711.5654316478
 31
0.0
  0
LINE
  5
3DF
100
AcDbEntity
  8
STAP_DN100_20-80
  6
CONTINUOUS
 62
         7
100
AcDbLine
 10
709.6875678349
 20
701.7065157917
 30
0.0
 11
704.6875678349
 21
701.7065157917
 31
0.0
  0
LINE
  5
3E0
100
AcDbEntity
  8
STAP_DN100_20-80
  6
CONTINUOUS
 62
         7
100
AcDbLine
 10
709.6875678349
 20
676.4243475039
 30
0.0
 11
704.6875678349
 21
676.4243475039
 31
0.0
  0
LINE
  5
3E1
100
AcDbEntity
  8
STAP_DN100_20-80
  6
CONTINUOUS
 62
         7
100
AcDbLine
 10
709.6875678349
 20
682.7448895759
 30
0.0
 11
704.6875678349
 21
682.7448895759
 31
0.0
  0
LINE
  5
3E2
100
AcDbEntity
  8
STAP_DN100_20-80
  6
CONTINUOUS
 62
         7
100
AcDbLine
 10
709.6875678349
 20
695.3859737198
 30
0.0
 11
704.6875678349
 21
695.3859737198
 31
0.0
  0
LINE
  5
3E3
100
AcDbEntity
  8
STAP_DN100_20-80
  6
CONTINUOUS
 62
         7
100
AcDbLine
 10
704.6875678349
 20
702.0654316478
 30
0.0
 11
704.6875678349
 21
676.0654316478
 31
0.0
  0
LINE
  5
3E4
100
AcDbEntity
  8
STAP_DN100_20-80
  6
CONTINUOUS
 62
         7
100
AcDbLine
 10
684.0875678349
 20
703.5654316478
 30
0.0
 11
684.0875678349
 21
674.5654316478
 31
0.0
  0
ARC
  5
3E5
100
AcDbEntity
  8
STAP_DN100_20-80
  6
CONTINUOUS
 62
         7
100
AcDbCircle
 10
631.8964295896
 20
770.8621010843
 30
0.0
 40
95.710728167
100
AcDbArc
 50
313.3435190649
 51
315.0537262965
  0
LINE
  5
3E6
100
AcDbEntity
  8
STAP_DN100_20-80
  6
CONTINUOUS
 62
         7
100
AcDbLine
 10
687.0875678349
 20
703.5654316478
 30
0.0
 11
687.0875678349
 21
674.5654316478
 31
0.0
  0
LINE
  5
3E7
100
AcDbEntity
  8
STAP_DN100_20-80
  6
CONTINUOUS
 62
         7
100
AcDbLine
 10
703.1875678349
 20
703.5654316478
 30
0.0
 11
703.1875678349
 21
674.5654316478
 31
0.0
  0
LINE
  5
3E8
100
AcDbEntity
  8
STAP_DN100_20-80
  6
CONTINUOUS
 62
         7
100
AcDbLine
 10
697.5894916236
 20
676.0654316478
 30
0.0
 11
697.5894916236
 21
701.2563176546
 31
0.0
  0
LINE
  5
3E9
100
AcDbEntity
  8
STAP_DN100_20-80
  6
CONTINUOUS
 62
         7
100
AcDbLine
 10
700.1875678349
 20
703.5654316478
 30
0.0
 11
700.1875678349
 21
674.5654316478
 31
0.0
  0
LINE
  5
3EA
100
AcDbEntity
  8
STAP_DN100_20-80
  6
CONTINUOUS
 62
         7
100
AcDbLine
 10
689.6856440463
 20
676.0654316478
 30
0.0
 11
689.6856440463
 21
701.2563176546
 31
0.0
  0
LINE
  5
3EB
100
AcDbEntity
  8
STAP_DN100_20-80
  6
CONTINUOUS
 62
         7
100
AcDbLine
 10
678.0875678349
 20
680.4354884991
 30
0.0
 11
678.0875678349
 21
697.6953747965
 31
0.0
  0
LINE
  5
3EC
100
AcDbEntity
  8
STAP_DN100_20-80
  6
CONTINUOUS
 62
         7
100
AcDbLine
 10
678.0875678349
 20
671.8055453504
 30
0.0
 11
678.0875678349
 21
680.4354884991
 31
0.0
  0
LINE
  5
3ED
100
AcDbEntity
  8
STAP_DN100_20-80
  6
CONTINUOUS
 62
         7
100
AcDbLine
 10
683.0875678349
 20
680.4354884991
 30
0.0
 11
683.0875678349
 21
697.6953747965
 31
0.0
  0
LINE
  5
3EE
100
AcDbEntity
  8
STAP_DN100_20-80
  6
CONTINUOUS
 62
         7
100
AcDbLine
 10
683.0875678349
 20
671.8055453504
 30
0.0
 11
683.0875678349
 21
680.4354884991
 31
0.0
  0
LINE
  5
3EF
100
AcDbEntity
  8
STAP_DN100_20-80
  6
CONTINUOUS
 62
         7
100
AcDbLine
 10
678.0875678349
 20
697.6953747965
 30
0.0
 11
678.0875678349
 21
706.3253179452
 31
0.0
  0
LINE
  5
3F0
100
AcDbEntity
  8
STAP_DN100_20-80
  6
CONTINUOUS
 62
         7
100
AcDbLine
 10
683.0875678349
 20
697.6953747965
 30
0.0
 11
683.0875678349
 21
706.3253179452
 31
0.0
  0
LINE
  5
3F1
100
AcDbEntity
  8
STAP_DN100_20-80
  6
CONTINUOUS
 62
         7
100
AcDbLine
 10
683.0875678349
 20
671.8055453504
 30
0.0
 11
678.0875678349
 21
671.8055453504
 31
0.0
  0
LINE
  5
3F2
100
AcDbEntity
  8
STAP_DN100_20-80
  6
CONTINUOUS
 62
         7
100
AcDbLine
 10
683.0875678349
 20
680.4354884991
 30
0.0
 11
678.0875678349
 21
680.4354884991
 31
0.0
  0
LINE
  5
3F3
100
AcDbEntity
  8
STAP_DN100_20-80
  6
CONTINUOUS
 62
         7
100
AcDbLine
 10
683.0875678349
 20
697.6953747965
 30
0.0
 11
678.0875678349
 21
697.6953747965
 31
0.0
  0
LINE
  5
3F4
100
AcDbEntity
  8
STAP_DN100_20-80
  6
CONTINUOUS
 62
         7
100
AcDbLine
 10
683.0875678349
 20
706.3253179452
 30
0.0
 11
678.0875678349
 21
706.3253179452
 31
0.0
  0
ARC
  5
3F5
100
AcDbEntity
  8
STAP_DN100_20-80
  6
CONTINUOUS
 62
         7
100
AcDbCircle
 10
755.378706081
 20
770.862101085
 30
0.0
 40
95.710728168
100
AcDbArc
 50
224.9462737035
 51
226.6564809351
  0
ARC
  5
3F6
100
AcDbEntity
  8
STAP_DN100_20-80
  6
CONTINUOUS
 62
         7
100
AcDbCircle
 10
646.3542216889
 20
-400.5371451772
 30
0.0
 40
1087.1066647693
100
AcDbArc
 50
80.3118206719
 51
82.4904376802
  0
SPLINE
  5
3F7
100
AcDbEntity
  8
STAP_DN100_20-80
  6
CONTINUOUS
 62
         7
100
AcDbSpline
210
0.0
220
0.0
230
1.0
 70
         8
 71
         3
 72
        30
 73
        26
 74
         0
 42
0.0
 43
0.0
 40
0.0
 40
0.0
 40
0.0
 40
0.0
 40
0.0625000000000006
 40
0.0625000000000006
 40
0.0937500000000012
 40
0.0937500000000012
 40
0.1250000000000018
 40
0.1250000000000018
 40
0.1562500000000024
 40
0.1562500000000024
 40
0.187500000000003
 40
0.187500000000003
 40
0.2500000000000018
 40
0.2500000000000018
 40
0.3750000000000015
 40
0.3750000000000015
 40
0.5000000000000011
 40
0.5000000000000011
 40
0.6250000000000008
 40
0.6250000000000008
 40
0.7500000000000006
 40
0.7500000000000006
 40
0.8750000000000002
 40
0.8750000000000002
 40
1.0
 40
1.0
 40
1.0
 40
1.0
 10
782.17458903850752
 20
684.13912906606902
 30
0.0
 10
782.1351011108377
 20
683.8211885919136
 30
0.0
 10
782.1212263200697
 20
683.50519928821518
 30
0.0
 10
782.13847386994462
 20
683.03411544857113
 30
0.0
 10
782.15069491175188
 20
682.87794198798849
 30
0.0
 10
782.18642058633236
 20
682.57584597293737
 30
0.0
 10
782.20994934835699
 20
682.4286645510474
 30
0.0
 10
782.26726789864415
 20
682.14128992606163
 30
0.0
 10
782.30130006260379
 20
682.00036316770752
 30
0.0
 10
782.37721870996336
 20
681.73025809772355
 30
0.0
 10
782.41912379977555
 20
681.60063889950607
 30
0.0
 10
782.55494322059155
 20
681.22564246788295
 30
0.0
 10
782.65887225263691
 20
680.99400204164124
 30
0.0
 10
783.00207937050652
 20
680.34177469590838
 30
0.0
 10
783.26308863734789
 20
679.97889769120354
 30
0.0
 10
783.82118375223956
 20
679.34174245259044
 30
0.0
 10
784.12123627528024
 20
679.06688142385337
 30
0.0
 10
784.73575344220058
 20
678.5916387251167
 30
0.0
 10
785.05166206380966
 20
678.38965572964912
 30
0.0
 10
785.69706333820568
 20
678.03870700264611
 30
0.0
 10
786.02660371871593
 20
677.88996860402938
 30
0.0
 10
786.69743188203211
 20
677.63620343317587
 30
0.0
 10
787.03944788677552
 20
677.5311132724371
 30
0.0
 10
787.72993794227443
 20
677.3601395827634
 30
0.0
 10
788.07843993123834
 20
677.29416079854218
 30
0.0
 10
788.42999257132431
 20
677.24547479498358
 30
0.0
  0
ARC
  5
3F8
100
AcDbEntity
  8
STAP_DN100_20-80
  6
CONTINUOUS
 62
         7
100
AcDbCircle
 10
742.6385234918
 20
689.0654316478
 30
0.0
 40
39.8417988554
100
AcDbArc
 50
352.8973951997
 51
7.1026048003
  0
SPLINE
  5
3F9
100
AcDbEntity
  8
STAP_DN100_20-80
  6
CONTINUOUS
 62
         7
100
AcDbSpline
210
0.0
220
0.0
230
1.0
 70
         8
 71
         3
 72
        28
 73
        24
 74
         0
 42
0.0
 43
0.0
 40
0.0
 40
0.0
 40
0.0
 40
0.0
 40
0.2499999999999982
 40
0.2499999999999982
 40
0.3749999999999982
 40
0.3749999999999982
 40
0.4999999999999982
 40
0.4999999999999982
 40
0.6249999999999983
 40
0.6249999999999983
 40
0.7499999999999982
 40
0.7499999999999982
 40
0.8124999999999979
 40
0.8124999999999979
 40
0.8437499999999981
 40
0.8437499999999981
 40
0.8749999999999983
 40
0.8749999999999983
 40
0.9374999999999993
 40
0.9374999999999993
 40
0.9687499999999997
 40
0.9687499999999997
 40
1.0
 40
1.0
 40
1.0
 40
1.0
 10
788.42999257132431
 20
700.88538850064594
 30
0.0
 10
787.72550296567465
 20
700.78782478034691
 30
0.0
 10
787.03733194112942
 20
700.62262725340929
 30
0.0
 10
786.03385106078758
 20
700.24393802891814
 30
0.0
 10
785.70419235521854
 20
700.09565654640346
 30
0.0
 10
785.05624593848279
 20
699.74406966777428
 30
0.0
 10
784.73658752716847
 20
699.53994568051439
 30
0.0
 10
784.11877844125286
 20
699.06200481982989
 30
0.0
 10
783.82083303769298
 20
698.78908630847695
 30
0.0
 10
783.25895248297024
 20
698.14687472502112
 30
0.0
 10
782.99878807475955
 20
697.78350699042278
 30
0.0
 10
782.6579890615991
 20
697.13484252092792
 30
0.0
 10
782.55283977680676
 20
696.90023627525704
 30
0.0
 10
782.41715469029816
 20
696.52436230209378
 30
0.0
 10
782.37540698974169
 20
696.39468926822985
 30
0.0
 10
782.2999587540628
 20
696.12517556853845
 30
0.0
 10
782.26610277326131
 20
695.98437967903897
 30
0.0
 10
782.18071794150239
 20
695.55431378247647
 30
0.0
 10
782.14456326803997
 20
695.25613618742375
 30
0.0
 10
782.12706489347988
 20
694.78852207829402
 30
0.0
 10
782.12750875983033
 20
694.62819966196662
 30
0.0
 10
782.14146052895944
 20
694.30967645626924
 30
0.0
 10
782.15485689141178
 20
694.15060932313827
 30
0.0
 10
782.17458903850752
 20
693.99173422956051
 30
0.0
  0
ARC
  5
3FA
100
AcDbEntity
  8
STAP_DN100_20-80
  6
CONTINUOUS
 62
         7
100
AcDbCircle
 10
646.3521678983
 20
1778.6815903408
 30
0.0
 40
1087.1203985598
100
AcDbArc
 50
277.5095760829
 51
279.688165565
  0
LINE
  5
3FB
100
AcDbEntity
  8
STAP_DN100_20-80
  6
CONTINUOUS
 62
         7
100
AcDbLine
 10
881.2757531535
 20
699.8907491951
 30
0.0
 11
871.9007531535
 21
710.7160667424
 31
0.0
  0
LINE
  5
3FC
100
AcDbEntity
  8
STAP_DN100_20-80
  6
CONTINUOUS
 62
         7
100
AcDbLine
 10
881.2757531535
 20
678.2401141005
 30
0.0
 11
881.2757531535
 21
699.8907491951
 31
0.0
  0
LINE
  5
3FD
100
AcDbEntity
  8
STAP_DN100_20-80
  6
CONTINUOUS
 62
         7
100
AcDbLine
 10
871.9007531535
 20
667.4147965532
 30
0.0
 11
881.2757531535
 21
678.2401141005
 31
0.0
  0
LINE
  5
3FE
100
AcDbEntity
  8
STAP_DN100_20-80
  6
CONTINUOUS
 62
         7
100
AcDbLine
 10
875.4007531535
 20
629.4751639861
 30
0.0
 11
880.1096545542
 21
655.3503645239
 31
0.0
  0
ELLIPSE
  5
3FF
100
AcDbEntity
  8
STAP_DN100_20-80
  6
CONTINUOUS
 62
         7
100
AcDbEllipse
 10
871.9007531535
 20
689.0654316478
 30
0.0
 11
0.0000000000003863
 21
-37.4999999999838
 31
0.0
210
0.0
220
0.0
230
1.0
 40
0.5
 41
0.4531592260647965
 42
1.1176371007291392
  0
LINE
  5
400
100
AcDbEntity
  8
STAP_DN100_20-80
  6
CONTINUOUS
 62
         7
100
AcDbLine
 10
888.7582867155
 20
672.6476288464
 30
0.0
 11
901.6958869844
 21
682.0654316478
 31
0.0
  0
LINE
  5
401
100
AcDbEntity
  8
STAP_DN100_20-80
  6
CONTINUOUS
 62
         7
100
AcDbLine
 10
868.4007531535
 20
748.6556993096
 30
0.0
 11
863.6918517528
 21
722.7804987718
 31
0.0
  0
ELLIPSE
  5
402
100
AcDbEntity
  8
STAP_DN100_20-80
  6
CONTINUOUS
 62
         7
100
AcDbEllipse
 10
871.9007531535
 20
689.0654316478
 30
0.0
 11
-0.0000000000006638
 21
37.499999999984311
 31
0.0
210
0.0
220
0.0
230
1.0
 40
0.5
 41
0.4531592260647932
 42
0.9553166181241607
  0
ELLIPSE
  5
403
100
AcDbEntity
  8
STAP_DN100_20-80
  6
CONTINUOUS
 62
         7
100
AcDbEllipse
 10
840.1176208346
 20
689.0654316478
 30
0.0
 11
-0.0000000000000019
 21
-31.499999999990717
 31
0.0
210
0.0
220
0.0
230
1.0
 40
0.5
 41
0.0000000000000001
 42
0.9625507478844818
  0
ELLIPSE
  5
404
100
AcDbEntity
  8
STAP_DN100_20-80
  6
CONTINUOUS
 62
         7
100
AcDbEllipse
 10
840.1176208346
 20
689.0654316478
 30
0.0
 11
-0.0000000000000019
 21
-31.499999999990717
 31
0.0
210
0.0
220
0.0
230
1.0
 40
0.5
 41
2.179041905705307
 42
3.1415926535897931
  0
ELLIPSE
  5
405
100
AcDbEntity
  8
STAP_DN100_20-80
  6
CONTINUOUS
 62
         7
100
AcDbEllipse
 10
823.7331468812
 20
689.0654316478
 30
0.0
 11
0.0000000000000019
 21
31.499999999990681
 31
0.0
210
0.0
220
0.0
230
1.0
 40
0.5
 41
3.4141786519087081
 42
4.1041434014742739
  0
ELLIPSE
  5
406
100
AcDbEntity
  8
STAP_DN100_20-80
  6
CONTINUOUS
 62
         7
100
AcDbEllipse
 10
732.7304707653
 20
689.0654316478
 30
0.0
 11
0.0000000000000228
 21
-80.500000000003496
 31
0.0
210
0.0
220
0.0
230
1.0
 40
0.5
 41
1.657791553400574
 42
1.8140397993805637
  0
ELLIPSE
  5
407
100
AcDbEntity
  8
STAP_DN100_20-80
  6
CONTINUOUS
 62
         7
100
AcDbEllipse
 10
732.7304707653
 20
689.0654316478
 30
0.0
 11
0.0000000000000228
 21
-80.500000000003496
 31
0.0
210
0.0
220
0.0
230
1.0
 40
0.5
 41
1.9257118733820278
 42
2.3581396361034406
  0
ELLIPSE
  5
408
100
AcDbEntity
  8
STAP_DN100_20-80
  6
CONTINUOUS
 62
         7
100
AcDbEllipse
 10
721.905153218
 20
689.0654316478
 30
0.0
 11
0.0000000000000615
 21
97.000000000004761
 31
0.0
210
0.0
220
0.0
230
1.0
 40
0.5
 41
3.1415926535897922
 42
6.2831853071795853
  0
ELLIPSE
  5
409
100
AcDbEntity
  8
STAP_DN100_20-80
  6
CONTINUOUS
 62
         7
100
AcDbEllipse
 10
715.4099626896
 20
689.0654316478
 30
0.0
 11
0.0000000000000059
 21
97.000000000005585
 31
0.0
210
0.0
220
0.0
230
1.0
 40
0.5
 41
0.0
 42
0.101578281701517
  0
ELLIPSE
  5
40A
100
AcDbEntity
  8
STAP_DN100_20-80
  6
CONTINUOUS
 62
         7
100
AcDbEllipse
 10
715.4099626896
 20
689.0654316478
 30
0.0
 11
0.0000000000000059
 21
97.000000000005585
 31
0.0
210
0.0
220
0.0
230
1.0
 40
0.5
 41
3.0400143718882764
 42
6.2831853071795862
  0
ELLIPSE
  5
40B
100
AcDbEntity
  8
STAP_DN100_20-80
  6
CONTINUOUS
 62
         7
100
AcDbEllipse
 10
724.9565543706
 20
714.3985300543
 30
0.0
 11
194.97240548274004
 21
-35.482076049341948
 31
0.0
210
0.0
220
0.0
230
1.0
 40
0.2961981327
 41
0.2770508256920146
 42
0.4190273244081567
  0
ELLIPSE
  5
40C
100
AcDbEntity
  8
STAP_DN100_20-80
  6
CONTINUOUS
 62
         7
100
AcDbEllipse
 10
733.0128566958
 20
698.2859254098
 30
0.0
 11
116.63072025753655
 21
-160.2201351633301
 31
0.0
210
0.0
220
0.0
230
1.0
 40
0.8137976813
 41
1.1679021613436387
 42
1.309878660061061
  0
ELLIPSE
  5
40D
100
AcDbEntity
  8
STAP_DN100_20-80
  6
CONTINUOUS
 62
         7
100
AcDbEllipse
 10
890.4795273514
 20
689.0654316478
 30
0.0
 11
-0.0000000000022737
 21
37.499999999983466
 31
0.0
210
0.0
220
0.0
230
1.0
 40
0.5
 41
5.1655482064494782
 42
5.8300260811138171
  0
LINE
  5
40E
100
AcDbEntity
  8
STAP_DN100_20-80
  6
CONTINUOUS
 62
         7
100
AcDbLine
 10
880.1096545542
 20
722.7804987718
 30
0.0
 11
898.6884287521
 21
722.7804987718
 31
0.0
  0
LINE
  5
40F
100
AcDbEntity
  8
STAP_DN100_20-80
  6
CONTINUOUS
 62
         7
100
AcDbLine
 10
888.7582867155
 20
705.4832344492
 30
0.0
 11
907.3370609134
 21
705.4832344492
 31
0.0
  0
LINE
  5
410
100
AcDbEntity
  8
STAP_DN100_20-80
  6
CONTINUOUS
 62
         7
100
AcDbLine
 10
901.6958869844
 20
696.0654316478
 30
0.0
 11
888.7582867155
 21
705.4832344492
 31
0.0
  0
ELLIPSE
  5
411
100
AcDbEntity
  8
STAP_DN100_20-80
  6
CONTINUOUS
 62
         7
100
AcDbEllipse
 10
871.9007531535
 20
689.0654316478
 30
0.0
 11
-0.0000000000003308
 21
37.49999999998213
 31
0.0
210
0.0
220
0.0
230
1.0
 40
0.5
 41
5.1655482064494809
 42
5.8300260811138331
  0
LINE
  5
412
100
AcDbEntity
  8
STAP_DN100_20-80
  6
CONTINUOUS
 62
         7
100
AcDbLine
 10
880.1096545542
 20
722.7804987718
 30
0.0
 11
875.4007531535
 21
748.6556993096
 31
0.0
  0
LINE
  5
413
100
AcDbEntity
  8
STAP_DN100_20-80
  6
CONTINUOUS
 62
         7
100
AcDbLine
 10
901.6958869844
 20
696.0654316478
 30
0.0
 11
915.3685577407
 21
696.0654316478
 31
0.0
  0
ELLIPSE
  5
414
100
AcDbEntity
  8
STAP_DN100_20-80
  6
CONTINUOUS
 62
         7
100
AcDbEllipse
 10
733.0128566941
 20
679.8449378862
 30
0.0
 11
116.63072025939773
 21
160.22013516337242
 31
0.0
210
0.0
220
0.0
230
1.0
 40
0.8137976813
 41
4.9733066471265079
 42
5.1152831458431596
  0
LINE
  5
415
100
AcDbEntity
  8
STAP_DN100_20-80
  6
CONTINUOUS
 62
         7
100
AcDbLine
 10
875.4007531535
 20
629.4751639861
 30
0.0
 11
889.0734239098
 21
629.4751639861
 31
0.0
  0
LINE
  5
416
100
AcDbEntity
  8
STAP_DN100_20-80
  6
CONTINUOUS
 62
         7
100
AcDbLine
 10
875.4007531535
 20
748.6556993096
 30
0.0
 11
889.0734239098
 21
748.6556993096
 31
0.0
  0
ELLIPSE
  5
417
100
AcDbEntity
  8
STAP_DN100_20-80
  6
CONTINUOUS
 62
         7
100
AcDbEllipse
 10
890.4795273514
 20
689.0654316478
 30
0.0
 11
-0.0000000000006129
 21
-37.499999999983665
 31
0.0
210
0.0
220
0.0
230
1.0
 40
0.5
 41
0.4531592260648163
 42
1.1176371007291541
  0
LINE
  5
418
100
AcDbEntity
  8
STAP_DN100_20-80
  6
CONTINUOUS
 62
         7
100
AcDbLine
 10
880.1096545542
 20
655.3503645239
 30
0.0
 11
898.6884287521
 21
655.3503645239
 31
0.0
  0
LINE
  5
419
100
AcDbEntity
  8
STAP_DN100_20-80
  6
CONTINUOUS
 62
         7
100
AcDbLine
 10
888.7582867155
 20
672.6476288464
 30
0.0
 11
907.3370609134
 21
672.6476288464
 31
0.0
  0
ELLIPSE
  5
41A
100
AcDbEntity
  8
STAP_DN100_20-80
  6
CONTINUOUS
 62
         7
100
AcDbEllipse
 10
724.9565543753
 20
663.7323332417
 30
0.0
 11
194.97240547800749
 21
35.482076049008668
 31
0.0
210
0.0
220
0.0
230
1.0
 40
0.2961981327
 41
5.8641579827656569
 42
6.0061344814837039
  0
LINE
  5
41B
100
AcDbEntity
  8
STAP_DN100_20-80
  6
CONTINUOUS
 62
         7
100
AcDbLine
 10
901.6958869844
 20
682.0654316478
 30
0.0
 11
915.3685577407
 21
682.0654316478
 31
0.0
  0
ELLIPSE
  5
41C
100
AcDbEntity
  8
STAP_DN100_20-80
  6
CONTINUOUS
 62
         7
100
AcDbEllipse
 10
871.9007531535
 20
689.0654316478
 30
0.0
 11
0.0000000000008859
 21
-37.499999999981135
 31
0.0
210
0.0
220
0.0
230
1.0
 40
0.5
 41
5.3278686890548785
 42
5.830026081113818
  0
LINE
  5
41D
100
AcDbEntity
  8
STAP_DN100_20-80
  6
CONTINUOUS
 62
         7
100
AcDbLine
 10
863.6918517528
 20
655.3503645239
 30
0.0
 11
868.4007531535
 21
629.4751639861
 31
0.0
  0
LINE
  5
41E
100
AcDbEntity
  8
STAP_DN100_20-80
  6
CONTINUOUS
 62
         7
100
AcDbLine
 10
871.9007531535
 20
667.4147965532
 30
0.0
 11
856.3122958854
 21
667.4147965532
 31
0.0
  0
LINE
  5
41F
100
AcDbEntity
  8
STAP_DN100_20-80
  6
CONTINUOUS
 62
         7
100
AcDbLine
 10
871.9007531535
 20
710.7160667424
 30
0.0
 11
856.3122958854
 21
710.7160667424
 31
0.0
  0
LINE
  5
420
100
AcDbEntity
  8
STAP_DN100_20-80
  6
CONTINUOUS
 62
         7
100
AcDbLine
 10
881.2757531535
 20
678.2401141005
 30
0.0
 11
872.6537966258
 21
678.2401141005
 31
0.0
  0
LINE
  5
421
100
AcDbEntity
  8
STAP_DN100_20-80
  6
CONTINUOUS
 62
         7
100
AcDbLine
 10
881.2757531535
 20
699.8907491951
 30
0.0
 11
872.6537966258
 21
699.8907491951
 31
0.0
  0
LINE
  5
422
100
AcDbEntity
  8
STAP_DN100_20-80
  6
CONTINUOUS
 62
         7
100
AcDbLine
 10
856.3122958854
 20
667.4147965532
 30
0.0
 11
853.1507531535
 21
671.0654316478
 31
0.0
  0
LINE
  5
423
100
AcDbEntity
  8
STAP_DN100_20-80
  6
CONTINUOUS
 62
         7
100
AcDbLine
 10
861.9453106264
 20
673.9192417074
 30
0.0
 11
856.3122958854
 21
667.4147965532
 31
0.0
  0
LINE
  5
424
100
AcDbEntity
  8
STAP_DN100_20-80
  6
CONTINUOUS
 62
         7
100
AcDbLine
 10
856.3122958854
 20
710.7160667424
 30
0.0
 11
861.9453106264
 21
704.2116215882
 31
0.0
  0
LINE
  5
425
100
AcDbEntity
  8
STAP_DN100_20-80
  6
CONTINUOUS
 62
         7
100
AcDbLine
 10
853.1507531535
 20
707.0654316478
 30
0.0
 11
856.3122958854
 21
710.7160667424
 31
0.0
  0
LINE
  5
426
100
AcDbEntity
  8
STAP_DN100_20-80
  6
CONTINUOUS
 62
         7
100
AcDbLine
 10
829.2990711051
 20
707.0654316478
 30
0.0
 11
853.8529300726
 21
707.0654316478
 31
0.0
  0
LINE
  5
427
100
AcDbEntity
  8
STAP_DN100_20-80
  6
CONTINUOUS
 62
         7
100
AcDbLine
 10
853.8529300726
 20
707.0654316478
 30
0.0
 11
871.3773132451
 21
700.8853885006
 31
0.0
  0
ELLIPSE
  5
428
100
AcDbEntity
  8
STAP_DN100_20-80
  6
CONTINUOUS
 62
         7
100
AcDbEllipse
 10
870.7695446232
 20
693.9917342296
 30
0.0
 11
0.0000000000001115
 21
7.0000000000000027
 31
0.0
210
0.0
220
0.0
230
1.0
 40
0.5
 41
4.7123889803846808
 42
6.1086523819801455
  0
LINE
  5
429
100
AcDbEntity
  8
STAP_DN100_20-80
  6
CONTINUOUS
 62
         7
100
AcDbLine
 10
829.2990711051
 20
671.0654316478
 30
0.0
 11
853.8529300726
 21
671.0654316478
 31
0.0
  0
ELLIPSE
  5
42A
100
AcDbEntity
  8
STAP_DN100_20-80
  6
CONTINUOUS
 62
         7
100
AcDbEllipse
 10
823.7331468812
 20
689.0654316478
 30
0.0
 11
-0.0000000000000019
 21
-31.49999999999071
 31
0.0
210
0.0
220
0.0
230
1.0
 40
0.5
 41
2.1790419057053114
 42
2.8690066552708613
  0
LINE
  5
42B
100
AcDbEntity
  8
STAP_DN100_20-80
  6
CONTINUOUS
 62
         7
100
AcDbLine
 10
871.3773132451
 20
677.245474795
 30
0.0
 11
853.8529300726
 21
671.0654316478
 31
0.0
  0
ELLIPSE
  5
42C
100
AcDbEntity
  8
STAP_DN100_20-80
  6
CONTINUOUS
 62
         7
100
AcDbEllipse
 10
866.4753159892
 20
689.0654316478
 30
0.0
 11
0.0000000000000002
 21
3.8500000000000019
 31
0.0
210
0.0
220
0.0
230
1.0
 40
0.8660254038
 41
0.4346428128572241
 42
2.7069498407325692
  0
LINE
  5
42D
100
AcDbEntity
  8
STAP_DN100_20-80
  6
CONTINUOUS
 62
         7
100
AcDbLine
 10
772.5833564483
 20
682.0654316478
 30
0.0
 11
770.2786997078
 21
682.0654316478
 31
0.0
  0
LINE
  5
42E
100
AcDbEntity
  8
STAP_DN100_20-80
  6
CONTINUOUS
 62
         7
100
AcDbLine
 10
770.2786997078
 20
696.0654316478
 30
0.0
 11
772.5833564483
 21
696.0654316478
 31
0.0
  0
ELLIPSE
  5
42F
100
AcDbEntity
  8
STAP_DN100_20-80
  6
CONTINUOUS
 62
         7
100
AcDbEllipse
 10
772.5833564483
 20
689.0654316478
 30
0.0
 11
0.0000000000000004
 21
7.0000000000000036
 31
0.0
210
0.0
220
0.0
230
1.0
 40
0.8660254038
 41
3.1415926535897931
 42
4.2143560838912233
  0
ELLIPSE
  5
430
100
AcDbEntity
  8
STAP_DN100_20-80
  6
CONTINUOUS
 62
         7
100
AcDbEllipse
 10
772.5833564483
 20
689.0654316478
 30
0.0
 11
0.0000000000000004
 21
7.0000000000000036
 31
0.0
210
0.0
220
0.0
230
1.0
 40
0.8660254038
 41
5.2104218768781365
 42
6.2831853071795862
  0
ELLIPSE
  5
431
100
AcDbEntity
  8
STAP_DN100_20-80
  6
CONTINUOUS
 62
         7
100
AcDbEllipse
 10
732.7304707653
 20
689.0654316478
 30
0.0
 11
-0.0000000000225604
 21
80.499999999986812
 31
0.0
210
0.0
220
0.0
230
1.0
 40
0.5
 41
3.925045671075801
 42
4.3574734337974217
  0
ELLIPSE
  5
432
100
AcDbEntity
  8
STAP_DN100_20-80
  6
CONTINUOUS
 62
         7
100
AcDbEllipse
 10
732.7304707653
 20
689.0654316478
 30
0.0
 11
-0.0000000000225604
 21
80.499999999986812
 31
0.0
210
0.0
220
0.0
230
1.0
 40
0.5
 41
4.4691455077987525
 42
4.6253937537788552
  0
LINE
  5
433
100
AcDbEntity
  8
STAP_DN100_20-80
  6
CONTINUOUS
 62
         7
100
AcDbLine
 10
770.3917471556
 20
686.7848980845
 30
0.0
 11
772.6625561034
 21
686.7848980845
 31
0.0
  0
LINE
  5
434
100
AcDbEntity
  8
STAP_DN100_20-80
  6
CONTINUOUS
 62
         7
100
AcDbLine
 10
773.3833564483
 20
693.6264987744
 30
0.0
 11
776.0833564483
 21
693.6264987744
 31
0.0
  0
LINE
  5
435
100
AcDbEntity
  8
STAP_DN100_20-80
  6
CONTINUOUS
 62
         7
100
AcDbLine
 10
770.3917471556
 20
691.3459652111
 30
0.0
 11
772.6625561034
 21
691.3459652111
 31
0.0
  0
LINE
  5
436
100
AcDbEntity
  8
STAP_DN100_20-80
  6
CONTINUOUS
 62
         7
100
AcDbLine
 10
773.3833564483
 20
684.5043645212
 30
0.0
 11
770.3882027708
 21
686.5011336396
 31
0.0
  0
LINE
  5
437
100
AcDbEntity
  8
STAP_DN100_20-80
  6
CONTINUOUS
 62
         7
100
AcDbLine
 10
773.3833564483
 20
684.5043645212
 30
0.0
 11
776.0833564483
 21
684.5043645212
 31
0.0
  0
LINE
  5
438
100
AcDbEntity
  8
STAP_DN100_20-80
  6
CONTINUOUS
 62
         7
100
AcDbLine
 10
770.3882027708
 20
691.629729656
 30
0.0
 11
773.3833564483
 21
693.6264987744
 31
0.0
  0
LINE
  5
439
100
AcDbEntity
  8
STAP_DN100_20-80
  6
CONTINUOUS
 62
         7
100
AcDbLine
 10
865.3003159892
 20
693.0154316478
 30
0.0
 11
868.0003159892
 21
693.0154316478
 31
0.0
  0
ELLIPSE
  5
43A
100
AcDbEntity
  8
STAP_DN100_20-80
  6
CONTINUOUS
 62
         7
100
AcDbEllipse
 10
772.5833564483
 20
689.0654316478
 30
0.0
 11
-0.0000000000000002
 21
-3.8499999999999996
 31
0.0
210
0.0
220
0.0
230
1.0
 40
0.8660254038
 41
3.2281435386054134
 42
3.8620963925269955
  0
ELLIPSE
  5
43B
100
AcDbEntity
  8
STAP_DN100_20-80
  6
CONTINUOUS
 62
         7
100
AcDbEllipse
 10
772.5833564483
 20
689.0654316478
 30
0.0
 11
-0.0000000000000002
 21
-3.8499999999999996
 31
0.0
210
0.0
220
0.0
230
1.0
 40
0.8660254038
 41
5.5626815682424287
 42
6.1966344221639655
  0
LINE
  5
43C
100
AcDbEntity
  8
STAP_DN100_20-80
  6
CONTINUOUS
 62
         7
100
AcDbLine
 10
776.0833564483
 20
684.5043645212
 30
0.0
 11
772.6625561034
 21
686.7848980845
 31
0.0
  0
LINE
  5
43D
100
AcDbEntity
  8
STAP_DN100_20-80
  6
CONTINUOUS
 62
         7
100
AcDbLine
 10
779.5041567933
 20
686.7848980845
 30
0.0
 11
776.0833564483
 21
684.5043645212
 31
0.0
  0
LINE
  5
43E
100
AcDbEntity
  8
STAP_DN100_20-80
  6
CONTINUOUS
 62
         7
100
AcDbLine
 10
779.5041567933
 20
691.3459652111
 30
0.0
 11
779.5041567933
 21
686.7848980845
 31
0.0
  0
LINE
  5
43F
100
AcDbEntity
  8
STAP_DN100_20-80
  6
CONTINUOUS
 62
         7
100
AcDbLine
 10
776.0833564483
 20
693.6264987744
 30
0.0
 11
779.5041567933
 21
691.3459652111
 31
0.0
  0
LINE
  5
440
100
AcDbEntity
  8
STAP_DN100_20-80
  6
CONTINUOUS
 62
         7
100
AcDbLine
 10
772.6625561034
 20
686.7848980845
 30
0.0
 11
772.6625561034
 21
691.3459652111
 31
0.0
  0
LINE
  5
441
100
AcDbEntity
  8
STAP_DN100_20-80
  6
CONTINUOUS
 62
         7
100
AcDbLine
 10
772.6625561034
 20
691.3459652111
 30
0.0
 11
776.0833564483
 21
693.6264987744
 31
0.0
  0
LINE
  5
442
100
AcDbEntity
  8
STAP_DN100_20-80
  6
CONTINUOUS
 62
         7
100
AcDbLine
 10
865.3003159892
 20
685.1154316478
 30
0.0
 11
863.3253159892
 21
689.0654316478
 31
0.0
  0
LINE
  5
443
100
AcDbEntity
  8
STAP_DN100_20-80
  6
CONTINUOUS
 62
         7
100
AcDbLine
 10
865.3003159892
 20
685.1154316478
 30
0.0
 11
868.0003159892
 21
685.1154316478
 31
0.0
  0
LINE
  5
444
100
AcDbEntity
  8
STAP_DN100_20-80
  6
CONTINUOUS
 62
         7
100
AcDbLine
 10
863.3253159892
 20
689.0654316478
 30
0.0
 11
865.3003159892
 21
693.0154316478
 31
0.0
  0
LINE
  5
445
100
AcDbEntity
  8
STAP_DN100_20-80
  6
CONTINUOUS
 62
         7
100
AcDbLine
 10
863.3253159892
 20
689.0654316478
 30
0.0
 11
866.0253159892
 21
689.0654316478
 31
0.0
  0
LINE
  5
446
100
AcDbEntity
  8
STAP_DN100_20-80
  6
CONTINUOUS
 62
         7
100
AcDbLine
 10
871.9503159892
 20
685.1154316478
 30
0.0
 11
868.0003159892
 21
685.1154316478
 31
0.0
  0
LINE
  5
447
100
AcDbEntity
  8
STAP_DN100_20-80
  6
CONTINUOUS
 62
         7
100
AcDbLine
 10
873.9253159892
 20
689.0654316478
 30
0.0
 11
871.9503159892
 21
685.1154316478
 31
0.0
  0
LINE
  5
448
100
AcDbEntity
  8
STAP_DN100_20-80
  6
CONTINUOUS
 62
         7
100
AcDbLine
 10
871.9503159892
 20
693.0154316478
 30
0.0
 11
873.9253159892
 21
689.0654316478
 31
0.0
  0
LINE
  5
449
100
AcDbEntity
  8
STAP_DN100_20-80
  6
CONTINUOUS
 62
         7
100
AcDbLine
 10
868.0003159892
 20
685.1154316478
 30
0.0
 11
866.0253159892
 21
689.0654316478
 31
0.0
  0
LINE
  5
44A
100
AcDbEntity
  8
STAP_DN100_20-80
  6
CONTINUOUS
 62
         7
100
AcDbLine
 10
866.0253159892
 20
689.0654316478
 30
0.0
 11
868.0003159892
 21
693.0154316478
 31
0.0
  0
LINE
  5
44B
100
AcDbEntity
  8
STAP_DN100_20-80
  6
CONTINUOUS
 62
         7
100
AcDbLine
 10
868.0003159892
 20
693.0154316478
 30
0.0
 11
871.9503159892
 21
693.0154316478
 31
0.0
  0
ELLIPSE
  5
44C
100
AcDbEntity
  8
STAP_DN100_20-80
  6
CONTINUOUS
 62
         7
100
AcDbEllipse
 10
758.5675574035
 20
626.1329281222
 30
0.0
 11
-0.0000000000000003
 21
-4.9999999999999902
 31
0.0
210
0.0
220
0.0
230
1.0
 40
0.5
 41
0.0000000000000001
 42
2.3836861397965192
  0
ELLIPSE
  5
44D
100
AcDbEntity
  8
STAP_DN100_20-80
  6
CONTINUOUS
 62
         7
100
AcDbEllipse
 10
738.6187531478
 20
603.0980331081
 30
0.0
 11
0.0000000000000003
 21
5.0000000000000044
 31
0.0
210
0.0
220
0.0
230
1.0
 40
0.5
 41
3.194779062072393
 42
3.8300965445895803
  0
ELLIPSE
  5
44E
100
AcDbEntity
  8
STAP_DN100_20-80
  6
CONTINUOUS
 62
         7
100
AcDbEllipse
 10
738.6187531478
 20
775.0328301875
 30
0.0
 11
0.0000000000000003
 21
5.0000000000000044
 31
0.0
210
0.0
220
0.0
230
1.0
 40
0.5
 41
5.5946814161803715
 42
6.2299988986969863
  0
ELLIPSE
  5
44F
100
AcDbEntity
  8
STAP_DN100_20-80
  6
CONTINUOUS
 62
         7
100
AcDbEllipse
 10
758.5675574035
 20
751.9979351734
 30
0.0
 11
-0.0000000000000003
 21
-4.9999999999999973
 31
0.0
210
0.0
220
0.0
230
1.0
 40
0.5
 41
0.7579065137932759
 42
3.1415926535897931
  0
ELLIPSE
  5
450
100
AcDbEntity
  8
STAP_DN100_20-80
  6
CONTINUOUS
 62
         7
100
AcDbEllipse
 10
770.0850049106
 20
666.0305366337
 30
0.0
 11
0.0000000000000003
 21
4.9999999999999973
 31
0.0
210
0.0
220
0.0
230
1.0
 40
0.5
 41
3.1415926535897931
 42
6.2831853071795862
  0
ELLIPSE
  5
451
100
AcDbEntity
  8
STAP_DN100_20-80
  6
CONTINUOUS
 62
         7
100
AcDbEllipse
 10
770.0850049106
 20
712.1003266619
 30
0.0
 11
-0.0000000000000003
 21
-4.9999999999999973
 31
0.0
210
0.0
220
0.0
230
1.0
 40
0.5
 41
0.0000000000000001
 42
3.1415926535897931
  0
ELLIPSE
  5
452
100
AcDbEntity
  8
STAP_DN100_20-80
  6
CONTINUOUS
 62
         7
100
AcDbEllipse
 10
659.5513241455
 20
689.0654316478
 30
0.0
 11
-0.0000000000000187
 21
-77.999999999999986
 31
0.0
210
0.0
220
0.0
230
1.0
 40
0.5
 41
0.0000000000000005
 42
1.400368647637404
  0
ELLIPSE
  5
453
100
AcDbEntity
  8
STAP_DN100_20-80
  6
CONTINUOUS
 62
         7
100
AcDbEllipse
 10
659.5513241455
 20
689.0654316478
 30
0.0
 11
-0.0000000000000187
 21
-77.999999999999986
 31
0.0
210
0.0
220
0.0
230
1.0
 40
0.5
 41
1.8634160121391503
 42
3.1415926535897936
  0
ELLIPSE
  5
454
100
AcDbEntity
  8
STAP_DN100_20-80
  6
CONTINUOUS
 62
         7
100
AcDbEllipse
 10
649.4188269213
 20
689.0654316478
 30
0.0
 11
0.0000000000000091
 21
-78.0
 31
0.0
210
0.0
220
0.0
230
1.0
 40
0.5
 41
-0.1413406470685601
 42
1.3889955069286
  0
ELLIPSE
  5
455
100
AcDbEntity
  8
STAP_DN100_20-80
  6
CONTINUOUS
 62
         7
100
AcDbEllipse
 10
649.4188269213
 20
689.0654316478
 30
0.0
 11
0.0000000000000091
 21
-78.0
 31
0.0
210
0.0
220
0.0
230
1.0
 40
0.5
 41
1.7712933388977827
 42
3.2829333006583523
  0
ELLIPSE
  5
456
100
AcDbEntity
  8
STAP_DN100_20-80
  6
CONTINUOUS
 62
         7
100
AcDbEllipse
 10
649.4188269213
 20
689.0654316478
 30
0.0
 11
-0.00000000000001
 21
63.499999999999986
 31
0.0
210
0.0
220
0.0
230
1.0
 40
0.5
 41
3.3673532961831634
 42
4.4371164333196393
  0
ELLIPSE
  5
457
100
AcDbEntity
  8
STAP_DN100_20-80
  6
CONTINUOUS
 62
         7
100
AcDbEllipse
 10
649.4188269213
 20
689.0654316478
 30
0.0
 11
-0.00000000000001
 21
63.499999999999986
 31
0.0
210
0.0
220
0.0
230
1.0
 40
0.5
 41
4.9876615274497382
 42
6.0574246645862155
  0
ELLIPSE
  5
458
100
AcDbEntity
  8
STAP_DN100_20-80
  6
CONTINUOUS
 62
         7
100
AcDbEllipse
 10
620.2337708137
 20
689.0654316478
 30
0.0
 11
-0.0000000000000113
 21
-70.999999999999972
 31
0.0
210
0.0
220
0.0
230
1.0
 40
0.5
 41
0.9038143450491973
 42
1.1946225925905822
  0
ELLIPSE
  5
459
100
AcDbEntity
  8
STAP_DN100_20-80
  6
CONTINUOUS
 62
         7
100
AcDbEllipse
 10
620.2337708137
 20
689.0654316478
 30
0.0
 11
-0.0000000000000113
 21
-70.999999999999972
 31
0.0
210
0.0
220
0.0
230
1.0
 40
0.5
 41
1.9469700609992082
 42
2.2377783085406007
  0
ELLIPSE
  5
45A
100
AcDbEntity
  8
STAP_DN100_20-80
  6
CONTINUOUS
 62
         7
100
AcDbEllipse
 10
715.4099626896
 20
689.0654316478
 30
0.0
 11
-0.0000000000000059
 21
-96.500000000000028
 31
0.0
210
0.0
220
0.0
230
1.0
 40
0.5
 41
0.0
 42
3.1415926535897931
  0
ELLIPSE
  5
45B
100
AcDbEntity
  8
STAP_DN100_20-80
  6
CONTINUOUS
 62
         7
100
AcDbEllipse
 10
708.0487467575
 20
689.0654316478
 30
0.0
 11
-0.0000000000000059
 21
-96.500000000000028
 31
0.0
210
0.0
220
0.0
230
1.0
 40
0.5
 41
0.0
 42
3.6583414438160213
  0
ELLIPSE
  5
45C
100
AcDbEntity
  8
STAP_DN100_20-80
  6
CONTINUOUS
 62
         7
100
AcDbEllipse
 10
708.0487467575
 20
689.0654316478
 30
0.0
 11
-0.0000000000000059
 21
-96.500000000000028
 31
0.0
210
0.0
220
0.0
230
1.0
 40
0.5
 41
5.766436516953358
 42
6.2831853071795862
  0
ELLIPSE
  5
45D
100
AcDbEntity
  8
STAP_DN100_20-80
  6
CONTINUOUS
 62
         7
100
AcDbEllipse
 10
659.5513241455
 20
689.0654316478
 30
0.0
 11
-0.0000000000000051
 21
-83.900000000002933
 31
0.0
210
0.0
220
0.0
230
1.0
 40
0.5
 41
0.0000000000000001
 42
1.3970994283804672
  0
ELLIPSE
  5
45E
100
AcDbEntity
  8
STAP_DN100_20-80
  6
CONTINUOUS
 62
         7
100
AcDbEllipse
 10
659.5513241455
 20
689.0654316478
 30
0.0
 11
-0.0000000000000051
 21
-83.900000000002933
 31
0.0
210
0.0
220
0.0
230
1.0
 40
0.5
 41
1.7444932252093261
 42
3.5323247026666227
  0
ELLIPSE
  5
45F
100
AcDbEntity
  8
STAP_DN100_20-80
  6
CONTINUOUS
 62
         7
100
AcDbEllipse
 10
659.5513241455
 20
689.0654316478
 30
0.0
 11
-0.0000000000000051
 21
-83.900000000002933
 31
0.0
210
0.0
220
0.0
230
1.0
 40
0.5
 41
5.8924532581027567
 42
6.2831853071795862
  0
ELLIPSE
  5
460
100
AcDbEntity
  8
STAP_DN100_20-80
  6
CONTINUOUS
 62
         7
100
AcDbEllipse
 10
708.0487467575
 20
689.0654316478
 30
0.0
 11
-0.0000000000000051
 21
-83.900000000002933
 31
0.0
210
0.0
220
0.0
230
1.0
 40
0.5
 41
0.0000000000000001
 42
3.1415926535897931
  0
CIRCLE
  5
461
100
AcDbEntity
  8
STAP_DN100_20-80
  6
CONTINUOUS
 62
         7
100
AcDbCircle
 10
531.1460589221
 20
605.9162737218
 30
0.0
 40
9.5
  0
CIRCLE
  5
462
100
AcDbEntity
  8
STAP_DN100_20-80
  6
CONTINUOUS
 62
         7
100
AcDbCircle
 10
565.5875678349
 20
689.0654316478
 30
0.0
 40
110.0
  0
CIRCLE
  5
463
100
AcDbEntity
  8
STAP_DN100_20-80
  6
CONTINUOUS
 62
         7
100
AcDbCircle
 10
565.5875678349
 20
689.0654316478
 30
0.0
 40
77.0
  0
CIRCLE
  5
464
100
AcDbEntity
  8
STAP_DN100_20-80
  6
CONTINUOUS
 62
         7
100
AcDbCircle
 10
600.0290767478
 20
605.9162737218
 30
0.0
 40
9.5
  0
CIRCLE
  5
465
100
AcDbEntity
  8
STAP_DN100_20-80
  6
CONTINUOUS
 62
         7
100
AcDbCircle
 10
600.0290767478
 20
772.2145895738
 30
0.0
 40
9.5
  0
CIRCLE
  5
466
100
AcDbEntity
  8
STAP_DN100_20-80
  6
CONTINUOUS
 62
         7
100
AcDbCircle
 10
531.1460589221
 20
772.2145895738
 30
0.0
 40
9.5
  0
CIRCLE
  5
467
100
AcDbEntity
  8
STAP_DN100_20-80
  6
CONTINUOUS
 62
         7
100
AcDbCircle
 10
648.7367257609
 20
723.5069405607
 30
0.0
 40
9.5
  0
CIRCLE
  5
468
100
AcDbEntity
  8
STAP_DN100_20-80
  6
CONTINUOUS
 62
         7
100
AcDbCircle
 10
648.7367257609
 20
654.623922735
 30
0.0
 40
9.5
  0
CIRCLE
  5
469
100
AcDbEntity
  8
STAP_DN100_20-80
  6
CONTINUOUS
 62
         7
100
AcDbCircle
 10
482.4384099089
 20
723.5069405607
 30
0.0
 40
9.5
  0
CIRCLE
  5
46A
100
AcDbEntity
  8
STAP_DN100_20-80
  6
CONTINUOUS
 62
         7
100
AcDbCircle
 10
482.4384099089
 20
654.623922735
 30
0.0
 40
9.5
  0
ELLIPSE
  5
46B
100
AcDbEntity
  8
STAP_DN100_20-80
  6
CONTINUOUS
 62
         7
100
AcDbEllipse
 10
885.5734239098
 20
689.0654316478
 30
0.0
 11
-0.0000000000002184
 21
59.999999999983707
 31
0.0
210
0.0
220
0.0
230
1.0
 40
0.5
 41
3.1415926535897931
 42
3.2585256150523496
  0
ELLIPSE
  5
46C
100
AcDbEntity
  8
STAP_DN100_20-80
  6
CONTINUOUS
 62
         7
100
AcDbEllipse
 10
885.5734239098
 20
689.0654316479
 30
0.0
 11
-0.0000000000002257
 21
-59.999999999956202
 31
0.0
210
0.0
220
0.0
230
1.0
 40
0.5
 41
3.0246596921269813
 42
3.1415926535897931
  0
ELLIPSE
  5
46D
100
AcDbEntity
  8
STAP_DN100_20-80
  6
CONTINUOUS
 62
         7
100
AcDbEllipse
 10
885.5734239098
 20
689.0654316478
 30
0.0
 11
0.000000000003438
 21
-60.000000000010409
 31
0.0
210
0.0
220
0.0
230
1.0
 40
0.5
 41
1.4538633653323554
 42
1.6877292882571096
  0
ELLIPSE
  5
46E
100
AcDbEntity
  8
STAP_DN100_20-80
  6
CONTINUOUS
 62
         7
100
AcDbEllipse
 10
871.9007531535
 20
689.0654316479
 30
0.0
 11
-0.0000000000005514
 21
60.000000000056183
 31
0.0
210
0.0
220
0.0
230
1.0
 40
0.5
 41
3.0246596921275191
 42
3.2585256150522852
  0
ELLIPSE
  5
46F
100
AcDbEntity
  8
STAP_DN100_20-80
  6
CONTINUOUS
 62
         7
100
AcDbEllipse
 10
871.9007531535
 20
689.0654316477
 30
0.0
 11
0.0000000000024388
 21
-60.000000000163773
 31
0.0
210
0.0
220
0.0
230
1.0
 40
0.5
 41
3.0246596921271802
 42
3.258525615051699
  0
ELLIPSE
  5
470
100
AcDbEntity
  8
STAP_DN100_20-80
  6
CONTINUOUS
 62
         7
100
AcDbEllipse
 10
871.9007531534
 20
689.0654316478
 30
0.0
 11
-0.000000000004167
 21
-60.000000000062272
 31
0.0
210
0.0
220
0.0
230
1.0
 40
0.5
 41
1.4538633653325166
 42
1.6877292882570982
  0
ELLIPSE
  5
471
100
AcDbEntity
  8
STAP_DN100_20-80
  6
CONTINUOUS
 62
         7
100
AcDbEllipse
 10
870.7695446232
 20
684.1391290661
 30
0.0
 11
0.0000000000000004
 21
7.0000000000000293
 31
0.0
210
0.0
220
0.0
230
1.0
 40
0.5
 41
3.3161255787892649
 42
4.7123889803846897
  0
LINE
  5
472
100
AcDbEntity
  8
STAP_DN100_20-80
  6
CONTINUOUS
 62
         7
100
AcDbLine
 10
874.2695446232
 20
693.9917342296
 30
0.0
 11
874.2695446232
 21
684.1391290661
 31
0.0
  0
ARC
  5
473
100
AcDbEntity
  8
STAP_DN100_20-80
  6
CONTINUOUS
 62
         7
100
AcDbCircle
 10
693.6375678349
 20
712.7830851007
 30
0.0
 40
12.1854039485
100
AcDbArc
 50
251.0758482456
 51
288.9241517544
  0
LINE
  5
474
100
AcDbEntity
  8
STAP_DN100_20-80
  6
CONTINUOUS
 62
         7
100
AcDbLine
 10
699.6375678349
 20
703.2394453108
 30
0.0
 11
699.6375678349
 21
711.5654316478
 31
0.0
  0
LINE
  5
475
100
AcDbEntity
  8
STAP_DN100_20-80
  6
CONTINUOUS
 62
         7
100
AcDbLine
 10
770.0850049106
 20
671.0305366337
 30
0.0
 11
769.5594881778
 21
671.0305366337
 31
0.0
  0
LINE
  5
476
100
AcDbEntity
  8
STAP_DN100_20-80
  6
CONTINUOUS
 62
         7
100
AcDbLine
 10
770.0850049106
 20
717.1003266619
 30
0.0
 11
768.335328378
 21
717.1003266619
 31
0.0
  0
LINE
  5
477
100
AcDbEntity
  8
STAP_DN100_20-80
  6
CONTINUOUS
 62
         7
100
AcDbLine
 10
758.5675574035
 20
756.9979351734
 30
0.0
 11
756.5251437031
 21
756.9979351734
 31
0.0
  0
LINE
  5
478
100
AcDbEntity
  8
STAP_DN100_20-80
  6
CONTINUOUS
 62
         7
100
AcDbLine
 10
840.1176208346
 20
720.5654316478
 30
0.0
 11
825.8931528097
 21
720.5654316478
 31
0.0
  0
LINE
  5
479
100
AcDbEntity
  8
STAP_DN100_20-80
  6
CONTINUOUS
 62
         7
100
AcDbLine
 10
721.905153218
 20
786.0654316478
 30
0.0
 11
715.4099626896
 21
786.0654316478
 31
0.0
  0
LINE
  5
47A
100
AcDbEntity
  8
STAP_DN100_20-80
  6
CONTINUOUS
 62
         7
100
AcDbLine
 10
827.9734067996
 20
719.4023857352
 30
0.0
 11
754.8246742782
 21
760.2989948935
 31
0.0
  0
ENDBLK
  5
47B
100
AcDbEntity
  8
STAP_DN100_20-80
  6
CONTINUOUS
 62
         7
100
AcDbBlockEnd
  0
ENDSEC
  0
SECTION
  2
ENTITIES
  0
INSERT
  5
3A
102
{ACAD_XDICTIONARY
360
3B
102
}
100
AcDbEntity
  8
0
 62
         0
 48
0.0
100
AcDbBlockReference
  2
SE1
 10
0.0
 20
0.0
 30
0.0
  0
INSERT
  5
3E
100
AcDbEntity
  8
0
 62
         0
 48
0.0
100
AcDbBlockReference
  2
SE0
 10
0.0
 20
0.0
 30
0.0
  0
INSERT
  5
41
102
{ACAD_XDICTIONARY
360
42
102
}
100
AcDbEntity
  8
0
 62
         0
 48
0.0
100
AcDbBlockReference
  2
SE3
 10
0.0
 20
0.0
 30
0.0
  0
INSERT
  5
45
100
AcDbEntity
  8
0
 62
         0
 48
0.0
100
AcDbBlockReference
  2
SE2
 10
0.0
 20
0.0
 30
0.0
  0
INSERT
  5
48
102
{ACAD_XDICTIONARY
360
49
102
}
100
AcDbEntity
  8
0
 62
         0
 48
0.0
100
AcDbBlockReference
  2
SE5
 10
0.0
 20
0.0
 30
0.0
  0
INSERT
  5
4C
100
AcDbEntity
  8
0
 62
         0
 48
0.0
100
AcDbBlockReference
  2
SE4
 10
0.0
 20
0.0
 30
0.0
  0
INSERT
  5
4F
102
{ACAD_XDICTIONARY
360
50
102
}
100
AcDbEntity
  8
0
 62
         0
 48
0.0
100
AcDbBlockReference
  2
SE7
 10
0.0
 20
0.0
 30
0.0
  0
INSERT
  5
53
100
AcDbEntity
  8
0
 62
         0
 48
0.0
100
AcDbBlockReference
  2
SE6
 10
0.0
 20
0.0
 30
0.0
  0
ENDSEC
  0
SECTION
  2
OBJECTS
  0
DICTIONARY
  5
19
100
AcDbDictionary
  3
ACAD_GROUP
350
1A
  3
ACAD_MLINESTYLE
350
1B
  3
ACDBVARIABLEDICTIONARY
350
47E
  0
DICTIONARY
  5
1A
102
{ACAD_REACTORS
330
19
102
}
100
AcDbDictionary
  0
DICTIONARY
  5
1B
102
{ACAD_REACTORS
330
19
102
}
100
AcDbDictionary
  3
STANDARD
350
1C
  0
MLINESTYLE
  5
1C
102
{ACAD_REACTORS
330
1B
102
}
100
AcDbMlineStyle
  2
Standard
 70
         0
  3

 62
         0
 51
90.0
 52
90.0
 71
         2
 49
0.5
 62
       256
  6
ByLayer
 49
-0.5
 62
       256
  6
ByLayer
  0
DICTIONARY
  5
22
102
{ACAD_REACTORS
330
19
102
}
100
AcDbDictionary
  0
DICTIONARY
  5
3B
100
AcDbDictionary
  3
ACAD_FILTER
350
3C
  0
DICTIONARY
  5
3C
100
AcDbDictionary
  3
SPATIAL
350
3D
  0
SPATIAL_FILTER
  5
3D
100
AcDbFilter
100
AcDbSpatialFilter
 70
         2
 10
18.6059642891
 20
19.2189629861
 10
388.0114086579
 20
491.9048190609
210
0.0
220
0.0
230
1.0
 11
0.0
 21
0.0
 31
0.0
 71
         1
 72
         0
 73
         0
 40
1.0
 40
0.0
 40
0.0
 40
0.0
 40
0.0
 40
1.0
 40
0.0
 40
0.0
 40
0.0
 40
0.0
 40
1.0
 40
0.0
 40
1.0
 40
0.0
 40
0.0
 40
0.0
 40
0.0
 40
1.0
 40
0.0
 40
0.0
 40
0.0
 40
0.0
 40
1.0
 40
0.0
  0
DICTIONARY
  5
42
100
AcDbDictionary
  3
ACAD_FILTER
350
43
  0
DICTIONARY
  5
43
100
AcDbDictionary
  3
SPATIAL
350
44
  0
SPATIAL_FILTER
  5
44
100
AcDbFilter
100
AcDbSpatialFilter
 70
         2
 10
18.6059642891
 20
572.7154316478
 10
388.0114086578
 20
805.4154316478
210
0.0
220
0.0
230
1.0
 11
0.0
 21
0.0
 31
0.0
 71
         1
 72
         0
 73
         0
 40
1.0
 40
0.0
 40
0.0
 40
0.0
 40
0.0
 40
1.0
 40
0.0
 40
0.0
 40
0.0
 40
0.0
 40
1.0
 40
0.0
 40
1.0
 40
0.0
 40
0.0
 40
0.0
 40
0.0
 40
1.0
 40
0.0
 40
0.0
 40
0.0
 40
0.0
 40
1.0
 40
0.0
  0
DICTIONARY
  5
49
100
AcDbDictionary
  3
ACAD_FILTER
350
4A
  0
DICTIONARY
  5
4A
100
AcDbDictionary
  3
SPATIAL
350
4B
  0
SPATIAL_FILTER
  5
4B
100
AcDbFilter
100
AcDbSpatialFilter
 70
         2
 10
495.8420856463
 20
19.2189629861
 10
865.247530015
 20
491.9048190609
210
0.0
220
0.0
230
1.0
 11
0.0
 21
0.0
 31
0.0
 71
         1
 72
         0
 73
         0
 40
1.0
 40
0.0
 40
0.0
 40
0.0
 40
0.0
 40
1.0
 40
0.0
 40
0.0
 40
0.0
 40
0.0
 40
1.0
 40
0.0
 40
1.0
 40
0.0
 40
0.0
 40
0.0
 40
0.0
 40
1.0
 40
0.0
 40
0.0
 40
0.0
 40
0.0
 40
1.0
 40
0.0
  0
DICTIONARY
  5
50
100
AcDbDictionary
  3
ACAD_FILTER
350
51
  0
DICTIONARY
  5
51
100
AcDbDictionary
  3
SPATIAL
350
52
  0
SPATIAL_FILTER
  5
52
100
AcDbFilter
100
AcDbSpatialFilter
 70
         2
 10
449.2375678349
 20
572.7154316478
 10
921.9234239098
 20
805.4154316478
210
0.0
220
0.0
230
1.0
 11
0.0
 21
0.0
 31
0.0
 71
         1
 72
         0
 73
         0
 40
1.0
 40
0.0
 40
0.0
 40
0.0
 40
0.0
 40
1.0
 40
0.0
 40
0.0
 40
0.0
 40
0.0
 40
1.0
 40
0.0
 40
1.0
 40
0.0
 40
0.0
 40
0.0
 40
0.0
 40
1.0
 40
0.0
 40
0.0
 40
0.0
 40
0.0
 40
1.0
 40
0.0
  0
DICTIONARY
  5
47E
100
AcDbDictionary
  3
DIMASSOC
350
47F
  0
DICTIONARYVAR
  5
47F
100
DictionaryVariables
280
         0
  1
2
  0
ENDSEC
  0
EOF
