  0
SECTION
  2
HEADER
  9
$ACADVER
  1
AC1014
  9
$ACADMAINTVER
 70
         0
  9
$DWGCODEPAGE
  3
ANSI_1252
  9
$INSBASE
 10
0.0
 20
0.0
 30
0.0
  9
$EXTMIN
 10
0.0
 20
0.0
 30
0.0
  9
$EXTMAX
 10
420.0
 20
297.0
 30
0.0
  9
$LIMMIN
 10
0.0
 20
0.0
  9
$LIMMAX
 10
420.0
 20
297.0
  9
$ORTHOMODE
 70
         0
  9
$REGENMODE
 70
         1
  9
$FILLMODE
 70
         1
  9
$QTEXTMODE
 70
         0
  9
$MIRRTEXT
 70
         1
  9
$DRAGMODE
 70
         2
  9
$LTSCALE
 40
25.4
  9
$OSMODE
 70
         0
  9
$ATTMODE
 70
         1
  9
$TEXTSIZE
 40
0.2
  9
$TRACEWID
 40
0.05
  9
$TEXTSTYLE
  7
Standard
  9
$CLAYER
  8
0
  9
$CELTYPE
  6
CONTINUOUS
  9
$CECOLOR
 62
       256
  9
$CELTSCALE
 40
1.0
  9
$DELOBJ
 70
         1
  9
$DISPSILH
 70
         0
  9
$DIMSCALE
 40
1.0
  9
$DIMASZ
 40
0.18
  9
$DIMEXO
 40
0.0625
  9
$DIMDLI
 40
0.38
  9
$DIMRND
 40
0.0
  9
$DIMDLE
 40
0.0
  9
$DIMEXE
 40
0.18
  9
$DIMTP
 40
0.0
  9
$DIMTM
 40
0.0
  9
$DIMTXT
 40
0.18
  9
$DIMCEN
 40
0.09
  9
$DIMTSZ
 40
0.0
  9
$DIMTOL
 70
         0
  9
$DIMLIM
 70
         0
  9
$DIMTIH
 70
         1
  9
$DIMTOH
 70
         1
  9
$DIMSE1
 70
         0
  9
$DIMSE2
 70
         0
  9
$DIMTAD
 70
         0
  9
$DIMZIN
 70
         0
  9
$DIMBLK
  1

  9
$DIMASO
 70
         1
  9
$DIMSHO
 70
         1
  9
$DIMPOST
  1

  9
$DIMAPOST
  1

  9
$DIMALT
 70
         0
  9
$DIMALTD
 70
         2
  9
$DIMALTF
 40
25.4
  9
$DIMLFAC
 40
1.0
  9
$DIMTOFL
 70
         0
  9
$DIMTVP
 40
0.0
  9
$DIMTIX
 70
         0
  9
$DIMSOXD
 70
         0
  9
$DIMSAH
 70
         0
  9
$DIMBLK1
  1

  9
$DIMBLK2
  1

  9
$DIMSTYLE
  2
Standard
  9
$DIMCLRD
 70
         0
  9
$DIMCLRE
 70
         0
  9
$DIMCLRT
 70
         0
  9
$DIMTFAC
 40
1.0
  9
$DIMGAP
 40
0.09
  9
$DIMJUST
 70
         0
  9
$DIMSD1
 70
         0
  9
$DIMSD2
 70
         0
  9
$DIMTOLJ
 70
         1
  9
$DIMTZIN
 70
         0
  9
$DIMALTZ
 70
         0
  9
$DIMALTTZ
 70
         0
  9
$DIMFIT
 70
         3
  9
$DIMUPT
 70
         0
  9
$DIMUNIT
 70
         2
  9
$DIMDEC
 70
         4
  9
$DIMTDEC
 70
         4
  9
$DIMALTU
 70
         2
  9
$DIMALTTD
 70
         2
  9
$DIMTXSTY
  7
Standard
  9
$DIMAUNIT
 70
         0
  9
$LUNITS
 70
         2
  9
$LUPREC
 70
         4
  9
$SKETCHINC
 40
0.1
  9
$FILLETRAD
 40
0.0
  9
$AUNITS
 70
         0
  9
$AUPREC
 70
         0
  9
$MENU
  1
acad
  9
$ELEVATION
 40
0.0
  9
$PELEVATION
 40
0.0
  9
$THICKNESS
 40
0.0
  9
$LIMCHECK
 70
         0
  9
$BLIPMODE
 70
         1
  9
$CHAMFERA
 40
0.0
  9
$CHAMFERB
 40
0.0
  9
$CHAMFERC
 40
0.0
  9
$CHAMFERD
 40
0.0
  9
$SKPOLY
 70
         0
  9
$TDCREATE
 40
0.000000000
  9
$TDUPDATE
 40
0.000000000
  9
$TDINDWG
 40
0.0000000000
  9
$TDUSRTIMER
 40
0.0000000000
  9
$USRTIMER
 70
         1
  9
$ANGBASE
 50
0.0
  9
$ANGDIR
 70
         0
  9
$PDMODE
 70
         0
  9
$PDSIZE
 40
0.0
  9
$PLINEWID
 40
0.0
  9
$COORDS
 70
         0
  9
$SPLFRAME
 70
         0
  9
$SPLINETYPE
 70
         6
  9
$SPLINESEGS
 70
         8
  9
$ATTDIA
 70
         0
  9
$ATTREQ
 70
         1
  9
$HANDLING
 70
         1
  9
$HANDSEED
  5
36D
  9
$SURFTAB1
 70
         6
  9
$SURFTAB2
 70
         6
  9
$SURFTYPE
 70
         6
  9
$SURFU
 70
         6
  9
$SURFV
 70
         6
  9
$UCSNAME
  2

  9
$UCSORG
 10
0.0
 20
0.0
 30
0.0
  9
$UCSXDIR
 10
1.0
 20
0.0
 30
0.0
  9
$UCSYDIR
 10
0.0
 20
1.0
 30
0.0
  9
$PUCSNAME
  2

  9
$PUCSORG
 10
0.0
 20
0.0
 30
0.0
  9
$PUCSXDIR
 10
1.0
 20
0.0
 30
0.0
  9
$PUCSYDIR
 10
0.0
 20
1.0
 30
0.0
  9
$USERI1
 70
         0
  9
$USERI2
 70
         0
  9
$USERI3
 70
         0
  9
$USERI4
 70
         0
  9
$USERI5
 70
         0
  9
$USERR1
 40
0.0
  9
$USERR2
 40
0.0
  9
$USERR3
 40
0.0
  9
$USERR4
 40
0.0
  9
$USERR5
 40
0.0
  9
$WORLDVIEW
 70
         1
  9
$SHADEDGE
 70
         3
  9
$SHADEDIF
 70
        70
  9
$TILEMODE
 70
         1
  9
$MAXACTVP
 70
        16
  9
$PINSBASE
 10
0.0
 20
0.0
 30
0.0
  9
$PLIMCHECK
 70
         0
  9
$PEXTMIN
 10
1.0000000000E+20
 20
1.0000000000E+20
 30
1.0000000000E+20
  9
$PEXTMAX
 10
-1.0000000000E+20
 20
-1.0000000000E+20
 30
-1.0000000000E+20
  9
$PLIMMIN
 10
0.0
 20
0.0
  9
$PLIMMAX
 10
12.0
 20
9.0
  9
$UNITMODE
 70
         0
  9
$VISRETAIN
 70
         0
  9
$PLINEGEN
 70
         1
  9
$PSLTSCALE
 70
         0
  9
$TREEDEPTH
 70
      3020
  9
$PICKSTYLE
 70
         1
  9
$CMLSTYLE
  2
Standard
  9
$CMLJUST
 70
         0
  9
$CMLSCALE
 40
1.0
  9
$PROXYGRAPHICS
 70
         0
  9
$MEASUREMENT
 70
         0
  0
ENDSEC
  0
SECTION
  2
CLASSES
  0
CLASS
  1
LWPOLYLINE
  2
AcDbPolyline
  3
"AutoCAD"
 90
        0
280
         0
281
         1
  0
CLASS
  1
IMAGE
  2
AcDbRasterImage
  3
ISM
 90
      127
280
         0
281
         1
  0
CLASS
  1
OLE2FRAME
  2
AcDbOle2Frame
  3
""
 90
        0
280
         0
281
         1
  0
CLASS
  1
HATCH
  2
AcDbHatch
  3
"ACAD_SEDONA"
 90
        0
280
         0
281
         1
  0
CLASS
  1
DICTIONARYVAR
  2
AcDbDictionaryVar
  3
"AutoCAD"
 90
        0
280
         0
281
         0
  0
CLASS
  1
RASTERVARIABLES
  2
AcDbRasterVariables
  3
ISM
 90
        0
280
         0
281
         0
  0
CLASS
  1
IMAGEDEF
  2
AcDbRasterImageDef
  3
ISM
 90
        0
280
         0
281
         0
  0
CLASS
  1
IMAGEDEF_REACTOR
  2
AcDbRasterImageDefReactor
  3
ISM
 90
        1
280
         0
281
         0
  0
CLASS
  1
IDBUFFER
  2
AcDbIdBuffer
  3
"Acad"
 90
        0
280
         0
281
         0
  0
CLASS
  1
SPATIAL_FILTER
  2
AcDbSpatialFilter
  3
"Acad"
 90
        0
280
         0
281
         0
  0
CLASS
  1
XRECORD
  2
AcDbXrecord
  3
"<Built In>"
 90
        0
280
         0
281
         0
  0
CLASS
  1
SORTENTSTABLE
  2
AcDbSortentsTable
  3
"AutoCAD"
 90
        0
280
         0
281
         0
  0
CLASS
  1
LAYER_INDEX
  2
AcDbLayerIndex
  3
"Acad"
 90
        0
280
         0
281
         0
  0
CLASS
  1
SPATIAL_INDEX
  2
AcDbSpatialIndex
  3
"Acad"
 90
        0
280
         0
281
         0
  0
CLASS
  1
OBJECT_PTR
  2
CAseDLPNTableRecord
  3
"ASE-LPNTableRecord"
 90
        1
280
         0
281
         0
  0
CLASS
  1
LAYOUT
  2
AcDbLayout
  3
"AutoCAD 2000"
 90
        1
280
         0
281
         0
  0
CLASS
  1
PLOTSETTINGS
  2
AcDbPlotSettings
  3
"AutoCAD 2000"
 90
        1
280
         0
281
         0
  0
CLASS
  1
ACDBDICTIONARYWDFLT
  2
AcDbDictionaryWithDefault
  3
"AutoCAD 2000"
 90
        1
280
         0
281
         0
  0
CLASS
  1
ACDBPLACEHOLDER
  2
AcDbPlaceHolder
  3
"AutoCAD 2000"
 90
        1
280
         0
281
         0
  0
CLASS
  1
VBA_PROJECT
  2
AcDbVbaProject
  3
"acadvba"
 90
        1
280
         0
281
         0
  0
CLASS
  1
WIPEOUT
  2
AcDbWipeout
  3
WipeOut|AutoCAD Express Tool|expresstools@autodesk.com
 90
      127
280
         0
281
         1
  0
CLASS
  1
WIPEOUTVARIABLES
  2
AcDbWipeoutVariables
  3
WipeOut|AutoCAD Express Tool|expresstools@autodesk.com
 90
        0
280
         0
281
         0
  0
CLASS
  1
RTEXT
  2
RText
  3
RText|AutoCAD Express Tool|expresstools@autodesk.com
 90
        0
280
         0
281
         1
  0
CLASS
  1
ARCALIGNEDTEXT
  2
AcDbArcAlignedText
  3
ATEXT|AutoCAD Express Tool|expresstools@autodesk.com
 90
        0
280
         0
281
         1
  0
ENDSEC
  0
SECTION
  2
TABLES
  0
TABLE
  2
VPORT
  5
7
100
AcDbSymbolTable
 70
         1
  0
VPORT
  5
15
100
AcDbSymbolTableRecord
100
AcDbViewportTableRecord
  2
*ACTIVE
 70
         0
 10
0.0
 20
0.0
 11
1.0
 21
1.0
 12
210.0
 22
148.5
 13
0.0
 23
0.0
 14
1.0
 24
1.0
 15
0.0
 25
0.0
 16
0.0
 26
0.0
 36
1.0
 17
0.0
 27
0.0
 37
0.0
 40
297.0
 41
1.604229
 42
50.0
 43
0.0
 44
0.0
 50
0.0
 51
0.0
 71
         0
 72
       100
 73
         1
 74
         1
 75
         0
 76
         0
 77
         0
 78
         0
  0
ENDTAB
  0
TABLE
  2
LTYPE
  5
4
100
AcDbSymbolTable
 70
         7
  0
LTYPE
  5
11
100
AcDbSymbolTableRecord
100
AcDbLinetypeTableRecord
  2
ByBlock
 70
        64
  3

 72
        65
 73
         0
 40
0.0
  0
LTYPE
  5
12
100
AcDbSymbolTableRecord
100
AcDbLinetypeTableRecord
  2
ByLayer
 70
        64
  3

 72
        65
 73
         0
 40
0.0
  0
LTYPE
  5
13
100
AcDbSymbolTableRecord
100
AcDbLinetypeTableRecord
  2
CONTINUOUS
 70
         0
  3
Solid line
 72
        65
 73
         0
 40
0.0
  0
LTYPE
  5
28
100
AcDbSymbolTableRecord
100
AcDbLinetypeTableRecord
  2
HIDDEN2
 70
        64
  3
_ _ _ _ _ _ _ _ _ _ _ _ _ _ _ _ _ _ _ _ _ _ _ _
 72
        65
 73
         2
 40
0.1875
 49
0.125
 74
         0
 49
-0.0625
 74
         0
  0
LTYPE
  5
29
100
AcDbSymbolTableRecord
100
AcDbLinetypeTableRecord
  2
CENTER2
 70
        64
  3
___ _ ___ _ ___ _ ___ _ ___ _ ___ _ ___ _ ___ _
 72
        65
 73
         4
 40
1.125
 49
0.75
 74
         0
 49
-0.125
 74
         0
 49
0.125
 74
         0
 49
-0.125
 74
         0
  0
LTYPE
  5
2A
100
AcDbSymbolTableRecord
100
AcDbLinetypeTableRecord
  2
PHANTOM2
 70
        64
  3
___ _ _ ___ _ _ ___ _ _ ___ _ _ ___ _ _ ___ _ _
 72
        65
 73
         6
 40
1.25
 49
0.625
 74
         0
 49
-0.125
 74
         0
 49
0.125
 74
         0
 49
-0.125
 74
         0
 49
0.125
 74
         0
 49
-0.125
 74
         0
  0
LTYPE
  5
2B
100
AcDbSymbolTableRecord
100
AcDbLinetypeTableRecord
  2
DOT2
 70
        64
  3
...............................................
 72
        65
 73
         2
 40
0.125
 49
0.0
 74
         0
 49
-0.125
 74
         0
  0
ENDTAB
  0
TABLE
  2
LAYER
  5
2
100
AcDbSymbolTable
 70
         3
  0
LAYER
  5
14
100
AcDbSymbolTableRecord
100
AcDbLayerTableRecord
  2
0
 70
         0
 62
         7
  6
CONTINUOUS
  0
LAYER
  5
2D
100
AcDbSymbolTableRecord
100
AcDbLayerTableRecord
  2
DEFAULT
 70
         0
 62
         7
  6
CONTINUOUS
  0
LAYER
  5
37
100
AcDbSymbolTableRecord
100
AcDbLayerTableRecord
  2
STAP_DN32
 70
         0
 62
         7
  6
CONTINUOUS
  0
ENDTAB
  0
TABLE
  2
STYLE
  5
3
100
AcDbSymbolTable
 70
         1
  0
STYLE
  5
17
100
AcDbSymbolTableRecord
100
AcDbTextStyleTableRecord
  2
Standard
 70
         0
 40
0.0
 41
1.0
 50
0.0
 71
         0
 42
0.2
  3
txt
  4

  0
ENDTAB
  0
TABLE
  2
VIEW
  5
5
100
AcDbSymbolTable
 70
         0
  0
ENDTAB
  0
TABLE
  2
UCS
  5
6
100
AcDbSymbolTable
 70
         0
  0
ENDTAB
  0
TABLE
  2
APPID
  5
8
100
AcDbSymbolTable
 70
         1
  0
APPID
  5
16
100
AcDbSymbolTableRecord
100
AcDbRegAppTableRecord
  2
ACAD
 70
         0
  0
ENDTAB
  0
TABLE
  2
DIMSTYLE
  5
9
100
AcDbSymbolTable
 70
         1
  0
DIMSTYLE
105
18
100
AcDbSymbolTableRecord
100
AcDbDimStyleTableRecord
  2
Standard
 70
         0
  3

  4

  5

  6

  7

 40
1.0
 41
0.18
 42
0.0625
 43
0.38
 44
0.18
 45
0.0
 46
0.0
 47
0.0
 48
0.0
 71
         0
 72
         0
 73
         1
 74
         1
 75
         0
 76
         0
 77
         0
 78
         0
140
0.18
141
0.09
142
0.0
143
25.4
144
1.0
145
0.0
146
1.0
147
0.09
170
         0
171
         2
172
         0
173
         0
174
         0
175
         0
176
         0
177
         0
178
         0
270
         2
271
         4
272
         4
273
         2
274
         2
275
         0
280
         0
281
         0
282
         0
283
         1
284
         0
285
         0
286
         0
287
         0
288
         0
340
17
  0
ENDTAB
  0
TABLE
  2
BLOCK_RECORD
  5
1
100
AcDbSymbolTable
 70
         8
  0
BLOCK_RECORD
  5
A
100
AcDbSymbolTableRecord
100
AcDbBlockTableRecord
  2
*MODEL_SPACE
  0
BLOCK_RECORD
  5
B
100
AcDbSymbolTableRecord
100
AcDbBlockTableRecord
  2
*PAPER_SPACE
  0
BLOCK_RECORD
  5
38
100
AcDbSymbolTableRecord
100
AcDbBlockTableRecord
  2
SE0
  0
BLOCK_RECORD
  5
39
100
AcDbSymbolTableRecord
100
AcDbBlockTableRecord
  2
SE1
  0
BLOCK_RECORD
  5
3F
100
AcDbSymbolTableRecord
100
AcDbBlockTableRecord
  2
SE2
  0
BLOCK_RECORD
  5
40
100
AcDbSymbolTableRecord
100
AcDbBlockTableRecord
  2
SE3
  0
BLOCK_RECORD
  5
46
100
AcDbSymbolTableRecord
100
AcDbBlockTableRecord
  2
SE4
  0
BLOCK_RECORD
  5
47
100
AcDbSymbolTableRecord
100
AcDbBlockTableRecord
  2
SE5
  0
BLOCK_RECORD
  5
4D
100
AcDbSymbolTableRecord
100
AcDbBlockTableRecord
  2
SE6
  0
BLOCK_RECORD
  5
4E
100
AcDbSymbolTableRecord
100
AcDbBlockTableRecord
  2
SE7
  0
ENDTAB
  0
ENDSEC
  0
SECTION
  2
BLOCKS
  0
BLOCK
  5
D
100
AcDbEntity
  8
0
100
AcDbBlockBegin
  2
*MODEL_SPACE
 70
         0
 10
0.0
 20
0.0
 30
0.0
  3
*MODEL_SPACE
  1

  0
ENDBLK
  5
E
100
AcDbEntity
  8
0
100
AcDbBlockEnd
  0
BLOCK
  5
F
100
AcDbEntity
 67
         1
  8
0
100
AcDbBlockBegin
  2
*PAPER_SPACE
 70
         0
 10
0.0
 20
0.0
 30
0.0
  3
*PAPER_SPACE
  1

  0
ENDBLK
  5
10
100
AcDbEntity
 67
         1
  8
0
100
AcDbBlockEnd
  0
BLOCK
  5
142
100
AcDbEntity
  8
0
 62
         1
 48
0.0
100
AcDbBlockBegin
  2
SE0
 70
         0
 10
0.0
 20
0.0
 30
0.0
  3
SE0
  1

  0
ENDBLK
  5
143
100
AcDbEntity
  8
0
 62
         1
 48
0.0
100
AcDbBlockEnd
  0
BLOCK
  5
54
100
AcDbEntity
  8
0
 62
         1
 48
0.0
100
AcDbBlockBegin
  2
SE1
 70
         0
 10
0.0
 20
0.0
 30
0.0
  3
SE1
  1

  0
LINE
  5
55
100
AcDbEntity
  8
STAP_DN32
  6
CONTINUOUS
 62
         7
100
AcDbLine
 10
166.378942529
 20
73.8510295288
 30
0.0
 11
157.6835932077
 21
71.5211177002
 31
0.0
  0
LINE
  5
56
100
AcDbEntity
  8
STAP_DN32
  6
CONTINUOUS
 62
         7
100
AcDbLine
 10
143.4505626118
 20
124.6475785688
 30
0.0
 11
152.1438950484
 21
126.9769499747
 31
0.0
  0
LINE
  5
57
100
AcDbEntity
  8
STAP_DN32
  6
CONTINUOUS
 62
         7
100
AcDbLine
 10
160.6600122264
 20
60.4129706979
 30
0.0
 11
169.3553615477
 21
62.7428825265
 31
0.0
  0
LINE
  5
58
100
AcDbEntity
  8
STAP_DN32
  6
CONTINUOUS
 62
         7
100
AcDbLine
 10
151.3082411555
 20
136.2775780487
 30
0.0
 11
156.5242406175
 21
137.6752008923
 31
0.0
  0
LINE
  5
59
100
AcDbEntity
  8
STAP_DN32
  6
CONTINUOUS
 62
         7
100
AcDbLine
 10
149.4262950748
 20
137.1191711507
 30
0.0
 11
140.7323712205
 21
134.7896412749
 31
0.0
  0
LINE
  5
5A
100
AcDbEntity
  8
STAP_DN32
  6
CONTINUOUS
 62
         7
100
AcDbLine
 10
157.5465758456
 20
133.8597938784
 30
0.0
 11
156.5242406175
 21
137.6752008923
 31
0.0
  0
LINE
  5
5B
100
AcDbEntity
  8
STAP_DN32
  6
CONTINUOUS
 62
         7
100
AcDbLine
 10
152.3305763836
 20
132.4621710349
 30
0.0
 11
151.3082411555
 21
136.2775780487
 31
0.0
  0
LINE
  5
5C
100
AcDbEntity
  8
STAP_DN32
  6
CONTINUOUS
 62
         7
100
AcDbLine
 10
153.3529116118
 20
128.646764021
 30
0.0
 11
152.3305763836
 21
132.4621710349
 31
0.0
  0
LINE
  5
5D
100
AcDbEntity
  8
STAP_DN32
  6
CONTINUOUS
 62
         7
100
AcDbLine
 10
152.3305763836
 20
132.4621710349
 30
0.0
 11
157.5465758456
 21
133.8597938784
 31
0.0
  0
LINE
  5
5E
100
AcDbEntity
  8
STAP_DN32
  6
CONTINUOUS
 62
         7
100
AcDbLine
 10
153.3529116118
 20
128.646764021
 30
0.0
 11
158.5689110738
 21
130.0443868646
 31
0.0
  0
LINE
  5
5F
100
AcDbEntity
  8
STAP_DN32
  6
CONTINUOUS
 62
         7
100
AcDbLine
 10
169.3553615477
 20
62.7428825265
 30
0.0
 11
166.378942529
 21
73.8510295288
 31
0.0
  0
ARC
  5
60
100
AcDbEntity
  8
STAP_DN32
  6
CONTINUOUS
 62
         7
100
AcDbCircle
 10
179.1153989392
 20
139.4505102698
 30
0.0
 40
38.6643716833
100
AcDbArc
 50
186.9234288262
 51
187.9251922978
  0
LINE
  5
61
100
AcDbEntity
  8
STAP_DN32
  6
CONTINUOUS
 62
         7
100
AcDbLine
 10
149.4262950748
 20
137.1191711507
 30
0.0
 11
152.1438950484
 21
126.9769499747
 31
0.0
  0
ARC
  5
62
100
AcDbEntity
  8
STAP_DN32
  6
CONTINUOUS
 62
         7
100
AcDbCircle
 10
196.3885635062
 20
76.1961150042
 30
0.0
 40
39.0573404782
100
AcDbArc
 50
202.9375166735
 51
203.833990754
  0
LINE
  5
63
100
AcDbEntity
  8
STAP_DN32
  6
CONTINUOUS
 62
         7
100
AcDbLine
 10
161.3135788397
 20
57.63755623
 30
0.0
 11
161.3996633896
 21
57.6606225156
 31
0.0
  0
ARC
  5
64
100
AcDbEntity
  8
STAP_DN32
  6
CONTINUOUS
 62
         7
100
AcDbCircle
 10
178.9917228005
 20
139.7902951751
 30
0.0
 40
38.6325760697
100
AcDbArc
 50
202.0743939912
 51
203.0769822954
  0
LINE
  5
65
100
AcDbEntity
  8
STAP_DN32
  6
CONTINUOUS
 62
         7
100
AcDbLine
 10
161.3135788397
 20
57.63755623
 30
0.0
 11
156.5383710957
 21
56.3580431713
 31
0.0
  0
LINE
  5
66
100
AcDbEntity
  8
STAP_DN32
  6
CONTINUOUS
 62
         7
100
AcDbLine
 10
156.5383710957
 20
56.3580431713
 30
0.0
 11
151.3844980939
 21
54.9770670626
 31
0.0
  0
LINE
  5
67
100
AcDbEntity
  8
STAP_DN32
  6
CONTINUOUS
 62
         7
100
AcDbLine
 10
90.0072367942
 20
38.5310794637
 30
0.0
 11
89.9211522442
 21
38.508013178
 31
0.0
  0
LINE
  5
68
100
AcDbEntity
  8
STAP_DN32
  6
CONTINUOUS
 62
         7
100
AcDbLine
 10
94.7824445382
 20
39.8105925224
 30
0.0
 11
90.0072367942
 21
38.5310794637
 31
0.0
  0
LINE
  5
69
100
AcDbEntity
  8
STAP_DN32
  6
CONTINUOUS
 62
         7
100
AcDbLine
 10
151.3844980939
 20
54.9770670626
 30
0.0
 11
139.3057127722
 21
51.7405662901
 31
0.0
  0
LINE
  5
6A
100
AcDbEntity
  8
STAP_DN32
  6
CONTINUOUS
 62
         7
100
AcDbLine
 10
99.93631754
 20
41.1915686311
 30
0.0
 11
94.7824445382
 21
39.8105925224
 31
0.0
  0
LINE
  5
6B
100
AcDbEntity
  8
STAP_DN32
  6
CONTINUOUS
 62
         7
100
AcDbLine
 10
86.6965069282
 20
90.6032145168
 30
0.0
 11
99.93631754
 21
41.1915686311
 31
0.0
  0
LINE
  5
6C
100
AcDbEntity
  8
STAP_DN32
  6
CONTINUOUS
 62
         7
100
AcDbLine
 10
138.1446874821
 20
104.3887129483
 30
0.0
 11
151.3844980939
 21
54.9770670626
 31
0.0
  0
LINE
  5
6D
100
AcDbEntity
  8
STAP_DN32
  6
CONTINUOUS
 62
         7
100
AcDbLine
 10
116.0560423416
 20
21.9583027696
 30
0.0
 11
107.8982333172
 21
19.7724244295
 31
0.0
  0
LINE
  5
6E
100
AcDbEntity
  8
STAP_DN32
  6
CONTINUOUS
 62
         7
100
AcDbLine
 10
124.787060309
 20
24.297771983
 30
0.0
 11
116.0560423416
 21
21.9583027696
 31
0.0
  0
LINE
  5
6F
100
AcDbEntity
  8
STAP_DN32
  6
CONTINUOUS
 62
         7
100
AcDbLine
 10
139.3057127722
 20
51.7405662901
 30
0.0
 11
137.0399657192
 21
60.1964494086
 31
0.0
  0
LINE
  5
70
100
AcDbEntity
  8
STAP_DN32
  6
CONTINUOUS
 62
         7
100
AcDbLine
 10
109.7493558088
 20
52.8839525221
 30
0.0
 11
112.0151028617
 21
44.4280694036
 31
0.0
  0
LINE
  5
71
100
AcDbEntity
  8
STAP_DN32
  6
CONTINUOUS
 62
         7
100
AcDbLine
 10
110.1563217277
 20
11.3451237533
 30
0.0
 11
107.8982333172
 21
19.7724244295
 31
0.0
  0
LINE
  5
72
100
AcDbEntity
  8
STAP_DN32
  6
CONTINUOUS
 62
         7
100
AcDbLine
 10
147.0410398444
 20
30.2607078279
 30
0.0
 11
138.310021877
 21
27.9212386145
 31
0.0
  0
LINE
  5
73
100
AcDbEntity
  8
STAP_DN32
  6
CONTINUOUS
 62
         7
100
AcDbLine
 10
118.7365906445
 20
11.954360311
 30
0.0
 11
116.0560423416
 21
21.9583027696
 31
0.0
  0
LINE
  5
74
100
AcDbEntity
  8
STAP_DN32
  6
CONTINUOUS
 62
         7
100
AcDbLine
 10
127.4676086119
 20
14.2938295244
 30
0.0
 11
124.787060309
 21
24.297771983
 31
0.0
  0
ELLIPSE
  5
75
100
AcDbEntity
  8
STAP_DN32
  6
CONTINUOUS
 62
         7
100
AcDbEllipse
 10
98.9315212682
 20
108.5776326737
 30
0.0
 11
25.740779969258856
 21
-96.065898671313434
 31
0.0
210
0.0
220
0.0
230
1.0
 40
0.2249510543
 41
0.1417777617078841
 42
0.2304913038377568
  0
LINE
  5
76
100
AcDbEntity
  8
STAP_DN32
  6
CONTINUOUS
 62
         7
100
AcDbLine
 10
127.4676086119
 20
14.2938295244
 30
0.0
 11
118.7365906445
 21
11.954360311
 31
0.0
  0
ELLIPSE
  5
77
100
AcDbEntity
  8
STAP_DN32
  6
CONTINUOUS
 62
         7
100
AcDbEllipse
 10
106.480597621
 20
110.6004015853
 30
0.0
 11
25.74077996344478
 21
-96.065898672092104
 31
0.0
210
0.0
220
0.0
230
1.0
 40
0.9743700648
 41
6.0526940033966401
 42
6.1414075455268824
  0
LINE
  5
78
100
AcDbEntity
  8
STAP_DN32
  6
CONTINUOUS
 62
         7
100
AcDbLine
 10
126.670438922
 20
24.8024217614
 30
0.0
 11
128.9285273326
 21
16.3751210853
 31
0.0
  0
LINE
  5
79
100
AcDbEntity
  8
STAP_DN32
  6
CONTINUOUS
 62
         7
100
AcDbLine
 10
155.1988488689
 20
32.446586168
 30
0.0
 11
157.4569372794
 21
24.0192854919
 31
0.0
  0
LINE
  5
7A
100
AcDbEntity
  8
STAP_DN32
  6
CONTINUOUS
 62
         7
100
AcDbLine
 10
149.7215881473
 20
20.2567653693
 30
0.0
 11
147.0410398444
 21
30.2607078279
 31
0.0
  0
LINE
  5
7B
100
AcDbEntity
  8
STAP_DN32
  6
CONTINUOUS
 62
         7
100
AcDbLine
 10
138.310021877
 20
27.9212386145
 30
0.0
 11
136.426643264
 21
27.4165888361
 31
0.0
  0
LINE
  5
7C
100
AcDbEntity
  8
STAP_DN32
  6
CONTINUOUS
 62
         7
100
AcDbLine
 10
140.9905701799
 20
17.9172961559
 30
0.0
 11
138.310021877
 21
27.9212386145
 31
0.0
  0
ELLIPSE
  5
7D
100
AcDbEntity
  8
STAP_DN32
  6
CONTINUOUS
 62
         7
100
AcDbEllipse
 10
111.0125688163
 20
111.814739609
 30
0.0
 11
25.740779981292519
 21
-96.065898669114489
 31
0.0
210
0.0
220
0.0
230
1.0
 40
0.9743700648
 41
0.1417777615868993
 42
0.2304913037162458
  0
LINE
  5
7E
100
AcDbEntity
  8
STAP_DN32
  6
CONTINUOUS
 62
         7
100
AcDbLine
 10
149.7215881473
 20
20.2567653693
 30
0.0
 11
140.9905701799
 21
17.9172961559
 31
0.0
  0
ELLIPSE
  5
7F
100
AcDbEntity
  8
STAP_DN32
  6
CONTINUOUS
 62
         7
100
AcDbEllipse
 10
118.5616451695
 20
113.8375085207
 30
0.0
 11
25.740779969120165
 21
-96.065898671645215
 31
0.0
210
0.0
220
0.0
230
1.0
 40
0.2249510543
 41
6.0526940033421726
 42
6.1414075454719121
  0
LINE
  5
80
100
AcDbEntity
  8
STAP_DN32
  6
CONTINUOUS
 62
         7
100
AcDbLine
 10
138.6847316746
 20
18.9892881599
 30
0.0
 11
136.426643264
 21
27.4165888361
 31
0.0
  0
LINE
  5
81
100
AcDbEntity
  8
STAP_DN32
  6
CONTINUOUS
 62
         7
100
AcDbLine
 10
107.8982333172
 20
19.7724244295
 30
0.0
 11
107.4003954358
 21
19.6390291712
 31
0.0
  0
LINE
  5
82
100
AcDbEntity
  8
STAP_DN32
  6
CONTINUOUS
 62
         7
100
AcDbLine
 10
117.8348660511
 20
33.8229751305
 30
0.0
 11
139.5681971426
 21
39.6464036453
 31
0.0
  0
LINE
  5
83
100
AcDbEntity
  8
STAP_DN32
  6
CONTINUOUS
 62
         7
100
AcDbLine
 10
147.0410398444
 20
30.2607078279
 30
0.0
 11
155.1988488689
 21
32.446586168
 31
0.0
  0
LINE
  5
84
100
AcDbEntity
  8
STAP_DN32
  6
CONTINUOUS
 62
         7
100
AcDbLine
 10
124.787060309
 20
24.297771983
 30
0.0
 11
126.670438922
 21
24.8024217614
 31
0.0
  0
LINE
  5
85
100
AcDbEntity
  8
STAP_DN32
  6
CONTINUOUS
 62
         7
100
AcDbLine
 10
110.1563217277
 20
11.3451237533
 30
0.0
 11
109.6584838463
 21
11.211728495
 31
0.0
  0
LINE
  5
86
100
AcDbEntity
  8
STAP_DN32
  6
CONTINUOUS
 62
         7
100
AcDbLine
 10
138.1446874821
 20
104.3887129483
 30
0.0
 11
138.6077600818
 21
123.275994486
 31
0.0
  0
ARC
  5
87
100
AcDbEntity
  8
STAP_DN32
  6
CONTINUOUS
 62
         7
100
AcDbCircle
 10
1320.2552435745
 20
818.6120197182
 30
0.0
 40
1432.3630745056
100
AcDbArc
 50
210.5478104063
 51
212.3161621446
  0
SPLINE
  5
88
100
AcDbEntity
  8
STAP_DN32
  6
CONTINUOUS
 62
         7
100
AcDbSpline
210
0.0
220
0.0
230
1.0
 70
         8
 71
         3
 72
        14
 73
        10
 74
         0
 42
0.0
 43
0.0
 40
0.0
 40
0.0
 40
0.0
 40
0.0
 40
0.25
 40
0.25
 40
0.5
 40
0.5
 40
0.75
 40
0.75
 40
1.0
 40
1.0
 40
1.0
 40
1.0
 10
160.41947077619514
 20
60.974412950429809
 30
0.0
 10
160.22748976763322
 20
61.428100742219925
 30
0.0
 10
159.75246608400602
 20
62.062928990849208
 30
0.0
 10
158.747237078936
 20
63.632491972213195
 30
0.0
 10
158.2231217144471
 20
64.594319343986001
 30
0.0
 10
157.66507223445294
 20
66.671655070754866
 30
0.0
 10
157.63682306114296
 20
67.774594328145426
 30
0.0
 10
157.72248442432664
 20
69.637154043888586
 30
0.0
 10
157.81667750277691
 20
70.424963775601498
 30
0.0
 10
157.75599932743674
 20
70.914623721705183
 30
0.0
  0
ARC
  5
89
100
AcDbEntity
  8
STAP_DN32
  6
CONTINUOUS
 62
         7
100
AcDbCircle
 10
154.0320016957
 20
132.9180665732
 30
0.0
 40
13.2662003161
100
AcDbArc
 50
174.8041273259
 51
215.1958726741
  0
LINE
  5
8A
100
AcDbEntity
  8
STAP_DN32
  6
CONTINUOUS
 62
         7
100
AcDbLine
 10
139.4343232779
 20
139.2920496184
 30
0.0
 11
139.5204078278
 21
139.3151159041
 31
0.0
  0
ARC
  5
8B
100
AcDbEntity
  8
STAP_DN32
  6
CONTINUOUS
 62
         7
100
AcDbCircle
 10
59.5174947976
 20
86.7186085903
 30
0.0
 40
34.5568831573
100
AcDbArc
 50
65.7003743261
 51
75.5716867588
  0
ARC
  5
8C
100
AcDbEntity
  8
STAP_DN32
  6
CONTINUOUS
 62
         7
100
AcDbCircle
 10
165.5170800323
 20
112.9900250135
 30
0.0
 40
37.0419586177
100
AcDbArc
 50
134.7601775034
 51
143.9677614117
  0
LINE
  5
8D
100
AcDbEntity
  8
STAP_DN32
  6
CONTINUOUS
 62
         7
100
AcDbLine
 10
11.0264796304
 20
123.0142002697
 30
0.0
 11
9.8951087804
 21
121.8828294198
 31
0.0
  0
LINE
  5
8E
100
AcDbEntity
  8
STAP_DN32
  6
CONTINUOUS
 62
         7
100
AcDbLine
 10
9.8951087804
 20
121.8828294198
 30
0.0
 11
8.6223165743
 21
121.8828294198
 31
0.0
  0
LINE
  5
8F
100
AcDbEntity
  8
STAP_DN32
  6
CONTINUOUS
 62
         7
100
AcDbLine
 10
8.6223165743
 20
121.8828294198
 30
0.0
 11
4.7332292778
 21
117.9937421233
 31
0.0
  0
LINE
  5
90
100
AcDbEntity
  8
STAP_DN32
  6
CONTINUOUS
 62
         7
100
AcDbLine
 10
15.2691203175
 20
124.4284138321
 30
0.0
 11
13.1477999739
 21
122.3070934885
 31
0.0
  0
LINE
  5
91
100
AcDbEntity
  8
STAP_DN32
  6
CONTINUOUS
 62
         7
100
AcDbLine
 10
14.9155669269
 20
126.9032875663
 30
0.0
 11
13.8549067551
 21
125.8426273945
 31
0.0
  0
LINE
  5
92
100
AcDbEntity
  8
STAP_DN32
  6
CONTINUOUS
 62
         7
100
AcDbLine
 10
11.0971903085
 20
124.357703154
 30
0.0
 11
10.3900835273
 21
123.6505963728
 31
0.0
  0
LINE
  5
93
100
AcDbEntity
  8
STAP_DN32
  6
CONTINUOUS
 62
         7
100
AcDbLine
 10
17.0636837407
 20
133.9475589079
 30
0.0
 11
12.467489663
 21
129.3513648302
 31
0.0
  0
LINE
  5
94
100
AcDbEntity
  8
STAP_DN32
  6
CONTINUOUS
 62
         7
100
AcDbLine
 10
30.4451196427
 20
120.5661230059
 30
0.0
 11
36.446968414
 21
124.4637691712
 31
0.0
  0
LINE
  5
95
100
AcDbEntity
  8
STAP_DN32
  6
CONTINUOUS
 62
         7
100
AcDbLine
 10
31.9214850144
 20
150.9095627876
 30
0.0
 11
20.9613299061
 21
139.9494076792
 31
0.0
  0
LINE
  5
96
100
AcDbEntity
  8
STAP_DN32
  6
CONTINUOUS
 62
         7
100
AcDbLine
 10
32.9467898472
 20
152.0055782984
 30
0.0
 11
31.8861296754
 21
150.9449181266
 31
0.0
  0
LINE
  5
97
100
AcDbEntity
  8
STAP_DN32
  6
CONTINUOUS
 62
         7
100
AcDbLine
 10
47.8062907129
 20
135.7954149368
 30
0.0
 11
50.6332526494
 21
125.2450493588
 31
0.0
  0
LINE
  5
98
100
AcDbEntity
  8
STAP_DN32
  6
CONTINUOUS
 62
         7
100
AcDbLine
 10
18.3803901547
 20
113.3975480456
 30
0.0
 11
19.5117610046
 21
114.5289188955
 31
0.0
  0
LINE
  5
99
100
AcDbEntity
  8
STAP_DN32
  6
CONTINUOUS
 62
         7
100
AcDbLine
 10
18.3803901547
 20
112.1247558395
 30
0.0
 11
18.3803901547
 21
113.3975480456
 31
0.0
  0
LINE
  5
9A
100
AcDbEntity
  8
STAP_DN32
  6
CONTINUOUS
 62
         7
100
AcDbLine
 10
14.4913028581
 20
108.2356685429
 30
0.0
 11
18.3803901547
 21
112.1247558395
 31
0.0
  0
LINE
  5
9B
100
AcDbEntity
  8
STAP_DN32
  6
CONTINUOUS
 62
         7
100
AcDbLine
 10
18.8046542234
 20
116.6502392391
 30
0.0
 11
20.925974567
 21
118.7715595826
 31
0.0
  0
LINE
  5
9C
100
AcDbEntity
  8
STAP_DN32
  6
CONTINUOUS
 62
         7
100
AcDbLine
 10
22.3401881294
 20
117.3573460203
 30
0.0
 11
23.4008483011
 21
118.418006192
 31
0.0
  0
LINE
  5
9D
100
AcDbEntity
  8
STAP_DN32
  6
CONTINUOUS
 62
         7
100
AcDbLine
 10
20.1481571077
 20
113.8925227924
 30
0.0
 11
20.8552638888
 21
114.5996295736
 31
0.0
  0
LINE
  5
9E
100
AcDbEntity
  8
STAP_DN32
  6
CONTINUOUS
 62
         7
100
AcDbLine
 10
25.848925565
 20
115.9699289282
 30
0.0
 11
30.4451196427
 21
120.5661230059
 31
0.0
  0
LINE
  5
9F
100
AcDbEntity
  8
STAP_DN32
  6
CONTINUOUS
 62
         7
100
AcDbLine
 10
20.9613299061
 20
139.9494076792
 30
0.0
 11
17.0636837407
 21
133.9475589079
 31
0.0
  0
LINE
  5
A0
100
AcDbEntity
  8
STAP_DN32
  6
CONTINUOUS
 62
         7
100
AcDbLine
 10
36.446968414
 20
124.4637691712
 30
0.0
 11
47.4071235224
 21
135.4239242796
 31
0.0
  0
LINE
  5
A1
100
AcDbEntity
  8
STAP_DN32
  6
CONTINUOUS
 62
         7
100
AcDbLine
 10
47.4424788615
 20
135.3885689405
 30
0.0
 11
47.8153848978
 21
135.7614749768
 31
0.0
  0
LINE
  5
A2
100
AcDbEntity
  8
STAP_DN32
  6
CONTINUOUS
 62
         7
100
AcDbLine
 10
152.0554644097
 20
152.4210490946
 30
0.0
 11
148.9241578401
 21
164.1072443064
 31
0.0
  0
LINE
  5
A3
100
AcDbEntity
  8
STAP_DN32
  6
CONTINUOUS
 62
         7
100
AcDbLine
 10
127.1940119985
 20
214.6464512637
 30
0.0
 11
122.8638849796
 21
212.1464512637
 31
0.0
  0
LINE
  5
A4
100
AcDbEntity
  8
STAP_DN32
  6
CONTINUOUS
 62
         7
100
AcDbLine
 10
151.3940119985
 20
214.8964512637
 30
0.0
 11
150.3788236889
 21
217.6856582209
 31
0.0
  0
LINE
  5
A5
100
AcDbEntity
  8
STAP_DN32
  6
CONTINUOUS
 62
         7
100
AcDbLine
 10
31.8940119985
 20
214.6464512637
 30
0.0
 11
30.7878311303
 21
217.6856582209
 31
0.0
  0
ARC
  5
A6
100
AcDbEntity
  8
STAP_DN32
  6
CONTINUOUS
 62
         7
100
AcDbCircle
 10
-51.9023302637
 20
125.8624121224
 30
0.0
 40
100.2078547937
100
AcDbArc
 50
5.6692300754
 51
6.5550630555
  0
ARC
  5
A7
100
AcDbEntity
  8
STAP_DN32
  6
CONTINUOUS
 62
         7
100
AcDbCircle
 10
-568.6079297201
 20
1458.8992815606
 30
0.0
 40
1450.2956045414
100
AcDbArc
 50
295.0634749258
 51
295.6029897488
  0
LINE
  5
A8
100
AcDbEntity
  8
STAP_DN32
  6
CONTINUOUS
 62
         7
100
AcDbLine
 10
81.1005567118
 20
171.0139841129
 30
0.0
 11
83.4162431458
 21
162.3717246867
 31
0.0
  0
LINE
  5
A9
100
AcDbEntity
  8
STAP_DN32
  6
CONTINUOUS
 62
         7
100
AcDbLine
 10
98.4959897833
 20
173.3589913564
 30
0.0
 11
100.2326549673
 21
166.8776686539
 31
0.0
  0
LINE
  5
AA
100
AcDbEntity
  8
STAP_DN32
  6
CONTINUOUS
 62
         7
100
AcDbLine
 10
98.4959897833
 20
173.3589913564
 30
0.0
 11
122.8638849796
 21
173.3589913564
 31
0.0
  0
ARC
  5
AB
100
AcDbEntity
  8
STAP_DN32
  6
CONTINUOUS
 62
         7
100
AcDbCircle
 10
267.0284154855
 20
379.7511071151
 30
0.0
 40
251.7560670636
100
AcDbArc
 50
235.0657683788
 51
236.2592437271
  0
LINE
  5
AC
100
AcDbEntity
  8
STAP_DN32
  6
CONTINUOUS
 62
         7
100
AcDbLine
 10
150.3788236889
 20
164.1072443064
 30
0.0
 11
151.3940119985
 21
166.8964512637
 31
0.0
  0
ARC
  5
AD
100
AcDbEntity
  8
STAP_DN32
  6
CONTINUOUS
 62
         7
100
AcDbCircle
 10
422.2058546508
 20
-610.5467694178
 30
0.0
 40
843.9084069925
100
AcDbArc
 50
113.6690476878
 51
114.8229722829
  0
LINE
  5
AE
100
AcDbEntity
  8
STAP_DN32
  6
CONTINUOUS
 62
         7
100
AcDbLine
 10
30.7878311303
 20
164.1072443064
 30
0.0
 11
31.8940119985
 21
167.1464512637
 31
0.0
  0
LINE
  5
AF
100
AcDbEntity
  8
STAP_DN32
  6
CONTINUOUS
 62
         7
100
AcDbLine
 10
143.7887811502
 20
171.4291596895
 30
0.0
 11
45.7692703594
 21
145.1649109306
 31
0.0
  0
LINE
  5
B0
100
AcDbEntity
  8
STAP_DN32
  6
CONTINUOUS
 62
         7
100
AcDbLine
 10
156.6184770498
 20
145.0509123491
 30
0.0
 11
50.366636158
 21
116.5808173878
 31
0.0
  0
LINE
  5
B1
100
AcDbEntity
  8
STAP_DN32
  6
CONTINUOUS
 62
         7
100
AcDbLine
 10
152.0554644097
 20
152.4210490946
 30
0.0
 11
50.6332526494
 21
125.2450493588
 31
0.0
  0
LINE
  5
B2
100
AcDbEntity
  8
STAP_DN32
  6
CONTINUOUS
 62
         7
100
AcDbLine
 10
155.1173265882
 20
150.6532821416
 30
0.0
 11
48.8654856964
 21
122.1831871803
 31
0.0
  0
LINE
  5
B3
100
AcDbEntity
  8
STAP_DN32
  6
CONTINUOUS
 62
         7
100
AcDbLine
 10
18.3940119985
 20
214.8964512637
 30
0.0
 11
18.3940119985
 21
166.8964512637
 31
0.0
  0
LINE
  5
B4
100
AcDbEntity
  8
STAP_DN32
  6
CONTINUOUS
 62
         7
100
AcDbLine
 10
138.688254848
 20
170.9925767557
 30
0.0
 11
143.7887811502
 21
171.4291596895
 31
0.0
  0
LINE
  5
B5
100
AcDbEntity
  8
STAP_DN32
  6
CONTINUOUS
 62
         7
100
AcDbLine
 10
137.8940119985
 20
171.1106873056
 30
0.0
 11
129.8409625538
 21
170.4010249446
 31
0.0
  0
LINE
  5
B6
100
AcDbEntity
  8
STAP_DN32
  6
CONTINUOUS
 62
         7
100
AcDbLine
 10
122.8638849796
 20
212.1464512637
 30
0.0
 11
122.8638849796
 21
173.3589913564
 31
0.0
  0
LINE
  5
B7
100
AcDbEntity
  8
STAP_DN32
  6
CONTINUOUS
 62
         7
100
AcDbLine
 10
127.1940119985
 20
214.6464512637
 30
0.0
 11
127.1940119985
 21
170.4010249446
 31
0.0
  0
LINE
  5
B8
100
AcDbEntity
  8
STAP_DN32
  6
CONTINUOUS
 62
         7
100
AcDbLine
 10
42.5940119985
 20
214.6464512637
 30
0.0
 11
42.5940119985
 21
167.1464512637
 31
0.0
  0
LINE
  5
B9
100
AcDbEntity
  8
STAP_DN32
  6
CONTINUOUS
 62
         7
100
AcDbLine
 10
46.9241390174
 20
212.1464512637
 30
0.0
 11
46.9241390174
 21
169.6464512637
 31
0.0
  0
LINE
  5
BA
100
AcDbEntity
  8
STAP_DN32
  6
CONTINUOUS
 62
         7
100
AcDbLine
 10
151.3940119985
 20
214.8964512637
 30
0.0
 11
151.3940119985
 21
166.8964512637
 31
0.0
  0
ARC
  5
BB
100
AcDbEntity
  8
STAP_DN32
  6
CONTINUOUS
 62
         7
100
AcDbCircle
 10
90.0182400619
 20
181.4250363126
 30
0.0
 40
61.0991633082
100
AcDbArc
 50
351.0822121515
 51
8.9177878485
  0
LINE
  5
BC
100
AcDbEntity
  8
STAP_DN32
  6
CONTINUOUS
 62
         7
100
AcDbLine
 10
137.8940119985
 20
214.6464512637
 30
0.0
 11
137.8940119985
 21
171.1106873056
 31
0.0
  0
LINE
  5
BD
100
AcDbEntity
  8
STAP_DN32
  6
CONTINUOUS
 62
         7
100
AcDbLine
 10
31.8940119985
 20
214.6464512637
 30
0.0
 11
31.8940119985
 21
167.1464512637
 31
0.0
  0
ARC
  5
BE
100
AcDbEntity
  8
STAP_DN32
  6
CONTINUOUS
 62
         7
100
AcDbCircle
 10
140.2967496096
 20
213.7624696933
 30
0.0
 40
10.8184853821
100
AcDbArc
 50
338.7377372552
 51
21.2622627448
  0
LINE
  5
BF
100
AcDbEntity
  8
STAP_DN32
  6
CONTINUOUS
 62
         7
100
AcDbLine
 10
139.0001928667
 20
217.6856582209
 30
0.0
 11
137.8940119985
 21
214.6464512637
 31
0.0
  0
ARC
  5
C0
100
AcDbEntity
  8
STAP_DN32
  6
CONTINUOUS
 62
         7
100
AcDbCircle
 10
20.705757051
 20
213.7624696933
 30
0.0
 40
10.8184853821
100
AcDbArc
 50
338.7377372552
 51
21.2622627448
  0
ARC
  5
C1
100
AcDbEntity
  8
STAP_DN32
  6
CONTINUOUS
 62
         7
100
AcDbCircle
 10
20.705757051
 20
168.030432834
 30
0.0
 40
10.8184853821
100
AcDbArc
 50
338.7377372552
 51
21.2622627448
  0
ARC
  5
C2
100
AcDbEntity
  8
STAP_DN32
  6
CONTINUOUS
 62
         7
100
AcDbCircle
 10
79.7697839352
 20
200.3678662147
 30
0.0
 40
61.0991633082
100
AcDbArc
 50
171.0822121515
 51
188.9177878485
  0
ARC
  5
C3
100
AcDbEntity
  8
STAP_DN32
  6
CONTINUOUS
 62
         7
100
AcDbCircle
 10
29.4912743875
 20
213.7624696933
 30
0.0
 40
10.8184853821
100
AcDbArc
 50
158.7377372552
 51
201.2622627448
  0
LINE
  5
C4
100
AcDbEntity
  8
STAP_DN32
  6
CONTINUOUS
 62
         7
100
AcDbLine
 10
139.0001928667
 20
217.6856582209
 30
0.0
 11
150.3788236889
 21
217.6856582209
 31
0.0
  0
ARC
  5
C5
100
AcDbEntity
  8
STAP_DN32
  6
CONTINUOUS
 62
         7
100
AcDbCircle
 10
199.3607764937
 20
181.4250363126
 30
0.0
 40
61.0991633082
100
AcDbArc
 50
171.0822121515
 51
188.9177878485
  0
LINE
  5
C6
100
AcDbEntity
  8
STAP_DN32
  6
CONTINUOUS
 62
         7
100
AcDbLine
 10
139.0001928667
 20
209.8392811657
 30
0.0
 11
150.3788236889
 21
209.8392811657
 31
0.0
  0
ARC
  5
C7
100
AcDbEntity
  8
STAP_DN32
  6
CONTINUOUS
 62
         7
100
AcDbCircle
 10
29.4912743875
 20
168.030432834
 30
0.0
 40
10.8184853821
100
AcDbArc
 50
158.7377372552
 51
201.2622627448
  0
ARC
  5
C8
100
AcDbEntity
  8
STAP_DN32
  6
CONTINUOUS
 62
         7
100
AcDbCircle
 10
79.7697839352
 20
181.4250363126
 30
0.0
 40
61.0991633082
100
AcDbArc
 50
171.0822121515
 51
188.9177878485
  0
LINE
  5
C9
100
AcDbEntity
  8
STAP_DN32
  6
CONTINUOUS
 62
         7
100
AcDbLine
 10
19.4092003082
 20
190.8964512637
 30
0.0
 11
30.7878311303
 21
190.8964512637
 31
0.0
  0
ARC
  5
CA
100
AcDbEntity
  8
STAP_DN32
  6
CONTINUOUS
 62
         7
100
AcDbCircle
 10
90.0182400619
 20
200.3678662147
 30
0.0
 40
61.0991633082
100
AcDbArc
 50
351.0822121515
 51
8.9177878485
  0
ARC
  5
CB
100
AcDbEntity
  8
STAP_DN32
  6
CONTINUOUS
 62
         7
100
AcDbCircle
 10
199.3607764937
 20
200.3678662147
 30
0.0
 40
61.0991633082
100
AcDbArc
 50
171.0822121515
 51
188.9177878485
  0
LINE
  5
CC
100
AcDbEntity
  8
STAP_DN32
  6
CONTINUOUS
 62
         7
100
AcDbLine
 10
139.0001928667
 20
190.8964512637
 30
0.0
 11
150.3788236889
 21
190.8964512637
 31
0.0
  0
LINE
  5
CD
100
AcDbEntity
  8
STAP_DN32
  6
CONTINUOUS
 62
         7
100
AcDbLine
 10
19.4092003082
 20
164.1072443064
 30
0.0
 11
30.7878311303
 21
164.1072443064
 31
0.0
  0
LINE
  5
CE
100
AcDbEntity
  8
STAP_DN32
  6
CONTINUOUS
 62
         7
100
AcDbLine
 10
148.9241578401
 20
164.1072443064
 30
0.0
 11
150.3788236889
 21
164.1072443064
 31
0.0
  0
LINE
  5
CF
100
AcDbEntity
  8
STAP_DN32
  6
CONTINUOUS
 62
         7
100
AcDbLine
 10
19.4092003082
 20
171.9536213616
 30
0.0
 11
30.7878311303
 21
171.9536213616
 31
0.0
  0
LINE
  5
D0
100
AcDbEntity
  8
STAP_DN32
  6
CONTINUOUS
 62
         7
100
AcDbLine
 10
139.0001928667
 20
171.9536213616
 30
0.0
 11
150.3788236889
 21
171.9536213616
 31
0.0
  0
ARC
  5
D1
100
AcDbEntity
  8
STAP_DN32
  6
CONTINUOUS
 62
         7
100
AcDbCircle
 10
140.2967496096
 20
168.030432834
 30
0.0
 40
10.8184853821
100
AcDbArc
 50
338.7377372552
 51
21.2622627448
  0
LINE
  5
D2
100
AcDbEntity
  8
STAP_DN32
  6
CONTINUOUS
 62
         7
100
AcDbLine
 10
138.688254848
 20
170.9925767557
 30
0.0
 11
139.0001928667
 21
171.9536213616
 31
0.0
  0
LINE
  5
D3
100
AcDbEntity
  8
STAP_DN32
  6
CONTINUOUS
 62
         7
100
AcDbLine
 10
19.4092003082
 20
209.8392811657
 30
0.0
 11
30.7878311303
 21
209.8392811657
 31
0.0
  0
ARC
  5
D4
100
AcDbEntity
  8
STAP_DN32
  6
CONTINUOUS
 62
         7
100
AcDbCircle
 10
-29.5727524967
 20
200.3678662147
 30
0.0
 40
61.0991633082
100
AcDbArc
 50
351.0822121515
 51
8.9177878485
  0
ARC
  5
D5
100
AcDbEntity
  8
STAP_DN32
  6
CONTINUOUS
 62
         7
100
AcDbCircle
 10
-29.5727524967
 20
181.4250363126
 30
0.0
 40
61.0991633082
100
AcDbArc
 50
351.0822121515
 51
8.9177878485
  0
LINE
  5
D6
100
AcDbEntity
  8
STAP_DN32
  6
CONTINUOUS
 62
         7
100
AcDbLine
 10
19.4092003082
 20
217.6856582209
 30
0.0
 11
30.7878311303
 21
217.6856582209
 31
0.0
  0
LINE
  5
D7
100
AcDbEntity
  8
STAP_DN32
  6
CONTINUOUS
 62
         7
100
AcDbLine
 10
60.649822056
 20
153.5456596033
 30
0.0
 11
64.5321077326
 21
168.0345469977
 31
0.0
  0
ARC
  5
D8
100
AcDbEntity
  8
STAP_DN32
  6
CONTINUOUS
 62
         7
100
AcDbCircle
 10
92.0481832287
 20
155.496493022
 30
0.0
 40
18.9906044167
100
AcDbArc
 50
70.1519935939
 51
125.2030587746
  0
LINE
  5
D9
100
AcDbEntity
  8
STAP_DN32
  6
CONTINUOUS
 62
         7
100
AcDbLine
 10
138.688254848
 20
170.9925767557
 30
0.0
 11
137.8940119985
 21
171.1106873056
 31
0.0
  0
ELLIPSE
  5
DA
100
AcDbEntity
  8
STAP_DN32
  6
CONTINUOUS
 62
         7
100
AcDbEllipse
 10
94.5721583686
 20
164.1072443064
 30
0.0
 11
54.652696642807165
 21
-2.7463861941427572
 31
0.0
210
0.0
220
0.0
230
1.0
 40
0.394712285
 41
0.126630781729358
 42
0.4700391745325707
  0
LINE
  5
DB
100
AcDbEntity
  8
STAP_DN32
  6
CONTINUOUS
 62
         7
100
AcDbLine
 10
64.5321077326
 20
168.0345469977
 30
0.0
 11
57.2798675442
 21
169.9777788995
 31
0.0
  0
ARC
  5
DC
100
AcDbEntity
  8
STAP_DN32
  6
CONTINUOUS
 62
         7
100
AcDbCircle
 10
63.7264114461
 20
150.4429645783
 30
0.0
 40
20.5710208508
100
AcDbArc
 50
89.9795045657
 51
108.2630358808
  0
LINE
  5
DD
100
AcDbEntity
  8
STAP_DN32
  6
CONTINUOUS
 62
         7
100
AcDbLine
 10
63.7337699636
 20
171.0139841129
 30
0.0
 11
81.1005567118
 21
171.0139841129
 31
0.0
  0
SPLINE
  5
DE
100
AcDbEntity
  8
STAP_DN32
  6
CONTINUOUS
 62
         7
100
AcDbSpline
210
0.0
220
0.0
230
1.0
 70
         8
 71
         3
 72
        14
 73
        10
 74
         0
 42
0.0
 43
0.0
 40
0.0
 40
0.0
 40
0.0
 40
0.0
 40
0.125
 40
0.125
 40
0.2500000000000001
 40
0.2500000000000001
 40
0.3750000000000001
 40
0.3750000000000001
 40
0.4997860112065523
 40
0.4997860112065523
 40
0.4997860112065523
 40
0.4997860112065523
 10
67.919590358283429
 20
155.3922897286885
 30
0.0
 10
67.018575626510327
 20
154.97851658525789
 30
0.0
 10
66.120864738948654
 20
154.57526698560753
 30
0.0
 10
64.449612617924842
 20
153.83557792799206
 30
0.0
 10
63.675365991147771
 20
153.49875002361338
 30
0.0
 10
62.387116834471357
 20
152.9430601923836
 30
0.0
 10
61.862989665289177
 20
152.71970900100732
 30
0.0
 10
61.154146635101135
 20
152.41853582818101
 30
0.0
 10
60.972373580247677
 20
152.34187024465493
 30
0.0
 10
60.972375991991541
 20
152.34187189720174
 30
0.0
  0
LINE
  5
DF
100
AcDbEntity
  8
STAP_DN32
  6
CONTINUOUS
 62
         7
100
AcDbLine
 10
100.2326549673
 20
166.8776686539
 30
0.0
 11
83.4162431458
 21
162.3717246867
 31
0.0
  0
LINE
  5
E0
100
AcDbEntity
  8
STAP_DN32
  6
CONTINUOUS
 62
         7
100
AcDbLine
 10
37.8965373155
 20
152.0055782984
 30
0.0
 11
46.0421525657
 21
143.8599630482
 31
0.0
  0
LINE
  5
E1
100
AcDbEntity
  8
STAP_DN32
  6
CONTINUOUS
 62
         7
100
AcDbLine
 10
47.4424788615
 20
135.3885689405
 30
0.0
 11
31.8861296754
 21
150.9449181266
 31
0.0
  0
LINE
  5
E2
100
AcDbEntity
  8
STAP_DN32
  6
CONTINUOUS
 62
         7
100
AcDbLine
 10
32.9467898472
 20
152.0055782984
 30
0.0
 11
47.6504262015
 21
137.3019419441
 31
0.0
  0
SPLINE
  5
E3
100
AcDbEntity
  8
STAP_DN32
  6
CONTINUOUS
 62
         7
100
AcDbSpline
210
0.0
220
0.0
230
1.0
 70
         8
 71
         3
 72
        10
 73
         6
 74
         0
 42
0.0
 43
0.0
 40
0.5000065025102735
 40
0.5000065025102735
 40
0.5000065025102735
 40
0.5000065025102735
 40
0.7499999999999993
 40
0.7499999999999993
 40
1.0
 40
1.0
 40
1.0
 40
1.0
 10
55.537410280743657
 20
169.64645126365997
 30
0.0
 10
55.537410640131533
 20
169.64645135340555
 30
0.0
 10
55.72477659009909
 20
169.68421799035517
 30
0.0
 10
56.350921249001196
 20
169.80590842727017
 30
0.0
 10
56.788285482066186
 20
169.88920199123174
 30
0.0
 10
57.279867544193465
 20
169.97777889946701
 30
0.0
  0
LINE
  5
E4
100
AcDbEntity
  8
STAP_DN32
  6
CONTINUOUS
 62
         7
100
AcDbLine
 10
45.7692703594
 20
145.1649109306
 30
0.0
 11
46.0421525657
 21
143.8599630482
 31
0.0
  0
LINE
  5
E5
100
AcDbEntity
  8
STAP_DN32
  6
CONTINUOUS
 62
         7
100
AcDbLine
 10
22.3401881294
 20
117.3573460203
 30
0.0
 11
13.8549067551
 21
125.8426273945
 31
0.0
  0
LINE
  5
E6
100
AcDbEntity
  8
STAP_DN32
  6
CONTINUOUS
 62
         7
100
AcDbLine
 10
20.8552638888
 20
114.5996295736
 30
0.0
 11
11.0971903085
 21
124.357703154
 31
0.0
  0
LINE
  5
E7
100
AcDbEntity
  8
STAP_DN32
  6
CONTINUOUS
 62
         7
100
AcDbLine
 10
25.848925565
 20
115.9699289282
 30
0.0
 11
12.467489663
 21
129.3513648302
 31
0.0
  0
LINE
  5
E8
100
AcDbEntity
  8
STAP_DN32
  6
CONTINUOUS
 62
         7
100
AcDbLine
 10
30.4451196427
 20
120.5661230059
 30
0.0
 11
17.0636837407
 21
133.9475589079
 31
0.0
  0
LINE
  5
E9
100
AcDbEntity
  8
STAP_DN32
  6
CONTINUOUS
 62
         7
100
AcDbLine
 10
36.446968414
 20
124.4637691712
 30
0.0
 11
20.9613299061
 21
139.9494076792
 31
0.0
  0
LINE
  5
EA
100
AcDbEntity
  8
STAP_DN32
  6
CONTINUOUS
 62
         7
100
AcDbLine
 10
48.8654856964
 20
122.1831871803
 30
0.0
 11
50.366636158
 21
116.5808173878
 31
0.0
  0
LINE
  5
EB
100
AcDbEntity
  8
STAP_DN32
  6
CONTINUOUS
 62
         7
100
AcDbLine
 10
20.1481571077
 20
113.8925227924
 30
0.0
 11
10.3900835273
 21
123.6505963728
 31
0.0
  0
LINE
  5
EC
100
AcDbEntity
  8
STAP_DN32
  6
CONTINUOUS
 62
         7
100
AcDbLine
 10
18.3803901547
 20
113.3975480456
 30
0.0
 11
9.8951087804
 21
121.8828294198
 31
0.0
  0
LINE
  5
ED
100
AcDbEntity
  8
STAP_DN32
  6
CONTINUOUS
 62
         7
100
AcDbLine
 10
14.4913028581
 20
108.2356685429
 30
0.0
 11
4.7332292778
 21
117.9937421233
 31
0.0
  0
LINE
  5
EE
100
AcDbEntity
  8
STAP_DN32
  6
CONTINUOUS
 62
         7
100
AcDbLine
 10
18.3803901547
 20
112.1247558395
 30
0.0
 11
8.6223165743
 21
121.8828294198
 31
0.0
  0
LINE
  5
EF
100
AcDbEntity
  8
STAP_DN32
  6
CONTINUOUS
 62
         7
100
AcDbLine
 10
31.8940119985
 20
167.1464512637
 30
0.0
 11
42.5940119985
 21
167.1464512637
 31
0.0
  0
LINE
  5
F0
100
AcDbEntity
  8
STAP_DN32
  6
CONTINUOUS
 62
         7
100
AcDbLine
 10
46.9241390174
 20
212.1464512637
 30
0.0
 11
42.5940119985
 21
214.6464512637
 31
0.0
  0
LINE
  5
F1
100
AcDbEntity
  8
STAP_DN32
  6
CONTINUOUS
 62
         7
100
AcDbLine
 10
18.3940119985
 20
166.8964512637
 30
0.0
 11
19.4092003082
 21
164.1072443064
 31
0.0
  0
LINE
  5
F2
100
AcDbEntity
  8
STAP_DN32
  6
CONTINUOUS
 62
         7
100
AcDbLine
 10
50.6332526494
 20
125.2450493588
 30
0.0
 11
48.8654856964
 21
122.1831871803
 31
0.0
  0
LINE
  5
F3
100
AcDbEntity
  8
STAP_DN32
  6
CONTINUOUS
 62
         7
100
AcDbLine
 10
37.8965373155
 20
152.0055782984
 30
0.0
 11
32.9467898472
 21
152.0055782984
 31
0.0
  0
LINE
  5
F4
100
AcDbEntity
  8
STAP_DN32
  6
CONTINUOUS
 62
         7
100
AcDbLine
 10
60.9864261077
 20
152.3484235751
 30
0.0
 11
58.0874672638
 21
150.9966168655
 31
0.0
  0
LINE
  5
F5
100
AcDbEntity
  8
STAP_DN32
  6
CONTINUOUS
 62
         7
100
AcDbLine
 10
60.649822056
 20
153.5456596033
 30
0.0
 11
60.971824946
 21
152.3439284579
 31
0.0
  0
LINE
  5
F6
100
AcDbEntity
  8
STAP_DN32
  6
CONTINUOUS
 62
         7
100
AcDbLine
 10
137.8940119985
 20
214.6464512637
 30
0.0
 11
127.1940119985
 21
214.6464512637
 31
0.0
  0
LINE
  5
F7
100
AcDbEntity
  8
STAP_DN32
  6
CONTINUOUS
 62
         7
100
AcDbLine
 10
156.6184770498
 20
145.0509123491
 30
0.0
 11
155.1173265882
 21
150.6532821416
 31
0.0
  0
LINE
  5
F8
100
AcDbEntity
  8
STAP_DN32
  6
CONTINUOUS
 62
         7
100
AcDbLine
 10
42.5940119985
 20
214.6464512637
 30
0.0
 11
31.8940119985
 21
214.6464512637
 31
0.0
  0
LINE
  5
F9
100
AcDbEntity
  8
STAP_DN32
  6
CONTINUOUS
 62
         7
100
AcDbLine
 10
42.5940119985
 20
167.1464512637
 30
0.0
 11
46.9241390174
 21
169.6464512637
 31
0.0
  0
LINE
  5
FA
100
AcDbEntity
  8
STAP_DN32
  6
CONTINUOUS
 62
         7
100
AcDbLine
 10
19.4092003082
 20
217.6856582209
 30
0.0
 11
18.3940119985
 21
214.8964512637
 31
0.0
  0
ARC
  5
FB
100
AcDbEntity
  8
STAP_DN32
  6
CONTINUOUS
 62
         7
100
AcDbCircle
 10
-86.7399739921
 20
107.8205721801
 30
0.0
 40
137.5860851516
100
AcDbArc
 50
12.3730441151
 51
15.1852456516
  0
LINE
  5
FC
100
AcDbEntity
  8
STAP_DN32
  6
CONTINUOUS
 62
         7
100
AcDbLine
 10
155.1173265882
 20
150.6532821416
 30
0.0
 11
152.0554644097
 21
152.4210490946
 31
0.0
  0
LINE
  5
FD
100
AcDbEntity
  8
STAP_DN32
  6
CONTINUOUS
 62
         7
100
AcDbLine
 10
46.9241390174
 20
169.6464512637
 30
0.0
 11
55.5374102807
 21
169.6464512637
 31
0.0
  0
LINE
  5
FE
100
AcDbEntity
  8
STAP_DN32
  6
CONTINUOUS
 62
         7
100
AcDbLine
 10
122.8638849796
 20
212.1464512637
 30
0.0
 11
46.9241390174
 21
212.1464512637
 31
0.0
  0
LINE
  5
FF
100
AcDbEntity
  8
STAP_DN32
  6
CONTINUOUS
 62
         7
100
AcDbLine
 10
55.5374102807
 20
169.6464512637
 30
0.0
 11
37.8965373155
 21
152.0055782984
 31
0.0
  0
LINE
  5
100
100
AcDbEntity
  8
STAP_DN32
  6
CONTINUOUS
 62
         7
100
AcDbLine
 10
57.4203751536
 20
186.8964512637
 30
0.0
 11
57.4203751536
 21
192.68999282
 31
0.0
  0
LINE
  5
101
100
AcDbEntity
  8
STAP_DN32
  6
CONTINUOUS
 62
         7
100
AcDbLine
 10
57.4203751536
 20
192.68999282
 30
0.0
 11
58.7120638778
 21
192.68999282
 31
0.0
  0
LINE
  5
102
100
AcDbEntity
  8
STAP_DN32
  6
CONTINUOUS
 62
         7
100
AcDbLine
 10
58.7120638778
 20
192.68999282
 30
0.0
 11
59.3684958524
 21
194.8964512637
 31
0.0
  0
LINE
  5
103
100
AcDbEntity
  8
STAP_DN32
  6
CONTINUOUS
 62
         7
100
AcDbLine
 10
59.3684958524
 20
194.8964512637
 30
0.0
 11
53.9264630308
 21
194.8964512637
 31
0.0
  0
LINE
  5
104
100
AcDbEntity
  8
STAP_DN32
  6
CONTINUOUS
 62
         7
100
AcDbLine
 10
53.9264630308
 20
194.8964512637
 30
0.0
 11
53.2785011462
 21
192.68999282
 31
0.0
  0
LINE
  5
105
100
AcDbEntity
  8
STAP_DN32
  6
CONTINUOUS
 62
         7
100
AcDbLine
 10
55.0360448201
 20
192.68999282
 30
0.0
 11
55.0360448201
 21
186.8964512637
 31
0.0
  0
LINE
  5
106
100
AcDbEntity
  8
STAP_DN32
  6
CONTINUOUS
 62
         7
100
AcDbLine
 10
53.2785011462
 20
192.68999282
 30
0.0
 11
55.0360448201
 21
192.68999282
 31
0.0
  0
LINE
  5
107
100
AcDbEntity
  8
STAP_DN32
  6
CONTINUOUS
 62
         7
100
AcDbLine
 10
117.5668547725
 20
190.8964512637
 30
0.0
 11
113.5668547725
 21
194.8964512637
 31
0.0
  0
LINE
  5
108
100
AcDbEntity
  8
STAP_DN32
  6
CONTINUOUS
 62
         7
100
AcDbLine
 10
113.5668547725
 20
186.8964512637
 30
0.0
 11
117.5668547725
 21
190.8964512637
 31
0.0
  0
LINE
  5
109
100
AcDbEntity
  8
STAP_DN32
  6
CONTINUOUS
 62
         7
100
AcDbLine
 10
113.5668547725
 20
194.8964512637
 30
0.0
 11
111.6272041637
 21
194.8964512637
 31
0.0
  0
LINE
  5
10A
100
AcDbEntity
  8
STAP_DN32
  6
CONTINUOUS
 62
         7
100
AcDbLine
 10
111.6272041637
 20
194.8964512637
 30
0.0
 11
111.6272041637
 21
192.0928514754
 31
0.0
  0
LINE
  5
10B
100
AcDbEntity
  8
STAP_DN32
  6
CONTINUOUS
 62
         7
100
AcDbLine
 10
111.6272041637
 20
192.0928514754
 30
0.0
 11
103.8940119985
 21
192.0928514754
 31
0.0
  0
LINE
  5
10C
100
AcDbEntity
  8
STAP_DN32
  6
CONTINUOUS
 62
         7
100
AcDbLine
 10
55.0360448201
 20
186.8964512637
 30
0.0
 11
57.4203751536
 21
186.8964512637
 31
0.0
  0
LINE
  5
10D
100
AcDbEntity
  8
STAP_DN32
  6
CONTINUOUS
 62
         7
100
AcDbLine
 10
103.8940119985
 20
192.0928514754
 30
0.0
 11
103.8940119985
 21
189.7000510519
 31
0.0
  0
LINE
  5
10E
100
AcDbEntity
  8
STAP_DN32
  6
CONTINUOUS
 62
         7
100
AcDbLine
 10
111.6272041637
 20
189.7000510519
 30
0.0
 11
111.6272041637
 21
186.8964512637
 31
0.0
  0
LINE
  5
10F
100
AcDbEntity
  8
STAP_DN32
  6
CONTINUOUS
 62
         7
100
AcDbLine
 10
103.8940119985
 20
189.7000510519
 30
0.0
 11
111.6272041637
 21
189.7000510519
 31
0.0
  0
LINE
  5
110
100
AcDbEntity
  8
STAP_DN32
  6
CONTINUOUS
 62
         7
100
AcDbLine
 10
58.1124105754
 20
151.0082481227
 30
0.0
 11
60.649822056
 21
153.5456596033
 31
0.0
  0
LINE
  5
111
100
AcDbEntity
  8
STAP_DN32
  6
CONTINUOUS
 62
         7
100
AcDbLine
 10
111.6272041637
 20
186.8964512637
 30
0.0
 11
113.5668547725
 21
186.8964512637
 31
0.0
  0
LINE
  5
112
100
AcDbEntity
  8
STAP_DN32
  6
CONTINUOUS
 62
         7
100
AcDbLine
 10
63.0656901351
 20
186.8964512637
 30
0.0
 11
61.630009881
 21
192.9144502049
 31
0.0
  0
LINE
  5
113
100
AcDbEntity
  8
STAP_DN32
  6
CONTINUOUS
 62
         7
100
AcDbLine
 10
65.5940119985
 20
186.8964512637
 30
0.0
 11
63.0656901351
 21
186.8964512637
 31
0.0
  0
LINE
  5
114
100
AcDbEntity
  8
STAP_DN32
  6
CONTINUOUS
 62
         7
100
AcDbLine
 10
63.218151755
 20
194.8964512637
 30
0.0
 11
65.5940119985
 21
186.8964512637
 31
0.0
  0
LINE
  5
115
100
AcDbEntity
  8
STAP_DN32
  6
CONTINUOUS
 62
         7
100
AcDbLine
 10
61.630009881
 20
186.8964512637
 30
0.0
 11
57.6617727185
 21
186.8964512637
 31
0.0
  0
LINE
  5
116
100
AcDbEntity
  8
STAP_DN32
  6
CONTINUOUS
 62
         7
100
AcDbLine
 10
62.2525614956
 20
188.9589181774
 30
0.0
 11
61.630009881
 21
186.8964512637
 31
0.0
  0
LINE
  5
117
100
AcDbEntity
  8
STAP_DN32
  6
CONTINUOUS
 62
         7
100
AcDbLine
 10
60.6940649366
 20
188.9589181774
 30
0.0
 11
62.2525614956
 21
188.9589181774
 31
0.0
  0
LINE
  5
118
100
AcDbEntity
  8
STAP_DN32
  6
CONTINUOUS
 62
         7
100
AcDbLine
 10
61.630009881
 20
192.9144502049
 30
0.0
 11
60.6940649366
 21
188.9589181774
 31
0.0
  0
LINE
  5
119
100
AcDbEntity
  8
STAP_DN32
  6
CONTINUOUS
 62
         7
100
AcDbLine
 10
57.6617727185
 20
186.8964512637
 30
0.0
 11
60.037632962
 21
194.8964512637
 31
0.0
  0
LINE
  5
11A
100
AcDbEntity
  8
STAP_DN32
  6
CONTINUOUS
 62
         7
100
AcDbLine
 10
60.037632962
 20
194.8964512637
 30
0.0
 11
63.218151755
 21
194.8964512637
 31
0.0
  0
CIRCLE
  5
11B
100
AcDbEntity
  8
STAP_DN32
  6
CONTINUOUS
 62
         7
100
AcDbCircle
 10
48.0055130341
 20
152.9274683663
 30
0.0
 40
2.6
  0
CIRCLE
  5
11C
100
AcDbEntity
  8
STAP_DN32
  6
CONTINUOUS
 62
         7
100
AcDbCircle
 10
48.0055130341
 20
152.9274683663
 30
0.0
 40
4.0
  0
LINE
  5
11D
100
AcDbEntity
  8
STAP_DN32
  6
CONTINUOUS
 62
         7
100
AcDbLine
 10
151.33412306
 20
136.1809854661
 30
0.0
 11
149.7886417379
 21
135.7668749939
 31
0.0
  0
LINE
  5
11E
100
AcDbEntity
  8
STAP_DN32
  6
CONTINUOUS
 62
         7
100
AcDbLine
 10
142.4152066388
 20
29.0212195562
 30
0.0
 11
139.5681971426
 21
39.6464036453
 31
0.0
  0
LINE
  5
11F
100
AcDbEntity
  8
STAP_DN32
  6
CONTINUOUS
 62
         7
100
AcDbLine
 10
151.7815483852
 20
128.3292461315
 30
0.0
 11
153.3270297073
 21
128.7433566037
 31
0.0
  0
LINE
  5
120
100
AcDbEntity
  8
STAP_DN32
  6
CONTINUOUS
 62
         7
100
AcDbLine
 10
137.8778269466
 20
39.1934703164
 30
0.0
 11
134.8367031667
 21
50.5430987753
 31
0.0
  0
LINE
  5
121
100
AcDbEntity
  8
STAP_DN32
  6
CONTINUOUS
 62
         7
100
AcDbLine
 10
140.7340922234
 20
134.7855840755
 30
0.0
 11
139.5204078278
 21
139.3151159041
 31
0.0
  0
LINE
  5
122
100
AcDbEntity
  8
STAP_DN32
  6
CONTINUOUS
 62
         7
100
AcDbLine
 10
161.3996633896
 20
57.6606225156
 30
0.0
 11
160.6585332854
 21
60.4265577197
 31
0.0
  0
LINE
  5
123
100
AcDbEntity
  8
STAP_DN32
  6
CONTINUOUS
 62
         7
100
AcDbLine
 10
139.5204078278
 20
139.3151159041
 30
0.0
 11
140.5153947134
 21
140.7361044414
 31
0.0
  0
LINE
  5
124
100
AcDbEntity
  8
STAP_DN32
  6
CONTINUOUS
 62
         7
100
AcDbLine
 10
157.9547751608
 20
24.1526807501
 30
0.0
 11
155.6966867502
 21
32.5799814263
 31
0.0
  0
LINE
  5
125
100
AcDbEntity
  8
STAP_DN32
  6
CONTINUOUS
 62
         7
100
AcDbLine
 10
107.4003954358
 20
19.6390291712
 30
0.0
 11
109.6584838463
 21
11.211728495
 31
0.0
  0
LINE
  5
126
100
AcDbEntity
  8
STAP_DN32
  6
CONTINUOUS
 62
         7
100
AcDbLine
 10
117.8348660511
 20
33.8229751305
 30
0.0
 11
120.6818755473
 21
23.1977910413
 31
0.0
  0
ARC
  5
127
100
AcDbEntity
  8
STAP_DN32
  6
CONTINUOUS
 62
         7
100
AcDbCircle
 10
108.7465832195
 20
111.2075705948
 30
0.0
 40
100.0
100
AcDbArc
 50
270.5224878141
 51
299.4775121859
  0
LINE
  5
128
100
AcDbEntity
  8
STAP_DN32
  6
CONTINUOUS
 62
         7
100
AcDbLine
 10
116.4841124672
 20
45.6255369183
 30
0.0
 11
119.5252362471
 21
34.2759084595
 31
0.0
  0
LINE
  5
129
100
AcDbEntity
  8
STAP_DN32
  6
CONTINUOUS
 62
         7
100
AcDbLine
 10
66.4697184944
 20
120.8956252955
 30
0.0
 11
68.0418966824
 21
120.1625065665
 31
0.0
  0
LINE
  5
12A
100
AcDbEntity
  8
STAP_DN32
  6
CONTINUOUS
 62
         7
100
AcDbLine
 10
68.0418966824
 20
120.1625065665
 30
0.0
 11
89.9211522442
 21
38.508013178
 31
0.0
  0
LINE
  5
12B
100
AcDbEntity
  8
STAP_DN32
  6
CONTINUOUS
 62
         7
100
AcDbLine
 10
157.6891059181
 20
71.5086115237
 30
0.0
 11
143.4505626118
 21
124.6475785688
 31
0.0
  0
SPLINE
  5
12C
100
AcDbEntity
  8
STAP_DN32
  6
CONTINUOUS
 62
         7
100
AcDbSpline
210
0.0
220
0.0
230
1.0
 70
         8
 71
         3
 72
        12
 73
         8
 74
         0
 42
0.0
 43
0.0
 40
0.500470706158732
 40
0.500470706158732
 40
0.500470706158732
 40
0.500470706158732
 40
0.6249999999999987
 40
0.6249999999999987
 40
0.7499999999999983
 40
0.7499999999999983
 40
1.0
 40
1.0
 40
1.0
 40
1.0
 10
157.68561009559079
 20
71.521658090915537
 30
0.0
 10
157.68561259471886
 20
71.521634523483172
 30
0.0
 10
157.68697590636188
 20
71.508958914151876
 30
0.0
 10
157.69252380701485
 20
71.458075545171226
 30
0.0
 10
157.69674962931649
 20
71.419492512166542
 30
0.0
 10
157.71398621685262
 20
71.265633093444819
 30
0.0
 10
157.7312467499024
 20
71.114371748295312
 30
0.0
 10
157.75599932743674
 20
70.914623721705183
 30
0.0
  0
LINE
  5
12D
100
AcDbEntity
  8
STAP_DN32
  6
CONTINUOUS
 62
         7
100
AcDbLine
 10
138.6102755635
 20
123.4023913721
 30
0.0
 11
135.5617615929
 21
134.7796003977
 31
0.0
  0
LINE
  5
12E
100
AcDbEntity
  8
STAP_DN32
  6
CONTINUOUS
 62
         7
100
AcDbLine
 10
138.6077600818
 20
123.275994486
 30
0.0
 11
138.6102755635
 21
123.4023913721
 31
0.0
  0
LINE
  5
12F
100
AcDbEntity
  8
STAP_DN32
  6
CONTINUOUS
 62
         7
100
AcDbLine
 10
76.7864566102
 20
106.8367490105
 30
0.0
 11
76.8518335243
 21
106.7285438371
 31
0.0
  0
LINE
  5
130
100
AcDbEntity
  8
STAP_DN32
  6
CONTINUOUS
 62
         7
100
AcDbLine
 10
73.7379426396
 20
118.2139580362
 30
0.0
 11
76.7864566102
 21
106.8367490105
 31
0.0
  0
LINE
  5
131
100
AcDbEntity
  8
STAP_DN32
  6
CONTINUOUS
 62
         7
100
AcDbLine
 10
76.7864566102
 20
106.8367490105
 30
0.0
 11
138.6102755635
 21
123.4023913721
 31
0.0
  0
LINE
  5
132
100
AcDbEntity
  8
STAP_DN32
  6
CONTINUOUS
 62
         7
100
AcDbLine
 10
73.7379426396
 20
118.2139580362
 30
0.0
 11
135.5617615929
 21
134.7796003977
 31
0.0
  0
ARC
  5
133
100
AcDbEntity
  8
STAP_DN32
  6
CONTINUOUS
 62
         7
100
AcDbCircle
 10
1592.2809598304
 20
1020.8452482127
 30
0.0
 40
1769.7838246734
100
AcDbArc
 50
211.098653034
 51
211.7103050606
  0
LINE
  5
134
100
AcDbEntity
  8
STAP_DN32
  6
CONTINUOUS
 62
         7
100
AcDbLine
 10
112.0151028617
 20
44.4280694036
 30
0.0
 11
99.93631754
 21
41.1915686311
 31
0.0
  0
LINE
  5
135
100
AcDbEntity
  8
STAP_DN32
  6
CONTINUOUS
 62
         7
100
AcDbLine
 10
112.0151028617
 20
44.4280694036
 30
0.0
 11
139.3057127722
 21
51.7405662901
 31
0.0
  0
LINE
  5
136
100
AcDbEntity
  8
STAP_DN32
  6
CONTINUOUS
 62
         7
100
AcDbLine
 10
109.7493558088
 20
52.8839525221
 30
0.0
 11
137.0399657192
 21
60.1964494086
 31
0.0
  0
ARC
  5
137
100
AcDbEntity
  8
STAP_DN32
  6
CONTINUOUS
 62
         7
100
AcDbCircle
 10
-1294.1378146477
 20
118.0830865506
 30
0.0
 40
1432.3479681194
100
AcDbArc
 50
357.6838285296
 51
359.4521989195
  0
LINE
  5
138
100
AcDbEntity
  8
STAP_DN32
  6
CONTINUOUS
 62
         7
100
AcDbLine
 10
68.0418966824
 20
120.1625065665
 30
0.0
 11
68.1279812324
 21
120.1855728521
 31
0.0
  0
LINE
  5
139
100
AcDbEntity
  8
STAP_DN32
  6
CONTINUOUS
 62
         7
100
AcDbLine
 10
157.4569372794
 20
24.0192854919
 30
0.0
 11
157.9547751608
 21
24.1526807501
 31
0.0
  0
LINE
  5
13A
100
AcDbEntity
  8
STAP_DN32
  6
CONTINUOUS
 62
         7
100
AcDbLine
 10
128.9285273326
 20
16.3751210853
 30
0.0
 11
138.6847316746
 21
18.9892881599
 31
0.0
  0
LINE
  5
13B
100
AcDbEntity
  8
STAP_DN32
  6
CONTINUOUS
 62
         7
100
AcDbLine
 10
155.1988488689
 20
32.446586168
 30
0.0
 11
155.6966867502
 21
32.5799814263
 31
0.0
  0
LINE
  5
13C
100
AcDbEntity
  8
STAP_DN32
  6
CONTINUOUS
 62
         7
100
AcDbLine
 10
126.670438922
 20
24.8024217614
 30
0.0
 11
136.426643264
 21
27.4165888361
 31
0.0
  0
LINE
  5
13D
100
AcDbEntity
  8
STAP_DN32
  6
CONTINUOUS
 62
         7
100
AcDbLine
 10
158.5689110738
 20
130.0443868646
 30
0.0
 11
157.5465758456
 21
133.8597938784
 31
0.0
  0
LINE
  5
13E
100
AcDbEntity
  8
STAP_DN32
  6
CONTINUOUS
 62
         7
100
AcDbLine
 10
127.1940119985
 20
170.4010249446
 30
0.0
 11
129.8409625538
 21
170.4010249446
 31
0.0
  0
ARC
  5
13F
100
AcDbEntity
  8
STAP_DN32
  6
CONTINUOUS
 62
         7
100
AcDbCircle
 10
161.7812946479
 20
-224.1750613781
 30
0.0
 40
395.8667360515
100
AcDbArc
 50
94.6279151474
 51
98.9445301748
  0
ARC
  5
140
100
AcDbEntity
  8
STAP_DN32
  6
CONTINUOUS
 62
         7
100
AcDbCircle
 10
149.082266946
 20
213.7624696933
 30
0.0
 40
10.8184853821
100
AcDbArc
 50
158.7377372552
 51
201.2622627448
  0
ENDBLK
  5
141
100
AcDbEntity
  8
STAP_DN32
  6
CONTINUOUS
 62
         7
100
AcDbBlockEnd
  0
BLOCK
  5
1F4
100
AcDbEntity
  8
0
 62
         1
 48
0.0
100
AcDbBlockBegin
  2
SE2
 70
         0
 10
0.0
 20
0.0
 30
0.0
  3
SE2
  1

  0
ENDBLK
  5
1F5
100
AcDbEntity
  8
0
 62
         1
 48
0.0
100
AcDbBlockEnd
  0
BLOCK
  5
144
100
AcDbEntity
  8
0
 62
         1
 48
0.0
100
AcDbBlockBegin
  2
SE3
 70
         0
 10
0.0
 20
0.0
 30
0.0
  3
SE3
  1

  0
LINE
  5
145
100
AcDbEntity
  8
STAP_DN32
  6
CONTINUOUS
 62
         7
100
AcDbLine
 10
167.8671520383
 20
314.0337526269
 30
0.0
 11
160.1686656799
 21
314.0337526269
 31
0.0
  0
LINE
  5
146
100
AcDbEntity
  8
STAP_DN32
  6
CONTINUOUS
 62
         7
100
AcDbLine
 10
160.1686656799
 20
302.5337526269
 30
0.0
 11
167.8671520383
 21
302.5337526269
 31
0.0
  0
ELLIPSE
  5
147
100
AcDbEntity
  8
STAP_DN32
  6
CONTINUOUS
 62
         7
100
AcDbEllipse
 10
167.8671520383
 20
308.2837526269
 30
0.0
 11
0.0
 21
-5.7499999999999805
 31
0.0
210
0.0
220
0.0
230
1.0
 40
0.2588190451
 41
0.0
 42
3.1415926535897931
  0
LINE
  5
148
100
AcDbEntity
  8
STAP_DN32
  6
CONTINUOUS
 62
         7
100
AcDbLine
 10
151.3844980939
 20
299.2837526269
 30
0.0
 11
156.5383710957
 21
300.2245773161
 31
0.0
  0
ELLIPSE
  5
149
100
AcDbEntity
  8
STAP_DN32
  6
CONTINUOUS
 62
         7
100
AcDbEllipse
 10
155.5319835387
 20
306.1334238342
 30
0.0
 11
-0.0000000000000278
 21
-5.9999999999999991
 31
0.0
210
0.0
220
0.0
230
1.0
 40
0.9659258263
 41
0.1745329251995067
 42
1.501375135024799
  0
ARC
  5
14A
100
AcDbEntity
  8
STAP_DN32
  6
CONTINUOUS
 62
         7
100
AcDbCircle
 10
123.1006253071
 20
308.2837526269
 30
0.0
 40
38.2990450286
100
AcDbArc
 50
356.157577013
 51
3.842422987
  0
ELLIPSE
  5
14B
100
AcDbEntity
  8
STAP_DN32
  6
CONTINUOUS
 62
         7
100
AcDbEllipse
 10
155.5319835387
 20
310.4340814196
 30
0.0
 11
-0.0000000000002359
 21
5.9999999999999947
 31
0.0
210
0.0
220
0.0
230
1.0
 40
0.9659258263
 41
4.7818101721547537
 42
6.1086523819801064
  0
LINE
  5
14C
100
AcDbEntity
  8
STAP_DN32
  6
CONTINUOUS
 62
         7
100
AcDbLine
 10
156.5383710957
 20
316.3429279376
 30
0.0
 11
151.3844980939
 21
317.2837526269
 31
0.0
  0
LINE
  5
14D
100
AcDbEntity
  8
STAP_DN32
  6
CONTINUOUS
 62
         7
100
AcDbLine
 10
99.93631754
 20
299.2837526269
 30
0.0
 11
112.0151028617
 21
299.2837526269
 31
0.0
  0
LINE
  5
14E
100
AcDbEntity
  8
STAP_DN32
  6
CONTINUOUS
 62
         7
100
AcDbLine
 10
151.3844980939
 20
317.2837526269
 30
0.0
 11
148.7260239374
 21
317.2837526269
 31
0.0
  0
LINE
  5
14F
100
AcDbEntity
  8
STAP_DN32
  6
CONTINUOUS
 62
         7
100
AcDbLine
 10
99.93631754
 20
317.2837526269
 30
0.0
 11
94.7824445382
 21
316.3429279376
 31
0.0
  0
ELLIPSE
  5
150
100
AcDbEntity
  8
STAP_DN32
  6
CONTINUOUS
 62
         7
100
AcDbEllipse
 10
95.7888320952
 20
310.4340814196
 30
0.0
 11
-0.0000000000001561
 21
6.0000000000000071
 31
0.0
210
0.0
220
0.0
230
1.0
 40
0.9659258263
 41
0.174532925199375
 42
1.5013751350247599
  0
ARC
  5
151
100
AcDbEntity
  8
STAP_DN32
  6
CONTINUOUS
 62
         7
100
AcDbCircle
 10
128.2201903268
 20
308.2837526269
 30
0.0
 40
38.2990450286
100
AcDbArc
 50
176.157577013
 51
183.842422987
  0
ELLIPSE
  5
152
100
AcDbEntity
  8
STAP_DN32
  6
CONTINUOUS
 62
         7
100
AcDbEllipse
 10
95.7888320952
 20
306.1334238342
 30
0.0
 11
0.0000000000000555
 21
-5.9999999999999991
 31
0.0
210
0.0
220
0.0
230
1.0
 40
0.9659258263
 41
4.781810172154783
 42
6.1086523819800744
  0
LINE
  5
153
100
AcDbEntity
  8
STAP_DN32
  6
CONTINUOUS
 62
         7
100
AcDbLine
 10
94.7824445382
 20
300.2245773161
 30
0.0
 11
99.93631754
 21
299.2837526269
 31
0.0
  0
LINE
  5
154
100
AcDbEntity
  8
STAP_DN32
  6
CONTINUOUS
 62
         7
100
AcDbLine
 10
86.6965069282
 20
317.2837526269
 30
0.0
 11
99.93631754
 21
317.2837526269
 31
0.0
  0
LINE
  5
155
100
AcDbEntity
  8
STAP_DN32
  6
CONTINUOUS
 62
         7
100
AcDbLine
 10
86.6965069282
 20
299.2837526269
 30
0.0
 11
99.93631754
 21
299.2837526269
 31
0.0
  0
LINE
  5
156
100
AcDbEntity
  8
STAP_DN32
  6
CONTINUOUS
 62
         7
100
AcDbLine
 10
76.7864566102
 20
300.2308819714
 30
0.0
 11
73.7379426396
 21
300.2308819714
 31
0.0
  0
LINE
  5
157
100
AcDbEntity
  8
STAP_DN32
  6
CONTINUOUS
 62
         7
100
AcDbLine
 10
76.8518335243
 20
300.2245773161
 30
0.0
 11
76.7864566102
 21
300.2308819714
 31
0.0
  0
ELLIPSE
  5
158
100
AcDbEntity
  8
STAP_DN32
  6
CONTINUOUS
 62
         7
100
AcDbEllipse
 10
131.548541093
 20
308.2837526269
 30
0.0
 11
-0.0000000000029074
 21
17.500000000000288
 31
0.0
210
0.0
220
0.0
230
1.0
 40
0.9659258263
 41
0.4115168460673268
 42
1.1592794807272375
  0
LINE
  5
159
100
AcDbEntity
  8
STAP_DN32
  6
CONTINUOUS
 62
         7
100
AcDbLine
 10
116.0560423416
 20
315.2837526269
 30
0.0
 11
107.8982333172
 21
313.3339356101
 31
0.0
  0
LINE
  5
15A
100
AcDbEntity
  8
STAP_DN32
  6
CONTINUOUS
 62
         7
100
AcDbLine
 10
126.670438922
 20
332.7683529266
 30
0.0
 11
128.9285273326
 21
332.7683529266
 31
0.0
  0
LINE
  5
15B
100
AcDbEntity
  8
STAP_DN32
  6
CONTINUOUS
 62
         7
100
AcDbLine
 10
127.4676086119
 20
324.3227675592
 30
0.0
 11
124.787060309
 21
324.3227675592
 31
0.0
  0
LINE
  5
15C
100
AcDbEntity
  8
STAP_DN32
  6
CONTINUOUS
 62
         7
100
AcDbLine
 10
118.7365906445
 20
315.2837526269
 30
0.0
 11
116.0560423416
 21
315.2837526269
 31
0.0
  0
ELLIPSE
  5
15D
100
AcDbEntity
  8
STAP_DN32
  6
CONTINUOUS
 62
         7
100
AcDbEllipse
 10
98.9315212682
 20
310.6296735415
 30
0.0
 11
23.119702007318917
 21
96.730160859115372
 31
0.0
210
0.0
220
0.0
230
1.0
 40
0.2521855297
 41
4.9143693579658843
 42
5.0030829000957739
  0
ELLIPSE
  5
15E
100
AcDbEntity
  8
STAP_DN32
  6
CONTINUOUS
 62
         7
100
AcDbEllipse
 10
134.2290893959
 20
308.2837526269
 30
0.0
 11
-0.0000000000034625
 21
17.500000000000377
 31
0.0
210
0.0
220
0.0
230
1.0
 40
0.9659258263
 41
0.4115168460672918
 42
1.159279480727202
  0
ELLIPSE
  5
15F
100
AcDbEntity
  8
STAP_DN32
  6
CONTINUOUS
 62
         7
100
AcDbEllipse
 10
106.480597621
 20
318.4450524736
 30
0.0
 11
97.070380331071306
 21
21.646845105642335
 31
0.0
210
0.0
220
0.0
230
1.0
 40
0.0582216171
 41
4.7372786488785401
 42
4.8259921910091261
  0
LINE
  5
160
100
AcDbEntity
  8
STAP_DN32
  6
CONTINUOUS
 62
         7
100
AcDbLine
 10
110.1563217277
 20
313.3339356101
 30
0.0
 11
107.8982333172
 21
313.3339356101
 31
0.0
  0
ELLIPSE
  5
161
100
AcDbEntity
  8
STAP_DN32
  6
CONTINUOUS
 62
         7
100
AcDbEllipse
 10
111.0125688163
 20
318.4450524737
 30
0.0
 11
97.070380332287797
 21
-21.646845105839457
 31
0.0
210
0.0
220
0.0
230
1.0
 40
0.0582216171
 41
1.0849240506149516
 42
1.1736375927442926
  0
ELLIPSE
  5
162
100
AcDbEntity
  8
STAP_DN32
  6
CONTINUOUS
 62
         7
100
AcDbEllipse
 10
134.2290893959
 20
308.2837526269
 30
0.0
 11
0.0000000000050654
 21
17.500000000000448
 31
0.0
210
0.0
220
0.0
230
1.0
 40
0.9659258263
 41
5.1239058264524671
 42
5.8716684611123817
  0
ELLIPSE
  5
163
100
AcDbEntity
  8
STAP_DN32
  6
CONTINUOUS
 62
         7
100
AcDbEllipse
 10
118.5616451695
 20
310.6296735415
 30
0.0
 11
-23.119702007121067
 21
96.730160859256841
 31
0.0
210
0.0
220
0.0
230
1.0
 40
0.2521855297
 41
4.7939641262293113
 42
4.8826776683590634
  0
ELLIPSE
  5
164
100
AcDbEntity
  8
STAP_DN32
  6
CONTINUOUS
 62
         7
100
AcDbEllipse
 10
134.2290893959
 20
308.2837526269
 30
0.0
 11
0.0000000000021372
 21
-17.500000000000174
 31
0.0
210
0.0
220
0.0
230
1.0
 40
0.9659258263
 41
0.4115168460673546
 42
1.1592794807272879
  0
ELLIPSE
  5
165
100
AcDbEntity
  8
STAP_DN32
  6
CONTINUOUS
 62
         7
100
AcDbEllipse
 10
111.0125688164
 20
298.1224527801
 30
0.0
 11
97.070380332184186
 21
21.646845105820912
 31
0.0
210
0.0
220
0.0
230
1.0
 40
0.0582216171
 41
5.109547714435541
 42
5.1982612565651056
  0
LINE
  5
166
100
AcDbEntity
  8
STAP_DN32
  6
CONTINUOUS
 62
         7
100
AcDbLine
 10
124.787060309
 20
292.2447376945
 30
0.0
 11
126.670438922
 21
283.7991523272
 31
0.0
  0
LINE
  5
167
100
AcDbEntity
  8
STAP_DN32
  6
CONTINUOUS
 62
         7
100
AcDbLine
 10
128.9285273326
 20
283.7991523272
 30
0.0
 11
126.670438922
 21
283.7991523272
 31
0.0
  0
ELLIPSE
  5
168
100
AcDbEntity
  8
STAP_DN32
  6
CONTINUOUS
 62
         7
100
AcDbEllipse
 10
131.548541093
 20
308.2837526269
 30
0.0
 11
0.000000000001707
 21
-17.49999999999984
 31
0.0
210
0.0
220
0.0
230
1.0
 40
0.9659258263
 41
5.12390582645207
 42
5.871668461111998
  0
LINE
  5
169
100
AcDbEntity
  8
STAP_DN32
  6
CONTINUOUS
 62
         7
100
AcDbLine
 10
127.4676086119
 20
292.2447376945
 30
0.0
 11
124.787060309
 21
292.2447376945
 31
0.0
  0
LINE
  5
16A
100
AcDbEntity
  8
STAP_DN32
  6
CONTINUOUS
 62
         7
100
AcDbLine
 10
118.7365906445
 20
301.2837526269
 30
0.0
 11
116.0560423416
 21
301.2837526269
 31
0.0
  0
ELLIPSE
  5
16B
100
AcDbEntity
  8
STAP_DN32
  6
CONTINUOUS
 62
         7
100
AcDbEllipse
 10
134.2290893959
 20
308.2837526269
 30
0.0
 11
-0.0000000000010131
 21
-17.500000000000117
 31
0.0
210
0.0
220
0.0
230
1.0
 40
0.9659258263
 41
5.1239058264522344
 42
5.8716684611121535
  0
ELLIPSE
  5
16C
100
AcDbEntity
  8
STAP_DN32
  6
CONTINUOUS
 62
         7
100
AcDbEllipse
 10
98.9315212682
 20
305.9378317122
 30
0.0
 11
23.11970200732571
 21
-96.730160859140526
 31
0.0
210
0.0
220
0.0
230
1.0
 40
0.2521855297
 41
1.2801024070839793
 42
1.3688159492138294
  0
ELLIPSE
  5
16D
100
AcDbEntity
  8
STAP_DN32
  6
CONTINUOUS
 62
         7
100
AcDbEllipse
 10
118.5616451696
 20
305.9378317122
 30
0.0
 11
-23.119702007063882
 21
-96.730160859007682
 31
0.0
210
0.0
220
0.0
230
1.0
 40
0.2521855297
 41
1.4005076388205231
 42
1.4892211809505056
  0
ELLIPSE
  5
16E
100
AcDbEntity
  8
STAP_DN32
  6
CONTINUOUS
 62
         7
100
AcDbEllipse
 10
101.8102328107
 20
308.2837526269
 30
0.0
 11
-0.0000000000014294
 21
-49.900000000000027
 31
0.0
210
0.0
220
0.0
230
1.0
 40
0.9659258263
 41
3.141592653589822
 42
3.2104491452364279
  0
ELLIPSE
  5
16F
100
AcDbEntity
  8
STAP_DN32
  6
CONTINUOUS
 62
         7
100
AcDbEllipse
 10
101.8102328107
 20
308.2837526269
 30
0.0
 11
-0.0000000000014294
 21
-49.900000000000027
 31
0.0
210
0.0
220
0.0
230
1.0
 40
0.9659258263
 41
6.214328815532971
 42
6.2831853071795862
  0
ELLIPSE
  5
170
100
AcDbEntity
  8
STAP_DN32
  6
CONTINUOUS
 62
         7
100
AcDbEllipse
 10
102.4702213757
 20
308.2837526269
 30
0.0
 11
-0.0000000000003487
 21
-49.900000000000134
 31
0.0
210
0.0
220
0.0
230
1.0
 40
0.9659258263
 41
0.0000000000000002
 42
1.3894431521575457
  0
ELLIPSE
  5
171
100
AcDbEntity
  8
STAP_DN32
  6
CONTINUOUS
 62
         7
100
AcDbEllipse
 10
102.4702213757
 20
308.2837526269
 30
0.0
 11
-0.0000000000003487
 21
-49.900000000000134
 31
0.0
210
0.0
220
0.0
230
1.0
 40
0.9659258263
 41
1.752149501432261
 42
3.2733044017317359
  0
ELLIPSE
  5
172
100
AcDbEntity
  8
STAP_DN32
  6
CONTINUOUS
 62
         7
100
AcDbEllipse
 10
102.4702213757
 20
308.2837526269
 30
0.0
 11
-0.0000000000003487
 21
-49.900000000000134
 31
0.0
210
0.0
220
0.0
230
1.0
 40
0.9659258263
 41
6.1514735590376564
 42
6.2831853071795862
  0
ELLIPSE
  5
173
100
AcDbEntity
  8
STAP_DN32
  6
CONTINUOUS
 62
         7
100
AcDbEllipse
 10
102.4702213757
 20
308.2837526269
 30
0.0
 11
-0.000000000001367
 21
48.249999999999787
 31
0.0
210
0.0
220
0.0
230
1.0
 40
0.9659258263
 41
0.0
 42
3.1415926535897931
  0
ELLIPSE
  5
174
100
AcDbEntity
  8
STAP_DN32
  6
CONTINUOUS
 62
         7
100
AcDbEllipse
 10
102.586689946
 20
308.2837526269
 30
0.0
 11
-0.000000000001367
 21
48.249999999999787
 31
0.0
210
0.0
220
0.0
230
1.0
 40
0.9659258263
 41
0.0
 42
4.5072729978551882
  0
ELLIPSE
  5
175
100
AcDbEntity
  8
STAP_DN32
  6
CONTINUOUS
 62
         7
100
AcDbEllipse
 10
102.586689946
 20
308.2837526269
 30
0.0
 11
-0.000000000001367
 21
48.249999999999787
 31
0.0
210
0.0
220
0.0
230
1.0
 40
0.9659258263
 41
4.9175049629141343
 42
6.2831853071795862
  0
ELLIPSE
  5
176
100
AcDbEntity
  8
STAP_DN32
  6
CONTINUOUS
 62
         7
100
AcDbEllipse
 10
102.586689946
 20
308.2837526269
 30
0.0
 11
-0.0000000000010044
 21
42.500000000001172
 31
0.0
210
0.0
220
0.0
230
1.0
 40
0.9659258263
 41
0.0
 42
4.0861142360211451
  0
ELLIPSE
  5
177
100
AcDbEntity
  8
STAP_DN32
  6
CONTINUOUS
 62
         7
100
AcDbEllipse
 10
102.586689946
 20
308.2837526269
 30
0.0
 11
-0.0000000000010044
 21
42.500000000001172
 31
0.0
210
0.0
220
0.0
230
1.0
 40
0.9659258263
 41
5.3386637247481854
 42
6.2831853071795862
  0
ELLIPSE
  5
178
100
AcDbEntity
  8
STAP_DN32
  6
CONTINUOUS
 62
         7
100
AcDbEllipse
 10
104.6498521163
 20
308.2837526269
 30
0.0
 11
-0.0000000000003088
 21
32.999999999999673
 31
0.0
210
0.0
220
0.0
230
1.0
 40
0.9659258263
 41
1.8173119244493869
 42
3.1415926535897931
  0
ELLIPSE
  5
179
100
AcDbEntity
  8
STAP_DN32
  6
CONTINUOUS
 62
         7
100
AcDbEllipse
 10
106.480597621
 20
298.1224527801
 30
0.0
 11
97.070380331598798
 21
-21.646845105755357
 31
0.0
210
0.0
220
0.0
230
1.0
 40
0.0582216171
 41
1.4571931161707445
 42
1.5459066583006351
  0
LINE
  5
17A
100
AcDbEntity
  8
STAP_DN32
  6
CONTINUOUS
 62
         7
100
AcDbLine
 10
107.8982333172
 20
303.2335696436
 30
0.0
 11
110.1563217277
 21
303.2335696436
 31
0.0
  0
ELLIPSE
  5
17B
100
AcDbEntity
  8
STAP_DN32
  6
CONTINUOUS
 62
         7
100
AcDbEllipse
 10
107.6983660868
 20
308.2837526269
 30
0.0
 11
-0.0000000000006245
 21
32.999999999999694
 31
0.0
210
0.0
220
0.0
230
1.0
 40
0.9659258263
 41
1.8173119244493827
 42
3.8608675177498117
  0
ELLIPSE
  5
17C
100
AcDbEntity
  8
STAP_DN32
  6
CONTINUOUS
 62
         7
100
AcDbEllipse
 10
123.394660764
 20
308.2837526269
 30
0.0
 11
0.0000000000006037
 21
16.749999999989019
 31
0.0
210
0.0
220
0.0
230
1.0
 40
0.9659258263
 41
2.1380447253242831
 42
3.1415926535897927
  0
ELLIPSE
  5
17D
100
AcDbEntity
  8
STAP_DN32
  6
CONTINUOUS
 62
         7
100
AcDbEllipse
 10
125.6604078169
 20
308.2837526269
 30
0.0
 11
-0.0000000000004094
 21
16.749999999989022
 31
0.0
210
0.0
220
0.0
230
1.0
 40
0.9659258263
 41
2.1380447253242245
 42
3.0971704699088392
  0
ELLIPSE
  5
17E
100
AcDbEntity
  8
STAP_DN32
  6
CONTINUOUS
 62
         7
100
AcDbEllipse
 10
131.548541093
 20
308.2837526269
 30
0.0
 11
-0.0000000000103945
 21
-25.000000000002661
 31
0.0
210
0.0
220
0.0
230
1.0
 40
0.9659258263
 41
4.5089819178921404
 42
4.9157960428780472
  0
LINE
  5
17F
100
AcDbEntity
  8
STAP_DN32
  6
CONTINUOUS
 62
         7
100
AcDbLine
 10
86.6965069282
 20
299.2837526269
 30
0.0
 11
76.8518335243
 21
300.2245773161
 31
0.0
  0
LINE
  5
180
100
AcDbEntity
  8
STAP_DN32
  6
CONTINUOUS
 62
         7
100
AcDbLine
 10
124.787060309
 20
324.3227675592
 30
0.0
 11
126.670438922
 21
332.7683529266
 31
0.0
  0
LINE
  5
181
100
AcDbEntity
  8
STAP_DN32
  6
CONTINUOUS
 62
         7
100
AcDbLine
 10
116.0560423416
 20
301.2837526269
 30
0.0
 11
107.8982333172
 21
303.2335696436
 31
0.0
  0
ELLIPSE
  5
182
100
AcDbEntity
  8
STAP_DN32
  6
CONTINUOUS
 62
         7
100
AcDbEllipse
 10
133.8066295036
 20
308.2837526269
 30
0.0
 11
-0.0000000000375117
 21
-25.000000000003158
 31
0.0
210
0.0
220
0.0
230
1.0
 40
0.9659258263
 41
4.5089819178931965
 42
4.9157960428790926
  0
ARC
  5
183
100
AcDbEntity
  8
STAP_DN32
  6
CONTINUOUS
 62
         7
100
AcDbCircle
 10
74.3622297405
 20
306.4805887556
 30
0.0
 40
6.2808096033
100
AcDbArc
 50
186.9808783281
 51
264.2956117524
  0
ARC
  5
184
100
AcDbEntity
  8
STAP_DN32
  6
CONTINUOUS
 62
         7
100
AcDbCircle
 10
74.3752536627
 20
310.0735991357
 30
0.0
 40
6.2953662961
100
AcDbArc
 50
95.8102881845
 51
172.913221735
  0
LINE
  5
185
100
AcDbEntity
  8
STAP_DN32
  6
CONTINUOUS
 62
         7
100
AcDbLine
 10
13.5013533645
 20
315.1837526269
 30
0.0
 11
9.6122660679
 21
315.1837526269
 31
0.0
  0
LINE
  5
186
100
AcDbEntity
  8
STAP_DN32
  6
CONTINUOUS
 62
         7
100
AcDbLine
 10
23.0351052846
 20
298.8216485586
 30
0.0
 11
27.0583621218
 21
297.5839736549
 31
0.0
  0
LINE
  5
187
100
AcDbEntity
  8
STAP_DN32
  6
CONTINUOUS
 62
         7
100
AcDbLine
 10
19.158207614
 20
314.2837526269
 30
0.0
 11
18.3855838593
 21
314.2837526269
 31
0.0
  0
LINE
  5
188
100
AcDbEntity
  8
STAP_DN32
  6
CONTINUOUS
 62
         7
100
AcDbLine
 10
23.7544016917
 20
317.7458566952
 30
0.0
 11
19.158207614
 21
317.7458566952
 31
0.0
  0
LINE
  5
189
100
AcDbEntity
  8
STAP_DN32
  6
CONTINUOUS
 62
         7
100
AcDbLine
 10
15.9762270987
 20
315.1837526269
 30
0.0
 11
15.2691203175
 21
315.1837526269
 31
0.0
  0
LINE
  5
18A
100
AcDbEntity
  8
STAP_DN32
  6
CONTINUOUS
 62
         7
100
AcDbLine
 10
40.7249644402
 20
319.2837526269
 30
0.0
 11
39.6643042684
 21
319.2837526269
 31
0.0
  0
LINE
  5
18B
100
AcDbEntity
  8
STAP_DN32
  6
CONTINUOUS
 62
         7
100
AcDbLine
 10
39.6643042684
 20
319.2337526269
 30
0.0
 11
28.70414916
 21
319.2337526269
 31
0.0
  0
LINE
  5
18C
100
AcDbEntity
  8
STAP_DN32
  6
CONTINUOUS
 62
         7
100
AcDbLine
 10
9.6122660679
 20
301.3837526269
 30
0.0
 11
13.5013533645
 21
301.3837526269
 31
0.0
  0
LINE
  5
18D
100
AcDbEntity
  8
STAP_DN32
  6
CONTINUOUS
 62
         7
100
AcDbLine
 10
27.0583621218
 20
318.9835315989
 30
0.0
 11
23.0351052846
 21
317.7458566952
 31
0.0
  0
LINE
  5
18E
100
AcDbEntity
  8
STAP_DN32
  6
CONTINUOUS
 62
         7
100
AcDbLine
 10
18.3855838593
 20
302.2837526269
 30
0.0
 11
19.158207614
 21
302.2837526269
 31
0.0
  0
LINE
  5
18F
100
AcDbEntity
  8
STAP_DN32
  6
CONTINUOUS
 62
         7
100
AcDbLine
 10
19.158207614
 20
298.8216485586
 30
0.0
 11
23.7544016917
 21
298.8216485586
 31
0.0
  0
LINE
  5
190
100
AcDbEntity
  8
STAP_DN32
  6
CONTINUOUS
 62
         7
100
AcDbLine
 10
15.2691203175
 20
301.3837526269
 30
0.0
 11
15.9762270987
 21
301.3837526269
 31
0.0
  0
LINE
  5
191
100
AcDbEntity
  8
STAP_DN32
  6
CONTINUOUS
 62
         7
100
AcDbLine
 10
39.6643042684
 20
297.2837526269
 30
0.0
 11
40.7249644402
 21
297.2837526269
 31
0.0
  0
LINE
  5
192
100
AcDbEntity
  8
STAP_DN32
  6
CONTINUOUS
 62
         7
100
AcDbLine
 10
28.70414916
 20
297.3337526269
 30
0.0
 11
39.6643042684
 21
297.3337526269
 31
0.0
  0
LINE
  5
193
100
AcDbEntity
  8
STAP_DN32
  6
CONTINUOUS
 62
         7
100
AcDbLine
 10
151.3940119985
 20
332.2837526269
 30
0.0
 11
150.3788236889
 21
335.0729595841
 31
0.0
  0
LINE
  5
194
100
AcDbEntity
  8
STAP_DN32
  6
CONTINUOUS
 62
         7
100
AcDbLine
 10
31.8940119985
 20
332.0337526269
 30
0.0
 11
30.7878311303
 21
335.0729595841
 31
0.0
  0
ARC
  5
195
100
AcDbEntity
  8
STAP_DN32
  6
CONTINUOUS
 62
         7
100
AcDbCircle
 10
-27.8035011723
 20
308.2837526269
 30
0.0
 40
75.6199121588
100
AcDbArc
 50
356.203065044
 51
3.796934956
  0
LINE
  5
196
100
AcDbEntity
  8
STAP_DN32
  6
CONTINUOUS
 62
         7
100
AcDbLine
 10
46.9241390174
 20
287.0337526269
 30
0.0
 11
49.6672115215
 21
287.0337526269
 31
0.0
  0
LINE
  5
197
100
AcDbEntity
  8
STAP_DN32
  6
CONTINUOUS
 62
         7
100
AcDbLine
 10
150.3788236889
 20
281.4945456696
 30
0.0
 11
151.3940119985
 21
284.2837526269
 31
0.0
  0
LINE
  5
198
100
AcDbEntity
  8
STAP_DN32
  6
CONTINUOUS
 62
         7
100
AcDbLine
 10
30.7878311303
 20
281.4945456696
 30
0.0
 11
31.8940119985
 21
284.5337526269
 31
0.0
  0
ELLIPSE
  5
199
100
AcDbEntity
  8
STAP_DN32
  6
CONTINUOUS
 62
         7
100
AcDbEllipse
 10
96.038568105
 20
308.2837526269
 30
0.0
 11
0.0000000000006193
 21
-52.500000000000007
 31
0.0
210
0.0
220
0.0
230
1.0
 40
0.9659258263
 41
3.5062429223893141
 42
4.5563840861096452
  0
ELLIPSE
  5
19A
100
AcDbEntity
  8
STAP_DN32
  6
CONTINUOUS
 62
         7
100
AcDbEllipse
 10
101.9914061423
 20
308.2837526269
 30
0.0
 11
0.0000000000014381
 21
-54.999999999999865
 31
0.0
210
0.0
220
0.0
230
1.0
 40
0.9659258263
 41
3.1415926535897669
 42
6.2831853071795862
  0
ELLIPSE
  5
19B
100
AcDbEntity
  8
STAP_DN32
  6
CONTINUOUS
 62
         7
100
AcDbEllipse
 10
103.4925566039
 20
308.2837526269
 30
0.0
 11
0.0000000000014364
 21
-54.999999999999865
 31
0.0
210
0.0
220
0.0
230
1.0
 40
0.9659258263
 41
0.0
 42
1.4220362585784962
  0
ELLIPSE
  5
19C
100
AcDbEntity
  8
STAP_DN32
  6
CONTINUOUS
 62
         7
100
AcDbEllipse
 10
103.4925566039
 20
308.2837526269
 30
0.0
 11
0.0000000000014364
 21
-54.999999999999865
 31
0.0
210
0.0
220
0.0
230
1.0
 40
0.9659258263
 41
1.7195563950112456
 42
6.2831853071795862
  0
LINE
  5
19D
100
AcDbEntity
  8
STAP_DN32
  6
CONTINUOUS
 62
         7
100
AcDbLine
 10
18.3940119985
 20
332.2837526269
 30
0.0
 11
18.3940119985
 21
317.6839347274
 31
0.0
  0
LINE
  5
19E
100
AcDbEntity
  8
STAP_DN32
  6
CONTINUOUS
 62
         7
100
AcDbLine
 10
18.3940119985
 20
298.8835705264
 30
0.0
 11
18.3940119985
 21
284.2837526269
 31
0.0
  0
LINE
  5
19F
100
AcDbEntity
  8
STAP_DN32
  6
CONTINUOUS
 62
         7
100
AcDbLine
 10
42.5940119985
 20
332.0337526269
 30
0.0
 11
42.5940119985
 21
318.9614547416
 31
0.0
  0
LINE
  5
1A0
100
AcDbEntity
  8
STAP_DN32
  6
CONTINUOUS
 62
         7
100
AcDbLine
 10
42.5940119985
 20
297.6060505122
 30
0.0
 11
42.5940119985
 21
284.5337526269
 31
0.0
  0
LINE
  5
1A1
100
AcDbEntity
  8
STAP_DN32
  6
CONTINUOUS
 62
         7
100
AcDbLine
 10
46.9241390174
 20
329.5337526269
 30
0.0
 11
46.9241390174
 21
321.7837526269
 31
0.0
  0
LINE
  5
1A2
100
AcDbEntity
  8
STAP_DN32
  6
CONTINUOUS
 62
         7
100
AcDbLine
 10
46.9241390174
 20
295.213452761
 30
0.0
 11
46.9241390174
 21
287.0337526269
 31
0.0
  0
LINE
  5
1A3
100
AcDbEntity
  8
STAP_DN32
  6
CONTINUOUS
 62
         7
100
AcDbLine
 10
31.8940119985
 20
332.0337526269
 30
0.0
 11
31.8940119985
 21
319.2337526269
 31
0.0
  0
LINE
  5
1A4
100
AcDbEntity
  8
STAP_DN32
  6
CONTINUOUS
 62
         7
100
AcDbLine
 10
31.8940119985
 20
297.3337526269
 30
0.0
 11
31.8940119985
 21
284.5337526269
 31
0.0
  0
ARC
  5
1A5
100
AcDbEntity
  8
STAP_DN32
  6
CONTINUOUS
 62
         7
100
AcDbCircle
 10
140.2967496096
 20
331.1497710565
 30
0.0
 40
10.8184853821
100
AcDbArc
 50
9.938764004
 51
21.2622627448
  0
LINE
  5
1A6
100
AcDbEntity
  8
STAP_DN32
  6
CONTINUOUS
 62
         7
100
AcDbLine
 10
151.3940119985
 20
332.2837526269
 30
0.0
 11
151.3940119985
 21
332.0683975498
 31
0.0
  0
LINE
  5
1A7
100
AcDbEntity
  8
STAP_DN32
  6
CONTINUOUS
 62
         7
100
AcDbLine
 10
151.3940119985
 20
284.499107704
 30
0.0
 11
151.3940119985
 21
284.2837526269
 31
0.0
  0
ARC
  5
1A8
100
AcDbEntity
  8
STAP_DN32
  6
CONTINUOUS
 62
         7
100
AcDbCircle
 10
-29.5727524967
 20
317.7551675779
 30
0.0
 40
61.0991633082
100
AcDbArc
 50
1.3870526777
 51
8.9177878485
  0
ARC
  5
1A9
100
AcDbEntity
  8
STAP_DN32
  6
CONTINUOUS
 62
         7
100
AcDbCircle
 10
20.705757051
 20
285.4177341972
 30
0.0
 40
10.8184853821
100
AcDbArc
 50
338.7377372552
 51
21.2622627448
  0
ARC
  5
1AA
100
AcDbEntity
  8
STAP_DN32
  6
CONTINUOUS
 62
         7
100
AcDbCircle
 10
-29.5727524967
 20
298.8123376758
 30
0.0
 40
61.0991633082
100
AcDbArc
 50
351.0822121515
 51
358.6129207123
  0
LINE
  5
1AB
100
AcDbEntity
  8
STAP_DN32
  6
CONTINUOUS
 62
         7
100
AcDbLine
 10
19.4092003082
 20
281.4945456696
 30
0.0
 11
30.7878311303
 21
281.4945456696
 31
0.0
  0
LINE
  5
1AC
100
AcDbEntity
  8
STAP_DN32
  6
CONTINUOUS
 62
         7
100
AcDbLine
 10
149.8905740831
 20
281.4945456696
 30
0.0
 11
150.3788236889
 21
281.4945456696
 31
0.0
  0
ARC
  5
1AD
100
AcDbEntity
  8
STAP_DN32
  6
CONTINUOUS
 62
         7
100
AcDbCircle
 10
79.7697839352
 20
317.7551675779
 30
0.0
 40
61.0991633082
100
AcDbArc
 50
171.0822121515
 51
180.0586970924
  0
ARC
  5
1AE
100
AcDbEntity
  8
STAP_DN32
  6
CONTINUOUS
 62
         7
100
AcDbCircle
 10
29.4912743875
 20
331.1497710565
 30
0.0
 40
10.8184853821
100
AcDbArc
 50
158.7377372552
 51
201.2622627448
  0
ARC
  5
1AF
100
AcDbEntity
  8
STAP_DN32
  6
CONTINUOUS
 62
         7
100
AcDbCircle
 10
79.7697839352
 20
298.8123376758
 30
0.0
 40
61.0991633082
100
AcDbArc
 50
179.9377142853
 51
188.9177878485
  0
LINE
  5
1B0
100
AcDbEntity
  8
STAP_DN32
  6
CONTINUOUS
 62
         7
100
AcDbLine
 10
19.4092003082
 20
335.0729595841
 30
0.0
 11
30.7878311303
 21
335.0729595841
 31
0.0
  0
LINE
  5
1B1
100
AcDbEntity
  8
STAP_DN32
  6
CONTINUOUS
 62
         7
100
AcDbLine
 10
149.8905740831
 20
335.0729595841
 30
0.0
 11
150.3788236889
 21
335.0729595841
 31
0.0
  0
LINE
  5
1B2
100
AcDbEntity
  8
STAP_DN32
  6
CONTINUOUS
 62
         7
100
AcDbLine
 10
19.4092003082
 20
327.226582529
 30
0.0
 11
30.7878311303
 21
327.226582529
 31
0.0
  0
LINE
  5
1B3
100
AcDbEntity
  8
STAP_DN32
  6
CONTINUOUS
 62
         7
100
AcDbLine
 10
19.4092003082
 20
289.3409227248
 30
0.0
 11
30.7878311303
 21
289.3409227248
 31
0.0
  0
ARC
  5
1B4
100
AcDbEntity
  8
STAP_DN32
  6
CONTINUOUS
 62
         7
100
AcDbCircle
 10
140.2967496096
 20
285.4177341972
 30
0.0
 40
10.8184853821
100
AcDbArc
 50
338.7377372552
 51
350.5905545512
  0
ARC
  5
1B5
100
AcDbEntity
  8
STAP_DN32
  6
CONTINUOUS
 62
         7
100
AcDbCircle
 10
20.705757051
 20
331.1497710565
 30
0.0
 40
10.8184853821
100
AcDbArc
 50
338.7377372552
 51
21.2622627448
  0
ELLIPSE
  5
1B6
100
AcDbEntity
  8
STAP_DN32
  6
CONTINUOUS
 62
         7
100
AcDbEllipse
 10
39.6643042684
 20
308.2837526269
 30
0.0
 11
0.0
 21
11.000000000006359
 31
0.0
210
0.0
220
0.0
230
1.0
 40
0.7071067812
 41
0.0
 42
0.09538241192666
  0
ELLIPSE
  5
1B7
100
AcDbEntity
  8
STAP_DN32
  6
CONTINUOUS
 62
         7
100
AcDbEllipse
 10
39.6643042684
 20
308.2837526269
 30
0.0
 11
0.0
 21
11.000000000006359
 31
0.0
210
0.0
220
0.0
230
1.0
 40
0.7071067812
 41
3.0462102416631867
 42
6.2831853071795862
  0
ELLIPSE
  5
1B8
100
AcDbEntity
  8
STAP_DN32
  6
CONTINUOUS
 62
         7
100
AcDbEllipse
 10
40.7249644402
 20
308.2837526269
 30
0.0
 11
-0.0
 21
11.000000000006363
 31
0.0
210
0.0
220
0.0
230
1.0
 40
0.7071067812
 41
-1.0981596731098835
 42
0.000000000000002
  0
ELLIPSE
  5
1B9
100
AcDbEntity
  8
STAP_DN32
  6
CONTINUOUS
 62
         7
100
AcDbEllipse
 10
40.7249644402
 20
308.2837526269
 30
0.0
 11
-0.0
 21
11.000000000006363
 31
0.0
210
0.0
220
0.0
230
1.0
 40
0.7071067812
 41
3.1415926535897913
 42
4.2397523266996648
  0
ELLIPSE
  5
1BA
100
AcDbEntity
  8
STAP_DN32
  6
CONTINUOUS
 62
         7
100
AcDbEllipse
 10
39.6643042684
 20
308.2837526269
 30
0.0
 11
0.0000000000000069
 21
-10.949999999997917
 31
0.0
210
0.0
220
0.0
230
1.0
 40
0.7071067812
 41
0.0
 42
3.1415926535897931
  0
ELLIPSE
  5
1BB
100
AcDbEntity
  8
STAP_DN32
  6
CONTINUOUS
 62
         7
100
AcDbEllipse
 10
28.70414916
 20
308.2837526269
 30
0.0
 11
0.0
 21
10.949999999997898
 31
0.0
210
0.0
220
0.0
230
1.0
 40
0.7071067812
 41
0.0
 42
0.2141905671097579
  0
ELLIPSE
  5
1BC
100
AcDbEntity
  8
STAP_DN32
  6
CONTINUOUS
 62
         7
100
AcDbEllipse
 10
28.70414916
 20
308.2837526269
 30
0.0
 11
0.0
 21
10.949999999997898
 31
0.0
210
0.0
220
0.0
230
1.0
 40
0.7071067812
 41
2.9274020864800354
 42
6.2831853071795862
  0
ELLIPSE
  5
1BD
100
AcDbEntity
  8
STAP_DN32
  6
CONTINUOUS
 62
         7
100
AcDbEllipse
 10
18.0975474422
 20
308.2837526269
 30
0.0
 11
0.0
 21
6.0000000000071338
 31
0.0
210
0.0
220
0.0
230
1.0
 40
0.7071067812
 41
3.2141563172955383
 42
6.210621643473841
  0
ELLIPSE
  5
1BE
100
AcDbEntity
  8
STAP_DN32
  6
CONTINUOUS
 62
         7
100
AcDbEllipse
 10
18.0975474422
 20
308.2837526269
 30
0.0
 11
0.0
 21
-3.9999999999932774
 31
0.0
210
0.0
220
0.0
230
1.0
 40
0.7071067812
 41
1.2287889530720872
 42
1.9128037005177059
  0
LINE
  5
1BF
100
AcDbEntity
  8
STAP_DN32
  6
CONTINUOUS
 62
         7
100
AcDbLine
 10
101.9914061423
 20
253.2837526269
 30
0.0
 11
103.4925566039
 21
253.2837526269
 31
0.0
  0
ELLIPSE
  5
1C0
100
AcDbEntity
  8
STAP_DN32
  6
CONTINUOUS
 62
         7
100
AcDbEllipse
 10
23.7544016917
 20
308.2837526269
 30
0.0
 11
0.0
 21
9.4621040683066813
 31
0.0
210
0.0
220
0.0
230
1.0
 40
0.7071067812
 41
3.1415926535897931
 42
6.2831853071795862
  0
ELLIPSE
  5
1C1
100
AcDbEntity
  8
STAP_DN32
  6
CONTINUOUS
 62
         7
100
AcDbEllipse
 10
19.158207614
 20
308.2837526269
 30
0.0
 11
0.0
 21
6.0000000000037348
 31
0.0
210
0.0
220
0.0
230
1.0
 40
0.7071067812
 41
3.1415926535897931
 42
6.2831853071795862
  0
ELLIPSE
  5
1C2
100
AcDbEntity
  8
STAP_DN32
  6
CONTINUOUS
 62
         7
100
AcDbEllipse
 10
19.158207614
 20
308.2837526269
 30
0.0
 11
0.0
 21
9.4621040683213185
 31
0.0
210
0.0
220
0.0
230
1.0
 40
0.7071067812
 41
0.0
 42
0.7661991487644011
  0
ELLIPSE
  5
1C3
100
AcDbEntity
  8
STAP_DN32
  6
CONTINUOUS
 62
         7
100
AcDbEllipse
 10
19.158207614
 20
308.2837526269
 30
0.0
 11
0.0
 21
9.4621040683213185
 31
0.0
210
0.0
220
0.0
230
1.0
 40
0.7071067812
 41
2.375393504825392
 42
6.2831853071795862
  0
ELLIPSE
  5
1C4
100
AcDbEntity
  8
STAP_DN32
  6
CONTINUOUS
 62
         7
100
AcDbEllipse
 10
15.9762270987
 20
308.2837526269
 30
0.0
 11
0.0000000000000139
 21
-6.899999999979757
 31
0.0
210
0.0
220
0.0
230
1.0
 40
0.7071067812
 41
0.0000000000000001
 42
3.1415926535897931
  0
LINE
  5
1C5
100
AcDbEntity
  8
STAP_DN32
  6
CONTINUOUS
 62
         7
100
AcDbLine
 10
31.8940119985
 20
284.5337526269
 30
0.0
 11
42.5940119985
 21
284.5337526269
 31
0.0
  0
LINE
  5
1C6
100
AcDbEntity
  8
STAP_DN32
  6
CONTINUOUS
 62
         7
100
AcDbLine
 10
46.9241390174
 20
329.5337526269
 30
0.0
 11
42.5940119985
 21
332.0337526269
 31
0.0
  0
LINE
  5
1C7
100
AcDbEntity
  8
STAP_DN32
  6
CONTINUOUS
 62
         7
100
AcDbLine
 10
18.3940119985
 20
284.2837526269
 30
0.0
 11
19.4092003082
 21
281.4945456696
 31
0.0
  0
ELLIPSE
  5
1C8
100
AcDbEntity
  8
STAP_DN32
  6
CONTINUOUS
 62
         7
100
AcDbEllipse
 10
15.2691203175
 20
308.2837526269
 30
0.0
 11
0.0
 21
-6.8999999999820156
 31
0.0
210
0.0
220
0.0
230
1.0
 40
0.7071067812
 41
0.0
 42
3.3237579042440335
  0
ELLIPSE
  5
1C9
100
AcDbEntity
  8
STAP_DN32
  6
CONTINUOUS
 62
         7
100
AcDbEllipse
 10
15.2691203175
 20
308.2837526269
 30
0.0
 11
0.0
 21
-6.8999999999820156
 31
0.0
210
0.0
220
0.0
230
1.0
 40
0.7071067812
 41
6.1010200565253454
 42
6.2831853071795862
  0
ELLIPSE
  5
1CA
100
AcDbEntity
  8
STAP_DN32
  6
CONTINUOUS
 62
         7
100
AcDbEllipse
 10
15.2691203175
 20
308.2837526269
 30
0.0
 11
0.0
 21
-5.999999999996402
 31
0.0
210
0.0
220
0.0
230
1.0
 40
0.7071067812
 41
0.1796311460902328
 42
2.9619615074995074
  0
ELLIPSE
  5
1CB
100
AcDbEntity
  8
STAP_DN32
  6
CONTINUOUS
 62
         7
100
AcDbEllipse
 10
13.5013533645
 20
308.2837526269
 30
0.0
 11
0.0
 21
6.899999999987644
 31
0.0
210
0.0
220
0.0
230
1.0
 40
0.7071067812
 41
3.1415926535897931
 42
6.2831853071795862
  0
ELLIPSE
  5
1CC
100
AcDbEntity
  8
STAP_DN32
  6
CONTINUOUS
 62
         7
100
AcDbEllipse
 10
9.6122660679
 20
308.2837526269
 30
0.0
 11
0.0
 21
-6.900000000000035
 31
0.0
210
0.0
220
0.0
230
1.0
 40
0.7071067812
 41
0.0
 42
6.2831853071795862
  0
LINE
  5
1CD
100
AcDbEntity
  8
STAP_DN32
  6
CONTINUOUS
 62
         7
100
AcDbLine
 10
103.4925566039
 20
363.2837526269
 30
0.0
 11
101.9914061423
 21
363.2837526269
 31
0.0
  0
LINE
  5
1CE
100
AcDbEntity
  8
STAP_DN32
  6
CONTINUOUS
 62
         7
100
AcDbLine
 10
42.5940119985
 20
332.0337526269
 30
0.0
 11
31.8940119985
 21
332.0337526269
 31
0.0
  0
LINE
  5
1CF
100
AcDbEntity
  8
STAP_DN32
  6
CONTINUOUS
 62
         7
100
AcDbLine
 10
42.5940119985
 20
284.5337526269
 30
0.0
 11
46.9241390174
 21
287.0337526269
 31
0.0
  0
LINE
  5
1D0
100
AcDbEntity
  8
STAP_DN32
  6
CONTINUOUS
 62
         7
100
AcDbLine
 10
19.4092003082
 20
335.0729595841
 30
0.0
 11
18.3940119985
 21
332.2837526269
 31
0.0
  0
LINE
  5
1D1
100
AcDbEntity
  8
STAP_DN32
  6
CONTINUOUS
 62
         7
100
AcDbLine
 10
49.6672115215
 20
329.5337526269
 30
0.0
 11
46.9241390174
 21
329.5337526269
 31
0.0
  0
LINE
  5
1D2
100
AcDbEntity
  8
STAP_DN32
  6
CONTINUOUS
 62
         7
100
AcDbLine
 10
44.0055130341
 20
321.7837526269
 30
0.0
 11
44.0055130341
 21
318.2575183072
 31
0.0
  0
ELLIPSE
  5
1D3
100
AcDbEntity
  8
STAP_DN32
  6
CONTINUOUS
 62
         7
100
AcDbEllipse
 10
101.5772956701
 20
308.2837526269
 30
0.0
 11
-0.0000000000007026
 21
-50.049999999999947
 31
0.0
210
0.0
220
0.0
230
1.0
 40
0.9659258263
 41
0.019809727426009
 42
0.1721032852896392
  0
ELLIPSE
  5
1D4
100
AcDbEntity
  8
STAP_DN32
  6
CONTINUOUS
 62
         7
100
AcDbEllipse
 10
101.5772956701
 20
308.2837526269
 30
0.0
 11
-0.0000000000007026
 21
-50.049999999999947
 31
0.0
210
0.0
220
0.0
230
1.0
 40
0.9659258263
 41
2.9694893683001822
 42
3.1217829261637506
  0
LINE
  5
1D5
100
AcDbEntity
  8
STAP_DN32
  6
CONTINUOUS
 62
         7
100
AcDbLine
 10
47.0327042245
 20
321.7837526269
 30
0.0
 11
44.0055130341
 21
321.7837526269
 31
0.0
  0
ELLIPSE
  5
1D6
100
AcDbEntity
  8
STAP_DN32
  6
CONTINUOUS
 62
         7
100
AcDbEllipse
 10
103.4925566039
 20
308.2837526269
 30
0.0
 11
0.000000000001197
 21
-50.049999999999912
 31
0.0
210
0.0
220
0.0
230
1.0
 40
0.9659258263
 41
0.0
 42
1.3899926785137153
  0
ELLIPSE
  5
1D7
100
AcDbEntity
  8
STAP_DN32
  6
CONTINUOUS
 62
         7
100
AcDbEllipse
 10
103.4925566039
 20
308.2837526269
 30
0.0
 11
0.000000000001197
 21
-50.049999999999912
 31
0.0
210
0.0
220
0.0
230
1.0
 40
0.9659258263
 41
1.7515999750760296
 42
6.2831853071795862
  0
ELLIPSE
  5
1D8
100
AcDbEntity
  8
STAP_DN32
  6
CONTINUOUS
 62
         7
100
AcDbEllipse
 10
96.038568105
 20
308.2837526269
 30
0.0
 11
-0.000000000000824
 21
52.499999999999851
 31
0.0
210
0.0
220
0.0
230
1.0
 40
0.9659258263
 41
1.7268012210699124
 42
2.7769423847902472
  0
LINE
  5
1D9
100
AcDbEntity
  8
STAP_DN32
  6
CONTINUOUS
 62
         7
100
AcDbLine
 10
102.4702213757
 20
358.1837526269
 30
0.0
 11
101.8102328107
 21
358.1837526269
 31
0.0
  0
LINE
  5
1DA
100
AcDbEntity
  8
STAP_DN32
  6
CONTINUOUS
 62
         7
100
AcDbLine
 10
102.586689946
 20
356.5337526269
 30
0.0
 11
102.4702213757
 21
356.5337526269
 31
0.0
  0
LINE
  5
1DB
100
AcDbEntity
  8
STAP_DN32
  6
CONTINUOUS
 62
         7
100
AcDbLine
 10
104.6498521163
 20
275.2837526269
 30
0.0
 11
107.6983660868
 21
275.2837526269
 31
0.0
  0
LINE
  5
1DC
100
AcDbEntity
  8
STAP_DN32
  6
CONTINUOUS
 62
         7
100
AcDbLine
 10
123.394660764
 20
291.5337526269
 30
0.0
 11
124.9456110799
 21
291.5337526269
 31
0.0
  0
LINE
  5
1DD
100
AcDbEntity
  8
STAP_DN32
  6
CONTINUOUS
 62
         7
100
AcDbLine
 10
131.548541093
 20
283.2837526269
 30
0.0
 11
133.8066295036
 21
283.2837526269
 31
0.0
  0
LINE
  5
1DE
100
AcDbEntity
  8
STAP_DN32
  6
CONTINUOUS
 62
         7
100
AcDbLine
 10
133.8066295036
 20
333.2837526269
 30
0.0
 11
131.548541093
 21
333.2837526269
 31
0.0
  0
LINE
  5
1DF
100
AcDbEntity
  8
STAP_DN32
  6
CONTINUOUS
 62
         7
100
AcDbLine
 10
124.9456110799
 20
325.0337526269
 30
0.0
 11
123.394660764
 21
325.0337526269
 31
0.0
  0
LINE
  5
1E0
100
AcDbEntity
  8
STAP_DN32
  6
CONTINUOUS
 62
         7
100
AcDbLine
 10
107.6983660868
 20
341.2837526269
 30
0.0
 11
104.6498521163
 21
341.2837526269
 31
0.0
  0
LINE
  5
1E1
100
AcDbEntity
  8
STAP_DN32
  6
CONTINUOUS
 62
         7
100
AcDbLine
 10
101.8102328107
 20
258.3837526269
 30
0.0
 11
102.4702213757
 21
258.3837526269
 31
0.0
  0
LINE
  5
1E2
100
AcDbEntity
  8
STAP_DN32
  6
CONTINUOUS
 62
         7
100
AcDbLine
 10
102.4702213757
 20
260.0337526269
 30
0.0
 11
102.586689946
 21
260.0337526269
 31
0.0
  0
LINE
  5
1E3
100
AcDbEntity
  8
STAP_DN32
  6
CONTINUOUS
 62
         7
100
AcDbLine
 10
76.7864566102
 20
316.3366232824
 30
0.0
 11
76.8518335243
 21
316.3429279376
 31
0.0
  0
ELLIPSE
  5
1E4
100
AcDbEntity
  8
STAP_DN32
  6
CONTINUOUS
 62
         7
100
AcDbEllipse
 10
107.6983660868
 20
308.2837526269
 30
0.0
 11
-0.0000000000006453
 21
-32.99999999999968
 31
0.0
210
0.0
220
0.0
230
1.0
 40
0.9659258263
 41
2.4223177894297674
 42
4.4658733827302113
  0
LINE
  5
1E5
100
AcDbEntity
  8
STAP_DN32
  6
CONTINUOUS
 62
         7
100
AcDbLine
 10
73.7379426396
 20
316.3366232824
 30
0.0
 11
76.7864566102
 21
316.3366232824
 31
0.0
  0
ELLIPSE
  5
1E6
100
AcDbEntity
  8
STAP_DN32
  6
CONTINUOUS
 62
         7
100
AcDbEllipse
 10
104.6498521163
 20
308.2837526269
 30
0.0
 11
-0.0000000000002394
 21
-32.999999999999616
 31
0.0
210
0.0
220
0.0
230
1.0
 40
0.9659258263
 41
3.1415926535897931
 42
4.4658733827301953
  0
ARC
  5
1E7
100
AcDbEntity
  8
STAP_DN32
  6
CONTINUOUS
 62
         7
100
AcDbCircle
 10
-447.5637925923
 20
5855.7404366765
 30
0.0
 40
5564.1653919287
100
AcDbArc
 50
275.4080822816
 51
275.5099175429
  0
ELLIPSE
  5
1E8
100
AcDbEntity
  8
STAP_DN32
  6
CONTINUOUS
 62
         7
100
AcDbEllipse
 10
123.394660764
 20
308.2837526269
 30
0.0
 11
0.0000000000004857
 21
-16.749999999989026
 31
0.0
210
0.0
220
0.0
230
1.0
 40
0.9659258263
 41
3.1415926535897931
 42
4.1451405818553102
  0
LINE
  5
1E9
100
AcDbEntity
  8
STAP_DN32
  6
CONTINUOUS
 62
         7
100
AcDbLine
 10
148.7260239374
 20
299.2837526269
 30
0.0
 11
151.3844980939
 21
299.2837526269
 31
0.0
  0
ELLIPSE
  5
1EA
100
AcDbEntity
  8
STAP_DN32
  6
CONTINUOUS
 62
         7
100
AcDbEllipse
 10
125.6604078169
 20
308.2837526269
 30
0.0
 11
0.0000000000009714
 21
-16.749999999989011
 31
0.0
210
0.0
220
0.0
230
1.0
 40
0.9659258263
 41
3.1860148372707324
 42
4.1451405818552818
  0
LINE
  5
1EB
100
AcDbEntity
  8
STAP_DN32
  6
CONTINUOUS
 62
         7
100
AcDbLine
 10
112.0151028617
 20
317.2837526269
 30
0.0
 11
99.93631754
 21
317.2837526269
 31
0.0
  0
ARC
  5
1EC
100
AcDbEntity
  8
STAP_DN32
  6
CONTINUOUS
 62
         7
100
AcDbCircle
 10
106.340934765
 20
308.2837526269
 30
0.0
 40
38.2990450286
100
AcDbArc
 50
176.157577013
 51
183.842422987
  0
ELLIPSE
  5
1ED
100
AcDbEntity
  8
STAP_DN32
  6
CONTINUOUS
 62
         7
100
AcDbEllipse
 10
133.8066295036
 20
308.2837526269
 30
0.0
 11
0.0000000000008535
 21
-25.000000000005606
 31
0.0
210
0.0
220
0.0
230
1.0
 40
0.9659258263
 41
2.93818559109681
 42
3.3449997160827096
  0
ELLIPSE
  5
1EE
100
AcDbEntity
  8
STAP_DN32
  6
CONTINUOUS
 62
         7
100
AcDbEllipse
 10
133.8066295036
 20
308.2837526269
 30
0.0
 11
-0.0000000000000347
 21
24.999999999996799
 31
0.0
210
0.0
220
0.0
230
1.0
 40
0.9659258263
 41
2.9381855910967953
 42
3.344999716082778
  0
ELLIPSE
  5
1EF
100
AcDbEntity
  8
STAP_DN32
  6
CONTINUOUS
 62
         7
100
AcDbEllipse
 10
133.8066295036
 20
308.2837526269
 30
0.0
 11
-0.0000000000433056
 21
25.000000000003073
 31
0.0
210
0.0
220
0.0
230
1.0
 40
0.9659258263
 41
4.5089819178900594
 42
4.9157960428759644
  0
ELLIPSE
  5
1F0
100
AcDbEntity
  8
STAP_DN32
  6
CONTINUOUS
 62
         7
100
AcDbEllipse
 10
131.548541093
 20
308.2837526269
 30
0.0
 11
-0.0000000000000763
 21
25.000000000003091
 31
0.0
210
0.0
220
0.0
230
1.0
 40
0.9659258263
 41
2.9381855910968229
 42
3.1415926535897931
  0
ELLIPSE
  5
1F1
100
AcDbEntity
  8
STAP_DN32
  6
CONTINUOUS
 62
         7
100
AcDbEllipse
 10
131.548541093
 20
308.2837526269
 30
0.0
 11
0.0000000000010686
 21
-24.999999999999083
 31
0.0
210
0.0
220
0.0
230
1.0
 40
0.9659258263
 41
3.1415926535897927
 42
3.344999716082719
  0
ARC
  5
1F2
100
AcDbEntity
  8
STAP_DN32
  6
CONTINUOUS
 62
         7
100
AcDbCircle
 10
29.4912743875
 20
285.4177341972
 30
0.0
 40
10.8184853821
100
AcDbArc
 50
158.7377372552
 51
201.2622627448
  0
ENDBLK
  5
1F3
100
AcDbEntity
  8
STAP_DN32
  6
CONTINUOUS
 62
         7
100
AcDbBlockEnd
  0
BLOCK
  5
2E2
100
AcDbEntity
  8
0
 62
         1
 48
0.0
100
AcDbBlockBegin
  2
SE4
 70
         0
 10
0.0
 20
0.0
 30
0.0
  3
SE4
  1

  0
ENDBLK
  5
2E3
100
AcDbEntity
  8
0
 62
         1
 48
0.0
100
AcDbBlockEnd
  0
BLOCK
  5
1F6
100
AcDbEntity
  8
0
 62
         1
 48
0.0
100
AcDbBlockBegin
  2
SE5
 70
         0
 10
0.0
 20
0.0
 30
0.0
  3
SE5
  1

  0
LINE
  5
1F7
100
AcDbEntity
  8
STAP_DN32
  6
CONTINUOUS
 62
         7
100
AcDbLine
 10
237.5667035349
 20
62.7428825265
 30
0.0
 11
246.2620528562
 21
60.4129706979
 31
0.0
  0
LINE
  5
1F8
100
AcDbEntity
  8
STAP_DN32
  6
CONTINUOUS
 62
         7
100
AcDbLine
 10
266.1896938621
 20
134.7896412749
 30
0.0
 11
257.4957700078
 21
137.1191711507
 31
0.0
  0
LINE
  5
1F9
100
AcDbEntity
  8
STAP_DN32
  6
CONTINUOUS
 62
         7
100
AcDbLine
 10
249.2384718749
 20
71.5211177002
 30
0.0
 11
240.5431225536
 21
73.8510295288
 31
0.0
  0
LINE
  5
1FA
100
AcDbEntity
  8
STAP_DN32
  6
CONTINUOUS
 62
         7
100
AcDbLine
 10
254.7781700342
 20
126.9769499747
 30
0.0
 11
263.4715024708
 21
124.6475785688
 31
0.0
  0
LINE
  5
1FB
100
AcDbEntity
  8
STAP_DN32
  6
CONTINUOUS
 62
         7
100
AcDbLine
 10
254.591488699
 20
132.4621710349
 30
0.0
 11
253.5691534708
 21
128.646764021
 31
0.0
  0
LINE
  5
1FC
100
AcDbEntity
  8
STAP_DN32
  6
CONTINUOUS
 62
         7
100
AcDbLine
 10
255.6138239271
 20
136.2775780487
 30
0.0
 11
254.591488699
 21
132.4621710349
 31
0.0
  0
LINE
  5
1FD
100
AcDbEntity
  8
STAP_DN32
  6
CONTINUOUS
 62
         7
100
AcDbLine
 10
253.5691534708
 20
128.646764021
 30
0.0
 11
248.3531540089
 21
130.0443868646
 31
0.0
  0
LINE
  5
1FE
100
AcDbEntity
  8
STAP_DN32
  6
CONTINUOUS
 62
         7
100
AcDbLine
 10
254.591488699
 20
132.4621710349
 30
0.0
 11
249.375489237
 21
133.8597938784
 31
0.0
  0
LINE
  5
1FF
100
AcDbEntity
  8
STAP_DN32
  6
CONTINUOUS
 62
         7
100
AcDbLine
 10
255.6138239271
 20
136.2775780487
 30
0.0
 11
250.3978244652
 21
137.6752008923
 31
0.0
  0
LINE
  5
200
100
AcDbEntity
  8
STAP_DN32
  6
CONTINUOUS
 62
         7
100
AcDbLine
 10
237.5667035349
 20
62.7428825265
 30
0.0
 11
240.5431225536
 21
73.8510295288
 31
0.0
  0
SPLINE
  5
201
100
AcDbEntity
  8
STAP_DN32
  6
CONTINUOUS
 62
         7
100
AcDbSpline
210
0.0
220
0.0
230
1.0
 70
         8
 71
         3
 72
        14
 73
        10
 74
         0
 42
0.0
 43
0.0
 40
0.0
 40
0.0
 40
0.0
 40
0.0
 40
0.25
 40
0.25
 40
0.5
 40
0.5
 40
0.75
 40
0.75
 40
1.0
 40
1.0
 40
1.0
 40
1.0
 10
249.16606575517642
 20
70.914623721705809
 30
0.0
 10
249.10548228974005
 20
70.425728064347155
 30
0.0
 10
249.19945074284564
 20
69.638438832181208
 30
0.0
 10
249.28522310717534
 20
67.776542914945139
 30
0.0
 10
249.25820664145007
 20
66.68151829468998
 30
0.0
 10
248.70282380430922
 20
64.603468043121623
 30
0.0
 10
248.17581867733611
 20
63.634170040735142
 30
0.0
 10
247.17035390282456
 20
62.063976692427651
 30
0.0
 10
246.69487543816987
 20
61.428809990641476
 30
0.0
 10
246.50259430641771
 20
60.974412950429254
 30
0.0
  0
ARC
  5
202
100
AcDbEntity
  8
STAP_DN32
  6
CONTINUOUS
 62
         7
100
AcDbCircle
 10
227.8066661434
 20
139.4505102699
 30
0.0
 40
38.6643716834
100
AcDbArc
 50
352.0748077022
 51
353.0765711738
  0
LINE
  5
203
100
AcDbEntity
  8
STAP_DN32
  6
CONTINUOUS
 62
         7
100
AcDbLine
 10
257.4957700078
 20
137.1191711507
 30
0.0
 11
254.7781700342
 21
126.9769499747
 31
0.0
  0
SPLINE
  5
204
100
AcDbEntity
  8
STAP_DN32
  6
CONTINUOUS
 62
         7
100
AcDbSpline
210
0.0
220
0.0
230
1.0
 70
         8
 71
         3
 72
        12
 73
         8
 74
         0
 42
0.0
 43
0.0
 40
0.5004707061587281
 40
0.5004707061587281
 40
0.5004707061587281
 40
0.5004707061587281
 40
0.6249999999999996
 40
0.6249999999999996
 40
0.7499999999999996
 40
0.7499999999999996
 40
1.0
 40
1.0
 40
1.0
 40
1.0
 10
246.26003598474415
 20
60.413511149800428
 30
0.0
 10
246.26004560415197
 20
60.413532809359623
 30
0.0
 10
246.26520274630141
 20
60.425191864870392
 30
0.0
 10
246.28583980788861
 20
60.472032105364242
 30
0.0
 10
246.30147165492585
 20
60.507558903252118
 30
0.0
 10
246.36347404160577
 20
60.649423362244534
 30
0.0
 10
246.42415665407668
 20
60.789049796279897
 30
0.0
 10
246.50259430641771
 20
60.974412950429254
 30
0.0
  0
LINE
  5
205
100
AcDbEntity
  8
STAP_DN32
  6
CONTINUOUS
 62
         7
100
AcDbLine
 10
245.6084862429
 20
57.63755623
 30
0.0
 11
245.522401693
 21
57.6606225156
 31
0.0
  0
ARC
  5
206
100
AcDbEntity
  8
STAP_DN32
  6
CONTINUOUS
 62
         7
100
AcDbCircle
 10
227.9303422819
 20
139.7902951752
 30
0.0
 40
38.6325760699
100
AcDbArc
 50
336.9230177046
 51
337.9256060088
  0
LINE
  5
207
100
AcDbEntity
  8
STAP_DN32
  6
CONTINUOUS
 62
         7
100
AcDbLine
 10
250.3836939869
 20
56.3580431713
 30
0.0
 11
245.6084862429
 21
57.63755623
 31
0.0
  0
LINE
  5
208
100
AcDbEntity
  8
STAP_DN32
  6
CONTINUOUS
 62
         7
100
AcDbLine
 10
306.9857475427
 20
41.1915686311
 30
0.0
 11
294.9069622209
 21
44.4280694036
 31
0.0
  0
LINE
  5
209
100
AcDbEntity
  8
STAP_DN32
  6
CONTINUOUS
 62
         7
100
AcDbLine
 10
255.5375669887
 20
54.9770670626
 30
0.0
 11
250.3836939869
 21
56.3580431713
 31
0.0
  0
LINE
  5
20A
100
AcDbEntity
  8
STAP_DN32
  6
CONTINUOUS
 62
         7
100
AcDbLine
 10
317.0009128384
 20
38.508013178
 30
0.0
 11
316.9148282884
 21
38.5310794637
 31
0.0
  0
LINE
  5
20B
100
AcDbEntity
  8
STAP_DN32
  6
CONTINUOUS
 62
         7
100
AcDbLine
 10
316.9148282884
 20
38.5310794637
 30
0.0
 11
312.1396205444
 21
39.8105925224
 31
0.0
  0
LINE
  5
20C
100
AcDbEntity
  8
STAP_DN32
  6
CONTINUOUS
 62
         7
100
AcDbLine
 10
312.1396205444
 20
39.8105925224
 30
0.0
 11
306.9857475427
 21
41.1915686311
 31
0.0
  0
LINE
  5
20D
100
AcDbEntity
  8
STAP_DN32
  6
CONTINUOUS
 62
         7
100
AcDbLine
 10
268.7773776005
 20
104.3887129483
 30
0.0
 11
255.5375669887
 21
54.9770670626
 31
0.0
  0
LINE
  5
20E
100
AcDbEntity
  8
STAP_DN32
  6
CONTINUOUS
 62
         7
100
AcDbLine
 10
320.2255581544
 20
90.6032145168
 30
0.0
 11
306.9857475427
 21
41.1915686311
 31
0.0
  0
LINE
  5
20F
100
AcDbEntity
  8
STAP_DN32
  6
CONTINUOUS
 62
         7
100
AcDbLine
 10
330.1356084725
 20
106.8367490105
 30
0.0
 11
333.184122443
 21
118.2139580362
 31
0.0
  0
LINE
  5
210
100
AcDbEntity
  8
STAP_DN32
  6
CONTINUOUS
 62
         7
100
AcDbLine
 10
330.0702315584
 20
106.7285438371
 30
0.0
 11
330.1356084725
 21
106.8367490105
 31
0.0
  0
LINE
  5
211
100
AcDbEntity
  8
STAP_DN32
  6
CONTINUOUS
 62
         7
100
AcDbLine
 10
294.9069622209
 20
44.4280694036
 30
0.0
 11
297.1727092738
 21
52.8839525221
 31
0.0
  0
LINE
  5
212
100
AcDbEntity
  8
STAP_DN32
  6
CONTINUOUS
 62
         7
100
AcDbLine
 10
269.8820993634
 20
60.1964494086
 30
0.0
 11
267.6163523105
 21
51.7405662901
 31
0.0
  0
LINE
  5
213
100
AcDbEntity
  8
STAP_DN32
  6
CONTINUOUS
 62
         7
100
AcDbLine
 10
268.3117895191
 20
123.4023913721
 30
0.0
 11
268.3143050008
 21
123.275994486
 31
0.0
  0
LINE
  5
214
100
AcDbEntity
  8
STAP_DN32
  6
CONTINUOUS
 62
         7
100
AcDbLine
 10
259.8810252382
 20
30.2607078279
 30
0.0
 11
251.7232162138
 21
32.446586168
 31
0.0
  0
LINE
  5
215
100
AcDbEntity
  8
STAP_DN32
  6
CONTINUOUS
 62
         7
100
AcDbLine
 10
249.4651278032
 20
24.0192854919
 30
0.0
 11
251.7232162138
 21
32.446586168
 31
0.0
  0
LINE
  5
216
100
AcDbEntity
  8
STAP_DN32
  6
CONTINUOUS
 62
         7
100
AcDbLine
 10
268.6120432056
 20
27.9212386145
 30
0.0
 11
259.8810252382
 21
30.2607078279
 31
0.0
  0
LINE
  5
217
100
AcDbEntity
  8
STAP_DN32
  6
CONTINUOUS
 62
         7
100
AcDbLine
 10
257.2004769353
 20
20.2567653693
 30
0.0
 11
259.8810252382
 21
30.2607078279
 31
0.0
  0
LINE
  5
218
100
AcDbEntity
  8
STAP_DN32
  6
CONTINUOUS
 62
         7
100
AcDbLine
 10
265.9314949027
 20
17.9172961559
 30
0.0
 11
268.6120432056
 21
27.9212386145
 31
0.0
  0
LINE
  5
219
100
AcDbEntity
  8
STAP_DN32
  6
CONTINUOUS
 62
         7
100
AcDbLine
 10
265.9314949027
 20
17.9172961559
 30
0.0
 11
257.2004769353
 21
20.2567653693
 31
0.0
  0
ELLIPSE
  5
21A
100
AcDbEntity
  8
STAP_DN32
  6
CONTINUOUS
 62
         7
100
AcDbEllipse
 10
295.9094962662
 20
111.8147396089
 30
0.0
 11
-25.74077998014635
 21
-96.065898669301049
 31
0.0
210
0.0
220
0.0
230
1.0
 40
0.9743700648
 41
6.0526940034518155
 42
6.141407545581278
  0
LINE
  5
21B
100
AcDbEntity
  8
STAP_DN32
  6
CONTINUOUS
 62
         7
100
AcDbLine
 10
270.4954218186
 20
27.4165888361
 30
0.0
 11
268.237333408
 21
18.9892881599
 31
0.0
  0
LINE
  5
21C
100
AcDbEntity
  8
STAP_DN32
  6
CONTINUOUS
 62
         7
100
AcDbLine
 10
290.866022741
 20
21.9583027696
 30
0.0
 11
282.1350047736
 21
24.297771983
 31
0.0
  0
LINE
  5
21D
100
AcDbEntity
  8
STAP_DN32
  6
CONTINUOUS
 62
         7
100
AcDbLine
 10
288.1854744381
 20
11.954360311
 30
0.0
 11
290.866022741
 21
21.9583027696
 31
0.0
  0
LINE
  5
21E
100
AcDbEntity
  8
STAP_DN32
  6
CONTINUOUS
 62
         7
100
AcDbLine
 10
282.1350047736
 20
24.297771983
 30
0.0
 11
280.2516261606
 21
24.8024217614
 31
0.0
  0
LINE
  5
21F
100
AcDbEntity
  8
STAP_DN32
  6
CONTINUOUS
 62
         7
100
AcDbLine
 10
279.4544564707
 20
14.2938295244
 30
0.0
 11
282.1350047736
 21
24.297771983
 31
0.0
  0
LINE
  5
220
100
AcDbEntity
  8
STAP_DN32
  6
CONTINUOUS
 62
         7
100
AcDbLine
 10
288.1854744381
 20
11.954360311
 30
0.0
 11
279.4544564707
 21
14.2938295244
 31
0.0
  0
ELLIPSE
  5
221
100
AcDbEntity
  8
STAP_DN32
  6
CONTINUOUS
 62
         7
100
AcDbEllipse
 10
307.9905438144
 20
108.5776326738
 30
0.0
 11
-25.740779969273728
 21
-96.065898671379642
 31
0.0
210
0.0
220
0.0
230
1.0
 40
0.2249510543
 41
6.052694003341907
 42
6.1414075454717523
  0
ELLIPSE
  5
222
100
AcDbEntity
  8
STAP_DN32
  6
CONTINUOUS
 62
         7
100
AcDbEllipse
 10
288.360419913
 20
113.8375085202
 30
0.0
 11
-25.740779969004581
 21
-96.06589867116503
 31
0.0
210
0.0
220
0.0
230
1.0
 40
0.2249510543
 41
0.1417777617080318
 42
0.2304913038380066
  0
LINE
  5
223
100
AcDbEntity
  8
STAP_DN32
  6
CONTINUOUS
 62
         7
100
AcDbLine
 10
277.99353775
 20
16.3751210853
 30
0.0
 11
280.2516261606
 21
24.8024217614
 31
0.0
  0
LINE
  5
224
100
AcDbEntity
  8
STAP_DN32
  6
CONTINUOUS
 62
         7
100
AcDbLine
 10
299.0238317654
 20
19.7724244295
 30
0.0
 11
296.7657433549
 21
11.3451237533
 31
0.0
  0
ELLIPSE
  5
225
100
AcDbEntity
  8
STAP_DN32
  6
CONTINUOUS
 62
         7
100
AcDbEllipse
 10
300.4414674616
 20
110.6004015864
 30
0.0
 11
-25.740779960048862
 21
-96.065898674055731
 31
0.0
210
0.0
220
0.0
230
1.0
 40
0.9743700648
 41
0.1417777616148727
 42
0.2304913037445811
  0
LINE
  5
226
100
AcDbEntity
  8
STAP_DN32
  6
CONTINUOUS
 62
         7
100
AcDbLine
 10
271.3603034897
 20
134.7796003977
 30
0.0
 11
333.184122443
 21
118.2139580362
 31
0.0
  0
LINE
  5
227
100
AcDbEntity
  8
STAP_DN32
  6
CONTINUOUS
 62
         7
100
AcDbLine
 10
299.0238317654
 20
19.7724244295
 30
0.0
 11
299.5216696468
 21
19.6390291712
 31
0.0
  0
LINE
  5
228
100
AcDbEntity
  8
STAP_DN32
  6
CONTINUOUS
 62
         7
100
AcDbLine
 10
289.0871990315
 20
33.8229751305
 30
0.0
 11
267.35386794
 21
39.6464036453
 31
0.0
  0
LINE
  5
229
100
AcDbEntity
  8
STAP_DN32
  6
CONTINUOUS
 62
         7
100
AcDbLine
 10
267.6163523105
 20
51.7405662901
 30
0.0
 11
294.9069622209
 21
44.4280694036
 31
0.0
  0
LINE
  5
22A
100
AcDbEntity
  8
STAP_DN32
  6
CONTINUOUS
 62
         7
100
AcDbLine
 10
269.8820993634
 20
60.1964494086
 30
0.0
 11
297.1727092738
 21
52.8839525221
 31
0.0
  0
LINE
  5
22B
100
AcDbEntity
  8
STAP_DN32
  6
CONTINUOUS
 62
         7
100
AcDbLine
 10
268.3117895191
 20
123.4023913721
 30
0.0
 11
330.1356084725
 21
106.8367490105
 31
0.0
  0
LINE
  5
22C
100
AcDbEntity
  8
STAP_DN32
  6
CONTINUOUS
 62
         7
100
AcDbLine
 10
290.866022741
 20
21.9583027696
 30
0.0
 11
299.0238317654
 21
19.7724244295
 31
0.0
  0
LINE
  5
22D
100
AcDbEntity
  8
STAP_DN32
  6
CONTINUOUS
 62
         7
100
AcDbLine
 10
268.6120432056
 20
27.9212386145
 30
0.0
 11
270.4954218186
 21
27.4165888361
 31
0.0
  0
LINE
  5
22E
100
AcDbEntity
  8
STAP_DN32
  6
CONTINUOUS
 62
         7
100
AcDbLine
 10
296.7657433549
 20
11.3451237533
 30
0.0
 11
297.2635812363
 21
11.211728495
 31
0.0
  0
LINE
  5
22F
100
AcDbEntity
  8
STAP_DN32
  6
CONTINUOUS
 62
         7
100
AcDbLine
 10
320.2255581544
 20
90.6032145168
 30
0.0
 11
330.0702315584
 21
106.7285438371
 31
0.0
  0
LINE
  5
230
100
AcDbEntity
  8
STAP_DN32
  6
CONTINUOUS
 62
         7
100
AcDbLine
 10
268.3143050008
 20
123.275994486
 30
0.0
 11
268.7773776005
 21
104.3887129483
 31
0.0
  0
ARC
  5
231
100
AcDbEntity
  8
STAP_DN32
  6
CONTINUOUS
 62
         7
100
AcDbCircle
 10
243.2973596823
 20
114.6140515975
 30
0.0
 40
34.5568831573
100
AcDbArc
 50
35.7003743261
 51
45.5716867588
  0
LINE
  5
232
100
AcDbEntity
  8
STAP_DN32
  6
CONTINUOUS
 62
         7
100
AcDbLine
 10
267.4877418047
 20
139.2920496184
 30
0.0
 11
267.4016572548
 21
139.3151159041
 31
0.0
  0
ARC
  5
233
100
AcDbEntity
  8
STAP_DN32
  6
CONTINUOUS
 62
         7
100
AcDbCircle
 10
348.2314014979
 20
84.365972996
 30
0.0
 40
37.0419586177
100
AcDbArc
 50
104.7601775034
 51
113.9677614117
  0
LINE
  5
234
100
AcDbEntity
  8
STAP_DN32
  6
CONTINUOUS
 62
         7
100
AcDbLine
 10
387.410304078
 20
114.5289188955
 30
0.0
 11
388.5416749279
 21
113.3975480456
 31
0.0
  0
LINE
  5
235
100
AcDbEntity
  8
STAP_DN32
  6
CONTINUOUS
 62
         7
100
AcDbLine
 10
388.5416749279
 20
113.3975480456
 30
0.0
 11
388.5416749279
 21
112.1247558395
 31
0.0
  0
LINE
  5
236
100
AcDbEntity
  8
STAP_DN32
  6
CONTINUOUS
 62
         7
100
AcDbLine
 10
388.5416749279
 20
112.1247558395
 30
0.0
 11
392.4307622245
 21
108.2356685429
 31
0.0
  0
LINE
  5
237
100
AcDbEntity
  8
STAP_DN32
  6
CONTINUOUS
 62
         7
100
AcDbLine
 10
385.9960905156
 20
118.7715595826
 30
0.0
 11
388.1174108592
 21
116.6502392391
 31
0.0
  0
LINE
  5
238
100
AcDbEntity
  8
STAP_DN32
  6
CONTINUOUS
 62
         7
100
AcDbLine
 10
383.5212167815
 20
118.418006192
 30
0.0
 11
384.5818769532
 21
117.3573460203
 31
0.0
  0
LINE
  5
239
100
AcDbEntity
  8
STAP_DN32
  6
CONTINUOUS
 62
         7
100
AcDbLine
 10
386.0668011938
 20
114.5996295736
 30
0.0
 11
386.773907975
 21
113.8925227924
 31
0.0
  0
LINE
  5
23A
100
AcDbEntity
  8
STAP_DN32
  6
CONTINUOUS
 62
         7
100
AcDbLine
 10
376.4769454399
 20
120.5661230059
 30
0.0
 11
381.0731395176
 21
115.9699289282
 31
0.0
  0
LINE
  5
23B
100
AcDbEntity
  8
STAP_DN32
  6
CONTINUOUS
 62
         7
100
AcDbLine
 10
389.8583813419
 20
133.9475589079
 30
0.0
 11
385.9607351766
 21
139.9494076792
 31
0.0
  0
LINE
  5
23C
100
AcDbEntity
  8
STAP_DN32
  6
CONTINUOUS
 62
         7
100
AcDbLine
 10
359.5149415602
 20
135.4239242796
 30
0.0
 11
370.4750966686
 21
124.4637691712
 31
0.0
  0
LINE
  5
23D
100
AcDbEntity
  8
STAP_DN32
  6
CONTINUOUS
 62
         7
100
AcDbLine
 10
359.0906968305
 20
135.7774583311
 30
0.0
 11
359.4795862211
 21
135.3885689405
 31
0.0
  0
LINE
  5
23E
100
AcDbEntity
  8
STAP_DN32
  6
CONTINUOUS
 62
         7
100
AcDbLine
 10
257.9979072425
 20
164.1072443064
 30
0.0
 11
254.8666006729
 21
152.4210490946
 31
0.0
  0
LINE
  5
23F
100
AcDbEntity
  8
STAP_DN32
  6
CONTINUOUS
 62
         7
100
AcDbLine
 10
397.0269563022
 20
121.8828294198
 30
0.0
 11
395.8955854523
 21
123.0142002697
 31
0.0
  0
LINE
  5
240
100
AcDbEntity
  8
STAP_DN32
  6
CONTINUOUS
 62
         7
100
AcDbLine
 10
398.2997485083
 20
121.8828294198
 30
0.0
 11
397.0269563022
 21
121.8828294198
 31
0.0
  0
LINE
  5
241
100
AcDbEntity
  8
STAP_DN32
  6
CONTINUOUS
 62
         7
100
AcDbLine
 10
402.1888358049
 20
117.9937421233
 30
0.0
 11
398.2997485083
 21
121.8828294198
 31
0.0
  0
LINE
  5
242
100
AcDbEntity
  8
STAP_DN32
  6
CONTINUOUS
 62
         7
100
AcDbLine
 10
393.7742651087
 20
122.3070934885
 30
0.0
 11
391.6529447651
 21
124.4284138321
 31
0.0
  0
LINE
  5
243
100
AcDbEntity
  8
STAP_DN32
  6
CONTINUOUS
 62
         7
100
AcDbLine
 10
393.0671583275
 20
125.8426273945
 30
0.0
 11
392.0064981557
 21
126.9032875663
 31
0.0
  0
LINE
  5
244
100
AcDbEntity
  8
STAP_DN32
  6
CONTINUOUS
 62
         7
100
AcDbLine
 10
396.5319815553
 20
123.6505963728
 30
0.0
 11
395.8248747741
 21
124.357703154
 31
0.0
  0
LINE
  5
245
100
AcDbEntity
  8
STAP_DN32
  6
CONTINUOUS
 62
         7
100
AcDbLine
 10
394.4545754196
 20
129.3513648302
 30
0.0
 11
389.8583813419
 21
133.9475589079
 31
0.0
  0
LINE
  5
246
100
AcDbEntity
  8
STAP_DN32
  6
CONTINUOUS
 62
         7
100
AcDbLine
 10
370.4750966686
 20
124.4637691712
 30
0.0
 11
376.4769454399
 21
120.5661230059
 31
0.0
  0
LINE
  5
247
100
AcDbEntity
  8
STAP_DN32
  6
CONTINUOUS
 62
         7
100
AcDbLine
 10
385.9607351766
 20
139.9494076792
 30
0.0
 11
375.0005800682
 21
150.9095627876
 31
0.0
  0
LINE
  5
248
100
AcDbEntity
  8
STAP_DN32
  6
CONTINUOUS
 62
         7
100
AcDbLine
 10
375.0359354072
 20
150.9449181266
 30
0.0
 11
373.9752752355
 21
152.0055782984
 31
0.0
  0
LINE
  5
249
100
AcDbEntity
  8
STAP_DN32
  6
CONTINUOUS
 62
         7
100
AcDbLine
 10
356.2888124332
 20
125.2450493588
 30
0.0
 11
359.1157743697
 21
135.7954149368
 31
0.0
  0
LINE
  5
24A
100
AcDbEntity
  8
STAP_DN32
  6
CONTINUOUS
 62
         7
100
AcDbLine
 10
284.058180103
 20
212.1464512637
 30
0.0
 11
279.7280530841
 21
214.6464512637
 31
0.0
  0
LINE
  5
24B
100
AcDbEntity
  8
STAP_DN32
  6
CONTINUOUS
 62
         7
100
AcDbLine
 10
255.5280530841
 20
166.8964512637
 30
0.0
 11
256.5432413937
 21
164.1072443064
 31
0.0
  0
LINE
  5
24C
100
AcDbEntity
  8
STAP_DN32
  6
CONTINUOUS
 62
         7
100
AcDbLine
 10
375.0280530841
 20
167.1464512637
 30
0.0
 11
376.1342339523
 21
164.1072443064
 31
0.0
  0
SPLINE
  5
24D
100
AcDbEntity
  8
STAP_DN32
  6
CONTINUOUS
 62
         7
100
AcDbSpline
210
0.0
220
0.0
230
1.0
 70
         8
 71
         3
 72
        14
 73
        10
 74
         0
 42
0.0
 43
0.0
 40
0.500922255178714
 40
0.500922255178714
 40
0.500922255178714
 40
0.500922255178714
 40
0.6249999999999998
 40
0.6249999999999998
 40
0.7499999999999998
 40
0.7499999999999998
 40
0.8749999999999999
 40
0.8749999999999999
 40
1.0
 40
1.0
 40
1.0
 40
1.0
 10
359.10668019369245
 20
135.76147509382841
 30
0.0
 10
359.10668094364252
 20
135.76148512930533
 30
0.0
 10
359.11007575656902
 20
135.79582763953934
 30
0.0
 10
359.12366935698412
 20
135.93130403201184
 30
0.0
 10
359.13384188567454
 20
136.03213835753658
 30
0.0
 10
359.16104448909789
 20
136.2953869834088
 30
0.0
 10
359.17816229643546
 20
136.45861498529095
 30
0.0
 10
359.21960686984494
 20
136.84146907893967
 30
0.0
 10
359.24375880701177
 20
137.05946867532035
 30
0.0
 10
359.271638881157
 20
137.30194194410319
 30
0.0
  0
LINE
  5
24E
100
AcDbEntity
  8
STAP_DN32
  6
CONTINUOUS
 62
         7
100
AcDbLine
 10
325.8215083709
 20
171.0139841129
 30
0.0
 11
323.5058219368
 21
162.3717246867
 31
0.0
  0
ARC
  5
24F
100
AcDbEntity
  8
STAP_DN32
  6
CONTINUOUS
 62
         7
100
AcDbCircle
 10
975.5299947838
 20
1458.8992815208
 30
0.0
 40
1450.2956044974
100
AcDbArc
 50
244.3970102512
 51
244.9365250742
  0
ARC
  5
250
100
AcDbEntity
  8
STAP_DN32
  6
CONTINUOUS
 62
         7
100
AcDbCircle
 10
494.7672363558
 20
107.5495362043
 30
0.0
 40
138.7236914962
100
AcDbArc
 50
164.8262873923
 51
167.6154228411
  0
LINE
  5
251
100
AcDbEntity
  8
STAP_DN32
  6
CONTINUOUS
 62
         7
100
AcDbLine
 10
308.4260752994
 20
173.3589913564
 30
0.0
 11
306.6894101153
 21
166.8776686539
 31
0.0
  0
ARC
  5
252
100
AcDbEntity
  8
STAP_DN32
  6
CONTINUOUS
 62
         7
100
AcDbCircle
 10
-15.2831112326
 20
-610.5452632886
 30
0.0
 40
843.9067552396
100
AcDbArc
 50
65.1770265878
 51
66.3309534415
  0
ARC
  5
253
100
AcDbEntity
  8
STAP_DN32
  6
CONTINUOUS
 62
         7
100
AcDbCircle
 10
139.8936495971
 20
379.7511071151
 30
0.0
 40
251.7560670636
100
AcDbArc
 50
303.7407562729
 51
304.9342316212
  0
LINE
  5
254
100
AcDbEntity
  8
STAP_DN32
  6
CONTINUOUS
 62
         7
100
AcDbLine
 10
256.5432413937
 20
217.6856582209
 30
0.0
 11
255.5280530841
 21
214.8964512637
 31
0.0
  0
ARC
  5
255
100
AcDbEntity
  8
STAP_DN32
  6
CONTINUOUS
 62
         7
100
AcDbCircle
 10
343.1988202159
 20
150.4626873068
 30
0.0
 40
20.5512995012
100
AcDbArc
 50
71.728116219
 51
90.0293433345
  0
LINE
  5
256
100
AcDbEntity
  8
STAP_DN32
  6
CONTINUOUS
 62
         7
100
AcDbLine
 10
376.1342339523
 20
217.6856582209
 30
0.0
 11
375.0280530841
 21
214.6464512637
 31
0.0
  0
LINE
  5
257
100
AcDbEntity
  8
STAP_DN32
  6
CONTINUOUS
 62
         7
100
AcDbLine
 10
250.3035880328
 20
145.0509123491
 30
0.0
 11
356.5554289246
 21
116.5808173878
 31
0.0
  0
LINE
  5
258
100
AcDbEntity
  8
STAP_DN32
  6
CONTINUOUS
 62
         7
100
AcDbLine
 10
254.8666006729
 20
152.4210490946
 30
0.0
 11
356.2888124332
 21
125.2450493588
 31
0.0
  0
LINE
  5
259
100
AcDbEntity
  8
STAP_DN32
  6
CONTINUOUS
 62
         7
100
AcDbLine
 10
251.8047384944
 20
150.6532821416
 30
0.0
 11
358.0565793862
 21
122.1831871803
 31
0.0
  0
LINE
  5
25A
100
AcDbEntity
  8
STAP_DN32
  6
CONTINUOUS
 62
         7
100
AcDbLine
 10
388.5280530841
 20
214.8964512637
 30
0.0
 11
388.5280530841
 21
166.8964512637
 31
0.0
  0
LINE
  5
25B
100
AcDbEntity
  8
STAP_DN32
  6
CONTINUOUS
 62
         7
100
AcDbLine
 10
323.5058219368
 20
162.3717246867
 30
0.0
 11
306.6894101153
 21
166.8776686539
 31
0.0
  0
LINE
  5
25C
100
AcDbEntity
  8
STAP_DN32
  6
CONTINUOUS
 62
         7
100
AcDbLine
 10
277.0811025288
 20
170.4010249446
 30
0.0
 11
269.0280530841
 21
171.1106873056
 31
0.0
  0
ELLIPSE
  5
25D
100
AcDbEntity
  8
STAP_DN32
  6
CONTINUOUS
 62
         7
100
AcDbEllipse
 10
312.349906714
 20
164.1072443064
 30
0.0
 11
-54.652696642780491
 21
-2.7463861941450474
 31
0.0
210
0.0
220
0.0
230
1.0
 40
0.394712285
 41
5.8131461326468745
 42
6.156554525450181
  0
LINE
  5
25E
100
AcDbEntity
  8
STAP_DN32
  6
CONTINUOUS
 62
         7
100
AcDbLine
 10
284.058180103
 20
212.1464512637
 30
0.0
 11
284.058180103
 21
173.3589913564
 31
0.0
  0
LINE
  5
25F
100
AcDbEntity
  8
STAP_DN32
  6
CONTINUOUS
 62
         7
100
AcDbLine
 10
279.7280530841
 20
214.6464512637
 30
0.0
 11
279.7280530841
 21
170.4010249446
 31
0.0
  0
LINE
  5
260
100
AcDbEntity
  8
STAP_DN32
  6
CONTINUOUS
 62
         7
100
AcDbLine
 10
364.3280530841
 20
214.6464512637
 30
0.0
 11
364.3280530841
 21
167.1464512637
 31
0.0
  0
LINE
  5
261
100
AcDbEntity
  8
STAP_DN32
  6
CONTINUOUS
 62
         7
100
AcDbLine
 10
359.9979260652
 20
212.1464512637
 30
0.0
 11
359.9979260652
 21
169.6464512637
 31
0.0
  0
LINE
  5
262
100
AcDbEntity
  8
STAP_DN32
  6
CONTINUOUS
 62
         7
100
AcDbLine
 10
269.0280530841
 20
214.6464512637
 30
0.0
 11
269.0280530841
 21
171.1106873056
 31
0.0
  0
LINE
  5
263
100
AcDbEntity
  8
STAP_DN32
  6
CONTINUOUS
 62
         7
100
AcDbLine
 10
375.0280530841
 20
214.6464512637
 30
0.0
 11
375.0280530841
 21
167.1464512637
 31
0.0
  0
LINE
  5
264
100
AcDbEntity
  8
STAP_DN32
  6
CONTINUOUS
 62
         7
100
AcDbLine
 10
255.5280530841
 20
214.8964512637
 30
0.0
 11
255.5280530841
 21
166.8964512637
 31
0.0
  0
LINE
  5
265
100
AcDbEntity
  8
STAP_DN32
  6
CONTINUOUS
 62
         7
100
AcDbLine
 10
269.0280530841
 20
214.6464512637
 30
0.0
 11
267.9218722159
 21
217.6856582209
 31
0.0
  0
ARC
  5
266
100
AcDbEntity
  8
STAP_DN32
  6
CONTINUOUS
 62
         7
100
AcDbCircle
 10
436.4948175793
 20
200.3678662147
 30
0.0
 40
61.0991633082
100
AcDbArc
 50
171.0822121515
 51
188.9177878485
  0
ARC
  5
267
100
AcDbEntity
  8
STAP_DN32
  6
CONTINUOUS
 62
         7
100
AcDbCircle
 10
377.4307906952
 20
213.7624696933
 30
0.0
 40
10.8184853821
100
AcDbArc
 50
338.7377372552
 51
21.2622627448
  0
ARC
  5
268
100
AcDbEntity
  8
STAP_DN32
  6
CONTINUOUS
 62
         7
100
AcDbCircle
 10
386.2163080316
 20
168.030432834
 30
0.0
 40
10.8184853821
100
AcDbArc
 50
158.7377372552
 51
201.2622627448
  0
ARC
  5
269
100
AcDbEntity
  8
STAP_DN32
  6
CONTINUOUS
 62
         7
100
AcDbCircle
 10
436.4948175793
 20
181.4250363126
 30
0.0
 40
61.0991633082
100
AcDbArc
 50
171.0822121515
 51
188.9177878485
  0
ARC
  5
26A
100
AcDbEntity
  8
STAP_DN32
  6
CONTINUOUS
 62
         7
100
AcDbCircle
 10
327.1522811474
 20
200.3678662147
 30
0.0
 40
61.0991633082
100
AcDbArc
 50
351.0822121515
 51
8.9177878485
  0
LINE
  5
26B
100
AcDbEntity
  8
STAP_DN32
  6
CONTINUOUS
 62
         7
100
AcDbLine
 10
267.9218722159
 20
190.8964512637
 30
0.0
 11
256.5432413937
 21
190.8964512637
 31
0.0
  0
LINE
  5
26C
100
AcDbEntity
  8
STAP_DN32
  6
CONTINUOUS
 62
         7
100
AcDbLine
 10
267.9218722159
 20
209.8392811657
 30
0.0
 11
256.5432413937
 21
209.8392811657
 31
0.0
  0
LINE
  5
26D
100
AcDbEntity
  8
STAP_DN32
  6
CONTINUOUS
 62
         7
100
AcDbLine
 10
387.5128647744
 20
190.8964512637
 30
0.0
 11
376.1342339523
 21
190.8964512637
 31
0.0
  0
LINE
  5
26E
100
AcDbEntity
  8
STAP_DN32
  6
CONTINUOUS
 62
         7
100
AcDbLine
 10
267.9218722159
 20
217.6856582209
 30
0.0
 11
256.5432413937
 21
217.6856582209
 31
0.0
  0
LINE
  5
26F
100
AcDbEntity
  8
STAP_DN32
  6
CONTINUOUS
 62
         7
100
AcDbLine
 10
267.9218722159
 20
171.9536213616
 30
0.0
 11
268.2338102346
 21
170.9925767557
 31
0.0
  0
ARC
  5
270
100
AcDbEntity
  8
STAP_DN32
  6
CONTINUOUS
 62
         7
100
AcDbCircle
 10
377.4307906952
 20
168.030432834
 30
0.0
 40
10.8184853821
100
AcDbArc
 50
338.7377372552
 51
21.2622627448
  0
LINE
  5
271
100
AcDbEntity
  8
STAP_DN32
  6
CONTINUOUS
 62
         7
100
AcDbLine
 10
387.5128647744
 20
164.1072443064
 30
0.0
 11
376.1342339523
 21
164.1072443064
 31
0.0
  0
LINE
  5
272
100
AcDbEntity
  8
STAP_DN32
  6
CONTINUOUS
 62
         7
100
AcDbLine
 10
257.9979072425
 20
164.1072443064
 30
0.0
 11
256.5432413937
 21
164.1072443064
 31
0.0
  0
LINE
  5
273
100
AcDbEntity
  8
STAP_DN32
  6
CONTINUOUS
 62
         7
100
AcDbLine
 10
267.9218722159
 20
171.9536213616
 30
0.0
 11
256.5432413937
 21
171.9536213616
 31
0.0
  0
LINE
  5
274
100
AcDbEntity
  8
STAP_DN32
  6
CONTINUOUS
 62
         7
100
AcDbLine
 10
387.5128647744
 20
171.9536213616
 30
0.0
 11
376.1342339523
 21
171.9536213616
 31
0.0
  0
ARC
  5
275
100
AcDbEntity
  8
STAP_DN32
  6
CONTINUOUS
 62
         7
100
AcDbCircle
 10
266.625315473
 20
168.030432834
 30
0.0
 40
10.8184853821
100
AcDbArc
 50
158.7377372552
 51
201.2622627448
  0
ARC
  5
276
100
AcDbEntity
  8
STAP_DN32
  6
CONTINUOUS
 62
         7
100
AcDbCircle
 10
316.9038250207
 20
181.4250363126
 30
0.0
 40
61.0991633082
100
AcDbArc
 50
171.0822121515
 51
188.9177878485
  0
ARC
  5
277
100
AcDbEntity
  8
STAP_DN32
  6
CONTINUOUS
 62
         7
100
AcDbCircle
 10
316.9038250207
 20
200.3678662147
 30
0.0
 40
61.0991633083
100
AcDbArc
 50
171.0822121515
 51
188.9177878485
  0
LINE
  5
278
100
AcDbEntity
  8
STAP_DN32
  6
CONTINUOUS
 62
         7
100
AcDbLine
 10
387.5128647744
 20
217.6856582209
 30
0.0
 11
376.1342339523
 21
217.6856582209
 31
0.0
  0
ARC
  5
279
100
AcDbEntity
  8
STAP_DN32
  6
CONTINUOUS
 62
         7
100
AcDbCircle
 10
386.2163080316
 20
213.7624696933
 30
0.0
 40
10.8184853821
100
AcDbArc
 50
158.7377372552
 51
201.2622627448
  0
LINE
  5
27A
100
AcDbEntity
  8
STAP_DN32
  6
CONTINUOUS
 62
         7
100
AcDbLine
 10
387.5128647744
 20
209.8392811657
 30
0.0
 11
376.1342339523
 21
209.8392811657
 31
0.0
  0
ARC
  5
27B
100
AcDbEntity
  8
STAP_DN32
  6
CONTINUOUS
 62
         7
100
AcDbCircle
 10
257.8397981366
 20
213.7624696933
 30
0.0
 40
10.8184853821
100
AcDbArc
 50
338.7377372552
 51
21.2622627448
  0
ARC
  5
27C
100
AcDbEntity
  8
STAP_DN32
  6
CONTINUOUS
 62
         7
100
AcDbCircle
 10
207.5612885889
 20
200.3678662147
 30
0.0
 40
61.0991633082
100
AcDbArc
 50
351.0822121515
 51
8.9177878485
  0
ARC
  5
27D
100
AcDbEntity
  8
STAP_DN32
  6
CONTINUOUS
 62
         7
100
AcDbCircle
 10
266.625315473
 20
213.7624696933
 30
0.0
 40
10.8184853821
100
AcDbArc
 50
158.7377372552
 51
201.2622627448
  0
ARC
  5
27E
100
AcDbEntity
  8
STAP_DN32
  6
CONTINUOUS
 62
         7
100
AcDbCircle
 10
207.5612885889
 20
181.4250363126
 30
0.0
 40
61.0991633082
100
AcDbArc
 50
351.0822121515
 51
8.9177878485
  0
ARC
  5
27F
100
AcDbEntity
  8
STAP_DN32
  6
CONTINUOUS
 62
         7
100
AcDbCircle
 10
282.3631036354
 20
78.7086583334
 30
0.0
 40
93.3592980446
100
AcDbArc
 50
98.2119755028
 51
98.7047740431
  0
LINE
  5
280
100
AcDbEntity
  8
STAP_DN32
  6
CONTINUOUS
 62
         7
100
AcDbLine
 10
349.6421975384
 20
169.9777788995
 30
0.0
 11
342.3899573501
 21
168.0345469977
 31
0.0
  0
LINE
  5
281
100
AcDbEntity
  8
STAP_DN32
  6
CONTINUOUS
 62
         7
100
AcDbLine
 10
346.2722430266
 20
153.5456596033
 30
0.0
 11
342.3899573501
 21
168.0345469977
 31
0.0
  0
ARC
  5
282
100
AcDbEntity
  8
STAP_DN32
  6
CONTINUOUS
 62
         7
100
AcDbCircle
 10
314.8767924838
 20
155.5180842843
 30
0.0
 40
18.971286655
100
AcDbArc
 50
54.7665329505
 51
109.878414681
  0
SPLINE
  5
283
100
AcDbEntity
  8
STAP_DN32
  6
CONTINUOUS
 62
         7
100
AcDbSpline
210
0.0
220
0.0
230
1.0
 70
         8
 71
         3
 72
        14
 73
        10
 74
         0
 42
0.0
 43
0.0
 40
0.4997860112065523
 40
0.4997860112065523
 40
0.4997860112065523
 40
0.4997860112065523
 40
0.5000000000000001
 40
0.5000000000000001
 40
0.6250000000000001
 40
0.6250000000000001
 40
0.7500000000000002
 40
0.7500000000000002
 40
1.0
 40
1.0
 40
1.0
 40
1.0
 10
345.94968909062146
 20
152.34187189720174
 30
0.0
 10
345.94968908648571
 20
152.34187190003561
 30
0.0
 10
345.94968854780342
 20
152.34187212832455
 30
0.0
 10
345.94906052790674
 20
152.34213764185151
 30
0.0
 10
345.76378290457319
 20
152.42028927725889
 30
0.0
 10
345.05861034769828
 20
152.71991028697619
 30
0.0
 10
344.5346024853992
 20
152.94320844617664
 30
0.0
 10
342.60234605197286
 20
153.77669527105664
 30
0.0
 10
340.7965418501712
 20
154.5683999874806
 30
0.0
 10
339.0024747243296
 20
155.3922897286885
 30
0.0
  0
LINE
  5
284
100
AcDbEntity
  8
STAP_DN32
  6
CONTINUOUS
 62
         7
100
AcDbLine
 10
277.0811025288
 20
170.4010249446
 30
0.0
 11
279.7280530841
 21
170.4010249446
 31
0.0
  0
ARC
  5
285
100
AcDbEntity
  8
STAP_DN32
  6
CONTINUOUS
 62
         7
100
AcDbCircle
 10
245.1407704347
 20
-224.1750613781
 30
0.0
 40
395.8667360514
100
AcDbArc
 50
81.0554698252
 51
85.3720848526
  0
LINE
  5
286
100
AcDbEntity
  8
STAP_DN32
  6
CONTINUOUS
 62
         7
100
AcDbLine
 10
325.8215083709
 20
171.0139841129
 30
0.0
 11
343.188295119
 21
171.0139841129
 31
0.0
  0
LINE
  5
287
100
AcDbEntity
  8
STAP_DN32
  6
CONTINUOUS
 62
         7
100
AcDbLine
 10
369.0255277671
 20
152.0055782984
 30
0.0
 11
360.879912517
 21
143.8599630482
 31
0.0
  0
LINE
  5
288
100
AcDbEntity
  8
STAP_DN32
  6
CONTINUOUS
 62
         7
100
AcDbLine
 10
359.4795862211
 20
135.3885689405
 30
0.0
 11
375.0359354072
 21
150.9449181266
 31
0.0
  0
LINE
  5
289
100
AcDbEntity
  8
STAP_DN32
  6
CONTINUOUS
 62
         7
100
AcDbLine
 10
373.9752752355
 20
152.0055782984
 30
0.0
 11
359.2716388812
 21
137.3019419441
 31
0.0
  0
ARC
  5
28A
100
AcDbEntity
  8
STAP_DN32
  6
CONTINUOUS
 62
         7
100
AcDbCircle
 10
332.7714644709
 20
76.5068586236
 30
0.0
 40
94.9812327329
100
AcDbArc
 50
78.6987795238
 51
79.7687358119
  0
LINE
  5
28B
100
AcDbEntity
  8
STAP_DN32
  6
CONTINUOUS
 62
         7
100
AcDbLine
 10
360.879912517
 20
143.8599630482
 30
0.0
 11
361.1527947232
 21
145.1649109306
 31
0.0
  0
LINE
  5
28C
100
AcDbEntity
  8
STAP_DN32
  6
CONTINUOUS
 62
         7
100
AcDbLine
 10
384.5818769532
 20
117.3573460203
 30
0.0
 11
393.0671583275
 21
125.8426273945
 31
0.0
  0
LINE
  5
28D
100
AcDbEntity
  8
STAP_DN32
  6
CONTINUOUS
 62
         7
100
AcDbLine
 10
386.0668011938
 20
114.5996295736
 30
0.0
 11
395.8248747741
 21
124.357703154
 31
0.0
  0
LINE
  5
28E
100
AcDbEntity
  8
STAP_DN32
  6
CONTINUOUS
 62
         7
100
AcDbLine
 10
381.0731395176
 20
115.9699289282
 30
0.0
 11
394.4545754196
 21
129.3513648302
 31
0.0
  0
LINE
  5
28F
100
AcDbEntity
  8
STAP_DN32
  6
CONTINUOUS
 62
         7
100
AcDbLine
 10
376.4769454399
 20
120.5661230059
 30
0.0
 11
389.8583813419
 21
133.9475589079
 31
0.0
  0
LINE
  5
290
100
AcDbEntity
  8
STAP_DN32
  6
CONTINUOUS
 62
         7
100
AcDbLine
 10
370.4750966686
 20
124.4637691712
 30
0.0
 11
385.9607351766
 21
139.9494076792
 31
0.0
  0
LINE
  5
291
100
AcDbEntity
  8
STAP_DN32
  6
CONTINUOUS
 62
         7
100
AcDbLine
 10
251.8047384944
 20
150.6532821416
 30
0.0
 11
250.3035880328
 21
145.0509123491
 31
0.0
  0
LINE
  5
292
100
AcDbEntity
  8
STAP_DN32
  6
CONTINUOUS
 62
         7
100
AcDbLine
 10
386.773907975
 20
113.8925227924
 30
0.0
 11
396.5319815553
 21
123.6505963728
 31
0.0
  0
LINE
  5
293
100
AcDbEntity
  8
STAP_DN32
  6
CONTINUOUS
 62
         7
100
AcDbLine
 10
388.5416749279
 20
113.3975480456
 30
0.0
 11
397.0269563022
 21
121.8828294198
 31
0.0
  0
LINE
  5
294
100
AcDbEntity
  8
STAP_DN32
  6
CONTINUOUS
 62
         7
100
AcDbLine
 10
392.4307622245
 20
108.2356685429
 30
0.0
 11
402.1888358049
 21
117.9937421233
 31
0.0
  0
LINE
  5
295
100
AcDbEntity
  8
STAP_DN32
  6
CONTINUOUS
 62
         7
100
AcDbLine
 10
388.5416749279
 20
112.1247558395
 30
0.0
 11
398.2997485083
 21
121.8828294198
 31
0.0
  0
LINE
  5
296
100
AcDbEntity
  8
STAP_DN32
  6
CONTINUOUS
 62
         7
100
AcDbLine
 10
375.0280530841
 20
214.6464512637
 30
0.0
 11
364.3280530841
 21
214.6464512637
 31
0.0
  0
LINE
  5
297
100
AcDbEntity
  8
STAP_DN32
  6
CONTINUOUS
 62
         7
100
AcDbLine
 10
359.9979260652
 20
169.6464512637
 30
0.0
 11
364.3280530841
 21
167.1464512637
 31
0.0
  0
LINE
  5
298
100
AcDbEntity
  8
STAP_DN32
  6
CONTINUOUS
 62
         7
100
AcDbLine
 10
388.5280530841
 20
214.8964512637
 30
0.0
 11
387.5128647744
 21
217.6856582209
 31
0.0
  0
LINE
  5
299
100
AcDbEntity
  8
STAP_DN32
  6
CONTINUOUS
 62
         7
100
AcDbLine
 10
254.8666006729
 20
152.4210490946
 30
0.0
 11
251.8047384944
 21
150.6532821416
 31
0.0
  0
LINE
  5
29A
100
AcDbEntity
  8
STAP_DN32
  6
CONTINUOUS
 62
         7
100
AcDbLine
 10
373.9752752355
 20
152.0055782984
 30
0.0
 11
369.0255277671
 21
152.0055782984
 31
0.0
  0
LINE
  5
29B
100
AcDbEntity
  8
STAP_DN32
  6
CONTINUOUS
 62
         7
100
AcDbLine
 10
348.8345978188
 20
150.9966168655
 30
0.0
 11
345.935638975
 21
152.3484235751
 31
0.0
  0
LINE
  5
29C
100
AcDbEntity
  8
STAP_DN32
  6
CONTINUOUS
 62
         7
100
AcDbLine
 10
345.9502401367
 20
152.3439284579
 30
0.0
 11
346.2722430266
 21
153.5456596033
 31
0.0
  0
LINE
  5
29D
100
AcDbEntity
  8
STAP_DN32
  6
CONTINUOUS
 62
         7
100
AcDbLine
 10
279.7280530841
 20
214.6464512637
 30
0.0
 11
269.0280530841
 21
214.6464512637
 31
0.0
  0
LINE
  5
29E
100
AcDbEntity
  8
STAP_DN32
  6
CONTINUOUS
 62
         7
100
AcDbLine
 10
356.5554289246
 20
116.5808173878
 30
0.0
 11
358.0565793862
 21
122.1831871803
 31
0.0
  0
LINE
  5
29F
100
AcDbEntity
  8
STAP_DN32
  6
CONTINUOUS
 62
         7
100
AcDbLine
 10
364.3280530841
 20
167.1464512637
 30
0.0
 11
375.0280530841
 21
167.1464512637
 31
0.0
  0
LINE
  5
2A0
100
AcDbEntity
  8
STAP_DN32
  6
CONTINUOUS
 62
         7
100
AcDbLine
 10
364.3280530841
 20
214.6464512637
 30
0.0
 11
359.9979260652
 21
212.1464512637
 31
0.0
  0
LINE
  5
2A1
100
AcDbEntity
  8
STAP_DN32
  6
CONTINUOUS
 62
         7
100
AcDbLine
 10
387.5128647744
 20
164.1072443064
 30
0.0
 11
388.5280530841
 21
166.8964512637
 31
0.0
  0
LINE
  5
2A2
100
AcDbEntity
  8
STAP_DN32
  6
CONTINUOUS
 62
         7
100
AcDbLine
 10
358.0565793862
 20
122.1831871803
 30
0.0
 11
356.2888124332
 21
125.2450493588
 31
0.0
  0
LINE
  5
2A3
100
AcDbEntity
  8
STAP_DN32
  6
CONTINUOUS
 62
         7
100
AcDbLine
 10
359.9979260652
 20
212.1464512637
 30
0.0
 11
284.058180103
 21
212.1464512637
 31
0.0
  0
LINE
  5
2A4
100
AcDbEntity
  8
STAP_DN32
  6
CONTINUOUS
 62
         7
100
AcDbLine
 10
351.3846548019
 20
169.6464512637
 30
0.0
 11
359.9979260652
 21
169.6464512637
 31
0.0
  0
LINE
  5
2A5
100
AcDbEntity
  8
STAP_DN32
  6
CONTINUOUS
 62
         7
100
AcDbLine
 10
295.2948609189
 20
194.8964512637
 30
0.0
 11
293.3552103101
 21
194.8964512637
 31
0.0
  0
LINE
  5
2A6
100
AcDbEntity
  8
STAP_DN32
  6
CONTINUOUS
 62
         7
100
AcDbLine
 10
295.2948609189
 20
192.0928514754
 30
0.0
 11
295.2948609189
 21
194.8964512637
 31
0.0
  0
LINE
  5
2A7
100
AcDbEntity
  8
STAP_DN32
  6
CONTINUOUS
 62
         7
100
AcDbLine
 10
349.6780661834
 20
186.8964512637
 30
0.0
 11
345.7126483159
 21
186.8964512637
 31
0.0
  0
LINE
  5
2A8
100
AcDbEntity
  8
STAP_DN32
  6
CONTINUOUS
 62
         7
100
AcDbLine
 10
350.3047363432
 20
188.9608997834
 30
0.0
 11
349.6780661834
 21
186.8964512637
 31
0.0
  0
LINE
  5
2A9
100
AcDbEntity
  8
STAP_DN32
  6
CONTINUOUS
 62
         7
100
AcDbLine
 10
348.7433006607
 20
188.9608997834
 30
0.0
 11
350.3047363432
 21
188.9608997834
 31
0.0
  0
LINE
  5
2AA
100
AcDbEntity
  8
STAP_DN32
  6
CONTINUOUS
 62
         7
100
AcDbLine
 10
349.6780661834
 20
192.9137423299
 30
0.0
 11
348.7433006607
 21
188.9608997834
 31
0.0
  0
LINE
  5
2AB
100
AcDbEntity
  8
STAP_DN32
  6
CONTINUOUS
 62
         7
100
AcDbLine
 10
351.1158445433
 20
186.8964512637
 30
0.0
 11
349.6780661834
 21
192.9137423299
 31
0.0
  0
LINE
  5
2AC
100
AcDbEntity
  8
STAP_DN32
  6
CONTINUOUS
 62
         7
100
AcDbLine
 10
353.641388164
 20
186.8964512637
 30
0.0
 11
351.1158445433
 21
186.8964512637
 31
0.0
  0
LINE
  5
2AD
100
AcDbEntity
  8
STAP_DN32
  6
CONTINUOUS
 62
         7
100
AcDbLine
 10
351.2688442814
 20
194.8964512637
 30
0.0
 11
353.641388164
 21
186.8964512636
 31
0.0
  0
LINE
  5
2AE
100
AcDbEntity
  8
STAP_DN32
  6
CONTINUOUS
 62
         7
100
AcDbLine
 10
345.7126483159
 20
186.8964512637
 30
0.0
 11
348.0851921986
 21
194.8964512637
 31
0.0
  0
LINE
  5
2AF
100
AcDbEntity
  8
STAP_DN32
  6
CONTINUOUS
 62
         7
100
AcDbLine
 10
345.4674295578
 20
186.8964512637
 30
0.0
 11
345.4674295578
 21
192.6873865532
 31
0.0
  0
LINE
  5
2B0
100
AcDbEntity
  8
STAP_DN32
  6
CONTINUOUS
 62
         7
100
AcDbLine
 10
345.4674295578
 20
192.6873865532
 30
0.0
 11
346.760591727
 21
192.6873865532
 31
0.0
  0
LINE
  5
2B1
100
AcDbEntity
  8
STAP_DN32
  6
CONTINUOUS
 62
         7
100
AcDbLine
 10
346.760591727
 20
192.6873865532
 30
0.0
 11
347.4187001891
 21
194.8964512637
 31
0.0
  0
LINE
  5
2B2
100
AcDbEntity
  8
STAP_DN32
  6
CONTINUOUS
 62
         7
100
AcDbLine
 10
347.4187001891
 20
194.8964512637
 30
0.0
 11
341.9756821121
 21
194.8964512637
 31
0.0
  0
LINE
  5
2B3
100
AcDbEntity
  8
STAP_DN32
  6
CONTINUOUS
 62
         7
100
AcDbLine
 10
341.9756821121
 20
194.8964512637
 30
0.0
 11
341.3280530841
 21
192.6873865532
 31
0.0
  0
LINE
  5
2B4
100
AcDbEntity
  8
STAP_DN32
  6
CONTINUOUS
 62
         7
100
AcDbLine
 10
348.0851921986
 20
194.8964512637
 30
0.0
 11
351.2688442814
 21
194.8964512637
 31
0.0
  0
LINE
  5
2B5
100
AcDbEntity
  8
STAP_DN32
  6
CONTINUOUS
 62
         7
100
AcDbLine
 10
343.084406241
 20
192.6873865532
 30
0.0
 11
343.084406241
 21
186.8964512637
 31
0.0
  0
LINE
  5
2B6
100
AcDbEntity
  8
STAP_DN32
  6
CONTINUOUS
 62
         7
100
AcDbLine
 10
341.3280530841
 20
192.6873865532
 30
0.0
 11
343.084406241
 21
192.6873865532
 31
0.0
  0
LINE
  5
2B7
100
AcDbEntity
  8
STAP_DN32
  6
CONTINUOUS
 62
         7
100
AcDbLine
 10
346.2722430266
 20
153.5456596033
 30
0.0
 11
348.8096545072
 21
151.0082481227
 31
0.0
  0
LINE
  5
2B8
100
AcDbEntity
  8
STAP_DN32
  6
CONTINUOUS
 62
         7
100
AcDbLine
 10
343.084406241
 20
186.8964512637
 30
0.0
 11
345.4674295578
 21
186.8964512637
 31
0.0
  0
LINE
  5
2B9
100
AcDbEntity
  8
STAP_DN32
  6
CONTINUOUS
 62
         7
100
AcDbLine
 10
369.0255277671
 20
152.0055782984
 30
0.0
 11
351.3846548019
 21
169.6464512637
 31
0.0
  0
LINE
  5
2BA
100
AcDbEntity
  8
STAP_DN32
  6
CONTINUOUS
 62
         7
100
AcDbLine
 10
263.1332839324
 20
171.4291596895
 30
0.0
 11
268.2338102346
 21
170.9925767557
 31
0.0
  0
LINE
  5
2BB
100
AcDbEntity
  8
STAP_DN32
  6
CONTINUOUS
 62
         7
100
AcDbLine
 10
361.1527947232
 20
145.1649109306
 30
0.0
 11
263.1332839324
 21
171.4291596895
 31
0.0
  0
LINE
  5
2BC
100
AcDbEntity
  8
STAP_DN32
  6
CONTINUOUS
 62
         7
100
AcDbLine
 10
253.5950353753
 20
128.7433566037
 30
0.0
 11
255.1405166974
 21
128.3292461315
 31
0.0
  0
LINE
  5
2BD
100
AcDbEntity
  8
STAP_DN32
  6
CONTINUOUS
 62
         7
100
AcDbLine
 10
286.2401895354
 20
23.1977910413
 30
0.0
 11
289.0871990315
 21
33.8229751305
 31
0.0
  0
LINE
  5
2BE
100
AcDbEntity
  8
STAP_DN32
  6
CONTINUOUS
 62
         7
100
AcDbLine
 10
257.1334233447
 20
135.7668749939
 30
0.0
 11
255.5879420226
 21
136.1809854661
 31
0.0
  0
LINE
  5
2BF
100
AcDbEntity
  8
STAP_DN32
  6
CONTINUOUS
 62
         7
100
AcDbLine
 10
287.3968288355
 20
34.2759084595
 30
0.0
 11
290.4379526154
 21
45.6255369183
 31
0.0
  0
LINE
  5
2C0
100
AcDbEntity
  8
STAP_DN32
  6
CONTINUOUS
 62
         7
100
AcDbLine
 10
246.2635317972
 20
60.4265577197
 30
0.0
 11
245.522401693
 21
57.6606225156
 31
0.0
  0
LINE
  5
2C1
100
AcDbEntity
  8
STAP_DN32
  6
CONTINUOUS
 62
         7
100
AcDbLine
 10
267.4016572548
 20
139.3151159041
 30
0.0
 11
266.1879728592
 21
134.7855840755
 31
0.0
  0
LINE
  5
2C2
100
AcDbEntity
  8
STAP_DN32
  6
CONTINUOUS
 62
         7
100
AcDbLine
 10
338.8801684002
 20
120.1625065665
 30
0.0
 11
340.4523465882
 21
120.8956252955
 31
0.0
  0
LINE
  5
2C3
100
AcDbEntity
  8
STAP_DN32
  6
CONTINUOUS
 62
         7
100
AcDbLine
 10
251.2253783324
 20
32.5799814263
 30
0.0
 11
248.9672899218
 21
24.1526807501
 31
0.0
  0
LINE
  5
2C4
100
AcDbEntity
  8
STAP_DN32
  6
CONTINUOUS
 62
         7
100
AcDbLine
 10
297.2635812363
 20
11.211728495
 30
0.0
 11
299.5216696468
 21
19.6390291712
 31
0.0
  0
LINE
  5
2C5
100
AcDbEntity
  8
STAP_DN32
  6
CONTINUOUS
 62
         7
100
AcDbLine
 10
267.35386794
 20
39.6464036453
 30
0.0
 11
264.5068584438
 21
29.0212195562
 31
0.0
  0
ARC
  5
2C6
100
AcDbEntity
  8
STAP_DN32
  6
CONTINUOUS
 62
         7
100
AcDbCircle
 10
298.1754818631
 20
111.2075705948
 30
0.0
 40
100.0
100
AcDbArc
 50
240.5224878141
 51
269.4775121859
  0
LINE
  5
2C7
100
AcDbEntity
  8
STAP_DN32
  6
CONTINUOUS
 62
         7
100
AcDbLine
 10
272.0853619159
 20
50.5430987753
 30
0.0
 11
269.044238136
 21
39.1934703164
 31
0.0
  0
LINE
  5
2C8
100
AcDbEntity
  8
STAP_DN32
  6
CONTINUOUS
 62
         7
100
AcDbLine
 10
266.4066703692
 20
140.7361044414
 30
0.0
 11
267.4016572548
 21
139.3151159041
 31
0.0
  0
LINE
  5
2C9
100
AcDbEntity
  8
STAP_DN32
  6
CONTINUOUS
 62
         7
100
AcDbLine
 10
317.0009128384
 20
38.508013178
 30
0.0
 11
338.8801684002
 21
120.1625065665
 31
0.0
  0
LINE
  5
2CA
100
AcDbEntity
  8
STAP_DN32
  6
CONTINUOUS
 62
         7
100
AcDbLine
 10
263.4715024708
 20
124.6475785688
 30
0.0
 11
249.2329591645
 21
71.5086115237
 31
0.0
  0
SPLINE
  5
2CB
100
AcDbEntity
  8
STAP_DN32
  6
CONTINUOUS
 62
         7
100
AcDbSpline
210
0.0
220
0.0
230
1.0
 70
         8
 71
         3
 72
        12
 73
         8
 74
         0
 42
0.0
 43
0.0
 40
0.0
 40
0.0
 40
0.0
 40
0.0
 40
0.2499999999999994
 40
0.2499999999999994
 40
0.4999999999999989
 40
0.4999999999999989
 40
0.500470706158732
 40
0.500470706158732
 40
0.500470706158732
 40
0.500470706158732
 10
249.16606575517642
 20
70.914623721705809
 30
0.0
 10
249.1908174489202
 20
71.114364616295163
 30
0.0
 10
249.20797011532244
 20
71.264696378224784
 30
0.0
 10
249.23085042145777
 20
71.468865893442441
 30
0.0
 10
249.2364393228452
 20
71.521513114773555
 30
0.0
 10
249.23645498647241
 20
71.521658088313572
 30
0.0
 10
249.23645499646864
 20
71.521658179997672
 30
0.0
 10
249.23645498702217
 20
71.521658090915537
 30
0.0
  0
LINE
  5
2CC
100
AcDbEntity
  8
STAP_DN32
  6
CONTINUOUS
 62
         7
100
AcDbLine
 10
271.3603034897
 20
134.7796003977
 30
0.0
 11
268.3117895191
 21
123.4023913721
 31
0.0
  0
ARC
  5
2CD
100
AcDbEntity
  8
STAP_DN32
  6
CONTINUOUS
 62
         7
100
AcDbCircle
 10
1701.0580023786
 20
118.0830396204
 30
0.0
 40
1432.3460904048
100
AcDbArc
 50
180.5477999213
 51
182.3161726296
  0
ARC
  5
2CE
100
AcDbEntity
  8
STAP_DN32
  6
CONTINUOUS
 62
         7
100
AcDbCircle
 10
-913.3123313592
 20
818.599278594
 30
0.0
 40
1432.3386450758
100
AcDbArc
 50
327.683822774
 51
329.4522046751
  0
ARC
  5
2CF
100
AcDbEntity
  8
STAP_DN32
  6
CONTINUOUS
 62
         7
100
AcDbCircle
 10
252.8900633869
 20
132.9180665732
 30
0.0
 40
13.2662003161
100
AcDbArc
 50
324.8041273259
 51
5.1958726741
  0
LINE
  5
2D0
100
AcDbEntity
  8
STAP_DN32
  6
CONTINUOUS
 62
         7
100
AcDbLine
 10
303.0280530841
 20
189.7000510519
 30
0.0
 11
303.0280530841
 21
192.0928514754
 31
0.0
  0
LINE
  5
2D1
100
AcDbEntity
  8
STAP_DN32
  6
CONTINUOUS
 62
         7
100
AcDbLine
 10
295.2948609189
 20
186.8964512637
 30
0.0
 11
295.2948609189
 21
189.7000510519
 31
0.0
  0
LINE
  5
2D2
100
AcDbEntity
  8
STAP_DN32
  6
CONTINUOUS
 62
         7
100
AcDbLine
 10
295.2948609189
 20
189.7000510519
 30
0.0
 11
303.0280530841
 21
189.7000510519
 31
0.0
  0
LINE
  5
2D3
100
AcDbEntity
  8
STAP_DN32
  6
CONTINUOUS
 62
         7
100
AcDbLine
 10
293.3552103101
 20
194.8964512637
 30
0.0
 11
289.3552103101
 21
190.8964512637
 31
0.0
  0
LINE
  5
2D4
100
AcDbEntity
  8
STAP_DN32
  6
CONTINUOUS
 62
         7
100
AcDbLine
 10
289.3552103101
 20
190.8964512637
 30
0.0
 11
293.3552103101
 21
186.8964512637
 31
0.0
  0
LINE
  5
2D5
100
AcDbEntity
  8
STAP_DN32
  6
CONTINUOUS
 62
         7
100
AcDbLine
 10
293.3552103101
 20
186.8964512637
 30
0.0
 11
295.2948609189
 21
186.8964512637
 31
0.0
  0
LINE
  5
2D6
100
AcDbEntity
  8
STAP_DN32
  6
CONTINUOUS
 62
         7
100
AcDbLine
 10
303.0280530841
 20
192.0928514754
 30
0.0
 11
295.2948609189
 21
192.0928514754
 31
0.0
  0
LINE
  5
2D7
100
AcDbEntity
  8
STAP_DN32
  6
CONTINUOUS
 62
         7
100
AcDbLine
 10
267.6163523105
 20
51.7405662901
 30
0.0
 11
255.5375669887
 21
54.9770670626
 31
0.0
  0
LINE
  5
2D8
100
AcDbEntity
  8
STAP_DN32
  6
CONTINUOUS
 62
         7
100
AcDbLine
 10
338.8801684002
 20
120.1625065665
 30
0.0
 11
338.7940838503
 21
120.1855728521
 31
0.0
  0
LINE
  5
2D9
100
AcDbEntity
  8
STAP_DN32
  6
CONTINUOUS
 62
         7
100
AcDbLine
 10
249.4651278032
 20
24.0192854919
 30
0.0
 11
248.9672899218
 21
24.1526807501
 31
0.0
  0
LINE
  5
2DA
100
AcDbEntity
  8
STAP_DN32
  6
CONTINUOUS
 62
         7
100
AcDbLine
 10
268.237333408
 20
18.9892881599
 30
0.0
 11
277.99353775
 21
16.3751210853
 31
0.0
  0
LINE
  5
2DB
100
AcDbEntity
  8
STAP_DN32
  6
CONTINUOUS
 62
         7
100
AcDbLine
 10
251.7232162138
 20
32.446586168
 30
0.0
 11
251.2253783324
 21
32.5799814263
 31
0.0
  0
LINE
  5
2DC
100
AcDbEntity
  8
STAP_DN32
  6
CONTINUOUS
 62
         7
100
AcDbLine
 10
270.4954218186
 20
27.4165888361
 30
0.0
 11
280.2516261606
 21
24.8024217614
 31
0.0
  0
LINE
  5
2DD
100
AcDbEntity
  8
STAP_DN32
  6
CONTINUOUS
 62
         7
100
AcDbLine
 10
249.375489237
 20
133.8597938784
 30
0.0
 11
248.3531540089
 21
130.0443868646
 31
0.0
  0
LINE
  5
2DE
100
AcDbEntity
  8
STAP_DN32
  6
CONTINUOUS
 62
         7
100
AcDbLine
 10
250.3978244652
 20
137.6752008923
 30
0.0
 11
249.375489237
 21
133.8597938784
 31
0.0
  0
LINE
  5
2DF
100
AcDbEntity
  8
STAP_DN32
  6
CONTINUOUS
 62
         7
100
AcDbLine
 10
284.058180103
 20
173.3589913564
 30
0.0
 11
308.4260752994
 21
173.3589913564
 31
0.0
  0
ARC
  5
2E0
100
AcDbEntity
  8
STAP_DN32
  6
CONTINUOUS
 62
         7
100
AcDbCircle
 10
327.1522811474
 20
181.4250363126
 30
0.0
 40
61.0991633082
100
AcDbArc
 50
351.0822121515
 51
8.9177878485
  0
ENDBLK
  5
2E1
100
AcDbEntity
  8
STAP_DN32
  6
CONTINUOUS
 62
         7
100
AcDbBlockEnd
  0
BLOCK
  5
369
100
AcDbEntity
  8
0
 62
         1
 48
0.0
100
AcDbBlockBegin
  2
SE6
 70
         0
 10
0.0
 20
0.0
 30
0.0
  3
SE6
  1

  0
ENDBLK
  5
36A
100
AcDbEntity
  8
0
 62
         1
 48
0.0
100
AcDbBlockEnd
  0
BLOCK
  5
2E4
100
AcDbEntity
  8
0
 62
         1
 48
0.0
100
AcDbBlockBegin
  2
SE7
 70
         0
 10
0.0
 20
0.0
 30
0.0
  3
SE7
  1

  0
LINE
  5
2E5
100
AcDbEntity
  8
STAP_DN32
  6
CONTINUOUS
 62
         7
100
AcDbLine
 10
387.4109253736
 20
300.2245773161
 30
0.0
 11
386.0299492649
 21
299.2837526269
 31
0.0
  0
LINE
  5
2E6
100
AcDbEntity
  8
STAP_DN32
  6
CONTINUOUS
 62
         7
100
AcDbLine
 10
386.0299492649
 20
317.2837526269
 30
0.0
 11
387.4109253736
 21
316.3429279376
 31
0.0
  0
ELLIPSE
  5
2E7
100
AcDbEntity
  8
STAP_DN32
  6
CONTINUOUS
 62
         7
100
AcDbEllipse
 10
379.1372000492
 20
308.2837526269
 30
0.0
 11
-0.0000000000001643
 21
36.99999999994084
 31
0.0
210
0.0
220
0.0
230
1.0
 40
0.2588190451
 41
4.6429677886145324
 42
4.7818101721549615
  0
ELLIPSE
  5
2E8
100
AcDbEntity
  8
STAP_DN32
  6
CONTINUOUS
 62
         7
100
AcDbEllipse
 10
387.1412646404
 20
310.4340814196
 30
0.0
 11
-0.0000000000000274
 21
6.0000000000000107
 31
0.0
210
0.0
220
0.0
230
1.0
 40
0.2588190451
 41
4.7818101721547999
 42
6.1086523819801819
  0
ELLIPSE
  5
2E9
100
AcDbEntity
  8
STAP_DN32
  6
CONTINUOUS
 62
         7
100
AcDbEllipse
 10
387.1412646404
 20
306.1334238342
 30
0.0
 11
-0.0000000000000004
 21
-6.0000000000000133
 31
0.0
210
0.0
220
0.0
230
1.0
 40
0.2588190451
 41
0.1745329251994613
 42
1.5013751350247946
  0
LINE
  5
2EA
100
AcDbEntity
  8
STAP_DN32
  6
CONTINUOUS
 62
         7
100
AcDbLine
 10
336.6183033792
 20
317.2837526269
 30
0.0
 11
386.0299492649
 21
317.2837526269
 31
0.0
  0
LINE
  5
2EB
100
AcDbEntity
  8
STAP_DN32
  6
CONTINUOUS
 62
         7
100
AcDbLine
 10
336.6183033792
 20
299.2837526269
 30
0.0
 11
386.0299492649
 21
299.2837526269
 31
0.0
  0
LINE
  5
2EC
100
AcDbEntity
  8
STAP_DN32
  6
CONTINUOUS
 62
         7
100
AcDbLine
 10
320.3847688855
 20
300.2308819714
 30
0.0
 11
310.4872912791
 21
300.2308819714
 31
0.0
  0
LINE
  5
2ED
100
AcDbEntity
  8
STAP_DN32
  6
CONTINUOUS
 62
         7
100
AcDbLine
 10
320.4929740589
 20
300.2245773161
 30
0.0
 11
320.3847688855
 21
300.2308819714
 31
0.0
  0
ELLIPSE
  5
2EE
100
AcDbEntity
  8
STAP_DN32
  6
CONTINUOUS
 62
         7
100
AcDbEllipse
 10
401.1120125972
 20
308.2837526269
 30
0.0
 11
-0.0000000000000822
 21
17.500000000000274
 31
0.0
210
0.0
220
0.0
230
1.0
 40
0.2588190451
 41
5.1239058264521873
 42
5.8716684611120993
  0
LINE
  5
2EF
100
AcDbEntity
  8
STAP_DN32
  6
CONTINUOUS
 62
         7
100
AcDbLine
 10
405.2632151264
 20
315.2837526269
 30
0.0
 11
407.4490934665
 21
313.3339356101
 31
0.0
  0
ELLIPSE
  5
2F0
100
AcDbEntity
  8
STAP_DN32
  6
CONTINUOUS
 62
         7
100
AcDbEllipse
 10
318.6438852222
 20
310.6296735415
 30
0.0
 11
66.203273988939657
 21
-74.218401720385174
 31
0.0
210
0.0
220
0.0
230
1.0
 40
0.9411692099
 41
1.0141906153315321
 42
1.102904157461432
  0
LINE
  5
2F1
100
AcDbEntity
  8
STAP_DN32
  6
CONTINUOUS
 62
         7
100
AcDbLine
 10
402.4190961345
 20
332.7683529266
 30
0.0
 11
410.8463968107
 21
332.7683529266
 31
0.0
  0
ELLIPSE
  5
2F2
100
AcDbEntity
  8
STAP_DN32
  6
CONTINUOUS
 62
         7
100
AcDbEllipse
 10
411.1159550558
 20
308.2837526269
 30
0.0
 11
0.0000000000001954
 21
17.500000000000391
 31
0.0
210
0.0
220
0.0
230
1.0
 40
0.2588190451
 41
5.1239058264521953
 42
5.8716684611121037
  0
LINE
  5
2F3
100
AcDbEntity
  8
STAP_DN32
  6
CONTINUOUS
 62
         7
100
AcDbLine
 10
412.9276883715
 20
324.3227675592
 30
0.0
 11
402.9237459129
 21
324.3227675592
 31
0.0
  0
LINE
  5
2F4
100
AcDbEntity
  8
STAP_DN32
  6
CONTINUOUS
 62
         7
100
AcDbLine
 10
415.267157585
 20
315.2837526269
 30
0.0
 11
405.2632151264
 21
315.2837526269
 31
0.0
  0
ELLIPSE
  5
2F5
100
AcDbEntity
  8
STAP_DN32
  6
CONTINUOUS
 62
         7
100
AcDbEllipse
 10
316.6211163107
 20
318.4450524736
 30
0.0
 11
99.277662531396018
 21
-5.9321465851408526
 31
0.0
210
0.0
220
0.0
230
1.0
 40
0.217286033
 41
0.0378724497680863
 42
0.1265859918983141
  0
LINE
  5
2F6
100
AcDbEntity
  8
STAP_DN32
  6
CONTINUOUS
 62
         7
100
AcDbLine
 10
415.8763941427
 20
313.3339356101
 30
0.0
 11
407.4490934665
 21
313.3339356101
 31
0.0
  0
ELLIPSE
  5
2F7
100
AcDbEntity
  8
STAP_DN32
  6
CONTINUOUS
 62
         7
100
AcDbEllipse
 10
401.1120125972
 20
308.2837526269
 30
0.0
 11
0.0000000000001121
 21
17.499999999999481
 31
0.0
210
0.0
220
0.0
230
1.0
 40
0.2588190451
 41
0.4115168460674972
 42
0.8725738534323559
  0
LINE
  5
2F8
100
AcDbEntity
  8
STAP_DN32
  6
CONTINUOUS
 62
         7
100
AcDbLine
 10
399.3002792815
 20
324.3227675592
 30
0.0
 11
399.8049290599
 21
332.7683529266
 31
0.0
  0
ELLIPSE
  5
2F9
100
AcDbEntity
  8
STAP_DN32
  6
CONTINUOUS
 62
         7
100
AcDbEllipse
 10
401.1120125972
 20
308.2837526269
 30
0.0
 11
-0.0000000000000011
 21
-17.5
 31
0.0
210
0.0
220
0.0
230
1.0
 40
0.2588190451
 41
5.4106114537472498
 42
5.8716684611121037
  0
ELLIPSE
  5
2FA
100
AcDbEntity
  8
STAP_DN32
  6
CONTINUOUS
 62
         7
100
AcDbEllipse
 10
318.6438852222
 20
305.9378317122
 30
0.0
 11
66.203273989342875
 21
74.218401720095116
 31
0.0
210
0.0
220
0.0
230
1.0
 40
0.9411692099
 41
5.180281149723144
 42
5.2689946918530257
  0
LINE
  5
2FB
100
AcDbEntity
  8
STAP_DN32
  6
CONTINUOUS
 62
         7
100
AcDbLine
 10
410.8463968107
 20
283.7991523272
 30
0.0
 11
402.4190961345
 21
283.7991523272
 31
0.0
  0
ELLIPSE
  5
2FC
100
AcDbEntity
  8
STAP_DN32
  6
CONTINUOUS
 62
         7
100
AcDbEllipse
 10
411.1159550558
 20
308.2837526269
 30
0.0
 11
0.0000000000000267
 21
-17.500000000000085
 31
0.0
210
0.0
220
0.0
230
1.0
 40
0.2588190451
 41
0.4115168460674847
 42
1.1592794807274067
  0
LINE
  5
2FD
100
AcDbEntity
  8
STAP_DN32
  6
CONTINUOUS
 62
         7
100
AcDbLine
 10
412.9276883715
 20
292.2447376945
 30
0.0
 11
402.9237459129
 21
292.2447376945
 31
0.0
  0
LINE
  5
2FE
100
AcDbEntity
  8
STAP_DN32
  6
CONTINUOUS
 62
         7
100
AcDbLine
 10
415.267157585
 20
301.2837526269
 30
0.0
 11
405.2632151264
 21
301.2837526269
 31
0.0
  0
LINE
  5
2FF
100
AcDbEntity
  8
STAP_DN32
  6
CONTINUOUS
 62
         7
100
AcDbLine
 10
402.9237459129
 20
292.2447376945
 30
0.0
 11
402.4190961345
 21
283.7991523272
 31
0.0
  0
ELLIPSE
  5
300
100
AcDbEntity
  8
STAP_DN32
  6
CONTINUOUS
 62
         7
100
AcDbEllipse
 10
401.1120125972
 20
308.2837526269
 30
0.0
 11
-0.0000000000000566
 21
-17.499999999999751
 31
0.0
210
0.0
220
0.0
230
1.0
 40
0.2588190451
 41
0.4115168460674914
 42
1.1592794807274174
  0
ELLIPSE
  5
301
100
AcDbEntity
  8
STAP_DN32
  6
CONTINUOUS
 62
         7
100
AcDbEllipse
 10
316.6211163096
 20
298.1224527801
 30
0.0
 11
99.277662532459829
 21
5.9321465851875557
 31
0.0
210
0.0
220
0.0
230
1.0
 40
0.217286033
 41
6.1565993152819924
 42
6.2453128574117232
  0
LINE
  5
302
100
AcDbEntity
  8
STAP_DN32
  6
CONTINUOUS
 62
         7
100
AcDbLine
 10
407.4490934665
 20
303.2335696436
 30
0.0
 11
415.8763941427
 21
303.2335696436
 31
0.0
  0
ELLIPSE
  5
303
100
AcDbEntity
  8
STAP_DN32
  6
CONTINUOUS
 62
         7
100
AcDbEllipse
 10
390.486828508
 20
308.2837526269
 30
0.0
 11
-0.0000000000000007
 21
-11.249999999999989
 31
0.0
210
0.0
220
0.0
230
1.0
 40
0.2588190451
 41
0.0000000000000002
 42
3.7068618376087903
  0
ELLIPSE
  5
304
100
AcDbEntity
  8
STAP_DN32
  6
CONTINUOUS
 62
         7
100
AcDbEllipse
 10
390.486828508
 20
308.2837526269
 30
0.0
 11
-0.0000000000000007
 21
-11.249999999999989
 31
0.0
210
0.0
220
0.0
230
1.0
 40
0.2588190451
 41
5.7179161231605891
 42
6.2831853071795862
  0
ELLIPSE
  5
305
100
AcDbEntity
  8
STAP_DN32
  6
CONTINUOUS
 62
         7
100
AcDbEllipse
 10
390.486828508
 20
308.2837526269
 30
0.0
 11
-0.0000000000000006
 21
-9.4999999999999964
 31
0.0
210
0.0
220
0.0
230
1.0
 40
0.2588190451
 41
0.0000000000000002
 42
3.1415926535897931
  0
ELLIPSE
  5
306
100
AcDbEntity
  8
STAP_DN32
  6
CONTINUOUS
 62
         7
100
AcDbEllipse
 10
379.1372000491
 20
308.2837526269
 30
0.0
 11
0.000000000000001
 21
16.749999999989036
 31
0.0
210
0.0
220
0.0
230
1.0
 40
0.2588190451
 41
3.1415926535898064
 42
4.1451405818553386
  0
ELLIPSE
  5
307
100
AcDbEntity
  8
STAP_DN32
  6
CONTINUOUS
 62
         7
100
AcDbEllipse
 10
401.1120125972
 20
308.2837526269
 30
0.0
 11
-0.0000000000000007
 21
-11.249999999999989
 31
0.0
210
0.0
220
0.0
230
1.0
 40
0.2588190451
 41
0.0000000000000002
 42
3.1415926535897931
  0
ELLIPSE
  5
308
100
AcDbEntity
  8
STAP_DN32
  6
CONTINUOUS
 62
         7
100
AcDbEllipse
 10
401.1120125972
 20
308.2837526269
 30
0.0
 11
-0.0000000000000015
 21
-25.000000000002586
 31
0.0
210
0.0
220
0.0
230
1.0
 40
0.2588190451
 41
1.3673892643019427
 42
1.7742033892878484
  0
ELLIPSE
  5
309
100
AcDbEntity
  8
STAP_DN32
  6
CONTINUOUS
 62
         7
100
AcDbEllipse
 10
370.6813169306
 20
308.2837526269
 30
0.0
 11
-0.0000000000000267
 21
16.749999999989033
 31
0.0
210
0.0
220
0.0
230
1.0
 40
0.2588190451
 41
3.2134512495497152
 42
4.1451405818553386
  0
ELLIPSE
  5
30A
100
AcDbEntity
  8
STAP_DN32
  6
CONTINUOUS
 62
         7
100
AcDbEllipse
 10
312.1019477047
 20
308.2837526269
 30
0.0
 11
0.0000000000000159
 21
32.999999999999723
 31
0.0
210
0.0
220
0.0
230
1.0
 40
0.2588190451
 41
3.1415926535897931
 42
4.4658733827301873
  0
ELLIPSE
  5
30B
100
AcDbEntity
  8
STAP_DN32
  6
CONTINUOUS
 62
         7
100
AcDbEllipse
 10
409.5393132734
 20
308.2837526269
 30
0.0
 11
0.0000000000000817
 21
-25.000000000002917
 31
0.0
210
0.0
220
0.0
230
1.0
 40
0.2588190451
 41
1.3673892643019445
 42
1.7742033892878448
  0
LINE
  5
30C
100
AcDbEntity
  8
STAP_DN32
  6
CONTINUOUS
 62
         7
100
AcDbLine
 10
402.9237459129
 20
324.3227675592
 30
0.0
 11
402.4190961345
 21
332.7683529266
 31
0.0
  0
LINE
  5
30D
100
AcDbEntity
  8
STAP_DN32
  6
CONTINUOUS
 62
         7
100
AcDbLine
 10
399.3002792815
 20
292.2447376945
 30
0.0
 11
399.8049290599
 21
283.7991523272
 31
0.0
  0
LINE
  5
30E
100
AcDbEntity
  8
STAP_DN32
  6
CONTINUOUS
 62
         7
100
AcDbLine
 10
405.2632151264
 20
301.2837526269
 30
0.0
 11
407.4490934665
 21
303.2335696436
 31
0.0
  0
LINE
  5
30F
100
AcDbEntity
  8
STAP_DN32
  6
CONTINUOUS
 62
         7
100
AcDbLine
 10
336.6183033792
 20
299.2837526269
 30
0.0
 11
320.4929740589
 21
300.2245773161
 31
0.0
  0
LINE
  5
310
100
AcDbEntity
  8
STAP_DN32
  6
CONTINUOUS
 62
         7
100
AcDbLine
 10
310.2177252663
 20
301.3837526269
 30
0.0
 11
314.1068125629
 21
301.3837526269
 31
0.0
  0
LINE
  5
311
100
AcDbEntity
  8
STAP_DN32
  6
CONTINUOUS
 62
         7
100
AcDbLine
 10
300.6839733462
 20
317.7458566952
 30
0.0
 11
296.6607165091
 21
318.9835315989
 31
0.0
  0
LINE
  5
312
100
AcDbEntity
  8
STAP_DN32
  6
CONTINUOUS
 62
         7
100
AcDbLine
 10
304.5608710168
 20
302.2837526269
 30
0.0
 11
305.3334947716
 21
302.2837526269
 31
0.0
  0
LINE
  5
313
100
AcDbEntity
  8
STAP_DN32
  6
CONTINUOUS
 62
         7
100
AcDbLine
 10
299.9646769391
 20
298.8216485586
 30
0.0
 11
304.5608710168
 21
298.8216485586
 31
0.0
  0
LINE
  5
314
100
AcDbEntity
  8
STAP_DN32
  6
CONTINUOUS
 62
         7
100
AcDbLine
 10
307.7428515322
 20
301.3837526269
 30
0.0
 11
308.4499583134
 21
301.3837526269
 31
0.0
  0
LINE
  5
315
100
AcDbEntity
  8
STAP_DN32
  6
CONTINUOUS
 62
         7
100
AcDbLine
 10
268.5869892304
 20
255.7837526269
 30
0.0
 11
288.3884686693
 21
255.7837526269
 31
0.0
  0
LINE
  5
316
100
AcDbEntity
  8
STAP_DN32
  6
CONTINUOUS
 62
         7
100
AcDbLine
 10
282.9941141906
 20
297.2837526269
 30
0.0
 11
284.0547743624
 21
297.2837526269
 31
0.0
  0
LINE
  5
317
100
AcDbEntity
  8
STAP_DN32
  6
CONTINUOUS
 62
         7
100
AcDbLine
 10
284.0547743624
 20
297.3337526269
 30
0.0
 11
295.0149294708
 21
297.3337526269
 31
0.0
  0
LINE
  5
318
100
AcDbEntity
  8
STAP_DN32
  6
CONTINUOUS
 62
         7
100
AcDbLine
 10
314.1068125629
 20
315.1837526269
 30
0.0
 11
310.2177252663
 21
315.1837526269
 31
0.0
  0
LINE
  5
319
100
AcDbEntity
  8
STAP_DN32
  6
CONTINUOUS
 62
         7
100
AcDbLine
 10
296.6607165091
 20
297.5839736549
 30
0.0
 11
300.6839733462
 21
298.8216485586
 31
0.0
  0
LINE
  5
31A
100
AcDbEntity
  8
STAP_DN32
  6
CONTINUOUS
 62
         7
100
AcDbLine
 10
305.3334947716
 20
314.2837526269
 30
0.0
 11
304.5608710168
 21
314.2837526269
 31
0.0
  0
LINE
  5
31B
100
AcDbEntity
  8
STAP_DN32
  6
CONTINUOUS
 62
         7
100
AcDbLine
 10
304.5608710168
 20
317.7458566952
 30
0.0
 11
299.9646769391
 21
317.7458566952
 31
0.0
  0
LINE
  5
31C
100
AcDbEntity
  8
STAP_DN32
  6
CONTINUOUS
 62
         7
100
AcDbLine
 10
308.4499583134
 20
315.1837526269
 30
0.0
 11
307.7428515322
 21
315.1837526269
 31
0.0
  0
LINE
  5
31D
100
AcDbEntity
  8
STAP_DN32
  6
CONTINUOUS
 62
         7
100
AcDbLine
 10
288.3884686693
 20
360.7837526269
 30
0.0
 11
268.5869892304
 21
360.7837526269
 31
0.0
  0
LINE
  5
31E
100
AcDbEntity
  8
STAP_DN32
  6
CONTINUOUS
 62
         7
100
AcDbLine
 10
284.0547743624
 20
319.2837526269
 30
0.0
 11
282.9941141906
 21
319.2837526269
 31
0.0
  0
LINE
  5
31F
100
AcDbEntity
  8
STAP_DN32
  6
CONTINUOUS
 62
         7
100
AcDbLine
 10
295.0149294708
 20
319.2337526269
 30
0.0
 11
284.0547743624
 21
319.2337526269
 31
0.0
  0
SPLINE
  5
320
100
AcDbEntity
  8
STAP_DN32
  6
CONTINUOUS
 62
         7
100
AcDbSpline
210
0.0
220
0.0
230
1.0
 70
         8
 71
         3
 72
        20
 73
        16
 74
         0
 42
0.0
 43
0.0
 40
0.4961924908273884
 40
0.4961924908273884
 40
0.4961924908273884
 40
0.4961924908273884
 40
0.5000000000000013
 40
0.5000000000000013
 40
0.5625000000000011
 40
0.5625000000000011
 40
0.625000000000001
 40
0.625000000000001
 40
0.6875000000000008
 40
0.6875000000000008
 40
0.7500000000000007
 40
0.7500000000000007
 40
0.8750000000000003
 40
0.8750000000000003
 40
0.8891741419975788
 40
0.8891741419975788
 40
0.8891741419975788
 40
0.8891741419975788
 10
270.29407620035698
 20
314.73072295441898
 30
0.0
 10
270.29405931130719
 20
314.71802755904184
 30
0.0
 10
270.29439438189138
 20
314.70532158075571
 30
0.0
 10
270.30636880366092
 20
314.48398217561771
 30
0.0
 10
270.40777662979491
 20
314.27821642580676
 30
0.0
 10
270.80843684853465
 20
313.9645858494319
 30
0.0
 10
271.11510344831777
 20
313.86511755218413
 30
0.0
 10
271.88358746596373
 20
313.87651914996115
 30
0.0
 10
272.34263721238278
 20
313.9854973171287
 30
0.0
 10
273.3023812946883
 20
314.31237384493448
 30
0.0
 10
273.79329982876385
 20
314.52033020281812
 30
0.0
 10
275.29392067203764
 20
315.15105591140633
 30
0.0
 10
276.29707066822124
 20
315.54980706205782
 30
0.0
 10
277.15483119530285
 20
315.72312069979085
 30
0.0
 10
277.23814917581211
 20
315.73731391539002
 30
0.0
 10
277.3172198552229
 20
315.7483302737773
 30
0.0
  0
ELLIPSE
  5
321
100
AcDbEntity
  8
STAP_DN32
  6
CONTINUOUS
 62
         7
100
AcDbEllipse
 10
290.803283235
 20
308.2837526269
 30
0.0
 11
-0.0000000000000036
 21
54.999999999999964
 31
0.0
210
0.0
220
0.0
230
1.0
 40
0.2588190451
 41
0.0
 42
0.2712637537260201
  0
ELLIPSE
  5
322
100
AcDbEntity
  8
STAP_DN32
  6
CONTINUOUS
 62
         7
100
AcDbEllipse
 10
290.803283235
 20
308.2837526269
 30
0.0
 11
-0.0000000000000036
 21
54.999999999999964
 31
0.0
210
0.0
220
0.0
230
1.0
 40
0.2588190451
 41
2.8703288998637748
 42
4.5396281882745804
  0
ELLIPSE
  5
323
100
AcDbEntity
  8
STAP_DN32
  6
CONTINUOUS
 62
         7
100
AcDbEllipse
 10
290.803283235
 20
308.2837526269
 30
0.0
 11
-0.0000000000000036
 21
54.999999999999964
 31
0.0
210
0.0
220
0.0
230
1.0
 40
0.2588190451
 41
4.8851497724947937
 42
6.2831853071795862
  0
ELLIPSE
  5
324
100
AcDbEntity
  8
STAP_DN32
  6
CONTINUOUS
 62
         7
100
AcDbEllipse
 10
296.4056530275
 20
308.2837526269
 30
0.0
 11
-0.0000000000000034
 21
-54.999999999999964
 31
0.0
210
0.0
220
0.0
230
1.0
 40
0.2588190451
 41
0.0000000000000002
 42
1.4450103436330908
  0
ELLIPSE
  5
325
100
AcDbEntity
  8
STAP_DN32
  6
CONTINUOUS
 62
         7
100
AcDbEllipse
 10
296.4056530275
 20
308.2837526269
 30
0.0
 11
-0.0000000000000034
 21
-54.999999999999964
 31
0.0
210
0.0
220
0.0
230
1.0
 40
0.2588190451
 41
1.6965823099567015
 42
3.1415926535897896
  0
ELLIPSE
  5
326
100
AcDbEntity
  8
STAP_DN32
  6
CONTINUOUS
 62
         7
100
AcDbEllipse
 10
288.3884686693
 20
308.2837526269
 30
0.0
 11
0.0000000000000032
 21
52.499999999999972
 31
0.0
210
0.0
220
0.0
230
1.0
 40
0.2588190451
 41
3.1415926535897931
 42
4.5311681421758854
  0
ELLIPSE
  5
327
100
AcDbEntity
  8
STAP_DN32
  6
CONTINUOUS
 62
         7
100
AcDbEllipse
 10
288.3884686693
 20
308.2837526269
 30
0.0
 11
0.0000000000000032
 21
52.499999999999972
 31
0.0
210
0.0
220
0.0
230
1.0
 40
0.2588190451
 41
4.8936098185934931
 42
6.2831853071795862
  0
ELLIPSE
  5
328
100
AcDbEntity
  8
STAP_DN32
  6
CONTINUOUS
 62
         7
100
AcDbEllipse
 10
268.5869892304
 20
308.2837526269
 30
0.0
 11
-0.0000000000000171
 21
-52.500000000000107
 31
0.0
210
0.0
220
0.0
230
1.0
 40
0.2588190451
 41
1.7796738302341906
 42
4.3689805875814614
  0
ELLIPSE
  5
329
100
AcDbEntity
  8
STAP_DN32
  6
CONTINUOUS
 62
         7
100
AcDbEllipse
 10
261.9445566334
 20
308.2837526269
 30
0.0
 11
0.0000000000000251
 21
13.499999999999996
 31
0.0
210
0.0
220
0.0
230
1.0
 40
0.2588190451
 41
3.1415926535898002
 42
4.123358010168416
  0
CIRCLE
  5
32A
100
AcDbEntity
  8
STAP_DN32
  6
CONTINUOUS
 62
         7
100
AcDbCircle
 10
236.3250666323
 20
308.2837526269
 30
0.0
 40
24.0
  0
LINE
  5
32B
100
AcDbEntity
  8
STAP_DN32
  6
CONTINUOUS
 62
         7
100
AcDbLine
 10
236.3250666323
 20
335.0729595841
 30
0.0
 11
217.3822367302
 21
327.226582529
 31
0.0
  0
LINE
  5
32C
100
AcDbEntity
  8
STAP_DN32
  6
CONTINUOUS
 62
         7
100
AcDbLine
 10
217.3822367302
 20
327.226582529
 30
0.0
 11
209.5358596751
 21
308.2837526269
 31
0.0
  0
LINE
  5
32D
100
AcDbEntity
  8
STAP_DN32
  6
CONTINUOUS
 62
         7
100
AcDbLine
 10
209.5358596751
 20
308.2837526269
 30
0.0
 11
217.3822367302
 21
289.3409227248
 31
0.0
  0
LINE
  5
32E
100
AcDbEntity
  8
STAP_DN32
  6
CONTINUOUS
 62
         7
100
AcDbLine
 10
217.3822367302
 20
289.3409227248
 30
0.0
 11
236.3250666323
 21
281.4945456696
 31
0.0
  0
LINE
  5
32F
100
AcDbEntity
  8
STAP_DN32
  6
CONTINUOUS
 62
         7
100
AcDbLine
 10
255.2678965344
 20
289.3409227248
 30
0.0
 11
263.1142735895
 21
308.2837526269
 31
0.0
  0
LINE
  5
330
100
AcDbEntity
  8
STAP_DN32
  6
CONTINUOUS
 62
         7
100
AcDbLine
 10
263.1142735895
 20
308.2837526269
 30
0.0
 11
255.2678965344
 21
327.226582529
 31
0.0
  0
LINE
  5
331
100
AcDbEntity
  8
STAP_DN32
  6
CONTINUOUS
 62
         7
100
AcDbLine
 10
255.2678965344
 20
327.226582529
 30
0.0
 11
236.3250666323
 21
335.0729595841
 31
0.0
  0
ELLIPSE
  5
332
100
AcDbEntity
  8
STAP_DN32
  6
CONTINUOUS
 62
         7
100
AcDbEllipse
 10
261.9445566334
 20
308.2837526269
 30
0.0
 11
0.0000000000000165
 21
-13.499999999999977
 31
0.0
210
0.0
220
0.0
230
1.0
 40
0.2588190451
 41
2.1598272970111716
 42
3.1415926535897931
  0
ELLIPSE
  5
333
100
AcDbEntity
  8
STAP_DN32
  6
CONTINUOUS
 62
         7
100
AcDbEllipse
 10
282.9941141906
 20
308.2837526269
 30
0.0
 11
-0.0000000000000063
 21
11.000000000006358
 31
0.0
210
0.0
220
0.0
230
1.0
 40
0.7071067812
 41
-0.0000000000000007
 42
3.1415926535897922
  0
ELLIPSE
  5
334
100
AcDbEntity
  8
STAP_DN32
  6
CONTINUOUS
 62
         7
100
AcDbEllipse
 10
284.0547743624
 20
308.2837526269
 30
0.0
 11
0.0000000000000076
 21
11.000000000006358
 31
0.0
210
0.0
220
0.0
230
1.0
 40
0.7071067812
 41
0.0
 42
3.2369750655163969
  0
ELLIPSE
  5
335
100
AcDbEntity
  8
STAP_DN32
  6
CONTINUOUS
 62
         7
100
AcDbEllipse
 10
284.0547743624
 20
308.2837526269
 30
0.0
 11
0.0000000000000076
 21
11.000000000006358
 31
0.0
210
0.0
220
0.0
230
1.0
 40
0.7071067812
 41
6.1878028952529283
 42
6.2831853071795862
  0
ELLIPSE
  5
336
100
AcDbEntity
  8
STAP_DN32
  6
CONTINUOUS
 62
         7
100
AcDbEllipse
 10
284.0547743624
 20
308.2837526269
 30
0.0
 11
0.0000000000000007
 21
10.949999999997916
 31
0.0
210
0.0
220
0.0
230
1.0
 40
0.7071067812
 41
0.0
 42
3.1415926535897931
  0
LINE
  5
337
100
AcDbEntity
  8
STAP_DN32
  6
CONTINUOUS
 62
         7
100
AcDbLine
 10
290.803283235
 20
253.2837526269
 30
0.0
 11
296.4056530275
 21
253.2837526269
 31
0.0
  0
ELLIPSE
  5
338
100
AcDbEntity
  8
STAP_DN32
  6
CONTINUOUS
 62
         7
100
AcDbEllipse
 10
295.0149294708
 20
308.2837526269
 30
0.0
 11
0.0000000000000076
 21
10.9499999999979
 31
0.0
210
0.0
220
0.0
230
1.0
 40
0.7071067812
 41
0.0
 42
3.3557832206995526
  0
ELLIPSE
  5
339
100
AcDbEntity
  8
STAP_DN32
  6
CONTINUOUS
 62
         7
100
AcDbEllipse
 10
295.0149294708
 20
308.2837526269
 30
0.0
 11
0.0000000000000076
 21
10.9499999999979
 31
0.0
210
0.0
220
0.0
230
1.0
 40
0.7071067812
 41
6.0689947400698276
 42
6.2831853071795862
  0
ELLIPSE
  5
33A
100
AcDbEntity
  8
STAP_DN32
  6
CONTINUOUS
 62
         7
100
AcDbEllipse
 10
305.6215311886
 20
308.2837526269
 30
0.0
 11
0.0000000000000004
 21
6.0000000000071347
 31
0.0
210
0.0
220
0.0
230
1.0
 40
0.7071067812
 41
0.0725636637057485
 42
3.0690289898840448
  0
ELLIPSE
  5
33B
100
AcDbEntity
  8
STAP_DN32
  6
CONTINUOUS
 62
         7
100
AcDbEllipse
 10
305.6215311886
 20
308.2837526269
 30
0.0
 11
-0.0000000000000002
 21
-3.9999999999932778
 31
0.0
210
0.0
220
0.0
230
1.0
 40
0.7071067812
 41
4.37038160666176
 42
5.0543963541076202
  0
ELLIPSE
  5
33C
100
AcDbEntity
  8
STAP_DN32
  6
CONTINUOUS
 62
         7
100
AcDbEllipse
 10
299.9646769391
 20
308.2837526269
 30
0.0
 11
0.0000000000000006
 21
9.4621040683066813
 31
0.0
210
0.0
220
0.0
230
1.0
 40
0.7071067812
 41
0.0
 42
3.1415926535897931
  0
ELLIPSE
  5
33D
100
AcDbEntity
  8
STAP_DN32
  6
CONTINUOUS
 62
         7
100
AcDbEllipse
 10
304.5608710168
 20
308.2837526269
 30
0.0
 11
0.0000000000000142
 21
6.0000000000037348
 31
0.0
210
0.0
220
0.0
230
1.0
 40
0.7071067812
 41
0.0
 42
3.1415926535897962
  0
ELLIPSE
  5
33E
100
AcDbEntity
  8
STAP_DN32
  6
CONTINUOUS
 62
         7
100
AcDbEllipse
 10
304.5608710168
 20
308.2837526269
 30
0.0
 11
0.0000000000000145
 21
9.4621040683213202
 31
0.0
210
0.0
220
0.0
230
1.0
 40
0.7071067812
 41
0.0
 42
3.9077918023542733
  0
ELLIPSE
  5
33F
100
AcDbEntity
  8
STAP_DN32
  6
CONTINUOUS
 62
         7
100
AcDbEllipse
 10
304.5608710168
 20
308.2837526269
 30
0.0
 11
0.0000000000000145
 21
9.4621040683213202
 31
0.0
210
0.0
220
0.0
230
1.0
 40
0.7071067812
 41
5.5169861584150999
 42
6.2831853071795862
  0
ELLIPSE
  5
340
100
AcDbEntity
  8
STAP_DN32
  6
CONTINUOUS
 62
         7
100
AcDbEllipse
 10
307.7428515322
 20
308.2837526269
 30
0.0
 11
-0.0000000000000004
 21
-6.8999999999797588
 31
0.0
210
0.0
220
0.0
230
1.0
 40
0.7071067812
 41
3.1415926535897931
 42
6.2831853071795862
  0
LINE
  5
341
100
AcDbEntity
  8
STAP_DN32
  6
CONTINUOUS
 62
         7
100
AcDbLine
 10
286.534117892
 20
255.7837526269
 30
0.0
 11
286.9890137584
 21
255.2949352068
 31
0.0
  0
ELLIPSE
  5
342
100
AcDbEntity
  8
STAP_DN32
  6
CONTINUOUS
 62
         7
100
AcDbEllipse
 10
308.4499583134
 20
308.2837526269
 30
0.0
 11
-0.0000000000000004
 21
-6.8999999999820156
 31
0.0
210
0.0
220
0.0
230
1.0
 40
0.7071067812
 41
0.0000000000000001
 42
0.1821652506541954
  0
ELLIPSE
  5
343
100
AcDbEntity
  8
STAP_DN32
  6
CONTINUOUS
 62
         7
100
AcDbEllipse
 10
308.4499583134
 20
308.2837526269
 30
0.0
 11
-0.0000000000000004
 21
-6.8999999999820156
 31
0.0
210
0.0
220
0.0
230
1.0
 40
0.7071067812
 41
2.959427402935598
 42
6.2831853071795747
  0
ELLIPSE
  5
344
100
AcDbEntity
  8
STAP_DN32
  6
CONTINUOUS
 62
         7
100
AcDbEllipse
 10
308.4499583134
 20
308.2837526269
 30
0.0
 11
-0.0000000000000004
 21
-5.999999999996402
 31
0.0
210
0.0
220
0.0
230
1.0
 40
0.7071067812
 41
3.3212237996799194
 42
6.1035541610895123
  0
ELLIPSE
  5
345
100
AcDbEntity
  8
STAP_DN32
  6
CONTINUOUS
 62
         7
100
AcDbEllipse
 10
314.1068125629
 20
308.2837526269
 30
0.0
 11
-0.0000000000000004
 21
-6.900000000000035
 31
0.0
210
0.0
220
0.0
230
1.0
 40
0.7071067812
 41
0.0
 42
6.2831853071795862
  0
ELLIPSE
  5
346
100
AcDbEntity
  8
STAP_DN32
  6
CONTINUOUS
 62
         7
100
AcDbEllipse
 10
310.2177252663
 20
308.2837526269
 30
0.0
 11
0.0000000000000004
 21
6.899999999987644
 31
0.0
210
0.0
220
0.0
230
1.0
 40
0.7071067812
 41
0.0
 42
3.1415926535897931
  0
LINE
  5
347
100
AcDbEntity
  8
STAP_DN32
  6
CONTINUOUS
 62
         7
100
AcDbLine
 10
261.9445566334
 20
321.7837526269
 30
0.0
 11
257.5223904975
 21
321.7837526269
 31
0.0
  0
LINE
  5
348
100
AcDbEntity
  8
STAP_DN32
  6
CONTINUOUS
 62
         7
100
AcDbLine
 10
257.5223904975
 20
294.7837526269
 30
0.0
 11
261.9445566334
 21
294.7837526269
 31
0.0
  0
LINE
  5
349
100
AcDbEntity
  8
STAP_DN32
  6
CONTINUOUS
 62
         7
100
AcDbLine
 10
296.4056530275
 20
363.2837526269
 30
0.0
 11
290.803283235
 21
363.2837526269
 31
0.0
  0
LINE
  5
34A
100
AcDbEntity
  8
STAP_DN32
  6
CONTINUOUS
 62
         7
100
AcDbLine
 10
286.9890137584
 20
361.272570047
 30
0.0
 11
286.534117892
 21
360.7837526269
 31
0.0
  0
LINE
  5
34B
100
AcDbEntity
  8
STAP_DN32
  6
CONTINUOUS
 62
         7
100
AcDbLine
 10
260.0076718717
 20
300.7837526269
 30
0.0
 11
277.3042108522
 21
300.7837526269
 31
0.0
  0
LINE
  5
34C
100
AcDbEntity
  8
STAP_DN32
  6
CONTINUOUS
 62
         7
100
AcDbLine
 10
278.2940495297
 20
317.0483852128
 30
0.0
 11
278.2940495297
 21
321.7837526269
 31
0.0
  0
LINE
  5
34D
100
AcDbEntity
  8
STAP_DN32
  6
CONTINUOUS
 62
         7
100
AcDbLine
 10
270.2940495297
 20
321.7837526269
 30
0.0
 11
270.2940495297
 21
314.7307084586
 31
0.0
  0
LINE
  5
34E
100
AcDbEntity
  8
STAP_DN32
  6
CONTINUOUS
 62
         7
100
AcDbLine
 10
270.2940495297
 20
315.7837526269
 30
0.0
 11
260.0076718717
 21
315.7837526269
 31
0.0
  0
LINE
  5
34F
100
AcDbEntity
  8
STAP_DN32
  6
CONTINUOUS
 62
         7
100
AcDbLine
 10
270.2940495297
 20
321.7837526269
 30
0.0
 11
278.2940495297
 21
321.7837526269
 31
0.0
  0
ELLIPSE
  5
350
100
AcDbEntity
  8
STAP_DN32
  6
CONTINUOUS
 62
         7
100
AcDbEllipse
 10
268.5869892304
 20
308.2837526269
 30
0.0
 11
0.0000000000000102
 21
52.499999999999972
 31
0.0
210
0.0
220
0.0
230
1.0
 40
0.2588190451
 41
1.9142047195981244
 42
4.5035114769453939
  0
LINE
  5
351
100
AcDbEntity
  8
STAP_DN32
  6
CONTINUOUS
 62
         7
100
AcDbLine
 10
401.1120125972
 20
319.5337526269
 30
0.0
 11
390.486828508
 21
319.5337526269
 31
0.0
  0
LINE
  5
352
100
AcDbEntity
  8
STAP_DN32
  6
CONTINUOUS
 62
         7
100
AcDbLine
 10
390.486828508
 20
317.7837526269
 30
0.0
 11
382.7077070399
 21
317.7837526269
 31
0.0
  0
LINE
  5
353
100
AcDbEntity
  8
STAP_DN32
  6
CONTINUOUS
 62
         7
100
AcDbLine
 10
409.5393132734
 20
333.2837526269
 30
0.0
 11
401.1120125972
 21
333.2837526269
 31
0.0
  0
LINE
  5
354
100
AcDbEntity
  8
STAP_DN32
  6
CONTINUOUS
 62
         7
100
AcDbLine
 10
401.1120125972
 20
283.2837526269
 30
0.0
 11
409.5393132734
 21
283.2837526269
 31
0.0
  0
LINE
  5
355
100
AcDbEntity
  8
STAP_DN32
  6
CONTINUOUS
 62
         7
100
AcDbLine
 10
370.8371453655
 20
291.5337526269
 30
0.0
 11
379.1372000491
 21
291.5337526269
 31
0.0
  0
LINE
  5
356
100
AcDbEntity
  8
STAP_DN32
  6
CONTINUOUS
 62
         7
100
AcDbLine
 10
312.7151659603
 20
275.368916325
 30
0.0
 11
370.9925716512
 21
291.5769796555
 31
0.0
  0
LINE
  5
357
100
AcDbEntity
  8
STAP_DN32
  6
CONTINUOUS
 62
         7
100
AcDbLine
 10
307.793691012
 20
275.2837526269
 30
0.0
 11
312.1019477047
 21
275.2837526269
 31
0.0
  0
LINE
  5
358
100
AcDbEntity
  8
STAP_DN32
  6
CONTINUOUS
 62
         7
100
AcDbLine
 10
390.486828508
 20
297.0337526269
 30
0.0
 11
401.1120125972
 21
297.0337526269
 31
0.0
  0
LINE
  5
359
100
AcDbEntity
  8
STAP_DN32
  6
CONTINUOUS
 62
         7
100
AcDbLine
 10
382.7077070399
 20
298.7837526269
 30
0.0
 11
390.486828508
 21
298.7837526269
 31
0.0
  0
LINE
  5
35A
100
AcDbEntity
  8
STAP_DN32
  6
CONTINUOUS
 62
         7
100
AcDbLine
 10
379.1372000491
 20
325.0337526269
 30
0.0
 11
370.8371453655
 21
325.0337526269
 31
0.0
  0
LINE
  5
35B
100
AcDbEntity
  8
STAP_DN32
  6
CONTINUOUS
 62
         7
100
AcDbLine
 10
370.9925716512
 20
324.9905255983
 30
0.0
 11
312.7151659603
 21
341.1985889288
 31
0.0
  0
LINE
  5
35C
100
AcDbEntity
  8
STAP_DN32
  6
CONTINUOUS
 62
         7
100
AcDbLine
 10
312.1019477047
 20
341.2837526269
 30
0.0
 11
307.793691012
 21
341.2837526269
 31
0.0
  0
LINE
  5
35D
100
AcDbEntity
  8
STAP_DN32
  6
CONTINUOUS
 62
         7
100
AcDbLine
 10
320.3847688855
 20
316.3366232824
 30
0.0
 11
320.4929740589
 21
316.3429279376
 31
0.0
  0
ELLIPSE
  5
35E
100
AcDbEntity
  8
STAP_DN32
  6
CONTINUOUS
 62
         7
100
AcDbEllipse
 10
312.1019477047
 20
308.2837526269
 30
0.0
 11
0.0000000000000257
 21
-32.999999999999623
 31
0.0
210
0.0
220
0.0
230
1.0
 40
0.2588190451
 41
1.8173119244493943
 42
3.1415926535897931
  0
LINE
  5
35F
100
AcDbEntity
  8
STAP_DN32
  6
CONTINUOUS
 62
         7
100
AcDbLine
 10
310.4872912791
 20
316.3366232824
 30
0.0
 11
320.3847688855
 21
316.3366232824
 31
0.0
  0
ARC
  5
360
100
AcDbEntity
  8
STAP_DN32
  6
CONTINUOUS
 62
         7
100
AcDbCircle
 10
-49.617285082
 20
6798.5341177837
 30
0.0
 40
6492.7485878971
100
AcDbArc
 50
273.2678389933
 51
273.4103802827
  0
ELLIPSE
  5
361
100
AcDbEntity
  8
STAP_DN32
  6
CONTINUOUS
 62
         7
100
AcDbEllipse
 10
379.1372000491
 20
308.2837526269
 30
0.0
 11
-0.0000000000000288
 21
-16.749999999989036
 31
0.0
210
0.0
220
0.0
230
1.0
 40
0.2588190451
 41
2.1380447253242481
 42
3.1415926535897931
  0
ELLIPSE
  5
362
100
AcDbEntity
  8
STAP_DN32
  6
CONTINUOUS
 62
         7
100
AcDbEllipse
 10
370.6813169306
 20
308.2837526269
 30
0.0
 11
-0.0000000000000288
 21
-16.749999999989033
 31
0.0
210
0.0
220
0.0
230
1.0
 40
0.2588190451
 41
2.1380447253242481
 42
3.0697340576298231
  0
ELLIPSE
  5
363
100
AcDbEntity
  8
STAP_DN32
  6
CONTINUOUS
 62
         7
100
AcDbEllipse
 10
409.5393132734
 20
308.2837526269
 30
0.0
 11
0.0000000000003593
 21
-25.000000000005699
 31
0.0
210
0.0
220
0.0
230
1.0
 40
0.2588190451
 41
2.938185591096834
 42
3.1415926535897931
  0
ELLIPSE
  5
364
100
AcDbEntity
  8
STAP_DN32
  6
CONTINUOUS
 62
         7
100
AcDbEllipse
 10
409.5393132734
 20
308.2837526269
 30
0.0
 11
0.0000000000003624
 21
24.999999999997002
 31
0.0
210
0.0
220
0.0
230
1.0
 40
0.2588190451
 41
3.1415926535897878
 42
3.3449997160827989
  0
ELLIPSE
  5
365
100
AcDbEntity
  8
STAP_DN32
  6
CONTINUOUS
 62
         7
100
AcDbEllipse
 10
401.1120125972
 20
308.2837526269
 30
0.0
 11
-0.0000000000003624
 21
-24.999999999999133
 31
0.0
210
0.0
220
0.0
230
1.0
 40
0.2588190451
 41
2.9381855910968313
 42
3.3449997160827745
  0
ELLIPSE
  5
366
100
AcDbEntity
  8
STAP_DN32
  6
CONTINUOUS
 62
         7
100
AcDbEllipse
 10
401.1120125972
 20
308.2837526269
 30
0.0
 11
-0.0000000000003593
 21
25.000000000003308
 31
0.0
210
0.0
220
0.0
230
1.0
 40
0.2588190451
 41
2.9381855910968131
 42
3.3449997160827545
  0
LINE
  5
367
100
AcDbEntity
  8
STAP_DN32
  6
CONTINUOUS
 62
         7
100
AcDbLine
 10
236.3250666323
 20
281.4945456696
 30
0.0
 11
255.2678965344
 21
289.3409227248
 31
0.0
  0
ENDBLK
  5
368
100
AcDbEntity
  8
STAP_DN32
  6
CONTINUOUS
 62
         7
100
AcDbBlockEnd
  0
ENDSEC
  0
SECTION
  2
ENTITIES
  0
INSERT
  5
3A
102
{ACAD_XDICTIONARY
360
3B
102
}
100
AcDbEntity
  8
0
 62
         0
 48
0.0
100
AcDbBlockReference
  2
SE1
 10
0.0
 20
0.0
 30
0.0
  0
INSERT
  5
3E
100
AcDbEntity
  8
0
 62
         0
 48
0.0
100
AcDbBlockReference
  2
SE0
 10
0.0
 20
0.0
 30
0.0
  0
INSERT
  5
41
102
{ACAD_XDICTIONARY
360
42
102
}
100
AcDbEntity
  8
0
 62
         0
 48
0.0
100
AcDbBlockReference
  2
SE3
 10
0.0
 20
0.0
 30
0.0
  0
INSERT
  5
45
100
AcDbEntity
  8
0
 62
         0
 48
0.0
100
AcDbBlockReference
  2
SE2
 10
0.0
 20
0.0
 30
0.0
  0
INSERT
  5
48
102
{ACAD_XDICTIONARY
360
49
102
}
100
AcDbEntity
  8
0
 62
         0
 48
0.0
100
AcDbBlockReference
  2
SE5
 10
0.0
 20
0.0
 30
0.0
  0
INSERT
  5
4C
100
AcDbEntity
  8
0
 62
         0
 48
0.0
100
AcDbBlockReference
  2
SE4
 10
0.0
 20
0.0
 30
0.0
  0
INSERT
  5
4F
102
{ACAD_XDICTIONARY
360
50
102
}
100
AcDbEntity
  8
0
 62
         0
 48
0.0
100
AcDbBlockReference
  2
SE7
 10
0.0
 20
0.0
 30
0.0
  0
INSERT
  5
53
100
AcDbEntity
  8
0
 62
         0
 48
0.0
100
AcDbBlockReference
  2
SE6
 10
0.0
 20
0.0
 30
0.0
  0
ENDSEC
  0
SECTION
  2
OBJECTS
  0
DICTIONARY
  5
19
100
AcDbDictionary
  3
ACAD_GROUP
350
1A
  3
ACAD_MLINESTYLE
350
1B
  3
ACDBVARIABLEDICTIONARY
350
36B
  0
DICTIONARY
  5
1A
102
{ACAD_REACTORS
330
19
102
}
100
AcDbDictionary
  0
DICTIONARY
  5
1B
102
{ACAD_REACTORS
330
19
102
}
100
AcDbDictionary
  3
STANDARD
350
1C
  0
MLINESTYLE
  5
1C
102
{ACAD_REACTORS
330
1B
102
}
100
AcDbMlineStyle
  2
Standard
 70
         0
  3

 62
         0
 51
90.0
 52
90.0
 71
         2
 49
0.5
 62
       256
  6
ByLayer
 49
-0.5
 62
       256
  6
ByLayer
  0
DICTIONARY
  5
22
102
{ACAD_REACTORS
330
19
102
}
100
AcDbDictionary
  0
DICTIONARY
  5
3B
100
AcDbDictionary
  3
ACAD_FILTER
350
3C
  0
DICTIONARY
  5
3C
100
AcDbDictionary
  3
SPATIAL
350
3D
  0
SPATIAL_FILTER
  5
3D
100
AcDbFilter
100
AcDbSpatialFilter
 70
         2
 10
-1.6167707222
 20
4.861728495
 10
175.7053615477
 20
224.0356582209
210
0.0
220
0.0
230
1.0
 11
0.0
 21
0.0
 31
0.0
 71
         1
 72
         0
 73
         0
 40
1.0
 40
0.0
 40
0.0
 40
0.0
 40
0.0
 40
1.0
 40
0.0
 40
0.0
 40
0.0
 40
0.0
 40
1.0
 40
0.0
 40
1.0
 40
0.0
 40
0.0
 40
0.0
 40
0.0
 40
1.0
 40
0.0
 40
0.0
 40
0.0
 40
0.0
 40
1.0
 40
0.0
  0
DICTIONARY
  5
42
100
AcDbDictionary
  3
ACAD_FILTER
350
43
  0
DICTIONARY
  5
43
100
AcDbDictionary
  3
SPATIAL
350
44
  0
SPATIAL_FILTER
  5
44
100
AcDbFilter
100
AcDbSpatialFilter
 70
         2
 10
-1.6167707222
 20
246.9337526269
 10
175.7053615477
 20
369.6337526269
210
0.0
220
0.0
230
1.0
 11
0.0
 21
0.0
 31
0.0
 71
         1
 72
         0
 73
         0
 40
1.0
 40
0.0
 40
0.0
 40
0.0
 40
0.0
 40
1.0
 40
0.0
 40
0.0
 40
0.0
 40
0.0
 40
1.0
 40
0.0
 40
1.0
 40
0.0
 40
0.0
 40
0.0
 40
0.0
 40
1.0
 40
0.0
 40
0.0
 40
0.0
 40
0.0
 40
1.0
 40
0.0
  0
DICTIONARY
  5
49
100
AcDbDictionary
  3
ACAD_FILTER
350
4A
  0
DICTIONARY
  5
4A
100
AcDbDictionary
  3
SPATIAL
350
4B
  0
SPATIAL_FILTER
  5
4B
100
AcDbFilter
100
AcDbSpatialFilter
 70
         2
 10
231.2167035349
 20
4.861728495
 10
408.5388358049
 20
224.0356582209
210
0.0
220
0.0
230
1.0
 11
0.0
 21
0.0
 31
0.0
 71
         1
 72
         0
 73
         0
 40
1.0
 40
0.0
 40
0.0
 40
0.0
 40
0.0
 40
1.0
 40
0.0
 40
0.0
 40
0.0
 40
0.0
 40
1.0
 40
0.0
 40
1.0
 40
0.0
 40
0.0
 40
0.0
 40
0.0
 40
1.0
 40
0.0
 40
0.0
 40
0.0
 40
0.0
 40
1.0
 40
0.0
  0
DICTIONARY
  5
50
100
AcDbDictionary
  3
ACAD_FILTER
350
51
  0
DICTIONARY
  5
51
100
AcDbDictionary
  3
SPATIAL
350
52
  0
SPATIAL_FILTER
  5
52
100
AcDbFilter
100
AcDbSpatialFilter
 70
         2
 10
203.1858596751
 20
246.9337526269
 10
422.3597894009
 20
369.6337526269
210
0.0
220
0.0
230
1.0
 11
0.0
 21
0.0
 31
0.0
 71
         1
 72
         0
 73
         0
 40
1.0
 40
0.0
 40
0.0
 40
0.0
 40
0.0
 40
1.0
 40
0.0
 40
0.0
 40
0.0
 40
0.0
 40
1.0
 40
0.0
 40
1.0
 40
0.0
 40
0.0
 40
0.0
 40
0.0
 40
1.0
 40
0.0
 40
0.0
 40
0.0
 40
0.0
 40
1.0
 40
0.0
  0
DICTIONARY
  5
36B
100
AcDbDictionary
  3
DIMASSOC
350
36C
  0
DICTIONARYVAR
  5
36C
100
DictionaryVariables
280
         0
  1
2
  0
ENDSEC
  0
EOF
