  0
SECTION
  2
HEADER
  9
$ACADVER
  1
AC1021
  9
$ACADMAINTVER
 70
    25
  9
$DWGCODEPAGE
  3
ANSI_1252
  9
$INSBASE
 10
0.0
 20
0.0
 30
0.0
  9
$EXTMIN
 10
0.0
 20
0.0
 30
0.0
  9
$EXTMAX
 10
420.0
 20
297.0
 30
0.0
  9
$LIMMIN
 10
0.0
 20
0.0
  9
$LIMMAX
 10
420.0
 20
297.0
  9
$ORTHOMODE
 70
     0
  9
$REGENMODE
 70
     1
  9
$FILLMODE
 70
     1
  9
$QTEXTMODE
 70
     0
  9
$MIRRTEXT
 70
     1
  9
$LTSCALE
 40
1.0
  9
$ATTMODE
 70
     1
  9
$TEXTSIZE
 40
2.5
  9
$TRACEWID
 40
1.0
  9
$TEXTSTYLE
  7
Standard
  9
$CLAYER
  8
0
  9
$CELTYPE
  6
ByLayer
  9
$CECOLOR
 62
   256
  9
$CELTSCALE
 40
1.0
  9
$DISPSILH
 70
     0
  9
$DIMSCALE
 40
1.0
  9
$DIMASZ
 40
2.5
  9
$DIMEXO
 40
0.625
  9
$DIMDLI
 40
3.75
  9
$DIMRND
 40
0.0
  9
$DIMDLE
 40
0.0
  9
$DIMEXE
 40
1.25
  9
$DIMTP
 40
0.0
  9
$DIMTM
 40
0.0
  9
$DIMTXT
 40
2.5
  9
$DIMCEN
 40
2.5
  9
$DIMTSZ
 40
0.0
  9
$DIMTOL
 70
     0
  9
$DIMLIM
 70
     0
  9
$DIMTIH
 70
     0
  9
$DIMTOH
 70
     0
  9
$DIMSE1
 70
     0
  9
$DIMSE2
 70
     0
  9
$DIMTAD
 70
     1
  9
$DIMZIN
 70
     8
  9
$DIMBLK
  1

  9
$DIMASO
 70
     1
  9
$DIMSHO
 70
     1
  9
$DIMPOST
  1

  9
$DIMAPOST
  1

  9
$DIMALT
 70
     0
  9
$DIMALTD
 70
     3
  9
$DIMALTF
 40
0.0393700787
  9
$DIMLFAC
 40
1.0
  9
$DIMTOFL
 70
     1
  9
$DIMTVP
 40
0.0
  9
$DIMTIX
 70
     0
  9
$DIMSOXD
 70
     0
  9
$DIMSAH
 70
     0
  9
$DIMBLK1
  1

  9
$DIMBLK2
  1

  9
$DIMSTYLE
  2
ISO-25
  9
$DIMCLRD
 70
     0
  9
$DIMCLRE
 70
     0
  9
$DIMCLRT
 70
     0
  9
$DIMTFAC
 40
1.0
  9
$DIMGAP
 40
0.625
  9
$DIMJUST
 70
     0
  9
$DIMSD1
 70
     0
  9
$DIMSD2
 70
     0
  9
$DIMTOLJ
 70
     0
  9
$DIMTZIN
 70
     8
  9
$DIMALTZ
 70
     0
  9
$DIMALTTZ
 70
     0
  9
$DIMUPT
 70
     0
  9
$DIMDEC
 70
     2
  9
$DIMTDEC
 70
     2
  9
$DIMALTU
 70
     2
  9
$DIMALTTD
 70
     3
  9
$DIMTXSTY
  7
Standard
  9
$DIMAUNIT
 70
     0
  9
$DIMADEC
 70
     0
  9
$DIMALTRND
 40
0.0
  9
$DIMAZIN
 70
     0
  9
$DIMDSEP
 70
    44
  9
$DIMATFIT
 70
     3
  9
$DIMFRAC
 70
     0
  9
$DIMLDRBLK
  1

  9
$DIMLUNIT
 70
     2
  9
$DIMLWD
 70
    -2
  9
$DIMLWE
 70
    -2
  9
$DIMTMOVE
 70
     0
  9
$DIMFXL
 40
1.0
  9
$DIMFXLON
 70
     0
  9
$DIMJOGANG
 40
0.7853981634
  9
$DIMTFILL
 70
     0
  9
$DIMTFILLCLR
 70
     0
  9
$DIMARCSYM
 70
     0
  9
$DIMLTYPE
  6

  9
$DIMLTEX1
  6

  9
$DIMLTEX2
  6

  9
$LUNITS
 70
     2
  9
$LUPREC
 70
     4
  9
$SKETCHINC
 40
1.0
  9
$FILLETRAD
 40
10.0
  9
$AUNITS
 70
     0
  9
$AUPREC
 70
     0
  9
$MENU
  1
.
  9
$ELEVATION
 40
0.0
  9
$PELEVATION
 40
0.0
  9
$THICKNESS
 40
0.0
  9
$LIMCHECK
 70
     0
  9
$CHAMFERA
 40
0.0
  9
$CHAMFERB
 40
0.0
  9
$CHAMFERC
 40
0.0
  9
$CHAMFERD
 40
0.0
  9
$SKPOLY
 70
     0
  9
$TDCREATE
 40
2457990.614620058
  9
$TDUCREATE
 40
2457990.531286724
  9
$TDUPDATE
 40
2457990.614620509
  9
$TDUUPDATE
 40
2457990.531287176
  9
$TDINDWG
 40
0.0000000116
  9
$TDUSRTIMER
 40
0.0000000116
  9
$USRTIMER
 70
     1
  9
$ANGBASE
 50
0.0
  9
$ANGDIR
 70
     0
  9
$PDMODE
 70
     0
  9
$PDSIZE
 40
0.0
  9
$PLINEWID
 40
0.0
  9
$SPLFRAME
 70
     0
  9
$SPLINETYPE
 70
     6
  9
$SPLINESEGS
 70
     8
  9
$HANDSEED
  5
363
  9
$SURFTAB1
 70
     6
  9
$SURFTAB2
 70
     6
  9
$SURFTYPE
 70
     6
  9
$SURFU
 70
     6
  9
$SURFV
 70
     6
  9
$UCSBASE
  2

  9
$UCSNAME
  2

  9
$UCSORG
 10
0.0
 20
0.0
 30
0.0
  9
$UCSXDIR
 10
1.0
 20
0.0
 30
0.0
  9
$UCSYDIR
 10
0.0
 20
1.0
 30
0.0
  9
$UCSORTHOREF
  2

  9
$UCSORTHOVIEW
 70
     0
  9
$UCSORGTOP
 10
0.0
 20
0.0
 30
0.0
  9
$UCSORGBOTTOM
 10
0.0
 20
0.0
 30
0.0
  9
$UCSORGLEFT
 10
0.0
 20
0.0
 30
0.0
  9
$UCSORGRIGHT
 10
0.0
 20
0.0
 30
0.0
  9
$UCSORGFRONT
 10
0.0
 20
0.0
 30
0.0
  9
$UCSORGBACK
 10
0.0
 20
0.0
 30
0.0
  9
$PUCSBASE
  2

  9
$PUCSNAME
  2

  9
$PUCSORG
 10
0.0
 20
0.0
 30
0.0
  9
$PUCSXDIR
 10
1.0
 20
0.0
 30
0.0
  9
$PUCSYDIR
 10
0.0
 20
1.0
 30
0.0
  9
$PUCSORTHOREF
  2

  9
$PUCSORTHOVIEW
 70
     0
  9
$PUCSORGTOP
 10
0.0
 20
0.0
 30
0.0
  9
$PUCSORGBOTTOM
 10
0.0
 20
0.0
 30
0.0
  9
$PUCSORGLEFT
 10
0.0
 20
0.0
 30
0.0
  9
$PUCSORGRIGHT
 10
0.0
 20
0.0
 30
0.0
  9
$PUCSORGFRONT
 10
0.0
 20
0.0
 30
0.0
  9
$PUCSORGBACK
 10
0.0
 20
0.0
 30
0.0
  9
$USERI1
 70
     0
  9
$USERI2
 70
     0
  9
$USERI3
 70
     0
  9
$USERI4
 70
     0
  9
$USERI5
 70
     0
  9
$USERR1
 40
0.0
  9
$USERR2
 40
0.0
  9
$USERR3
 40
0.0
  9
$USERR4
 40
0.0
  9
$USERR5
 40
0.0
  9
$WORLDVIEW
 70
     1
  9
$SHADEDGE
 70
     3
  9
$SHADEDIF
 70
    70
  9
$TILEMODE
 70
     1
  9
$MAXACTVP
 70
    64
  9
$PINSBASE
 10
0.0
 20
0.0
 30
0.0
  9
$PLIMCHECK
 70
     0
  9
$PEXTMIN
 10
0.0
 20
0.0
 30
0.0
  9
$PEXTMAX
 10
420.0
 20
297.0
 30
0.0
  9
$PLIMMIN
 10
0.0
 20
0.0
  9
$PLIMMAX
 10
420.0
 20
297.0
  9
$UNITMODE
 70
     0
  9
$VISRETAIN
 70
     1
  9
$PLINEGEN
 70
     0
  9
$PSLTSCALE
 70
     1
  9
$TREEDEPTH
 70
  3020
  9
$CMLSTYLE
  2
Standard
  9
$CMLJUST
 70
     0
  9
$CMLSCALE
 40
20.0
  9
$PROXYGRAPHICS
 70
     1
  9
$MEASUREMENT
 70
     1
  9
$CELWEIGHT
370
    -1
  9
$ENDCAPS
280
     0
  9
$JOINSTYLE
280
     0
  9
$LWDISPLAY
290
     0
  9
$INSUNITS
 70
     4
  9
$HYPERLINKBASE
  1

  9
$STYLESHEET
  1

  9
$XEDIT
290
     1
  9
$CEPSNTYPE
380
     0
  9
$PSTYLEMODE
290
     1
  9
$FINGERPRINTGUID
  2
{97CE3957-FD97-4AFE-8C28-C7AD2CB1277A}
  9
$VERSIONGUID
  2
{FAEB1C32-E019-11D5-929B-00C0DF256EC4}
  9
$EXTNAMES
290
     1
  9
$PSVPSCALE
 40
0.0
  9
$OLESTARTUP
290
     0
  9
$SORTENTS
280
   127
  9
$INDEXCTL
280
     0
  9
$HIDETEXT
280
     1
  9
$XCLIPFRAME
290
     0
  9
$HALOGAP
280
     0
  9
$OBSCOLOR
 70
   257
  9
$OBSLTYPE
280
     0
  9
$INTERSECTIONDISPLAY
280
     0
  9
$INTERSECTIONCOLOR
 70
   257
  9
$DIMASSOC
280
     2
  9
$PROJECTNAME
  1

  9
$CAMERADISPLAY
290
     0
  9
$LENSLENGTH
 40
50.0
  9
$CAMERAHEIGHT
 40
0.0
  9
$STEPSPERSEC
 40
2.0
  9
$STEPSIZE
 40
6.0
  9
$3DDWFPREC
 40
2.0
  9
$PSOLWIDTH
 40
5.0
  9
$PSOLHEIGHT
 40
80.0
  9
$LOFTANG1
 40
1.5707963268
  9
$LOFTANG2
 40
1.5707963268
  9
$LOFTMAG1
 40
0.0
  9
$LOFTMAG2
 40
0.0
  9
$LOFTPARAM
 70
     7
  9
$LOFTNORMALS
280
     1
  9
$LATITUDE
 40
37.795
  9
$LONGITUDE
 40
-122.394
  9
$NORTHDIRECTION
 40
0.0
  9
$TIMEZONE
 70
 -8000
  9
$LIGHTGLYPHDISPLAY
280
     1
  9
$TILEMODELIGHTSYNCH
280
     1
  9
$CMATERIAL
347
44
  9
$SOLIDHIST
280
     0
  9
$SHOWHIST
280
     1
  9
$DWFFRAME
280
     2
  9
$DGNFRAME
280
     2
  9
$REALWORLDSCALE
290
     1
  9
$INTERFERECOLOR
 62
   256
  9
$CSHADOW
280
     0
  9
$SHADOWPLANELOCATION
 40
0.0
  0
ENDSEC
  0
SECTION
  2
CLASSES
  0
CLASS
  1
ACDBDICTIONARYWDFLT
  2
AcDbDictionaryWithDefault
  3
ObjectDBX Classes
 90
        0
 91
        4
280
     0
281
     0
  0
CLASS
  1
VISUALSTYLE
  2
AcDbVisualStyle
  3
ObjectDBX Classes
 90
     4095
 91
        4
280
     0
281
     0
  0
CLASS
  1
MATERIAL
  2
AcDbMaterial
  3
ObjectDBX Classes
 90
     1153
 91
        4
280
     0
281
     0
  0
CLASS
  1
SCALE
  2
AcDbScale
  3
ObjectDBX Classes
 90
     1153
 91
        4
280
     0
281
     0
  0
CLASS
  1
TABLESTYLE
  2
AcDbTableStyle
  3
ObjectDBX Classes
 90
     4095
 91
        4
280
     0
281
     0
  0
CLASS
  1
MLEADERSTYLE
  2
AcDbMLeaderStyle
  3
ACDB_MLEADERSTYLE_CLASS
 90
     4095
 91
        4
280
     0
281
     0
  0
CLASS
  1
SUN
  2
AcDbSun
  3
SCENEOE
 90
     1153
 91
        4
280
     0
281
     0
  0
CLASS
  1
DICTIONARYVAR
  2
AcDbDictionaryVar
  3
ObjectDBX Classes
 90
        0
 91
        4
280
     0
281
     0
  0
CLASS
  1
CELLSTYLEMAP
  2
AcDbCellStyleMap
  3
ObjectDBX Classes
 90
     1152
 91
        4
280
     0
281
     0
  0
ENDSEC
  0
SECTION
  2
TABLES
  0
TABLE
  2
VPORT
  5
8
330
0
100
AcDbSymbolTable
 70
     1
  0
VPORT
  5
29
330
8
100
AcDbSymbolTableRecord
100
AcDbViewportTableRecord
  2
*Active
 70
     0
 10
0.0
 20
0.0
 11
1.0
 21
1.0
 12
344.1869158879
 22
148.5
 13
0.0
 23
0.0
 14
10.0
 24
10.0
 15
10.0
 25
10.0
 16
0.0
 26
0.0
 36
1.0
 17
0.0
 27
0.0
 37
0.0
 40
297.0
 41
1.9729729729
 42
50.0
 43
0.0
 44
0.0
 50
0.0
 51
0.0
 71
     0
 72
   100
 73
     1
 74
     3
 75
     0
 76
     0
 77
     0
 78
     0
281
     0
 65
     1
110
0.0
120
0.0
130
0.0
111
1.0
121
0.0
131
0.0
112
0.0
122
1.0
132
0.0
 79
     0
146
0.0
348
2F
 60
     3
 61
     5
292
     1
282
     1
141
0.0
142
0.0
 63
   250
361
6D
  0
ENDTAB
  0
TABLE
  2
LTYPE
  5
5
330
0
100
AcDbSymbolTable
 70
     1
  0
LTYPE
  5
14
330
5
100
AcDbSymbolTableRecord
100
AcDbLinetypeTableRecord
  2
ByBlock
 70
     0
  3

 72
    65
 73
     0
 40
0.0
  0
LTYPE
  5
15
330
5
100
AcDbSymbolTableRecord
100
AcDbLinetypeTableRecord
  2
ByLayer
 70
     0
  3

 72
    65
 73
     0
 40
0.0
  0
LTYPE
  5
16
330
5
100
AcDbSymbolTableRecord
100
AcDbLinetypeTableRecord
  2
Continuous
 70
     0
  3
Solid line
 72
    65
 73
     0
 40
0.0
  0
ENDTAB
  0
TABLE
  2
LAYER
  5
2
330
0
100
AcDbSymbolTable
 70
     3
  0
LAYER
  5
10
330
2
100
AcDbSymbolTableRecord
100
AcDbLayerTableRecord
  2
0
 70
     0
 62
     7
  6
Continuous
370
    -3
390
F
347
46
  0
LAYER
  5
6E
330
2
100
AcDbSymbolTableRecord
100
AcDbLayerTableRecord
  2
Default
 70
     0
 62
     7
  6
Continuous
370
    -3
390
F
347
46
  0
LAYER
  5
71
330
2
100
AcDbSymbolTableRecord
100
AcDbLayerTableRecord
  2
DN50
 70
     0
 62
     7
  6
Continuous
370
    -3
390
F
347
46
  0
ENDTAB
  0
TABLE
  2
STYLE
  5
3
330
0
100
AcDbSymbolTable
 70
     1
  0
STYLE
  5
11
330
3
100
AcDbSymbolTableRecord
100
AcDbTextStyleTableRecord
  2
Standard
 70
     0
 40
0.0
 41
1.0
 50
0.0
 71
     0
 42
2.5
  3
txt
  4

  0
ENDTAB
  0
TABLE
  2
VIEW
  5
6
330
0
100
AcDbSymbolTable
 70
     0
  0
ENDTAB
  0
TABLE
  2
UCS
  5
7
330
0
100
AcDbSymbolTable
 70
     0
  0
ENDTAB
  0
TABLE
  2
APPID
  5
9
330
0
100
AcDbSymbolTable
 70
     2
  0
APPID
  5
12
330
9
100
AcDbSymbolTableRecord
100
AcDbRegAppTableRecord
  2
ACAD
 70
     0
  0
APPID
  5
35B
330
9
100
AcDbSymbolTableRecord
100
AcDbRegAppTableRecord
  2
ACAD_MLEADERVER
 70
     0
  0
ENDTAB
  0
TABLE
  2
DIMSTYLE
  5
A
330
0
100
AcDbSymbolTable
 70
     1
100
AcDbDimStyleTable
  0
DIMSTYLE
105
27
330
A
100
AcDbSymbolTableRecord
100
AcDbDimStyleTableRecord
  2
ISO-25
 70
     0
 41
2.5
 42
0.625
 43
3.75
 44
1.25
 73
     0
 74
     0
 77
     1
 78
     8
140
2.5
141
2.5
143
0.0393700787
147
0.625
171
     3
172
     1
178
     0
271
     2
272
     2
274
     3
278
    44
283
     0
284
     8
340
11
  0
ENDTAB
  0
TABLE
  2
BLOCK_RECORD
  5
1
330
0
100
AcDbSymbolTable
 70
     5
  0
BLOCK_RECORD
  5
1F
330
1
100
AcDbSymbolTableRecord
100
AcDbBlockTableRecord
  2
*Model_Space
340
22
 70
     0
280
     1
281
     0
  0
BLOCK_RECORD
  5
1B
330
1
100
AcDbSymbolTableRecord
100
AcDbBlockTableRecord
  2
*Paper_Space
340
1E
 70
     0
280
     1
281
     0
  0
BLOCK_RECORD
  5
6F
330
1
100
AcDbSymbolTableRecord
100
AcDbBlockTableRecord
  2
SE
340
0
102
{BLKREFS
331
70
102
}
 70
     0
280
     1
281
     0
  0
BLOCK_RECORD
  5
12F
330
1
100
AcDbSymbolTableRecord
100
AcDbBlockTableRecord
  2
SE1
340
0
102
{BLKREFS
331
130
102
}
 70
     0
280
     1
281
     0
  0
BLOCK_RECORD
  5
1EE
330
1
100
AcDbSymbolTableRecord
100
AcDbBlockTableRecord
  2
SE2
340
0
102
{BLKREFS
331
1EF
102
}
 70
     0
280
     1
281
     0
  0
BLOCK_RECORD
  5
29F
330
1
100
AcDbSymbolTableRecord
100
AcDbBlockTableRecord
  2
SE3
340
0
102
{BLKREFS
331
2A0
102
}
 70
     0
280
     1
281
     0
  0
ENDTAB
  0
ENDSEC
  0
SECTION
  2
BLOCKS
  0
BLOCK
  5
20
330
1F
100
AcDbEntity
  8
0
100
AcDbBlockBegin
  2
*Model_Space
 70
     0
 10
0.0
 20
0.0
 30
0.0
  3
*Model_Space
  1

  0
ENDBLK
  5
21
330
1F
100
AcDbEntity
  8
0
100
AcDbBlockEnd
  0
BLOCK
  5
1C
330
1B
100
AcDbEntity
 67
     1
  8
0
100
AcDbBlockBegin
  2
*Paper_Space
 70
     0
 10
0.0
 20
0.0
 30
0.0
  3
*Paper_Space
  1

  0
ENDBLK
  5
1D
330
1B
100
AcDbEntity
 67
     1
  8
0
100
AcDbBlockEnd
  0
BLOCK
  5
12D
330
6F
100
AcDbEntity
  8
0
100
AcDbBlockBegin
  2
SE
 70
     0
 10
0.0
 20
0.0
 30
0.0
  3
SE
  1

  0
LINE
  5
72
330
6F
100
AcDbEntity
  8
DN50
  6
Continuous
 62
     7
100
AcDbLine
 10
364.127319032
 20
102.4495554621
 30
0.0
 11
364.127319032
 21
170.4495554621
 31
0.0
  0
LINE
  5
73
330
6F
100
AcDbEntity
  8
DN50
  6
Continuous
 62
     7
100
AcDbLine
 10
348.727319032
 20
102.9744518224
 30
0.0
 11
348.727319032
 21
170.4495554621
 31
0.0
  0
LINE
  5
74
330
6F
100
AcDbEntity
  8
DN50
  6
Continuous
 62
     7
100
AcDbLine
 10
343.5311666093
 20
106.0198898782
 30
0.0
 11
343.5311666093
 21
167.4495554621
 31
0.0
  0
LINE
  5
75
330
6F
100
AcDbEntity
  8
DN50
  6
Continuous
 62
     7
100
AcDbLine
 10
252.627319032
 20
102.4495554621
 30
0.0
 11
252.627319032
 21
170.4495554621
 31
0.0
  0
LINE
  5
76
330
6F
100
AcDbEntity
  8
DN50
  6
Continuous
 62
     7
100
AcDbLine
 10
237.227319032
 20
102.4495554621
 30
0.0
 11
237.227319032
 21
170.4495554621
 31
0.0
  0
ARC
  5
77
330
6F
100
AcDbEntity
  8
DN50
  6
Continuous
 62
     7
100
AcDbCircle
 10
414.8037070931
 20
111.9129501549
 30
0.0
 40
50.41606087375352
100
AcDbArc
 50
168.3700223339
 51
191.6299776661
  0
LINE
  5
78
330
6F
100
AcDbEntity
  8
DN50
  6
Continuous
 62
     7
100
AcDbLine
 10
365.422692499
 20
101.7495554621
 30
0.0
 11
364.3820983238
 21
101.7495554621
 31
0.0
  0
LINE
  5
79
330
6F
100
AcDbEntity
  8
DN50
  6
Continuous
 62
     7
100
AcDbLine
 10
365.422692499
 20
171.1495554621
 30
0.0
 11
364.3820983238
 21
171.1495554621
 31
0.0
  0
ARC
  5
7A
330
6F
100
AcDbEntity
  8
DN50
  6
Continuous
 62
     7
100
AcDbCircle
 10
414.8037070931
 20
160.9861607693
 30
0.0
 40
50.41606087375285
100
AcDbArc
 50
168.3700223339
 51
191.6299776661
  0
SPLINE
  5
7B
330
6F
100
AcDbEntity
  8
DN50
  6
Continuous
 62
     7
100
AcDbSpline
210
0.0
220
0.0
230
1.0
 70
     8
 71
     3
 72
    14
 73
    10
 74
     0
 42
0.000000001
 43
0.0000000001
 40
0.0
 40
0.0
 40
0.0
 40
0.0
 40
0.25
 40
0.25
 40
0.5
 40
0.5
 40
0.75
 40
0.75
 40
1.0
 40
1.0
 40
1.0
 40
1.0
 10
365.4226924989531
 20
122.0763448477449
 30
0.0
 10
365.0913678140527
 20
124.455091909372
 30
0.0
 10
364.8300460267178
 20
126.8376475480942
 30
0.0
 10
364.4758424924402
 20
131.6119229730531
 30
0.0
 10
364.3833473740681
 20
134.0036637942007
 30
0.0
 10
364.3808743935469
 20
138.7970754689044
 30
0.0
 10
364.4709442013645
 20
141.1987489159923
 30
0.0
 10
364.8247265547745
 20
146.0115430155953
 30
0.0
 10
365.0891007502938
 20
148.4277426203833
 30
0.0
 10
365.4226924989531
 20
150.8227660764377
 30
0.0
  0
SPLINE
  5
7C
330
6F
100
AcDbEntity
  8
DN50
  6
Continuous
 62
     7
100
AcDbSpline
210
0.0
220
0.0
230
1.0
 70
     8
 71
     3
 72
    14
 73
    10
 74
     0
 42
0.000000001
 43
0.0000000001
 40
0.0
 40
0.0
 40
0.0
 40
0.0
 40
0.2499999999999998
 40
0.2499999999999998
 40
0.4999999999999998
 40
0.4999999999999998
 40
0.7499999999999999
 40
0.7499999999999999
 40
1.0
 40
1.0
 40
1.0
 40
1.0
 10
235.9319455650966
 20
122.0763448477449
 30
0.0
 10
236.263270249997
 20
124.455091909372
 30
0.0
 10
236.5245920373318
 20
126.8376475480942
 30
0.0
 10
236.8787955716094
 20
131.6119229730531
 30
0.0
 10
236.9712906899816
 20
134.0036637942007
 30
0.0
 10
236.9737636705028
 20
138.7970754689044
 30
0.0
 10
236.8836938626851
 20
141.1987489159923
 30
0.0
 10
236.5299115092751
 20
146.0115430155954
 30
0.0
 10
236.2655373137558
 20
148.4277426203833
 30
0.0
 10
235.9319455650966
 20
150.8227660764377
 30
0.0
  0
ARC
  5
7D
330
6F
100
AcDbEntity
  8
DN50
  6
Continuous
 62
     7
100
AcDbCircle
 10
186.550930971
 20
160.9861607693
 30
0.0
 40
50.41606087375329
100
AcDbArc
 50
348.3700223339
 51
11.6299776661
  0
LINE
  5
7E
330
6F
100
AcDbEntity
  8
DN50
  6
Continuous
 62
     7
100
AcDbLine
 10
235.9319455651
 20
171.1495554621
 30
0.0
 11
236.9725397403
 21
171.1495554621
 31
0.0
  0
LINE
  5
7F
330
6F
100
AcDbEntity
  8
DN50
  6
Continuous
 62
     7
100
AcDbLine
 10
235.9319455651
 20
101.7495554621
 30
0.0
 11
236.9725397403
 21
101.7495554621
 31
0.0
  0
ARC
  5
80
330
6F
100
AcDbEntity
  8
DN50
  6
Continuous
 62
     7
100
AcDbCircle
 10
186.550930971
 20
111.9129501549
 30
0.0
 40
50.41606087375329
100
AcDbArc
 50
348.3700223339
 51
11.6299776661
  0
LINE
  5
81
330
6F
100
AcDbEntity
  8
DN50
  6
Continuous
 62
     7
100
AcDbLine
 10
257.8234714547
 20
107.6385402839
 30
0.0
 11
257.8234714547
 21
167.4495554621
 31
0.0
  0
LINE
  5
82
330
6F
100
AcDbEntity
  8
DN50
  6
Continuous
 62
     7
100
AcDbLine
 10
258.6262713178
 20
108.1357212615
 30
0.0
 11
257.8234714547
 21
107.6385402839
 31
0.0
  0
LINE
  5
83
330
6F
100
AcDbEntity
  8
DN50
  6
Continuous
 62
     7
100
AcDbLine
 10
261.8665831063
 20
108.574327455
 30
0.0
 11
258.6262713178
 21
108.1357212615
 31
0.0
  0
ARC
  5
84
330
6F
100
AcDbEntity
  8
DN50
  6
Continuous
 62
     7
100
AcDbCircle
 10
-680.2416646046
 20
1699.7076868968
 30
0.0
 40
1849.127718123683
100
AcDbArc
 50
300.6297268301
 51
300.9846631691
  0
LINE
  5
85
330
6F
100
AcDbEntity
  8
DN50
  6
Continuous
 62
     7
100
AcDbLine
 10
274.2383462863
 20
114.9784920365
 30
0.0
 11
271.7052083827
 21
114.440999887
 31
0.0
  0
LINE
  5
86
330
6F
100
AcDbEntity
  8
DN50
  6
Continuous
 62
     7
100
AcDbLine
 10
311.427319032
 20
136.4495554621
 30
0.0
 11
274.2383462863
 21
114.9784920365
 31
0.0
  0
LINE
  5
87
330
6F
100
AcDbEntity
  8
DN50
  6
Continuous
 62
     7
100
AcDbLine
 10
254.7719850012
 20
104.5874918121
 30
0.0
 11
254.8825428054
 21
104.5211420044
 31
0.0
  0
LINE
  5
88
330
6F
100
AcDbEntity
  8
DN50
  6
Continuous
 62
     7
100
AcDbLine
 10
254.7719850012
 20
104.5874918121
 30
0.0
 11
312.911670984
 21
71.0205284593
 31
0.0
  0
ARC
  5
89
330
6F
100
AcDbEntity
  8
DN50
  6
Continuous
 62
     7
100
AcDbCircle
 10
80.8951500063
 20
281.5407735252
 30
0.0
 40
248.0838923768724
100
AcDbArc
 50
314.4975833414
 51
315.4941923694
  0
LINE
  5
8A
330
6F
100
AcDbEntity
  8
DN50
  6
Continuous
 62
     7
100
AcDbLine
 10
318.0053381196
 20
87.7096075199
 30
0.0
 11
271.7052083827
 21
114.440999887
 31
0.0
  0
LINE
  5
8B
330
6F
100
AcDbEntity
  8
DN50
  6
Continuous
 62
     7
100
AcDbLine
 10
318.0053381196
 20
87.7096075199
 30
0.0
 11
316.9158498962
 21
85.8225585628
 31
0.0
  0
LINE
  5
8C
330
6F
100
AcDbEntity
  8
DN50
  6
Continuous
 62
     7
100
AcDbLine
 10
316.3218494842
 20
90.6815701367
 30
0.0
 11
274.2383462863
 21
114.9784920365
 31
0.0
  0
LINE
  5
8D
330
6F
100
AcDbEntity
  8
DN50
  6
Continuous
 62
     7
100
AcDbLine
 10
317.866335857
 20
93.3566990061
 30
0.0
 11
322.1060737577
 21
90.9088851879
 31
0.0
  0
LINE
  5
8E
330
6F
100
AcDbEntity
  8
DN50
  6
Continuous
 62
     7
100
AcDbLine
 10
317.866335857
 20
93.3566990061
 30
0.0
 11
316.3218494842
 21
90.6815701367
 31
0.0
  0
ARC
  5
8F
330
6F
100
AcDbEntity
  8
DN50
  6
Continuous
 62
     7
100
AcDbCircle
 10
531.0975916793
 20
210.3799711998
 30
0.0
 40
245.8786827939865
100
AcDbArc
 50
209.1317136475
 51
209.9276515446
  0
LINE
  5
90
330
6F
100
AcDbEntity
  8
DN50
  6
Continuous
 62
     7
100
AcDbLine
 10
316.9158498962
 20
85.8225585628
 30
0.0
 11
318.4037071285
 21
84.9635437892
 31
0.0
  0
ARC
  5
91
330
6F
100
AcDbEntity
  8
DN50
  6
Continuous
 62
     7
100
AcDbCircle
 10
351.0323658113
 20
73.4390212584
 30
0.0
 40
35.4909047933871
100
AcDbArc
 50
139.5765346838
 51
148.9244374909
  0
LINE
  5
92
330
6F
100
AcDbEntity
  8
DN50
  6
Continuous
 62
     7
100
AcDbLine
 10
321.9971920131
 20
90.9717480924
 30
0.0
 11
325.883090398
 21
93.215272571
 31
0.0
  0
LINE
  5
93
330
6F
100
AcDbEntity
  8
DN50
  6
Continuous
 62
     7
100
AcDbLine
 10
316.9219323442
 20
83.0415455564
 30
0.0
 11
330.3394910507
 21
90.7881766874
 31
0.0
  0
ARC
  5
94
330
6F
100
AcDbEntity
  8
DN50
  6
Continuous
 62
     7
100
AcDbCircle
 10
376.9571357438
 20
54.8667325373
 30
0.0
 40
66.31776335109497
100
AcDbArc
 50
152.7762162054
 51
154.8591062933
  0
ARC
  5
95
330
6F
100
AcDbEntity
  8
DN50
  6
Continuous
 62
     7
100
AcDbCircle
 10
350.8986259136
 20
68.8533164697
 30
0.0
 40
36.26925931334323
100
AcDbArc
 50
142.5472910477
 51
153.6288522086
  0
ARC
  5
96
330
6F
100
AcDbEntity
  8
DN50
  6
Continuous
 62
     7
100
AcDbCircle
 10
344.1357629055
 20
30.0812394472
 30
0.0
 40
73.03768067271932
100
AcDbArc
 50
84.5151780224
 51
86.3956908627
  0
SPLINE
  5
97
330
6F
100
AcDbEntity
  8
DN50
  6
Continuous
 62
     7
100
AcDbSpline
210
0.0
220
0.0
230
1.0
 70
     8
 71
     3
 72
    10
 73
     6
 74
     0
 42
0.000000001
 43
0.0000000001
 40
0.0
 40
0.0
 40
0.0
 40
0.0
 40
0.5
 40
0.5
 40
0.5006823428211851
 40
0.5006823428211851
 40
0.5006823428211851
 40
0.5006823428211851
 10
351.1168550477283
 20
102.7845210137697
 30
0.0
 10
352.1998739043856
 20
102.5934103445721
 30
0.0
 10
352.881474014513
 20
102.4499230550496
 30
0.0
 10
352.8832885271635
 20
102.4495557116003
 30
0.0
 10
352.8832897221675
 20
102.4495554799591
 30
0.0
 10
352.883289640039
 20
102.4495555170546
 30
0.0
  0
LINE
  5
98
330
6F
100
AcDbEntity
  8
DN50
  6
Continuous
 62
     7
100
AcDbLine
 10
343.5311666093
 20
106.0198898782
 30
0.0
 11
345.6726221053
 21
104.6412916589
 31
0.0
  0
LINE
  5
99
330
6F
100
AcDbEntity
  8
DN50
  6
Continuous
 62
     7
100
AcDbLine
 10
345.6726221053
 20
104.6412916589
 30
0.0
 11
348.727319032
 21
102.9744518224
 31
0.0
  0
LINE
  5
9A
330
6F
100
AcDbEntity
  8
DN50
  6
Continuous
 62
     7
100
AcDbLine
 10
314.4964711086
 20
73.9495554621
 30
0.0
 11
320.0946347054
 21
73.9495554621
 31
0.0
  0
ARC
  5
9B
330
6F
100
AcDbEntity
  8
DN50
  6
Continuous
 62
     7
100
AcDbCircle
 10
380.0238175856
 20
59.6687455927
 30
0.0
 40
67.29142366721045
100
AcDbArc
 50
159.675480764
 51
161.6948596048
  0
LINE
  5
9C
330
6F
100
AcDbEntity
  8
DN50
  6
Continuous
 62
     7
100
AcDbLine
 10
316.1375214129
 20
80.8034767359
 30
0.0
 11
320.0946347054
 21
73.9495554621
 31
0.0
  0
LINE
  5
9D
330
6F
100
AcDbEntity
  8
DN50
  6
Continuous
 62
     7
100
AcDbLine
 10
315.331965181
 20
75.396673645
 30
0.0
 11
258.6262713178
 21
108.1357212615
 31
0.0
  0
LINE
  5
9E
330
6F
100
AcDbEntity
  8
DN50
  6
Continuous
 62
     7
100
AcDbLine
 10
315.331965181
 20
75.396673645
 30
0.0
 11
314.4964711086
 21
73.9495554621
 31
0.0
  0
LINE
  5
9F
330
6F
100
AcDbEntity
  8
DN50
  6
Continuous
 62
     7
100
AcDbLine
 10
314.59491794
 20
78.1316091448
 30
0.0
 11
261.8665831063
 21
108.574327455
 31
0.0
  0
LINE
  5
A0
330
6F
100
AcDbEntity
  8
DN50
  6
Continuous
 62
     7
100
AcDbLine
 10
314.59491794
 20
78.1316091448
 30
0.0
 11
315.331965181
 21
75.396673645
 31
0.0
  0
LINE
  5
A1
330
6F
100
AcDbEntity
  8
DN50
  6
Continuous
 62
     7
100
AcDbLine
 10
316.1375214129
 20
80.8034767359
 30
0.0
 11
314.59491794
 21
78.1316091448
 31
0.0
  0
LINE
  5
A2
330
6F
100
AcDbEntity
  8
DN50
  6
Continuous
 62
     7
100
AcDbLine
 10
332.0981417631
 20
87.7421043007
 30
0.0
 11
338.7737977259
 21
91.5962960678
 31
0.0
  0
LINE
  5
A3
330
6F
100
AcDbEntity
  8
DN50
  6
Continuous
 62
     7
100
AcDbLine
 10
337.0149185431
 20
94.6427641767
 30
0.0
 11
351.1168550477
 21
102.7845210138
 31
0.0
  0
LINE
  5
A4
330
6F
100
AcDbEntity
  8
DN50
  6
Continuous
 62
     7
100
AcDbLine
 10
337.1411921769
 20
99.7156682932
 30
0.0
 11
345.6726221053
 21
104.6412916589
 31
0.0
  0
SPLINE
  5
A5
330
6F
100
AcDbEntity
  8
DN50
  6
Continuous
 62
     7
100
AcDbSpline
210
0.0
220
0.0
230
1.0
 70
     8
 71
     3
 72
     8
 73
     4
 74
     0
 42
0.000000001
 43
0.0000000001
 40
0.0
 40
0.0
 40
0.0
 40
0.0
 40
1.0
 40
1.0
 40
1.0
 40
1.0
 10
337.1411921768507
 20
99.71566829316316
 30
0.0
 10
337.0814537690072
 20
98.02565898654095
 30
0.0
 10
337.0446174521158
 20
96.33410953472374
 30
0.0
 10
337.0149185430826
 20
94.64276417671752
 30
0.0
  0
ARC
  5
A6
330
6F
100
AcDbEntity
  8
DN50
  6
Continuous
 62
     7
100
AcDbCircle
 10
340.4339897344
 20
68.7309838331
 30
0.0
 40
37.41730907793657
100
AcDbArc
 50
85.2519720246
 51
100.2552686636
  0
LINE
  5
A7
330
6F
100
AcDbEntity
  8
DN50
  6
Continuous
 62
     7
100
AcDbLine
 10
333.7724353064
 20
105.5505263511
 30
0.0
 11
337.1411921769
 21
99.7156682932
 31
0.0
  0
LINE
  5
A8
330
6F
100
AcDbEntity
  8
DN50
  6
Continuous
 62
     7
100
AcDbLine
 10
337.0149185431
 20
94.6427641767
 30
0.0
 11
338.7737977259
 21
91.5962960678
 31
0.0
  0
LINE
  5
A9
330
6F
100
AcDbEntity
  8
DN50
  6
Continuous
 62
     7
100
AcDbLine
 10
329.2668818069
 20
105.5505263511
 30
0.0
 11
311.427319032
 21
136.4495554621
 31
0.0
  0
LINE
  5
AA
330
6F
100
AcDbEntity
  8
DN50
  6
Continuous
 62
     7
100
AcDbLine
 10
333.7724353064
 20
105.5505263511
 30
0.0
 11
329.2668818069
 21
105.5505263511
 31
0.0
  0
LINE
  5
AB
330
6F
100
AcDbEntity
  8
DN50
  6
Continuous
 62
     7
100
AcDbLine
 10
325.883090398
 20
93.215272571
 30
0.0
 11
324.0141050572
 21
96.4524501398
 31
0.0
  0
LINE
  5
AC
330
6F
100
AcDbEntity
  8
DN50
  6
Continuous
 62
     7
100
AcDbLine
 10
330.3394910507
 20
90.7881766874
 30
0.0
 11
325.883090398
 21
93.215272571
 31
0.0
  0
LINE
  5
AD
330
6F
100
AcDbEntity
  8
DN50
  6
Continuous
 62
     7
100
AcDbLine
 10
329.2668818069
 20
105.5505263511
 30
0.0
 11
324.0141050572
 21
96.4524501398
 31
0.0
  0
LINE
  5
AE
330
6F
100
AcDbEntity
  8
DN50
  6
Continuous
 62
     7
100
AcDbLine
 10
332.0981417631
 20
87.7421043007
 30
0.0
 11
330.3394910507
 21
90.7881766874
 31
0.0
  0
LINE
  5
AF
330
6F
100
AcDbEntity
  8
DN50
  6
Continuous
 62
     7
100
AcDbLine
 10
376.449960448
 20
171.1495554621
 30
0.0
 11
365.422692499
 21
171.1495554621
 31
0.0
  0
LINE
  5
B0
330
6F
100
AcDbEntity
  8
DN50
  6
Continuous
 62
     7
100
AcDbLine
 10
376.449960448
 20
150.8227660764
 30
0.0
 11
365.422692499
 21
150.8227660764
 31
0.0
  0
LINE
  5
B1
330
6F
100
AcDbEntity
  8
DN50
  6
Continuous
 62
     7
100
AcDbLine
 10
376.449960448
 20
122.0763448477
 30
0.0
 11
365.422692499
 21
122.0763448477
 31
0.0
  0
LINE
  5
B2
330
6F
100
AcDbEntity
  8
DN50
  6
Continuous
 62
     7
100
AcDbLine
 10
376.449960448
 20
101.7495554621
 30
0.0
 11
365.422692499
 21
101.7495554621
 31
0.0
  0
LINE
  5
B3
330
6F
100
AcDbEntity
  8
DN50
  6
Continuous
 62
     7
100
AcDbLine
 10
377.927319032
 20
169.9495554621
 30
0.0
 11
377.927319032
 21
102.9495554621
 31
0.0
  0
LINE
  5
B4
330
6F
100
AcDbEntity
  8
DN50
  6
Continuous
 62
     7
100
AcDbLine
 10
376.449960448
 20
171.1495554621
 30
0.0
 11
377.490554621
 21
171.1495554621
 31
0.0
  0
LINE
  5
B5
330
6F
100
AcDbEntity
  8
DN50
  6
Continuous
 62
     7
100
AcDbLine
 10
377.490554621
 20
101.7495554621
 30
0.0
 11
376.449960448
 21
101.7495554621
 31
0.0
  0
ARC
  5
B6
330
6F
100
AcDbEntity
  8
DN50
  6
Continuous
 62
     7
100
AcDbCircle
 10
327.0689458539
 20
111.9129501549
 30
0.0
 40
50.41606087375136
100
AcDbArc
 50
348.3700223339
 51
11.6299776661
  0
SPLINE
  5
B7
330
6F
100
AcDbEntity
  8
DN50
  6
Continuous
 62
     7
100
AcDbSpline
210
0.0
220
0.0
230
1.0
 70
     8
 71
     3
 72
    14
 73
    10
 74
     0
 42
0.000000001
 43
0.0000000001
 40
0.0
 40
0.0
 40
0.0
 40
0.0
 40
0.25
 40
0.25
 40
0.5
 40
0.5
 40
0.75
 40
0.75
 40
1.0
 40
1.0
 40
1.0
 40
1.0
 10
376.4499604479633
 20
122.0763448477449
 30
0.0
 10
376.7812582415537
 20
124.4548988430902
 30
0.0
 10
377.0425728798904
 20
126.8373162801971
 30
0.0
 10
377.3967847294034
 20
131.6114486906408
 30
0.0
 10
377.4892950164651
 20
134.0031850242432
 30
0.0
 10
377.4917886848931
 20
138.7967341458107
 30
0.0
 10
377.4017237108078
 20
141.1985496032534
 30
0.0
 10
377.0479094800484
 20
146.011768812754
 30
0.0
 10
376.7835185008276
 20
148.4279845394953
 30
0.0
 10
376.4499604479633
 20
150.8227660764377
 30
0.0
  0
ARC
  5
B8
330
6F
100
AcDbEntity
  8
DN50
  6
Continuous
 62
     7
100
AcDbCircle
 10
327.0689458539
 20
160.9861607693
 30
0.0
 40
50.41606087375244
100
AcDbArc
 50
348.3700223339
 51
11.6299776661
  0
LINE
  5
B9
330
6F
100
AcDbEntity
  8
DN50
  6
Continuous
 62
     7
100
AcDbLine
 10
224.9046776161
 20
101.7495554621
 30
0.0
 11
235.9319455651
 21
101.7495554621
 31
0.0
  0
LINE
  5
BA
330
6F
100
AcDbEntity
  8
DN50
  6
Continuous
 62
     7
100
AcDbLine
 10
224.9046776161
 20
122.0763448477
 30
0.0
 11
235.9319455651
 21
122.0763448477
 31
0.0
  0
LINE
  5
BB
330
6F
100
AcDbEntity
  8
DN50
  6
Continuous
 62
     7
100
AcDbLine
 10
224.9046776161
 20
150.8227660764
 30
0.0
 11
235.9319455651
 21
150.8227660764
 31
0.0
  0
LINE
  5
BC
330
6F
100
AcDbEntity
  8
DN50
  6
Continuous
 62
     7
100
AcDbLine
 10
224.9046776161
 20
171.1495554621
 30
0.0
 11
235.9319455651
 21
171.1495554621
 31
0.0
  0
LINE
  5
BD
330
6F
100
AcDbEntity
  8
DN50
  6
Continuous
 62
     7
100
AcDbLine
 10
224.9046776161
 20
101.7495554621
 30
0.0
 11
223.8640834431
 21
101.7495554621
 31
0.0
  0
LINE
  5
BE
330
6F
100
AcDbEntity
  8
DN50
  6
Continuous
 62
     7
100
AcDbLine
 10
223.8640834431
 20
171.1495554621
 30
0.0
 11
224.9046776161
 21
171.1495554621
 31
0.0
  0
ARC
  5
BF
330
6F
100
AcDbEntity
  8
DN50
  6
Continuous
 62
     7
100
AcDbCircle
 10
274.2856922102
 20
160.9861607693
 30
0.0
 40
50.41606087375263
100
AcDbArc
 50
168.3700223339
 51
191.6299776661
  0
SPLINE
  5
C0
330
6F
100
AcDbEntity
  8
DN50
  6
Continuous
 62
     7
100
AcDbSpline
210
0.0
220
0.0
230
1.0
 70
     8
 71
     3
 72
    14
 73
    10
 74
     0
 42
0.000000001
 43
0.0000000001
 40
0.0
 40
0.0
 40
0.0
 40
0.0
 40
0.25
 40
0.25
 40
0.5
 40
0.5
 40
0.75
 40
0.75
 40
1.0
 40
1.0
 40
1.0
 40
1.0
 10
224.9046776160861
 20
150.8227660764377
 30
0.0
 10
224.5711195632219
 20
148.4279845394953
 30
0.0
 10
224.3067285840011
 20
146.011768812754
 30
0.0
 10
223.9529143532416
 20
141.1985496032534
 30
0.0
 10
223.8628493791564
 20
138.7967341458107
 30
0.0
 10
223.8653430475844
 20
134.0031850242432
 30
0.0
 10
223.957853334646
 20
131.6114486906408
 30
0.0
 10
224.3120651841591
 20
126.8373162801971
 30
0.0
 10
224.5733798224958
 20
124.4548988430902
 30
0.0
 10
224.9046776160861
 20
122.0763448477449
 30
0.0
  0
ARC
  5
C1
330
6F
100
AcDbEntity
  8
DN50
  6
Continuous
 62
     7
100
AcDbCircle
 10
274.2856922102
 20
111.9129501549
 30
0.0
 40
50.41606087375246
100
AcDbArc
 50
168.3700223339
 51
191.6299776661
  0
LINE
  5
C2
330
6F
100
AcDbEntity
  8
DN50
  6
Continuous
 62
     7
100
AcDbLine
 10
223.427319032
 20
169.9495554621
 30
0.0
 11
223.427319032
 21
102.9495554621
 31
0.0
  0
LINE
  5
C3
330
6F
100
AcDbEntity
  8
DN50
  6
Continuous
 62
     7
100
AcDbLine
 10
342.3084079453
 20
84.7657880486
 30
0.0
 11
357.8968652134
 21
93.7657880486
 31
0.0
  0
LINE
  5
C4
330
6F
100
AcDbEntity
  8
DN50
  6
Continuous
 62
     7
100
AcDbLine
 10
320.6577728507
 20
72.2657880486
 30
0.0
 11
336.2462301188
 21
81.2657880486
 31
0.0
  0
LINE
  5
C5
330
6F
100
AcDbEntity
  8
DN50
  6
Continuous
 62
     7
100
AcDbLine
 10
254.8825428054
 20
104.5211420044
 30
0.0
 11
312.6940737746
 21
71.143639037
 31
0.0
  0
LINE
  5
C6
330
6F
100
AcDbEntity
  8
DN50
  6
Continuous
 62
     7
100
AcDbLine
 10
253.3082485312
 20
102.8425607094
 30
0.0
 11
253.2566255788
 21
102.9405303051
 31
0.0
  0
LINE
  5
C7
330
6F
100
AcDbEntity
  8
DN50
  6
Continuous
 62
     7
100
AcDbLine
 10
344.5056856622
 20
63.4599914046
 30
0.0
 11
331.9483173073
 21
56.2099914046
 31
0.0
  0
LINE
  5
C8
330
6F
100
AcDbEntity
  8
DN50
  6
Continuous
 62
     7
100
AcDbLine
 10
331.5589948876
 20
59.449317616
 30
0.0
 11
341.8950080818
 21
65.416817616
 31
0.0
  0
LINE
  5
C9
330
6F
100
AcDbEntity
  8
DN50
  6
Continuous
 62
     7
100
AcDbLine
 10
349.0056856622
 20
55.6657627706
 30
0.0
 11
336.4483173073
 21
48.4157627706
 31
0.0
  0
LINE
  5
CA
330
6F
100
AcDbEntity
  8
DN50
  6
Continuous
 62
     7
100
AcDbLine
 10
366.1563207568
 20
75.9599914046
 30
0.0
 11
353.5989524019
 21
68.7099914046
 31
0.0
  0
LINE
  5
CB
330
6F
100
AcDbEntity
  8
DN50
  6
Continuous
 62
     7
100
AcDbLine
 10
353.2096299822
 20
71.949317616
 30
0.0
 11
363.5456431764
 21
77.916817616
 31
0.0
  0
LINE
  5
CC
330
6F
100
AcDbEntity
  8
DN50
  6
Continuous
 62
     7
100
AcDbLine
 10
370.6563207568
 20
68.1657627706
 30
0.0
 11
358.0989524019
 21
60.9157627706
 31
0.0
  0
LINE
  5
CD
330
6F
100
AcDbEntity
  8
DN50
  6
Continuous
 62
     7
100
AcDbLine
 10
253.2566255788
 20
102.9405303051
 30
0.0
 11
311.6031695254
 21
69.2541374512
 31
0.0
  0
ARC
  5
CE
330
6F
100
AcDbEntity
  8
DN50
  6
Continuous
 62
     7
100
AcDbCircle
 10
54.4735347201
 20
309.0479645421
 30
0.0
 40
286.3476761895065
100
AcDbArc
 50
313.9636502441
 51
314.417376189
  0
ARC
  5
CF
330
6F
100
AcDbEntity
  8
DN50
  6
Continuous
 62
     7
100
AcDbCircle
 10
271.1200370187
 20
105.906939562
 30
0.0
 40
23.4295963121904
100
AcDbArc
 50
223.7780344807
 51
256.2219655193
  0
LINE
  5
D0
330
6F
100
AcDbEntity
  8
DN50
  6
Continuous
 62
     7
100
AcDbLine
 10
265.5400177522
 20
83.1515145311
 30
0.0
 11
269.996926861
 21
90.9617221577
 31
0.0
  0
ARC
  5
D1
330
6F
100
AcDbEntity
  8
DN50
  6
Continuous
 62
     7
100
AcDbCircle
 10
275.5962574066
 20
113.7959026077
 30
0.0
 40
23.51068479184043
100
AcDbArc
 50
223.7780323595
 51
256.2219676405
  0
ARC
  5
D2
330
6F
100
AcDbEntity
  8
DN50
  6
Continuous
 62
     7
100
AcDbCircle
 10
322.4999043154
 20
155.627835744
 30
0.0
 40
92.1805066911591
100
AcDbArc
 50
231.8358304977
 51
248.1641695023
  0
LINE
  5
D3
330
6F
100
AcDbEntity
  8
DN50
  6
Continuous
 62
     7
100
AcDbLine
 10
288.2135122538
 20
70.0609663771
 30
0.0
 11
292.7488959128
 21
77.8258667011
 31
0.0
  0
ARC
  5
D4
330
6F
100
AcDbEntity
  8
DN50
  6
Continuous
 62
     7
100
AcDbCircle
 10
327.1539503875
 20
163.6888800016
 30
0.0
 40
92.49953960128677
100
AcDbArc
 50
231.8358295851
 51
248.1641704149
  0
ARC
  5
D5
330
6F
100
AcDbEntity
  8
DN50
  6
Continuous
 62
     7
100
AcDbCircle
 10
305.1302787708
 20
86.2711173304
 30
0.0
 40
23.42959631146967
100
AcDbArc
 50
223.7780344802
 51
256.2219655198
  0
LINE
  5
D6
330
6F
100
AcDbEntity
  8
DN50
  6
Continuous
 62
     7
100
AcDbLine
 10
299.5502595046
 20
63.5156923001
 30
0.0
 11
304.1248804387
 21
71.2579389727
 31
0.0
  0
ARC
  5
D7
330
6F
100
AcDbEntity
  8
DN50
  6
Continuous
 62
     7
100
AcDbCircle
 10
309.7242109843
 20
94.0921194227
 30
0.0
 40
23.51068479184038
100
AcDbArc
 50
223.7780323595
 51
256.2219676405
  0
LINE
  5
D8
330
6F
100
AcDbEntity
  8
DN50
  6
Continuous
 62
     7
100
AcDbLine
 10
254.2032705013
 20
89.6967886081
 30
0.0
 11
258.6209423351
 21
97.529649886
 31
0.0
  0
LINE
  5
D9
330
6F
100
AcDbEntity
  8
DN50
  6
Continuous
 62
     7
100
AcDbLine
 10
287.3691631966
 20
66.7796072188
 30
0.0
 11
263.1204518907
 21
80.7796072188
 31
0.0
  0
LINE
  5
DA
330
6F
100
AcDbEntity
  8
DN50
  6
Continuous
 62
     7
100
AcDbLine
 10
280.4741678007
 20
54.837124875
 30
0.0
 11
256.2254564947
 21
68.837124875
 31
0.0
  0
LINE
  5
DB
330
6F
100
AcDbEntity
  8
DN50
  6
Continuous
 62
     7
100
AcDbLine
 10
278.3568284248
 20
54.2697854992
 30
0.0
 11
256.7927958706
 21
66.7197854992
 31
0.0
  0
LINE
  5
DC
330
6F
100
AcDbEntity
  8
DN50
  6
Continuous
 62
     7
100
AcDbLine
 10
280.4707572563
 20
15.7491783138
 30
0.0
 11
281.7342712922
 21
15.0196881451
 31
0.0
  0
LINE
  5
DD
330
6F
100
AcDbEntity
  8
DN50
  6
Continuous
 62
     7
100
AcDbLine
 10
276.4746067496
 20
45.3938574619
 30
0.0
 11
272.8768338641
 21
47.4710326059
 31
0.0
  0
ELLIPSE
  5
DE
330
6F
100
AcDbEntity
  8
DN50
  6
Continuous
 62
     7
100
AcDbEllipse
 10
306.7659780339
 20
108.7341637837
 30
0.0
 11
-48.63123875828191
 21
-84.23177636473862
 31
0.0
210
0.0
220
0.0
230
1.0
 40
0.906307787
 41
0.0145519554111457
 42
0.2724474645210758
  0
LINE
  5
DF
330
6F
100
AcDbEntity
  8
DN50
  6
Continuous
 62
     7
100
AcDbLine
 10
280.4707572563
 20
15.7491783138
 30
0.0
 11
286.8082422443
 21
26.7260243052
 31
0.0
  0
ELLIPSE
  5
E0
330
6F
100
AcDbEntity
  8
DN50
  6
Continuous
 62
     7
100
AcDbEllipse
 10
312.4474853741
 20
105.4539439918
 30
0.0
 11
-49.23439875181136
 21
-85.27648011814293
 31
0.0
210
0.0
220
0.0
230
1.0
 40
0.3420201433
 41
-0.282290264374236
 42
-0.1573587721919356
  0
LINE
  5
E1
330
6F
100
AcDbEntity
  8
DN50
  6
Continuous
 62
     7
100
AcDbLine
 10
259.250744076
 20
23.8699527845
 30
0.0
 11
272.8768338641
 21
47.4710326059
 31
0.0
  0
LINE
  5
E2
330
6F
100
AcDbEntity
  8
DN50
  6
Continuous
 62
     7
100
AcDbLine
 10
272.8768338641
 20
47.4710326059
 30
0.0
 11
272.5615260786
 21
47.6530756407
 31
0.0
  0
LINE
  5
E3
330
6F
100
AcDbEntity
  8
DN50
  6
Continuous
 62
     7
100
AcDbLine
 10
244.9129885228
 20
35.2433555886
 30
0.0
 11
257.0373441757
 21
28.2433555886
 31
0.0
  0
LINE
  5
E4
330
6F
100
AcDbEntity
  8
DN50
  6
Continuous
 62
     7
100
AcDbLine
 10
257.0373441757
 20
28.2433555886
 30
0.0
 11
263.9669736528
 21
40.2458259205
 31
0.0
  0
ELLIPSE
  5
E5
330
6F
100
AcDbEntity
  8
DN50
  6
Continuous
 62
     7
100
AcDbEllipse
 10
284.074248922
 20
121.8352396954
 30
0.0
 11
-49.23439875178701
 21
-85.27648011834646
 31
0.0
210
0.0
220
0.0
230
1.0
 40
0.3420201433
 41
0.1683144529110496
 42
0.2822902643739282
  0
LINE
  5
E6
330
6F
100
AcDbEntity
  8
DN50
  6
Continuous
 62
     7
100
AcDbLine
 10
244.9129885228
 20
35.2433555886
 30
0.0
 11
251.8426179998
 21
47.2458259205
 31
0.0
  0
ELLIPSE
  5
E7
330
6F
100
AcDbEntity
  8
DN50
  6
Continuous
 62
     7
100
AcDbEllipse
 10
293.097360389
 20
116.625743861
 30
0.0
 11
-49.23439875297046
 21
-85.2764801177119
 31
0.0
210
0.0
220
0.0
230
1.0
 40
0.9396926208
 41
6.000895042817602
 42
6.114870854280451
  0
LINE
  5
E8
330
6F
100
AcDbEntity
  8
DN50
  6
Continuous
 62
     7
100
AcDbLine
 10
231.1346531546
 20
40.3047319244
 30
0.0
 11
244.6732975526
 21
63.7543518874
 31
0.0
  0
LINE
  5
E9
330
6F
100
AcDbEntity
  8
DN50
  6
Continuous
 62
     7
100
AcDbLine
 10
223.4899430465
 20
47.6119566612
 30
0.0
 11
222.8293407263
 21
47.9933555886
 31
0.0
  0
LINE
  5
EA
330
6F
100
AcDbEntity
  8
DN50
  6
Continuous
 62
     7
100
AcDbLine
 10
223.4899430465
 20
47.6119566612
 30
0.0
 11
230.4195725236
 21
59.614426993
 31
0.0
  0
LINE
  5
EB
330
6F
100
AcDbEntity
  8
DN50
  6
Continuous
 62
     7
100
AcDbLine
 10
231.1346531546
 20
40.3047319244
 30
0.0
 11
240.4215638188
 21
34.9429315525
 31
0.0
  0
LINE
  5
EC
330
6F
100
AcDbEntity
  8
DN50
  6
Continuous
 62
     7
100
AcDbLine
 10
240.4215638188
 20
34.9429315525
 30
0.0
 11
253.9602082168
 21
58.3925515155
 31
0.0
  0
LINE
  5
ED
330
6F
100
AcDbEntity
  8
DN50
  6
Continuous
 62
     7
100
AcDbLine
 10
253.9602082168
 20
58.3925515155
 30
0.0
 11
244.6732975526
 21
63.7543518874
 31
0.0
  0
SPLINE
  5
EE
330
6F
100
AcDbEntity
  8
DN50
  6
Continuous
 62
     7
100
AcDbSpline
210
0.0
220
0.0
230
1.0
 70
     8
 71
     3
 72
    18
 73
    14
 74
     0
 42
0.000000001
 43
0.0000000001
 40
0.0
 40
0.0
 40
0.0
 40
0.0
 40
0.062500000000001
 40
0.062500000000001
 40
0.125000000000002
 40
0.125000000000002
 40
0.2500000000000024
 40
0.2500000000000024
 40
0.5000000000000016
 40
0.5000000000000016
 40
0.7500000000000009
 40
0.7500000000000009
 40
1.0
 40
1.0
 40
1.0
 40
1.0
 10
276.4746067496488
 20
45.39385746192956
 30
0.0
 10
276.2163117354599
 20
44.94647737401276
 30
0.0
 10
276.0861805364285
 20
44.44531342804621
 30
0.0
 10
275.9949464809188
 20
43.45156278306646
 30
0.0
 10
276.0268218733809
 20
42.9533154318086
 30
0.0
 10
276.2273223960153
 20
41.50259120682224
 30
0.0
 10
276.4928780249701
 20
40.58477444926584
 30
0.0
 10
277.4331794570789
 20
37.88505044927219
 30
0.0
 10
278.2622930200274
 20
36.18543109499541
 30
0.0
 10
280.1680653938237
 20
33.00456698695976
 30
0.0
 10
281.2684839168799
 20
31.50629491928162
 30
0.0
 10
283.803815396506
 20
28.81559924504504
 30
0.0
 10
285.2105454816855
 20
27.64845496119242
 30
0.0
 10
286.8082422442545
 20
26.72602430523976
 30
0.0
  0
LINE
  5
EF
330
6F
100
AcDbEntity
  8
DN50
  6
Continuous
 62
     7
100
AcDbLine
 10
288.0717562802
 20
25.9965341365
 30
0.0
 11
286.8082422443
 21
26.7260243052
 31
0.0
  0
LINE
  5
F0
330
6F
100
AcDbEntity
  8
DN50
  6
Continuous
 62
     7
100
AcDbLine
 10
276.4746067496
 20
45.3938574619
 30
0.0
 11
284.0454768385
 21
41.0228135781
 31
0.0
  0
SPLINE
  5
F1
330
6F
100
AcDbEntity
  8
DN50
  6
Continuous
 62
     7
100
AcDbSpline
210
0.0
220
0.0
230
1.0
 70
     8
 71
     3
 72
    14
 73
    10
 74
     0
 42
0.000000001
 43
0.0000000001
 40
0.0
 40
0.0
 40
0.0
 40
0.0
 40
0.25
 40
0.25
 40
0.5
 40
0.5
 40
0.75
 40
0.75
 40
1.0
 40
1.0
 40
1.0
 40
1.0
 10
263.9669736527828
 20
40.24582592047726
 30
0.0
 10
264.5028685554572
 20
40.24523875306895
 30
0.0
 10
265.1042764425085
 20
40.40358960187287
 30
0.0
 10
266.4304141825079
 20
41.01947700749701
 30
0.0
 10
267.1600089332955
 20
41.48392641887165
 30
0.0
 10
268.6646823873448
 20
42.69738108338831
 30
0.0
 10
269.4690410202574
 20
43.46917848969734
 30
0.0
 10
271.0657516410009
 20
45.33582535895723
 30
0.0
 10
271.8642975485301
 20
46.44544040219375
 30
0.0
 10
272.5615260785822
 20
47.65307564073062
 30
0.0
  0
LINE
  5
F2
330
6F
100
AcDbEntity
  8
DN50
  6
Continuous
 62
     7
100
AcDbLine
 10
272.5615260786
 20
47.6530756407
 30
0.0
 11
253.9602082168
 21
58.3925515155
 31
0.0
  0
SPLINE
  5
F3
330
6F
100
AcDbEntity
  8
DN50
  6
Continuous
 62
     7
100
AcDbSpline
210
0.0
220
0.0
230
1.0
 70
     8
 71
     3
 72
    14
 73
    10
 74
     0
 42
0.000000001
 43
0.0000000001
 40
0.0
 40
0.0
 40
0.0
 40
0.0
 40
0.25
 40
0.25
 40
0.5
 40
0.5
 40
0.75
 40
0.75
 40
1.0
 40
1.0
 40
1.0
 40
1.0
 10
253.9602082168155
 20
58.39255151550337
 30
0.0
 10
253.2651005296626
 20
57.18858968462276
 30
0.0
 10
252.7086372947046
 20
55.95576504707054
 30
0.0
 10
251.888918037277
 20
53.64243300533981
 30
0.0
 10
251.6209476129703
 20
52.55939005398982
 30
0.0
 10
251.3189925006631
 20
50.64089671903196
 30
0.0
 10
251.2809293673776
 20
49.77768317599692
 30
0.0
 10
251.4087577345421
 20
48.31845945968451
 30
0.0
 10
251.5747107953279
 20
47.70868287597
 30
0.0
 10
251.8426179998006
 20
47.24582592047726
 30
0.0
  0
LINE
  5
F4
330
6F
100
AcDbEntity
  8
DN50
  6
Continuous
 62
     7
100
AcDbLine
 10
251.8426179998
 20
47.2458259205
 30
0.0
 11
263.9669736528
 21
40.2458259205
 31
0.0
  0
SPLINE
  5
F5
330
6F
100
AcDbEntity
  8
DN50
  6
Continuous
 62
     7
100
AcDbSpline
210
0.0
220
0.0
230
1.0
 70
     8
 71
     3
 72
    14
 73
    10
 74
     0
 42
0.000000001
 43
0.0000000001
 40
0.0
 40
0.0
 40
0.0
 40
0.0
 40
0.25
 40
0.25
 40
0.5
 40
0.5
 40
0.75
 40
0.75
 40
1.0
 40
1.0
 40
1.0
 40
1.0
 10
230.4195725235787
 20
59.61442699303559
 30
0.0
 10
231.6582599052583
 20
59.20808239868921
 30
0.0
 10
232.9280569117579
 20
58.98053860945618
 30
0.0
 10
235.5262118364238
 20
58.86202655109935
 30
0.0
 10
236.8605798085476
 20
58.97730998033684
 30
0.0
 10
239.4190936489222
 20
59.58232961412568
 30
0.0
 10
240.6936475941451
 20
60.08265963030065
 30
0.0
 10
242.9705658296182
 20
61.55658845009152
 30
0.0
 10
243.9760690225818
 20
62.54671664887174
 30
0.0
 10
244.673297552634
 20
63.7543518874086
 30
0.0
  0
LINE
  5
F6
330
6F
100
AcDbEntity
  8
DN50
  6
Continuous
 62
     7
100
AcDbLine
 10
242.4762574569
 20
65.0228135781
 30
0.0
 11
244.6732975526
 21
63.7543518874
 31
0.0
  0
LINE
  5
F7
330
6F
100
AcDbEntity
  8
DN50
  6
Continuous
 62
     7
100
AcDbLine
 10
230.4195725236
 20
59.614426993
 30
0.0
 11
229.7589702033
 21
59.9958259205
 31
0.0
  0
LINE
  5
F8
330
6F
100
AcDbEntity
  8
DN50
  6
Continuous
 62
     7
100
AcDbLine
 10
278.3607037479
 20
52.6764977555
 30
0.0
 11
255.4110305475
 21
65.9264977556
 31
0.0
  0
LINE
  5
F9
330
6F
100
AcDbEntity
  8
DN50
  6
Continuous
 62
     7
100
AcDbLine
 10
364.382098196
 20
171.1495554621
 30
0.0
 11
364.127319032
 21
170.4495554621
 31
0.0
  0
LINE
  5
FA
330
6F
100
AcDbEntity
  8
DN50
  6
Continuous
 62
     7
100
AcDbLine
 10
364.127319032
 20
102.4495554621
 30
0.0
 11
364.382098196
 21
101.7495554621
 31
0.0
  0
LINE
  5
FB
330
6F
100
AcDbEntity
  8
DN50
  6
Continuous
 62
     7
100
AcDbLine
 10
364.127319032
 20
170.4495554621
 30
0.0
 11
348.727319032
 21
170.4495554621
 31
0.0
  0
LINE
  5
FC
330
6F
100
AcDbEntity
  8
DN50
  6
Continuous
 62
     7
100
AcDbLine
 10
352.8814105767
 20
102.4495554621
 30
0.0
 11
364.127319032
 21
102.4495554621
 31
0.0
  0
LINE
  5
FD
330
6F
100
AcDbEntity
  8
DN50
  6
Continuous
 62
     7
100
AcDbLine
 10
348.727319032
 20
170.4495554621
 30
0.0
 11
343.5311666093
 21
167.4495554621
 31
0.0
  0
LINE
  5
FE
330
6F
100
AcDbEntity
  8
DN50
  6
Continuous
 62
     7
100
AcDbLine
 10
252.627319032
 20
170.4495554621
 30
0.0
 11
237.227319032
 21
170.4495554621
 31
0.0
  0
LINE
  5
FF
330
6F
100
AcDbEntity
  8
DN50
  6
Continuous
 62
     7
100
AcDbLine
 10
237.227319032
 20
102.4495554621
 30
0.0
 11
252.627319032
 21
102.4495554621
 31
0.0
  0
LINE
  5
100
330
6F
100
AcDbEntity
  8
DN50
  6
Continuous
 62
     7
100
AcDbLine
 10
236.972539868
 20
101.7495554621
 30
0.0
 11
237.227319032
 21
102.4495554621
 31
0.0
  0
LINE
  5
101
330
6F
100
AcDbEntity
  8
DN50
  6
Continuous
 62
     7
100
AcDbLine
 10
237.227319032
 20
170.4495554621
 30
0.0
 11
236.972539868
 21
171.1495554621
 31
0.0
  0
LINE
  5
102
330
6F
100
AcDbEntity
  8
DN50
  6
Continuous
 62
     7
100
AcDbLine
 10
343.5311666093
 20
167.4495554621
 30
0.0
 11
257.8234714547
 21
167.4495554621
 31
0.0
  0
LINE
  5
103
330
6F
100
AcDbEntity
  8
DN50
  6
Continuous
 62
     7
100
AcDbLine
 10
252.627319032
 20
102.4495554621
 30
0.0
 11
253.3080398396
 21
102.8425698036
 31
0.0
  0
LINE
  5
104
330
6F
100
AcDbEntity
  8
DN50
  6
Continuous
 62
     7
100
AcDbLine
 10
257.8234714547
 20
167.4495554621
 30
0.0
 11
252.627319032
 21
170.4495554621
 31
0.0
  0
LINE
  5
105
330
6F
100
AcDbEntity
  8
DN50
  6
Continuous
 62
     7
100
AcDbLine
 10
312.6940737746
 20
71.143639037
 30
0.0
 11
312.911670984
 21
71.0205284593
 31
0.0
  0
LINE
  5
106
330
6F
100
AcDbEntity
  8
DN50
  6
Continuous
 62
     7
100
AcDbLine
 10
312.911670984
 20
71.0205284593
 30
0.0
 11
314.6027455126
 21
73.9495554621
 31
0.0
  0
LINE
  5
107
330
6F
100
AcDbEntity
  8
DN50
  6
Continuous
 62
     7
100
AcDbLine
 10
319.6856492812
 20
73.9495554621
 30
0.0
 11
320.6577728507
 21
72.2657880486
 31
0.0
  0
LINE
  5
108
330
6F
100
AcDbEntity
  8
DN50
  6
Continuous
 62
     7
100
AcDbLine
 10
336.2462301188
 20
81.2657880486
 30
0.0
 11
332.4048808313
 21
87.9192001842
 31
0.0
  0
LINE
  5
109
330
6F
100
AcDbEntity
  8
DN50
  6
Continuous
 62
     7
100
AcDbLine
 10
338.4670586577
 20
91.4192001842
 30
0.0
 11
342.3084079453
 21
84.7657880486
 31
0.0
  0
LINE
  5
10A
330
6F
100
AcDbEntity
  8
DN50
  6
Continuous
 62
     7
100
AcDbLine
 10
357.8968652134
 20
93.7657880486
 30
0.0
 11
352.8826589441
 21
102.4506480667
 31
0.0
  0
LINE
  5
10B
330
6F
100
AcDbEntity
  8
DN50
  6
Continuous
 62
     7
100
AcDbLine
 10
377.4905547509
 20
101.7495554621
 30
0.0
 11
377.927319032
 21
102.9495554621
 31
0.0
  0
LINE
  5
10C
330
6F
100
AcDbEntity
  8
DN50
  6
Continuous
 62
     7
100
AcDbLine
 10
377.927319032
 20
169.9495554621
 30
0.0
 11
377.4905547509
 21
171.1495554621
 31
0.0
  0
LINE
  5
10D
330
6F
100
AcDbEntity
  8
DN50
  6
Continuous
 62
     7
100
AcDbLine
 10
223.8640833131
 20
171.1495554621
 30
0.0
 11
223.427319032
 21
169.9495554621
 31
0.0
  0
LINE
  5
10E
330
6F
100
AcDbEntity
  8
DN50
  6
Continuous
 62
     7
100
AcDbLine
 10
223.427319032
 20
102.9495554621
 30
0.0
 11
223.8640833131
 21
101.7495554621
 31
0.0
  0
LINE
  5
10F
330
6F
100
AcDbEntity
  8
DN50
  6
Continuous
 62
     7
100
AcDbLine
 10
341.7777056402
 20
61.8849914046
 30
0.0
 11
340.2777056402
 21
64.483067616
 31
0.0
  0
LINE
  5
110
330
6F
100
AcDbEntity
  8
DN50
  6
Continuous
 62
     7
100
AcDbLine
 10
333.1762973292
 20
60.383067616
 30
0.0
 11
334.6762973292
 21
57.7849914046
 31
0.0
  0
LINE
  5
111
330
6F
100
AcDbEntity
  8
DN50
  6
Continuous
 62
     7
100
AcDbLine
 10
341.8950080818
 20
65.416817616
 30
0.0
 11
333.6200080818
 21
79.7495380486
 31
0.0
  0
LINE
  5
112
330
6F
100
AcDbEntity
  8
DN50
  6
Continuous
 62
     7
100
AcDbLine
 10
323.2839948876
 20
73.7820380486
 30
0.0
 11
331.5589948876
 21
59.449317616
 31
0.0
  0
LINE
  5
113
330
6F
100
AcDbEntity
  8
DN50
  6
Continuous
 62
     7
100
AcDbLine
 10
331.9483173073
 20
56.2099914046
 30
0.0
 11
336.4483173073
 21
48.4157627706
 31
0.0
  0
LINE
  5
114
330
6F
100
AcDbEntity
  8
DN50
  6
Continuous
 62
     7
100
AcDbLine
 10
349.0056856622
 20
55.6657627706
 30
0.0
 11
344.5056856622
 21
63.4599914046
 31
0.0
  0
LINE
  5
115
330
6F
100
AcDbEntity
  8
DN50
  6
Continuous
 62
     7
100
AcDbLine
 10
363.4283407348
 20
74.3849914046
 30
0.0
 11
361.9283407348
 21
76.983067616
 31
0.0
  0
LINE
  5
116
330
6F
100
AcDbEntity
  8
DN50
  6
Continuous
 62
     7
100
AcDbLine
 10
354.8269324238
 20
72.883067616
 30
0.0
 11
356.3269324238
 21
70.2849914046
 31
0.0
  0
LINE
  5
117
330
6F
100
AcDbEntity
  8
DN50
  6
Continuous
 62
     7
100
AcDbLine
 10
363.5456431764
 20
77.916817616
 30
0.0
 11
355.2706431764
 21
92.2495380486
 31
0.0
  0
LINE
  5
118
330
6F
100
AcDbEntity
  8
DN50
  6
Continuous
 62
     7
100
AcDbLine
 10
344.9346299822
 20
86.2820380486
 30
0.0
 11
353.2096299822
 21
71.949317616
 31
0.0
  0
LINE
  5
119
330
6F
100
AcDbEntity
  8
DN50
  6
Continuous
 62
     7
100
AcDbLine
 10
353.5989524019
 20
68.7099914046
 30
0.0
 11
358.0989524019
 21
60.9157627706
 31
0.0
  0
LINE
  5
11A
330
6F
100
AcDbEntity
  8
DN50
  6
Continuous
 62
     7
100
AcDbLine
 10
370.6563207568
 20
68.1657627706
 30
0.0
 11
366.1563207568
 21
75.9599914046
 31
0.0
  0
LINE
  5
11B
330
6F
100
AcDbEntity
  8
DN50
  6
Continuous
 62
     7
100
AcDbLine
 10
253.3078153094
 20
102.8427769118
 30
0.0
 11
258.6209423351
 21
97.529649886
 31
0.0
  0
LINE
  5
11C
330
6F
100
AcDbEntity
  8
DN50
  6
Continuous
 62
     7
100
AcDbLine
 10
304.1248804387
 20
71.2579389727
 30
0.0
 11
311.6031695254
 21
69.2541374512
 31
0.0
  0
LINE
  5
11D
330
6F
100
AcDbEntity
  8
DN50
  6
Continuous
 62
     7
100
AcDbLine
 10
311.6031695254
 20
69.2541374512
 30
0.0
 11
312.6940737746
 21
71.143639037
 31
0.0
  0
LINE
  5
11E
330
6F
100
AcDbEntity
  8
DN50
  6
Continuous
 62
     7
100
AcDbLine
 10
254.2032705013
 20
89.6967886081
 30
0.0
 11
263.1204518907
 21
80.7796072188
 31
0.0
  0
LINE
  5
11F
330
6F
100
AcDbEntity
  8
DN50
  6
Continuous
 62
     7
100
AcDbLine
 10
287.3691631966
 20
66.7796072188
 30
0.0
 11
299.5502595046
 21
63.5156923001
 31
0.0
  0
LINE
  5
120
330
6F
100
AcDbEntity
  8
DN50
  6
Continuous
 62
     7
100
AcDbLine
 10
263.1204518907
 20
80.7796072188
 30
0.0
 11
256.2254564947
 21
68.837124875
 31
0.0
  0
LINE
  5
121
330
6F
100
AcDbEntity
  8
DN50
  6
Continuous
 62
     7
100
AcDbLine
 10
280.4741678007
 20
54.837124875
 30
0.0
 11
287.3691631966
 21
66.7796072188
 31
0.0
  0
LINE
  5
122
330
6F
100
AcDbEntity
  8
DN50
  6
Continuous
 62
     7
100
AcDbLine
 10
256.2254564947
 20
68.837124875
 30
0.0
 11
256.7927958706
 21
66.7197854992
 31
0.0
  0
LINE
  5
123
330
6F
100
AcDbEntity
  8
DN50
  6
Continuous
 62
     7
100
AcDbLine
 10
278.3568284248
 20
54.2697854992
 30
0.0
 11
280.4741678007
 21
54.837124875
 31
0.0
  0
LINE
  5
124
330
6F
100
AcDbEntity
  8
DN50
  6
Continuous
 62
     7
100
AcDbLine
 10
256.7927958706
 20
66.7197854992
 30
0.0
 11
256.1038508706
 21
65.5264977556
 31
0.0
  0
LINE
  5
125
330
6F
100
AcDbEntity
  8
DN50
  6
Continuous
 62
     7
100
AcDbLine
 10
277.6678834248
 20
53.0764977556
 30
0.0
 11
278.3568284248
 21
54.2697854992
 31
0.0
  0
LINE
  5
126
330
6F
100
AcDbEntity
  8
DN50
  6
Continuous
 62
     7
100
AcDbLine
 10
281.7342712922
 20
15.0196881451
 30
0.0
 11
288.0717562802
 21
25.9965341365
 31
0.0
  0
LINE
  5
127
330
6F
100
AcDbEntity
  8
DN50
  6
Continuous
 62
     7
100
AcDbLine
 10
229.7589702033
 20
59.9958259205
 30
0.0
 11
222.8293407263
 21
47.9933555886
 31
0.0
  0
ARC
  5
128
330
6F
100
AcDbEntity
  8
DN50
  6
Continuous
 62
     7
100
AcDbCircle
 10
298.2608671477
 20
113.644591843
 30
0.0
 40
100.0
100
AcDbArc
 50
221.0344250112
 51
260.4873151147
  0
ARC
  5
129
330
6F
100
AcDbEntity
  8
DN50
  6
Continuous
 62
     7
100
AcDbCircle
 10
293.5717562802
 20
35.5228135781
 30
0.0
 40
11.0
100
AcDbArc
 50
150.0
 51
240.0
  0
ARC
  5
12A
330
6F
100
AcDbEntity
  8
DN50
  6
Continuous
 62
     7
100
AcDbCircle
 10
232.9499780152
 20
70.5228135781
 30
0.0
 40
10.99999999999999
100
AcDbArc
 50
253.1365587869
 51
330.0
  0
LINE
  5
12B
330
6F
100
AcDbEntity
  8
DN50
  6
Continuous
 62
     7
100
AcDbLine
 10
255.4110305475
 20
65.9264977556
 30
0.0
 11
251.7860305475
 21
59.6478135781
 31
0.0
  0
LINE
  5
12C
330
6F
100
AcDbEntity
  8
DN50
  6
Continuous
 62
     7
100
AcDbLine
 10
274.7357037479
 20
46.3978135781
 30
0.0
 11
278.3607037479
 21
52.6764977555
 31
0.0
  0
ENDBLK
  5
12E
330
6F
100
AcDbEntity
  8
0
100
AcDbBlockEnd
  0
BLOCK
  5
1EC
330
12F
100
AcDbEntity
  8
0
100
AcDbBlockBegin
  2
SE1
 70
     0
 10
0.0
 20
0.0
 30
0.0
  3
SE1
  1

  0
LINE
  5
131
330
12F
100
AcDbEntity
  8
DN50
  6
Continuous
 62
     7
100
AcDbLine
 10
64.6499726785
 20
100.1292733497
 30
0.0
 11
64.6499726785
 21
168.1292733497
 31
0.0
  0
LINE
  5
132
330
12F
100
AcDbEntity
  8
DN50
  6
Continuous
 62
     7
100
AcDbLine
 10
80.0499726785
 20
100.65416971
 30
0.0
 11
80.0499726785
 21
168.1292733497
 31
0.0
  0
LINE
  5
133
330
12F
100
AcDbEntity
  8
DN50
  6
Continuous
 62
     7
100
AcDbLine
 10
85.2461251012
 20
103.6996077658
 30
0.0
 11
85.2461251012
 21
165.1292733497
 31
0.0
  0
LINE
  5
134
330
12F
100
AcDbEntity
  8
DN50
  6
Continuous
 62
     7
100
AcDbLine
 10
176.1499726785
 20
100.1292733497
 30
0.0
 11
176.1499726785
 21
168.1292733497
 31
0.0
  0
LINE
  5
135
330
12F
100
AcDbEntity
  8
DN50
  6
Continuous
 62
     7
100
AcDbLine
 10
191.5499726785
 20
100.1292733497
 30
0.0
 11
191.5499726785
 21
168.1292733497
 31
0.0
  0
LINE
  5
136
330
12F
100
AcDbEntity
  8
DN50
  6
Continuous
 62
     7
100
AcDbLine
 10
63.3545992116
 20
99.4292733497
 30
0.0
 11
64.3951933867
 21
99.4292733497
 31
0.0
  0
ARC
  5
137
330
12F
100
AcDbEntity
  8
DN50
  6
Continuous
 62
     7
100
AcDbCircle
 10
13.9735846175
 20
109.5926680425
 30
0.0
 40
50.41606087375286
100
AcDbArc
 50
348.3700223339
 51
11.6299776661
  0
SPLINE
  5
138
330
12F
100
AcDbEntity
  8
DN50
  6
Continuous
 62
     7
100
AcDbSpline
210
0.0
220
0.0
230
1.0
 70
     8
 71
     3
 72
    14
 73
    10
 74
     0
 42
0.000000001
 43
0.0000000001
 40
0.0
 40
0.0
 40
0.0
 40
0.0
 40
0.25
 40
0.25
 40
0.5
 40
0.5
 40
0.75
 40
0.75
 40
1.0
 40
1.0
 40
1.0
 40
1.0
 10
63.35459921157918
 20
148.5024839640235
 30
0.0
 10
63.68819096023848
 20
146.1074605079691
 30
0.0
 10
63.95256515575773
 20
143.6912609031811
 30
0.0
 10
64.3063475091677
 20
138.878466803578
 30
0.0
 10
64.39641731698539
 20
136.4767933564902
 30
0.0
 10
64.39394433646419
 20
131.6833816817865
 30
0.0
 10
64.301449218092
 20
129.2916408606389
 30
0.0
 10
63.94724568381444
 20
124.51736543568
 30
0.0
 10
63.68592389647959
 20
122.1348097969578
 30
0.0
 10
63.35459921157918
 20
119.7560627353306
 30
0.0
  0
ARC
  5
139
330
12F
100
AcDbEntity
  8
DN50
  6
Continuous
 62
     7
100
AcDbCircle
 10
13.9735846175
 20
158.6658786569
 30
0.0
 40
50.41606087375402
100
AcDbArc
 50
348.3700223339
 51
11.6299776661
  0
LINE
  5
13A
330
12F
100
AcDbEntity
  8
DN50
  6
Continuous
 62
     7
100
AcDbLine
 10
63.3545992116
 20
168.8292733497
 30
0.0
 11
64.3951933867
 21
168.8292733497
 31
0.0
  0
LINE
  5
13B
330
12F
100
AcDbEntity
  8
DN50
  6
Continuous
 62
     7
100
AcDbLine
 10
192.8453461454
 20
168.8292733497
 30
0.0
 11
191.8047519703
 21
168.8292733497
 31
0.0
  0
ARC
  5
13C
330
12F
100
AcDbEntity
  8
DN50
  6
Continuous
 62
     7
100
AcDbCircle
 10
242.2263607395
 20
158.6658786569
 30
0.0
 40
50.41606087375222
100
AcDbArc
 50
168.3700223339
 51
191.6299776661
  0
SPLINE
  5
13D
330
12F
100
AcDbEntity
  8
DN50
  6
Continuous
 62
     7
100
AcDbSpline
210
0.0
220
0.0
230
1.0
 70
     8
 71
     3
 72
    14
 73
    10
 74
     0
 42
0.000000001
 43
0.0000000001
 40
0.0
 40
0.0
 40
0.0
 40
0.0
 40
0.2500000000000001
 40
0.2500000000000001
 40
0.5000000000000001
 40
0.5000000000000001
 40
0.7500000000000002
 40
0.7500000000000002
 40
1.0
 40
1.0
 40
1.0
 40
1.0
 10
192.8453461454357
 20
148.5024839640235
 30
0.0
 10
192.5117543967764
 20
146.1074605079691
 30
0.0
 10
192.2473802012571
 20
143.6912609031811
 30
0.0
 10
191.8935978478472
 20
138.878466803578
 30
0.0
 10
191.8035280400295
 20
136.4767933564902
 30
0.0
 10
191.8060010205507
 20
131.6833816817865
 30
0.0
 10
191.8984961389229
 20
129.2916408606389
 30
0.0
 10
192.2526996732004
 20
124.51736543568
 30
0.0
 10
192.5140214605352
 20
122.1348097969578
 30
0.0
 10
192.8453461454357
 20
119.7560627353306
 30
0.0
  0
ARC
  5
13E
330
12F
100
AcDbEntity
  8
DN50
  6
Continuous
 62
     7
100
AcDbCircle
 10
242.2263607395
 20
109.5926680425
 30
0.0
 40
50.41606087375252
100
AcDbArc
 50
168.3700223339
 51
191.6299776661
  0
LINE
  5
13F
330
12F
100
AcDbEntity
  8
DN50
  6
Continuous
 62
     7
100
AcDbLine
 10
192.8453461454
 20
99.4292733497
 30
0.0
 11
191.8047519703
 21
99.4292733497
 31
0.0
  0
LINE
  5
140
330
12F
100
AcDbEntity
  8
DN50
  6
Continuous
 62
     7
100
AcDbLine
 10
170.9538202558
 20
105.3182581715
 30
0.0
 11
170.9538202558
 21
165.1292733497
 31
0.0
  0
LINE
  5
141
330
12F
100
AcDbEntity
  8
DN50
  6
Continuous
 62
     7
100
AcDbLine
 10
117.3499726785
 20
134.1292733497
 30
0.0
 11
99.5104099036
 21
103.2302442387
 31
0.0
  0
LINE
  5
142
330
12F
100
AcDbEntity
  8
DN50
  6
Continuous
 62
     7
100
AcDbLine
 10
154.5389454242
 20
112.658209924
 30
0.0
 11
117.3499726785
 21
134.1292733497
 31
0.0
  0
LINE
  5
143
330
12F
100
AcDbEntity
  8
DN50
  6
Continuous
 62
     7
100
AcDbLine
 10
157.0720833278
 20
112.1207177746
 30
0.0
 11
154.5389454242
 21
112.658209924
 31
0.0
  0
ARC
  5
144
330
12F
100
AcDbEntity
  8
DN50
  6
Continuous
 62
     7
100
AcDbCircle
 10
1109.0189563149
 20
1697.3874047841
 30
0.0
 40
1849.127718123371
100
AcDbArc
 50
239.0153368309
 51
239.3702731699
  0
LINE
  5
145
330
12F
100
AcDbEntity
  8
DN50
  6
Continuous
 62
     7
100
AcDbLine
 10
170.1510203927
 20
105.8154391491
 30
0.0
 11
166.9107086043
 21
106.2540453426
 31
0.0
  0
LINE
  5
146
330
12F
100
AcDbEntity
  8
DN50
  6
Continuous
 62
     7
100
AcDbLine
 10
170.9538202558
 20
105.3182581715
 30
0.0
 11
170.1510203927
 21
105.8154391491
 31
0.0
  0
LINE
  5
147
330
12F
100
AcDbEntity
  8
DN50
  6
Continuous
 62
     7
100
AcDbLine
 10
174.0053067094
 20
102.2672096997
 30
0.0
 11
115.8656207265
 21
68.7002463469
 31
0.0
  0
LINE
  5
148
330
12F
100
AcDbEntity
  8
DN50
  6
Continuous
 62
     7
100
AcDbLine
 10
154.5389454242
 20
112.658209924
 30
0.0
 11
112.4554422264
 21
88.3612880243
 31
0.0
  0
LINE
  5
149
330
12F
100
AcDbEntity
  8
DN50
  6
Continuous
 62
     7
100
AcDbLine
 10
157.0720833278
 20
112.1207177746
 30
0.0
 11
110.771953591
 21
85.3893254075
 31
0.0
  0
LINE
  5
14A
330
12F
100
AcDbEntity
  8
DN50
  6
Continuous
 62
     7
100
AcDbLine
 10
166.9107086043
 20
106.2540453426
 30
0.0
 11
114.1823737706
 21
75.8113270324
 31
0.0
  0
ARC
  5
14B
330
12F
100
AcDbEntity
  8
DN50
  6
Continuous
 62
     7
100
AcDbCircle
 10
347.8821417041
 20
279.2204914126
 30
0.0
 40
248.0838923767097
100
AcDbArc
 50
224.5058076306
 51
225.5024166586
  0
LINE
  5
14C
330
12F
100
AcDbEntity
  8
DN50
  6
Continuous
 62
     7
100
AcDbLine
 10
170.1510203927
 20
105.8154391491
 30
0.0
 11
113.4453265295
 21
73.0763915326
 31
0.0
  0
LINE
  5
14D
330
12F
100
AcDbEntity
  8
DN50
  6
Continuous
 62
     7
100
AcDbLine
 10
111.8614418143
 20
83.5022764504
 30
0.0
 11
110.771953591
 21
85.3893254075
 31
0.0
  0
ARC
  5
14E
330
12F
100
AcDbEntity
  8
DN50
  6
Continuous
 62
     7
100
AcDbCircle
 10
-101.3328372619
 20
207.5003340553
 30
0.0
 40
244.7438267571603
100
AcDbArc
 50
330.0705030777
 51
330.8701317301
  0
LINE
  5
14F
330
12F
100
AcDbEntity
  8
DN50
  6
Continuous
 62
     7
100
AcDbLine
 10
112.4554422264
 20
88.3612880243
 30
0.0
 11
110.9109558535
 21
91.0364168937
 31
0.0
  0
LINE
  5
150
330
12F
100
AcDbEntity
  8
DN50
  6
Continuous
 62
     7
100
AcDbLine
 10
110.373584582
 20
82.6432616768
 30
0.0
 11
111.8614418143
 21
83.5022764504
 31
0.0
  0
LINE
  5
151
330
12F
100
AcDbEntity
  8
DN50
  6
Continuous
 62
     7
100
AcDbLine
 10
106.6712179529
 20
88.5886030755
 30
0.0
 11
110.9109558535
 21
91.0364168937
 31
0.0
  0
ARC
  5
152
330
12F
100
AcDbEntity
  8
DN50
  6
Continuous
 62
     7
100
AcDbCircle
 10
48.7531761664
 20
57.3483590501
 30
0.0
 40
67.29173934737109
100
AcDbArc
 50
18.3051451323
 51
20.3245144989
  0
ARC
  5
153
330
12F
100
AcDbEntity
  8
DN50
  6
Continuous
 62
     7
100
AcDbCircle
 10
51.7858497601
 20
52.5295828116
 30
0.0
 40
66.3559857224826
100
AcDbArc
 50
25.1414936658
 51
27.2231838354
  0
ARC
  5
154
330
12F
100
AcDbEntity
  8
DN50
  6
Continuous
 62
     7
100
AcDbCircle
 10
77.6549177399
 20
66.3936988197
 30
0.0
 40
36.53162264351021
100
AcDbArc
 50
26.4110638143
 51
37.4127929295
  0
SPLINE
  5
155
330
12F
100
AcDbEntity
  8
DN50
  6
Continuous
 62
     7
100
AcDbSpline
210
0.0
220
0.0
230
1.0
 70
     8
 71
     3
 72
     8
 73
     4
 74
     0
 42
0.000000001
 43
0.0000000001
 40
0.5006823428211852
 40
0.5006823428211852
 40
0.5006823428211852
 40
0.5006823428211852
 40
1.0
 40
1.0
 40
1.0
 40
1.0
 10
75.89400207049319
 20
100.1292734046404
 30
0.0
 10
75.89406216956122
 20
100.12930055005
 30
0.0
 10
76.57800951896365
 20
100.2732326464363
 30
0.0
 10
77.66043666280392
 20
100.4642389013555
 30
0.0
  0
ARC
  5
156
330
12F
100
AcDbEntity
  8
DN50
  6
Continuous
 62
     7
100
AcDbCircle
 10
84.654387644
 20
27.5991791632
 30
0.0
 40
73.19994727438508
100
AcDbArc
 50
93.6063936451
 51
95.4827374697
  0
LINE
  5
157
330
12F
100
AcDbEntity
  8
DN50
  6
Continuous
 62
     7
100
AcDbLine
 10
83.1046696052
 20
102.3210095465
 30
0.0
 11
85.2461251012
 21
103.6996077658
 31
0.0
  0
LINE
  5
158
330
12F
100
AcDbEntity
  8
DN50
  6
Continuous
 62
     7
100
AcDbLine
 10
83.1046696052
 20
102.3210095465
 30
0.0
 11
91.6360995337
 21
97.3953861807
 31
0.0
  0
LINE
  5
159
330
12F
100
AcDbEntity
  8
DN50
  6
Continuous
 62
     7
100
AcDbLine
 10
77.6604366628
 20
100.4642389014
 30
0.0
 11
91.7623731674
 21
92.3224820643
 31
0.0
  0
ARC
  5
15A
330
12F
100
AcDbEntity
  8
DN50
  6
Continuous
 62
     7
100
AcDbCircle
 10
88.3196447826
 20
65.9188352221
 30
0.0
 40
37.9055839847699
100
AcDbArc
 50
79.8419078242
 51
94.6508514876
  0
LINE
  5
15B
330
12F
100
AcDbEntity
  8
DN50
  6
Continuous
 62
     7
100
AcDbLine
 10
80.0499726785
 20
100.65416971
 30
0.0
 11
83.1046696052
 21
102.3210095465
 31
0.0
  0
LINE
  5
15C
330
12F
100
AcDbEntity
  8
DN50
  6
Continuous
 62
     7
100
AcDbLine
 10
114.280820602
 20
71.6292733497
 30
0.0
 11
108.6826570051
 21
71.6292733497
 31
0.0
  0
LINE
  5
15D
330
12F
100
AcDbEntity
  8
DN50
  6
Continuous
 62
     7
100
AcDbLine
 10
112.6397702976
 20
78.4831946235
 30
0.0
 11
108.6826570051
 21
71.6292733497
 31
0.0
  0
LINE
  5
15E
330
12F
100
AcDbEntity
  8
DN50
  6
Continuous
 62
     7
100
AcDbLine
 10
113.4453265295
 20
73.0763915326
 30
0.0
 11
114.280820602
 21
71.6292733497
 31
0.0
  0
LINE
  5
15F
330
12F
100
AcDbEntity
  8
DN50
  6
Continuous
 62
     7
100
AcDbLine
 10
114.1823737706
 20
75.8113270324
 30
0.0
 11
113.4453265295
 21
73.0763915326
 31
0.0
  0
LINE
  5
160
330
12F
100
AcDbEntity
  8
DN50
  6
Continuous
 62
     7
100
AcDbLine
 10
112.6397702976
 20
78.4831946235
 30
0.0
 11
114.1823737706
 21
75.8113270324
 31
0.0
  0
LINE
  5
161
330
12F
100
AcDbEntity
  8
DN50
  6
Continuous
 62
     7
100
AcDbLine
 10
96.6791499474
 20
85.4218221882
 30
0.0
 11
90.0034939847
 21
89.2760139553
 31
0.0
  0
SPLINE
  5
162
330
12F
100
AcDbEntity
  8
DN50
  6
Continuous
 62
     7
100
AcDbSpline
210
0.0
220
0.0
230
1.0
 70
     8
 71
     3
 72
     8
 73
     4
 74
     0
 42
0.000000001
 43
0.0000000001
 40
0.0
 40
0.0
 40
0.0
 40
0.0
 40
1.0
 40
1.0
 40
1.0
 40
1.0
 10
91.63609953368152
 20
97.39538618074891
 30
0.0
 10
91.69583794152506
 20
95.7053768741267
 30
0.0
 10
91.73267425841645
 20
94.01382742230949
 30
0.0
 10
91.76237316744967
 20
92.32248206430327
 30
0.0
  0
LINE
  5
163
330
12F
100
AcDbEntity
  8
DN50
  6
Continuous
 62
     7
100
AcDbLine
 10
95.0048564041
 20
103.2302442387
 30
0.0
 11
91.6360995337
 21
97.3953861807
 31
0.0
  0
LINE
  5
164
330
12F
100
AcDbEntity
  8
DN50
  6
Continuous
 62
     7
100
AcDbLine
 10
91.7623731674
 20
92.3224820643
 30
0.0
 11
90.0034939847
 21
89.2760139553
 31
0.0
  0
LINE
  5
165
330
12F
100
AcDbEntity
  8
DN50
  6
Continuous
 62
     7
100
AcDbLine
 10
95.0048564041
 20
103.2302442387
 30
0.0
 11
99.5104099036
 21
103.2302442387
 31
0.0
  0
ARC
  5
166
330
12F
100
AcDbEntity
  8
DN50
  6
Continuous
 62
     7
100
AcDbCircle
 10
77.8265703151
 20
71.1775136634
 30
0.0
 40
35.39064080688692
100
AcDbArc
 50
31.0622913241
 51
40.4367365012
  0
LINE
  5
167
330
12F
100
AcDbEntity
  8
DN50
  6
Continuous
 62
     7
100
AcDbLine
 10
102.8942013126
 20
90.8949904586
 30
0.0
 11
106.7800996974
 21
88.65146598
 31
0.0
  0
LINE
  5
168
330
12F
100
AcDbEntity
  8
DN50
  6
Continuous
 62
     7
100
AcDbLine
 10
102.8942013126
 20
90.8949904586
 30
0.0
 11
104.7631866533
 21
94.1321680274
 31
0.0
  0
LINE
  5
169
330
12F
100
AcDbEntity
  8
DN50
  6
Continuous
 62
     7
100
AcDbLine
 10
98.4378006599
 20
88.467894575
 30
0.0
 11
111.8553593663
 21
80.721263444
 31
0.0
  0
LINE
  5
16A
330
12F
100
AcDbEntity
  8
DN50
  6
Continuous
 62
     7
100
AcDbLine
 10
98.4378006599
 20
88.467894575
 30
0.0
 11
102.8942013126
 21
90.8949904586
 31
0.0
  0
LINE
  5
16B
330
12F
100
AcDbEntity
  8
DN50
  6
Continuous
 62
     7
100
AcDbLine
 10
99.5104099036
 20
103.2302442387
 30
0.0
 11
104.7631866533
 21
94.1321680274
 31
0.0
  0
LINE
  5
16C
330
12F
100
AcDbEntity
  8
DN50
  6
Continuous
 62
     7
100
AcDbLine
 10
96.6791499474
 20
85.4218221882
 30
0.0
 11
98.4378006599
 21
88.467894575
 31
0.0
  0
LINE
  5
16D
330
12F
100
AcDbEntity
  8
DN50
  6
Continuous
 62
     7
100
AcDbLine
 10
52.3273312626
 20
168.8292733497
 30
0.0
 11
63.3545992116
 21
168.8292733497
 31
0.0
  0
LINE
  5
16E
330
12F
100
AcDbEntity
  8
DN50
  6
Continuous
 62
     7
100
AcDbLine
 10
52.3273312626
 20
99.4292733497
 30
0.0
 11
63.3545992116
 21
99.4292733497
 31
0.0
  0
LINE
  5
16F
330
12F
100
AcDbEntity
  8
DN50
  6
Continuous
 62
     7
100
AcDbLine
 10
52.3273312626
 20
119.7560627353
 30
0.0
 11
63.3545992116
 21
119.7560627353
 31
0.0
  0
LINE
  5
170
330
12F
100
AcDbEntity
  8
DN50
  6
Continuous
 62
     7
100
AcDbLine
 10
52.3273312626
 20
148.502483964
 30
0.0
 11
63.3545992116
 21
148.502483964
 31
0.0
  0
LINE
  5
171
330
12F
100
AcDbEntity
  8
DN50
  6
Continuous
 62
     7
100
AcDbLine
 10
50.8499726785
 20
167.6292733497
 30
0.0
 11
50.8499726785
 21
100.6292733497
 31
0.0
  0
LINE
  5
172
330
12F
100
AcDbEntity
  8
DN50
  6
Continuous
 62
     7
100
AcDbLine
 10
52.3273312626
 20
168.8292733497
 30
0.0
 11
51.2867370896
 21
168.8292733497
 31
0.0
  0
ARC
  5
173
330
12F
100
AcDbEntity
  8
DN50
  6
Continuous
 62
     7
100
AcDbCircle
 10
101.7083458567
 20
158.6658786569
 30
0.0
 40
50.41606087375365
100
AcDbArc
 50
168.3700223339
 51
191.6299776661
  0
SPLINE
  5
174
330
12F
100
AcDbEntity
  8
DN50
  6
Continuous
 62
     7
100
AcDbSpline
210
0.0
220
0.0
230
1.0
 70
     8
 71
     3
 72
    14
 73
    10
 74
     0
 42
0.000000001
 43
0.0000000001
 40
0.0
 40
0.0
 40
0.0
 40
0.0
 40
0.25
 40
0.25
 40
0.5
 40
0.5
 40
0.75
 40
0.75
 40
1.0
 40
1.0
 40
1.0
 40
1.0
 10
52.3273312625689
 20
148.5024839640235
 30
0.0
 10
51.99377320970468
 20
146.1077024270811
 30
0.0
 10
51.7293822304839
 20
143.6914867003398
 30
0.0
 10
51.37556799972441
 20
138.8782674908391
 30
0.0
 10
51.28550302563915
 20
136.4764520333964
 30
0.0
 10
51.28799669406715
 20
131.682902911829
 30
0.0
 10
51.38050698112881
 20
129.2911665782265
 30
0.0
 10
51.73471883064183
 20
124.5170341677828
 30
0.0
 10
51.99603346897859
 20
122.134616730676
 30
0.0
 10
52.32733126256889
 20
119.7560627353306
 30
0.0
  0
ARC
  5
175
330
12F
100
AcDbEntity
  8
DN50
  6
Continuous
 62
     7
100
AcDbCircle
 10
101.7083458567
 20
109.5926680425
 30
0.0
 40
50.41606087375442
100
AcDbArc
 50
168.3700223339
 51
191.6299776661
  0
LINE
  5
176
330
12F
100
AcDbEntity
  8
DN50
  6
Continuous
 62
     7
100
AcDbLine
 10
51.2867370896
 20
99.4292733497
 30
0.0
 11
52.3273312626
 21
99.4292733497
 31
0.0
  0
LINE
  5
177
330
12F
100
AcDbEntity
  8
DN50
  6
Continuous
 62
     7
100
AcDbLine
 10
203.8726140944
 20
99.4292733497
 30
0.0
 11
192.8453461454
 21
99.4292733497
 31
0.0
  0
LINE
  5
178
330
12F
100
AcDbEntity
  8
DN50
  6
Continuous
 62
     7
100
AcDbLine
 10
203.8726140944
 20
168.8292733497
 30
0.0
 11
192.8453461454
 21
168.8292733497
 31
0.0
  0
LINE
  5
179
330
12F
100
AcDbEntity
  8
DN50
  6
Continuous
 62
     7
100
AcDbLine
 10
203.8726140944
 20
148.502483964
 30
0.0
 11
192.8453461454
 21
148.502483964
 31
0.0
  0
LINE
  5
17A
330
12F
100
AcDbEntity
  8
DN50
  6
Continuous
 62
     7
100
AcDbLine
 10
203.8726140944
 20
119.7560627353
 30
0.0
 11
192.8453461454
 21
119.7560627353
 31
0.0
  0
LINE
  5
17B
330
12F
100
AcDbEntity
  8
DN50
  6
Continuous
 62
     7
100
AcDbLine
 10
203.8726140944
 20
99.4292733497
 30
0.0
 11
204.9132082674
 21
99.4292733497
 31
0.0
  0
ARC
  5
17C
330
12F
100
AcDbEntity
  8
DN50
  6
Continuous
 62
     7
100
AcDbCircle
 10
154.4915995003
 20
109.5926680425
 30
0.0
 40
50.41606087375153
100
AcDbArc
 50
348.3700223339
 51
11.6299776661
  0
SPLINE
  5
17D
330
12F
100
AcDbEntity
  8
DN50
  6
Continuous
 62
     7
100
AcDbSpline
210
0.0
220
0.0
230
1.0
 70
     8
 71
     3
 72
    14
 73
    10
 74
     0
 42
0.000000001
 43
0.0000000001
 40
0.0
 40
0.0
 40
0.0
 40
0.0
 40
0.2500000000000001
 40
0.2500000000000001
 40
0.5000000000000001
 40
0.5000000000000001
 40
0.75
 40
0.75
 40
1.0
 40
1.0
 40
1.0
 40
1.0
 10
203.8726140944462
 20
119.7560627353306
 30
0.0
 10
204.2039118880364
 20
122.134616730676
 30
0.0
 10
204.4652265263732
 20
124.5170341677828
 30
0.0
 10
204.8194383758862
 20
129.2911665782266
 30
0.0
 10
204.9119486629479
 20
131.682902911829
 30
0.0
 10
204.9144423313759
 20
136.4764520333964
 30
0.0
 10
204.8243773572906
 20
138.8782674908391
 30
0.0
 10
204.4705631265311
 20
143.6914867003398
 30
0.0
 10
204.2061721473104
 20
146.1077024270811
 30
0.0
 10
203.8726140944462
 20
148.5024839640234
 30
0.0
  0
ARC
  5
17E
330
12F
100
AcDbEntity
  8
DN50
  6
Continuous
 62
     7
100
AcDbCircle
 10
154.4915995003
 20
158.6658786569
 30
0.0
 40
50.41606087375354
100
AcDbArc
 50
348.3700223339
 51
11.6299776661
  0
LINE
  5
17F
330
12F
100
AcDbEntity
  8
DN50
  6
Continuous
 62
     7
100
AcDbLine
 10
204.9132082674
 20
168.8292733497
 30
0.0
 11
203.8726140944
 21
168.8292733497
 31
0.0
  0
LINE
  5
180
330
12F
100
AcDbEntity
  8
DN50
  6
Continuous
 62
     7
100
AcDbLine
 10
205.3499726785
 20
167.6292733497
 30
0.0
 11
205.3499726785
 21
100.6292733497
 31
0.0
  0
LINE
  5
181
330
12F
100
AcDbEntity
  8
DN50
  6
Continuous
 62
     7
100
AcDbLine
 10
86.4688837653
 20
82.4455059362
 30
0.0
 11
70.8804264972
 21
91.4455059362
 31
0.0
  0
LINE
  5
182
330
12F
100
AcDbEntity
  8
DN50
  6
Continuous
 62
     7
100
AcDbLine
 10
108.1195188599
 20
69.9455059362
 30
0.0
 11
92.5310615917
 21
78.9455059362
 31
0.0
  0
LINE
  5
183
330
12F
100
AcDbEntity
  8
DN50
  6
Continuous
 62
     7
100
AcDbLine
 10
173.8947489052
 20
102.2008598919
 30
0.0
 11
174.0053067094
 21
102.2672096997
 31
0.0
  0
LINE
  5
184
330
12F
100
AcDbEntity
  8
DN50
  6
Continuous
 62
     7
100
AcDbLine
 10
173.8947489052
 20
102.2008598919
 30
0.0
 11
116.0832179359
 21
68.8233569246
 31
0.0
  0
LINE
  5
185
330
12F
100
AcDbEntity
  8
DN50
  6
Continuous
 62
     7
100
AcDbLine
 10
175.4690431793
 20
100.522278597
 30
0.0
 11
175.5206661317
 21
100.6202481926
 31
0.0
  0
LINE
  5
186
330
12F
100
AcDbEntity
  8
DN50
  6
Continuous
 62
     7
100
AcDbLine
 10
84.2716060484
 20
61.1397092922
 30
0.0
 11
96.8289744032
 21
53.8897092922
 31
0.0
  0
LINE
  5
187
330
12F
100
AcDbEntity
  8
DN50
  6
Continuous
 62
     7
100
AcDbLine
 10
97.2182968229
 20
57.1290355036
 30
0.0
 11
86.8822836287
 21
63.0965355036
 31
0.0
  0
LINE
  5
188
330
12F
100
AcDbEntity
  8
DN50
  6
Continuous
 62
     7
100
AcDbLine
 10
79.7716060484
 20
53.3454806582
 30
0.0
 11
92.3289744032
 21
46.0954806581
 31
0.0
  0
LINE
  5
189
330
12F
100
AcDbEntity
  8
DN50
  6
Continuous
 62
     7
100
AcDbLine
 10
62.6209709538
 20
73.6397092922
 30
0.0
 11
75.1783393086
 21
66.3897092922
 31
0.0
  0
LINE
  5
18A
330
12F
100
AcDbEntity
  8
DN50
  6
Continuous
 62
     7
100
AcDbLine
 10
75.5676617283
 20
69.6290355036
 30
0.0
 11
65.2316485341
 21
75.5965355036
 31
0.0
  0
LINE
  5
18B
330
12F
100
AcDbEntity
  8
DN50
  6
Continuous
 62
     7
100
AcDbLine
 10
58.1209709538
 20
65.8454806582
 30
0.0
 11
70.6783393086
 21
58.5954806582
 31
0.0
  0
LINE
  5
18C
330
12F
100
AcDbEntity
  8
DN50
  6
Continuous
 62
     7
100
AcDbLine
 10
175.5206661317
 20
100.6202481926
 30
0.0
 11
117.1741221851
 21
66.9338553388
 31
0.0
  0
ARC
  5
18D
330
12F
100
AcDbEntity
  8
DN50
  6
Continuous
 62
     7
100
AcDbCircle
 10
374.300747954
 20
306.7245871442
 30
0.0
 40
286.3433593850327
100
AcDbArc
 50
225.5826203909
 51
226.036353176
  0
LINE
  5
18E
330
12F
100
AcDbEntity
  8
DN50
  6
Continuous
 62
     7
100
AcDbLine
 10
129.2270322059
 20
61.1954101877
 30
0.0
 11
124.6524112718
 21
68.9376568603
 31
0.0
  0
ARC
  5
18F
330
12F
100
AcDbEntity
  8
DN50
  6
Continuous
 62
     7
100
AcDbCircle
 10
123.6470129393
 20
83.9508352186
 30
0.0
 40
23.42959631219029
100
AcDbArc
 50
283.7780344807
 51
316.2219655193
  0
LINE
  5
190
330
12F
100
AcDbEntity
  8
DN50
  6
Continuous
 62
     7
100
AcDbLine
 10
140.5637794567
 20
67.7406842647
 30
0.0
 11
136.0283957977
 21
75.5055845887
 31
0.0
  0
ARC
  5
191
330
12F
100
AcDbEntity
  8
DN50
  6
Continuous
 62
     7
100
AcDbCircle
 10
119.0530807262
 20
91.7718373103
 30
0.0
 40
23.51068479184102
100
AcDbArc
 50
283.7780323595
 51
316.2219676405
  0
ARC
  5
192
330
12F
100
AcDbEntity
  8
DN50
  6
Continuous
 62
     7
100
AcDbCircle
 10
106.2773873952
 20
153.3075536316
 30
0.0
 40
92.18050669116288
100
AcDbArc
 50
291.8358304977
 51
308.1641695023
  0
LINE
  5
193
330
12F
100
AcDbEntity
  8
DN50
  6
Continuous
 62
     7
100
AcDbLine
 10
163.2372739584
 20
80.8312324187
 30
0.0
 11
158.7803648495
 21
88.6414400453
 31
0.0
  0
ARC
  5
194
330
12F
100
AcDbEntity
  8
DN50
  6
Continuous
 62
     7
100
AcDbCircle
 10
101.6233413231
 20
161.3685978892
 30
0.0
 40
92.49953960129099
100
AcDbArc
 50
291.8358295851
 51
308.1641704149
  0
ARC
  5
195
330
12F
100
AcDbEntity
  8
DN50
  6
Continuous
 62
     7
100
AcDbCircle
 10
157.6572546922
 20
103.586657449
 30
0.0
 40
23.42959631146984
100
AcDbArc
 50
283.7780344802
 51
316.2219655198
  0
LINE
  5
196
330
12F
100
AcDbEntity
  8
DN50
  6
Continuous
 62
     7
100
AcDbLine
 10
174.5740212092
 20
87.3765064957
 30
0.0
 11
170.1563493754
 21
95.2093677736
 31
0.0
  0
ARC
  5
197
330
12F
100
AcDbEntity
  8
DN50
  6
Continuous
 62
     7
100
AcDbCircle
 10
153.1810343039
 20
111.4756204953
 30
0.0
 40
23.51068479184076
100
AcDbArc
 50
283.7780323595
 51
316.2219676405
  0
LINE
  5
198
330
12F
100
AcDbEntity
  8
DN50
  6
Continuous
 62
     7
100
AcDbLine
 10
141.4081285139
 20
64.4593251064
 30
0.0
 11
165.6568398199
 21
78.4593251064
 31
0.0
  0
LINE
  5
199
330
12F
100
AcDbEntity
  8
DN50
  6
Continuous
 62
     7
100
AcDbLine
 10
148.3031239099
 20
52.5168427626
 30
0.0
 11
172.5518352158
 21
66.5168427626
 31
0.0
  0
LINE
  5
19A
330
12F
100
AcDbEntity
  8
DN50
  6
Continuous
 62
     7
100
AcDbLine
 10
150.4204632857
 20
51.9495033868
 30
0.0
 11
171.98449584
 21
64.3995033868
 31
0.0
  0
LINE
  5
19B
330
12F
100
AcDbEntity
  8
DN50
  6
Continuous
 62
     7
100
AcDbLine
 10
148.3065344543
 20
13.4288962014
 30
0.0
 11
147.0430204184
 21
12.6994060327
 31
0.0
  0
LINE
  5
19C
330
12F
100
AcDbEntity
  8
DN50
  6
Continuous
 62
     7
100
AcDbLine
 10
148.3065344543
 20
13.4288962014
 30
0.0
 11
141.9690494663
 21
24.4057421928
 31
0.0
  0
LINE
  5
19D
330
12F
100
AcDbEntity
  8
DN50
  6
Continuous
 62
     7
100
AcDbLine
 10
205.287348664
 20
45.2916745488
 30
0.0
 11
205.9479509843
 21
45.6730734762
 31
0.0
  0
ELLIPSE
  5
19E
330
12F
100
AcDbEntity
  8
DN50
  6
Continuous
 62
     7
100
AcDbEllipse
 10
135.6799313213
 20
114.3054617487
 30
0.0
 11
49.23439875361216
 21
-85.27648011752377
 31
0.0
210
0.0
220
0.0
230
1.0
 40
0.9396926208
 41
0.1683144528928135
 42
0.2822902643555616
  0
LINE
  5
19F
330
12F
100
AcDbEntity
  8
DN50
  6
Continuous
 62
     7
100
AcDbLine
 10
205.287348664
 20
45.2916745488
 30
0.0
 11
198.357719187
 21
57.2941448806
 31
0.0
  0
ELLIPSE
  5
1A0
330
12F
100
AcDbEntity
  8
DN50
  6
Continuous
 62
     7
100
AcDbEllipse
 10
144.7030427885
 20
119.5149575832
 30
0.0
 11
49.23439875188836
 21
-85.27648011853246
 31
0.0
210
0.0
220
0.0
230
1.0
 40
0.3420201433
 41
-0.2822902643735992
 42
-0.1683144529108436
  0
LINE
  5
1A1
330
12F
100
AcDbEntity
  8
DN50
  6
Continuous
 62
     7
100
AcDbLine
 10
188.3557278918
 20
32.6226494401
 30
0.0
 11
174.8170834937
 21
56.0722694031
 31
0.0
  0
LINE
  5
1A2
330
12F
100
AcDbEntity
  8
DN50
  6
Continuous
 62
     7
100
AcDbLine
 10
171.7399475348
 20
25.9230734762
 30
0.0
 11
183.8643031878
 21
32.9230734762
 31
0.0
  0
LINE
  5
1A3
330
12F
100
AcDbEntity
  8
DN50
  6
Continuous
 62
     7
100
AcDbLine
 10
183.8643031878
 20
32.9230734762
 30
0.0
 11
176.9346737107
 21
44.9255438081
 31
0.0
  0
LINE
  5
1A4
330
12F
100
AcDbEntity
  8
DN50
  6
Continuous
 62
     7
100
AcDbLine
 10
156.215765632
 20
45.3327935283
 30
0.0
 11
155.9004578465
 21
45.1507504935
 31
0.0
  0
ELLIPSE
  5
1A5
330
12F
100
AcDbEntity
  8
DN50
  6
Continuous
 62
     7
100
AcDbEllipse
 10
116.3298063363
 20
103.1336618796
 30
0.0
 11
49.23439875194992
 21
-85.27648011834124
 31
0.0
210
0.0
220
0.0
230
1.0
 40
0.3420201433
 41
0.15735877219167
 42
0.2822902643738154
  0
LINE
  5
1A6
330
12F
100
AcDbEntity
  8
DN50
  6
Continuous
 62
     7
100
AcDbLine
 10
171.7399475348
 20
25.9230734762
 30
0.0
 11
164.8103180577
 21
37.9255438081
 31
0.0
  0
ELLIPSE
  5
1A7
330
12F
100
AcDbEntity
  8
DN50
  6
Continuous
 62
     7
100
AcDbEllipse
 10
122.0113136766
 20
106.4138816713
 30
0.0
 11
48.63123875828476
 21
-84.23177636473882
 31
0.0
210
0.0
220
0.0
230
1.0
 40
0.906307787
 41
6.010737842658505
 42
6.268633351768494
  0
LINE
  5
1A8
330
12F
100
AcDbEntity
  8
DN50
  6
Continuous
 62
     7
100
AcDbLine
 10
169.5265476345
 20
21.5496706721
 30
0.0
 11
155.9004578465
 21
45.1507504935
 31
0.0
  0
LINE
  5
1A9
330
12F
100
AcDbEntity
  8
DN50
  6
Continuous
 62
     7
100
AcDbLine
 10
155.9004578465
 20
45.1507504935
 30
0.0
 11
152.3026849609
 21
43.0735753495
 31
0.0
  0
LINE
  5
1AA
330
12F
100
AcDbEntity
  8
DN50
  6
Continuous
 62
     7
100
AcDbLine
 10
188.3557278918
 20
32.6226494401
 30
0.0
 11
197.6426385559
 21
37.984449812
 31
0.0
  0
LINE
  5
1AB
330
12F
100
AcDbEntity
  8
DN50
  6
Continuous
 62
     7
100
AcDbLine
 10
197.6426385559
 20
37.984449812
 30
0.0
 11
184.1039941579
 21
61.434069775
 31
0.0
  0
LINE
  5
1AC
330
12F
100
AcDbEntity
  8
DN50
  6
Continuous
 62
     7
100
AcDbLine
 10
184.1039941579
 20
61.434069775
 30
0.0
 11
174.8170834937
 21
56.0722694031
 31
0.0
  0
LINE
  5
1AD
330
12F
100
AcDbEntity
  8
DN50
  6
Continuous
 62
     7
100
AcDbLine
 10
140.7055354304
 20
23.6762520241
 30
0.0
 11
141.9690494663
 21
24.4057421928
 31
0.0
  0
SPLINE
  5
1AE
330
12F
100
AcDbEntity
  8
DN50
  6
Continuous
 62
     7
100
AcDbSpline
210
0.0
220
0.0
230
1.0
 70
     8
 71
     3
 72
    18
 73
    14
 74
     0
 42
0.000000001
 43
0.0000000001
 40
0.0
 40
0.0
 40
0.0
 40
0.0
 40
0.2499999999999996
 40
0.2499999999999996
 40
0.4999999999999991
 40
0.4999999999999991
 40
0.7499999999999987
 40
0.7499999999999987
 40
0.8749999999999986
 40
0.8749999999999986
 40
0.9374999999999992
 40
0.9374999999999992
 40
1.0
 40
1.0
 40
1.0
 40
1.0
 10
141.9690494662778
 20
24.40574219282551
 30
0.0
 10
143.5691568341187
 20
25.32956461238076
 30
0.0
 10
144.9735624634774
 20
26.49605559033977
 30
0.0
 10
147.5013725163667
 20
29.17747674795788
 30
0.0
 10
148.6116861287685
 20
30.68777637851296
 30
0.0
 10
150.5176240667211
 20
33.87014664520034
 30
0.0
 10
151.3385684623808
 20
35.55039928772216
 30
0.0
 10
152.2843321433598
 20
38.26348778100892
 30
0.0
 10
152.5535986284374
 20
39.1983023457556
 30
0.0
 10
152.7513875852127
 20
40.64491348911876
 30
0.0
 10
152.7823380662671
 20
41.1316781419686
 30
0.0
 10
152.691068234513
 20
42.12517940614354
 30
0.0
 10
152.5616606682422
 20
42.62501626644406
 30
0.0
 10
152.3026849608835
 20
43.07357534951537
 30
0.0
  0
LINE
  5
1AF
330
12F
100
AcDbEntity
  8
DN50
  6
Continuous
 62
     7
100
AcDbLine
 10
152.3026849609
 20
43.0735753495
 30
0.0
 11
144.731814872
 21
38.7025314657
 31
0.0
  0
LINE
  5
1B0
330
12F
100
AcDbEntity
  8
DN50
  6
Continuous
 62
     7
100
AcDbLine
 10
186.3010342537
 20
62.7025314657
 30
0.0
 11
184.1039941579
 21
61.434069775
 31
0.0
  0
SPLINE
  5
1B1
330
12F
100
AcDbEntity
  8
DN50
  6
Continuous
 62
     7
100
AcDbSpline
210
0.0
220
0.0
230
1.0
 70
     8
 71
     3
 72
    14
 73
    10
 74
     0
 42
0.000000001
 43
0.0000000001
 40
0.0
 40
0.0
 40
0.0
 40
0.0
 40
0.25
 40
0.25
 40
0.5
 40
0.5
 40
0.75
 40
0.75
 40
1.0
 40
1.0
 40
1.0
 40
1.0
 10
184.1039941578983
 20
61.43406977499435
 30
0.0
 10
184.7991018450512
 20
60.23010794411374
 30
0.0
 10
185.7920761254726
 20
59.24930307616411
 30
0.0
 10
188.061742044512
 20
57.77309812982546
 30
0.0
 10
189.334012195035
 20
57.26988789575356
 30
0.0
 10
191.9004391797058
 20
56.65878800587714
 30
0.0
 10
193.2322629745062
 20
56.54252752903469
 30
0.0
 10
195.8316001384162
 20
56.65783356621278
 30
0.0
 10
197.1215637966565
 20
56.88863089214571
 30
0.0
 10
198.3577191869535
 20
57.29414488062132
 30
0.0
  0
LINE
  5
1B2
330
12F
100
AcDbEntity
  8
DN50
  6
Continuous
 62
     7
100
AcDbLine
 10
198.357719187
 20
57.2941448806
 30
0.0
 11
199.0183215072
 21
57.6755438081
 31
0.0
  0
SPLINE
  5
1B3
330
12F
100
AcDbEntity
  8
DN50
  6
Continuous
 62
     7
100
AcDbSpline
210
0.0
220
0.0
230
1.0
 70
     8
 71
     3
 72
    14
 73
    10
 74
     0
 42
0.000000001
 43
0.0000000001
 40
0.0
 40
0.0
 40
0.0
 40
0.0
 40
0.25
 40
0.25
 40
0.5
 40
0.5
 40
0.75
 40
0.75
 40
1.0
 40
1.0
 40
1.0
 40
1.0
 10
176.9346737107316
 20
44.925543808063
 30
0.0
 10
177.2031296639607
 20
45.38934882383352
 30
0.0
 10
177.3666977497113
 20
45.98935875645815
 30
0.0
 10
177.4963924805697
 20
47.44577143102705
 30
0.0
 10
177.4589648669403
 20
48.3098437253642
 30
0.0
 10
177.1604190281528
 20
50.21965649322922
 30
0.0
 10
176.8942021841705
 20
51.30215020623945
 30
0.0
 10
176.0759938858685
 20
53.61826560092562
 30
0.0
 10
175.5143120237688
 20
54.86463416455226
 30
0.0
 10
174.8170834937167
 20
56.07226940308912
 30
0.0
  0
LINE
  5
1B4
330
12F
100
AcDbEntity
  8
DN50
  6
Continuous
 62
     7
100
AcDbLine
 10
174.8170834937
 20
56.0722694031
 30
0.0
 11
156.215765632
 21
45.3327935283
 31
0.0
  0
SPLINE
  5
1B5
330
12F
100
AcDbEntity
  8
DN50
  6
Continuous
 62
     7
100
AcDbSpline
210
0.0
220
0.0
230
1.0
 70
     8
 71
     3
 72
    14
 73
    10
 74
     0
 42
0.000000001
 43
0.0000000001
 40
0.0
 40
0.0
 40
0.0
 40
0.0
 40
0.25
 40
0.25
 40
0.5
 40
0.5
 40
0.75
 40
0.75
 40
1.0
 40
1.0
 40
1.0
 40
1.0
 10
156.2157656319501
 20
45.33279352831635
 30
0.0
 10
156.910873319103
 20
44.12883169743571
 30
0.0
 10
157.7002991561556
 20
43.03050808091398
 30
0.0
 10
159.2938438429691
 20
41.16394435914492
 30
0.0
 10
160.0978013400745
 20
40.3903536885574
 30
0.0
 10
161.6082877489856
 20
39.16960622301795
 30
0.0
 10
162.3368210395019
 20
38.7050358111275
 30
0.0
 10
163.6644600312155
 20
38.08612656626007
 30
0.0
 10
164.2755185737381
 20
37.92495784087909
 30
0.0
 10
164.8103180577494
 20
37.92554380806299
 30
0.0
  0
LINE
  5
1B6
330
12F
100
AcDbEntity
  8
DN50
  6
Continuous
 62
     7
100
AcDbLine
 10
164.8103180577
 20
37.9255438081
 30
0.0
 11
176.9346737107
 21
44.9255438081
 31
0.0
  0
LINE
  5
1B7
330
12F
100
AcDbEntity
  8
DN50
  6
Continuous
 62
     7
100
AcDbLine
 10
150.4165879627
 20
50.3562156431
 30
0.0
 11
173.366261163
 21
63.6062156431
 31
0.0
  0
LINE
  5
1B8
330
12F
100
AcDbEntity
  8
DN50
  6
Continuous
 62
     7
100
AcDbLine
 10
64.3951935145
 20
99.4292733497
 30
0.0
 11
64.6499726785
 21
100.1292733497
 31
0.0
  0
LINE
  5
1B9
330
12F
100
AcDbEntity
  8
DN50
  6
Continuous
 62
     7
100
AcDbLine
 10
64.6499726785
 20
168.1292733497
 30
0.0
 11
64.3951935145
 21
168.8292733497
 31
0.0
  0
LINE
  5
1BA
330
12F
100
AcDbEntity
  8
DN50
  6
Continuous
 62
     7
100
AcDbLine
 10
64.6499726785
 20
100.1292733497
 30
0.0
 11
75.8958811339
 21
100.1292733497
 31
0.0
  0
LINE
  5
1BB
330
12F
100
AcDbEntity
  8
DN50
  6
Continuous
 62
     7
100
AcDbLine
 10
80.0499726785
 20
168.1292733497
 30
0.0
 11
64.6499726785
 21
168.1292733497
 31
0.0
  0
LINE
  5
1BC
330
12F
100
AcDbEntity
  8
DN50
  6
Continuous
 62
     7
100
AcDbLine
 10
85.2461251012
 20
165.1292733497
 30
0.0
 11
80.0499726785
 21
168.1292733497
 31
0.0
  0
LINE
  5
1BD
330
12F
100
AcDbEntity
  8
DN50
  6
Continuous
 62
     7
100
AcDbLine
 10
176.1499726785
 20
100.1292733497
 30
0.0
 11
191.5499726785
 21
100.1292733497
 31
0.0
  0
LINE
  5
1BE
330
12F
100
AcDbEntity
  8
DN50
  6
Continuous
 62
     7
100
AcDbLine
 10
191.5499726785
 20
168.1292733497
 30
0.0
 11
176.1499726785
 21
168.1292733497
 31
0.0
  0
LINE
  5
1BF
330
12F
100
AcDbEntity
  8
DN50
  6
Continuous
 62
     7
100
AcDbLine
 10
191.8047518425
 20
168.8292733497
 30
0.0
 11
191.5499726785
 21
168.1292733497
 31
0.0
  0
LINE
  5
1C0
330
12F
100
AcDbEntity
  8
DN50
  6
Continuous
 62
     7
100
AcDbLine
 10
191.5499726785
 20
100.1292733497
 30
0.0
 11
191.8047518425
 21
99.4292733497
 31
0.0
  0
LINE
  5
1C1
330
12F
100
AcDbEntity
  8
DN50
  6
Continuous
 62
     7
100
AcDbLine
 10
170.9538202558
 20
165.1292733497
 30
0.0
 11
85.2461251012
 21
165.1292733497
 31
0.0
  0
LINE
  5
1C2
330
12F
100
AcDbEntity
  8
DN50
  6
Continuous
 62
     7
100
AcDbLine
 10
176.1499726785
 20
168.1292733497
 30
0.0
 11
170.9538202558
 21
165.1292733497
 31
0.0
  0
LINE
  5
1C3
330
12F
100
AcDbEntity
  8
DN50
  6
Continuous
 62
     7
100
AcDbLine
 10
175.469251871
 20
100.5222876912
 30
0.0
 11
176.1499726785
 21
100.1292733497
 31
0.0
  0
LINE
  5
1C4
330
12F
100
AcDbEntity
  8
DN50
  6
Continuous
 62
     7
100
AcDbLine
 10
115.8656207265
 20
68.7002463469
 30
0.0
 11
116.0832179359
 21
68.8233569246
 31
0.0
  0
LINE
  5
1C5
330
12F
100
AcDbEntity
  8
DN50
  6
Continuous
 62
     7
100
AcDbLine
 10
114.174546198
 20
71.6292733497
 30
0.0
 11
115.8656207265
 21
68.7002463469
 31
0.0
  0
LINE
  5
1C6
330
12F
100
AcDbEntity
  8
DN50
  6
Continuous
 62
     7
100
AcDbLine
 10
96.3724108793
 20
85.5989180718
 30
0.0
 11
92.5310615917
 21
78.9455059362
 31
0.0
  0
LINE
  5
1C7
330
12F
100
AcDbEntity
  8
DN50
  6
Continuous
 62
     7
100
AcDbLine
 10
108.1195188599
 20
69.9455059362
 30
0.0
 11
109.0916424293
 21
71.6292733497
 31
0.0
  0
LINE
  5
1C8
330
12F
100
AcDbEntity
  8
DN50
  6
Continuous
 62
     7
100
AcDbLine
 10
75.8946327665
 20
100.1303659543
 30
0.0
 11
70.8804264972
 21
91.4455059362
 31
0.0
  0
LINE
  5
1C9
330
12F
100
AcDbEntity
  8
DN50
  6
Continuous
 62
     7
100
AcDbLine
 10
86.4688837653
 20
82.4455059362
 30
0.0
 11
90.3102330528
 21
89.0989180718
 31
0.0
  0
LINE
  5
1CA
330
12F
100
AcDbEntity
  8
DN50
  6
Continuous
 62
     7
100
AcDbLine
 10
51.2867369596
 20
168.8292733497
 30
0.0
 11
50.8499726785
 21
167.6292733497
 31
0.0
  0
LINE
  5
1CB
330
12F
100
AcDbEntity
  8
DN50
  6
Continuous
 62
     7
100
AcDbLine
 10
50.8499726785
 20
100.6292733497
 30
0.0
 11
51.2867369596
 21
99.4292733497
 31
0.0
  0
LINE
  5
1CC
330
12F
100
AcDbEntity
  8
DN50
  6
Continuous
 62
     7
100
AcDbLine
 10
204.9132083974
 20
99.4292733497
 30
0.0
 11
205.3499726785
 21
100.6292733497
 31
0.0
  0
LINE
  5
1CD
330
12F
100
AcDbEntity
  8
DN50
  6
Continuous
 62
     7
100
AcDbLine
 10
205.3499726785
 20
167.6292733497
 30
0.0
 11
204.9132083974
 21
168.8292733497
 31
0.0
  0
LINE
  5
1CE
330
12F
100
AcDbEntity
  8
DN50
  6
Continuous
 62
     7
100
AcDbLine
 10
94.1009943813
 20
55.4647092922
 30
0.0
 11
95.6009943813
 21
58.0627855036
 31
0.0
  0
LINE
  5
1CF
330
12F
100
AcDbEntity
  8
DN50
  6
Continuous
 62
     7
100
AcDbLine
 10
88.4995860703
 20
62.1627855036
 30
0.0
 11
86.9995860703
 21
59.5647092922
 31
0.0
  0
LINE
  5
1D0
330
12F
100
AcDbEntity
  8
DN50
  6
Continuous
 62
     7
100
AcDbLine
 10
97.2182968229
 20
57.1290355036
 30
0.0
 11
105.4932968229
 21
71.4617559362
 31
0.0
  0
LINE
  5
1D1
330
12F
100
AcDbEntity
  8
DN50
  6
Continuous
 62
     7
100
AcDbLine
 10
95.1572836287
 20
77.4292559362
 30
0.0
 11
86.8822836287
 21
63.0965355036
 31
0.0
  0
LINE
  5
1D2
330
12F
100
AcDbEntity
  8
DN50
  6
Continuous
 62
     7
100
AcDbLine
 10
84.2716060484
 20
61.1397092922
 30
0.0
 11
79.7716060484
 21
53.3454806582
 31
0.0
  0
LINE
  5
1D3
330
12F
100
AcDbEntity
  8
DN50
  6
Continuous
 62
     7
100
AcDbLine
 10
92.3289744032
 20
46.0954806581
 30
0.0
 11
96.8289744032
 21
53.8897092922
 31
0.0
  0
LINE
  5
1D4
330
12F
100
AcDbEntity
  8
DN50
  6
Continuous
 62
     7
100
AcDbLine
 10
72.4503592867
 20
67.9647092922
 30
0.0
 11
73.9503592867
 21
70.5627855036
 31
0.0
  0
LINE
  5
1D5
330
12F
100
AcDbEntity
  8
DN50
  6
Continuous
 62
     7
100
AcDbLine
 10
66.8489509757
 20
74.6627855036
 30
0.0
 11
65.3489509757
 21
72.0647092922
 31
0.0
  0
LINE
  5
1D6
330
12F
100
AcDbEntity
  8
DN50
  6
Continuous
 62
     7
100
AcDbLine
 10
75.5676617283
 20
69.6290355036
 30
0.0
 11
83.8426617283
 21
83.9617559362
 31
0.0
  0
LINE
  5
1D7
330
12F
100
AcDbEntity
  8
DN50
  6
Continuous
 62
     7
100
AcDbLine
 10
73.5066485341
 20
89.9292559362
 30
0.0
 11
65.2316485341
 21
75.5965355036
 31
0.0
  0
LINE
  5
1D8
330
12F
100
AcDbEntity
  8
DN50
  6
Continuous
 62
     7
100
AcDbLine
 10
62.6209709538
 20
73.6397092922
 30
0.0
 11
58.1209709538
 21
65.8454806582
 31
0.0
  0
LINE
  5
1D9
330
12F
100
AcDbEntity
  8
DN50
  6
Continuous
 62
     7
100
AcDbLine
 10
70.6783393086
 20
58.5954806582
 30
0.0
 11
75.1783393086
 21
66.3897092922
 31
0.0
  0
LINE
  5
1DA
330
12F
100
AcDbEntity
  8
DN50
  6
Continuous
 62
     7
100
AcDbLine
 10
117.1741221851
 20
66.9338553388
 30
0.0
 11
124.6524112718
 21
68.9376568603
 31
0.0
  0
LINE
  5
1DB
330
12F
100
AcDbEntity
  8
DN50
  6
Continuous
 62
     7
100
AcDbLine
 10
170.1563493754
 20
95.2093677736
 30
0.0
 11
175.4694764012
 21
100.5224947994
 31
0.0
  0
LINE
  5
1DC
330
12F
100
AcDbEntity
  8
DN50
  6
Continuous
 62
     7
100
AcDbLine
 10
116.0832179359
 20
68.8233569246
 30
0.0
 11
117.1741221851
 21
66.9338553388
 31
0.0
  0
LINE
  5
1DD
330
12F
100
AcDbEntity
  8
DN50
  6
Continuous
 62
     7
100
AcDbLine
 10
129.2270322059
 20
61.1954101877
 30
0.0
 11
141.4081285139
 21
64.4593251064
 31
0.0
  0
LINE
  5
1DE
330
12F
100
AcDbEntity
  8
DN50
  6
Continuous
 62
     7
100
AcDbLine
 10
165.6568398199
 20
78.4593251064
 30
0.0
 11
174.5740212092
 21
87.3765064957
 31
0.0
  0
LINE
  5
1DF
330
12F
100
AcDbEntity
  8
DN50
  6
Continuous
 62
     7
100
AcDbLine
 10
141.4081285139
 20
64.4593251064
 30
0.0
 11
148.3031239099
 21
52.5168427626
 31
0.0
  0
LINE
  5
1E0
330
12F
100
AcDbEntity
  8
DN50
  6
Continuous
 62
     7
100
AcDbLine
 10
172.5518352158
 20
66.5168427626
 30
0.0
 11
165.6568398199
 21
78.4593251064
 31
0.0
  0
LINE
  5
1E1
330
12F
100
AcDbEntity
  8
DN50
  6
Continuous
 62
     7
100
AcDbLine
 10
148.3031239099
 20
52.5168427626
 30
0.0
 11
150.4204632857
 21
51.9495033868
 31
0.0
  0
LINE
  5
1E2
330
12F
100
AcDbEntity
  8
DN50
  6
Continuous
 62
     7
100
AcDbLine
 10
171.98449584
 20
64.3995033868
 30
0.0
 11
172.5518352158
 21
66.5168427626
 31
0.0
  0
LINE
  5
1E3
330
12F
100
AcDbEntity
  8
DN50
  6
Continuous
 62
     7
100
AcDbLine
 10
150.4204632857
 20
51.9495033868
 30
0.0
 11
151.1094082857
 21
50.7562156431
 31
0.0
  0
LINE
  5
1E4
330
12F
100
AcDbEntity
  8
DN50
  6
Continuous
 62
     7
100
AcDbLine
 10
172.6734408399
 20
63.2062156431
 30
0.0
 11
171.98449584
 21
64.3995033868
 31
0.0
  0
LINE
  5
1E5
330
12F
100
AcDbEntity
  8
DN50
  6
Continuous
 62
     7
100
AcDbLine
 10
140.7055354304
 20
23.6762520241
 30
0.0
 11
147.0430204184
 21
12.6994060327
 31
0.0
  0
LINE
  5
1E6
330
12F
100
AcDbEntity
  8
DN50
  6
Continuous
 62
     7
100
AcDbLine
 10
205.9479509843
 20
45.6730734762
 30
0.0
 11
199.0183215072
 21
57.6755438081
 31
0.0
  0
ARC
  5
1E7
330
12F
100
AcDbEntity
  8
DN50
  6
Continuous
 62
     7
100
AcDbCircle
 10
130.5164245628
 20
111.3243097306
 30
0.0
 40
100.0
100
AcDbArc
 50
279.5126848853
 51
318.9655749888
  0
ARC
  5
1E8
330
12F
100
AcDbEntity
  8
DN50
  6
Continuous
 62
     7
100
AcDbCircle
 10
135.2055354304
 20
33.2025314657
 30
0.0
 40
11.0
100
AcDbArc
 50
300.0
 51
30.0
  0
ARC
  5
1E9
330
12F
100
AcDbEntity
  8
DN50
  6
Continuous
 62
     7
100
AcDbCircle
 10
195.8273136953
 20
68.2025314657
 30
0.0
 40
11.00000000000001
100
AcDbArc
 50
210.0
 51
286.8634412131
  0
LINE
  5
1EA
330
12F
100
AcDbEntity
  8
DN50
  6
Continuous
 62
     7
100
AcDbLine
 10
150.4165879627
 20
50.3562156431
 30
0.0
 11
154.0415879627
 21
44.0775314657
 31
0.0
  0
LINE
  5
1EB
330
12F
100
AcDbEntity
  8
DN50
  6
Continuous
 62
     7
100
AcDbLine
 10
176.991261163
 20
57.3275314657
 30
0.0
 11
173.366261163
 21
63.6062156431
 31
0.0
  0
ENDBLK
  5
1ED
330
12F
100
AcDbEntity
  8
0
100
AcDbBlockEnd
  0
BLOCK
  5
29D
330
1EE
100
AcDbEntity
  8
0
100
AcDbBlockBegin
  2
SE2
 70
     0
 10
0.0
 20
0.0
 30
0.0
  3
SE2
  1

  0
LINE
  5
1F0
330
1EE
100
AcDbEntity
  8
DN50
  6
Continuous
 62
     7
100
AcDbLine
 10
64.6499726785
 20
187.156390782
 30
0.0
 11
64.6499726785
 21
213.906390782
 31
0.0
  0
LINE
  5
1F1
330
1EE
100
AcDbEntity
  8
DN50
  6
Continuous
 62
     7
100
AcDbLine
 10
64.6499726785
 20
228.406390782
 30
0.0
 11
64.6499726785
 21
255.156390782
 31
0.0
  0
LINE
  5
1F2
330
1EE
100
AcDbEntity
  8
DN50
  6
Continuous
 62
     7
100
AcDbLine
 10
80.0499726785
 20
255.156390782
 30
0.0
 11
80.0499726785
 21
230.156390782
 31
0.0
  0
LINE
  5
1F3
330
1EE
100
AcDbEntity
  8
DN50
  6
Continuous
 62
     7
100
AcDbLine
 10
80.0499726785
 20
212.156390782
 30
0.0
 11
80.0499726785
 21
187.156390782
 31
0.0
  0
LINE
  5
1F4
330
1EE
100
AcDbEntity
  8
DN50
  6
Continuous
 62
     7
100
AcDbLine
 10
85.2461251012
 20
252.156390782
 30
0.0
 11
85.2461251012
 21
230.0862425874
 31
0.0
  0
LINE
  5
1F5
330
1EE
100
AcDbEntity
  8
DN50
  6
Continuous
 62
     7
100
AcDbLine
 10
85.2461251012
 20
212.2265389767
 30
0.0
 11
85.2461251012
 21
190.156390782
 31
0.0
  0
LINE
  5
1F6
330
1EE
100
AcDbEntity
  8
DN50
  6
Continuous
 62
     7
100
AcDbLine
 10
176.1499726785
 20
187.156390782
 30
0.0
 11
176.1499726785
 21
188.656390782
 31
0.0
  0
LINE
  5
1F7
330
1EE
100
AcDbEntity
  8
DN50
  6
Continuous
 62
     7
100
AcDbLine
 10
176.1499726785
 20
253.656390782
 30
0.0
 11
176.1499726785
 21
255.156390782
 31
0.0
  0
LINE
  5
1F8
330
1EE
100
AcDbEntity
  8
DN50
  6
Continuous
 62
     7
100
AcDbLine
 10
191.5499726785
 20
187.156390782
 30
0.0
 11
191.5499726785
 21
201.977326464
 31
0.0
  0
LINE
  5
1F9
330
1EE
100
AcDbEntity
  8
DN50
  6
Continuous
 62
     7
100
AcDbLine
 10
191.5499726785
 20
240.3354551001
 30
0.0
 11
191.5499726785
 21
255.156390782
 31
0.0
  0
ARC
  5
1FA
330
1EE
100
AcDbEntity
  8
DN50
  6
Continuous
 62
     7
100
AcDbCircle
 10
13.9735846175
 20
196.6197854749
 30
0.0
 40
50.41606087375349
100
AcDbArc
 50
348.3700223339
 51
11.6299776661
  0
SPLINE
  5
1FB
330
1EE
100
AcDbEntity
  8
DN50
  6
Continuous
 62
     7
100
AcDbSpline
210
0.0
220
0.0
230
1.0
 70
     8
 71
     3
 72
     8
 73
     4
 74
     0
 42
0.000000001
 43
0.0000000001
 40
0.0
 40
0.0
 40
0.0
 40
0.0
 40
0.2478944535817723
 40
0.2478944535817723
 40
0.2478944535817723
 40
0.2478944535817723
 10
63.35459921157916
 20
235.5296013963765
 30
0.0
 10
63.6853813885923
 20
233.1547492725601
 30
0.0
 10
63.9481070288108
 20
230.7590761968306
 30
0.0
 10
64.12496829601797
 20
228.3727847214742
 30
0.0
  0
SPLINE
  5
1FC
330
1EE
100
AcDbEntity
  8
DN50
  6
Continuous
 62
     7
100
AcDbSpline
210
0.0
220
0.0
230
1.0
 70
     8
 71
     3
 72
     8
 73
     4
 74
     0
 42
0.000000001
 43
0.0000000001
 40
0.7506357863182718
 40
0.7506357863182718
 40
0.7506357863182718
 40
0.7506357863182718
 40
1.0
 40
1.0
 40
1.0
 40
1.0
 10
64.12299463052005
 20
213.9134081554356
 30
0.0
 10
63.94591607252811
 20
211.5323645224444
 30
0.0
 10
63.68508128967333
 20
209.1558777299652
 30
0.0
 10
63.35459921157916
 20
206.7831801676837
 30
0.0
  0
ARC
  5
1FD
330
1EE
100
AcDbEntity
  8
DN50
  6
Continuous
 62
     7
100
AcDbCircle
 10
13.9735846175
 20
245.6929960892
 30
0.0
 40
50.41606087375261
100
AcDbArc
 50
348.3700223339
 51
11.6299776661
  0
LINE
  5
1FE
330
1EE
100
AcDbEntity
  8
DN50
  6
Continuous
 62
     7
100
AcDbLine
 10
63.3545992116
 20
255.856390782
 30
0.0
 11
64.3951933867
 21
255.856390782
 31
0.0
  0
LINE
  5
1FF
330
1EE
100
AcDbEntity
  8
DN50
  6
Continuous
 62
     7
100
AcDbLine
 10
63.3545992116
 20
186.456390782
 30
0.0
 11
64.3951933867
 21
186.456390782
 31
0.0
  0
LINE
  5
200
330
1EE
100
AcDbEntity
  8
DN50
  6
Continuous
 62
     7
100
AcDbLine
 10
192.8453461454
 20
186.456390782
 30
0.0
 11
191.8047519703
 21
186.456390782
 31
0.0
  0
LINE
  5
201
330
1EE
100
AcDbEntity
  8
DN50
  6
Continuous
 62
     7
100
AcDbLine
 10
192.8453461454
 20
255.856390782
 30
0.0
 11
191.8047519703
 21
255.856390782
 31
0.0
  0
ARC
  5
202
330
1EE
100
AcDbEntity
  8
DN50
  6
Continuous
 62
     7
100
AcDbCircle
 10
242.2263607395
 20
245.6929960892
 30
0.0
 40
50.41606087375241
100
AcDbArc
 50
168.3700223339
 51
186.7979851149
  0
ARC
  5
203
330
1EE
100
AcDbEntity
  8
DN50
  6
Continuous
 62
     7
100
AcDbCircle
 10
242.2263607395
 20
196.6197854749
 30
0.0
 40
50.41606087375327
100
AcDbArc
 50
173.1984385555
 51
191.6299776661
  0
ELLIPSE
  5
204
330
1EE
100
AcDbEntity
  8
DN50
  6
Continuous
 62
     7
100
AcDbEllipse
 10
117.3499726785
 20
221.156390782
 30
0.0
 11
7.327554973717968E-14
 21
30.99999999999991
 31
0.0
210
0.0
220
0.0
230
1.0
 40
0.5773502692
 41
0.0000000000000009
 42
1.2762586062725
  0
ELLIPSE
  5
205
330
1EE
100
AcDbEntity
  8
DN50
  6
Continuous
 62
     7
100
AcDbEllipse
 10
145.3104844552
 20
221.156390782
 30
0.0
 11
6.943521651473847E-16
 21
33.99999999999999
 31
0.0
210
0.0
220
0.0
230
1.0
 40
0.8660254038
 41
-0.2177987527546934
 42
3.359391406344489
  0
ELLIPSE
  5
206
330
1EE
100
AcDbEntity
  8
DN50
  6
Continuous
 62
     7
100
AcDbEllipse
 10
136.8104844552
 20
221.156390782
 30
0.0
 11
-6.636891489243659E-14
 21
-32.00000000000001
 31
0.0
210
0.0
220
0.0
230
1.0
 40
0.8660254038
 41
3.332187554848057
 42
4.363007289861621
  0
ELLIPSE
  5
207
330
1EE
100
AcDbEntity
  8
DN50
  6
Continuous
 62
     7
100
AcDbEllipse
 10
142.8104844552
 20
221.156390782
 30
0.0
 11
-2.851890022253437E-13
 21
-33.99999999999995
 31
0.0
210
0.0
220
0.0
230
1.0
 40
0.8660254038
 41
3.141592653589793
 42
4.638793149859529
  0
ELLIPSE
  5
208
330
1EE
100
AcDbEntity
  8
DN50
  6
Continuous
 62
     7
100
AcDbEllipse
 10
136.8104844552
 20
221.156390782
 30
0.0
 11
-5.853117537789352E-14
 21
32.00000000000001
 31
0.0
210
0.0
220
0.0
230
1.0
 40
0.8660254038
 41
1.920178017317966
 42
2.950997752331528
  0
ELLIPSE
  5
209
330
1EE
100
AcDbEntity
  8
DN50
  6
Continuous
 62
     7
100
AcDbEllipse
 10
137.8999726785
 20
221.156390782
 30
0.0
 11
4.952590581633253E-11
 21
-31.99999999997108
 31
0.0
210
0.0
220
0.0
230
1.0
 40
0.8660254038
 41
4.932056537478194
 42
5.061770670906209
  0
LINE
  5
20A
330
1EE
100
AcDbEntity
  8
DN50
  6
Continuous
 62
     7
100
AcDbLine
 10
111.8614418143
 20
232.1105321867
 30
0.0
 11
110.771953591
 21
232.1105321867
 31
0.0
  0
LINE
  5
20B
330
1EE
100
AcDbEntity
  8
DN50
  6
Continuous
 62
     7
100
AcDbLine
 10
110.771953591
 20
210.2022493774
 30
0.0
 11
111.8614418143
 21
210.2022493774
 31
0.0
  0
ELLIPSE
  5
20C
330
1EE
100
AcDbEntity
  8
DN50
  6
Continuous
 62
     7
100
AcDbEllipse
 10
125.133500858
 20
221.156390782
 30
0.0
 11
1.557658927513035E-12
 21
-22.24999999999946
 31
0.0
210
0.0
220
0.0
230
1.0
 40
0.8660254038
 41
5.120334125826264
 42
5.452931717791924
  0
LINE
  5
20D
330
1EE
100
AcDbEntity
  8
DN50
  6
Continuous
 62
     7
100
AcDbLine
 10
110.9109558535
 20
206.1445692805
 30
0.0
 11
112.3363366374
 21
206.1445692805
 31
0.0
  0
ELLIPSE
  5
20E
330
1EE
100
AcDbEntity
  8
DN50
  6
Continuous
 62
     7
100
AcDbEllipse
 10
128.6335008581
 20
221.1563907821
 30
0.0
 11
-2.171033678576255E-10
 21
-22.25000000009549
 31
0.0
210
0.0
220
0.0
230
1.0
 40
0.8660254038
 41
5.048339879532524
 42
5.227143233011715
  0
LINE
  5
20F
330
1EE
100
AcDbEntity
  8
DN50
  6
Continuous
 62
     7
100
AcDbLine
 10
112.3363366374
 20
236.1682122835
 30
0.0
 11
110.9109558535
 21
236.1682122835
 31
0.0
  0
ELLIPSE
  5
210
330
1EE
100
AcDbEntity
  8
DN50
  6
Continuous
 62
     7
100
AcDbEllipse
 10
128.6335008581
 20
221.156390782
 30
0.0
 11
-8.967727469844489E-11
 21
22.25000000003907
 31
0.0
210
0.0
220
0.0
230
1.0
 40
0.8660254038
 41
1.056042074173375
 42
1.23484542765295
  0
ELLIPSE
  5
211
330
1EE
100
AcDbEntity
  8
DN50
  6
Continuous
 62
     7
100
AcDbEllipse
 10
137.8999726785
 20
221.156390782
 30
0.0
 11
-3.573138473536495E-11
 21
32.00000000001935
 31
0.0
210
0.0
220
0.0
230
1.0
 40
0.8660254038
 41
1.221414636270747
 42
1.351128769698583
  0
ELLIPSE
  5
212
330
1EE
100
AcDbEntity
  8
DN50
  6
Continuous
 62
     7
100
AcDbEllipse
 10
125.133500858
 20
221.156390782
 30
0.0
 11
-1.305106931759737E-11
 21
22.25000000000523
 31
0.0
210
0.0
220
0.0
230
1.0
 40
0.8660254038
 41
0.830253589387052
 42
1.162851181352642
  0
ARC
  5
213
330
1EE
100
AcDbEntity
  8
DN50
  6
Continuous
 62
     7
100
AcDbCircle
 10
98.3498595433
 20
222.0633215608
 30
0.0
 40
14.37843589931712
100
AcDbArc
 50
6.3611876144
 51
20.0675855771
  0
ELLIPSE
  5
214
330
1EE
100
AcDbEntity
  8
DN50
  6
Continuous
 62
     7
100
AcDbEllipse
 10
105.9252902258
 20
221.156390782
 30
0.0
 11
-1.949215706661460E-13
 21
9.000000000004723
 31
0.0
210
0.0
220
0.0
230
1.0
 40
0.8660254038
 41
3.141592653589793
 42
4.006181063710063
  0
ELLIPSE
  5
215
330
1EE
100
AcDbEntity
  8
DN50
  6
Continuous
 62
     7
100
AcDbEllipse
 10
84.2748836015
 20
221.156390782
 30
0.0
 11
1.168590142471903E-13
 21
-8.999999999999947
 31
0.0
210
0.0
220
0.0
230
1.0
 40
0.8660254038
 41
2.507408812765739
 42
3.141592653589793
  0
ELLIPSE
  5
216
330
1EE
100
AcDbEntity
  8
DN50
  6
Continuous
 62
     7
100
AcDbEllipse
 10
98.6993375839
 20
221.156390782
 30
0.0
 11
-10.39230484541878
 21
1.272690286470564E-15
 31
0.0
210
0.0
220
0.0
230
1.0
 40
0.8660254038
 41
2.8601125803591
 42
3.423072726820486
  0
ELLIPSE
  5
217
330
1EE
100
AcDbEntity
  8
DN50
  6
Continuous
 62
     7
100
AcDbEllipse
 10
153.4343645029
 20
221.156390782
 30
0.0
 11
39.25981830489455
 21
-4.807941082219577E-15
 31
0.0
210
0.0
220
0.0
230
1.0
 40
0.8660254038
 41
3.067996823064617
 42
3.215188484114969
  0
LINE
  5
218
330
1EE
100
AcDbEntity
  8
DN50
  6
Continuous
 62
     7
100
AcDbLine
 10
114.280820602
 20
218.656390782
 30
0.0
 11
108.6826570051
 21
218.656390782
 31
0.0
  0
LINE
  5
219
330
1EE
100
AcDbEntity
  8
DN50
  6
Continuous
 62
     7
100
AcDbLine
 10
114.280820602
 20
223.656390782
 30
0.0
 11
108.6826570051
 21
223.656390782
 31
0.0
  0
ARC
  5
21A
330
1EE
100
AcDbEntity
  8
DN50
  6
Continuous
 62
     7
100
AcDbCircle
 10
98.3504125345
 20
220.2493301538
 30
0.0
 40
14.37787192608883
100
AcDbArc
 50
339.9321443161
 51
353.6390824923
  0
ELLIPSE
  5
21B
330
1EE
100
AcDbEntity
  8
DN50
  6
Continuous
 62
     7
100
AcDbEllipse
 10
142.8104844552
 20
221.156390782
 30
0.0
 11
-1.935946771442550E-13
 21
33.99999999999995
 31
0.0
210
0.0
220
0.0
230
1.0
 40
0.8660254038
 41
1.644392157320061
 42
3.141592653589793
  0
ELLIPSE
  5
21C
330
1EE
100
AcDbEntity
  8
DN50
  6
Continuous
 62
     7
100
AcDbEllipse
 10
84.2748836015
 20
221.156390782
 30
0.0
 11
9.824669677393383E-14
 21
8.999999999999966
 31
0.0
210
0.0
220
0.0
230
1.0
 40
0.8660254038
 41
3.141592653589793
 42
3.775776494413843
  0
ELLIPSE
  5
21D
330
1EE
100
AcDbEntity
  8
DN50
  6
Continuous
 62
     7
100
AcDbEllipse
 10
117.3499726785
 20
221.156390782
 30
0.0
 11
2.014443911496224E-14
 21
31.00000000000002
 31
0.0
210
0.0
220
0.0
230
1.0
 40
0.5773502692
 41
1.8653340473173
 42
3.141592653589793
  0
ELLIPSE
  5
21E
330
1EE
100
AcDbEntity
  8
DN50
  6
Continuous
 62
     7
100
AcDbEllipse
 10
105.9252902258
 20
221.156390782
 30
0.0
 11
5.440896911202462E-14
 21
-9.00000000000481
 31
0.0
210
0.0
220
0.0
230
1.0
 40
0.8660254038
 41
2.277004243469512
 42
3.141592653589793
  0
LINE
  5
21F
330
1EE
100
AcDbEntity
  8
DN50
  6
Continuous
 62
     7
100
AcDbLine
 10
52.3273312626
 20
186.456390782
 30
0.0
 11
63.3545992116
 21
186.456390782
 31
0.0
  0
LINE
  5
220
330
1EE
100
AcDbEntity
  8
DN50
  6
Continuous
 62
     7
100
AcDbLine
 10
52.3273312626
 20
206.7831801677
 30
0.0
 11
63.3545992116
 21
206.7831801677
 31
0.0
  0
LINE
  5
221
330
1EE
100
AcDbEntity
  8
DN50
  6
Continuous
 62
     7
100
AcDbLine
 10
52.3273312626
 20
235.5296013964
 30
0.0
 11
63.3545992116
 21
235.5296013964
 31
0.0
  0
LINE
  5
222
330
1EE
100
AcDbEntity
  8
DN50
  6
Continuous
 62
     7
100
AcDbLine
 10
52.3273312626
 20
255.856390782
 30
0.0
 11
63.3545992116
 21
255.856390782
 31
0.0
  0
LINE
  5
223
330
1EE
100
AcDbEntity
  8
DN50
  6
Continuous
 62
     7
100
AcDbLine
 10
50.8499726785
 20
254.656390782
 30
0.0
 11
50.8499726785
 21
187.656390782
 31
0.0
  0
LINE
  5
224
330
1EE
100
AcDbEntity
  8
DN50
  6
Continuous
 62
     7
100
AcDbLine
 10
52.3273312626
 20
255.856390782
 30
0.0
 11
51.2867370896
 21
255.856390782
 31
0.0
  0
ARC
  5
225
330
1EE
100
AcDbEntity
  8
DN50
  6
Continuous
 62
     7
100
AcDbCircle
 10
101.7083458567
 20
245.6929960892
 30
0.0
 40
50.4160608737542
100
AcDbArc
 50
168.3700223339
 51
191.6299776661
  0
SPLINE
  5
226
330
1EE
100
AcDbEntity
  8
DN50
  6
Continuous
 62
     7
100
AcDbSpline
210
0.0
220
0.0
230
1.0
 70
     8
 71
     3
 72
    14
 73
    10
 74
     0
 42
0.000000001
 43
0.0000000001
 40
0.0
 40
0.0
 40
0.0
 40
0.0
 40
0.2499999999999999
 40
0.2499999999999999
 40
0.5
 40
0.5
 40
0.75
 40
0.75
 40
1.0
 40
1.0
 40
1.0
 40
1.0
 10
52.32733126256888
 20
235.5296013963765
 30
0.0
 10
51.99377320970468
 20
233.1348198594342
 30
0.0
 10
51.72938223048391
 20
230.7186041326929
 30
0.0
 10
51.37556799972442
 20
225.9053849231922
 30
0.0
 10
51.28550302563917
 20
223.5035694657495
 30
0.0
 10
51.28799669406715
 20
218.7100203441821
 30
0.0
 10
51.38050698112881
 20
216.3182840105796
 30
0.0
 10
51.73471883064183
 20
211.544151600136
 30
0.0
 10
51.99603346897859
 20
209.1617341630291
 30
0.0
 10
52.3273312625689
 20
206.7831801676837
 30
0.0
  0
ARC
  5
227
330
1EE
100
AcDbEntity
  8
DN50
  6
Continuous
 62
     7
100
AcDbCircle
 10
101.7083458567
 20
196.6197854749
 30
0.0
 40
50.41606087375128
100
AcDbArc
 50
168.3700223339
 51
191.6299776661
  0
LINE
  5
228
330
1EE
100
AcDbEntity
  8
DN50
  6
Continuous
 62
     7
100
AcDbLine
 10
52.3273312626
 20
186.456390782
 30
0.0
 11
51.2867370896
 21
186.456390782
 31
0.0
  0
LINE
  5
229
330
1EE
100
AcDbEntity
  8
DN50
  6
Continuous
 62
     7
100
AcDbLine
 10
203.8726140944
 20
206.7831801677
 30
0.0
 11
195.7001316666
 21
206.7831801677
 31
0.0
  0
LINE
  5
22A
330
1EE
100
AcDbEntity
  8
DN50
  6
Continuous
 62
     7
100
AcDbLine
 10
203.8726140944
 20
186.456390782
 30
0.0
 11
192.8453461454
 21
186.456390782
 31
0.0
  0
LINE
  5
22B
330
1EE
100
AcDbEntity
  8
DN50
  6
Continuous
 62
     7
100
AcDbLine
 10
203.8726140944
 20
235.5296013964
 30
0.0
 11
195.7001316666
 21
235.5296013964
 31
0.0
  0
LINE
  5
22C
330
1EE
100
AcDbEntity
  8
DN50
  6
Continuous
 62
     7
100
AcDbLine
 10
203.8726140944
 20
255.856390782
 30
0.0
 11
192.8453461454
 21
255.856390782
 31
0.0
  0
SPLINE
  5
22D
330
1EE
100
AcDbEntity
  8
DN50
  6
Continuous
 62
     7
100
AcDbSpline
210
0.0
220
0.0
230
1.0
 70
     8
 71
     3
 72
     8
 73
     4
 74
     0
 42
0.000000001
 43
0.0000000001
 40
0.0
 40
0.0
 40
0.0
 40
0.0
 40
0.2460372034546855
 40
0.2460372034546855
 40
0.2460372034546855
 40
0.2460372034546855
 10
203.8726140944461
 20
206.7831801676837
 30
0.0
 10
204.1986604250288
 20
209.1240312608067
 30
0.0
 10
204.45692464843
 20
211.4686242861506
 30
0.0
 10
204.6338470159552
 20
213.817707813842
 30
0.0
  0
SPLINE
  5
22E
330
1EE
100
AcDbEntity
  8
DN50
  6
Continuous
 62
     7
100
AcDbSpline
210
0.0
220
0.0
230
1.0
 70
     8
 71
     3
 72
     8
 73
     4
 74
     0
 42
0.000000001
 43
0.0000000001
 40
0.7563845761625856
 40
0.7563845761625856
 40
0.7563845761625856
 40
0.7563845761625856
 40
1.0
 40
1.0
 40
1.0
 40
1.0
 10
204.6337456513356
 20
228.4963949941927
 30
0.0
 10
204.4570138206713
 20
230.8420022598679
 30
0.0
 10
204.1976536401377
 20
233.1959785198956
 30
0.0
 10
203.8726140944461
 20
235.5296013963765
 30
0.0
  0
ARC
  5
22F
330
1EE
100
AcDbEntity
  8
DN50
  6
Continuous
 62
     7
100
AcDbCircle
 10
154.4915995003
 20
245.6929960892
 30
0.0
 40
50.41606087375141
100
AcDbArc
 50
348.3700223339
 51
11.6299776661
  0
LINE
  5
230
330
1EE
100
AcDbEntity
  8
DN50
  6
Continuous
 62
     7
100
AcDbLine
 10
203.8726140944
 20
255.856390782
 30
0.0
 11
204.9132082674
 21
255.856390782
 31
0.0
  0
LINE
  5
231
330
1EE
100
AcDbEntity
  8
DN50
  6
Continuous
 62
     7
100
AcDbLine
 10
204.9132082674
 20
186.456390782
 30
0.0
 11
203.8726140944
 21
186.456390782
 31
0.0
  0
ARC
  5
232
330
1EE
100
AcDbEntity
  8
DN50
  6
Continuous
 62
     7
100
AcDbCircle
 10
154.4915995003
 20
196.6197854749
 30
0.0
 40
50.41606087375248
100
AcDbArc
 50
348.3700223339
 51
11.6299776661
  0
LINE
  5
233
330
1EE
100
AcDbEntity
  8
DN50
  6
Continuous
 62
     7
100
AcDbLine
 10
205.3499726785
 20
254.656390782
 30
0.0
 11
205.3499726785
 21
227.820084271
 31
0.0
  0
LINE
  5
234
330
1EE
100
AcDbEntity
  8
DN50
  6
Continuous
 62
     7
100
AcDbLine
 10
205.3499726785
 20
214.492697293
 30
0.0
 11
205.3499726785
 21
187.656390782
 31
0.0
  0
ELLIPSE
  5
235
330
1EE
100
AcDbEntity
  8
DN50
  6
Continuous
 62
     7
100
AcDbEllipse
 10
78.6746551312
 20
221.156390782
 30
0.0
 11
3.359228740030353E-14
 21
-8.999999999999995
 31
0.0
210
0.0
220
0.0
230
1.0
 40
0.8660254038
 41
0.0
 42
0.7190230251112387
  0
ELLIPSE
  5
236
330
1EE
100
AcDbEntity
  8
DN50
  6
Continuous
 62
     7
100
AcDbEllipse
 10
78.6746551312
 20
221.156390782
 30
0.0
 11
3.359228740030353E-14
 21
-8.999999999999995
 31
0.0
210
0.0
220
0.0
230
1.0
 40
0.8660254038
 41
2.422569628478549
 42
3.987495705024673
  0
ELLIPSE
  5
237
330
1EE
100
AcDbEntity
  8
DN50
  6
Continuous
 62
     7
100
AcDbEllipse
 10
78.6746551312
 20
221.156390782
 30
0.0
 11
3.359228740030353E-14
 21
-8.999999999999995
 31
0.0
210
0.0
220
0.0
230
1.0
 40
0.8660254038
 41
5.437282255744695
 42
6.283185307179586
  0
ELLIPSE
  5
238
330
1EE
100
AcDbEntity
  8
DN50
  6
Continuous
 62
     7
100
AcDbEllipse
 10
100.3252902258
 20
221.156390782
 30
0.0
 11
2.367264832720411E-15
 21
-9.00000000000478
 31
0.0
210
0.0
220
0.0
230
1.0
 40
0.8660254038
 41
0.0
 42
3.987495705025147
  0
ELLIPSE
  5
239
330
1EE
100
AcDbEntity
  8
DN50
  6
Continuous
 62
     7
100
AcDbEllipse
 10
100.3252902258
 20
221.156390782
 30
0.0
 11
2.367264832720411E-15
 21
-9.00000000000478
 31
0.0
210
0.0
220
0.0
230
1.0
 40
0.8660254038
 41
5.437282255744232
 42
6.283185307179586
  0
ELLIPSE
  5
23A
330
1EE
100
AcDbEntity
  8
DN50
  6
Continuous
 62
     7
100
AcDbEllipse
 10
100.3252902258
 20
221.156390782
 30
0.0
 11
1.460859578520564E-14
 21
5.967499999999998
 31
0.0
210
0.0
220
0.0
230
1.0
 40
0.8660254038
 41
3.141592653589793
 42
6.283185307179586
  0
ELLIPSE
  5
23B
330
1EE
100
AcDbEntity
  8
DN50
  6
Continuous
 62
     7
100
AcDbEllipse
 10
78.6746551312
 20
221.156390782
 30
0.0
 11
7.308079773911821E-16
 21
5.967499999999993
 31
0.0
210
0.0
220
0.0
230
1.0
 40
0.8660254038
 41
3.141592653589793
 42
3.720150448352224
  0
ELLIPSE
  5
23C
330
1EE
100
AcDbEntity
  8
DN50
  6
Continuous
 62
     7
100
AcDbEllipse
 10
78.6746551312
 20
221.156390782
 30
0.0
 11
7.308079773911821E-16
 21
5.967499999999993
 31
0.0
210
0.0
220
0.0
230
1.0
 40
0.8660254038
 41
5.704627512417155
 42
6.283185307179586
  0
ELLIPSE
  5
23D
330
1EE
100
AcDbEntity
  8
DN50
  6
Continuous
 62
     7
100
AcDbEllipse
 10
145.3115753136
 20
221.156390782
 30
0.0
 11
-6.872520304390357E-14
 21
33.74999999999999
 31
0.0
210
0.0
220
0.0
230
1.0
 40
0.8660254038
 41
-0.0000000000000022
 42
3.14159265358979
  0
ELLIPSE
  5
23E
330
1EE
100
AcDbEntity
  8
DN50
  6
Continuous
 62
     7
100
AcDbEllipse
 10
90.5502902258
 20
221.156390782
 30
0.0
 11
-8.878689293818307E-16
 21
-7.249999999999998
 31
0.0
210
0.0
220
0.0
230
1.0
 40
0.8660254038
 41
0.0000000000000001
 42
3.141592653589793
  0
ELLIPSE
  5
23F
330
1EE
100
AcDbEntity
  8
DN50
  6
Continuous
 62
     7
100
AcDbEllipse
 10
92.0502902258
 20
221.156390782
 30
0.0
 11
9.677532878469659E-15
 21
-5.967499999999996
 31
0.0
210
0.0
220
0.0
230
1.0
 40
0.8660254038
 41
0.7408221704900582
 42
2.400770483099732
  0
ELLIPSE
  5
240
330
1EE
100
AcDbEntity
  8
DN50
  6
Continuous
 62
     7
100
AcDbEllipse
 10
86.0502902258
 20
221.156390782
 30
0.0
 11
-6.051024974525397E-15
 21
7.250000000000003
 31
0.0
210
0.0
220
0.0
230
1.0
 40
0.8660254038
 41
0.0
 42
6.283185307179586
  0
ELLIPSE
  5
241
330
1EE
100
AcDbEntity
  8
DN50
  6
Continuous
 62
     7
100
AcDbEllipse
 10
68.8996551312
 20
221.156390782
 30
0.0
 11
-6.051024974525397E-15
 21
7.250000000000003
 31
0.0
210
0.0
220
0.0
230
1.0
 40
0.8660254038
 41
3.141592653589793
 42
6.283185307179586
  0
ELLIPSE
  5
242
330
1EE
100
AcDbEntity
  8
DN50
  6
Continuous
 62
     7
100
AcDbEllipse
 10
70.3996551312
 20
221.156390782
 30
0.0
 11
2.008587373433050E-14
 21
-5.967499999999998
 31
0.0
210
0.0
220
0.0
230
1.0
 40
0.8660254038
 41
0.7408221704898734
 42
2.400770483099921
  0
ELLIPSE
  5
243
330
1EE
100
AcDbEntity
  8
DN50
  6
Continuous
 62
     7
100
AcDbEllipse
 10
64.3996551312
 20
221.156390782
 30
0.0
 11
-6.051024974525397E-15
 21
7.250000000000003
 31
0.0
210
0.0
220
0.0
230
1.0
 40
0.8660254038
 41
0.0
 42
6.283185307179586
  0
ELLIPSE
  5
244
330
1EE
100
AcDbEntity
  8
DN50
  6
Continuous
 62
     7
100
AcDbEllipse
 10
146.4024795628
 20
221.156390782
 30
0.0
 11
-1.668349876459937E-14
 21
33.75000000000001
 31
0.0
210
0.0
220
0.0
230
1.0
 40
0.8660254038
 41
-0.5989787495066053
 42
3.740524705308796
  0
LINE
  5
245
330
1EE
100
AcDbEntity
  8
DN50
  6
Continuous
 62
     7
100
AcDbLine
 10
158.8612169192
 20
198.4058453244
 30
0.0
 11
158.7803648495
 21
198.4044217303
 31
0.0
  0
ARC
  5
246
330
1EE
100
AcDbEntity
  8
DN50
  6
Continuous
 62
     7
100
AcDbCircle
 10
151.9005267076
 20
-7667.3996387536
 30
0.0
 40
7865.890704604981
100
AcDbArc
 50
89.9499915911
 51
90.0825778059
  0
LINE
  5
247
330
1EE
100
AcDbEntity
  8
DN50
  6
Continuous
 62
     7
100
AcDbLine
 10
140.5637794567
 20
198.4828962804
 30
0.0
 11
136.0283957977
 21
198.4044217303
 31
0.0
  0
ARC
  5
248
330
1EE
100
AcDbEntity
  8
DN50
  6
Continuous
 62
     7
100
AcDbCircle
 10
147.4043803236
 20
-7694.7016309914
 30
0.0
 40
7893.11425056896
100
AcDbArc
 50
89.9174221852
 51
90.0825778148
  0
ARC
  5
249
330
1EE
100
AcDbEntity
  8
DN50
  6
Continuous
 62
     7
100
AcDbCircle
 10
-33.8181981313
 20
125.4628415499
 30
0.0
 40
189.0529092617759
100
AcDbArc
 50
22.7208276912
 51
30.409274663
  0
LINE
  5
24A
330
1EE
100
AcDbEntity
  8
DN50
  6
Continuous
 62
     7
100
AcDbLine
 10
129.2270322059
 20
221.156390782
 30
0.0
 11
124.6524112718
 21
221.156390782
 31
0.0
  0
ARC
  5
24B
330
1EE
100
AcDbEntity
  8
DN50
  6
Continuous
 62
     7
100
AcDbCircle
 10
-38.9571117916
 20
125.1316485929
 30
0.0
 40
189.7072142791004
100
AcDbArc
 50
22.7208272788
 51
30.4092750754
  0
ARC
  5
24C
330
1EE
100
AcDbEntity
  8
DN50
  6
Continuous
 62
     7
100
AcDbCircle
 10
-33.8181981367
 20
316.8499400168
 30
0.0
 40
189.0529092677914
100
AcDbArc
 50
329.5907253372
 51
337.2791723087
  0
LINE
  5
24D
330
1EE
100
AcDbEntity
  8
DN50
  6
Continuous
 62
     7
100
AcDbLine
 10
140.5637794567
 20
243.8298852837
 30
0.0
 11
136.0283957977
 21
243.9083598338
 31
0.0
  0
ARC
  5
24E
330
1EE
100
AcDbEntity
  8
DN50
  6
Continuous
 62
     7
100
AcDbCircle
 10
-38.9571117916
 20
317.1811329711
 30
0.0
 40
189.7072142791024
100
AcDbArc
 50
329.5907249246
 51
337.2791727212
  0
ARC
  5
24F
330
1EE
100
AcDbEntity
  8
DN50
  6
Continuous
 62
     7
100
AcDbCircle
 10
151.9005267075
 20
8109.7124202842
 30
0.0
 40
7865.890704571482
100
AcDbArc
 50
269.9174221941
 51
270.0499295209
  0
LINE
  5
250
330
1EE
100
AcDbEntity
  8
DN50
  6
Continuous
 62
     7
100
AcDbLine
 10
158.8618150102
 20
243.9069257088
 30
0.0
 11
158.7803648495
 21
243.9083598338
 31
0.0
  0
ARC
  5
251
330
1EE
100
AcDbEntity
  8
DN50
  6
Continuous
 62
     7
100
AcDbCircle
 10
147.4043803236
 20
8137.0144125407
 30
0.0
 40
7893.114250554232
100
AcDbArc
 50
269.9174221852
 51
270.0825778148
  0
ELLIPSE
  5
252
330
1EE
100
AcDbEntity
  8
DN50
  6
Continuous
 62
     7
100
AcDbEllipse
 10
177.3539095508
 20
221.156390782
 30
0.0
 11
-1.516965134848792E-12
 21
-35.00000000000031
 31
0.0
210
0.0
220
0.0
230
1.0
 40
0.8660254038
 41
4.422637278948685
 42
5.002140681820773
  0
LINE
  5
253
330
1EE
100
AcDbEntity
  8
DN50
  6
Continuous
 62
     7
100
AcDbLine
 10
148.3065344543
 20
231.156390782
 30
0.0
 11
141.9690494663
 21
231.156390782
 31
0.0
  0
LINE
  5
254
330
1EE
100
AcDbEntity
  8
DN50
  6
Continuous
 62
     7
100
AcDbLine
 10
152.3026849609
 20
202.6308377725
 30
0.0
 11
155.9004578465
 21
200.6936324186
 31
0.0
  0
ELLIPSE
  5
255
330
1EE
100
AcDbEntity
  8
DN50
  6
Continuous
 62
     7
100
AcDbEllipse
 10
122.0113136766
 20
200.0954968691
 30
0.0
 11
90.18621021477806
 21
-36.42028308234175
 31
0.0
210
0.0
220
0.0
230
1.0
 40
0.2113091309
 41
1.103268614520095
 42
1.361164123630067
  0
LINE
  5
256
330
1EE
100
AcDbEntity
  8
DN50
  6
Continuous
 62
     7
100
AcDbLine
 10
148.3065344543
 20
211.156390782
 30
0.0
 11
141.9690494663
 21
211.156390782
 31
0.0
  0
ELLIPSE
  5
257
330
1EE
100
AcDbEntity
  8
DN50
  6
Continuous
 62
     7
100
AcDbEllipse
 10
116.3298063364
 20
215.1940867474
 30
0.0
 11
38.1516619785426
 21
-90.77750145283255
 31
0.0
210
0.0
220
0.0
230
1.0
 40
0.4698463104
 41
1.093548780607662
 42
1.218480272789966
  0
LINE
  5
258
330
1EE
100
AcDbEntity
  8
DN50
  6
Continuous
 62
     7
100
AcDbLine
 10
169.5265476345
 20
200.6936324186
 30
0.0
 11
155.9004578465
 21
200.6936324186
 31
0.0
  0
LINE
  5
259
330
1EE
100
AcDbEntity
  8
DN50
  6
Continuous
 62
     7
100
AcDbLine
 10
155.9004578465
 20
200.6936324186
 30
0.0
 11
156.215765632
 21
199.6933141634
 31
0.0
  0
ELLIPSE
  5
25A
330
1EE
100
AcDbEntity
  8
DN50
  6
Continuous
 62
     7
100
AcDbEllipse
 10
177.8021253613
 20
221.156390782
 30
0.0
 11
-2.377547351839930E-14
 21
32.50000000000584
 31
0.0
210
0.0
220
0.0
230
1.0
 40
0.8660254038
 41
2.924506981298455
 42
3.358678325881129
  0
LINE
  5
25B
330
1EE
100
AcDbEntity
  8
DN50
  6
Continuous
 62
     7
100
AcDbLine
 10
171.7399475348
 20
189.4191886369
 30
0.0
 11
164.8103180577
 21
189.4191886369
 31
0.0
  0
ELLIPSE
  5
25C
330
1EE
100
AcDbEntity
  8
DN50
  6
Continuous
 62
     7
100
AcDbEllipse
 10
144.7030427886
 20
215.1940867475
 30
0.0
 11
38.15166197842266
 21
90.77750145292698
 31
0.0
210
0.0
220
0.0
230
1.0
 40
0.4698463104
 41
4.625055997819642
 42
4.739031809282517
  0
ELLIPSE
  5
25D
330
1EE
100
AcDbEntity
  8
DN50
  6
Continuous
 62
     7
100
AcDbEllipse
 10
135.6799313215
 20
204.7750950786
 30
0.0
 11
93.91382052510681
 21
29.60233768077094
 31
0.0
210
0.0
220
0.0
230
1.0
 40
0.1710100717
 41
-0.9053904908262265
 42
-0.7914146793633696
  0
ELLIPSE
  5
25E
330
1EE
100
AcDbEntity
  8
DN50
  6
Continuous
 62
     7
100
AcDbEllipse
 10
177.8021253613
 20
221.156390782
 30
0.0
 11
-1.085426240816206E-12
 21
32.50000000000053
 31
0.0
210
0.0
220
0.0
230
1.0
 40
0.8660254038
 41
4.495303308093298
 42
4.929474652676014
  0
ELLIPSE
  5
25F
330
1EE
100
AcDbEntity
  8
DN50
  6
Continuous
 62
     7
100
AcDbEllipse
 10
135.6799313213
 20
237.5376864855
 30
0.0
 11
93.91382052525337
 21
-29.60233768079938
 31
0.0
210
0.0
220
0.0
230
1.0
 40
0.1710100717
 41
0.7914146793626315
 42
0.9053904908253887
  0
ELLIPSE
  5
260
330
1EE
100
AcDbEntity
  8
DN50
  6
Continuous
 62
     7
100
AcDbEllipse
 10
144.7030427885
 20
227.1186948166
 30
0.0
 11
-38.15166197844407
 21
90.77750145303251
 31
0.0
210
0.0
220
0.0
230
1.0
 40
0.4698463104
 41
4.685746151486619
 42
4.79972196294937
  0
ELLIPSE
  5
261
330
1EE
100
AcDbEntity
  8
DN50
  6
Continuous
 62
     7
100
AcDbEllipse
 10
177.8021253613
 20
221.156390782
 30
0.0
 11
7.234773084574919E-14
 21
-32.50000000001158
 31
0.0
210
0.0
220
0.0
230
1.0
 40
0.8660254038
 41
2.92450698129847
 42
3.358678325881113
  0
LINE
  5
262
330
1EE
100
AcDbEntity
  8
DN50
  6
Continuous
 62
     7
100
AcDbLine
 10
156.215765632
 20
242.6194674006
 30
0.0
 11
155.9004578465
 21
241.6191491455
 31
0.0
  0
ELLIPSE
  5
263
330
1EE
100
AcDbEntity
  8
DN50
  6
Continuous
 62
     7
100
AcDbEllipse
 10
116.3298063363
 20
227.1186948166
 30
0.0
 11
38.15166197865388
 21
90.77750145294581
 31
0.0
210
0.0
220
0.0
230
1.0
 40
0.4698463104
 41
-1.218480272789099
 42
-1.09354878060695
  0
LINE
  5
264
330
1EE
100
AcDbEntity
  8
DN50
  6
Continuous
 62
     7
100
AcDbLine
 10
171.7399475348
 20
252.8935929271
 30
0.0
 11
164.8103180577
 21
252.8935929271
 31
0.0
  0
ELLIPSE
  5
265
330
1EE
100
AcDbEntity
  8
DN50
  6
Continuous
 62
     7
100
AcDbEllipse
 10
122.0113136766
 20
242.217284695
 30
0.0
 11
90.18621021478053
 21
36.42028308234267
 31
0.0
210
0.0
220
0.0
230
1.0
 40
0.2113091309
 41
-1.361164123630054
 42
-1.10326861452009
  0
LINE
  5
266
330
1EE
100
AcDbEntity
  8
DN50
  6
Continuous
 62
     7
100
AcDbLine
 10
169.5265476345
 20
241.6191491455
 30
0.0
 11
155.9004578465
 21
241.6191491455
 31
0.0
  0
LINE
  5
267
330
1EE
100
AcDbEntity
  8
DN50
  6
Continuous
 62
     7
100
AcDbLine
 10
155.9004578465
 20
241.6191491455
 30
0.0
 11
152.3026849609
 21
239.6819437916
 31
0.0
  0
ELLIPSE
  5
268
330
1EE
100
AcDbEntity
  8
DN50
  6
Continuous
 62
     7
100
AcDbEllipse
 10
179.0550689609
 20
221.156390782
 30
0.0
 11
1.877501095640905E-12
 21
-24.00000000000074
 31
0.0
210
0.0
220
0.0
230
1.0
 40
0.8660254038
 41
0.4639434246049099
 42
1.106852902189829
  0
ELLIPSE
  5
269
330
1EE
100
AcDbEntity
  8
DN50
  6
Continuous
 62
     7
100
AcDbEllipse
 10
179.0550689609
 20
221.156390782
 30
0.0
 11
2.147057368625287E-12
 21
24.00000000000082
 31
0.0
210
0.0
220
0.0
230
1.0
 40
0.8660254038
 41
5.176332404989767
 42
5.819241882574683
  0
SPLINE
  5
26A
330
1EE
100
AcDbEntity
  8
DN50
  6
Continuous
 62
     7
100
AcDbSpline
210
0.0
220
0.0
230
1.0
 70
     8
 71
     3
 72
    18
 73
    14
 74
     0
 42
0.000000001
 43
0.0000000001
 40
0.0
 40
0.0
 40
0.0
 40
0.0
 40
0.062500000000001
 40
0.062500000000001
 40
0.125000000000002
 40
0.125000000000002
 40
0.2500000000000024
 40
0.2500000000000024
 40
0.5000000000000016
 40
0.5000000000000016
 40
0.7500000000000009
 40
0.7500000000000009
 40
1.0
 40
1.0
 40
1.0
 40
1.0
 10
152.3026849608834
 20
202.6308377724937
 30
0.0
 10
152.5609799750723
 20
202.6308377724936
 30
0.0
 10
152.6911111741038
 20
202.6951346266928
 30
0.0
 10
152.7823452296134
 20
202.8899879557877
 30
0.0
 10
152.7504698371514
 20
203.0190286096602
 30
0.0
 10
152.5499693145169
 20
203.4382395014362
 30
0.0
 10
152.2844136855621
 20
203.7594724585242
 30
0.0
 10
151.3441122534533
 20
204.7686493964581
 30
0.0
 10
150.5149986905048
 20
205.4997466339067
 30
0.0
 10
148.6092263167086
 20
207.0109934909632
 30
0.0
 10
147.5088077936523
 20
207.8047080802341
 30
0.0
 10
144.9734763140263
 20
209.4559078369817
 30
0.0
 10
143.5667462288468
 20
210.2961178240548
 30
0.0
 10
141.9690494662777
 20
211.1563907820301
 30
0.0
  0
ELLIPSE
  5
26B
330
1EE
100
AcDbEntity
  8
DN50
  6
Continuous
 62
     7
100
AcDbEllipse
 10
171.0164245628
 20
221.156390782
 30
0.0
 11
-1.985752931064179E-13
 21
-34.999999999998
 31
0.0
210
0.0
220
0.0
230
1.0
 40
0.8660254038
 41
4.422637278948629
 42
5.002140681820759
  0
SPLINE
  5
26C
330
1EE
100
AcDbEntity
  8
DN50
  6
Continuous
 62
     7
100
AcDbSpline
210
0.0
220
0.0
230
1.0
 70
     8
 71
     3
 72
    18
 73
    14
 74
     0
 42
0.000000001
 43
0.0000000001
 40
0.0
 40
0.0
 40
0.0
 40
0.0
 40
0.2499999999999996
 40
0.2499999999999996
 40
0.4999999999999991
 40
0.4999999999999991
 40
0.7499999999999987
 40
0.7499999999999987
 40
0.8749999999999986
 40
0.8749999999999986
 40
0.9374999999999992
 40
0.9374999999999992
 40
1.0
 40
1.0
 40
1.0
 40
1.0
 10
141.9690494662778
 20
231.1563907820301
 30
0.0
 10
143.5691568341187
 20
232.0179617200579
 30
0.0
 10
144.9735624634774
 20
232.8570806914224
 30
0.0
 10
147.5013725163667
 20
234.5030806491722
 30
0.0
 10
148.6116861287685
 20
235.3035954870433
 30
0.0
 10
150.5176240667211
 20
236.8152603712381
 30
0.0
 10
151.3385684623808
 20
237.538543195911
 30
0.0
 10
152.2843321433598
 20
238.5530419599584
 30
0.0
 10
152.5535986284374
 20
238.8797365917816
 30
0.0
 10
152.7513875852127
 20
239.2968934795871
 30
0.0
 10
152.7823380662671
 20
239.4228833874271
 30
0.0
 10
152.691068234513
 20
239.6176641247586
 30
0.0
 10
152.5616606682422
 20
239.6819437915666
 30
0.0
 10
152.3026849608835
 20
239.6819437915666
 30
0.0
  0
ELLIPSE
  5
26D
330
1EE
100
AcDbEntity
  8
DN50
  6
Continuous
 62
     7
100
AcDbEllipse
 10
165.5164245628
 20
221.156390782
 30
0.0
 11
-1.787752939376804E-14
 21
23.99999999999999
 31
0.0
210
0.0
220
0.0
230
1.0
 40
0.8660254038
 41
0.688975028762222
 42
0.9258783573499252
  0
ELLIPSE
  5
26E
330
1EE
100
AcDbEntity
  8
DN50
  6
Continuous
 62
     7
100
AcDbEllipse
 10
165.5164245628
 20
221.156390782
 30
0.0
 11
-1.787752939376804E-14
 21
23.99999999999999
 31
0.0
210
0.0
220
0.0
230
1.0
 40
0.8660254038
 41
2.213680674463566
 42
2.45261762482756
  0
SPLINE
  5
26F
330
1EE
100
AcDbEntity
  8
DN50
  6
Continuous
 62
     7
100
AcDbSpline
210
0.0
220
0.0
230
1.0
 70
     8
 71
     3
 72
    14
 73
    10
 74
     0
 42
0.000000001
 43
0.0000000001
 40
0.0
 40
0.0
 40
0.0
 40
0.0
 40
0.25
 40
0.25
 40
0.5
 40
0.5
 40
0.75
 40
0.75
 40
1.0
 40
1.0
 40
1.0
 40
1.0
 10
164.8103180577494
 20
189.4191886369134
 30
0.0
 10
164.274423155075
 20
190.6950956739684
 30
0.0
 10
163.6730152680238
 20
191.908544033863
 30
0.0
 10
162.3468775280243
 20
194.2178682307697
 30
0.0
 10
161.6172827772367
 20
195.3158230780065
 30
0.0
 10
160.1126093231874
 20
197.2290512428105
 30
0.0
 10
159.3082506902748
 20
198.0826823297799
 30
0.0
 10
157.7115400695314
 20
199.3175869541441
 30
0.0
 10
156.9129941620022
 20
199.6933141634469
 30
0.0
 10
156.2157656319501
 20
199.6933141634469
 30
0.0
  0
ELLIPSE
  5
270
330
1EE
100
AcDbEntity
  8
DN50
  6
Continuous
 62
     7
100
AcDbEllipse
 10
165.5164245628
 20
221.156390782
 30
0.0
 11
-3.999741585953586E-15
 21
23.99999999999996
 31
0.0
210
0.0
220
0.0
230
1.0
 40
0.8660254038
 41
2.677649228984809
 42
2.81004934379692
  0
ELLIPSE
  5
271
330
1EE
100
AcDbEntity
  8
DN50
  6
Continuous
 62
     7
100
AcDbEllipse
 10
170.8724958842
 20
221.156390782
 30
0.0
 11
7.186861741996716E-13
 21
32.4999999999845
 31
0.0
210
0.0
220
0.0
230
1.0
 40
0.8660254038
 41
2.924506981298395
 42
3.141592653589793
  0
ELLIPSE
  5
272
330
1EE
100
AcDbEntity
  8
DN50
  6
Continuous
 62
     7
100
AcDbEllipse
 10
165.5164245628
 20
221.156390782
 30
0.0
 11
-3.069472793358255E-14
 21
-23.99999999999993
 31
0.0
210
0.0
220
0.0
230
1.0
 40
0.8660254038
 41
3.472136117847022
 42
3.605536078194776
  0
SPLINE
  5
273
330
1EE
100
AcDbEntity
  8
DN50
  6
Continuous
 62
     7
100
AcDbSpline
210
0.0
220
0.0
230
1.0
 70
     8
 71
     3
 72
    14
 73
    10
 74
     0
 42
0.000000001
 43
0.0000000001
 40
0.0
 40
0.0
 40
0.0
 40
0.0
 40
0.25
 40
0.25
 40
0.5
 40
0.5
 40
0.75
 40
0.75
 40
1.0
 40
1.0
 40
1.0
 40
1.0
 10
156.2157656319501
 20
242.6194674006133
 30
0.0
 10
156.910873319103
 20
242.6194674006133
 30
0.0
 10
157.7002991561556
 20
242.989005918788
 30
0.0
 10
159.2938438429691
 20
244.2164917896105
 30
0.0
 10
160.0978013400745
 20
245.0667049434041
 30
0.0
 10
161.6082877489856
 20
246.9837459641488
 30
0.0
 10
162.3368210395019
 20
248.0790089653893
 30
0.0
 10
163.6644600312155
 20
250.3877540009253
 30
0.0
 10
164.2755185737381
 20
251.6202939618867
 30
0.0
 10
164.8103180577494
 20
252.8935929271468
 30
0.0
  0
ELLIPSE
  5
274
330
1EE
100
AcDbEntity
  8
DN50
  6
Continuous
 62
     7
100
AcDbEllipse
 10
170.8724958842
 20
221.156390782
 30
0.0
 11
2.180645028278029E-13
 21
-32.49999999999579
 31
0.0
210
0.0
220
0.0
230
1.0
 40
0.8660254038
 41
3.141592653589785
 42
3.358678325881155
  0
LINE
  5
275
330
1EE
100
AcDbEntity
  8
DN50
  6
Continuous
 62
     7
100
AcDbLine
 10
64.3951935145
 20
186.456390782
 30
0.0
 11
64.6499726785
 21
187.156390782
 31
0.0
  0
LINE
  5
276
330
1EE
100
AcDbEntity
  8
DN50
  6
Continuous
 62
     7
100
AcDbLine
 10
64.6499726785
 20
255.156390782
 30
0.0
 11
64.3951935145
 21
255.856390782
 31
0.0
  0
LINE
  5
277
330
1EE
100
AcDbEntity
  8
DN50
  6
Continuous
 62
     7
100
AcDbLine
 10
64.6499726785
 20
187.156390782
 30
0.0
 11
80.0499726785
 21
187.156390782
 31
0.0
  0
LINE
  5
278
330
1EE
100
AcDbEntity
  8
DN50
  6
Continuous
 62
     7
100
AcDbLine
 10
80.0499726785
 20
255.156390782
 30
0.0
 11
64.6499726785
 21
255.156390782
 31
0.0
  0
LINE
  5
279
330
1EE
100
AcDbEntity
  8
DN50
  6
Continuous
 62
     7
100
AcDbLine
 10
80.0499726785
 20
187.156390782
 30
0.0
 11
85.2461251012
 21
190.156390782
 31
0.0
  0
LINE
  5
27A
330
1EE
100
AcDbEntity
  8
DN50
  6
Continuous
 62
     7
100
AcDbLine
 10
85.2461251012
 20
252.156390782
 30
0.0
 11
80.0499726785
 21
255.156390782
 31
0.0
  0
LINE
  5
27B
330
1EE
100
AcDbEntity
  8
DN50
  6
Continuous
 62
     7
100
AcDbLine
 10
176.1499726785
 20
187.156390782
 30
0.0
 11
191.5499726785
 21
187.156390782
 31
0.0
  0
LINE
  5
27C
330
1EE
100
AcDbEntity
  8
DN50
  6
Continuous
 62
     7
100
AcDbLine
 10
191.5499726785
 20
255.156390782
 30
0.0
 11
176.1499726785
 21
255.156390782
 31
0.0
  0
LINE
  5
27D
330
1EE
100
AcDbEntity
  8
DN50
  6
Continuous
 62
     7
100
AcDbLine
 10
191.8047518425
 20
255.856390782
 30
0.0
 11
191.5499726785
 21
255.156390782
 31
0.0
  0
LINE
  5
27E
330
1EE
100
AcDbEntity
  8
DN50
  6
Continuous
 62
     7
100
AcDbLine
 10
191.5499726785
 20
187.156390782
 30
0.0
 11
191.8047518425
 21
186.456390782
 31
0.0
  0
LINE
  5
27F
330
1EE
100
AcDbEntity
  8
DN50
  6
Continuous
 62
     7
100
AcDbLine
 10
157.9587278727
 20
190.156390782
 30
0.0
 11
164.482149082
 21
190.156390782
 31
0.0
  0
LINE
  5
280
330
1EE
100
AcDbEntity
  8
DN50
  6
Continuous
 62
     7
100
AcDbLine
 10
85.2461251012
 20
190.156390782
 30
0.0
 11
117.3499726785
 21
190.156390782
 31
0.0
  0
LINE
  5
281
330
1EE
100
AcDbEntity
  8
DN50
  6
Continuous
 62
     7
100
AcDbLine
 10
117.3499726785
 20
252.156390782
 30
0.0
 11
85.2461251012
 21
252.156390782
 31
0.0
  0
LINE
  5
282
330
1EE
100
AcDbEntity
  8
DN50
  6
Continuous
 62
     7
100
AcDbLine
 10
164.4823017692
 20
252.156390782
 30
0.0
 11
157.9587278727
 21
252.156390782
 31
0.0
  0
LINE
  5
283
330
1EE
100
AcDbEntity
  8
DN50
  6
Continuous
 62
     7
100
AcDbLine
 10
176.1499726785
 20
255.156390782
 30
0.0
 11
173.5518964672
 21
253.656390782
 31
0.0
  0
LINE
  5
284
330
1EE
100
AcDbEntity
  8
DN50
  6
Continuous
 62
     7
100
AcDbLine
 10
173.5518964672
 20
188.656390782
 30
0.0
 11
176.1499726785
 21
187.156390782
 31
0.0
  0
LINE
  5
285
330
1EE
100
AcDbEntity
  8
DN50
  6
Continuous
 62
     7
100
AcDbLine
 10
145.3104844552
 20
255.156390782
 30
0.0
 11
142.8104844552
 21
255.156390782
 31
0.0
  0
LINE
  5
286
330
1EE
100
AcDbEntity
  8
DN50
  6
Continuous
 62
     7
100
AcDbLine
 10
142.8104844552
 20
187.156390782
 30
0.0
 11
145.3104844552
 21
187.156390782
 31
0.0
  0
LINE
  5
287
330
1EE
100
AcDbEntity
  8
DN50
  6
Continuous
 62
     7
100
AcDbLine
 10
129.9366209127
 20
252.156390782
 30
0.0
 11
117.3499726785
 21
252.156390782
 31
0.0
  0
LINE
  5
288
330
1EE
100
AcDbEntity
  8
DN50
  6
Continuous
 62
     7
100
AcDbLine
 10
105.9252902258
 20
230.156390782
 30
0.0
 11
100.3252902258
 21
230.156390782
 31
0.0
  0
LINE
  5
289
330
1EE
100
AcDbEntity
  8
DN50
  6
Continuous
 62
     7
100
AcDbLine
 10
100.3252902258
 20
212.156390782
 30
0.0
 11
105.9252902258
 21
212.156390782
 31
0.0
  0
LINE
  5
28A
330
1EE
100
AcDbEntity
  8
DN50
  6
Continuous
 62
     7
100
AcDbLine
 10
84.2748836015
 20
230.156390782
 30
0.0
 11
78.6746551312
 21
230.156390782
 31
0.0
  0
LINE
  5
28B
330
1EE
100
AcDbEntity
  8
DN50
  6
Continuous
 62
     7
100
AcDbLine
 10
78.6746551312
 20
212.156390782
 30
0.0
 11
84.2748836015
 21
212.156390782
 31
0.0
  0
LINE
  5
28C
330
1EE
100
AcDbEntity
  8
DN50
  6
Continuous
 62
     7
100
AcDbLine
 10
117.3499726785
 20
190.156390782
 30
0.0
 11
129.9366209127
 21
190.156390782
 31
0.0
  0
LINE
  5
28D
330
1EE
100
AcDbEntity
  8
DN50
  6
Continuous
 62
     7
100
AcDbLine
 10
51.2867369596
 20
255.856390782
 30
0.0
 11
50.8499726785
 21
254.656390782
 31
0.0
  0
LINE
  5
28E
330
1EE
100
AcDbEntity
  8
DN50
  6
Continuous
 62
     7
100
AcDbLine
 10
50.8499726785
 20
187.656390782
 30
0.0
 11
51.2867369596
 21
186.456390782
 31
0.0
  0
LINE
  5
28F
330
1EE
100
AcDbEntity
  8
DN50
  6
Continuous
 62
     7
100
AcDbLine
 10
204.9132083974
 20
186.456390782
 30
0.0
 11
205.3499726785
 21
187.656390782
 31
0.0
  0
LINE
  5
290
330
1EE
100
AcDbEntity
  8
DN50
  6
Continuous
 62
     7
100
AcDbLine
 10
205.3499726785
 20
254.656390782
 30
0.0
 11
204.9132083974
 21
255.856390782
 31
0.0
  0
LINE
  5
291
330
1EE
100
AcDbEntity
  8
DN50
  6
Continuous
 62
     7
100
AcDbLine
 10
94.1159013673
 20
215.188890782
 30
0.0
 11
100.3252902258
 21
215.188890782
 31
0.0
  0
LINE
  5
292
330
1EE
100
AcDbEntity
  8
DN50
  6
Continuous
 62
     7
100
AcDbLine
 10
100.3252902258
 20
227.123890782
 30
0.0
 11
94.1159013673
 21
227.123890782
 31
0.0
  0
LINE
  5
293
330
1EE
100
AcDbEntity
  8
DN50
  6
Continuous
 62
     7
100
AcDbLine
 10
90.5502902258
 20
228.406390782
 30
0.0
 11
86.0502902258
 21
228.406390782
 31
0.0
  0
LINE
  5
294
330
1EE
100
AcDbEntity
  8
DN50
  6
Continuous
 62
     7
100
AcDbLine
 10
86.0502902258
 20
213.906390782
 30
0.0
 11
90.5502902258
 21
213.906390782
 31
0.0
  0
LINE
  5
295
330
1EE
100
AcDbEntity
  8
DN50
  6
Continuous
 62
     7
100
AcDbLine
 10
72.4652662727
 20
215.188890782
 30
0.0
 11
78.6746551312
 21
215.188890782
 31
0.0
  0
LINE
  5
296
330
1EE
100
AcDbEntity
  8
DN50
  6
Continuous
 62
     7
100
AcDbLine
 10
78.6746551312
 20
227.123890782
 30
0.0
 11
72.4652662727
 21
227.123890782
 31
0.0
  0
LINE
  5
297
330
1EE
100
AcDbEntity
  8
DN50
  6
Continuous
 62
     7
100
AcDbLine
 10
68.8996551312
 20
228.406390782
 30
0.0
 11
64.3996551312
 21
228.406390782
 31
0.0
  0
LINE
  5
298
330
1EE
100
AcDbEntity
  8
DN50
  6
Continuous
 62
     7
100
AcDbLine
 10
64.3996551312
 20
213.906390782
 30
0.0
 11
68.8996551312
 21
213.906390782
 31
0.0
  0
LINE
  5
299
330
1EE
100
AcDbEntity
  8
DN50
  6
Continuous
 62
     7
100
AcDbLine
 10
145.3115753136
 20
187.406390782
 30
0.0
 11
146.4024795628
 21
187.406390782
 31
0.0
  0
LINE
  5
29A
330
1EE
100
AcDbEntity
  8
DN50
  6
Continuous
 62
     7
100
AcDbLine
 10
146.4024795628
 20
254.906390782
 30
0.0
 11
145.3115753136
 21
254.906390782
 31
0.0
  0
LINE
  5
29B
330
1EE
100
AcDbEntity
  8
DN50
  6
Continuous
 62
     7
100
AcDbLine
 10
170.8724958842
 20
188.656390782
 30
0.0
 11
177.8021253613
 21
188.656390782
 31
0.0
  0
LINE
  5
29C
330
1EE
100
AcDbEntity
  8
DN50
  6
Continuous
 62
     7
100
AcDbLine
 10
177.8021253613
 20
253.656390782
 30
0.0
 11
170.8724958842
 21
253.656390782
 31
0.0
  0
ENDBLK
  5
29E
330
1EE
100
AcDbEntity
  8
0
100
AcDbBlockEnd
  0
BLOCK
  5
324
330
29F
100
AcDbEntity
  8
0
100
AcDbBlockBegin
  2
SE3
 70
     0
 10
0.0
 20
0.0
 30
0.0
  3
SE3
  1

  0
ELLIPSE
  5
2A1
330
29F
100
AcDbEntity
  8
DN50
  6
Continuous
 62
     7
100
AcDbEllipse
 10
310.5783558356
 20
221.156390782
 30
0.0
 11
-2.081899558550499E-15
 21
-33.99999999999997
 31
0.0
210
0.0
220
0.0
230
1.0
 40
0.5
 41
1.785681551475049
 42
3.141592653589793
  0
ELLIPSE
  5
2A2
330
29F
100
AcDbEntity
  8
DN50
  6
Continuous
 62
     7
100
AcDbEllipse
 10
310.5783558356
 20
221.156390782
 30
0.0
 11
-2.081899558550499E-15
 21
-33.99999999999997
 31
0.0
210
0.0
220
0.0
230
1.0
 40
0.5
 41
0.0000000000000002
 42
1.355911102114746
  0
ELLIPSE
  5
2A3
330
29F
100
AcDbEntity
  8
DN50
  6
Continuous
 62
     7
100
AcDbEllipse
 10
294.3559239713
 20
221.156390782
 30
0.0
 11
-1.898202538678399E-15
 21
-31.00000000000002
 31
0.0
210
0.0
220
0.0
230
1.0
 40
0.5
 41
2.076304715385262
 42
3.141592653589793
  0
ELLIPSE
  5
2A4
330
29F
100
AcDbEntity
  8
DN50
  6
Continuous
 62
     7
100
AcDbEllipse
 10
295.8559239713
 20
221.156390782
 30
0.0
 11
-8.898328782542994E-15
 21
-31.99999999999999
 31
0.0
210
0.0
220
0.0
230
1.0
 40
0.5
 41
1.920178017317968
 42
3.392248315925923
  0
ELLIPSE
  5
2A5
330
29F
100
AcDbEntity
  8
DN50
  6
Continuous
 62
     7
100
AcDbEllipse
 10
304.5161780091
 20
221.156390782
 30
0.0
 11
4.661282244871484E-14
 21
-31.99999999999993
 31
0.0
210
0.0
220
0.0
230
1.0
 40
0.5
 41
1.855892767047795
 42
3.141592653589793
  0
ELLIPSE
  5
2A6
330
29F
100
AcDbEntity
  8
DN50
  6
Continuous
 62
     7
100
AcDbEllipse
 10
306.2482288167
 20
221.156390782
 30
0.0
 11
6.036814557661456E-14
 21
-33.99999999999991
 31
0.0
210
0.0
220
0.0
230
1.0
 40
0.5
 41
1.833991984108316
 42
3.486293833388438
  0
ELLIPSE
  5
2A7
330
29F
100
AcDbEntity
  8
DN50
  6
Continuous
 62
     7
100
AcDbEllipse
 10
295.8559239713
 20
221.156390782
 30
0.0
 11
1.959434878635766E-15
 21
32.00000000000001
 31
0.0
210
0.0
220
0.0
230
1.0
 40
0.5
 41
2.890936991253661
 42
4.363007289861619
  0
LINE
  5
2A8
330
29F
100
AcDbEntity
  8
DN50
  6
Continuous
 62
     7
100
AcDbLine
 10
312.7763257321
 20
232.1105321867
 30
0.0
 11
310.889276775
 21
232.1105321867
 31
0.0
  0
LINE
  5
2A9
330
29F
100
AcDbEntity
  8
DN50
  6
Continuous
 62
     7
100
AcDbLine
 10
310.889276775
 20
210.2022493774
 30
0.0
 11
312.7763257321
 21
210.2022493774
 31
0.0
  0
ELLIPSE
  5
2AA
330
29F
100
AcDbEntity
  8
DN50
  6
Continuous
 62
     7
100
AcDbEllipse
 10
294.3559239713
 20
221.156390782
 30
0.0
 11
-5.040691365228830E-15
 21
31.00000000000001
 31
0.0
210
0.0
220
0.0
230
1.0
 40
0.5
 41
3.141592653589793
 42
4.206880591794325
  0
ELLIPSE
  5
2AB
330
29F
100
AcDbEntity
  8
DN50
  6
Continuous
 62
     7
100
AcDbEllipse
 10
291.6807951019
 20
221.156390782
 30
0.0
 11
3.276729167057487E-12
 21
-31.00000000000841
 31
0.0
210
0.0
220
0.0
230
1.0
 40
0.5
 41
1.065287938204428
 42
1.276232406344446
  0
ELLIPSE
  5
2AC
330
29F
100
AcDbEntity
  8
DN50
  6
Continuous
 62
     7
100
AcDbEllipse
 10
297.0307951019
 20
221.156390782
 30
0.0
 11
-2.095292366812683E-13
 21
-22.24999999999951
 31
0.0
210
0.0
220
0.0
230
1.0
 40
0.5
 41
0.8302535893876071
 42
1.154370429420727
  0
LINE
  5
2AD
330
29F
100
AcDbEntity
  8
DN50
  6
Continuous
 62
     7
100
AcDbLine
 10
305.2421852888
 20
206.1445692805
 30
0.0
 11
307.9173141582
 21
206.1445692805
 31
0.0
  0
ARC
  5
2AE
330
29F
100
AcDbEntity
  8
DN50
  6
Continuous
 62
     7
100
AcDbCircle
 10
292.1460883941
 20
220.813088423
 30
0.0
 40
21.53826863825575
100
AcDbArc
 50
317.0746829469
 51
330.4850586668
  0
ELLIPSE
  5
2AF
330
29F
100
AcDbEntity
  8
DN50
  6
Continuous
 62
     7
100
AcDbEllipse
 10
303.0929729283
 20
221.1563907821
 30
0.0
 11
4.052871687315807E-11
 21
-22.25000000009493
 31
0.0
210
0.0
220
0.0
230
1.0
 40
0.5
 41
1.056042074175405
 42
1.154370429418199
  0
ARC
  5
2B0
330
29F
100
AcDbEntity
  8
DN50
  6
Continuous
 62
     7
100
AcDbCircle
 10
292.1878956123
 20
221.5303139605
 30
0.0
 40
21.48680234724702
100
AcDbArc
 50
29.498806733
 51
42.9414516533
  0
LINE
  5
2B1
330
29F
100
AcDbEntity
  8
DN50
  6
Continuous
 62
     7
100
AcDbLine
 10
307.9173141582
 20
236.1682122835
 30
0.0
 11
305.2421852888
 21
236.1682122835
 31
0.0
  0
ELLIPSE
  5
2B2
330
29F
100
AcDbEntity
  8
DN50
  6
Continuous
 62
     7
100
AcDbEllipse
 10
303.0929729283
 20
221.156390782
 30
0.0
 11
1.702246916584849E-11
 21
22.25000000003887
 31
0.0
210
0.0
220
0.0
230
1.0
 40
0.5
 41
-1.154370429419498
 42
-1.056042074176485
  0
ELLIPSE
  5
2B3
330
29F
100
AcDbEntity
  8
DN50
  6
Continuous
 62
     7
100
AcDbEllipse
 10
297.0307951019
 20
221.156390782
 30
0.0
 11
2.499364224970654E-12
 21
22.25000000000524
 31
0.0
210
0.0
220
0.0
230
1.0
 40
0.5
 41
5.128814877759031
 42
5.452931717792086
  0
ELLIPSE
  5
2B4
330
29F
100
AcDbEntity
  8
DN50
  6
Continuous
 62
     7
100
AcDbEllipse
 10
291.6807951019
 20
221.156390782
 30
0.0
 11
4.265848506489671E-12
 21
31.00000000001182
 31
0.0
210
0.0
220
0.0
230
1.0
 40
0.5
 41
-1.276232406344405
 42
-1.065287938204413
  0
ELLIPSE
  5
2B5
330
29F
100
AcDbEntity
  8
DN50
  6
Continuous
 62
     7
100
AcDbEllipse
 10
312.1336117239
 20
221.156390782
 30
0.0
 11
-4.108227236382677E-14
 21
9.000000000004713
 31
0.0
210
0.0
220
0.0
230
1.0
 40
0.5
 41
2.825170446910024
 42
3.141592653589797
  0
ELLIPSE
  5
2B6
330
29F
100
AcDbEntity
  8
DN50
  6
Continuous
 62
     7
100
AcDbEllipse
 10
299.6332160018
 20
221.156390782
 30
0.0
 11
3.414337845991983E-14
 21
-8.999999999999947
 31
0.0
210
0.0
220
0.0
230
1.0
 40
0.5
 41
3.141592653589793
 42
3.81007228546079
  0
ELLIPSE
  5
2B7
330
29F
100
AcDbEntity
  8
DN50
  6
Continuous
 62
     7
100
AcDbEllipse
 10
306.2482288167
 20
221.156390782
 30
0.0
 11
3.677636907808664E-14
 21
33.99999999999995
 31
0.0
210
0.0
220
0.0
230
1.0
 40
0.5
 41
2.796891473791147
 42
4.449193323071269
  0
ELLIPSE
  5
2B8
330
29F
100
AcDbEntity
  8
DN50
  6
Continuous
 62
     7
100
AcDbEllipse
 10
304.5161780091
 20
221.156390782
 30
0.0
 11
1.959434878635766E-15
 21
32.0
 31
0.0
210
0.0
220
0.0
230
1.0
 40
0.5
 41
3.141592653589793
 42
4.427292540131787
  0
ELLIPSE
  5
2B9
330
29F
100
AcDbEntity
  8
DN50
  6
Continuous
 62
     7
100
AcDbEllipse
 10
299.6332160018
 20
221.156390782
 30
0.0
 11
2.136777277133799E-14
 21
8.999999999999966
 31
0.0
210
0.0
220
0.0
230
1.0
 40
0.5
 41
2.472141810306046
 42
3.141592653589793
  0
ELLIPSE
  5
2BA
330
29F
100
AcDbEntity
  8
DN50
  6
Continuous
 62
     7
100
AcDbEllipse
 10
312.1336117239
 20
221.156390782
 30
0.0
 11
6.387802844290625E-15
 21
-9.000000000004809
 31
0.0
210
0.0
220
0.0
230
1.0
 40
0.5
 41
3.141592653589793
 42
3.458014860269552
  0
CIRCLE
  5
2BB
330
29F
100
AcDbEntity
  8
DN50
  6
Continuous
 62
     7
100
AcDbCircle
 10
262.1493288328
 20
221.156390782
 30
0.0
 40
33.5
  0
LINE
  5
2BC
330
29F
100
AcDbEntity
  8
DN50
  6
Continuous
 62
     7
100
AcDbLine
 10
227.4493288328
 20
206.7831801677
 30
0.0
 11
227.4493288328
 21
235.5296013964
 31
0.0
  0
LINE
  5
2BD
330
29F
100
AcDbEntity
  8
DN50
  6
Continuous
 62
     7
100
AcDbLine
 10
227.4493288328
 20
235.5296013964
 30
0.0
 11
247.7761182185
 21
255.856390782
 31
0.0
  0
LINE
  5
2BE
330
29F
100
AcDbEntity
  8
DN50
  6
Continuous
 62
     7
100
AcDbLine
 10
247.7761182185
 20
255.856390782
 30
0.0
 11
276.5225394472
 21
255.856390782
 31
0.0
  0
LINE
  5
2BF
330
29F
100
AcDbEntity
  8
DN50
  6
Continuous
 62
     7
100
AcDbLine
 10
276.5225394472
 20
255.856390782
 30
0.0
 11
296.8493288328
 21
235.5296013964
 31
0.0
  0
LINE
  5
2C0
330
29F
100
AcDbEntity
  8
DN50
  6
Continuous
 62
     7
100
AcDbLine
 10
296.8493288328
 20
235.5296013964
 30
0.0
 11
296.8493288328
 21
206.7831801677
 31
0.0
  0
LINE
  5
2C1
330
29F
100
AcDbEntity
  8
DN50
  6
Continuous
 62
     7
100
AcDbLine
 10
296.8493288328
 20
206.7831801677
 30
0.0
 11
276.5225394472
 21
186.456390782
 31
0.0
  0
LINE
  5
2C2
330
29F
100
AcDbEntity
  8
DN50
  6
Continuous
 62
     7
100
AcDbLine
 10
276.5225394472
 20
186.456390782
 30
0.0
 11
247.7761182185
 21
186.456390782
 31
0.0
  0
LINE
  5
2C3
330
29F
100
AcDbEntity
  8
DN50
  6
Continuous
 62
     7
100
AcDbLine
 10
247.7761182185
 20
186.456390782
 30
0.0
 11
227.4493288328
 21
206.7831801677
 31
0.0
  0
ELLIPSE
  5
2C4
330
29F
100
AcDbEntity
  8
DN50
  6
Continuous
 62
     7
100
AcDbEllipse
 10
309.3330962463
 20
221.156390782
 30
0.0
 11
-5.510910596163090E-16
 21
-8.999999999999998
 31
0.0
210
0.0
220
0.0
230
1.0
 40
0.5
 41
0.0000000000000001
 42
0.8459030514348879
  0
ELLIPSE
  5
2C5
330
29F
100
AcDbEntity
  8
DN50
  6
Continuous
 62
     7
100
AcDbEllipse
 10
309.3330962463
 20
221.156390782
 30
0.0
 11
-5.510910596163090E-16
 21
-8.999999999999998
 31
0.0
210
0.0
220
0.0
230
1.0
 40
0.5
 41
2.295689602154909
 42
6.283185307179586
  0
ELLIPSE
  5
2C6
330
29F
100
AcDbEntity
  8
DN50
  6
Continuous
 62
     7
100
AcDbEllipse
 10
321.8330962463
 20
221.156390782
 30
0.0
 11
-5.510910596166018E-16
 21
-9.00000000000478
 31
0.0
210
0.0
220
0.0
230
1.0
 40
0.5
 41
0.0
 42
0.7350073028163429
  0
ELLIPSE
  5
2C7
330
29F
100
AcDbEntity
  8
DN50
  6
Continuous
 62
     7
100
AcDbEllipse
 10
321.8330962463
 20
221.156390782
 30
0.0
 11
-5.510910596166018E-16
 21
-9.00000000000478
 31
0.0
210
0.0
220
0.0
230
1.0
 40
0.5
 41
2.40658535077345
 42
3.987495705025147
  0
ELLIPSE
  5
2C8
330
29F
100
AcDbEntity
  8
DN50
  6
Continuous
 62
     7
100
AcDbEllipse
 10
321.8330962463
 20
221.156390782
 30
0.0
 11
-5.510910596166018E-16
 21
-9.00000000000478
 31
0.0
210
0.0
220
0.0
230
1.0
 40
0.5
 41
5.437282255744227
 42
6.283185307179586
  0
ELLIPSE
  5
2C9
330
29F
100
AcDbEntity
  8
DN50
  6
Continuous
 62
     7
100
AcDbEllipse
 10
309.3330962463
 20
221.156390782
 30
0.0
 11
3.654039886955914E-16
 21
5.967499999999996
 31
0.0
210
0.0
220
0.0
230
1.0
 40
0.5
 41
0.0000000000000001
 42
3.141592653589793
  0
ELLIPSE
  5
2CA
330
29F
100
AcDbEntity
  8
DN50
  6
Continuous
 62
     7
100
AcDbEllipse
 10
338.7638928903
 20
221.156390782
 30
0.0
 11
-4.439344646909158E-16
 21
-7.250000000000002
 31
0.0
210
0.0
220
0.0
230
1.0
 40
0.5
 41
5.576821506979075
 42
6.283185307179586
  0
ELLIPSE
  5
2CB
330
29F
100
AcDbEntity
  8
DN50
  6
Continuous
 62
     7
100
AcDbEllipse
 10
338.7638928903
 20
221.156390782
 30
0.0
 11
-4.439344646909158E-16
 21
-7.250000000000002
 31
0.0
210
0.0
220
0.0
230
1.0
 40
0.5
 41
3.141592653589793
 42
3.847956453790311
  0
ELLIPSE
  5
2CC
330
29F
100
AcDbEntity
  8
DN50
  6
Continuous
 62
     7
100
AcDbEllipse
 10
336.165816679
 20
221.156390782
 30
0.0
 11
-3.654039886955915E-16
 21
-5.967499999999999
 31
0.0
210
0.0
220
0.0
230
1.0
 40
0.5
 41
0.0
 42
0.1627489771229974
  0
ELLIPSE
  5
2CD
330
29F
100
AcDbEntity
  8
DN50
  6
Continuous
 62
     7
100
AcDbEllipse
 10
336.165816679
 20
221.156390782
 30
0.0
 11
-3.654039886955915E-16
 21
-5.967499999999999
 31
0.0
210
0.0
220
0.0
230
1.0
 40
0.5
 41
2.978843676466825
 42
3.157853767704806
  0
ELLIPSE
  5
2CE
330
29F
100
AcDbEntity
  8
DN50
  6
Continuous
 62
     7
100
AcDbEllipse
 10
336.165816679
 20
221.156390782
 30
0.0
 11
-3.654039886955915E-16
 21
-5.967499999999999
 31
0.0
210
0.0
220
0.0
230
1.0
 40
0.5
 41
6.26692419306486
 42
6.283185307179586
  0
ELLIPSE
  5
2CF
330
29F
100
AcDbEntity
  8
DN50
  6
Continuous
 62
     7
100
AcDbEllipse
 10
346.5581215244
 20
221.156390782
 30
0.0
 11
-4.439344646909158E-16
 21
-7.250000000000002
 31
0.0
210
0.0
220
0.0
230
1.0
 40
0.5
 41
0.0
 42
6.283185307179586
  0
ELLIPSE
  5
2D0
330
29F
100
AcDbEntity
  8
DN50
  6
Continuous
 62
     7
100
AcDbEllipse
 10
326.2638928903
 20
221.156390782
 30
0.0
 11
-1.432172227250537E-14
 21
-7.250000000000001
 31
0.0
210
0.0
220
0.0
230
1.0
 40
0.5
 41
3.141592653589793
 42
6.283185307179586
  0
ELLIPSE
  5
2D1
330
29F
100
AcDbEntity
  8
DN50
  6
Continuous
 62
     7
100
AcDbEllipse
 10
323.6658166789
 20
221.156390782
 30
0.0
 11
2.510525938252073E-16
 21
4.099999999999997
 31
0.0
210
0.0
220
0.0
230
1.0
 40
0.5
 41
0.2068897760056387
 42
2.934702877584154
  0
ELLIPSE
  5
2D2
330
29F
100
AcDbEntity
  8
DN50
  6
Continuous
 62
     7
100
AcDbEllipse
 10
323.6658166789
 20
221.156390782
 30
0.0
 11
-3.654039886955915E-16
 21
-5.967499999999998
 31
0.0
210
0.0
220
0.0
230
1.0
 40
0.5
 41
0.0
 42
0.1627489771228782
  0
ELLIPSE
  5
2D3
330
29F
100
AcDbEntity
  8
DN50
  6
Continuous
 62
     7
100
AcDbEllipse
 10
323.6658166789
 20
221.156390782
 30
0.0
 11
-3.654039886955915E-16
 21
-5.967499999999998
 31
0.0
210
0.0
220
0.0
230
1.0
 40
0.5
 41
2.978843676466915
 42
6.283185307179586
  0
ELLIPSE
  5
2D4
330
29F
100
AcDbEntity
  8
DN50
  6
Continuous
 62
     7
100
AcDbEllipse
 10
334.0581215243
 20
221.156390782
 30
0.0
 11
-4.439344646909158E-16
 21
-7.250000000000004
 31
0.0
210
0.0
220
0.0
230
1.0
 40
0.5
 41
0.0
 42
6.283185307179586
  0
ELLIPSE
  5
2D5
330
29F
100
AcDbEntity
  8
DN50
  6
Continuous
 62
     7
100
AcDbEllipse
 10
312.4697468437
 20
221.156390782
 30
0.0
 11
1.181119633425330E-14
 21
-33.75000000000001
 31
0.0
210
0.0
220
0.0
230
1.0
 40
0.5
 41
0.0102926662793443
 42
1.354294112616908
  0
ELLIPSE
  5
2D6
330
29F
100
AcDbEntity
  8
DN50
  6
Continuous
 62
     7
100
AcDbEllipse
 10
312.4697468437
 20
221.156390782
 30
0.0
 11
1.181119633425330E-14
 21
-33.75000000000001
 31
0.0
210
0.0
220
0.0
230
1.0
 40
0.5
 41
1.787298540972884
 42
3.131299987310448
  0
LINE
  5
2D7
330
29F
100
AcDbEntity
  8
DN50
  6
Continuous
 62
     7
100
AcDbLine
 10
328.5379179178
 20
198.4828962804
 30
0.0
 11
324.9530448769
 21
198.4466664143
 31
0.0
  0
ARC
  5
2D8
330
29F
100
AcDbEntity
  8
DN50
  6
Continuous
 62
     7
100
AcDbCircle
 10
245.6692206059
 20
234.686504819
 30
0.0
 40
90.43186532067621
100
AcDbArc
 50
336.4004848516
 51
346.7170716753
  0
ARC
  5
2D9
330
29F
100
AcDbEntity
  8
DN50
  6
Continuous
 62
     7
100
AcDbCircle
 10
245.6692206032
 20
207.6262767443
 30
0.0
 40
90.43186532354
100
AcDbArc
 50
13.2830177804
 51
23.5995151482
  0
LINE
  5
2DA
330
29F
100
AcDbEntity
  8
DN50
  6
Continuous
 62
     7
100
AcDbLine
 10
328.5379179178
 20
243.8298852837
 30
0.0
 11
324.9530448769
 21
243.8661151498
 31
0.0
  0
ELLIPSE
  5
2DB
330
29F
100
AcDbEntity
  8
DN50
  6
Continuous
 62
     7
100
AcDbEllipse
 10
336.7617594199
 20
221.156390782
 30
0.0
 11
-8.572527594031478E-16
 21
-14.00000000000001
 31
0.0
210
0.0
220
0.0
230
1.0
 40
0.5
 41
0.0
 42
1.026452177914693
  0
ELLIPSE
  5
2DC
330
29F
100
AcDbEntity
  8
DN50
  6
Continuous
 62
     7
100
AcDbEllipse
 10
336.7617594199
 20
221.156390782
 30
0.0
 11
-8.572527594031478E-16
 21
-14.00000000000001
 31
0.0
210
0.0
220
0.0
230
1.0
 40
0.5
 41
2.115140475675098
 42
3.141592653589793
  0
ELLIPSE
  5
2DD
330
29F
100
AcDbEntity
  8
DN50
  6
Continuous
 62
     7
100
AcDbEllipse
 10
338.1040987958
 20
221.156390782
 30
0.0
 11
1.311544517534523E-14
 21
-12.45
 31
0.0
210
0.0
220
0.0
230
1.0
 40
0.5
 41
0.6154797086703869
 42
0.9492053119908648
  0
ELLIPSE
  5
2DE
330
29F
100
AcDbEntity
  8
DN50
  6
Continuous
 62
     7
100
AcDbEllipse
 10
338.1040987958
 20
221.156390782
 30
0.0
 11
1.311544517534523E-14
 21
-12.45
 31
0.0
210
0.0
220
0.0
230
1.0
 40
0.5
 41
-4.090797965580662
 42
-3.757072362260176
  0
ELLIPSE
  5
2DF
330
29F
100
AcDbEntity
  8
DN50
  6
Continuous
 62
     7
100
AcDbEllipse
 10
366.0791961498
 20
221.156390782
 30
0.0
 11
1.366347461796367E-13
 21
-35.00000000000028
 31
0.0
210
0.0
220
0.0
230
1.0
 40
0.5
 41
1.281044625358848
 42
1.860548028230937
  0
LINE
  5
2E0
330
29F
100
AcDbEntity
  8
DN50
  6
Continuous
 62
     7
100
AcDbLine
 10
382.8497059811
 20
231.156390782
 30
0.0
 11
371.8728599897
 21
231.156390782
 31
0.0
  0
LINE
  5
2E1
330
29F
100
AcDbEntity
  8
DN50
  6
Continuous
 62
     7
100
AcDbLine
 10
353.205026833
 20
202.6308377725
 30
0.0
 11
351.127851689
 21
200.6936324186
 31
0.0
  0
ELLIPSE
  5
2E2
330
29F
100
AcDbEntity
  8
DN50
  6
Continuous
 62
     7
100
AcDbEllipse
 10
289.8647205113
 20
200.0954968691
 30
0.0
 11
94.72196991265287
 21
22.08478998285611
 31
0.0
210
0.0
220
0.0
230
1.0
 40
0.3659981508
 41
-0.5526553528234208
 42
-0.2947598437134493
  0
LINE
  5
2E3
330
29F
100
AcDbEntity
  8
DN50
  6
Continuous
 62
     7
100
AcDbLine
 10
382.8497059811
 20
211.156390782
 30
0.0
 11
371.8728599897
 21
211.156390782
 31
0.0
  0
ELLIPSE
  5
2E4
330
29F
100
AcDbEntity
  8
DN50
  6
Continuous
 62
     7
100
AcDbEllipse
 10
293.1449403031
 20
215.1940867474
 30
0.0
 11
57.95132304739036
 21
79.60997574926436
 31
0.0
210
0.0
220
0.0
230
1.0
 40
0.8137976814
 41
4.964908475273825
 42
5.089839967456138
  0
LINE
  5
2E5
330
29F
100
AcDbEntity
  8
DN50
  6
Continuous
 62
     7
100
AcDbLine
 10
374.7289315104
 20
200.6936324186
 30
0.0
 11
351.127851689
 21
200.6936324186
 31
0.0
  0
LINE
  5
2E6
330
29F
100
AcDbEntity
  8
DN50
  6
Continuous
 62
     7
100
AcDbLine
 10
351.127851689
 20
200.6936324186
 30
0.0
 11
350.9458086542
 21
199.6933141634
 31
0.0
  0
ELLIPSE
  5
2E7
330
29F
100
AcDbEntity
  8
DN50
  6
Continuous
 62
     7
100
AcDbEllipse
 10
366.8555287063
 20
221.156390782
 30
0.0
 11
-1.922989782607876E-13
 21
32.50000000000602
 31
0.0
210
0.0
220
0.0
230
1.0
 40
0.5
 41
3.141592653589785
 42
3.358678325881131
  0
LINE
  5
2E8
330
29F
100
AcDbEntity
  8
DN50
  6
Continuous
 62
     7
100
AcDbLine
 10
370.3555287063
 20
189.4191886369
 30
0.0
 11
358.3530583744
 21
189.4191886369
 31
0.0
  0
ELLIPSE
  5
2E9
330
29F
100
AcDbEntity
  8
DN50
  6
Continuous
 62
     7
100
AcDbEllipse
 10
366.8555287063
 20
221.156390782
 30
0.0
 11
1.922989782607872E-13
 21
-32.50000000001152
 31
0.0
210
0.0
220
0.0
230
1.0
 40
0.5
 41
2.924506981298469
 42
3.141592653589793
  0
LINE
  5
2EA
330
29F
100
AcDbEntity
  8
DN50
  6
Continuous
 62
     7
100
AcDbLine
 10
350.9458086542
 20
242.6194674006
 30
0.0
 11
351.127851689
 21
241.6191491455
 31
0.0
  0
ELLIPSE
  5
2EB
330
29F
100
AcDbEntity
  8
DN50
  6
Continuous
 62
     7
100
AcDbEllipse
 10
293.1449403029
 20
227.1186948166
 30
0.0
 11
57.95132304757576
 21
-79.60997574929362
 31
0.0
210
0.0
220
0.0
230
1.0
 40
0.8137976814
 41
1.193345339722097
 42
1.318276831904246
  0
LINE
  5
2EC
330
29F
100
AcDbEntity
  8
DN50
  6
Continuous
 62
     7
100
AcDbLine
 10
370.3555287063
 20
252.8935929271
 30
0.0
 11
358.3530583744
 21
252.8935929271
 31
0.0
  0
ELLIPSE
  5
2ED
330
29F
100
AcDbEntity
  8
DN50
  6
Continuous
 62
     7
100
AcDbEllipse
 10
289.8647205112
 20
242.217284695
 30
0.0
 11
94.72196991265606
 21
-22.08478998285668
 31
0.0
210
0.0
220
0.0
230
1.0
 40
0.3659981508
 41
0.2947598437134475
 42
0.5526553528234132
  0
LINE
  5
2EE
330
29F
100
AcDbEntity
  8
DN50
  6
Continuous
 62
     7
100
AcDbLine
 10
374.7289315104
 20
241.6191491455
 30
0.0
 11
351.127851689
 21
241.6191491455
 31
0.0
  0
LINE
  5
2EF
330
29F
100
AcDbEntity
  8
DN50
  6
Continuous
 62
     7
100
AcDbLine
 10
351.127851689
 20
241.6191491455
 30
0.0
 11
353.205026833
 21
239.6819437916
 31
0.0
  0
ELLIPSE
  5
2F0
330
29F
100
AcDbEntity
  8
DN50
  6
Continuous
 62
     7
100
AcDbEllipse
 10
345.5760707168
 20
221.156390782
 30
0.0
 11
8.113285044357606E-16
 21
13.25000000001043
 31
0.0
210
0.0
220
0.0
230
1.0
 40
0.5
 41
3.141592653589793
 42
6.283185307179586
  0
ELLIPSE
  5
2F1
330
29F
100
AcDbEntity
  8
DN50
  6
Continuous
 62
     7
100
AcDbEllipse
 10
345.5760707168
 20
221.156390782
 30
0.0
 11
-1.541252420449359E-13
 21
-24.00000000000024
 31
0.0
210
0.0
220
0.0
230
1.0
 40
0.5
 41
5.335215565796697
 42
5.819241882574608
  0
ELLIPSE
  5
2F2
330
29F
100
AcDbEntity
  8
DN50
  6
Continuous
 62
     7
100
AcDbEllipse
 10
345.5760707168
 20
221.156390782
 30
0.0
 11
8.473630300586355E-14
 21
23.99999999999983
 31
0.0
210
0.0
220
0.0
230
1.0
 40
0.5
 41
0.4639434246049863
 42
0.9479697413828978
  0
ARC
  5
2F3
330
29F
100
AcDbEntity
  8
DN50
  6
Continuous
 62
     7
100
AcDbCircle
 10
345.1812175883
 20
244.9006654658
 30
0.0
 40
43.02464233453335
100
AcDbArc
 50
280.7482098279
 51
308.3439145118
  0
ELLIPSE
  5
2F4
330
29F
100
AcDbEntity
  8
DN50
  6
Continuous
 62
     7
100
AcDbEllipse
 10
355.1023501584
 20
221.156390782
 30
0.0
 11
-1.131654343610234E-13
 21
-34.999999999998
 31
0.0
210
0.0
220
0.0
230
1.0
 40
0.5
 41
1.281044625358835
 42
1.860548028230963
  0
ARC
  5
2F5
330
29F
100
AcDbEntity
  8
DN50
  6
Continuous
 62
     7
100
AcDbCircle
 10
345.1780778237
 20
197.4052411657
 30
0.0
 40
43.0319822377902
100
AcDbArc
 50
51.6584855318
 51
79.2493901286
  0
ELLIPSE
  5
2F6
330
29F
100
AcDbEntity
  8
DN50
  6
Continuous
 62
     7
100
AcDbEllipse
 10
345.5760707168
 20
221.156390782
 30
0.0
 11
1.534736396679128E-14
 21
23.99999999999999
 31
0.0
210
0.0
220
0.0
230
1.0
 40
0.5
 41
3.830567682352024
 42
5.594210278417363
  0
SPLINE
  5
2F7
330
29F
100
AcDbEntity
  8
DN50
  6
Continuous
 62
     7
100
AcDbSpline
210
0.0
220
0.0
230
1.0
 70
     8
 71
     3
 72
    14
 73
    10
 74
     0
 42
0.000000001
 43
0.0000000001
 40
0.0
 40
0.0
 40
0.0
 40
0.0
 40
0.25
 40
0.25
 40
0.5
 40
0.5
 40
0.75
 40
0.75
 40
1.0
 40
1.0
 40
1.0
 40
1.0
 10
358.3530583744464
 20
189.4191886369134
 30
0.0
 10
358.3536455418547
 20
190.6950956739684
 30
0.0
 10
358.1952946930508
 20
191.908544033863
 30
0.0
 10
357.5794072874266
 20
194.2178682307697
 30
0.0
 10
357.114957876052
 20
195.3158230780065
 30
0.0
 10
355.9015032115353
 20
197.2290512428106
 30
0.0
 10
355.1297058052263
 20
198.0826823297799
 30
0.0
 10
353.2630589359665
 20
199.3175869541441
 30
0.0
 10
352.1534438927299
 20
199.6933141634469
 30
0.0
 10
350.9458086541931
 20
199.6933141634469
 30
0.0
  0
ELLIPSE
  5
2F8
330
29F
100
AcDbEntity
  8
DN50
  6
Continuous
 62
     7
100
AcDbEllipse
 10
345.5760707168
 20
221.156390782
 30
0.0
 11
1.534736396679128E-14
 21
23.99999999999996
 31
0.0
210
0.0
220
0.0
230
1.0
 40
0.5
 41
2.677649228984814
 42
3.605536078194776
  0
SPLINE
  5
2F9
330
29F
100
AcDbEntity
  8
DN50
  6
Continuous
 62
     7
100
AcDbSpline
210
0.0
220
0.0
230
1.0
 70
     8
 71
     3
 72
    12
 73
     8
 74
     0
 42
0.000000001
 43
0.0000000001
 40
0.428852591558035
 40
0.428852591558035
 40
0.428852591558035
 40
0.428852591558035
 40
0.5
 40
0.5
 40
0.75
 40
0.75
 40
1.0
 40
1.0
 40
1.0
 40
1.0
 10
346.1508431402398
 20
197.0766412048057
 30
0.0
 10
346.4427311758606
 20
196.8243541630569
 30
0.0
 10
346.7257492506219
 20
196.5603411112895
 30
0.0
 10
347.9579875758917
 20
195.3290355999114
 30
0.0
 10
348.8212011189268
 20
194.2337725986709
 30
0.0
 10
350.2804248352392
 20
191.9250275631348
 30
0.0
 10
350.8902014189537
 20
190.6924876021735
 30
0.0
 10
351.3530583744464
 20
189.4191886369134
 30
0.0
  0
ELLIPSE
  5
2FA
330
29F
100
AcDbEntity
  8
DN50
  6
Continuous
 62
     7
100
AcDbEllipse
 10
354.8530583744
 20
221.156390782
 30
0.0
 11
-2.061767660686034E-13
 21
32.49999999998442
 31
0.0
210
0.0
220
0.0
230
1.0
 40
0.5
 41
2.924506981298376
 42
3.358678325881204
  0
SPLINE
  5
2FB
330
29F
100
AcDbEntity
  8
DN50
  6
Continuous
 62
     7
100
AcDbSpline
210
0.0
220
0.0
230
1.0
 70
     8
 71
     3
 72
    12
 73
     8
 74
     0
 42
0.000000001
 43
0.0000000001
 40
0.0
 40
0.0
 40
0.0
 40
0.0
 40
0.25
 40
0.25
 40
0.5
 40
0.5
 40
0.5735313813125021
 40
0.5735313813125021
 40
0.5735313813125021
 40
0.5735313813125021
 10
351.3530583744464
 20
252.8935929271468
 30
0.0
 10
350.8892533586759
 20
251.6176858900918
 30
0.0
 10
350.2892434260513
 20
250.4042375301972
 30
0.0
 10
348.8328307514823
 20
248.0949133332905
 30
0.0
 10
347.9687584571452
 20
246.9969584860537
 30
0.0
 10
346.732989731474
 20
245.7589797842036
 30
0.0
 10
346.4410898322751
 20
245.4865242056276
 30
0.0
 10
346.1394760964924
 20
245.2263668009108
 30
0.0
  0
ELLIPSE
  5
2FC
330
29F
100
AcDbEntity
  8
DN50
  6
Continuous
 62
     7
100
AcDbEllipse
 10
345.5760707168
 20
221.156390782
 30
0.0
 11
-2.922515177460574E-14
 21
-23.99999999999995
 31
0.0
210
0.0
220
0.0
230
1.0
 40
0.5
 41
2.67764922898481
 42
3.605536078194778
  0
SPLINE
  5
2FD
330
29F
100
AcDbEntity
  8
DN50
  6
Continuous
 62
     7
100
AcDbSpline
210
0.0
220
0.0
230
1.0
 70
     8
 71
     3
 72
    14
 73
    10
 74
     0
 42
0.000000001
 43
0.0000000001
 40
0.0
 40
0.0
 40
0.0
 40
0.0
 40
0.25
 40
0.25
 40
0.5
 40
0.5
 40
0.75
 40
0.75
 40
1.0
 40
1.0
 40
1.0
 40
1.0
 10
350.9458086541931
 20
242.6194674006133
 30
0.0
 10
352.1497704850737
 20
242.6194674006133
 30
0.0
 10
353.2480941015954
 20
242.989005918788
 30
0.0
 10
355.1146578233645
 20
244.2164917896105
 30
0.0
 10
355.888248493952
 20
245.0667049434041
 30
0.0
 10
357.1089959594915
 20
246.9837459641488
 30
0.0
 10
357.5735663713819
 20
248.0790089653893
 30
0.0
 10
358.1924756162493
 20
250.3877540009253
 30
0.0
 10
358.3536443416303
 20
251.6202939618867
 30
0.0
 10
358.3530583744464
 20
252.8935929271468
 30
0.0
  0
ELLIPSE
  5
2FE
330
29F
100
AcDbEntity
  8
DN50
  6
Continuous
 62
     7
100
AcDbEllipse
 10
354.8530583744
 20
221.156390782
 30
0.0
 11
1.188773675920025E-14
 21
-32.49999999999601
 31
0.0
210
0.0
220
0.0
230
1.0
 40
0.5
 41
2.924506981298419
 42
3.358678325881167
  0
ELLIPSE
  5
2FF
330
29F
100
AcDbEntity
  8
DN50
  6
Continuous
 62
     7
100
AcDbEllipse
 10
339.2973865394
 20
221.156390782
 30
0.0
 11
-1.464013044028368E-14
 21
-12.45
 31
0.0
210
0.0
220
0.0
230
1.0
 40
0.5
 41
2.192387341598925
 42
3.020289858058254
  0
ELLIPSE
  5
300
330
29F
100
AcDbEntity
  8
DN50
  6
Continuous
 62
     7
100
AcDbEllipse
 10
339.2973865394
 20
221.156390782
 30
0.0
 11
-1.464013044028368E-14
 21
-12.45
 31
0.0
210
0.0
220
0.0
230
1.0
 40
0.5
 41
0.1213027955315393
 42
0.9492053119908662
  0
ELLIPSE
  5
301
330
29F
100
AcDbEntity
  8
DN50
  6
Continuous
 62
     7
100
AcDbEllipse
 10
339.2973865394
 20
221.156390782
 30
0.0
 11
-8.113285044357605E-16
 21
-13.25000000001043
 31
0.0
210
0.0
220
0.0
230
1.0
 40
0.5
 41
0.0
 42
0.9918171017267489
  0
ELLIPSE
  5
302
330
29F
100
AcDbEntity
  8
DN50
  6
Continuous
 62
     7
100
AcDbEllipse
 10
339.2973865394
 20
221.156390782
 30
0.0
 11
-8.113285044357605E-16
 21
-13.25000000001043
 31
0.0
210
0.0
220
0.0
230
1.0
 40
0.5
 41
2.149775551863037
 42
3.180892811842173
  0
ELLIPSE
  5
303
330
29F
100
AcDbEntity
  8
DN50
  6
Continuous
 62
     7
100
AcDbEllipse
 10
339.2973865394
 20
221.156390782
 30
0.0
 11
-8.113285044357605E-16
 21
-13.25000000001043
 31
0.0
210
0.0
220
0.0
230
1.0
 40
0.5
 41
6.243885148927316
 42
6.283185307179586
  0
LINE
  5
304
330
29F
100
AcDbEntity
  8
DN50
  6
Continuous
 62
     7
100
AcDbLine
 10
310.5783558356
 20
255.156390782
 30
0.0
 11
306.2482288167
 21
255.156390782
 31
0.0
  0
LINE
  5
305
330
29F
100
AcDbEntity
  8
DN50
  6
Continuous
 62
     7
100
AcDbLine
 10
306.2482288167
 20
187.156390782
 30
0.0
 11
310.5783558356
 21
187.156390782
 31
0.0
  0
LINE
  5
306
330
29F
100
AcDbEntity
  8
DN50
  6
Continuous
 62
     7
100
AcDbLine
 10
304.5161780091
 20
253.156390782
 30
0.0
 11
295.8559239713
 21
253.156390782
 31
0.0
  0
LINE
  5
307
330
29F
100
AcDbEntity
  8
DN50
  6
Continuous
 62
     7
100
AcDbLine
 10
294.3559239713
 20
252.156390782
 30
0.0
 11
280.2225394472
 21
252.156390782
 31
0.0
  0
LINE
  5
308
330
29F
100
AcDbEntity
  8
DN50
  6
Continuous
 62
     7
100
AcDbLine
 10
312.1336117239
 20
212.156390782
 30
0.0
 11
321.8330962463
 21
212.156390782
 31
0.0
  0
LINE
  5
309
330
29F
100
AcDbEntity
  8
DN50
  6
Continuous
 62
     7
100
AcDbLine
 10
321.8330962463
 20
230.156390782
 30
0.0
 11
312.1336117239
 21
230.156390782
 31
0.0
  0
LINE
  5
30A
330
29F
100
AcDbEntity
  8
DN50
  6
Continuous
 62
     7
100
AcDbLine
 10
298.1332160018
 20
229.6416721563
 30
0.0
 11
296.8493288328
 21
228.7338268328
 31
0.0
  0
LINE
  5
30B
330
29F
100
AcDbEntity
  8
DN50
  6
Continuous
 62
     7
100
AcDbLine
 10
299.6332160018
 20
212.156390782
 30
0.0
 11
309.3330962463
 21
212.156390782
 31
0.0
  0
LINE
  5
30C
330
29F
100
AcDbEntity
  8
DN50
  6
Continuous
 62
     7
100
AcDbLine
 10
309.3330962463
 20
230.156390782
 30
0.0
 11
299.6332160018
 21
230.156390782
 31
0.0
  0
LINE
  5
30D
330
29F
100
AcDbEntity
  8
DN50
  6
Continuous
 62
     7
100
AcDbLine
 10
295.8559239713
 20
189.156390782
 30
0.0
 11
304.5161780091
 21
189.156390782
 31
0.0
  0
LINE
  5
30E
330
29F
100
AcDbEntity
  8
DN50
  6
Continuous
 62
     7
100
AcDbLine
 10
296.8493288328
 20
213.5789547312
 30
0.0
 11
298.1332160018
 21
212.6711094078
 31
0.0
  0
LINE
  5
30F
330
29F
100
AcDbEntity
  8
DN50
  6
Continuous
 62
     7
100
AcDbLine
 10
280.2225394472
 20
190.156390782
 30
0.0
 11
294.3559239713
 21
190.156390782
 31
0.0
  0
LINE
  5
310
330
29F
100
AcDbEntity
  8
DN50
  6
Continuous
 62
     7
100
AcDbLine
 10
336.165816679
 20
227.123890782
 30
0.0
 11
336.1167280767
 21
227.123890782
 31
0.0
  0
LINE
  5
311
330
29F
100
AcDbEntity
  8
DN50
  6
Continuous
 62
     7
100
AcDbLine
 10
324.2052863379
 20
227.123890782
 30
0.0
 11
323.6658166789
 21
227.123890782
 31
0.0
  0
LINE
  5
312
330
29F
100
AcDbEntity
  8
DN50
  6
Continuous
 62
     7
100
AcDbLine
 10
323.6658166789
 20
215.188890782
 30
0.0
 11
324.2052863379
 21
215.188890782
 31
0.0
  0
LINE
  5
313
330
29F
100
AcDbEntity
  8
DN50
  6
Continuous
 62
     7
100
AcDbLine
 10
336.1167280767
 20
215.188890782
 30
0.0
 11
336.165816679
 21
215.188890782
 31
0.0
  0
LINE
  5
314
330
29F
100
AcDbEntity
  8
DN50
  6
Continuous
 62
     7
100
AcDbLine
 10
338.7638928903
 20
213.906390782
 30
0.0
 11
346.5581215244
 21
213.906390782
 31
0.0
  0
LINE
  5
315
330
29F
100
AcDbEntity
  8
DN50
  6
Continuous
 62
     7
100
AcDbLine
 10
346.5581215244
 20
228.406390782
 30
0.0
 11
338.7638928903
 21
228.406390782
 31
0.0
  0
LINE
  5
316
330
29F
100
AcDbEntity
  8
DN50
  6
Continuous
 62
     7
100
AcDbLine
 10
323.6658166789
 20
227.123890782
 30
0.0
 11
309.3330962463
 21
227.123890782
 31
0.0
  0
LINE
  5
317
330
29F
100
AcDbEntity
  8
DN50
  6
Continuous
 62
     7
100
AcDbLine
 10
309.3330962463
 20
215.188890782
 30
0.0
 11
323.6658166789
 21
215.188890782
 31
0.0
  0
LINE
  5
318
330
29F
100
AcDbEntity
  8
DN50
  6
Continuous
 62
     7
100
AcDbLine
 10
326.2638928903
 20
213.906390782
 30
0.0
 11
334.0581215243
 21
213.906390782
 31
0.0
  0
LINE
  5
319
330
29F
100
AcDbEntity
  8
DN50
  6
Continuous
 62
     7
100
AcDbLine
 10
334.0581215243
 20
228.406390782
 30
0.0
 11
326.2638928903
 21
228.406390782
 31
0.0
  0
LINE
  5
31A
330
29F
100
AcDbEntity
  8
DN50
  6
Continuous
 62
     7
100
AcDbLine
 10
331.7870313331
 20
207.156390782
 30
0.0
 11
336.7617594199
 21
207.156390782
 31
0.0
  0
LINE
  5
31B
330
29F
100
AcDbEntity
  8
DN50
  6
Continuous
 62
     7
100
AcDbLine
 10
336.7617594199
 20
235.156390782
 30
0.0
 11
331.7879099032
 21
235.156390782
 31
0.0
  0
LINE
  5
31C
330
29F
100
AcDbEntity
  8
DN50
  6
Continuous
 62
     7
100
AcDbLine
 10
340.8032113042
 20
209.725438649
 30
0.0
 11
341.6981042215
 21
210.9910083495
 31
0.0
  0
LINE
  5
31D
330
29F
100
AcDbEntity
  8
DN50
  6
Continuous
 62
     7
100
AcDbLine
 10
341.6981042215
 20
231.3217732146
 30
0.0
 11
340.8032113042
 21
232.587342915
 31
0.0
  0
LINE
  5
31E
330
29F
100
AcDbEntity
  8
DN50
  6
Continuous
 62
     7
100
AcDbLine
 10
354.8530583744
 20
188.656390782
 30
0.0
 11
366.8555287063
 21
188.656390782
 31
0.0
  0
LINE
  5
31F
330
29F
100
AcDbEntity
  8
DN50
  6
Continuous
 62
     7
100
AcDbLine
 10
366.8555287063
 20
253.656390782
 30
0.0
 11
354.8530583744
 21
253.656390782
 31
0.0
  0
SPLINE
  5
320
330
29F
100
AcDbEntity
  8
DN50
  6
Continuous
 62
     7
100
AcDbSpline
210
0.0
220
0.0
230
1.0
 70
     8
 71
     3
 72
    13
 73
     9
 74
     0
 42
0.000000001
 43
0.0000000001
 40
0.0
 40
0.0
 40
0.0
 40
0.0
 40
0.1128778738758536
 40
0.247008070356016
 40
0.3634050253270678
 40
0.4685201484597062
 40
0.5660042050237158
 40
0.6136847870962189
 40
0.6136847870962189
 40
0.6136847870962189
 40
0.6136847870962189
 10
345.5757136005494
 20
197.1525883142487
 30
0.0
 10
345.6472594071334
 20
197.1526051583651
 30
0.0
 10
345.7776722500045
 20
197.1523401420015
 30
0.0
 10
345.9713551637814
 20
197.123019118844
 30
0.0
 10
346.1179639266857
 20
197.0881618588201
 30
0.0
 10
346.2098324031808
 20
197.0577244125419
 30
0.0
 10
346.2466847900513
 20
197.0421908015887
 30
0.0
 10
346.2520896825738
 20
197.0395903111148
 30
0.0
 10
346.2520975899278
 20
197.0395872327696
 30
0.0
  0
SPLINE
  5
321
330
29F
100
AcDbEntity
  8
DN50
  6
Continuous
 62
     7
100
AcDbSpline
210
0.0
220
0.0
230
1.0
 70
     8
 71
     3
 72
    14
 73
    10
 74
     0
 42
0.000000001
 43
0.0000000001
 40
0.3862346957059479
 40
0.3862346957059479
 40
0.3862346957059479
 40
0.3862346957059479
 40
0.3867384292052057
 40
0.4827896436935823
 40
0.5839213941798665
 40
0.6922722184341888
 40
0.8113154766335853
 40
0.9473663835192372
 40
1.0
 40
1.0
 40
1.0
 40
1.0
 10
346.2521021065727
 20
245.2732004274074
 30
0.0
 10
346.2521021103248
 20
245.2732004742955
 30
0.0
 10
346.2520647274377
 20
245.2731910620462
 30
0.0
 10
346.2370368728003
 20
245.2659640674266
 30
0.0
 10
346.1699852215241
 20
245.2409059455831
 30
0.0
 10
346.0534067763364
 20
245.2074380427333
 30
0.0
 10
345.8846703455932
 20
245.1755324800519
 30
0.0
 10
345.7089965026679
 20
245.1553194289604
 30
0.0
 10
345.6092823895908
 20
245.1589515441589
 30
0.0
 10
345.5764278330639
 20
245.1601932498115
 30
0.0
  0
LINE
  5
322
330
29F
100
AcDbEntity
  8
DN50
  6
Continuous
 62
     7
100
AcDbLine
 10
339.2973865394
 20
207.906390782
 30
0.0
 11
345.5760707168
 21
207.906390782
 31
0.0
  0
LINE
  5
323
330
29F
100
AcDbEntity
  8
DN50
  6
Continuous
 62
     7
100
AcDbLine
 10
345.5760707168
 20
234.406390782
 30
0.0
 11
339.2973865394
 21
234.406390782
 31
0.0
  0
ENDBLK
  5
325
330
29F
100
AcDbEntity
  8
0
100
AcDbBlockEnd
  0
ENDSEC
  0
SECTION
  2
ENTITIES
  0
INSERT
  5
70
330
1F
100
AcDbEntity
  8
Default
100
AcDbBlockReference
  2
SE
 10
0.0
 20
0.0
 30
0.0
  0
INSERT
  5
130
330
1F
100
AcDbEntity
  8
Default
100
AcDbBlockReference
  2
SE1
 10
0.0
 20
0.0
 30
0.0
  0
INSERT
  5
1EF
330
1F
100
AcDbEntity
  8
Default
100
AcDbBlockReference
  2
SE2
 10
0.0
 20
0.0
 30
0.0
  0
INSERT
  5
2A0
330
1F
100
AcDbEntity
  8
Default
100
AcDbBlockReference
  2
SE3
 10
0.0
 20
0.0
 30
0.0
  0
ENDSEC
  0
SECTION
  2
OBJECTS
  0
DICTIONARY
  5
C
330
0
100
AcDbDictionary
281
     1
  3
ACAD_DETAILVIEWSTYLE
350
361
  3
ACAD_GROUP
350
D
  3
ACAD_LAYOUT
350
1A
  3
ACAD_MATERIAL
350
43
  3
ACAD_MLEADERSTYLE
350
6B
  3
ACAD_MLINESTYLE
350
17
  3
ACAD_PLOTSETTINGS
350
19
  3
ACAD_PLOTSTYLENAME
350
E
  3
ACAD_SCALELIST
350
47
  3
ACAD_SECTIONVIEWSTYLE
350
362
  3
ACAD_TABLESTYLE
350
69
  3
ACAD_VISUALSTYLE
350
2A
  3
ACDB_RECOMPOSE_DATA
350
35E
  3
AcDbVariableDictionary
350
326
  0
SUN
  5
6D
330
29
100
AcDbSun
 90
        1
290
     0
 63
     7
421
 16777215
 40
1.0
291
     1
 91
  2455826
 92
 54000000
292
     0
 70
     2
 71
   256
280
     1
  0
DICTIONARY
  5
361
102
{ACAD_REACTORS
330
C
102
}
330
C
100
AcDbDictionary
281
     1
  0
DICTIONARY
  5
D
102
{ACAD_REACTORS
330
C
102
}
330
C
100
AcDbDictionary
281
     1
  0
DICTIONARY
  5
1A
102
{ACAD_REACTORS
330
C
102
}
330
C
100
AcDbDictionary
281
     1
  3
Layout1
350
1E
  3
Model
350
22
  0
DICTIONARY
  5
43
102
{ACAD_REACTORS
330
C
102
}
330
C
100
AcDbDictionary
281
     1
  3
ByBlock
350
45
  3
ByLayer
350
44
  3
Global
350
46
  0
DICTIONARY
  5
6B
102
{ACAD_REACTORS
330
C
102
}
330
C
100
AcDbDictionary
281
     1
  3
Standard
350
6C
  0
DICTIONARY
  5
17
102
{ACAD_REACTORS
330
C
102
}
330
C
100
AcDbDictionary
281
     1
  3
Standard
350
18
  0
DICTIONARY
  5
19
102
{ACAD_REACTORS
330
C
102
}
330
C
100
AcDbDictionary
281
     1
  0
ACDBDICTIONARYWDFLT
  5
E
102
{ACAD_REACTORS
330
C
102
}
330
C
100
AcDbDictionary
281
     1
  3
Normal
350
F
100
AcDbDictionaryWithDefault
340
F
  0
DICTIONARY
  5
47
102
{ACAD_REACTORS
330
C
102
}
330
C
100
AcDbDictionary
281
     1
  3
A0
350
48
  3
A1
350
49
  3
A2
350
4A
  3
A3
350
4B
  3
A4
350
4C
  3
A5
350
4D
  3
A6
350
4E
  3
A7
350
4F
  3
A8
350
50
  3
A9
350
51
  3
B0
350
52
  3
B1
350
53
  3
B2
350
54
  3
B3
350
55
  3
B4
350
56
  3
B5
350
57
  3
B6
350
58
  3
B7
350
59
  3
B8
350
5A
  3
B9
350
5B
  3
C0
350
5C
  3
C1
350
5D
  3
C2
350
5E
  3
C3
350
5F
  3
C4
350
60
  3
C5
350
61
  3
C6
350
62
  3
C7
350
63
  3
C8
350
64
  3
C9
350
65
  3
D0
350
66
  3
D1
350
67
  3
D2
350
68
  0
DICTIONARY
  5
362
102
{ACAD_REACTORS
330
C
102
}
330
C
100
AcDbDictionary
281
     1
  0
DICTIONARY
  5
69
102
{ACAD_REACTORS
330
C
102
}
330
C
100
AcDbDictionary
281
     1
  3
Standard
350
6A
  0
DICTIONARY
  5
2A
102
{ACAD_REACTORS
330
C
102
}
330
C
100
AcDbDictionary
281
     1
  3
2dWireframe
350
2F
  3
Basic
350
32
  3
Brighten
350
36
  3
ColorChange
350
3A
  3
Conceptual
350
34
  3
Dim
350
35
  3
EdgeColorOff
350
3D
  3
Facepattern
350
39
  3
Flat
350
2B
  3
FlatWithEdges
350
2C
  3
Gouraud
350
2D
  3
GouraudWithEdges
350
2E
  3
Hidden
350
31
  3
JitterOff
350
3B
  3
Linepattern
350
38
  3
OverhangOff
350
3C
  3
Realistic
350
33
  3
Shaded
350
42
  3
Shaded with edges
350
41
  3
Shades of Gray
350
3E
  3
Sketchy
350
3F
  3
Thicken
350
37
  3
Wireframe
350
30
  3
X-Ray
350
40
  0
XRECORD
  5
35E
102
{ACAD_REACTORS
330
C
102
}
330
C
100
AcDbXrecord
280
     1
 90
        1
330
6A
  0
DICTIONARY
  5
326
102
{ACAD_REACTORS
330
C
102
}
330
C
100
AcDbDictionary
281
     1
  3
CANNOSCALE
350
327
  3
CMLEADERSTYLE
350
360
  3
CTABLESTYLE
350
35F
  3
XCLIPFRAME
350
328
  0
LAYOUT
  5
1E
102
{ACAD_REACTORS
330
1A
102
}
330
1A
100
AcDbPlotSettings
  1

  2
none_device
  4

  6

 40
0.0
 41
0.0
 42
0.0
 43
0.0
 44
0.0
 45
0.0
 46
0.0
 47
0.0
 48
0.0
 49
0.0
140
0.0
141
0.0
142
1.0
143
1.0
 70
   688
 72
     1
 73
     0
 74
     5
  7

 75
    16
 76
     0
 77
     2
 78
   300
147
1.0
148
0.0
149
0.0
100
AcDbLayout
  1
Layout1
 70
     1
 71
     1
 10
0.0
 20
0.0
 11
420.0
 21
297.0
 12
0.0
 22
0.0
 32
0.0
 14
0.0
 24
0.0
 34
0.0
 15
420.0
 25
297.0
 35
0.0
146
0.0
 13
0.0
 23
0.0
 33
0.0
 16
1.0
 26
0.0
 36
0.0
 17
0.0
 27
1.0
 37
0.0
 76
     0
330
1B
  0
LAYOUT
  5
22
102
{ACAD_REACTORS
330
1A
102
}
330
1A
100
AcDbPlotSettings
  1

  2
none_device
  4
Letter_(8.50_x_11.00_Inches)
  6

 40
6.35
 41
6.35
 42
6.35000508
 43
6.35000508
 44
215.9
 45
279.4
 46
0.0
 47
0.0
 48
0.0
 49
0.0
140
0.0
141
0.0
142
1.0
143
1.0
 70
  1712
 72
     1
 73
     0
 74
     0
  7

 75
     0
 76
     0
 77
     2
 78
   300
147
1.0
148
0.0
149
0.0
100
AcDbLayout
  1
Model
 70
     1
 71
     0
 10
0.0
 20
0.0
 11
420.0
 21
297.0
 12
0.0
 22
0.0
 32
0.0
 14
0.0
 24
0.0
 34
0.0
 15
420.0
 25
297.0
 35
0.0
146
0.0
 13
0.0
 23
0.0
 33
0.0
 16
1.0
 26
0.0
 36
0.0
 17
0.0
 27
1.0
 37
0.0
 76
     0
330
1F
331
29
  0
MATERIAL
  5
45
102
{ACAD_REACTORS
330
43
102
}
330
43
100
AcDbMaterial
  1
ByBlock
 72
     1
 94
      127
  0
MATERIAL
  5
44
102
{ACAD_REACTORS
330
43
102
}
330
43
100
AcDbMaterial
  1
ByLayer
 72
     1
 94
      127
  0
MATERIAL
  5
46
102
{ACAD_REACTORS
330
43
102
}
330
43
100
AcDbMaterial
  1
Global
 72
     1
 94
      127
  0
MLEADERSTYLE
  5
6C
102
{ACAD_REACTORS
330
6B
102
}
102
{ACAD_XDICTIONARY
360
35C
102
}
330
6B
100
AcDbMLeaderStyle
170
     2
171
     1
172
     0
 90
        2
 40
0.0
 41
0.0
173
     1
 91
-1056964608
340
14
 92
       -2
290
     1
 42
2.0
291
     1
 43
8.0
  3
Standard
341
0
 44
4.0
300

342
11
174
     1
178
     6
175
     1
176
     0
 93
-1056964608
 45
4.0
292
     0
297
     0
 46
4.0
343
0
 94
-1056964608
 47
1.0
 49
1.0
140
1.0
293
     1
141
0.0
294
     1
177
     0
142
1.0
295
     0
296
     0
143
3.75
1001
ACAD_MLEADERVER
1070
     2
  0
MLINESTYLE
  5
18
102
{ACAD_REACTORS
330
17
102
}
330
17
100
AcDbMlineStyle
  2
Standard
 70
     0
  3

 62
   256
 51
90.0
 52
90.0
 71
     2
 49
0.5
 62
   256
  6
BYLAYER
 49
-0.5
 62
   256
  6
BYLAYER
  0
ACDBPLACEHOLDER
  5
F
102
{ACAD_REACTORS
330
E
102
}
330
E
  0
SCALE
  5
48
102
{ACAD_REACTORS
330
47
102
}
330
47
100
AcDbScale
 70
     0
300
1:1
140
1.0
141
1.0
290
     1
  0
SCALE
  5
49
102
{ACAD_REACTORS
330
47
102
}
330
47
100
AcDbScale
 70
     0
300
1:2
140
1.0
141
2.0
290
     0
  0
SCALE
  5
4A
102
{ACAD_REACTORS
330
47
102
}
330
47
100
AcDbScale
 70
     0
300
1:4
140
1.0
141
4.0
290
     0
  0
SCALE
  5
4B
102
{ACAD_REACTORS
330
47
102
}
330
47
100
AcDbScale
 70
     0
300
1:5
140
1.0
141
5.0
290
     0
  0
SCALE
  5
4C
102
{ACAD_REACTORS
330
47
102
}
330
47
100
AcDbScale
 70
     0
300
1:8
140
1.0
141
8.0
290
     0
  0
SCALE
  5
4D
102
{ACAD_REACTORS
330
47
102
}
330
47
100
AcDbScale
 70
     0
300
1:10
140
1.0
141
10.0
290
     0
  0
SCALE
  5
4E
102
{ACAD_REACTORS
330
47
102
}
330
47
100
AcDbScale
 70
     0
300
1:16
140
1.0
141
16.0
290
     0
  0
SCALE
  5
4F
102
{ACAD_REACTORS
330
47
102
}
330
47
100
AcDbScale
 70
     0
300
1:20
140
1.0
141
20.0
290
     0
  0
SCALE
  5
50
102
{ACAD_REACTORS
330
47
102
}
330
47
100
AcDbScale
 70
     0
300
1:30
140
1.0
141
30.0
290
     0
  0
SCALE
  5
51
102
{ACAD_REACTORS
330
47
102
}
330
47
100
AcDbScale
 70
     0
300
1:40
140
1.0
141
40.0
290
     0
  0
SCALE
  5
52
102
{ACAD_REACTORS
330
47
102
}
330
47
100
AcDbScale
 70
     0
300
1:50
140
1.0
141
50.0
290
     0
  0
SCALE
  5
53
102
{ACAD_REACTORS
330
47
102
}
330
47
100
AcDbScale
 70
     0
300
1:100
140
1.0
141
100.0
290
     0
  0
SCALE
  5
54
102
{ACAD_REACTORS
330
47
102
}
330
47
100
AcDbScale
 70
     0
300
2:1
140
2.0
141
1.0
290
     0
  0
SCALE
  5
55
102
{ACAD_REACTORS
330
47
102
}
330
47
100
AcDbScale
 70
     0
300
4:1
140
4.0
141
1.0
290
     0
  0
SCALE
  5
56
102
{ACAD_REACTORS
330
47
102
}
330
47
100
AcDbScale
 70
     0
300
8:1
140
8.0
141
1.0
290
     0
  0
SCALE
  5
57
102
{ACAD_REACTORS
330
47
102
}
330
47
100
AcDbScale
 70
     0
300
10:1
140
10.0
141
1.0
290
     0
  0
SCALE
  5
58
102
{ACAD_REACTORS
330
47
102
}
330
47
100
AcDbScale
 70
     0
300
100:1
140
100.0
141
1.0
290
     0
  0
SCALE
  5
59
102
{ACAD_REACTORS
330
47
102
}
330
47
100
AcDbScale
 70
     0
300
1/128" = 1'-0"
140
0.0078125
141
12.0
290
     0
  0
SCALE
  5
5A
102
{ACAD_REACTORS
330
47
102
}
330
47
100
AcDbScale
 70
     0
300
1/64" = 1'-0"
140
0.015625
141
12.0
290
     0
  0
SCALE
  5
5B
102
{ACAD_REACTORS
330
47
102
}
330
47
100
AcDbScale
 70
     0
300
1/32" = 1'-0"
140
0.03125
141
12.0
290
     0
  0
SCALE
  5
5C
102
{ACAD_REACTORS
330
47
102
}
330
47
100
AcDbScale
 70
     0
300
1/16" = 1'-0"
140
0.0625
141
12.0
290
     0
  0
SCALE
  5
5D
102
{ACAD_REACTORS
330
47
102
}
330
47
100
AcDbScale
 70
     0
300
3/32" = 1'-0"
140
0.09375
141
12.0
290
     0
  0
SCALE
  5
5E
102
{ACAD_REACTORS
330
47
102
}
330
47
100
AcDbScale
 70
     0
300
1/8" = 1'-0"
140
0.125
141
12.0
290
     0
  0
SCALE
  5
5F
102
{ACAD_REACTORS
330
47
102
}
330
47
100
AcDbScale
 70
     0
300
3/16" = 1'-0"
140
0.1875
141
12.0
290
     0
  0
SCALE
  5
60
102
{ACAD_REACTORS
330
47
102
}
330
47
100
AcDbScale
 70
     0
300
1/4" = 1'-0"
140
0.25
141
12.0
290
     0
  0
SCALE
  5
61
102
{ACAD_REACTORS
330
47
102
}
330
47
100
AcDbScale
 70
     0
300
3/8" = 1'-0"
140
0.375
141
12.0
290
     0
  0
SCALE
  5
62
102
{ACAD_REACTORS
330
47
102
}
330
47
100
AcDbScale
 70
     0
300
1/2" = 1'-0"
140
0.5
141
12.0
290
     0
  0
SCALE
  5
63
102
{ACAD_REACTORS
330
47
102
}
330
47
100
AcDbScale
 70
     0
300
3/4" = 1'-0"
140
0.75
141
12.0
290
     0
  0
SCALE
  5
64
102
{ACAD_REACTORS
330
47
102
}
330
47
100
AcDbScale
 70
     0
300
1" = 1'-0"
140
1.0
141
12.0
290
     0
  0
SCALE
  5
65
102
{ACAD_REACTORS
330
47
102
}
330
47
100
AcDbScale
 70
     0
300
1-1/2" = 1'-0"
140
1.5
141
12.0
290
     0
  0
SCALE
  5
66
102
{ACAD_REACTORS
330
47
102
}
330
47
100
AcDbScale
 70
     0
300
3" = 1'-0"
140
3.0
141
12.0
290
     0
  0
SCALE
  5
67
102
{ACAD_REACTORS
330
47
102
}
330
47
100
AcDbScale
 70
     0
300
6" = 1'-0"
140
6.0
141
12.0
290
     0
  0
SCALE
  5
68
102
{ACAD_REACTORS
330
47
102
}
330
47
100
AcDbScale
 70
     0
300
1'-0" = 1'-0"
140
12.0
141
12.0
290
     0
  0
TABLESTYLE
  5
6A
102
{ACAD_REACTORS
330
69
102
}
102
{ACAD_XDICTIONARY
360
359
102
}
330
69
100
AcDbTableStyle
  3
Standard
 70
     0
 71
     0
 40
0.06
 41
0.06
280
     0
281
     0
  7
Standard
140
4.5
170
     2
 62
     0
 63
   257
283
     0
 90
        4
 91
        0
  1

274
    -2
284
     1
 64
     0
275
    -2
285
     1
 65
     0
276
    -2
286
     1
 66
     0
277
    -2
287
     1
 67
     0
278
    -2
288
     1
 68
     0
279
    -2
289
     1
 69
     0
  7
Standard
140
6.0
170
     5
 62
     0
 63
   257
283
     0
 90
        4
 91
        0
  1

274
    -2
284
     1
 64
     0
275
    -2
285
     1
 65
     0
276
    -2
286
     1
 66
     0
277
    -2
287
     1
 67
     0
278
    -2
288
     1
 68
     0
279
    -2
289
     1
 69
     0
  7
Standard
140
4.5
170
     5
 62
     0
 63
   257
283
     0
 90
        4
 91
        0
  1

274
    -2
284
     1
 64
     0
275
    -2
285
     1
 65
     0
276
    -2
286
     1
 66
     0
277
    -2
287
     1
 67
     0
278
    -2
288
     1
 68
     0
279
    -2
289
     1
 69
     0
  0
VISUALSTYLE
  5
2F
102
{ACAD_REACTORS
330
2A
102
}
102
{ACAD_XDICTIONARY
360
331
102
}
330
2A
100
AcDbVisualStyle
  2
2dWireframe
 70
     4
 71
     0
 72
     2
 73
     0
 90
        0
 40
0.6
 41
30.0
 62
     5
 63
     7
421
 16777215
 74
     1
 91
        4
 64
     7
 65
   257
 75
     1
175
     1
 42
1.0
 92
        0
 66
   257
 43
1.0
 76
     1
 77
     6
 78
     2
 67
     7
 79
     5
170
     0
171
     0
290
     0
174
     0
 93
        1
 44
0.0
173
     0
291
     0
 45
0.0
  0
VISUALSTYLE
  5
32
102
{ACAD_REACTORS
330
2A
102
}
102
{ACAD_XDICTIONARY
360
337
102
}
330
2A
100
AcDbVisualStyle
  2
Basic
 70
     7
 71
     1
 72
     0
 73
     1
 90
        0
 40
0.6
 41
30.0
 62
     5
 63
     7
421
 16777215
 74
     0
 91
        4
 64
     7
 65
   257
 75
     1
175
     1
 42
1.0
 92
        8
 66
     7
 43
1.0
 76
     1
 77
     6
 78
     2
 67
     7
 79
     5
170
     0
171
     0
290
     0
174
     0
 93
        1
 44
0.0
173
     0
291
     1
 45
0.0
  0
VISUALSTYLE
  5
36
102
{ACAD_REACTORS
330
2A
102
}
102
{ACAD_XDICTIONARY
360
33F
102
}
330
2A
100
AcDbVisualStyle
  2
Brighten
 70
    12
 71
     2
 72
     2
 73
     0
 90
        0
 40
0.6
 41
30.0
 62
     5
 63
     7
421
 16777215
 74
     1
 91
        4
 64
     7
 65
   257
 75
     1
175
     1
 42
1.0
 92
        8
 66
     7
 43
1.0
 76
     1
 77
     6
 78
     2
 67
     7
 79
     5
170
     0
171
     0
290
     0
174
     0
 93
        1
 44
50.0
173
     0
291
     1
 45
0.0
  0
VISUALSTYLE
  5
3A
102
{ACAD_REACTORS
330
2A
102
}
102
{ACAD_XDICTIONARY
360
347
102
}
330
2A
100
AcDbVisualStyle
  2
ColorChange
 70
    16
 71
     2
 72
     2
 73
     3
 90
        0
 40
0.6
 41
30.0
 62
     5
 63
     8
421
  8421504
 74
     1
 91
        4
 64
     7
 65
   257
 75
     1
175
     1
 42
1.0
 92
        8
 66
     8
424
  8421504
 43
1.0
 76
     1
 77
     6
 78
     2
 67
     7
 79
     5
170
     0
171
     0
290
     0
174
     0
 93
        1
 44
0.0
173
     0
291
     1
 45
0.0
  0
VISUALSTYLE
  5
34
102
{ACAD_REACTORS
330
2A
102
}
102
{ACAD_XDICTIONARY
360
33B
102
}
330
2A
100
AcDbVisualStyle
  2
Conceptual
 70
     9
 71
     3
 72
     2
 73
     0
 90
        0
 40
0.6
 41
30.0
 62
     5
 63
     7
421
 16777215
 74
     2
 91
        2
 64
     7
 65
   257
 75
     1
175
     1
 42
179.0
 92
        8
 66
     7
 43
1.0
 76
     1
 77
     6
 78
     2
 67
     7
 79
     3
170
     0
171
     0
290
     0
174
     0
 93
        1
 44
0.0
173
     0
291
     0
 45
0.0
  0
VISUALSTYLE
  5
35
102
{ACAD_REACTORS
330
2A
102
}
102
{ACAD_XDICTIONARY
360
33D
102
}
330
2A
100
AcDbVisualStyle
  2
Dim
 70
    11
 71
     2
 72
     2
 73
     0
 90
        0
 40
0.6
 41
30.0
 62
     5
 63
     7
421
 16777215
 74
     1
 91
        4
 64
     7
 65
   257
 75
     1
175
     1
 42
1.0
 92
        8
 66
     7
 43
1.0
 76
     1
 77
     6
 78
     2
 67
     7
 79
     5
170
     0
171
     0
290
     0
174
     0
 93
        1
 44
-50.0
173
     0
291
     1
 45
0.0
  0
VISUALSTYLE
  5
3D
102
{ACAD_REACTORS
330
2A
102
}
102
{ACAD_XDICTIONARY
360
34D
102
}
330
2A
100
AcDbVisualStyle
  2
EdgeColorOff
 70
    22
 71
     2
 72
     2
 73
     0
 90
        0
 40
0.6
 41
30.0
 62
     5
 63
     7
421
 16777215
 74
     1
 91
        4
 64
     7
 65
   257
 75
     1
175
     1
 42
1.0
 92
        8
 66
     7
 43
1.0
 76
     1
 77
     6
 78
     2
 67
     7
 79
     5
170
     0
171
     0
290
     0
174
     0
 93
        1
 44
0.0
173
     0
291
     1
 45
0.0
  0
VISUALSTYLE
  5
39
102
{ACAD_REACTORS
330
2A
102
}
102
{ACAD_XDICTIONARY
360
345
102
}
330
2A
100
AcDbVisualStyle
  2
Facepattern
 70
    15
 71
     2
 72
     2
 73
     0
 90
        0
 40
0.6
 41
30.0
 62
     5
 63
     7
421
 16777215
 74
     1
 91
        4
 64
     7
 65
   257
 75
     1
175
     1
 42
1.0
 92
        8
 66
     7
 43
1.0
 76
     1
 77
     6
 78
     2
 67
     7
 79
     5
170
     0
171
     0
290
     0
174
     0
 93
        1
 44
0.0
173
     0
291
     1
 45
0.0
  0
VISUALSTYLE
  5
2B
102
{ACAD_REACTORS
330
2A
102
}
102
{ACAD_XDICTIONARY
360
329
102
}
330
2A
100
AcDbVisualStyle
  2
Flat
 70
     0
 71
     2
 72
     1
 73
     1
 90
        2
 40
0.6
 41
30.0
 62
     5
 63
     7
421
 16777215
 74
     0
 91
        0
 64
     7
 65
   257
 75
     1
175
     1
 42
1.0
 92
        8
 66
     7
 43
1.0
 76
     1
 77
     6
 78
     2
 67
     7
 79
     5
170
     0
171
     0
290
     0
174
     0
 93
       13
 44
0.0
173
     0
291
     1
 45
0.0
  0
VISUALSTYLE
  5
2C
102
{ACAD_REACTORS
330
2A
102
}
102
{ACAD_XDICTIONARY
360
32B
102
}
330
2A
100
AcDbVisualStyle
  2
FlatWithEdges
 70
     1
 71
     2
 72
     1
 73
     1
 90
        2
 40
0.6
 41
30.0
 62
     5
 63
     7
421
 16777215
 74
     1
 91
        0
 64
     7
 65
   257
 75
     1
175
     1
 42
1.0
 92
        0
 66
   257
 43
1.0
 76
     1
 77
     6
 78
     2
 67
     7
 79
     5
170
     0
171
     0
290
     0
174
     0
 93
       13
 44
0.0
173
     0
291
     1
 45
0.0
  0
VISUALSTYLE
  5
2D
102
{ACAD_REACTORS
330
2A
102
}
102
{ACAD_XDICTIONARY
360
32D
102
}
330
2A
100
AcDbVisualStyle
  2
Gouraud
 70
     2
 71
     2
 72
     2
 73
     1
 90
        2
 40
0.6
 41
30.0
 62
     5
 63
     7
421
 16777215
 74
     0
 91
        0
 64
     7
 65
   257
 75
     1
175
     1
 42
1.0
 92
        0
 66
     7
 43
1.0
 76
     1
 77
     6
 78
     2
 67
     7
 79
     5
170
     0
171
     0
290
     0
174
     0
 93
       13
 44
0.0
173
     0
291
     1
 45
0.0
  0
VISUALSTYLE
  5
2E
102
{ACAD_REACTORS
330
2A
102
}
102
{ACAD_XDICTIONARY
360
32F
102
}
330
2A
100
AcDbVisualStyle
  2
GouraudWithEdges
 70
     3
 71
     2
 72
     2
 73
     1
 90
        2
 40
0.6
 41
30.0
 62
     5
 63
     7
421
 16777215
 74
     1
 91
        0
 64
     7
 65
   257
 75
     1
175
     1
 42
1.0
 92
        0
 66
   257
 43
1.0
 76
     1
 77
     6
 78
     2
 67
     7
 79
     5
170
     0
171
     0
290
     0
174
     0
 93
       13
 44
0.0
173
     0
291
     1
 45
0.0
  0
VISUALSTYLE
  5
31
102
{ACAD_REACTORS
330
2A
102
}
102
{ACAD_XDICTIONARY
360
335
102
}
330
2A
100
AcDbVisualStyle
  2
Hidden
 70
     6
 71
     1
 72
     2
 73
     2
 90
        0
 40
0.6
 41
30.0
 62
     5
 63
     7
421
 16777215
 74
     2
 91
        2
 64
     7
 65
   257
 75
     2
175
     1
 42
40.0
 92
        0
 66
   257
 43
1.0
 76
     1
 77
     6
 78
     2
 67
     7
 79
     3
170
     0
171
     0
290
     0
174
     0
 93
        1
 44
0.0
173
     0
291
     0
 45
0.0
  0
VISUALSTYLE
  5
3B
102
{ACAD_REACTORS
330
2A
102
}
102
{ACAD_XDICTIONARY
360
349
102
}
330
2A
100
AcDbVisualStyle
  2
JitterOff
 70
    20
 71
     2
 72
     2
 73
     0
 90
        0
 40
0.6
 41
30.0
 62
     5
 63
     7
421
 16777215
 74
     1
 91
        4
 64
     7
 65
   257
 75
     1
175
     1
 42
1.0
 92
       10
 66
     7
 43
1.0
 76
     1
 77
     6
 78
     2
 67
     7
 79
     5
170
     0
171
     0
290
     0
174
     0
 93
        1
 44
0.0
173
     0
291
     1
 45
0.0
  0
VISUALSTYLE
  5
38
102
{ACAD_REACTORS
330
2A
102
}
102
{ACAD_XDICTIONARY
360
343
102
}
330
2A
100
AcDbVisualStyle
  2
Linepattern
 70
    14
 71
     2
 72
     2
 73
     0
 90
        0
 40
0.6
 41
30.0
 62
     5
 63
     7
421
 16777215
 74
     1
 91
        4
 64
     7
 65
   257
 75
     7
175
     7
 42
1.0
 92
        8
 66
     7
 43
1.0
 76
     1
 77
     6
 78
     2
 67
     7
 79
     5
170
     0
171
     0
290
     0
174
     0
 93
        1
 44
0.0
173
     0
291
     1
 45
0.0
  0
VISUALSTYLE
  5
3C
102
{ACAD_REACTORS
330
2A
102
}
102
{ACAD_XDICTIONARY
360
34B
102
}
330
2A
100
AcDbVisualStyle
  2
OverhangOff
 70
    21
 71
     2
 72
     2
 73
     0
 90
        0
 40
0.6
 41
30.0
 62
     5
 63
     7
421
 16777215
 74
     1
 91
        4
 64
     7
 65
   257
 75
     1
175
     1
 42
1.0
 92
        9
 66
     7
 43
1.0
 76
     1
 77
     6
 78
     2
 67
     7
 79
     5
170
     0
171
     0
290
     0
174
     0
 93
        1
 44
0.0
173
     0
291
     1
 45
0.0
  0
VISUALSTYLE
  5
33
102
{ACAD_REACTORS
330
2A
102
}
102
{ACAD_XDICTIONARY
360
339
102
}
330
2A
100
AcDbVisualStyle
  2
Realistic
 70
     8
 71
     2
 72
     3
 73
     0
 90
        2
 40
0.6
 41
30.0
 62
     5
 63
     7
421
 16777215
 74
     0
 91
        0
 64
     7
 65
   257
 75
     1
175
     1
 42
1.0
 92
        8
 66
   257
 43
1.0
 76
     1
 77
     6
 78
     2
 67
     7
 79
     3
170
     0
171
     0
290
     0
174
     0
 93
       13
 44
0.0
173
     0
291
     0
 45
0.0
  0
VISUALSTYLE
  5
42
102
{ACAD_REACTORS
330
2A
102
}
102
{ACAD_XDICTIONARY
360
357
102
}
330
2A
100
AcDbVisualStyle
  2
Shaded
 70
    27
 71
     2
 72
     2
 73
     1
 90
        2
 40
0.6
 41
30.0
 62
     5
 63
     7
421
 16777215
 74
     0
 91
        4
 64
     7
 65
   257
 75
     1
175
     1
 42
1.0
 92
        8
 66
   257
 43
1.0
 76
     1
 77
     6
 78
     2
 67
     8
425
  7895160
 79
     3
170
     0
171
     0
290
     0
174
     0
 93
        5
 44
0.0
173
     0
291
     0
 45
0.0
  0
VISUALSTYLE
  5
41
102
{ACAD_REACTORS
330
2A
102
}
102
{ACAD_XDICTIONARY
360
355
102
}
330
2A
100
AcDbVisualStyle
  2
Shaded with edges
 70
    26
 71
     2
 72
     2
 73
     1
 90
        2
 40
0.6
 41
30.0
 62
     5
 63
     7
421
 16777215
 74
     1
 91
       10
 64
     7
 65
   257
 75
     2
175
     1
 42
1.0
 92
        8
 66
   257
 43
1.0
 76
     1
 77
     6
 78
     2
 67
     7
 79
     3
170
     0
171
     0
290
     0
174
     0
 93
        5
 44
0.0
173
     0
291
     0
 45
0.0
  0
VISUALSTYLE
  5
3E
102
{ACAD_REACTORS
330
2A
102
}
102
{ACAD_XDICTIONARY
360
34F
102
}
330
2A
100
AcDbVisualStyle
  2
Shades of Gray
 70
    23
 71
     2
 72
     2
 73
     3
 90
        0
 40
0.6
 41
30.0
 62
     5
 63
     7
421
 16777215
 74
     2
 91
        2
 64
     7
 65
     7
 75
     1
175
     1
 42
40.0
 92
        8
 66
     7
 43
1.0
 76
     1
 77
     6
 78
     2
 67
     7
 79
     3
170
     0
171
     0
290
     0
174
     0
 93
        1
 44
0.0
173
     0
291
     0
 45
0.0
  0
VISUALSTYLE
  5
3F
102
{ACAD_REACTORS
330
2A
102
}
102
{ACAD_XDICTIONARY
360
351
102
}
330
2A
100
AcDbVisualStyle
  2
Sketchy
 70
    24
 71
     1
 72
     2
 73
     2
 90
        0
 40
0.6
 41
30.0
 62
     5
 63
     7
421
 16777215
 74
     2
 91
        2
 64
     7
 65
     7
 75
     1
175
     1
 42
40.0
 92
       11
 66
     7
 43
1.0
 76
     1
 77
     6
 78
     2
 67
     7
 79
     6
170
     0
171
     0
290
     0
174
     0
 93
        1
 44
0.0
173
     0
291
     0
 45
0.0
  0
VISUALSTYLE
  5
37
102
{ACAD_REACTORS
330
2A
102
}
102
{ACAD_XDICTIONARY
360
341
102
}
330
2A
100
AcDbVisualStyle
  2
Thicken
 70
    13
 71
     2
 72
     2
 73
     0
 90
        0
 40
0.6
 41
30.0
 62
     5
 63
     7
421
 16777215
 74
     1
 91
        4
 64
     7
 65
   257
 75
     1
175
     1
 42
1.0
 92
       12
 66
     7
 43
1.0
 76
     1
 77
     6
 78
     2
 67
     7
 79
     5
170
     0
171
     0
290
     0
174
     0
 93
        1
 44
0.0
173
     0
291
     1
 45
0.0
  0
VISUALSTYLE
  5
30
102
{ACAD_REACTORS
330
2A
102
}
102
{ACAD_XDICTIONARY
360
333
102
}
330
2A
100
AcDbVisualStyle
  2
Wireframe
 70
     5
 71
     0
 72
     2
 73
     0
 90
        0
 40
0.6
 41
30.0
 62
     5
 63
     7
421
 16777215
 74
     1
 91
        4
 64
     7
 65
   257
 75
     1
175
     1
 42
1.0
 92
        0
 66
   257
 43
1.0
 76
     1
 77
     6
 78
     2
 67
     7
 79
     3
170
     0
171
     0
290
     0
174
     0
 93
        1
 44
0.0
173
     0
291
     0
 45
0.0
  0
VISUALSTYLE
  5
40
102
{ACAD_REACTORS
330
2A
102
}
102
{ACAD_XDICTIONARY
360
353
102
}
330
2A
100
AcDbVisualStyle
  2
X-Ray
 70
    25
 71
     2
 72
     2
 73
     1
 90
        1
 40
0.5
 41
30.0
 62
     5
 63
     7
421
 16777215
 74
     1
 91
        0
 64
     7
 65
   257
 75
     1
175
     1
 42
1.0
 92
        8
 66
     7
 43
1.0
 76
     1
 77
     6
 78
     2
 67
     7
 79
     3
170
     0
171
     0
290
     0
174
     0
 93
       13
 44
0.0
173
     0
291
     0
 45
0.0
  0
DICTIONARYVAR
  5
327
102
{ACAD_REACTORS
330
326
102
}
330
326
100
DictionaryVariables
280
     0
  1
1:1
  0
DICTIONARYVAR
  5
360
102
{ACAD_REACTORS
330
326
102
}
330
326
100
DictionaryVariables
280
     0
  1
Standard
  0
DICTIONARYVAR
  5
35F
102
{ACAD_REACTORS
330
326
102
}
330
326
100
DictionaryVariables
280
     0
  1
Standard
  0
DICTIONARYVAR
  5
328
102
{ACAD_REACTORS
330
326
102
}
330
326
100
DictionaryVariables
280
     0
  1
2
  0
DICTIONARY
  5
35C
330
6C
100
AcDbDictionary
280
     1
281
     1
  3
ACAD_XREC_ROUNDTRIP
360
35D
  0
DICTIONARY
  5
359
330
6A
100
AcDbDictionary
280
     1
281
     1
  3
ACAD_ROUNDTRIP_2008_TABLESTYLE_CELLSTYLEMAP
360
35A
  0
DICTIONARY
  5
331
330
2F
100
AcDbDictionary
280
     1
281
     1
  3
ACAD_XREC_ROUNDTRIP
360
332
  0
DICTIONARY
  5
337
330
32
100
AcDbDictionary
280
     1
281
     1
  3
ACAD_XREC_ROUNDTRIP
360
338
  0
DICTIONARY
  5
33F
330
36
100
AcDbDictionary
280
     1
281
     1
  3
ACAD_XREC_ROUNDTRIP
360
340
  0
DICTIONARY
  5
347
330
3A
100
AcDbDictionary
280
     1
281
     1
  3
ACAD_XREC_ROUNDTRIP
360
348
  0
DICTIONARY
  5
33B
330
34
100
AcDbDictionary
280
     1
281
     1
  3
ACAD_XREC_ROUNDTRIP
360
33C
  0
DICTIONARY
  5
33D
330
35
100
AcDbDictionary
280
     1
281
     1
  3
ACAD_XREC_ROUNDTRIP
360
33E
  0
DICTIONARY
  5
34D
330
3D
100
AcDbDictionary
280
     1
281
     1
  3
ACAD_XREC_ROUNDTRIP
360
34E
  0
DICTIONARY
  5
345
330
39
100
AcDbDictionary
280
     1
281
     1
  3
ACAD_XREC_ROUNDTRIP
360
346
  0
DICTIONARY
  5
329
330
2B
100
AcDbDictionary
280
     1
281
     1
  3
ACAD_XREC_ROUNDTRIP
360
32A
  0
DICTIONARY
  5
32B
330
2C
100
AcDbDictionary
280
     1
281
     1
  3
ACAD_XREC_ROUNDTRIP
360
32C
  0
DICTIONARY
  5
32D
330
2D
100
AcDbDictionary
280
     1
281
     1
  3
ACAD_XREC_ROUNDTRIP
360
32E
  0
DICTIONARY
  5
32F
330
2E
100
AcDbDictionary
280
     1
281
     1
  3
ACAD_XREC_ROUNDTRIP
360
330
  0
DICTIONARY
  5
335
330
31
100
AcDbDictionary
280
     1
281
     1
  3
ACAD_XREC_ROUNDTRIP
360
336
  0
DICTIONARY
  5
349
330
3B
100
AcDbDictionary
280
     1
281
     1
  3
ACAD_XREC_ROUNDTRIP
360
34A
  0
DICTIONARY
  5
343
330
38
100
AcDbDictionary
280
     1
281
     1
  3
ACAD_XREC_ROUNDTRIP
360
344
  0
DICTIONARY
  5
34B
330
3C
100
AcDbDictionary
280
     1
281
     1
  3
ACAD_XREC_ROUNDTRIP
360
34C
  0
DICTIONARY
  5
339
330
33
100
AcDbDictionary
280
     1
281
     1
  3
ACAD_XREC_ROUNDTRIP
360
33A
  0
DICTIONARY
  5
357
330
42
100
AcDbDictionary
280
     1
281
     1
  3
ACAD_XREC_ROUNDTRIP
360
358
  0
DICTIONARY
  5
355
330
41
100
AcDbDictionary
280
     1
281
     1
  3
ACAD_XREC_ROUNDTRIP
360
356
  0
DICTIONARY
  5
34F
330
3E
100
AcDbDictionary
280
     1
281
     1
  3
ACAD_XREC_ROUNDTRIP
360
350
  0
DICTIONARY
  5
351
330
3F
100
AcDbDictionary
280
     1
281
     1
  3
ACAD_XREC_ROUNDTRIP
360
352
  0
DICTIONARY
  5
341
330
37
100
AcDbDictionary
280
     1
281
     1
  3
ACAD_XREC_ROUNDTRIP
360
342
  0
DICTIONARY
  5
333
330
30
100
AcDbDictionary
280
     1
281
     1
  3
ACAD_XREC_ROUNDTRIP
360
334
  0
DICTIONARY
  5
353
330
40
100
AcDbDictionary
280
     1
281
     1
  3
ACAD_XREC_ROUNDTRIP
360
354
  0
XRECORD
  5
35D
102
{ACAD_REACTORS
330
35C
102
}
330
35C
100
AcDbXrecord
280
     1
102
ACAD_ROUNDTRIP_2010_MLEADER_STYLE
  0
CELLSTYLEMAP
  5
35A
102
{ACAD_REACTORS
330
359
102
}
330
359
100
AcDbCellStyleMap
 90
        3
300
CELLSTYLE
  1
TABLEFORMAT_BEGIN
 90
        5
170
     1
 91
        0
 92
    32768
 62
   257
 93
        1
300
CONTENTFORMAT
  1
CONTENTFORMAT_BEGIN
 90
        0
 91
        0
 92
        4
 93
        0
300

 40
0.0
140
1.0
 94
        5
 62
     0
340
11
144
6.0
309
CONTENTFORMAT_END
171
     1
301
MARGIN
  1
CELLMARGIN_BEGIN
 40
1.5
 40
1.5
 40
1.5
 40
1.5
 40
1.5
 40
1.5
309
CELLMARGIN_END
 94
        6
 95
        1
302
GRIDFORMAT
  1
GRIDFORMAT_BEGIN
 90
        0
 91
        1
 62
     0
 92
       -2
340
14
 93
        0
 40
0.045
309
GRIDFORMAT_END
 95
        2
302
GRIDFORMAT
  1
GRIDFORMAT_BEGIN
 90
        0
 91
        1
 62
     0
 92
       -2
340
14
 93
        0
 40
0.045
309
GRIDFORMAT_END
 95
        4
302
GRIDFORMAT
  1
GRIDFORMAT_BEGIN
 90
        0
 91
        1
 62
     0
 92
       -2
340
14
 93
        0
 40
0.045
309
GRIDFORMAT_END
 95
        8
302
GRIDFORMAT
  1
GRIDFORMAT_BEGIN
 90
        0
 91
        1
 62
     0
 92
       -2
340
14
 93
        0
 40
0.045
309
GRIDFORMAT_END
 95
       16
302
GRIDFORMAT
  1
GRIDFORMAT_BEGIN
 90
        0
 91
        1
 62
     0
 92
       -2
340
14
 93
        0
 40
0.045
309
GRIDFORMAT_END
 95
       32
302
GRIDFORMAT
  1
GRIDFORMAT_BEGIN
 90
        0
 91
        1
 62
     0
 92
       -2
340
14
 93
        0
 40
0.045
309
GRIDFORMAT_END
309
TABLEFORMAT_END
  1
CELLSTYLE_BEGIN
 90
        1
 91
        1
300
_TITLE
309
CELLSTYLE_END
300
CELLSTYLE
  1
TABLEFORMAT_BEGIN
 90
        5
170
     1
 91
        0
 92
        0
 62
   257
 93
        1
300
CONTENTFORMAT
  1
CONTENTFORMAT_BEGIN
 90
        0
 91
        0
 92
        4
 93
        0
300

 40
0.0
140
1.0
 94
        5
 62
     0
340
11
144
4.5
309
CONTENTFORMAT_END
171
     1
301
MARGIN
  1
CELLMARGIN_BEGIN
 40
1.5
 40
1.5
 40
1.5
 40
1.5
 40
1.5
 40
1.5
309
CELLMARGIN_END
 94
        6
 95
        1
302
GRIDFORMAT
  1
GRIDFORMAT_BEGIN
 90
        0
 91
        1
 62
     0
 92
       -2
340
14
 93
        0
 40
0.045
309
GRIDFORMAT_END
 95
        2
302
GRIDFORMAT
  1
GRIDFORMAT_BEGIN
 90
        0
 91
        1
 62
     0
 92
       -2
340
14
 93
        0
 40
0.045
309
GRIDFORMAT_END
 95
        4
302
GRIDFORMAT
  1
GRIDFORMAT_BEGIN
 90
        0
 91
        1
 62
     0
 92
       -2
340
14
 93
        0
 40
0.045
309
GRIDFORMAT_END
 95
        8
302
GRIDFORMAT
  1
GRIDFORMAT_BEGIN
 90
        0
 91
        1
 62
     0
 92
       -2
340
14
 93
        0
 40
0.045
309
GRIDFORMAT_END
 95
       16
302
GRIDFORMAT
  1
GRIDFORMAT_BEGIN
 90
        0
 91
        1
 62
     0
 92
       -2
340
14
 93
        0
 40
0.045
309
GRIDFORMAT_END
 95
       32
302
GRIDFORMAT
  1
GRIDFORMAT_BEGIN
 90
        0
 91
        1
 62
     0
 92
       -2
340
14
 93
        0
 40
0.045
309
GRIDFORMAT_END
309
TABLEFORMAT_END
  1
CELLSTYLE_BEGIN
 90
        2
 91
        1
300
_HEADER
309
CELLSTYLE_END
300
CELLSTYLE
  1
TABLEFORMAT_BEGIN
 90
        5
170
     1
 91
        0
 92
        0
 62
   257
 93
        1
300
CONTENTFORMAT
  1
CONTENTFORMAT_BEGIN
 90
        0
 91
        0
 92
        4
 93
        0
300

 40
0.0
140
1.0
 94
        2
 62
     0
340
11
144
4.5
309
CONTENTFORMAT_END
171
     1
301
MARGIN
  1
CELLMARGIN_BEGIN
 40
1.5
 40
1.5
 40
1.5
 40
1.5
 40
1.5
 40
1.5
309
CELLMARGIN_END
 94
        6
 95
        1
302
GRIDFORMAT
  1
GRIDFORMAT_BEGIN
 90
        0
 91
        1
 62
     0
 92
       -2
340
14
 93
        0
 40
0.045
309
GRIDFORMAT_END
 95
        2
302
GRIDFORMAT
  1
GRIDFORMAT_BEGIN
 90
        0
 91
        1
 62
     0
 92
       -2
340
14
 93
        0
 40
0.045
309
GRIDFORMAT_END
 95
        4
302
GRIDFORMAT
  1
GRIDFORMAT_BEGIN
 90
        0
 91
        1
 62
     0
 92
       -2
340
14
 93
        0
 40
0.045
309
GRIDFORMAT_END
 95
        8
302
GRIDFORMAT
  1
GRIDFORMAT_BEGIN
 90
        0
 91
        1
 62
     0
 92
       -2
340
14
 93
        0
 40
0.045
309
GRIDFORMAT_END
 95
       16
302
GRIDFORMAT
  1
GRIDFORMAT_BEGIN
 90
        0
 91
        1
 62
     0
 92
       -2
340
14
 93
        0
 40
0.045
309
GRIDFORMAT_END
 95
       32
302
GRIDFORMAT
  1
GRIDFORMAT_BEGIN
 90
        0
 91
        1
 62
     0
 92
       -2
340
14
 93
        0
 40
0.045
309
GRIDFORMAT_END
309
TABLEFORMAT_END
  1
CELLSTYLE_BEGIN
 90
        3
 91
        2
300
_DATA
309
CELLSTYLE_END
  0
XRECORD
  5
332
102
{ACAD_REACTORS
330
331
102
}
330
331
100
AcDbXrecord
280
     1
102
RTVSPropertyOp0
 70
     1
102
RTVSPropertyOp1
 70
     1
102
RTVSPropertyOp2
 70
     1
102
RTVSPropertyOp3
 70
     1
102
RTVSPropertyOp4
 70
     1
102
RTVSPropertyOp5
 70
     1
102
RTVSPropertyOp6
 70
     1
102
RTVSPropertyOp7
 70
     1
102
RTVSPropertyOp8
 70
     1
102
RTVSPropertyOp9
 70
     1
102
RTVSPropertyOp10
 70
     1
102
RTVSPropertyOp11
 70
     1
102
RTVSPropertyOp12
 70
     1
102
RTVSPropertyOp13
 70
     1
102
RTVSPropertyOp14
 70
     1
102
RTVSPropertyOp15
 70
     1
102
RTVSPropertyOp16
 70
     1
102
RTVSPropertyOp17
 70
     1
102
RTVSPropertyOp18
 70
     1
102
RTVSPropertyOp19
 70
     1
102
RTVSPropertyOp20
 70
     1
102
RTVSPropertyOp21
 70
     1
102
RTVSPropertyOp22
 70
     1
102
RTVSPropertyOp23
 70
     1
102
RTVSPropertyOp24
 70
     1
102
RTVSPropertyOp25
 70
     1
102
RTVSPropertyOp26
 70
     1
102
RTVSPropertyOp27
 70
     1
102
RTVSPropertyOp28
 70
     1
102
RTVSPropertyOp29
 70
     1
102
RTVSPropertyOp30
 70
     1
102
RTVSPropertyOp31
 70
     1
102
RTVSPropertyOp32
 70
     1
102
RTVSPropertyOp33
 70
     1
102
RTVSPropertyOp34
 70
     1
102
RTVSPropertyOp35
 70
     1
102
RTVSPropertyOp36
 70
     1
102
RTVSPropertyOp37
 70
     1
102
RTVSPropertyOp38
 70
     1
102
RTVSPropertyOp39
 70
     1
102
RTVSPropertyOp40
 70
     1
102
RTVSPropertyOp41
 70
     1
102
RTVSPropertyOp42
 70
     1
102
RTVSPropertyOp43
 70
     1
102
RTVSPropertyOp44
 70
     1
102
RTVSPropertyOp45
 70
     1
102
RTVSPropertyOp46
 70
     1
102
RTVSPropertyOp47
 70
     1
102
RTVSPropertyOp48
 70
     1
102
RTVSPropertyOp49
 70
     1
102
RTVSPropertyOp50
 70
     1
102
RTVSPropertyOp51
 70
     0
102
RTVSPropertyOp52
 70
     0
102
RTVSPropertyOp53
 70
     1
102
RTVSPropertyOp54
 70
     1
102
RTVSPropertyOp55
 70
     1
102
RTVSPropertyOp56
 70
     1
102
RTVSPropertyOp57
 70
     1
102
RTVSPost2010Prop28
280
     1
102
RTVSPost2010PropOp28
 70
     1
102
RTVSPost2010Prop29
280
     1
102
RTVSPost2010PropOp29
 70
     1
102
RTVSPost2010Prop30
280
     0
102
RTVSPost2010PropOp30
 70
     1
102
RTVSPost2010Prop31
280
     0
102
RTVSPost2010PropOp31
 70
     1
102
RTVSPost2010Prop32
280
     0
102
RTVSPost2010PropOp32
 70
     1
102
RTVSPost2010Prop33
280
     0
102
RTVSPost2010PropOp33
 70
     1
102
RTVSPost2010Prop34
280
     0
102
RTVSPost2010PropOp34
 70
     1
102
RTVSPost2010Prop35
280
     0
102
RTVSPost2010PropOp35
 70
     1
102
RTVSPost2010Prop36
280
     0
102
RTVSPost2010PropOp36
 70
     1
102
RTVSPost2010Prop37
 90
       50
102
RTVSPost2010PropOp37
 70
     1
102
RTVSPost2010Prop38
140
0.0
102
RTVSPost2010PropOp38
 70
     1
102
RTVSPost2010Prop39
140
1.0
102
RTVSPost2010PropOp39
 70
     1
102
RTVSPost2010Prop40
 90
        0
102
RTVSPost2010PropOp40
 70
     1
102
RTVSPost2010Prop41ColorIndex
 90
       18
102
RTVSPost2010Prop41ColorRGB
 90
        0
102
RTVSPost2010PropOp41
 70
     1
102
RTVSPost2010Prop42
 90
       50
102
RTVSPost2010PropOp42
 70
     1
102
RTVSPost2010Prop43
 90
        3
102
RTVSPost2010PropOp43
 70
     1
102
RTVSPost2010Prop44ColorIndex
 90
        5
102
RTVSPost2010Prop44ColorRGB
 90
      255
102
RTVSPost2010PropOp44
 70
     1
102
RTVSPost2010Prop45
280
     0
102
RTVSPost2010PropOp45
 70
     1
102
RTVSPost2010Prop46
 90
       50
102
RTVSPost2010PropOp46
 70
     1
102
RTVSPost2010Prop47
 90
       50
102
RTVSPost2010PropOp47
 70
     1
102
RTVSPost2010Prop48
 90
       50
102
RTVSPost2010PropOp48
 70
     1
102
RTVSPost2010Prop49
280
     0
102
RTVSPost2010PropOp49
 70
     1
102
RTVSPost2010Prop50
 90
       50
102
RTVSPost2010PropOp50
 70
     1
102
RTVSPost2010Prop51ColorIndex
 90
      256
102
RTVSPost2010Prop51ColorRGB
 90
-16777216
102
RTVSPost2010PropOp51
 70
     0
102
RTVSPost2010Prop52
140
1.0
102
RTVSPost2010PropOp52
 70
     0
102
RTVSPost2010Prop53
 90
        2
102
RTVSPost2010PropOp53
 70
     1
102
RTVSPost2010Prop54
  1
strokes_ogs.tif
102
RTVSPost2010PropOp54
 70
     1
102
RTVSPost2010Prop55
280
     0
102
RTVSPost2010PropOp55
 70
     1
102
RTVSPost2010Prop56
140
1.0
102
RTVSPost2010PropOp56
 70
     1
102
RTVSPost2010Prop57
140
1.0
102
RTVSPost2010PropOp57
 70
     1
  0
XRECORD
  5
338
102
{ACAD_REACTORS
330
337
102
}
330
337
100
AcDbXrecord
280
     1
102
RTVSPropertyOp0
 70
     1
102
RTVSPropertyOp1
 70
     1
102
RTVSPropertyOp2
 70
     1
102
RTVSPropertyOp3
 70
     1
102
RTVSPropertyOp4
 70
     1
102
RTVSPropertyOp5
 70
     1
102
RTVSPropertyOp6
 70
     1
102
RTVSPropertyOp7
 70
     1
102
RTVSPropertyOp8
 70
     1
102
RTVSPropertyOp9
 70
     1
102
RTVSPropertyOp10
 70
     1
102
RTVSPropertyOp11
 70
     1
102
RTVSPropertyOp12
 70
     1
102
RTVSPropertyOp13
 70
     1
102
RTVSPropertyOp14
 70
     1
102
RTVSPropertyOp15
 70
     1
102
RTVSPropertyOp16
 70
     1
102
RTVSPropertyOp17
 70
     1
102
RTVSPropertyOp18
 70
     1
102
RTVSPropertyOp19
 70
     1
102
RTVSPropertyOp20
 70
     1
102
RTVSPropertyOp21
 70
     1
102
RTVSPropertyOp22
 70
     1
102
RTVSPropertyOp23
 70
     1
102
RTVSPropertyOp24
 70
     1
102
RTVSPropertyOp25
 70
     1
102
RTVSPropertyOp26
 70
     1
102
RTVSPropertyOp27
 70
     1
102
RTVSPropertyOp28
 70
     1
102
RTVSPropertyOp29
 70
     1
102
RTVSPropertyOp30
 70
     1
102
RTVSPropertyOp31
 70
     1
102
RTVSPropertyOp32
 70
     1
102
RTVSPropertyOp33
 70
     1
102
RTVSPropertyOp34
 70
     1
102
RTVSPropertyOp35
 70
     1
102
RTVSPropertyOp36
 70
     1
102
RTVSPropertyOp37
 70
     1
102
RTVSPropertyOp38
 70
     1
102
RTVSPropertyOp39
 70
     1
102
RTVSPropertyOp40
 70
     1
102
RTVSPropertyOp41
 70
     1
102
RTVSPropertyOp42
 70
     1
102
RTVSPropertyOp43
 70
     1
102
RTVSPropertyOp44
 70
     1
102
RTVSPropertyOp45
 70
     1
102
RTVSPropertyOp46
 70
     1
102
RTVSPropertyOp47
 70
     1
102
RTVSPropertyOp48
 70
     1
102
RTVSPropertyOp49
 70
     1
102
RTVSPropertyOp50
 70
     1
102
RTVSPropertyOp51
 70
     0
102
RTVSPropertyOp52
 70
     0
102
RTVSPropertyOp53
 70
     1
102
RTVSPropertyOp54
 70
     1
102
RTVSPropertyOp55
 70
     1
102
RTVSPropertyOp56
 70
     1
102
RTVSPropertyOp57
 70
     1
102
RTVSPost2010Prop28
280
     0
102
RTVSPost2010PropOp28
 70
     1
102
RTVSPost2010Prop29
280
     1
102
RTVSPost2010PropOp29
 70
     1
102
RTVSPost2010Prop30
280
     1
102
RTVSPost2010PropOp30
 70
     1
102
RTVSPost2010Prop31
280
     0
102
RTVSPost2010PropOp31
 70
     1
102
RTVSPost2010Prop32
280
     0
102
RTVSPost2010PropOp32
 70
     1
102
RTVSPost2010Prop33
280
     0
102
RTVSPost2010PropOp33
 70
     1
102
RTVSPost2010Prop34
280
     0
102
RTVSPost2010PropOp34
 70
     1
102
RTVSPost2010Prop35
280
     0
102
RTVSPost2010PropOp35
 70
     1
102
RTVSPost2010Prop36
280
     0
102
RTVSPost2010PropOp36
 70
     1
102
RTVSPost2010Prop37
 90
       50
102
RTVSPost2010PropOp37
 70
     1
102
RTVSPost2010Prop38
140
0.0
102
RTVSPost2010PropOp38
 70
     1
102
RTVSPost2010Prop39
140
1.0
102
RTVSPost2010PropOp39
 70
     1
102
RTVSPost2010Prop40
 90
        0
102
RTVSPost2010PropOp40
 70
     1
102
RTVSPost2010Prop41ColorIndex
 90
       18
102
RTVSPost2010Prop41ColorRGB
 90
        0
102
RTVSPost2010PropOp41
 70
     1
102
RTVSPost2010Prop42
 90
       50
102
RTVSPost2010PropOp42
 70
     1
102
RTVSPost2010Prop43
 90
        3
102
RTVSPost2010PropOp43
 70
     1
102
RTVSPost2010Prop44ColorIndex
 90
        5
102
RTVSPost2010Prop44ColorRGB
 90
      255
102
RTVSPost2010PropOp44
 70
     1
102
RTVSPost2010Prop45
280
     0
102
RTVSPost2010PropOp45
 70
     1
102
RTVSPost2010Prop46
 90
       50
102
RTVSPost2010PropOp46
 70
     1
102
RTVSPost2010Prop47
 90
       50
102
RTVSPost2010PropOp47
 70
     1
102
RTVSPost2010Prop48
 90
       50
102
RTVSPost2010PropOp48
 70
     1
102
RTVSPost2010Prop49
280
     0
102
RTVSPost2010PropOp49
 70
     1
102
RTVSPost2010Prop50
 90
       50
102
RTVSPost2010PropOp50
 70
     1
102
RTVSPost2010Prop51ColorIndex
 90
      256
102
RTVSPost2010Prop51ColorRGB
 90
-16777216
102
RTVSPost2010PropOp51
 70
     0
102
RTVSPost2010Prop52
140
1.0
102
RTVSPost2010PropOp52
 70
     0
102
RTVSPost2010Prop53
 90
        2
102
RTVSPost2010PropOp53
 70
     1
102
RTVSPost2010Prop54
  1
strokes_ogs.tif
102
RTVSPost2010PropOp54
 70
     1
102
RTVSPost2010Prop55
280
     0
102
RTVSPost2010PropOp55
 70
     1
102
RTVSPost2010Prop56
140
1.0
102
RTVSPost2010PropOp56
 70
     1
102
RTVSPost2010Prop57
140
1.0
102
RTVSPost2010PropOp57
 70
     1
  0
XRECORD
  5
340
102
{ACAD_REACTORS
330
33F
102
}
330
33F
100
AcDbXrecord
280
     1
102
RTVSPropertyOp0
 70
     1
102
RTVSPropertyOp1
 70
     1
102
RTVSPropertyOp2
 70
     1
102
RTVSPropertyOp3
 70
     1
102
RTVSPropertyOp4
 70
     1
102
RTVSPropertyOp5
 70
     1
102
RTVSPropertyOp6
 70
     1
102
RTVSPropertyOp7
 70
     1
102
RTVSPropertyOp8
 70
     1
102
RTVSPropertyOp9
 70
     1
102
RTVSPropertyOp10
 70
     1
102
RTVSPropertyOp11
 70
     1
102
RTVSPropertyOp12
 70
     1
102
RTVSPropertyOp13
 70
     1
102
RTVSPropertyOp14
 70
     1
102
RTVSPropertyOp15
 70
     1
102
RTVSPropertyOp16
 70
     1
102
RTVSPropertyOp17
 70
     1
102
RTVSPropertyOp18
 70
     1
102
RTVSPropertyOp19
 70
     1
102
RTVSPropertyOp20
 70
     1
102
RTVSPropertyOp21
 70
     1
102
RTVSPropertyOp22
 70
     1
102
RTVSPropertyOp23
 70
     1
102
RTVSPropertyOp24
 70
     1
102
RTVSPropertyOp25
 70
     1
102
RTVSPropertyOp26
 70
     1
102
RTVSPropertyOp27
 70
     1
102
RTVSPropertyOp28
 70
     1
102
RTVSPropertyOp29
 70
     1
102
RTVSPropertyOp30
 70
     1
102
RTVSPropertyOp31
 70
     1
102
RTVSPropertyOp32
 70
     1
102
RTVSPropertyOp33
 70
     1
102
RTVSPropertyOp34
 70
     1
102
RTVSPropertyOp35
 70
     1
102
RTVSPropertyOp36
 70
     1
102
RTVSPropertyOp37
 70
     1
102
RTVSPropertyOp38
 70
     1
102
RTVSPropertyOp39
 70
     1
102
RTVSPropertyOp40
 70
     1
102
RTVSPropertyOp41
 70
     1
102
RTVSPropertyOp42
 70
     1
102
RTVSPropertyOp43
 70
     1
102
RTVSPropertyOp44
 70
     1
102
RTVSPropertyOp45
 70
     1
102
RTVSPropertyOp46
 70
     1
102
RTVSPropertyOp47
 70
     1
102
RTVSPropertyOp48
 70
     1
102
RTVSPropertyOp49
 70
     1
102
RTVSPropertyOp50
 70
     1
102
RTVSPropertyOp51
 70
     0
102
RTVSPropertyOp52
 70
     0
102
RTVSPropertyOp53
 70
     1
102
RTVSPropertyOp54
 70
     1
102
RTVSPropertyOp55
 70
     1
102
RTVSPropertyOp56
 70
     1
102
RTVSPropertyOp57
 70
     1
102
RTVSPost2010Prop28
280
     0
102
RTVSPost2010PropOp28
 70
     1
102
RTVSPost2010Prop29
280
     1
102
RTVSPost2010PropOp29
 70
     1
102
RTVSPost2010Prop30
280
     1
102
RTVSPost2010PropOp30
 70
     1
102
RTVSPost2010Prop31
280
     0
102
RTVSPost2010PropOp31
 70
     1
102
RTVSPost2010Prop32
280
     0
102
RTVSPost2010PropOp32
 70
     1
102
RTVSPost2010Prop33
280
     0
102
RTVSPost2010PropOp33
 70
     1
102
RTVSPost2010Prop34
280
     0
102
RTVSPost2010PropOp34
 70
     1
102
RTVSPost2010Prop35
280
     0
102
RTVSPost2010PropOp35
 70
     1
102
RTVSPost2010Prop36
280
     0
102
RTVSPost2010PropOp36
 70
     1
102
RTVSPost2010Prop37
 90
       50
102
RTVSPost2010PropOp37
 70
     1
102
RTVSPost2010Prop38
140
0.0
102
RTVSPost2010PropOp38
 70
     1
102
RTVSPost2010Prop39
140
1.0
102
RTVSPost2010PropOp39
 70
     1
102
RTVSPost2010Prop40
 90
        0
102
RTVSPost2010PropOp40
 70
     1
102
RTVSPost2010Prop41ColorIndex
 90
       18
102
RTVSPost2010Prop41ColorRGB
 90
        0
102
RTVSPost2010PropOp41
 70
     1
102
RTVSPost2010Prop42
 90
       50
102
RTVSPost2010PropOp42
 70
     1
102
RTVSPost2010Prop43
 90
        3
102
RTVSPost2010PropOp43
 70
     1
102
RTVSPost2010Prop44ColorIndex
 90
        5
102
RTVSPost2010Prop44ColorRGB
 90
      255
102
RTVSPost2010PropOp44
 70
     1
102
RTVSPost2010Prop45
280
     0
102
RTVSPost2010PropOp45
 70
     1
102
RTVSPost2010Prop46
 90
       50
102
RTVSPost2010PropOp46
 70
     1
102
RTVSPost2010Prop47
 90
       50
102
RTVSPost2010PropOp47
 70
     1
102
RTVSPost2010Prop48
 90
       50
102
RTVSPost2010PropOp48
 70
     1
102
RTVSPost2010Prop49
280
     0
102
RTVSPost2010PropOp49
 70
     1
102
RTVSPost2010Prop50
 90
       50
102
RTVSPost2010PropOp50
 70
     1
102
RTVSPost2010Prop51ColorIndex
 90
      256
102
RTVSPost2010Prop51ColorRGB
 90
-16777216
102
RTVSPost2010PropOp51
 70
     0
102
RTVSPost2010Prop52
140
1.0
102
RTVSPost2010PropOp52
 70
     0
102
RTVSPost2010Prop53
 90
        2
102
RTVSPost2010PropOp53
 70
     1
102
RTVSPost2010Prop54
  1
strokes_ogs.tif
102
RTVSPost2010PropOp54
 70
     1
102
RTVSPost2010Prop55
280
     0
102
RTVSPost2010PropOp55
 70
     1
102
RTVSPost2010Prop56
140
1.0
102
RTVSPost2010PropOp56
 70
     1
102
RTVSPost2010Prop57
140
1.0
102
RTVSPost2010PropOp57
 70
     1
  0
XRECORD
  5
348
102
{ACAD_REACTORS
330
347
102
}
330
347
100
AcDbXrecord
280
     1
102
RTVSPropertyOp0
 70
     1
102
RTVSPropertyOp1
 70
     1
102
RTVSPropertyOp2
 70
     1
102
RTVSPropertyOp3
 70
     1
102
RTVSPropertyOp4
 70
     1
102
RTVSPropertyOp5
 70
     1
102
RTVSPropertyOp6
 70
     1
102
RTVSPropertyOp7
 70
     1
102
RTVSPropertyOp8
 70
     1
102
RTVSPropertyOp9
 70
     1
102
RTVSPropertyOp10
 70
     1
102
RTVSPropertyOp11
 70
     1
102
RTVSPropertyOp12
 70
     1
102
RTVSPropertyOp13
 70
     1
102
RTVSPropertyOp14
 70
     1
102
RTVSPropertyOp15
 70
     1
102
RTVSPropertyOp16
 70
     1
102
RTVSPropertyOp17
 70
     1
102
RTVSPropertyOp18
 70
     1
102
RTVSPropertyOp19
 70
     1
102
RTVSPropertyOp20
 70
     1
102
RTVSPropertyOp21
 70
     1
102
RTVSPropertyOp22
 70
     1
102
RTVSPropertyOp23
 70
     1
102
RTVSPropertyOp24
 70
     1
102
RTVSPropertyOp25
 70
     1
102
RTVSPropertyOp26
 70
     1
102
RTVSPropertyOp27
 70
     1
102
RTVSPropertyOp28
 70
     1
102
RTVSPropertyOp29
 70
     1
102
RTVSPropertyOp30
 70
     1
102
RTVSPropertyOp31
 70
     1
102
RTVSPropertyOp32
 70
     1
102
RTVSPropertyOp33
 70
     1
102
RTVSPropertyOp34
 70
     1
102
RTVSPropertyOp35
 70
     1
102
RTVSPropertyOp36
 70
     1
102
RTVSPropertyOp37
 70
     1
102
RTVSPropertyOp38
 70
     1
102
RTVSPropertyOp39
 70
     1
102
RTVSPropertyOp40
 70
     1
102
RTVSPropertyOp41
 70
     1
102
RTVSPropertyOp42
 70
     1
102
RTVSPropertyOp43
 70
     1
102
RTVSPropertyOp44
 70
     1
102
RTVSPropertyOp45
 70
     1
102
RTVSPropertyOp46
 70
     1
102
RTVSPropertyOp47
 70
     1
102
RTVSPropertyOp48
 70
     1
102
RTVSPropertyOp49
 70
     1
102
RTVSPropertyOp50
 70
     1
102
RTVSPropertyOp51
 70
     0
102
RTVSPropertyOp52
 70
     0
102
RTVSPropertyOp53
 70
     1
102
RTVSPropertyOp54
 70
     1
102
RTVSPropertyOp55
 70
     1
102
RTVSPropertyOp56
 70
     1
102
RTVSPropertyOp57
 70
     1
102
RTVSPost2010Prop28
280
     0
102
RTVSPost2010PropOp28
 70
     1
102
RTVSPost2010Prop29
280
     1
102
RTVSPost2010PropOp29
 70
     1
102
RTVSPost2010Prop30
280
     1
102
RTVSPost2010PropOp30
 70
     1
102
RTVSPost2010Prop31
280
     0
102
RTVSPost2010PropOp31
 70
     1
102
RTVSPost2010Prop32
280
     0
102
RTVSPost2010PropOp32
 70
     1
102
RTVSPost2010Prop33
280
     0
102
RTVSPost2010PropOp33
 70
     1
102
RTVSPost2010Prop34
280
     0
102
RTVSPost2010PropOp34
 70
     1
102
RTVSPost2010Prop35
280
     0
102
RTVSPost2010PropOp35
 70
     1
102
RTVSPost2010Prop36
280
     0
102
RTVSPost2010PropOp36
 70
     1
102
RTVSPost2010Prop37
 90
       50
102
RTVSPost2010PropOp37
 70
     1
102
RTVSPost2010Prop38
140
0.0
102
RTVSPost2010PropOp38
 70
     1
102
RTVSPost2010Prop39
140
1.0
102
RTVSPost2010PropOp39
 70
     1
102
RTVSPost2010Prop40
 90
        0
102
RTVSPost2010PropOp40
 70
     1
102
RTVSPost2010Prop41ColorIndex
 90
       18
102
RTVSPost2010Prop41ColorRGB
 90
        0
102
RTVSPost2010PropOp41
 70
     1
102
RTVSPost2010Prop42
 90
       50
102
RTVSPost2010PropOp42
 70
     1
102
RTVSPost2010Prop43
 90
        3
102
RTVSPost2010PropOp43
 70
     1
102
RTVSPost2010Prop44ColorIndex
 90
        5
102
RTVSPost2010Prop44ColorRGB
 90
      255
102
RTVSPost2010PropOp44
 70
     1
102
RTVSPost2010Prop45
280
     0
102
RTVSPost2010PropOp45
 70
     1
102
RTVSPost2010Prop46
 90
       50
102
RTVSPost2010PropOp46
 70
     1
102
RTVSPost2010Prop47
 90
       50
102
RTVSPost2010PropOp47
 70
     1
102
RTVSPost2010Prop48
 90
       50
102
RTVSPost2010PropOp48
 70
     1
102
RTVSPost2010Prop49
280
     0
102
RTVSPost2010PropOp49
 70
     1
102
RTVSPost2010Prop50
 90
       50
102
RTVSPost2010PropOp50
 70
     1
102
RTVSPost2010Prop51ColorIndex
 90
      256
102
RTVSPost2010Prop51ColorRGB
 90
-16777216
102
RTVSPost2010PropOp51
 70
     0
102
RTVSPost2010Prop52
140
1.0
102
RTVSPost2010PropOp52
 70
     0
102
RTVSPost2010Prop53
 90
        2
102
RTVSPost2010PropOp53
 70
     1
102
RTVSPost2010Prop54
  1
strokes_ogs.tif
102
RTVSPost2010PropOp54
 70
     1
102
RTVSPost2010Prop55
280
     0
102
RTVSPost2010PropOp55
 70
     1
102
RTVSPost2010Prop56
140
1.0
102
RTVSPost2010PropOp56
 70
     1
102
RTVSPost2010Prop57
140
1.0
102
RTVSPost2010PropOp57
 70
     1
  0
XRECORD
  5
33C
102
{ACAD_REACTORS
330
33B
102
}
330
33B
100
AcDbXrecord
280
     1
102
RTVSPropertyOp0
 70
     1
102
RTVSPropertyOp1
 70
     1
102
RTVSPropertyOp2
 70
     1
102
RTVSPropertyOp3
 70
     1
102
RTVSPropertyOp4
 70
     1
102
RTVSPropertyOp5
 70
     1
102
RTVSPropertyOp6
 70
     1
102
RTVSPropertyOp7
 70
     1
102
RTVSPropertyOp8
 70
     1
102
RTVSPropertyOp9
 70
     1
102
RTVSPropertyOp10
 70
     1
102
RTVSPropertyOp11
 70
     1
102
RTVSPropertyOp12
 70
     1
102
RTVSPropertyOp13
 70
     1
102
RTVSPropertyOp14
 70
     1
102
RTVSPropertyOp15
 70
     1
102
RTVSPropertyOp16
 70
     1
102
RTVSPropertyOp17
 70
     1
102
RTVSPropertyOp18
 70
     1
102
RTVSPropertyOp19
 70
     1
102
RTVSPropertyOp20
 70
     1
102
RTVSPropertyOp21
 70
     1
102
RTVSPropertyOp22
 70
     1
102
RTVSPropertyOp23
 70
     1
102
RTVSPropertyOp24
 70
     1
102
RTVSPropertyOp25
 70
     1
102
RTVSPropertyOp26
 70
     1
102
RTVSPropertyOp27
 70
     1
102
RTVSPropertyOp28
 70
     1
102
RTVSPropertyOp29
 70
     1
102
RTVSPropertyOp30
 70
     1
102
RTVSPropertyOp31
 70
     1
102
RTVSPropertyOp32
 70
     1
102
RTVSPropertyOp33
 70
     1
102
RTVSPropertyOp34
 70
     1
102
RTVSPropertyOp35
 70
     1
102
RTVSPropertyOp36
 70
     1
102
RTVSPropertyOp37
 70
     1
102
RTVSPropertyOp38
 70
     1
102
RTVSPropertyOp39
 70
     1
102
RTVSPropertyOp40
 70
     1
102
RTVSPropertyOp41
 70
     1
102
RTVSPropertyOp42
 70
     1
102
RTVSPropertyOp43
 70
     1
102
RTVSPropertyOp44
 70
     1
102
RTVSPropertyOp45
 70
     1
102
RTVSPropertyOp46
 70
     1
102
RTVSPropertyOp47
 70
     1
102
RTVSPropertyOp48
 70
     1
102
RTVSPropertyOp49
 70
     1
102
RTVSPropertyOp50
 70
     1
102
RTVSPropertyOp51
 70
     0
102
RTVSPropertyOp52
 70
     0
102
RTVSPropertyOp53
 70
     1
102
RTVSPropertyOp54
 70
     1
102
RTVSPropertyOp55
 70
     1
102
RTVSPropertyOp56
 70
     1
102
RTVSPropertyOp57
 70
     1
102
RTVSPost2010Prop28
280
     0
102
RTVSPost2010PropOp28
 70
     1
102
RTVSPost2010Prop29
280
     1
102
RTVSPost2010PropOp29
 70
     1
102
RTVSPost2010Prop30
280
     1
102
RTVSPost2010PropOp30
 70
     1
102
RTVSPost2010Prop31
280
     0
102
RTVSPost2010PropOp31
 70
     1
102
RTVSPost2010Prop32
280
     0
102
RTVSPost2010PropOp32
 70
     1
102
RTVSPost2010Prop33
280
     0
102
RTVSPost2010PropOp33
 70
     1
102
RTVSPost2010Prop34
280
     0
102
RTVSPost2010PropOp34
 70
     1
102
RTVSPost2010Prop35
280
     0
102
RTVSPost2010PropOp35
 70
     1
102
RTVSPost2010Prop36
280
     0
102
RTVSPost2010PropOp36
 70
     1
102
RTVSPost2010Prop37
 90
       50
102
RTVSPost2010PropOp37
 70
     1
102
RTVSPost2010Prop38
140
0.0
102
RTVSPost2010PropOp38
 70
     1
102
RTVSPost2010Prop39
140
1.0
102
RTVSPost2010PropOp39
 70
     1
102
RTVSPost2010Prop40
 90
        0
102
RTVSPost2010PropOp40
 70
     1
102
RTVSPost2010Prop41ColorIndex
 90
       18
102
RTVSPost2010Prop41ColorRGB
 90
        0
102
RTVSPost2010PropOp41
 70
     1
102
RTVSPost2010Prop42
 90
       50
102
RTVSPost2010PropOp42
 70
     1
102
RTVSPost2010Prop43
 90
        3
102
RTVSPost2010PropOp43
 70
     1
102
RTVSPost2010Prop44ColorIndex
 90
        5
102
RTVSPost2010Prop44ColorRGB
 90
      255
102
RTVSPost2010PropOp44
 70
     1
102
RTVSPost2010Prop45
280
     0
102
RTVSPost2010PropOp45
 70
     1
102
RTVSPost2010Prop46
 90
       50
102
RTVSPost2010PropOp46
 70
     1
102
RTVSPost2010Prop47
 90
       50
102
RTVSPost2010PropOp47
 70
     1
102
RTVSPost2010Prop48
 90
       50
102
RTVSPost2010PropOp48
 70
     1
102
RTVSPost2010Prop49
280
     0
102
RTVSPost2010PropOp49
 70
     1
102
RTVSPost2010Prop50
 90
       50
102
RTVSPost2010PropOp50
 70
     1
102
RTVSPost2010Prop51ColorIndex
 90
      256
102
RTVSPost2010Prop51ColorRGB
 90
-16777216
102
RTVSPost2010PropOp51
 70
     0
102
RTVSPost2010Prop52
140
1.0
102
RTVSPost2010PropOp52
 70
     0
102
RTVSPost2010Prop53
 90
        2
102
RTVSPost2010PropOp53
 70
     1
102
RTVSPost2010Prop54
  1
strokes_ogs.tif
102
RTVSPost2010PropOp54
 70
     1
102
RTVSPost2010Prop55
280
     0
102
RTVSPost2010PropOp55
 70
     1
102
RTVSPost2010Prop56
140
1.0
102
RTVSPost2010PropOp56
 70
     1
102
RTVSPost2010Prop57
140
1.0
102
RTVSPost2010PropOp57
 70
     1
  0
XRECORD
  5
33E
102
{ACAD_REACTORS
330
33D
102
}
330
33D
100
AcDbXrecord
280
     1
102
RTVSPropertyOp0
 70
     1
102
RTVSPropertyOp1
 70
     1
102
RTVSPropertyOp2
 70
     1
102
RTVSPropertyOp3
 70
     1
102
RTVSPropertyOp4
 70
     1
102
RTVSPropertyOp5
 70
     1
102
RTVSPropertyOp6
 70
     1
102
RTVSPropertyOp7
 70
     1
102
RTVSPropertyOp8
 70
     1
102
RTVSPropertyOp9
 70
     1
102
RTVSPropertyOp10
 70
     1
102
RTVSPropertyOp11
 70
     1
102
RTVSPropertyOp12
 70
     1
102
RTVSPropertyOp13
 70
     1
102
RTVSPropertyOp14
 70
     1
102
RTVSPropertyOp15
 70
     1
102
RTVSPropertyOp16
 70
     1
102
RTVSPropertyOp17
 70
     1
102
RTVSPropertyOp18
 70
     1
102
RTVSPropertyOp19
 70
     1
102
RTVSPropertyOp20
 70
     1
102
RTVSPropertyOp21
 70
     1
102
RTVSPropertyOp22
 70
     1
102
RTVSPropertyOp23
 70
     1
102
RTVSPropertyOp24
 70
     1
102
RTVSPropertyOp25
 70
     1
102
RTVSPropertyOp26
 70
     1
102
RTVSPropertyOp27
 70
     1
102
RTVSPropertyOp28
 70
     1
102
RTVSPropertyOp29
 70
     1
102
RTVSPropertyOp30
 70
     1
102
RTVSPropertyOp31
 70
     1
102
RTVSPropertyOp32
 70
     1
102
RTVSPropertyOp33
 70
     1
102
RTVSPropertyOp34
 70
     1
102
RTVSPropertyOp35
 70
     1
102
RTVSPropertyOp36
 70
     1
102
RTVSPropertyOp37
 70
     1
102
RTVSPropertyOp38
 70
     1
102
RTVSPropertyOp39
 70
     1
102
RTVSPropertyOp40
 70
     1
102
RTVSPropertyOp41
 70
     1
102
RTVSPropertyOp42
 70
     1
102
RTVSPropertyOp43
 70
     1
102
RTVSPropertyOp44
 70
     1
102
RTVSPropertyOp45
 70
     1
102
RTVSPropertyOp46
 70
     1
102
RTVSPropertyOp47
 70
     1
102
RTVSPropertyOp48
 70
     1
102
RTVSPropertyOp49
 70
     1
102
RTVSPropertyOp50
 70
     1
102
RTVSPropertyOp51
 70
     0
102
RTVSPropertyOp52
 70
     0
102
RTVSPropertyOp53
 70
     1
102
RTVSPropertyOp54
 70
     1
102
RTVSPropertyOp55
 70
     1
102
RTVSPropertyOp56
 70
     1
102
RTVSPropertyOp57
 70
     1
102
RTVSPost2010Prop28
280
     0
102
RTVSPost2010PropOp28
 70
     1
102
RTVSPost2010Prop29
280
     1
102
RTVSPost2010PropOp29
 70
     1
102
RTVSPost2010Prop30
280
     1
102
RTVSPost2010PropOp30
 70
     1
102
RTVSPost2010Prop31
280
     0
102
RTVSPost2010PropOp31
 70
     1
102
RTVSPost2010Prop32
280
     0
102
RTVSPost2010PropOp32
 70
     1
102
RTVSPost2010Prop33
280
     0
102
RTVSPost2010PropOp33
 70
     1
102
RTVSPost2010Prop34
280
     0
102
RTVSPost2010PropOp34
 70
     1
102
RTVSPost2010Prop35
280
     0
102
RTVSPost2010PropOp35
 70
     1
102
RTVSPost2010Prop36
280
     0
102
RTVSPost2010PropOp36
 70
     1
102
RTVSPost2010Prop37
 90
       50
102
RTVSPost2010PropOp37
 70
     1
102
RTVSPost2010Prop38
140
0.0
102
RTVSPost2010PropOp38
 70
     1
102
RTVSPost2010Prop39
140
1.0
102
RTVSPost2010PropOp39
 70
     1
102
RTVSPost2010Prop40
 90
        0
102
RTVSPost2010PropOp40
 70
     1
102
RTVSPost2010Prop41ColorIndex
 90
       18
102
RTVSPost2010Prop41ColorRGB
 90
        0
102
RTVSPost2010PropOp41
 70
     1
102
RTVSPost2010Prop42
 90
       50
102
RTVSPost2010PropOp42
 70
     1
102
RTVSPost2010Prop43
 90
        3
102
RTVSPost2010PropOp43
 70
     1
102
RTVSPost2010Prop44ColorIndex
 90
        5
102
RTVSPost2010Prop44ColorRGB
 90
      255
102
RTVSPost2010PropOp44
 70
     1
102
RTVSPost2010Prop45
280
     0
102
RTVSPost2010PropOp45
 70
     1
102
RTVSPost2010Prop46
 90
       50
102
RTVSPost2010PropOp46
 70
     1
102
RTVSPost2010Prop47
 90
       50
102
RTVSPost2010PropOp47
 70
     1
102
RTVSPost2010Prop48
 90
       50
102
RTVSPost2010PropOp48
 70
     1
102
RTVSPost2010Prop49
280
     0
102
RTVSPost2010PropOp49
 70
     1
102
RTVSPost2010Prop50
 90
       50
102
RTVSPost2010PropOp50
 70
     1
102
RTVSPost2010Prop51ColorIndex
 90
      256
102
RTVSPost2010Prop51ColorRGB
 90
-16777216
102
RTVSPost2010PropOp51
 70
     0
102
RTVSPost2010Prop52
140
1.0
102
RTVSPost2010PropOp52
 70
     0
102
RTVSPost2010Prop53
 90
        2
102
RTVSPost2010PropOp53
 70
     1
102
RTVSPost2010Prop54
  1
strokes_ogs.tif
102
RTVSPost2010PropOp54
 70
     1
102
RTVSPost2010Prop55
280
     0
102
RTVSPost2010PropOp55
 70
     1
102
RTVSPost2010Prop56
140
1.0
102
RTVSPost2010PropOp56
 70
     1
102
RTVSPost2010Prop57
140
1.0
102
RTVSPost2010PropOp57
 70
     1
  0
XRECORD
  5
34E
102
{ACAD_REACTORS
330
34D
102
}
330
34D
100
AcDbXrecord
280
     1
102
RTVSPropertyOp0
 70
     0
102
RTVSPropertyOp1
 70
     0
102
RTVSPropertyOp2
 70
     0
102
RTVSPropertyOp3
 70
     0
102
RTVSPropertyOp4
 70
     0
102
RTVSPropertyOp5
 70
     0
102
RTVSPropertyOp6
 70
     0
102
RTVSPropertyOp7
 70
     0
102
RTVSPropertyOp8
 70
     0
102
RTVSPropertyOp9
 70
     0
102
RTVSPropertyOp10
 70
     0
102
RTVSPropertyOp11
 70
     0
102
RTVSPropertyOp12
 70
     0
102
RTVSPropertyOp13
 70
     0
102
RTVSPropertyOp14
 70
     2
102
RTVSPropertyOp15
 70
     0
102
RTVSPropertyOp16
 70
     0
102
RTVSPropertyOp17
 70
     0
102
RTVSPropertyOp18
 70
     0
102
RTVSPropertyOp19
 70
     0
102
RTVSPropertyOp20
 70
     0
102
RTVSPropertyOp21
 70
     0
102
RTVSPropertyOp22
 70
     0
102
RTVSPropertyOp23
 70
     0
102
RTVSPropertyOp24
 70
     0
102
RTVSPropertyOp25
 70
     0
102
RTVSPropertyOp26
 70
     0
102
RTVSPropertyOp27
 70
     0
102
RTVSPropertyOp28
 70
     0
102
RTVSPropertyOp29
 70
     0
102
RTVSPropertyOp30
 70
     0
102
RTVSPropertyOp31
 70
     0
102
RTVSPropertyOp32
 70
     0
102
RTVSPropertyOp33
 70
     0
102
RTVSPropertyOp34
 70
     0
102
RTVSPropertyOp35
 70
     0
102
RTVSPropertyOp36
 70
     0
102
RTVSPropertyOp37
 70
     0
102
RTVSPropertyOp38
 70
     0
102
RTVSPropertyOp39
 70
     0
102
RTVSPropertyOp40
 70
     0
102
RTVSPropertyOp41
 70
     0
102
RTVSPropertyOp42
 70
     0
102
RTVSPropertyOp43
 70
     0
102
RTVSPropertyOp44
 70
     0
102
RTVSPropertyOp45
 70
     0
102
RTVSPropertyOp46
 70
     0
102
RTVSPropertyOp47
 70
     0
102
RTVSPropertyOp48
 70
     0
102
RTVSPropertyOp49
 70
     0
102
RTVSPropertyOp50
 70
     0
102
RTVSPropertyOp51
 70
     0
102
RTVSPropertyOp52
 70
     0
102
RTVSPropertyOp53
 70
     0
102
RTVSPropertyOp54
 70
     0
102
RTVSPropertyOp55
 70
     0
102
RTVSPropertyOp56
 70
     0
102
RTVSPropertyOp57
 70
     0
102
RTVSPost2010Prop28
280
     0
102
RTVSPost2010PropOp28
 70
     0
102
RTVSPost2010Prop29
280
     1
102
RTVSPost2010PropOp29
 70
     0
102
RTVSPost2010Prop30
280
     1
102
RTVSPost2010PropOp30
 70
     0
102
RTVSPost2010Prop31
280
     0
102
RTVSPost2010PropOp31
 70
     0
102
RTVSPost2010Prop32
280
     0
102
RTVSPost2010PropOp32
 70
     0
102
RTVSPost2010Prop33
280
     0
102
RTVSPost2010PropOp33
 70
     0
102
RTVSPost2010Prop34
280
     0
102
RTVSPost2010PropOp34
 70
     0
102
RTVSPost2010Prop35
280
     0
102
RTVSPost2010PropOp35
 70
     0
102
RTVSPost2010Prop36
280
     0
102
RTVSPost2010PropOp36
 70
     0
102
RTVSPost2010Prop37
 90
       50
102
RTVSPost2010PropOp37
 70
     0
102
RTVSPost2010Prop38
140
0.0
102
RTVSPost2010PropOp38
 70
     0
102
RTVSPost2010Prop39
140
1.0
102
RTVSPost2010PropOp39
 70
     0
102
RTVSPost2010Prop40
 90
        0
102
RTVSPost2010PropOp40
 70
     0
102
RTVSPost2010Prop41ColorIndex
 90
       18
102
RTVSPost2010Prop41ColorRGB
 90
        0
102
RTVSPost2010PropOp41
 70
     0
102
RTVSPost2010Prop42
 90
       50
102
RTVSPost2010PropOp42
 70
     0
102
RTVSPost2010Prop43
 90
        3
102
RTVSPost2010PropOp43
 70
     0
102
RTVSPost2010Prop44ColorIndex
 90
        5
102
RTVSPost2010Prop44ColorRGB
 90
      255
102
RTVSPost2010PropOp44
 70
     0
102
RTVSPost2010Prop45
280
     0
102
RTVSPost2010PropOp45
 70
     0
102
RTVSPost2010Prop46
 90
       50
102
RTVSPost2010PropOp46
 70
     0
102
RTVSPost2010Prop47
 90
       50
102
RTVSPost2010PropOp47
 70
     0
102
RTVSPost2010Prop48
 90
       50
102
RTVSPost2010PropOp48
 70
     0
102
RTVSPost2010Prop49
280
     0
102
RTVSPost2010PropOp49
 70
     0
102
RTVSPost2010Prop50
 90
       50
102
RTVSPost2010PropOp50
 70
     0
102
RTVSPost2010Prop51ColorIndex
 90
      256
102
RTVSPost2010Prop51ColorRGB
 90
-16777216
102
RTVSPost2010PropOp51
 70
     0
102
RTVSPost2010Prop52
140
1.0
102
RTVSPost2010PropOp52
 70
     0
102
RTVSPost2010Prop53
 90
        2
102
RTVSPost2010PropOp53
 70
     0
102
RTVSPost2010Prop54
  1
strokes_ogs.tif
102
RTVSPost2010PropOp54
 70
     0
102
RTVSPost2010Prop55
280
     0
102
RTVSPost2010PropOp55
 70
     0
102
RTVSPost2010Prop56
140
1.0
102
RTVSPost2010PropOp56
 70
     0
102
RTVSPost2010Prop57
140
1.0
102
RTVSPost2010PropOp57
 70
     0
  0
XRECORD
  5
346
102
{ACAD_REACTORS
330
345
102
}
330
345
100
AcDbXrecord
280
     1
102
RTVSPropertyOp0
 70
     1
102
RTVSPropertyOp1
 70
     1
102
RTVSPropertyOp2
 70
     1
102
RTVSPropertyOp3
 70
     1
102
RTVSPropertyOp4
 70
     1
102
RTVSPropertyOp5
 70
     1
102
RTVSPropertyOp6
 70
     1
102
RTVSPropertyOp7
 70
     1
102
RTVSPropertyOp8
 70
     1
102
RTVSPropertyOp9
 70
     1
102
RTVSPropertyOp10
 70
     1
102
RTVSPropertyOp11
 70
     1
102
RTVSPropertyOp12
 70
     1
102
RTVSPropertyOp13
 70
     1
102
RTVSPropertyOp14
 70
     1
102
RTVSPropertyOp15
 70
     1
102
RTVSPropertyOp16
 70
     1
102
RTVSPropertyOp17
 70
     1
102
RTVSPropertyOp18
 70
     1
102
RTVSPropertyOp19
 70
     1
102
RTVSPropertyOp20
 70
     1
102
RTVSPropertyOp21
 70
     1
102
RTVSPropertyOp22
 70
     1
102
RTVSPropertyOp23
 70
     1
102
RTVSPropertyOp24
 70
     1
102
RTVSPropertyOp25
 70
     1
102
RTVSPropertyOp26
 70
     1
102
RTVSPropertyOp27
 70
     1
102
RTVSPropertyOp28
 70
     1
102
RTVSPropertyOp29
 70
     1
102
RTVSPropertyOp30
 70
     1
102
RTVSPropertyOp31
 70
     1
102
RTVSPropertyOp32
 70
     1
102
RTVSPropertyOp33
 70
     1
102
RTVSPropertyOp34
 70
     1
102
RTVSPropertyOp35
 70
     1
102
RTVSPropertyOp36
 70
     1
102
RTVSPropertyOp37
 70
     1
102
RTVSPropertyOp38
 70
     1
102
RTVSPropertyOp39
 70
     1
102
RTVSPropertyOp40
 70
     1
102
RTVSPropertyOp41
 70
     1
102
RTVSPropertyOp42
 70
     1
102
RTVSPropertyOp43
 70
     1
102
RTVSPropertyOp44
 70
     1
102
RTVSPropertyOp45
 70
     1
102
RTVSPropertyOp46
 70
     1
102
RTVSPropertyOp47
 70
     1
102
RTVSPropertyOp48
 70
     1
102
RTVSPropertyOp49
 70
     1
102
RTVSPropertyOp50
 70
     1
102
RTVSPropertyOp51
 70
     0
102
RTVSPropertyOp52
 70
     0
102
RTVSPropertyOp53
 70
     1
102
RTVSPropertyOp54
 70
     1
102
RTVSPropertyOp55
 70
     1
102
RTVSPropertyOp56
 70
     1
102
RTVSPropertyOp57
 70
     1
102
RTVSPost2010Prop28
280
     0
102
RTVSPost2010PropOp28
 70
     1
102
RTVSPost2010Prop29
280
     1
102
RTVSPost2010PropOp29
 70
     1
102
RTVSPost2010Prop30
280
     1
102
RTVSPost2010PropOp30
 70
     1
102
RTVSPost2010Prop31
280
     0
102
RTVSPost2010PropOp31
 70
     1
102
RTVSPost2010Prop32
280
     0
102
RTVSPost2010PropOp32
 70
     1
102
RTVSPost2010Prop33
280
     0
102
RTVSPost2010PropOp33
 70
     1
102
RTVSPost2010Prop34
280
     0
102
RTVSPost2010PropOp34
 70
     1
102
RTVSPost2010Prop35
280
     0
102
RTVSPost2010PropOp35
 70
     1
102
RTVSPost2010Prop36
280
     0
102
RTVSPost2010PropOp36
 70
     1
102
RTVSPost2010Prop37
 90
       50
102
RTVSPost2010PropOp37
 70
     1
102
RTVSPost2010Prop38
140
0.0
102
RTVSPost2010PropOp38
 70
     1
102
RTVSPost2010Prop39
140
1.0
102
RTVSPost2010PropOp39
 70
     1
102
RTVSPost2010Prop40
 90
        0
102
RTVSPost2010PropOp40
 70
     1
102
RTVSPost2010Prop41ColorIndex
 90
       18
102
RTVSPost2010Prop41ColorRGB
 90
        0
102
RTVSPost2010PropOp41
 70
     1
102
RTVSPost2010Prop42
 90
       50
102
RTVSPost2010PropOp42
 70
     1
102
RTVSPost2010Prop43
 90
        3
102
RTVSPost2010PropOp43
 70
     1
102
RTVSPost2010Prop44ColorIndex
 90
        5
102
RTVSPost2010Prop44ColorRGB
 90
      255
102
RTVSPost2010PropOp44
 70
     1
102
RTVSPost2010Prop45
280
     0
102
RTVSPost2010PropOp45
 70
     1
102
RTVSPost2010Prop46
 90
       50
102
RTVSPost2010PropOp46
 70
     1
102
RTVSPost2010Prop47
 90
       50
102
RTVSPost2010PropOp47
 70
     1
102
RTVSPost2010Prop48
 90
       50
102
RTVSPost2010PropOp48
 70
     1
102
RTVSPost2010Prop49
280
     0
102
RTVSPost2010PropOp49
 70
     1
102
RTVSPost2010Prop50
 90
       50
102
RTVSPost2010PropOp50
 70
     1
102
RTVSPost2010Prop51ColorIndex
 90
      256
102
RTVSPost2010Prop51ColorRGB
 90
-16777216
102
RTVSPost2010PropOp51
 70
     0
102
RTVSPost2010Prop52
140
1.0
102
RTVSPost2010PropOp52
 70
     0
102
RTVSPost2010Prop53
 90
        2
102
RTVSPost2010PropOp53
 70
     1
102
RTVSPost2010Prop54
  1
strokes_ogs.tif
102
RTVSPost2010PropOp54
 70
     1
102
RTVSPost2010Prop55
280
     0
102
RTVSPost2010PropOp55
 70
     1
102
RTVSPost2010Prop56
140
1.0
102
RTVSPost2010PropOp56
 70
     1
102
RTVSPost2010Prop57
140
1.0
102
RTVSPost2010PropOp57
 70
     1
  0
XRECORD
  5
32A
102
{ACAD_REACTORS
330
329
102
}
330
329
100
AcDbXrecord
280
     1
102
RTVSPropertyOp0
 70
     1
102
RTVSPropertyOp1
 70
     1
102
RTVSPropertyOp2
 70
     1
102
RTVSPropertyOp3
 70
     1
102
RTVSPropertyOp4
 70
     1
102
RTVSPropertyOp5
 70
     1
102
RTVSPropertyOp6
 70
     1
102
RTVSPropertyOp7
 70
     1
102
RTVSPropertyOp8
 70
     1
102
RTVSPropertyOp9
 70
     1
102
RTVSPropertyOp10
 70
     1
102
RTVSPropertyOp11
 70
     1
102
RTVSPropertyOp12
 70
     1
102
RTVSPropertyOp13
 70
     1
102
RTVSPropertyOp14
 70
     1
102
RTVSPropertyOp15
 70
     1
102
RTVSPropertyOp16
 70
     1
102
RTVSPropertyOp17
 70
     1
102
RTVSPropertyOp18
 70
     1
102
RTVSPropertyOp19
 70
     1
102
RTVSPropertyOp20
 70
     1
102
RTVSPropertyOp21
 70
     1
102
RTVSPropertyOp22
 70
     1
102
RTVSPropertyOp23
 70
     1
102
RTVSPropertyOp24
 70
     1
102
RTVSPropertyOp25
 70
     1
102
RTVSPropertyOp26
 70
     1
102
RTVSPropertyOp27
 70
     1
102
RTVSPropertyOp28
 70
     1
102
RTVSPropertyOp29
 70
     1
102
RTVSPropertyOp30
 70
     1
102
RTVSPropertyOp31
 70
     1
102
RTVSPropertyOp32
 70
     1
102
RTVSPropertyOp33
 70
     1
102
RTVSPropertyOp34
 70
     1
102
RTVSPropertyOp35
 70
     1
102
RTVSPropertyOp36
 70
     1
102
RTVSPropertyOp37
 70
     1
102
RTVSPropertyOp38
 70
     1
102
RTVSPropertyOp39
 70
     1
102
RTVSPropertyOp40
 70
     1
102
RTVSPropertyOp41
 70
     1
102
RTVSPropertyOp42
 70
     1
102
RTVSPropertyOp43
 70
     1
102
RTVSPropertyOp44
 70
     1
102
RTVSPropertyOp45
 70
     1
102
RTVSPropertyOp46
 70
     1
102
RTVSPropertyOp47
 70
     1
102
RTVSPropertyOp48
 70
     1
102
RTVSPropertyOp49
 70
     1
102
RTVSPropertyOp50
 70
     1
102
RTVSPropertyOp51
 70
     0
102
RTVSPropertyOp52
 70
     0
102
RTVSPropertyOp53
 70
     1
102
RTVSPropertyOp54
 70
     1
102
RTVSPropertyOp55
 70
     1
102
RTVSPropertyOp56
 70
     1
102
RTVSPropertyOp57
 70
     1
102
RTVSPost2010Prop28
280
     0
102
RTVSPost2010PropOp28
 70
     1
102
RTVSPost2010Prop29
280
     1
102
RTVSPost2010PropOp29
 70
     1
102
RTVSPost2010Prop30
280
     1
102
RTVSPost2010PropOp30
 70
     1
102
RTVSPost2010Prop31
280
     0
102
RTVSPost2010PropOp31
 70
     1
102
RTVSPost2010Prop32
280
     0
102
RTVSPost2010PropOp32
 70
     1
102
RTVSPost2010Prop33
280
     0
102
RTVSPost2010PropOp33
 70
     1
102
RTVSPost2010Prop34
280
     0
102
RTVSPost2010PropOp34
 70
     1
102
RTVSPost2010Prop35
280
     0
102
RTVSPost2010PropOp35
 70
     1
102
RTVSPost2010Prop36
280
     0
102
RTVSPost2010PropOp36
 70
     1
102
RTVSPost2010Prop37
 90
       50
102
RTVSPost2010PropOp37
 70
     1
102
RTVSPost2010Prop38
140
0.0
102
RTVSPost2010PropOp38
 70
     1
102
RTVSPost2010Prop39
140
1.0
102
RTVSPost2010PropOp39
 70
     1
102
RTVSPost2010Prop40
 90
        0
102
RTVSPost2010PropOp40
 70
     1
102
RTVSPost2010Prop41ColorIndex
 90
       18
102
RTVSPost2010Prop41ColorRGB
 90
        0
102
RTVSPost2010PropOp41
 70
     1
102
RTVSPost2010Prop42
 90
       50
102
RTVSPost2010PropOp42
 70
     1
102
RTVSPost2010Prop43
 90
        3
102
RTVSPost2010PropOp43
 70
     1
102
RTVSPost2010Prop44ColorIndex
 90
        5
102
RTVSPost2010Prop44ColorRGB
 90
      255
102
RTVSPost2010PropOp44
 70
     1
102
RTVSPost2010Prop45
280
     0
102
RTVSPost2010PropOp45
 70
     1
102
RTVSPost2010Prop46
 90
       50
102
RTVSPost2010PropOp46
 70
     1
102
RTVSPost2010Prop47
 90
       50
102
RTVSPost2010PropOp47
 70
     1
102
RTVSPost2010Prop48
 90
       50
102
RTVSPost2010PropOp48
 70
     1
102
RTVSPost2010Prop49
280
     0
102
RTVSPost2010PropOp49
 70
     1
102
RTVSPost2010Prop50
 90
       50
102
RTVSPost2010PropOp50
 70
     1
102
RTVSPost2010Prop51ColorIndex
 90
      256
102
RTVSPost2010Prop51ColorRGB
 90
-16777216
102
RTVSPost2010PropOp51
 70
     0
102
RTVSPost2010Prop52
140
1.0
102
RTVSPost2010PropOp52
 70
     0
102
RTVSPost2010Prop53
 90
        2
102
RTVSPost2010PropOp53
 70
     1
102
RTVSPost2010Prop54
  1
strokes_ogs.tif
102
RTVSPost2010PropOp54
 70
     1
102
RTVSPost2010Prop55
280
     0
102
RTVSPost2010PropOp55
 70
     1
102
RTVSPost2010Prop56
140
1.0
102
RTVSPost2010PropOp56
 70
     1
102
RTVSPost2010Prop57
140
1.0
102
RTVSPost2010PropOp57
 70
     1
  0
XRECORD
  5
32C
102
{ACAD_REACTORS
330
32B
102
}
330
32B
100
AcDbXrecord
280
     1
102
RTVSPropertyOp0
 70
     1
102
RTVSPropertyOp1
 70
     1
102
RTVSPropertyOp2
 70
     1
102
RTVSPropertyOp3
 70
     1
102
RTVSPropertyOp4
 70
     1
102
RTVSPropertyOp5
 70
     1
102
RTVSPropertyOp6
 70
     1
102
RTVSPropertyOp7
 70
     1
102
RTVSPropertyOp8
 70
     1
102
RTVSPropertyOp9
 70
     1
102
RTVSPropertyOp10
 70
     1
102
RTVSPropertyOp11
 70
     1
102
RTVSPropertyOp12
 70
     1
102
RTVSPropertyOp13
 70
     1
102
RTVSPropertyOp14
 70
     1
102
RTVSPropertyOp15
 70
     1
102
RTVSPropertyOp16
 70
     1
102
RTVSPropertyOp17
 70
     1
102
RTVSPropertyOp18
 70
     1
102
RTVSPropertyOp19
 70
     1
102
RTVSPropertyOp20
 70
     1
102
RTVSPropertyOp21
 70
     1
102
RTVSPropertyOp22
 70
     1
102
RTVSPropertyOp23
 70
     1
102
RTVSPropertyOp24
 70
     1
102
RTVSPropertyOp25
 70
     1
102
RTVSPropertyOp26
 70
     1
102
RTVSPropertyOp27
 70
     1
102
RTVSPropertyOp28
 70
     1
102
RTVSPropertyOp29
 70
     1
102
RTVSPropertyOp30
 70
     1
102
RTVSPropertyOp31
 70
     1
102
RTVSPropertyOp32
 70
     1
102
RTVSPropertyOp33
 70
     1
102
RTVSPropertyOp34
 70
     1
102
RTVSPropertyOp35
 70
     1
102
RTVSPropertyOp36
 70
     1
102
RTVSPropertyOp37
 70
     1
102
RTVSPropertyOp38
 70
     1
102
RTVSPropertyOp39
 70
     1
102
RTVSPropertyOp40
 70
     1
102
RTVSPropertyOp41
 70
     1
102
RTVSPropertyOp42
 70
     1
102
RTVSPropertyOp43
 70
     1
102
RTVSPropertyOp44
 70
     1
102
RTVSPropertyOp45
 70
     1
102
RTVSPropertyOp46
 70
     1
102
RTVSPropertyOp47
 70
     1
102
RTVSPropertyOp48
 70
     1
102
RTVSPropertyOp49
 70
     1
102
RTVSPropertyOp50
 70
     1
102
RTVSPropertyOp51
 70
     0
102
RTVSPropertyOp52
 70
     0
102
RTVSPropertyOp53
 70
     1
102
RTVSPropertyOp54
 70
     1
102
RTVSPropertyOp55
 70
     1
102
RTVSPropertyOp56
 70
     1
102
RTVSPropertyOp57
 70
     1
102
RTVSPost2010Prop28
280
     0
102
RTVSPost2010PropOp28
 70
     1
102
RTVSPost2010Prop29
280
     1
102
RTVSPost2010PropOp29
 70
     1
102
RTVSPost2010Prop30
280
     1
102
RTVSPost2010PropOp30
 70
     1
102
RTVSPost2010Prop31
280
     0
102
RTVSPost2010PropOp31
 70
     1
102
RTVSPost2010Prop32
280
     0
102
RTVSPost2010PropOp32
 70
     1
102
RTVSPost2010Prop33
280
     0
102
RTVSPost2010PropOp33
 70
     1
102
RTVSPost2010Prop34
280
     0
102
RTVSPost2010PropOp34
 70
     1
102
RTVSPost2010Prop35
280
     0
102
RTVSPost2010PropOp35
 70
     1
102
RTVSPost2010Prop36
280
     0
102
RTVSPost2010PropOp36
 70
     1
102
RTVSPost2010Prop37
 90
       50
102
RTVSPost2010PropOp37
 70
     1
102
RTVSPost2010Prop38
140
0.0
102
RTVSPost2010PropOp38
 70
     1
102
RTVSPost2010Prop39
140
1.0
102
RTVSPost2010PropOp39
 70
     1
102
RTVSPost2010Prop40
 90
        0
102
RTVSPost2010PropOp40
 70
     1
102
RTVSPost2010Prop41ColorIndex
 90
       18
102
RTVSPost2010Prop41ColorRGB
 90
        0
102
RTVSPost2010PropOp41
 70
     1
102
RTVSPost2010Prop42
 90
       50
102
RTVSPost2010PropOp42
 70
     1
102
RTVSPost2010Prop43
 90
        3
102
RTVSPost2010PropOp43
 70
     1
102
RTVSPost2010Prop44ColorIndex
 90
        5
102
RTVSPost2010Prop44ColorRGB
 90
      255
102
RTVSPost2010PropOp44
 70
     1
102
RTVSPost2010Prop45
280
     0
102
RTVSPost2010PropOp45
 70
     1
102
RTVSPost2010Prop46
 90
       50
102
RTVSPost2010PropOp46
 70
     1
102
RTVSPost2010Prop47
 90
       50
102
RTVSPost2010PropOp47
 70
     1
102
RTVSPost2010Prop48
 90
       50
102
RTVSPost2010PropOp48
 70
     1
102
RTVSPost2010Prop49
280
     0
102
RTVSPost2010PropOp49
 70
     1
102
RTVSPost2010Prop50
 90
       50
102
RTVSPost2010PropOp50
 70
     1
102
RTVSPost2010Prop51ColorIndex
 90
      256
102
RTVSPost2010Prop51ColorRGB
 90
-16777216
102
RTVSPost2010PropOp51
 70
     0
102
RTVSPost2010Prop52
140
1.0
102
RTVSPost2010PropOp52
 70
     0
102
RTVSPost2010Prop53
 90
        2
102
RTVSPost2010PropOp53
 70
     1
102
RTVSPost2010Prop54
  1
strokes_ogs.tif
102
RTVSPost2010PropOp54
 70
     1
102
RTVSPost2010Prop55
280
     0
102
RTVSPost2010PropOp55
 70
     1
102
RTVSPost2010Prop56
140
1.0
102
RTVSPost2010PropOp56
 70
     1
102
RTVSPost2010Prop57
140
1.0
102
RTVSPost2010PropOp57
 70
     1
  0
XRECORD
  5
32E
102
{ACAD_REACTORS
330
32D
102
}
330
32D
100
AcDbXrecord
280
     1
102
RTVSPropertyOp0
 70
     1
102
RTVSPropertyOp1
 70
     1
102
RTVSPropertyOp2
 70
     1
102
RTVSPropertyOp3
 70
     1
102
RTVSPropertyOp4
 70
     1
102
RTVSPropertyOp5
 70
     1
102
RTVSPropertyOp6
 70
     1
102
RTVSPropertyOp7
 70
     1
102
RTVSPropertyOp8
 70
     1
102
RTVSPropertyOp9
 70
     1
102
RTVSPropertyOp10
 70
     1
102
RTVSPropertyOp11
 70
     1
102
RTVSPropertyOp12
 70
     1
102
RTVSPropertyOp13
 70
     1
102
RTVSPropertyOp14
 70
     1
102
RTVSPropertyOp15
 70
     1
102
RTVSPropertyOp16
 70
     1
102
RTVSPropertyOp17
 70
     1
102
RTVSPropertyOp18
 70
     1
102
RTVSPropertyOp19
 70
     1
102
RTVSPropertyOp20
 70
     1
102
RTVSPropertyOp21
 70
     1
102
RTVSPropertyOp22
 70
     1
102
RTVSPropertyOp23
 70
     1
102
RTVSPropertyOp24
 70
     1
102
RTVSPropertyOp25
 70
     1
102
RTVSPropertyOp26
 70
     1
102
RTVSPropertyOp27
 70
     1
102
RTVSPropertyOp28
 70
     1
102
RTVSPropertyOp29
 70
     1
102
RTVSPropertyOp30
 70
     1
102
RTVSPropertyOp31
 70
     1
102
RTVSPropertyOp32
 70
     1
102
RTVSPropertyOp33
 70
     1
102
RTVSPropertyOp34
 70
     1
102
RTVSPropertyOp35
 70
     1
102
RTVSPropertyOp36
 70
     1
102
RTVSPropertyOp37
 70
     1
102
RTVSPropertyOp38
 70
     1
102
RTVSPropertyOp39
 70
     1
102
RTVSPropertyOp40
 70
     1
102
RTVSPropertyOp41
 70
     1
102
RTVSPropertyOp42
 70
     1
102
RTVSPropertyOp43
 70
     1
102
RTVSPropertyOp44
 70
     1
102
RTVSPropertyOp45
 70
     1
102
RTVSPropertyOp46
 70
     1
102
RTVSPropertyOp47
 70
     1
102
RTVSPropertyOp48
 70
     1
102
RTVSPropertyOp49
 70
     1
102
RTVSPropertyOp50
 70
     1
102
RTVSPropertyOp51
 70
     0
102
RTVSPropertyOp52
 70
     0
102
RTVSPropertyOp53
 70
     1
102
RTVSPropertyOp54
 70
     1
102
RTVSPropertyOp55
 70
     1
102
RTVSPropertyOp56
 70
     1
102
RTVSPropertyOp57
 70
     1
102
RTVSPost2010Prop28
280
     0
102
RTVSPost2010PropOp28
 70
     1
102
RTVSPost2010Prop29
280
     1
102
RTVSPost2010PropOp29
 70
     1
102
RTVSPost2010Prop30
280
     1
102
RTVSPost2010PropOp30
 70
     1
102
RTVSPost2010Prop31
280
     0
102
RTVSPost2010PropOp31
 70
     1
102
RTVSPost2010Prop32
280
     0
102
RTVSPost2010PropOp32
 70
     1
102
RTVSPost2010Prop33
280
     0
102
RTVSPost2010PropOp33
 70
     1
102
RTVSPost2010Prop34
280
     0
102
RTVSPost2010PropOp34
 70
     1
102
RTVSPost2010Prop35
280
     0
102
RTVSPost2010PropOp35
 70
     1
102
RTVSPost2010Prop36
280
     0
102
RTVSPost2010PropOp36
 70
     1
102
RTVSPost2010Prop37
 90
       50
102
RTVSPost2010PropOp37
 70
     1
102
RTVSPost2010Prop38
140
0.0
102
RTVSPost2010PropOp38
 70
     1
102
RTVSPost2010Prop39
140
1.0
102
RTVSPost2010PropOp39
 70
     1
102
RTVSPost2010Prop40
 90
        0
102
RTVSPost2010PropOp40
 70
     1
102
RTVSPost2010Prop41ColorIndex
 90
       18
102
RTVSPost2010Prop41ColorRGB
 90
        0
102
RTVSPost2010PropOp41
 70
     1
102
RTVSPost2010Prop42
 90
       50
102
RTVSPost2010PropOp42
 70
     1
102
RTVSPost2010Prop43
 90
        3
102
RTVSPost2010PropOp43
 70
     1
102
RTVSPost2010Prop44ColorIndex
 90
        5
102
RTVSPost2010Prop44ColorRGB
 90
      255
102
RTVSPost2010PropOp44
 70
     1
102
RTVSPost2010Prop45
280
     0
102
RTVSPost2010PropOp45
 70
     1
102
RTVSPost2010Prop46
 90
       50
102
RTVSPost2010PropOp46
 70
     1
102
RTVSPost2010Prop47
 90
       50
102
RTVSPost2010PropOp47
 70
     1
102
RTVSPost2010Prop48
 90
       50
102
RTVSPost2010PropOp48
 70
     1
102
RTVSPost2010Prop49
280
     0
102
RTVSPost2010PropOp49
 70
     1
102
RTVSPost2010Prop50
 90
       50
102
RTVSPost2010PropOp50
 70
     1
102
RTVSPost2010Prop51ColorIndex
 90
      256
102
RTVSPost2010Prop51ColorRGB
 90
-16777216
102
RTVSPost2010PropOp51
 70
     0
102
RTVSPost2010Prop52
140
1.0
102
RTVSPost2010PropOp52
 70
     0
102
RTVSPost2010Prop53
 90
        2
102
RTVSPost2010PropOp53
 70
     1
102
RTVSPost2010Prop54
  1
strokes_ogs.tif
102
RTVSPost2010PropOp54
 70
     1
102
RTVSPost2010Prop55
280
     0
102
RTVSPost2010PropOp55
 70
     1
102
RTVSPost2010Prop56
140
1.0
102
RTVSPost2010PropOp56
 70
     1
102
RTVSPost2010Prop57
140
1.0
102
RTVSPost2010PropOp57
 70
     1
  0
XRECORD
  5
330
102
{ACAD_REACTORS
330
32F
102
}
330
32F
100
AcDbXrecord
280
     1
102
RTVSPropertyOp0
 70
     1
102
RTVSPropertyOp1
 70
     1
102
RTVSPropertyOp2
 70
     1
102
RTVSPropertyOp3
 70
     1
102
RTVSPropertyOp4
 70
     1
102
RTVSPropertyOp5
 70
     1
102
RTVSPropertyOp6
 70
     1
102
RTVSPropertyOp7
 70
     1
102
RTVSPropertyOp8
 70
     1
102
RTVSPropertyOp9
 70
     1
102
RTVSPropertyOp10
 70
     1
102
RTVSPropertyOp11
 70
     1
102
RTVSPropertyOp12
 70
     1
102
RTVSPropertyOp13
 70
     1
102
RTVSPropertyOp14
 70
     1
102
RTVSPropertyOp15
 70
     1
102
RTVSPropertyOp16
 70
     1
102
RTVSPropertyOp17
 70
     1
102
RTVSPropertyOp18
 70
     1
102
RTVSPropertyOp19
 70
     1
102
RTVSPropertyOp20
 70
     1
102
RTVSPropertyOp21
 70
     1
102
RTVSPropertyOp22
 70
     1
102
RTVSPropertyOp23
 70
     1
102
RTVSPropertyOp24
 70
     1
102
RTVSPropertyOp25
 70
     1
102
RTVSPropertyOp26
 70
     1
102
RTVSPropertyOp27
 70
     1
102
RTVSPropertyOp28
 70
     1
102
RTVSPropertyOp29
 70
     1
102
RTVSPropertyOp30
 70
     1
102
RTVSPropertyOp31
 70
     1
102
RTVSPropertyOp32
 70
     1
102
RTVSPropertyOp33
 70
     1
102
RTVSPropertyOp34
 70
     1
102
RTVSPropertyOp35
 70
     1
102
RTVSPropertyOp36
 70
     1
102
RTVSPropertyOp37
 70
     1
102
RTVSPropertyOp38
 70
     1
102
RTVSPropertyOp39
 70
     1
102
RTVSPropertyOp40
 70
     1
102
RTVSPropertyOp41
 70
     1
102
RTVSPropertyOp42
 70
     1
102
RTVSPropertyOp43
 70
     1
102
RTVSPropertyOp44
 70
     1
102
RTVSPropertyOp45
 70
     1
102
RTVSPropertyOp46
 70
     1
102
RTVSPropertyOp47
 70
     1
102
RTVSPropertyOp48
 70
     1
102
RTVSPropertyOp49
 70
     1
102
RTVSPropertyOp50
 70
     1
102
RTVSPropertyOp51
 70
     0
102
RTVSPropertyOp52
 70
     0
102
RTVSPropertyOp53
 70
     1
102
RTVSPropertyOp54
 70
     1
102
RTVSPropertyOp55
 70
     1
102
RTVSPropertyOp56
 70
     1
102
RTVSPropertyOp57
 70
     1
102
RTVSPost2010Prop28
280
     0
102
RTVSPost2010PropOp28
 70
     1
102
RTVSPost2010Prop29
280
     1
102
RTVSPost2010PropOp29
 70
     1
102
RTVSPost2010Prop30
280
     1
102
RTVSPost2010PropOp30
 70
     1
102
RTVSPost2010Prop31
280
     0
102
RTVSPost2010PropOp31
 70
     1
102
RTVSPost2010Prop32
280
     0
102
RTVSPost2010PropOp32
 70
     1
102
RTVSPost2010Prop33
280
     0
102
RTVSPost2010PropOp33
 70
     1
102
RTVSPost2010Prop34
280
     0
102
RTVSPost2010PropOp34
 70
     1
102
RTVSPost2010Prop35
280
     0
102
RTVSPost2010PropOp35
 70
     1
102
RTVSPost2010Prop36
280
     0
102
RTVSPost2010PropOp36
 70
     1
102
RTVSPost2010Prop37
 90
       50
102
RTVSPost2010PropOp37
 70
     1
102
RTVSPost2010Prop38
140
0.0
102
RTVSPost2010PropOp38
 70
     1
102
RTVSPost2010Prop39
140
1.0
102
RTVSPost2010PropOp39
 70
     1
102
RTVSPost2010Prop40
 90
        0
102
RTVSPost2010PropOp40
 70
     1
102
RTVSPost2010Prop41ColorIndex
 90
       18
102
RTVSPost2010Prop41ColorRGB
 90
        0
102
RTVSPost2010PropOp41
 70
     1
102
RTVSPost2010Prop42
 90
       50
102
RTVSPost2010PropOp42
 70
     1
102
RTVSPost2010Prop43
 90
        3
102
RTVSPost2010PropOp43
 70
     1
102
RTVSPost2010Prop44ColorIndex
 90
        5
102
RTVSPost2010Prop44ColorRGB
 90
      255
102
RTVSPost2010PropOp44
 70
     1
102
RTVSPost2010Prop45
280
     0
102
RTVSPost2010PropOp45
 70
     1
102
RTVSPost2010Prop46
 90
       50
102
RTVSPost2010PropOp46
 70
     1
102
RTVSPost2010Prop47
 90
       50
102
RTVSPost2010PropOp47
 70
     1
102
RTVSPost2010Prop48
 90
       50
102
RTVSPost2010PropOp48
 70
     1
102
RTVSPost2010Prop49
280
     0
102
RTVSPost2010PropOp49
 70
     1
102
RTVSPost2010Prop50
 90
       50
102
RTVSPost2010PropOp50
 70
     1
102
RTVSPost2010Prop51ColorIndex
 90
      256
102
RTVSPost2010Prop51ColorRGB
 90
-16777216
102
RTVSPost2010PropOp51
 70
     0
102
RTVSPost2010Prop52
140
1.0
102
RTVSPost2010PropOp52
 70
     0
102
RTVSPost2010Prop53
 90
        2
102
RTVSPost2010PropOp53
 70
     1
102
RTVSPost2010Prop54
  1
strokes_ogs.tif
102
RTVSPost2010PropOp54
 70
     1
102
RTVSPost2010Prop55
280
     0
102
RTVSPost2010PropOp55
 70
     1
102
RTVSPost2010Prop56
140
1.0
102
RTVSPost2010PropOp56
 70
     1
102
RTVSPost2010Prop57
140
1.0
102
RTVSPost2010PropOp57
 70
     1
  0
XRECORD
  5
336
102
{ACAD_REACTORS
330
335
102
}
330
335
100
AcDbXrecord
280
     1
102
RTVSPropertyOp0
 70
     1
102
RTVSPropertyOp1
 70
     1
102
RTVSPropertyOp2
 70
     1
102
RTVSPropertyOp3
 70
     1
102
RTVSPropertyOp4
 70
     1
102
RTVSPropertyOp5
 70
     1
102
RTVSPropertyOp6
 70
     1
102
RTVSPropertyOp7
 70
     1
102
RTVSPropertyOp8
 70
     1
102
RTVSPropertyOp9
 70
     1
102
RTVSPropertyOp10
 70
     1
102
RTVSPropertyOp11
 70
     1
102
RTVSPropertyOp12
 70
     1
102
RTVSPropertyOp13
 70
     1
102
RTVSPropertyOp14
 70
     1
102
RTVSPropertyOp15
 70
     1
102
RTVSPropertyOp16
 70
     1
102
RTVSPropertyOp17
 70
     1
102
RTVSPropertyOp18
 70
     1
102
RTVSPropertyOp19
 70
     1
102
RTVSPropertyOp20
 70
     1
102
RTVSPropertyOp21
 70
     1
102
RTVSPropertyOp22
 70
     1
102
RTVSPropertyOp23
 70
     1
102
RTVSPropertyOp24
 70
     1
102
RTVSPropertyOp25
 70
     1
102
RTVSPropertyOp26
 70
     1
102
RTVSPropertyOp27
 70
     1
102
RTVSPropertyOp28
 70
     1
102
RTVSPropertyOp29
 70
     1
102
RTVSPropertyOp30
 70
     1
102
RTVSPropertyOp31
 70
     1
102
RTVSPropertyOp32
 70
     1
102
RTVSPropertyOp33
 70
     1
102
RTVSPropertyOp34
 70
     1
102
RTVSPropertyOp35
 70
     1
102
RTVSPropertyOp36
 70
     1
102
RTVSPropertyOp37
 70
     1
102
RTVSPropertyOp38
 70
     1
102
RTVSPropertyOp39
 70
     1
102
RTVSPropertyOp40
 70
     1
102
RTVSPropertyOp41
 70
     1
102
RTVSPropertyOp42
 70
     1
102
RTVSPropertyOp43
 70
     1
102
RTVSPropertyOp44
 70
     1
102
RTVSPropertyOp45
 70
     1
102
RTVSPropertyOp46
 70
     1
102
RTVSPropertyOp47
 70
     1
102
RTVSPropertyOp48
 70
     1
102
RTVSPropertyOp49
 70
     1
102
RTVSPropertyOp50
 70
     1
102
RTVSPropertyOp51
 70
     0
102
RTVSPropertyOp52
 70
     0
102
RTVSPropertyOp53
 70
     1
102
RTVSPropertyOp54
 70
     1
102
RTVSPropertyOp55
 70
     1
102
RTVSPropertyOp56
 70
     1
102
RTVSPropertyOp57
 70
     1
102
RTVSPost2010Prop28
280
     0
102
RTVSPost2010PropOp28
 70
     1
102
RTVSPost2010Prop29
280
     1
102
RTVSPost2010PropOp29
 70
     1
102
RTVSPost2010Prop30
280
     1
102
RTVSPost2010PropOp30
 70
     1
102
RTVSPost2010Prop31
280
     0
102
RTVSPost2010PropOp31
 70
     1
102
RTVSPost2010Prop32
280
     0
102
RTVSPost2010PropOp32
 70
     1
102
RTVSPost2010Prop33
280
     0
102
RTVSPost2010PropOp33
 70
     1
102
RTVSPost2010Prop34
280
     0
102
RTVSPost2010PropOp34
 70
     1
102
RTVSPost2010Prop35
280
     0
102
RTVSPost2010PropOp35
 70
     1
102
RTVSPost2010Prop36
280
     0
102
RTVSPost2010PropOp36
 70
     1
102
RTVSPost2010Prop37
 90
       50
102
RTVSPost2010PropOp37
 70
     1
102
RTVSPost2010Prop38
140
0.0
102
RTVSPost2010PropOp38
 70
     1
102
RTVSPost2010Prop39
140
1.0
102
RTVSPost2010PropOp39
 70
     1
102
RTVSPost2010Prop40
 90
        0
102
RTVSPost2010PropOp40
 70
     1
102
RTVSPost2010Prop41ColorIndex
 90
       18
102
RTVSPost2010Prop41ColorRGB
 90
        0
102
RTVSPost2010PropOp41
 70
     1
102
RTVSPost2010Prop42
 90
       50
102
RTVSPost2010PropOp42
 70
     1
102
RTVSPost2010Prop43
 90
        3
102
RTVSPost2010PropOp43
 70
     1
102
RTVSPost2010Prop44ColorIndex
 90
        5
102
RTVSPost2010Prop44ColorRGB
 90
      255
102
RTVSPost2010PropOp44
 70
     1
102
RTVSPost2010Prop45
280
     0
102
RTVSPost2010PropOp45
 70
     1
102
RTVSPost2010Prop46
 90
       50
102
RTVSPost2010PropOp46
 70
     1
102
RTVSPost2010Prop47
 90
       50
102
RTVSPost2010PropOp47
 70
     1
102
RTVSPost2010Prop48
 90
       50
102
RTVSPost2010PropOp48
 70
     1
102
RTVSPost2010Prop49
280
     0
102
RTVSPost2010PropOp49
 70
     1
102
RTVSPost2010Prop50
 90
       50
102
RTVSPost2010PropOp50
 70
     1
102
RTVSPost2010Prop51ColorIndex
 90
      256
102
RTVSPost2010Prop51ColorRGB
 90
-16777216
102
RTVSPost2010PropOp51
 70
     0
102
RTVSPost2010Prop52
140
1.0
102
RTVSPost2010PropOp52
 70
     0
102
RTVSPost2010Prop53
 90
        2
102
RTVSPost2010PropOp53
 70
     1
102
RTVSPost2010Prop54
  1
strokes_ogs.tif
102
RTVSPost2010PropOp54
 70
     1
102
RTVSPost2010Prop55
280
     0
102
RTVSPost2010PropOp55
 70
     1
102
RTVSPost2010Prop56
140
1.0
102
RTVSPost2010PropOp56
 70
     1
102
RTVSPost2010Prop57
140
1.0
102
RTVSPost2010PropOp57
 70
     1
  0
XRECORD
  5
34A
102
{ACAD_REACTORS
330
349
102
}
330
349
100
AcDbXrecord
280
     1
102
RTVSPropertyOp0
 70
     0
102
RTVSPropertyOp1
 70
     0
102
RTVSPropertyOp2
 70
     0
102
RTVSPropertyOp3
 70
     0
102
RTVSPropertyOp4
 70
     0
102
RTVSPropertyOp5
 70
     0
102
RTVSPropertyOp6
 70
     0
102
RTVSPropertyOp7
 70
     0
102
RTVSPropertyOp8
 70
     0
102
RTVSPropertyOp9
 70
     0
102
RTVSPropertyOp10
 70
     0
102
RTVSPropertyOp11
 70
     0
102
RTVSPropertyOp12
 70
     0
102
RTVSPropertyOp13
 70
     0
102
RTVSPropertyOp14
 70
     2
102
RTVSPropertyOp15
 70
     0
102
RTVSPropertyOp16
 70
     0
102
RTVSPropertyOp17
 70
     0
102
RTVSPropertyOp18
 70
     0
102
RTVSPropertyOp19
 70
     0
102
RTVSPropertyOp20
 70
     0
102
RTVSPropertyOp21
 70
     0
102
RTVSPropertyOp22
 70
     0
102
RTVSPropertyOp23
 70
     0
102
RTVSPropertyOp24
 70
     0
102
RTVSPropertyOp25
 70
     0
102
RTVSPropertyOp26
 70
     0
102
RTVSPropertyOp27
 70
     0
102
RTVSPropertyOp28
 70
     0
102
RTVSPropertyOp29
 70
     0
102
RTVSPropertyOp30
 70
     0
102
RTVSPropertyOp31
 70
     0
102
RTVSPropertyOp32
 70
     0
102
RTVSPropertyOp33
 70
     0
102
RTVSPropertyOp34
 70
     0
102
RTVSPropertyOp35
 70
     0
102
RTVSPropertyOp36
 70
     0
102
RTVSPropertyOp37
 70
     0
102
RTVSPropertyOp38
 70
     0
102
RTVSPropertyOp39
 70
     0
102
RTVSPropertyOp40
 70
     0
102
RTVSPropertyOp41
 70
     0
102
RTVSPropertyOp42
 70
     0
102
RTVSPropertyOp43
 70
     0
102
RTVSPropertyOp44
 70
     0
102
RTVSPropertyOp45
 70
     0
102
RTVSPropertyOp46
 70
     0
102
RTVSPropertyOp47
 70
     0
102
RTVSPropertyOp48
 70
     0
102
RTVSPropertyOp49
 70
     0
102
RTVSPropertyOp50
 70
     0
102
RTVSPropertyOp51
 70
     0
102
RTVSPropertyOp52
 70
     0
102
RTVSPropertyOp53
 70
     0
102
RTVSPropertyOp54
 70
     0
102
RTVSPropertyOp55
 70
     0
102
RTVSPropertyOp56
 70
     0
102
RTVSPropertyOp57
 70
     0
102
RTVSPost2010Prop28
280
     0
102
RTVSPost2010PropOp28
 70
     0
102
RTVSPost2010Prop29
280
     1
102
RTVSPost2010PropOp29
 70
     0
102
RTVSPost2010Prop30
280
     1
102
RTVSPost2010PropOp30
 70
     0
102
RTVSPost2010Prop31
280
     0
102
RTVSPost2010PropOp31
 70
     0
102
RTVSPost2010Prop32
280
     0
102
RTVSPost2010PropOp32
 70
     0
102
RTVSPost2010Prop33
280
     0
102
RTVSPost2010PropOp33
 70
     0
102
RTVSPost2010Prop34
280
     0
102
RTVSPost2010PropOp34
 70
     0
102
RTVSPost2010Prop35
280
     0
102
RTVSPost2010PropOp35
 70
     0
102
RTVSPost2010Prop36
280
     0
102
RTVSPost2010PropOp36
 70
     0
102
RTVSPost2010Prop37
 90
       50
102
RTVSPost2010PropOp37
 70
     0
102
RTVSPost2010Prop38
140
0.0
102
RTVSPost2010PropOp38
 70
     0
102
RTVSPost2010Prop39
140
1.0
102
RTVSPost2010PropOp39
 70
     0
102
RTVSPost2010Prop40
 90
        0
102
RTVSPost2010PropOp40
 70
     0
102
RTVSPost2010Prop41ColorIndex
 90
       18
102
RTVSPost2010Prop41ColorRGB
 90
        0
102
RTVSPost2010PropOp41
 70
     0
102
RTVSPost2010Prop42
 90
       50
102
RTVSPost2010PropOp42
 70
     0
102
RTVSPost2010Prop43
 90
        3
102
RTVSPost2010PropOp43
 70
     0
102
RTVSPost2010Prop44ColorIndex
 90
        5
102
RTVSPost2010Prop44ColorRGB
 90
      255
102
RTVSPost2010PropOp44
 70
     0
102
RTVSPost2010Prop45
280
     0
102
RTVSPost2010PropOp45
 70
     0
102
RTVSPost2010Prop46
 90
       50
102
RTVSPost2010PropOp46
 70
     0
102
RTVSPost2010Prop47
 90
       50
102
RTVSPost2010PropOp47
 70
     0
102
RTVSPost2010Prop48
 90
       50
102
RTVSPost2010PropOp48
 70
     0
102
RTVSPost2010Prop49
280
     0
102
RTVSPost2010PropOp49
 70
     0
102
RTVSPost2010Prop50
 90
       50
102
RTVSPost2010PropOp50
 70
     0
102
RTVSPost2010Prop51ColorIndex
 90
      256
102
RTVSPost2010Prop51ColorRGB
 90
-16777216
102
RTVSPost2010PropOp51
 70
     0
102
RTVSPost2010Prop52
140
1.0
102
RTVSPost2010PropOp52
 70
     0
102
RTVSPost2010Prop53
 90
        2
102
RTVSPost2010PropOp53
 70
     0
102
RTVSPost2010Prop54
  1
strokes_ogs.tif
102
RTVSPost2010PropOp54
 70
     0
102
RTVSPost2010Prop55
280
     0
102
RTVSPost2010PropOp55
 70
     0
102
RTVSPost2010Prop56
140
1.0
102
RTVSPost2010PropOp56
 70
     0
102
RTVSPost2010Prop57
140
1.0
102
RTVSPost2010PropOp57
 70
     0
  0
XRECORD
  5
344
102
{ACAD_REACTORS
330
343
102
}
330
343
100
AcDbXrecord
280
     1
102
RTVSPropertyOp0
 70
     1
102
RTVSPropertyOp1
 70
     1
102
RTVSPropertyOp2
 70
     1
102
RTVSPropertyOp3
 70
     1
102
RTVSPropertyOp4
 70
     1
102
RTVSPropertyOp5
 70
     1
102
RTVSPropertyOp6
 70
     1
102
RTVSPropertyOp7
 70
     1
102
RTVSPropertyOp8
 70
     1
102
RTVSPropertyOp9
 70
     1
102
RTVSPropertyOp10
 70
     1
102
RTVSPropertyOp11
 70
     1
102
RTVSPropertyOp12
 70
     1
102
RTVSPropertyOp13
 70
     1
102
RTVSPropertyOp14
 70
     1
102
RTVSPropertyOp15
 70
     1
102
RTVSPropertyOp16
 70
     1
102
RTVSPropertyOp17
 70
     1
102
RTVSPropertyOp18
 70
     1
102
RTVSPropertyOp19
 70
     1
102
RTVSPropertyOp20
 70
     1
102
RTVSPropertyOp21
 70
     1
102
RTVSPropertyOp22
 70
     1
102
RTVSPropertyOp23
 70
     1
102
RTVSPropertyOp24
 70
     1
102
RTVSPropertyOp25
 70
     1
102
RTVSPropertyOp26
 70
     1
102
RTVSPropertyOp27
 70
     1
102
RTVSPropertyOp28
 70
     1
102
RTVSPropertyOp29
 70
     1
102
RTVSPropertyOp30
 70
     1
102
RTVSPropertyOp31
 70
     1
102
RTVSPropertyOp32
 70
     1
102
RTVSPropertyOp33
 70
     1
102
RTVSPropertyOp34
 70
     1
102
RTVSPropertyOp35
 70
     1
102
RTVSPropertyOp36
 70
     1
102
RTVSPropertyOp37
 70
     1
102
RTVSPropertyOp38
 70
     1
102
RTVSPropertyOp39
 70
     1
102
RTVSPropertyOp40
 70
     1
102
RTVSPropertyOp41
 70
     1
102
RTVSPropertyOp42
 70
     1
102
RTVSPropertyOp43
 70
     1
102
RTVSPropertyOp44
 70
     1
102
RTVSPropertyOp45
 70
     1
102
RTVSPropertyOp46
 70
     1
102
RTVSPropertyOp47
 70
     1
102
RTVSPropertyOp48
 70
     1
102
RTVSPropertyOp49
 70
     1
102
RTVSPropertyOp50
 70
     1
102
RTVSPropertyOp51
 70
     0
102
RTVSPropertyOp52
 70
     0
102
RTVSPropertyOp53
 70
     1
102
RTVSPropertyOp54
 70
     1
102
RTVSPropertyOp55
 70
     1
102
RTVSPropertyOp56
 70
     1
102
RTVSPropertyOp57
 70
     1
102
RTVSPost2010Prop28
280
     0
102
RTVSPost2010PropOp28
 70
     1
102
RTVSPost2010Prop29
280
     1
102
RTVSPost2010PropOp29
 70
     1
102
RTVSPost2010Prop30
280
     1
102
RTVSPost2010PropOp30
 70
     1
102
RTVSPost2010Prop31
280
     0
102
RTVSPost2010PropOp31
 70
     1
102
RTVSPost2010Prop32
280
     0
102
RTVSPost2010PropOp32
 70
     1
102
RTVSPost2010Prop33
280
     0
102
RTVSPost2010PropOp33
 70
     1
102
RTVSPost2010Prop34
280
     0
102
RTVSPost2010PropOp34
 70
     1
102
RTVSPost2010Prop35
280
     0
102
RTVSPost2010PropOp35
 70
     1
102
RTVSPost2010Prop36
280
     0
102
RTVSPost2010PropOp36
 70
     1
102
RTVSPost2010Prop37
 90
       50
102
RTVSPost2010PropOp37
 70
     1
102
RTVSPost2010Prop38
140
0.0
102
RTVSPost2010PropOp38
 70
     1
102
RTVSPost2010Prop39
140
1.0
102
RTVSPost2010PropOp39
 70
     1
102
RTVSPost2010Prop40
 90
        0
102
RTVSPost2010PropOp40
 70
     1
102
RTVSPost2010Prop41ColorIndex
 90
       18
102
RTVSPost2010Prop41ColorRGB
 90
        0
102
RTVSPost2010PropOp41
 70
     1
102
RTVSPost2010Prop42
 90
       50
102
RTVSPost2010PropOp42
 70
     1
102
RTVSPost2010Prop43
 90
        3
102
RTVSPost2010PropOp43
 70
     1
102
RTVSPost2010Prop44ColorIndex
 90
        5
102
RTVSPost2010Prop44ColorRGB
 90
      255
102
RTVSPost2010PropOp44
 70
     1
102
RTVSPost2010Prop45
280
     0
102
RTVSPost2010PropOp45
 70
     1
102
RTVSPost2010Prop46
 90
       50
102
RTVSPost2010PropOp46
 70
     1
102
RTVSPost2010Prop47
 90
       50
102
RTVSPost2010PropOp47
 70
     1
102
RTVSPost2010Prop48
 90
       50
102
RTVSPost2010PropOp48
 70
     1
102
RTVSPost2010Prop49
280
     0
102
RTVSPost2010PropOp49
 70
     1
102
RTVSPost2010Prop50
 90
       50
102
RTVSPost2010PropOp50
 70
     1
102
RTVSPost2010Prop51ColorIndex
 90
      256
102
RTVSPost2010Prop51ColorRGB
 90
-16777216
102
RTVSPost2010PropOp51
 70
     0
102
RTVSPost2010Prop52
140
1.0
102
RTVSPost2010PropOp52
 70
     0
102
RTVSPost2010Prop53
 90
        2
102
RTVSPost2010PropOp53
 70
     1
102
RTVSPost2010Prop54
  1
strokes_ogs.tif
102
RTVSPost2010PropOp54
 70
     1
102
RTVSPost2010Prop55
280
     0
102
RTVSPost2010PropOp55
 70
     1
102
RTVSPost2010Prop56
140
1.0
102
RTVSPost2010PropOp56
 70
     1
102
RTVSPost2010Prop57
140
1.0
102
RTVSPost2010PropOp57
 70
     1
  0
XRECORD
  5
34C
102
{ACAD_REACTORS
330
34B
102
}
330
34B
100
AcDbXrecord
280
     1
102
RTVSPropertyOp0
 70
     0
102
RTVSPropertyOp1
 70
     0
102
RTVSPropertyOp2
 70
     0
102
RTVSPropertyOp3
 70
     0
102
RTVSPropertyOp4
 70
     0
102
RTVSPropertyOp5
 70
     0
102
RTVSPropertyOp6
 70
     0
102
RTVSPropertyOp7
 70
     0
102
RTVSPropertyOp8
 70
     0
102
RTVSPropertyOp9
 70
     0
102
RTVSPropertyOp10
 70
     0
102
RTVSPropertyOp11
 70
     0
102
RTVSPropertyOp12
 70
     0
102
RTVSPropertyOp13
 70
     0
102
RTVSPropertyOp14
 70
     2
102
RTVSPropertyOp15
 70
     0
102
RTVSPropertyOp16
 70
     0
102
RTVSPropertyOp17
 70
     0
102
RTVSPropertyOp18
 70
     0
102
RTVSPropertyOp19
 70
     0
102
RTVSPropertyOp20
 70
     0
102
RTVSPropertyOp21
 70
     0
102
RTVSPropertyOp22
 70
     0
102
RTVSPropertyOp23
 70
     0
102
RTVSPropertyOp24
 70
     0
102
RTVSPropertyOp25
 70
     0
102
RTVSPropertyOp26
 70
     0
102
RTVSPropertyOp27
 70
     0
102
RTVSPropertyOp28
 70
     0
102
RTVSPropertyOp29
 70
     0
102
RTVSPropertyOp30
 70
     0
102
RTVSPropertyOp31
 70
     0
102
RTVSPropertyOp32
 70
     0
102
RTVSPropertyOp33
 70
     0
102
RTVSPropertyOp34
 70
     0
102
RTVSPropertyOp35
 70
     0
102
RTVSPropertyOp36
 70
     0
102
RTVSPropertyOp37
 70
     0
102
RTVSPropertyOp38
 70
     0
102
RTVSPropertyOp39
 70
     0
102
RTVSPropertyOp40
 70
     0
102
RTVSPropertyOp41
 70
     0
102
RTVSPropertyOp42
 70
     0
102
RTVSPropertyOp43
 70
     0
102
RTVSPropertyOp44
 70
     0
102
RTVSPropertyOp45
 70
     0
102
RTVSPropertyOp46
 70
     0
102
RTVSPropertyOp47
 70
     0
102
RTVSPropertyOp48
 70
     0
102
RTVSPropertyOp49
 70
     0
102
RTVSPropertyOp50
 70
     0
102
RTVSPropertyOp51
 70
     0
102
RTVSPropertyOp52
 70
     0
102
RTVSPropertyOp53
 70
     0
102
RTVSPropertyOp54
 70
     0
102
RTVSPropertyOp55
 70
     0
102
RTVSPropertyOp56
 70
     0
102
RTVSPropertyOp57
 70
     0
102
RTVSPost2010Prop28
280
     0
102
RTVSPost2010PropOp28
 70
     0
102
RTVSPost2010Prop29
280
     1
102
RTVSPost2010PropOp29
 70
     0
102
RTVSPost2010Prop30
280
     1
102
RTVSPost2010PropOp30
 70
     0
102
RTVSPost2010Prop31
280
     0
102
RTVSPost2010PropOp31
 70
     0
102
RTVSPost2010Prop32
280
     0
102
RTVSPost2010PropOp32
 70
     0
102
RTVSPost2010Prop33
280
     0
102
RTVSPost2010PropOp33
 70
     0
102
RTVSPost2010Prop34
280
     0
102
RTVSPost2010PropOp34
 70
     0
102
RTVSPost2010Prop35
280
     0
102
RTVSPost2010PropOp35
 70
     0
102
RTVSPost2010Prop36
280
     0
102
RTVSPost2010PropOp36
 70
     0
102
RTVSPost2010Prop37
 90
       50
102
RTVSPost2010PropOp37
 70
     0
102
RTVSPost2010Prop38
140
0.0
102
RTVSPost2010PropOp38
 70
     0
102
RTVSPost2010Prop39
140
1.0
102
RTVSPost2010PropOp39
 70
     0
102
RTVSPost2010Prop40
 90
        0
102
RTVSPost2010PropOp40
 70
     0
102
RTVSPost2010Prop41ColorIndex
 90
       18
102
RTVSPost2010Prop41ColorRGB
 90
        0
102
RTVSPost2010PropOp41
 70
     0
102
RTVSPost2010Prop42
 90
       50
102
RTVSPost2010PropOp42
 70
     0
102
RTVSPost2010Prop43
 90
        3
102
RTVSPost2010PropOp43
 70
     0
102
RTVSPost2010Prop44ColorIndex
 90
        5
102
RTVSPost2010Prop44ColorRGB
 90
      255
102
RTVSPost2010PropOp44
 70
     0
102
RTVSPost2010Prop45
280
     0
102
RTVSPost2010PropOp45
 70
     0
102
RTVSPost2010Prop46
 90
       50
102
RTVSPost2010PropOp46
 70
     0
102
RTVSPost2010Prop47
 90
       50
102
RTVSPost2010PropOp47
 70
     0
102
RTVSPost2010Prop48
 90
       50
102
RTVSPost2010PropOp48
 70
     0
102
RTVSPost2010Prop49
280
     0
102
RTVSPost2010PropOp49
 70
     0
102
RTVSPost2010Prop50
 90
       50
102
RTVSPost2010PropOp50
 70
     0
102
RTVSPost2010Prop51ColorIndex
 90
      256
102
RTVSPost2010Prop51ColorRGB
 90
-16777216
102
RTVSPost2010PropOp51
 70
     0
102
RTVSPost2010Prop52
140
1.0
102
RTVSPost2010PropOp52
 70
     0
102
RTVSPost2010Prop53
 90
        2
102
RTVSPost2010PropOp53
 70
     0
102
RTVSPost2010Prop54
  1
strokes_ogs.tif
102
RTVSPost2010PropOp54
 70
     0
102
RTVSPost2010Prop55
280
     0
102
RTVSPost2010PropOp55
 70
     0
102
RTVSPost2010Prop56
140
1.0
102
RTVSPost2010PropOp56
 70
     0
102
RTVSPost2010Prop57
140
1.0
102
RTVSPost2010PropOp57
 70
     0
  0
XRECORD
  5
33A
102
{ACAD_REACTORS
330
339
102
}
330
339
100
AcDbXrecord
280
     1
102
RTVSPropertyOp0
 70
     1
102
RTVSPropertyOp1
 70
     1
102
RTVSPropertyOp2
 70
     1
102
RTVSPropertyOp3
 70
     1
102
RTVSPropertyOp4
 70
     1
102
RTVSPropertyOp5
 70
     1
102
RTVSPropertyOp6
 70
     1
102
RTVSPropertyOp7
 70
     1
102
RTVSPropertyOp8
 70
     1
102
RTVSPropertyOp9
 70
     1
102
RTVSPropertyOp10
 70
     1
102
RTVSPropertyOp11
 70
     1
102
RTVSPropertyOp12
 70
     1
102
RTVSPropertyOp13
 70
     1
102
RTVSPropertyOp14
 70
     1
102
RTVSPropertyOp15
 70
     1
102
RTVSPropertyOp16
 70
     1
102
RTVSPropertyOp17
 70
     1
102
RTVSPropertyOp18
 70
     1
102
RTVSPropertyOp19
 70
     1
102
RTVSPropertyOp20
 70
     1
102
RTVSPropertyOp21
 70
     1
102
RTVSPropertyOp22
 70
     1
102
RTVSPropertyOp23
 70
     1
102
RTVSPropertyOp24
 70
     1
102
RTVSPropertyOp25
 70
     1
102
RTVSPropertyOp26
 70
     1
102
RTVSPropertyOp27
 70
     1
102
RTVSPropertyOp28
 70
     1
102
RTVSPropertyOp29
 70
     1
102
RTVSPropertyOp30
 70
     1
102
RTVSPropertyOp31
 70
     1
102
RTVSPropertyOp32
 70
     1
102
RTVSPropertyOp33
 70
     1
102
RTVSPropertyOp34
 70
     1
102
RTVSPropertyOp35
 70
     1
102
RTVSPropertyOp36
 70
     1
102
RTVSPropertyOp37
 70
     1
102
RTVSPropertyOp38
 70
     1
102
RTVSPropertyOp39
 70
     1
102
RTVSPropertyOp40
 70
     1
102
RTVSPropertyOp41
 70
     1
102
RTVSPropertyOp42
 70
     1
102
RTVSPropertyOp43
 70
     1
102
RTVSPropertyOp44
 70
     1
102
RTVSPropertyOp45
 70
     1
102
RTVSPropertyOp46
 70
     1
102
RTVSPropertyOp47
 70
     1
102
RTVSPropertyOp48
 70
     1
102
RTVSPropertyOp49
 70
     1
102
RTVSPropertyOp50
 70
     1
102
RTVSPropertyOp51
 70
     0
102
RTVSPropertyOp52
 70
     0
102
RTVSPropertyOp53
 70
     1
102
RTVSPropertyOp54
 70
     1
102
RTVSPropertyOp55
 70
     1
102
RTVSPropertyOp56
 70
     1
102
RTVSPropertyOp57
 70
     1
102
RTVSPost2010Prop28
280
     0
102
RTVSPost2010PropOp28
 70
     1
102
RTVSPost2010Prop29
280
     1
102
RTVSPost2010PropOp29
 70
     1
102
RTVSPost2010Prop30
280
     1
102
RTVSPost2010PropOp30
 70
     1
102
RTVSPost2010Prop31
280
     0
102
RTVSPost2010PropOp31
 70
     1
102
RTVSPost2010Prop32
280
     0
102
RTVSPost2010PropOp32
 70
     1
102
RTVSPost2010Prop33
280
     0
102
RTVSPost2010PropOp33
 70
     1
102
RTVSPost2010Prop34
280
     0
102
RTVSPost2010PropOp34
 70
     1
102
RTVSPost2010Prop35
280
     0
102
RTVSPost2010PropOp35
 70
     1
102
RTVSPost2010Prop36
280
     0
102
RTVSPost2010PropOp36
 70
     1
102
RTVSPost2010Prop37
 90
       50
102
RTVSPost2010PropOp37
 70
     1
102
RTVSPost2010Prop38
140
0.0
102
RTVSPost2010PropOp38
 70
     1
102
RTVSPost2010Prop39
140
1.0
102
RTVSPost2010PropOp39
 70
     1
102
RTVSPost2010Prop40
 90
        0
102
RTVSPost2010PropOp40
 70
     1
102
RTVSPost2010Prop41ColorIndex
 90
       18
102
RTVSPost2010Prop41ColorRGB
 90
        0
102
RTVSPost2010PropOp41
 70
     1
102
RTVSPost2010Prop42
 90
       50
102
RTVSPost2010PropOp42
 70
     1
102
RTVSPost2010Prop43
 90
        3
102
RTVSPost2010PropOp43
 70
     1
102
RTVSPost2010Prop44ColorIndex
 90
        5
102
RTVSPost2010Prop44ColorRGB
 90
      255
102
RTVSPost2010PropOp44
 70
     1
102
RTVSPost2010Prop45
280
     0
102
RTVSPost2010PropOp45
 70
     1
102
RTVSPost2010Prop46
 90
       50
102
RTVSPost2010PropOp46
 70
     1
102
RTVSPost2010Prop47
 90
       50
102
RTVSPost2010PropOp47
 70
     1
102
RTVSPost2010Prop48
 90
       50
102
RTVSPost2010PropOp48
 70
     1
102
RTVSPost2010Prop49
280
     0
102
RTVSPost2010PropOp49
 70
     1
102
RTVSPost2010Prop50
 90
       50
102
RTVSPost2010PropOp50
 70
     1
102
RTVSPost2010Prop51ColorIndex
 90
      256
102
RTVSPost2010Prop51ColorRGB
 90
-16777216
102
RTVSPost2010PropOp51
 70
     0
102
RTVSPost2010Prop52
140
1.0
102
RTVSPost2010PropOp52
 70
     0
102
RTVSPost2010Prop53
 90
        2
102
RTVSPost2010PropOp53
 70
     1
102
RTVSPost2010Prop54
  1
strokes_ogs.tif
102
RTVSPost2010PropOp54
 70
     1
102
RTVSPost2010Prop55
280
     0
102
RTVSPost2010PropOp55
 70
     1
102
RTVSPost2010Prop56
140
1.0
102
RTVSPost2010PropOp56
 70
     1
102
RTVSPost2010Prop57
140
1.0
102
RTVSPost2010PropOp57
 70
     1
  0
XRECORD
  5
358
102
{ACAD_REACTORS
330
357
102
}
330
357
100
AcDbXrecord
280
     1
102
RTVSPropertyOp0
 70
     1
102
RTVSPropertyOp1
 70
     1
102
RTVSPropertyOp2
 70
     1
102
RTVSPropertyOp3
 70
     1
102
RTVSPropertyOp4
 70
     1
102
RTVSPropertyOp5
 70
     1
102
RTVSPropertyOp6
 70
     1
102
RTVSPropertyOp7
 70
     1
102
RTVSPropertyOp8
 70
     1
102
RTVSPropertyOp9
 70
     1
102
RTVSPropertyOp10
 70
     1
102
RTVSPropertyOp11
 70
     1
102
RTVSPropertyOp12
 70
     1
102
RTVSPropertyOp13
 70
     1
102
RTVSPropertyOp14
 70
     1
102
RTVSPropertyOp15
 70
     1
102
RTVSPropertyOp16
 70
     1
102
RTVSPropertyOp17
 70
     1
102
RTVSPropertyOp18
 70
     1
102
RTVSPropertyOp19
 70
     1
102
RTVSPropertyOp20
 70
     1
102
RTVSPropertyOp21
 70
     1
102
RTVSPropertyOp22
 70
     1
102
RTVSPropertyOp23
 70
     1
102
RTVSPropertyOp24
 70
     1
102
RTVSPropertyOp25
 70
     1
102
RTVSPropertyOp26
 70
     1
102
RTVSPropertyOp27
 70
     1
102
RTVSPropertyOp28
 70
     1
102
RTVSPropertyOp29
 70
     1
102
RTVSPropertyOp30
 70
     1
102
RTVSPropertyOp31
 70
     1
102
RTVSPropertyOp32
 70
     1
102
RTVSPropertyOp33
 70
     1
102
RTVSPropertyOp34
 70
     1
102
RTVSPropertyOp35
 70
     1
102
RTVSPropertyOp36
 70
     1
102
RTVSPropertyOp37
 70
     1
102
RTVSPropertyOp38
 70
     1
102
RTVSPropertyOp39
 70
     1
102
RTVSPropertyOp40
 70
     1
102
RTVSPropertyOp41
 70
     1
102
RTVSPropertyOp42
 70
     1
102
RTVSPropertyOp43
 70
     1
102
RTVSPropertyOp44
 70
     1
102
RTVSPropertyOp45
 70
     1
102
RTVSPropertyOp46
 70
     1
102
RTVSPropertyOp47
 70
     1
102
RTVSPropertyOp48
 70
     1
102
RTVSPropertyOp49
 70
     1
102
RTVSPropertyOp50
 70
     1
102
RTVSPropertyOp51
 70
     0
102
RTVSPropertyOp52
 70
     0
102
RTVSPropertyOp53
 70
     1
102
RTVSPropertyOp54
 70
     1
102
RTVSPropertyOp55
 70
     1
102
RTVSPropertyOp56
 70
     1
102
RTVSPropertyOp57
 70
     1
102
RTVSPost2010Prop28
280
     0
102
RTVSPost2010PropOp28
 70
     1
102
RTVSPost2010Prop29
280
     1
102
RTVSPost2010PropOp29
 70
     1
102
RTVSPost2010Prop30
280
     1
102
RTVSPost2010PropOp30
 70
     1
102
RTVSPost2010Prop31
280
     0
102
RTVSPost2010PropOp31
 70
     1
102
RTVSPost2010Prop32
280
     0
102
RTVSPost2010PropOp32
 70
     1
102
RTVSPost2010Prop33
280
     0
102
RTVSPost2010PropOp33
 70
     1
102
RTVSPost2010Prop34
280
     0
102
RTVSPost2010PropOp34
 70
     1
102
RTVSPost2010Prop35
280
     0
102
RTVSPost2010PropOp35
 70
     1
102
RTVSPost2010Prop36
280
     0
102
RTVSPost2010PropOp36
 70
     1
102
RTVSPost2010Prop37
 90
       50
102
RTVSPost2010PropOp37
 70
     1
102
RTVSPost2010Prop38
140
0.0
102
RTVSPost2010PropOp38
 70
     1
102
RTVSPost2010Prop39
140
1.0
102
RTVSPost2010PropOp39
 70
     1
102
RTVSPost2010Prop40
 90
        0
102
RTVSPost2010PropOp40
 70
     1
102
RTVSPost2010Prop41ColorIndex
 90
       18
102
RTVSPost2010Prop41ColorRGB
 90
        0
102
RTVSPost2010PropOp41
 70
     1
102
RTVSPost2010Prop42
 90
       50
102
RTVSPost2010PropOp42
 70
     1
102
RTVSPost2010Prop43
 90
        3
102
RTVSPost2010PropOp43
 70
     1
102
RTVSPost2010Prop44ColorIndex
 90
        5
102
RTVSPost2010Prop44ColorRGB
 90
      255
102
RTVSPost2010PropOp44
 70
     1
102
RTVSPost2010Prop45
280
     0
102
RTVSPost2010PropOp45
 70
     1
102
RTVSPost2010Prop46
 90
       50
102
RTVSPost2010PropOp46
 70
     1
102
RTVSPost2010Prop47
 90
       50
102
RTVSPost2010PropOp47
 70
     1
102
RTVSPost2010Prop48
 90
       50
102
RTVSPost2010PropOp48
 70
     1
102
RTVSPost2010Prop49
280
     0
102
RTVSPost2010PropOp49
 70
     1
102
RTVSPost2010Prop50
 90
       50
102
RTVSPost2010PropOp50
 70
     1
102
RTVSPost2010Prop51ColorIndex
 90
      256
102
RTVSPost2010Prop51ColorRGB
 90
-16777216
102
RTVSPost2010PropOp51
 70
     0
102
RTVSPost2010Prop52
140
1.0
102
RTVSPost2010PropOp52
 70
     0
102
RTVSPost2010Prop53
 90
        2
102
RTVSPost2010PropOp53
 70
     1
102
RTVSPost2010Prop54
  1
strokes_ogs.tif
102
RTVSPost2010PropOp54
 70
     1
102
RTVSPost2010Prop55
280
     0
102
RTVSPost2010PropOp55
 70
     1
102
RTVSPost2010Prop56
140
1.0
102
RTVSPost2010PropOp56
 70
     1
102
RTVSPost2010Prop57
140
1.0
102
RTVSPost2010PropOp57
 70
     1
  0
XRECORD
  5
356
102
{ACAD_REACTORS
330
355
102
}
330
355
100
AcDbXrecord
280
     1
102
RTVSPropertyOp0
 70
     1
102
RTVSPropertyOp1
 70
     1
102
RTVSPropertyOp2
 70
     1
102
RTVSPropertyOp3
 70
     1
102
RTVSPropertyOp4
 70
     1
102
RTVSPropertyOp5
 70
     1
102
RTVSPropertyOp6
 70
     1
102
RTVSPropertyOp7
 70
     1
102
RTVSPropertyOp8
 70
     1
102
RTVSPropertyOp9
 70
     1
102
RTVSPropertyOp10
 70
     1
102
RTVSPropertyOp11
 70
     1
102
RTVSPropertyOp12
 70
     1
102
RTVSPropertyOp13
 70
     1
102
RTVSPropertyOp14
 70
     1
102
RTVSPropertyOp15
 70
     1
102
RTVSPropertyOp16
 70
     1
102
RTVSPropertyOp17
 70
     1
102
RTVSPropertyOp18
 70
     1
102
RTVSPropertyOp19
 70
     1
102
RTVSPropertyOp20
 70
     1
102
RTVSPropertyOp21
 70
     1
102
RTVSPropertyOp22
 70
     1
102
RTVSPropertyOp23
 70
     1
102
RTVSPropertyOp24
 70
     1
102
RTVSPropertyOp25
 70
     1
102
RTVSPropertyOp26
 70
     1
102
RTVSPropertyOp27
 70
     1
102
RTVSPropertyOp28
 70
     1
102
RTVSPropertyOp29
 70
     1
102
RTVSPropertyOp30
 70
     1
102
RTVSPropertyOp31
 70
     1
102
RTVSPropertyOp32
 70
     1
102
RTVSPropertyOp33
 70
     1
102
RTVSPropertyOp34
 70
     1
102
RTVSPropertyOp35
 70
     1
102
RTVSPropertyOp36
 70
     1
102
RTVSPropertyOp37
 70
     1
102
RTVSPropertyOp38
 70
     1
102
RTVSPropertyOp39
 70
     1
102
RTVSPropertyOp40
 70
     1
102
RTVSPropertyOp41
 70
     1
102
RTVSPropertyOp42
 70
     1
102
RTVSPropertyOp43
 70
     1
102
RTVSPropertyOp44
 70
     1
102
RTVSPropertyOp45
 70
     1
102
RTVSPropertyOp46
 70
     1
102
RTVSPropertyOp47
 70
     1
102
RTVSPropertyOp48
 70
     1
102
RTVSPropertyOp49
 70
     1
102
RTVSPropertyOp50
 70
     1
102
RTVSPropertyOp51
 70
     0
102
RTVSPropertyOp52
 70
     0
102
RTVSPropertyOp53
 70
     1
102
RTVSPropertyOp54
 70
     1
102
RTVSPropertyOp55
 70
     1
102
RTVSPropertyOp56
 70
     1
102
RTVSPropertyOp57
 70
     1
102
RTVSPost2010Prop28
280
     0
102
RTVSPost2010PropOp28
 70
     1
102
RTVSPost2010Prop29
280
     1
102
RTVSPost2010PropOp29
 70
     1
102
RTVSPost2010Prop30
280
     1
102
RTVSPost2010PropOp30
 70
     1
102
RTVSPost2010Prop31
280
     0
102
RTVSPost2010PropOp31
 70
     1
102
RTVSPost2010Prop32
280
     0
102
RTVSPost2010PropOp32
 70
     1
102
RTVSPost2010Prop33
280
     0
102
RTVSPost2010PropOp33
 70
     1
102
RTVSPost2010Prop34
280
     0
102
RTVSPost2010PropOp34
 70
     1
102
RTVSPost2010Prop35
280
     0
102
RTVSPost2010PropOp35
 70
     1
102
RTVSPost2010Prop36
280
     0
102
RTVSPost2010PropOp36
 70
     1
102
RTVSPost2010Prop37
 90
       50
102
RTVSPost2010PropOp37
 70
     1
102
RTVSPost2010Prop38
140
0.0
102
RTVSPost2010PropOp38
 70
     1
102
RTVSPost2010Prop39
140
1.0
102
RTVSPost2010PropOp39
 70
     1
102
RTVSPost2010Prop40
 90
        0
102
RTVSPost2010PropOp40
 70
     1
102
RTVSPost2010Prop41ColorIndex
 90
       18
102
RTVSPost2010Prop41ColorRGB
 90
        0
102
RTVSPost2010PropOp41
 70
     1
102
RTVSPost2010Prop42
 90
       50
102
RTVSPost2010PropOp42
 70
     1
102
RTVSPost2010Prop43
 90
        3
102
RTVSPost2010PropOp43
 70
     1
102
RTVSPost2010Prop44ColorIndex
 90
        5
102
RTVSPost2010Prop44ColorRGB
 90
      255
102
RTVSPost2010PropOp44
 70
     1
102
RTVSPost2010Prop45
280
     0
102
RTVSPost2010PropOp45
 70
     1
102
RTVSPost2010Prop46
 90
       50
102
RTVSPost2010PropOp46
 70
     1
102
RTVSPost2010Prop47
 90
       50
102
RTVSPost2010PropOp47
 70
     1
102
RTVSPost2010Prop48
 90
       50
102
RTVSPost2010PropOp48
 70
     1
102
RTVSPost2010Prop49
280
     0
102
RTVSPost2010PropOp49
 70
     1
102
RTVSPost2010Prop50
 90
       50
102
RTVSPost2010PropOp50
 70
     1
102
RTVSPost2010Prop51ColorIndex
 90
      256
102
RTVSPost2010Prop51ColorRGB
 90
-16777216
102
RTVSPost2010PropOp51
 70
     0
102
RTVSPost2010Prop52
140
1.0
102
RTVSPost2010PropOp52
 70
     0
102
RTVSPost2010Prop53
 90
        2
102
RTVSPost2010PropOp53
 70
     1
102
RTVSPost2010Prop54
  1
strokes_ogs.tif
102
RTVSPost2010PropOp54
 70
     1
102
RTVSPost2010Prop55
280
     0
102
RTVSPost2010PropOp55
 70
     1
102
RTVSPost2010Prop56
140
1.0
102
RTVSPost2010PropOp56
 70
     1
102
RTVSPost2010Prop57
140
1.0
102
RTVSPost2010PropOp57
 70
     1
  0
XRECORD
  5
350
102
{ACAD_REACTORS
330
34F
102
}
330
34F
100
AcDbXrecord
280
     1
102
RTVSPropertyOp0
 70
     1
102
RTVSPropertyOp1
 70
     1
102
RTVSPropertyOp2
 70
     1
102
RTVSPropertyOp3
 70
     1
102
RTVSPropertyOp4
 70
     1
102
RTVSPropertyOp5
 70
     1
102
RTVSPropertyOp6
 70
     1
102
RTVSPropertyOp7
 70
     1
102
RTVSPropertyOp8
 70
     1
102
RTVSPropertyOp9
 70
     1
102
RTVSPropertyOp10
 70
     1
102
RTVSPropertyOp11
 70
     1
102
RTVSPropertyOp12
 70
     1
102
RTVSPropertyOp13
 70
     1
102
RTVSPropertyOp14
 70
     1
102
RTVSPropertyOp15
 70
     1
102
RTVSPropertyOp16
 70
     1
102
RTVSPropertyOp17
 70
     1
102
RTVSPropertyOp18
 70
     1
102
RTVSPropertyOp19
 70
     1
102
RTVSPropertyOp20
 70
     1
102
RTVSPropertyOp21
 70
     1
102
RTVSPropertyOp22
 70
     1
102
RTVSPropertyOp23
 70
     1
102
RTVSPropertyOp24
 70
     1
102
RTVSPropertyOp25
 70
     1
102
RTVSPropertyOp26
 70
     1
102
RTVSPropertyOp27
 70
     1
102
RTVSPropertyOp28
 70
     1
102
RTVSPropertyOp29
 70
     1
102
RTVSPropertyOp30
 70
     1
102
RTVSPropertyOp31
 70
     1
102
RTVSPropertyOp32
 70
     1
102
RTVSPropertyOp33
 70
     1
102
RTVSPropertyOp34
 70
     1
102
RTVSPropertyOp35
 70
     1
102
RTVSPropertyOp36
 70
     1
102
RTVSPropertyOp37
 70
     1
102
RTVSPropertyOp38
 70
     1
102
RTVSPropertyOp39
 70
     1
102
RTVSPropertyOp40
 70
     1
102
RTVSPropertyOp41
 70
     1
102
RTVSPropertyOp42
 70
     1
102
RTVSPropertyOp43
 70
     1
102
RTVSPropertyOp44
 70
     1
102
RTVSPropertyOp45
 70
     1
102
RTVSPropertyOp46
 70
     1
102
RTVSPropertyOp47
 70
     1
102
RTVSPropertyOp48
 70
     1
102
RTVSPropertyOp49
 70
     1
102
RTVSPropertyOp50
 70
     1
102
RTVSPropertyOp51
 70
     0
102
RTVSPropertyOp52
 70
     0
102
RTVSPropertyOp53
 70
     1
102
RTVSPropertyOp54
 70
     1
102
RTVSPropertyOp55
 70
     1
102
RTVSPropertyOp56
 70
     1
102
RTVSPropertyOp57
 70
     1
102
RTVSPost2010Prop28
280
     0
102
RTVSPost2010PropOp28
 70
     1
102
RTVSPost2010Prop29
280
     1
102
RTVSPost2010PropOp29
 70
     1
102
RTVSPost2010Prop30
280
     1
102
RTVSPost2010PropOp30
 70
     1
102
RTVSPost2010Prop31
280
     0
102
RTVSPost2010PropOp31
 70
     1
102
RTVSPost2010Prop32
280
     0
102
RTVSPost2010PropOp32
 70
     1
102
RTVSPost2010Prop33
280
     0
102
RTVSPost2010PropOp33
 70
     1
102
RTVSPost2010Prop34
280
     0
102
RTVSPost2010PropOp34
 70
     1
102
RTVSPost2010Prop35
280
     0
102
RTVSPost2010PropOp35
 70
     1
102
RTVSPost2010Prop36
280
     0
102
RTVSPost2010PropOp36
 70
     1
102
RTVSPost2010Prop37
 90
       50
102
RTVSPost2010PropOp37
 70
     1
102
RTVSPost2010Prop38
140
0.0
102
RTVSPost2010PropOp38
 70
     1
102
RTVSPost2010Prop39
140
1.0
102
RTVSPost2010PropOp39
 70
     1
102
RTVSPost2010Prop40
 90
        0
102
RTVSPost2010PropOp40
 70
     1
102
RTVSPost2010Prop41ColorIndex
 90
       18
102
RTVSPost2010Prop41ColorRGB
 90
        0
102
RTVSPost2010PropOp41
 70
     1
102
RTVSPost2010Prop42
 90
       50
102
RTVSPost2010PropOp42
 70
     1
102
RTVSPost2010Prop43
 90
        3
102
RTVSPost2010PropOp43
 70
     1
102
RTVSPost2010Prop44ColorIndex
 90
        5
102
RTVSPost2010Prop44ColorRGB
 90
      255
102
RTVSPost2010PropOp44
 70
     1
102
RTVSPost2010Prop45
280
     0
102
RTVSPost2010PropOp45
 70
     1
102
RTVSPost2010Prop46
 90
       50
102
RTVSPost2010PropOp46
 70
     1
102
RTVSPost2010Prop47
 90
       50
102
RTVSPost2010PropOp47
 70
     1
102
RTVSPost2010Prop48
 90
       50
102
RTVSPost2010PropOp48
 70
     1
102
RTVSPost2010Prop49
280
     0
102
RTVSPost2010PropOp49
 70
     1
102
RTVSPost2010Prop50
 90
       50
102
RTVSPost2010PropOp50
 70
     1
102
RTVSPost2010Prop51ColorIndex
 90
      256
102
RTVSPost2010Prop51ColorRGB
 90
-16777216
102
RTVSPost2010PropOp51
 70
     0
102
RTVSPost2010Prop52
140
1.0
102
RTVSPost2010PropOp52
 70
     0
102
RTVSPost2010Prop53
 90
        2
102
RTVSPost2010PropOp53
 70
     1
102
RTVSPost2010Prop54
  1
strokes_ogs.tif
102
RTVSPost2010PropOp54
 70
     1
102
RTVSPost2010Prop55
280
     0
102
RTVSPost2010PropOp55
 70
     1
102
RTVSPost2010Prop56
140
1.0
102
RTVSPost2010PropOp56
 70
     1
102
RTVSPost2010Prop57
140
1.0
102
RTVSPost2010PropOp57
 70
     1
  0
XRECORD
  5
352
102
{ACAD_REACTORS
330
351
102
}
330
351
100
AcDbXrecord
280
     1
102
RTVSPropertyOp0
 70
     1
102
RTVSPropertyOp1
 70
     1
102
RTVSPropertyOp2
 70
     1
102
RTVSPropertyOp3
 70
     1
102
RTVSPropertyOp4
 70
     1
102
RTVSPropertyOp5
 70
     1
102
RTVSPropertyOp6
 70
     1
102
RTVSPropertyOp7
 70
     1
102
RTVSPropertyOp8
 70
     1
102
RTVSPropertyOp9
 70
     1
102
RTVSPropertyOp10
 70
     1
102
RTVSPropertyOp11
 70
     1
102
RTVSPropertyOp12
 70
     1
102
RTVSPropertyOp13
 70
     1
102
RTVSPropertyOp14
 70
     1
102
RTVSPropertyOp15
 70
     1
102
RTVSPropertyOp16
 70
     1
102
RTVSPropertyOp17
 70
     1
102
RTVSPropertyOp18
 70
     1
102
RTVSPropertyOp19
 70
     1
102
RTVSPropertyOp20
 70
     1
102
RTVSPropertyOp21
 70
     1
102
RTVSPropertyOp22
 70
     1
102
RTVSPropertyOp23
 70
     1
102
RTVSPropertyOp24
 70
     1
102
RTVSPropertyOp25
 70
     1
102
RTVSPropertyOp26
 70
     1
102
RTVSPropertyOp27
 70
     1
102
RTVSPropertyOp28
 70
     1
102
RTVSPropertyOp29
 70
     1
102
RTVSPropertyOp30
 70
     1
102
RTVSPropertyOp31
 70
     1
102
RTVSPropertyOp32
 70
     1
102
RTVSPropertyOp33
 70
     1
102
RTVSPropertyOp34
 70
     1
102
RTVSPropertyOp35
 70
     1
102
RTVSPropertyOp36
 70
     1
102
RTVSPropertyOp37
 70
     1
102
RTVSPropertyOp38
 70
     1
102
RTVSPropertyOp39
 70
     1
102
RTVSPropertyOp40
 70
     1
102
RTVSPropertyOp41
 70
     1
102
RTVSPropertyOp42
 70
     1
102
RTVSPropertyOp43
 70
     1
102
RTVSPropertyOp44
 70
     1
102
RTVSPropertyOp45
 70
     1
102
RTVSPropertyOp46
 70
     1
102
RTVSPropertyOp47
 70
     1
102
RTVSPropertyOp48
 70
     1
102
RTVSPropertyOp49
 70
     1
102
RTVSPropertyOp50
 70
     1
102
RTVSPropertyOp51
 70
     0
102
RTVSPropertyOp52
 70
     0
102
RTVSPropertyOp53
 70
     1
102
RTVSPropertyOp54
 70
     1
102
RTVSPropertyOp55
 70
     1
102
RTVSPropertyOp56
 70
     1
102
RTVSPropertyOp57
 70
     1
102
RTVSPost2010Prop28
280
     0
102
RTVSPost2010PropOp28
 70
     1
102
RTVSPost2010Prop29
280
     1
102
RTVSPost2010PropOp29
 70
     1
102
RTVSPost2010Prop30
280
     1
102
RTVSPost2010PropOp30
 70
     1
102
RTVSPost2010Prop31
280
     0
102
RTVSPost2010PropOp31
 70
     1
102
RTVSPost2010Prop32
280
     0
102
RTVSPost2010PropOp32
 70
     1
102
RTVSPost2010Prop33
280
     0
102
RTVSPost2010PropOp33
 70
     1
102
RTVSPost2010Prop34
280
     0
102
RTVSPost2010PropOp34
 70
     1
102
RTVSPost2010Prop35
280
     0
102
RTVSPost2010PropOp35
 70
     1
102
RTVSPost2010Prop36
280
     0
102
RTVSPost2010PropOp36
 70
     1
102
RTVSPost2010Prop37
 90
       50
102
RTVSPost2010PropOp37
 70
     1
102
RTVSPost2010Prop38
140
0.0
102
RTVSPost2010PropOp38
 70
     1
102
RTVSPost2010Prop39
140
1.0
102
RTVSPost2010PropOp39
 70
     1
102
RTVSPost2010Prop40
 90
        0
102
RTVSPost2010PropOp40
 70
     1
102
RTVSPost2010Prop41ColorIndex
 90
       18
102
RTVSPost2010Prop41ColorRGB
 90
        0
102
RTVSPost2010PropOp41
 70
     1
102
RTVSPost2010Prop42
 90
       50
102
RTVSPost2010PropOp42
 70
     1
102
RTVSPost2010Prop43
 90
        3
102
RTVSPost2010PropOp43
 70
     1
102
RTVSPost2010Prop44ColorIndex
 90
        5
102
RTVSPost2010Prop44ColorRGB
 90
      255
102
RTVSPost2010PropOp44
 70
     1
102
RTVSPost2010Prop45
280
     0
102
RTVSPost2010PropOp45
 70
     1
102
RTVSPost2010Prop46
 90
       50
102
RTVSPost2010PropOp46
 70
     1
102
RTVSPost2010Prop47
 90
       50
102
RTVSPost2010PropOp47
 70
     1
102
RTVSPost2010Prop48
 90
       50
102
RTVSPost2010PropOp48
 70
     1
102
RTVSPost2010Prop49
280
     0
102
RTVSPost2010PropOp49
 70
     1
102
RTVSPost2010Prop50
 90
       50
102
RTVSPost2010PropOp50
 70
     1
102
RTVSPost2010Prop51ColorIndex
 90
      256
102
RTVSPost2010Prop51ColorRGB
 90
-16777216
102
RTVSPost2010PropOp51
 70
     0
102
RTVSPost2010Prop52
140
1.0
102
RTVSPost2010PropOp52
 70
     0
102
RTVSPost2010Prop53
 90
        2
102
RTVSPost2010PropOp53
 70
     1
102
RTVSPost2010Prop54
  1
strokes_ogs.tif
102
RTVSPost2010PropOp54
 70
     1
102
RTVSPost2010Prop55
280
     0
102
RTVSPost2010PropOp55
 70
     1
102
RTVSPost2010Prop56
140
1.0
102
RTVSPost2010PropOp56
 70
     1
102
RTVSPost2010Prop57
140
1.0
102
RTVSPost2010PropOp57
 70
     1
  0
XRECORD
  5
342
102
{ACAD_REACTORS
330
341
102
}
330
341
100
AcDbXrecord
280
     1
102
RTVSPropertyOp0
 70
     1
102
RTVSPropertyOp1
 70
     1
102
RTVSPropertyOp2
 70
     1
102
RTVSPropertyOp3
 70
     1
102
RTVSPropertyOp4
 70
     1
102
RTVSPropertyOp5
 70
     1
102
RTVSPropertyOp6
 70
     1
102
RTVSPropertyOp7
 70
     1
102
RTVSPropertyOp8
 70
     1
102
RTVSPropertyOp9
 70
     1
102
RTVSPropertyOp10
 70
     1
102
RTVSPropertyOp11
 70
     1
102
RTVSPropertyOp12
 70
     1
102
RTVSPropertyOp13
 70
     1
102
RTVSPropertyOp14
 70
     1
102
RTVSPropertyOp15
 70
     1
102
RTVSPropertyOp16
 70
     1
102
RTVSPropertyOp17
 70
     1
102
RTVSPropertyOp18
 70
     1
102
RTVSPropertyOp19
 70
     1
102
RTVSPropertyOp20
 70
     1
102
RTVSPropertyOp21
 70
     1
102
RTVSPropertyOp22
 70
     1
102
RTVSPropertyOp23
 70
     1
102
RTVSPropertyOp24
 70
     1
102
RTVSPropertyOp25
 70
     1
102
RTVSPropertyOp26
 70
     1
102
RTVSPropertyOp27
 70
     1
102
RTVSPropertyOp28
 70
     1
102
RTVSPropertyOp29
 70
     1
102
RTVSPropertyOp30
 70
     1
102
RTVSPropertyOp31
 70
     1
102
RTVSPropertyOp32
 70
     1
102
RTVSPropertyOp33
 70
     1
102
RTVSPropertyOp34
 70
     1
102
RTVSPropertyOp35
 70
     1
102
RTVSPropertyOp36
 70
     1
102
RTVSPropertyOp37
 70
     1
102
RTVSPropertyOp38
 70
     1
102
RTVSPropertyOp39
 70
     1
102
RTVSPropertyOp40
 70
     1
102
RTVSPropertyOp41
 70
     1
102
RTVSPropertyOp42
 70
     1
102
RTVSPropertyOp43
 70
     1
102
RTVSPropertyOp44
 70
     1
102
RTVSPropertyOp45
 70
     1
102
RTVSPropertyOp46
 70
     1
102
RTVSPropertyOp47
 70
     1
102
RTVSPropertyOp48
 70
     1
102
RTVSPropertyOp49
 70
     1
102
RTVSPropertyOp50
 70
     1
102
RTVSPropertyOp51
 70
     0
102
RTVSPropertyOp52
 70
     0
102
RTVSPropertyOp53
 70
     1
102
RTVSPropertyOp54
 70
     1
102
RTVSPropertyOp55
 70
     1
102
RTVSPropertyOp56
 70
     1
102
RTVSPropertyOp57
 70
     1
102
RTVSPost2010Prop28
280
     0
102
RTVSPost2010PropOp28
 70
     1
102
RTVSPost2010Prop29
280
     1
102
RTVSPost2010PropOp29
 70
     1
102
RTVSPost2010Prop30
280
     1
102
RTVSPost2010PropOp30
 70
     1
102
RTVSPost2010Prop31
280
     0
102
RTVSPost2010PropOp31
 70
     1
102
RTVSPost2010Prop32
280
     0
102
RTVSPost2010PropOp32
 70
     1
102
RTVSPost2010Prop33
280
     0
102
RTVSPost2010PropOp33
 70
     1
102
RTVSPost2010Prop34
280
     0
102
RTVSPost2010PropOp34
 70
     1
102
RTVSPost2010Prop35
280
     0
102
RTVSPost2010PropOp35
 70
     1
102
RTVSPost2010Prop36
280
     0
102
RTVSPost2010PropOp36
 70
     1
102
RTVSPost2010Prop37
 90
       50
102
RTVSPost2010PropOp37
 70
     1
102
RTVSPost2010Prop38
140
0.0
102
RTVSPost2010PropOp38
 70
     1
102
RTVSPost2010Prop39
140
1.0
102
RTVSPost2010PropOp39
 70
     1
102
RTVSPost2010Prop40
 90
        0
102
RTVSPost2010PropOp40
 70
     1
102
RTVSPost2010Prop41ColorIndex
 90
       18
102
RTVSPost2010Prop41ColorRGB
 90
        0
102
RTVSPost2010PropOp41
 70
     1
102
RTVSPost2010Prop42
 90
       50
102
RTVSPost2010PropOp42
 70
     1
102
RTVSPost2010Prop43
 90
        3
102
RTVSPost2010PropOp43
 70
     1
102
RTVSPost2010Prop44ColorIndex
 90
        5
102
RTVSPost2010Prop44ColorRGB
 90
      255
102
RTVSPost2010PropOp44
 70
     1
102
RTVSPost2010Prop45
280
     0
102
RTVSPost2010PropOp45
 70
     1
102
RTVSPost2010Prop46
 90
       50
102
RTVSPost2010PropOp46
 70
     1
102
RTVSPost2010Prop47
 90
       50
102
RTVSPost2010PropOp47
 70
     1
102
RTVSPost2010Prop48
 90
       50
102
RTVSPost2010PropOp48
 70
     1
102
RTVSPost2010Prop49
280
     0
102
RTVSPost2010PropOp49
 70
     1
102
RTVSPost2010Prop50
 90
       50
102
RTVSPost2010PropOp50
 70
     1
102
RTVSPost2010Prop51ColorIndex
 90
      256
102
RTVSPost2010Prop51ColorRGB
 90
-16777216
102
RTVSPost2010PropOp51
 70
     0
102
RTVSPost2010Prop52
140
1.0
102
RTVSPost2010PropOp52
 70
     0
102
RTVSPost2010Prop53
 90
        2
102
RTVSPost2010PropOp53
 70
     1
102
RTVSPost2010Prop54
  1
strokes_ogs.tif
102
RTVSPost2010PropOp54
 70
     1
102
RTVSPost2010Prop55
280
     0
102
RTVSPost2010PropOp55
 70
     1
102
RTVSPost2010Prop56
140
1.0
102
RTVSPost2010PropOp56
 70
     1
102
RTVSPost2010Prop57
140
1.0
102
RTVSPost2010PropOp57
 70
     1
  0
XRECORD
  5
334
102
{ACAD_REACTORS
330
333
102
}
330
333
100
AcDbXrecord
280
     1
102
RTVSPropertyOp0
 70
     1
102
RTVSPropertyOp1
 70
     1
102
RTVSPropertyOp2
 70
     1
102
RTVSPropertyOp3
 70
     1
102
RTVSPropertyOp4
 70
     1
102
RTVSPropertyOp5
 70
     1
102
RTVSPropertyOp6
 70
     1
102
RTVSPropertyOp7
 70
     1
102
RTVSPropertyOp8
 70
     1
102
RTVSPropertyOp9
 70
     1
102
RTVSPropertyOp10
 70
     1
102
RTVSPropertyOp11
 70
     1
102
RTVSPropertyOp12
 70
     1
102
RTVSPropertyOp13
 70
     1
102
RTVSPropertyOp14
 70
     1
102
RTVSPropertyOp15
 70
     1
102
RTVSPropertyOp16
 70
     1
102
RTVSPropertyOp17
 70
     1
102
RTVSPropertyOp18
 70
     1
102
RTVSPropertyOp19
 70
     1
102
RTVSPropertyOp20
 70
     1
102
RTVSPropertyOp21
 70
     1
102
RTVSPropertyOp22
 70
     1
102
RTVSPropertyOp23
 70
     1
102
RTVSPropertyOp24
 70
     1
102
RTVSPropertyOp25
 70
     1
102
RTVSPropertyOp26
 70
     1
102
RTVSPropertyOp27
 70
     1
102
RTVSPropertyOp28
 70
     1
102
RTVSPropertyOp29
 70
     1
102
RTVSPropertyOp30
 70
     1
102
RTVSPropertyOp31
 70
     1
102
RTVSPropertyOp32
 70
     1
102
RTVSPropertyOp33
 70
     1
102
RTVSPropertyOp34
 70
     1
102
RTVSPropertyOp35
 70
     1
102
RTVSPropertyOp36
 70
     1
102
RTVSPropertyOp37
 70
     1
102
RTVSPropertyOp38
 70
     1
102
RTVSPropertyOp39
 70
     1
102
RTVSPropertyOp40
 70
     1
102
RTVSPropertyOp41
 70
     1
102
RTVSPropertyOp42
 70
     1
102
RTVSPropertyOp43
 70
     1
102
RTVSPropertyOp44
 70
     1
102
RTVSPropertyOp45
 70
     1
102
RTVSPropertyOp46
 70
     1
102
RTVSPropertyOp47
 70
     1
102
RTVSPropertyOp48
 70
     1
102
RTVSPropertyOp49
 70
     1
102
RTVSPropertyOp50
 70
     1
102
RTVSPropertyOp51
 70
     0
102
RTVSPropertyOp52
 70
     0
102
RTVSPropertyOp53
 70
     1
102
RTVSPropertyOp54
 70
     1
102
RTVSPropertyOp55
 70
     1
102
RTVSPropertyOp56
 70
     1
102
RTVSPropertyOp57
 70
     1
102
RTVSPost2010Prop28
280
     0
102
RTVSPost2010PropOp28
 70
     1
102
RTVSPost2010Prop29
280
     1
102
RTVSPost2010PropOp29
 70
     1
102
RTVSPost2010Prop30
280
     1
102
RTVSPost2010PropOp30
 70
     1
102
RTVSPost2010Prop31
280
     0
102
RTVSPost2010PropOp31
 70
     1
102
RTVSPost2010Prop32
280
     0
102
RTVSPost2010PropOp32
 70
     1
102
RTVSPost2010Prop33
280
     0
102
RTVSPost2010PropOp33
 70
     1
102
RTVSPost2010Prop34
280
     0
102
RTVSPost2010PropOp34
 70
     1
102
RTVSPost2010Prop35
280
     0
102
RTVSPost2010PropOp35
 70
     1
102
RTVSPost2010Prop36
280
     0
102
RTVSPost2010PropOp36
 70
     1
102
RTVSPost2010Prop37
 90
       50
102
RTVSPost2010PropOp37
 70
     1
102
RTVSPost2010Prop38
140
0.0
102
RTVSPost2010PropOp38
 70
     1
102
RTVSPost2010Prop39
140
1.0
102
RTVSPost2010PropOp39
 70
     1
102
RTVSPost2010Prop40
 90
        0
102
RTVSPost2010PropOp40
 70
     1
102
RTVSPost2010Prop41ColorIndex
 90
       18
102
RTVSPost2010Prop41ColorRGB
 90
        0
102
RTVSPost2010PropOp41
 70
     1
102
RTVSPost2010Prop42
 90
       50
102
RTVSPost2010PropOp42
 70
     1
102
RTVSPost2010Prop43
 90
        3
102
RTVSPost2010PropOp43
 70
     1
102
RTVSPost2010Prop44ColorIndex
 90
        5
102
RTVSPost2010Prop44ColorRGB
 90
      255
102
RTVSPost2010PropOp44
 70
     1
102
RTVSPost2010Prop45
280
     0
102
RTVSPost2010PropOp45
 70
     1
102
RTVSPost2010Prop46
 90
       50
102
RTVSPost2010PropOp46
 70
     1
102
RTVSPost2010Prop47
 90
       50
102
RTVSPost2010PropOp47
 70
     1
102
RTVSPost2010Prop48
 90
       50
102
RTVSPost2010PropOp48
 70
     1
102
RTVSPost2010Prop49
280
     0
102
RTVSPost2010PropOp49
 70
     1
102
RTVSPost2010Prop50
 90
       50
102
RTVSPost2010PropOp50
 70
     1
102
RTVSPost2010Prop51ColorIndex
 90
      256
102
RTVSPost2010Prop51ColorRGB
 90
-16777216
102
RTVSPost2010PropOp51
 70
     0
102
RTVSPost2010Prop52
140
1.0
102
RTVSPost2010PropOp52
 70
     0
102
RTVSPost2010Prop53
 90
        2
102
RTVSPost2010PropOp53
 70
     1
102
RTVSPost2010Prop54
  1
strokes_ogs.tif
102
RTVSPost2010PropOp54
 70
     1
102
RTVSPost2010Prop55
280
     0
102
RTVSPost2010PropOp55
 70
     1
102
RTVSPost2010Prop56
140
1.0
102
RTVSPost2010PropOp56
 70
     1
102
RTVSPost2010Prop57
140
1.0
102
RTVSPost2010PropOp57
 70
     1
  0
XRECORD
  5
354
102
{ACAD_REACTORS
330
353
102
}
330
353
100
AcDbXrecord
280
     1
102
RTVSPropertyOp0
 70
     1
102
RTVSPropertyOp1
 70
     1
102
RTVSPropertyOp2
 70
     1
102
RTVSPropertyOp3
 70
     1
102
RTVSPropertyOp4
 70
     1
102
RTVSPropertyOp5
 70
     1
102
RTVSPropertyOp6
 70
     1
102
RTVSPropertyOp7
 70
     1
102
RTVSPropertyOp8
 70
     1
102
RTVSPropertyOp9
 70
     1
102
RTVSPropertyOp10
 70
     1
102
RTVSPropertyOp11
 70
     1
102
RTVSPropertyOp12
 70
     1
102
RTVSPropertyOp13
 70
     1
102
RTVSPropertyOp14
 70
     1
102
RTVSPropertyOp15
 70
     1
102
RTVSPropertyOp16
 70
     1
102
RTVSPropertyOp17
 70
     1
102
RTVSPropertyOp18
 70
     1
102
RTVSPropertyOp19
 70
     1
102
RTVSPropertyOp20
 70
     1
102
RTVSPropertyOp21
 70
     1
102
RTVSPropertyOp22
 70
     1
102
RTVSPropertyOp23
 70
     1
102
RTVSPropertyOp24
 70
     1
102
RTVSPropertyOp25
 70
     1
102
RTVSPropertyOp26
 70
     1
102
RTVSPropertyOp27
 70
     1
102
RTVSPropertyOp28
 70
     1
102
RTVSPropertyOp29
 70
     1
102
RTVSPropertyOp30
 70
     1
102
RTVSPropertyOp31
 70
     1
102
RTVSPropertyOp32
 70
     1
102
RTVSPropertyOp33
 70
     1
102
RTVSPropertyOp34
 70
     1
102
RTVSPropertyOp35
 70
     1
102
RTVSPropertyOp36
 70
     1
102
RTVSPropertyOp37
 70
     1
102
RTVSPropertyOp38
 70
     1
102
RTVSPropertyOp39
 70
     1
102
RTVSPropertyOp40
 70
     1
102
RTVSPropertyOp41
 70
     1
102
RTVSPropertyOp42
 70
     1
102
RTVSPropertyOp43
 70
     1
102
RTVSPropertyOp44
 70
     1
102
RTVSPropertyOp45
 70
     1
102
RTVSPropertyOp46
 70
     1
102
RTVSPropertyOp47
 70
     1
102
RTVSPropertyOp48
 70
     1
102
RTVSPropertyOp49
 70
     1
102
RTVSPropertyOp50
 70
     1
102
RTVSPropertyOp51
 70
     0
102
RTVSPropertyOp52
 70
     0
102
RTVSPropertyOp53
 70
     1
102
RTVSPropertyOp54
 70
     1
102
RTVSPropertyOp55
 70
     1
102
RTVSPropertyOp56
 70
     1
102
RTVSPropertyOp57
 70
     1
102
RTVSPost2010Prop28
280
     0
102
RTVSPost2010PropOp28
 70
     1
102
RTVSPost2010Prop29
280
     1
102
RTVSPost2010PropOp29
 70
     1
102
RTVSPost2010Prop30
280
     1
102
RTVSPost2010PropOp30
 70
     1
102
RTVSPost2010Prop31
280
     0
102
RTVSPost2010PropOp31
 70
     1
102
RTVSPost2010Prop32
280
     0
102
RTVSPost2010PropOp32
 70
     1
102
RTVSPost2010Prop33
280
     0
102
RTVSPost2010PropOp33
 70
     1
102
RTVSPost2010Prop34
280
     0
102
RTVSPost2010PropOp34
 70
     1
102
RTVSPost2010Prop35
280
     0
102
RTVSPost2010PropOp35
 70
     1
102
RTVSPost2010Prop36
280
     0
102
RTVSPost2010PropOp36
 70
     1
102
RTVSPost2010Prop37
 90
       50
102
RTVSPost2010PropOp37
 70
     1
102
RTVSPost2010Prop38
140
0.0
102
RTVSPost2010PropOp38
 70
     1
102
RTVSPost2010Prop39
140
1.0
102
RTVSPost2010PropOp39
 70
     1
102
RTVSPost2010Prop40
 90
        0
102
RTVSPost2010PropOp40
 70
     1
102
RTVSPost2010Prop41ColorIndex
 90
       18
102
RTVSPost2010Prop41ColorRGB
 90
        0
102
RTVSPost2010PropOp41
 70
     1
102
RTVSPost2010Prop42
 90
       50
102
RTVSPost2010PropOp42
 70
     1
102
RTVSPost2010Prop43
 90
        3
102
RTVSPost2010PropOp43
 70
     1
102
RTVSPost2010Prop44ColorIndex
 90
        5
102
RTVSPost2010Prop44ColorRGB
 90
      255
102
RTVSPost2010PropOp44
 70
     1
102
RTVSPost2010Prop45
280
     0
102
RTVSPost2010PropOp45
 70
     1
102
RTVSPost2010Prop46
 90
       50
102
RTVSPost2010PropOp46
 70
     1
102
RTVSPost2010Prop47
 90
       50
102
RTVSPost2010PropOp47
 70
     1
102
RTVSPost2010Prop48
 90
       50
102
RTVSPost2010PropOp48
 70
     1
102
RTVSPost2010Prop49
280
     0
102
RTVSPost2010PropOp49
 70
     1
102
RTVSPost2010Prop50
 90
       50
102
RTVSPost2010PropOp50
 70
     1
102
RTVSPost2010Prop51ColorIndex
 90
      256
102
RTVSPost2010Prop51ColorRGB
 90
-16777216
102
RTVSPost2010PropOp51
 70
     0
102
RTVSPost2010Prop52
140
1.0
102
RTVSPost2010PropOp52
 70
     0
102
RTVSPost2010Prop53
 90
        2
102
RTVSPost2010PropOp53
 70
     1
102
RTVSPost2010Prop54
  1
strokes_ogs.tif
102
RTVSPost2010PropOp54
 70
     1
102
RTVSPost2010Prop55
280
     0
102
RTVSPost2010PropOp55
 70
     1
102
RTVSPost2010Prop56
140
1.0
102
RTVSPost2010PropOp56
 70
     1
102
RTVSPost2010Prop57
140
1.0
102
RTVSPost2010PropOp57
 70
     1
  0
ENDSEC
  0
EOF
