  0
SECTION
  2
HEADER
  9
$ACADVER
  1
AC1021
  9
$ACADMAINTVER
 70
    25
  9
$DWGCODEPAGE
  3
ANSI_1252
  9
$INSBASE
 10
0.0
 20
0.0
 30
0.0
  9
$EXTMIN
 10
0.0
 20
0.0
 30
0.0
  9
$EXTMAX
 10
420.0
 20
297.0
 30
0.0
  9
$LIMMIN
 10
0.0
 20
0.0
  9
$LIMMAX
 10
420.0
 20
297.0
  9
$ORTHOMODE
 70
     0
  9
$REGENMODE
 70
     1
  9
$FILLMODE
 70
     1
  9
$QTEXTMODE
 70
     0
  9
$MIRRTEXT
 70
     1
  9
$LTSCALE
 40
1.0
  9
$ATTMODE
 70
     1
  9
$TEXTSIZE
 40
2.5
  9
$TRACEWID
 40
1.0
  9
$TEXTSTYLE
  7
Standard
  9
$CLAYER
  8
0
  9
$CELTYPE
  6
ByLayer
  9
$CECOLOR
 62
   256
  9
$CELTSCALE
 40
1.0
  9
$DISPSILH
 70
     0
  9
$DIMSCALE
 40
1.0
  9
$DIMASZ
 40
2.5
  9
$DIMEXO
 40
0.625
  9
$DIMDLI
 40
3.75
  9
$DIMRND
 40
0.0
  9
$DIMDLE
 40
0.0
  9
$DIMEXE
 40
1.25
  9
$DIMTP
 40
0.0
  9
$DIMTM
 40
0.0
  9
$DIMTXT
 40
2.5
  9
$DIMCEN
 40
2.5
  9
$DIMTSZ
 40
0.0
  9
$DIMTOL
 70
     0
  9
$DIMLIM
 70
     0
  9
$DIMTIH
 70
     0
  9
$DIMTOH
 70
     0
  9
$DIMSE1
 70
     0
  9
$DIMSE2
 70
     0
  9
$DIMTAD
 70
     1
  9
$DIMZIN
 70
     8
  9
$DIMBLK
  1

  9
$DIMASO
 70
     1
  9
$DIMSHO
 70
     1
  9
$DIMPOST
  1

  9
$DIMAPOST
  1

  9
$DIMALT
 70
     0
  9
$DIMALTD
 70
     3
  9
$DIMALTF
 40
0.0393700787
  9
$DIMLFAC
 40
1.0
  9
$DIMTOFL
 70
     1
  9
$DIMTVP
 40
0.0
  9
$DIMTIX
 70
     0
  9
$DIMSOXD
 70
     0
  9
$DIMSAH
 70
     0
  9
$DIMBLK1
  1

  9
$DIMBLK2
  1

  9
$DIMSTYLE
  2
ISO-25
  9
$DIMCLRD
 70
     0
  9
$DIMCLRE
 70
     0
  9
$DIMCLRT
 70
     0
  9
$DIMTFAC
 40
1.0
  9
$DIMGAP
 40
0.625
  9
$DIMJUST
 70
     0
  9
$DIMSD1
 70
     0
  9
$DIMSD2
 70
     0
  9
$DIMTOLJ
 70
     0
  9
$DIMTZIN
 70
     8
  9
$DIMALTZ
 70
     0
  9
$DIMALTTZ
 70
     0
  9
$DIMUPT
 70
     0
  9
$DIMDEC
 70
     2
  9
$DIMTDEC
 70
     2
  9
$DIMALTU
 70
     2
  9
$DIMALTTD
 70
     3
  9
$DIMTXSTY
  7
Standard
  9
$DIMAUNIT
 70
     0
  9
$DIMADEC
 70
     0
  9
$DIMALTRND
 40
0.0
  9
$DIMAZIN
 70
     0
  9
$DIMDSEP
 70
    44
  9
$DIMATFIT
 70
     3
  9
$DIMFRAC
 70
     0
  9
$DIMLDRBLK
  1

  9
$DIMLUNIT
 70
     2
  9
$DIMLWD
 70
    -2
  9
$DIMLWE
 70
    -2
  9
$DIMTMOVE
 70
     0
  9
$DIMFXL
 40
1.0
  9
$DIMFXLON
 70
     0
  9
$DIMJOGANG
 40
0.7853981634
  9
$DIMTFILL
 70
     0
  9
$DIMTFILLCLR
 70
     0
  9
$DIMARCSYM
 70
     0
  9
$DIMLTYPE
  6

  9
$DIMLTEX1
  6

  9
$DIMLTEX2
  6

  9
$LUNITS
 70
     2
  9
$LUPREC
 70
     4
  9
$SKETCHINC
 40
1.0
  9
$FILLETRAD
 40
10.0
  9
$AUNITS
 70
     0
  9
$AUPREC
 70
     0
  9
$MENU
  1
.
  9
$ELEVATION
 40
0.0
  9
$PELEVATION
 40
0.0
  9
$THICKNESS
 40
0.0
  9
$LIMCHECK
 70
     0
  9
$CHAMFERA
 40
0.0
  9
$CHAMFERB
 40
0.0
  9
$CHAMFERC
 40
0.0
  9
$CHAMFERD
 40
0.0
  9
$SKPOLY
 70
     0
  9
$TDCREATE
 40
2458060.653352905
  9
$TDUCREATE
 40
2458060.611686239
  9
$TDUPDATE
 40
2458060.653353599
  9
$TDUUPDATE
 40
2458060.611686933
  9
$TDINDWG
 40
0.0000000116
  9
$TDUSRTIMER
 40
0.0000000116
  9
$USRTIMER
 70
     1
  9
$ANGBASE
 50
0.0
  9
$ANGDIR
 70
     0
  9
$PDMODE
 70
     0
  9
$PDSIZE
 40
0.0
  9
$PLINEWID
 40
0.0
  9
$SPLFRAME
 70
     0
  9
$SPLINETYPE
 70
     6
  9
$SPLINESEGS
 70
     8
  9
$HANDSEED
  5
344
  9
$SURFTAB1
 70
     6
  9
$SURFTAB2
 70
     6
  9
$SURFTYPE
 70
     6
  9
$SURFU
 70
     6
  9
$SURFV
 70
     6
  9
$UCSBASE
  2

  9
$UCSNAME
  2

  9
$UCSORG
 10
0.0
 20
0.0
 30
0.0
  9
$UCSXDIR
 10
1.0
 20
0.0
 30
0.0
  9
$UCSYDIR
 10
0.0
 20
1.0
 30
0.0
  9
$UCSORTHOREF
  2

  9
$UCSORTHOVIEW
 70
     0
  9
$UCSORGTOP
 10
0.0
 20
0.0
 30
0.0
  9
$UCSORGBOTTOM
 10
0.0
 20
0.0
 30
0.0
  9
$UCSORGLEFT
 10
0.0
 20
0.0
 30
0.0
  9
$UCSORGRIGHT
 10
0.0
 20
0.0
 30
0.0
  9
$UCSORGFRONT
 10
0.0
 20
0.0
 30
0.0
  9
$UCSORGBACK
 10
0.0
 20
0.0
 30
0.0
  9
$PUCSBASE
  2

  9
$PUCSNAME
  2

  9
$PUCSORG
 10
0.0
 20
0.0
 30
0.0
  9
$PUCSXDIR
 10
1.0
 20
0.0
 30
0.0
  9
$PUCSYDIR
 10
0.0
 20
1.0
 30
0.0
  9
$PUCSORTHOREF
  2

  9
$PUCSORTHOVIEW
 70
     0
  9
$PUCSORGTOP
 10
0.0
 20
0.0
 30
0.0
  9
$PUCSORGBOTTOM
 10
0.0
 20
0.0
 30
0.0
  9
$PUCSORGLEFT
 10
0.0
 20
0.0
 30
0.0
  9
$PUCSORGRIGHT
 10
0.0
 20
0.0
 30
0.0
  9
$PUCSORGFRONT
 10
0.0
 20
0.0
 30
0.0
  9
$PUCSORGBACK
 10
0.0
 20
0.0
 30
0.0
  9
$USERI1
 70
     0
  9
$USERI2
 70
     0
  9
$USERI3
 70
     0
  9
$USERI4
 70
     0
  9
$USERI5
 70
     0
  9
$USERR1
 40
0.0
  9
$USERR2
 40
0.0
  9
$USERR3
 40
0.0
  9
$USERR4
 40
0.0
  9
$USERR5
 40
0.0
  9
$WORLDVIEW
 70
     1
  9
$SHADEDGE
 70
     3
  9
$SHADEDIF
 70
    70
  9
$TILEMODE
 70
     1
  9
$MAXACTVP
 70
    64
  9
$PINSBASE
 10
0.0
 20
0.0
 30
0.0
  9
$PLIMCHECK
 70
     0
  9
$PEXTMIN
 10
0.0
 20
0.0
 30
0.0
  9
$PEXTMAX
 10
420.0
 20
297.0
 30
0.0
  9
$PLIMMIN
 10
0.0
 20
0.0
  9
$PLIMMAX
 10
420.0
 20
297.0
  9
$UNITMODE
 70
     0
  9
$VISRETAIN
 70
     1
  9
$PLINEGEN
 70
     0
  9
$PSLTSCALE
 70
     1
  9
$TREEDEPTH
 70
  3020
  9
$CMLSTYLE
  2
Standard
  9
$CMLJUST
 70
     0
  9
$CMLSCALE
 40
20.0
  9
$PROXYGRAPHICS
 70
     1
  9
$MEASUREMENT
 70
     1
  9
$CELWEIGHT
370
    -1
  9
$ENDCAPS
280
     0
  9
$JOINSTYLE
280
     0
  9
$LWDISPLAY
290
     0
  9
$INSUNITS
 70
     4
  9
$HYPERLINKBASE
  1

  9
$STYLESHEET
  1

  9
$XEDIT
290
     1
  9
$CEPSNTYPE
380
     0
  9
$PSTYLEMODE
290
     1
  9
$FINGERPRINTGUID
  2
{AD7C7B76-7F0B-46FC-AEE3-9998C5D6413B}
  9
$VERSIONGUID
  2
{FAEB1C32-E019-11D5-929B-00C0DF256EC4}
  9
$EXTNAMES
290
     1
  9
$PSVPSCALE
 40
0.0
  9
$OLESTARTUP
290
     0
  9
$SORTENTS
280
   127
  9
$INDEXCTL
280
     0
  9
$HIDETEXT
280
     1
  9
$XCLIPFRAME
290
     0
  9
$HALOGAP
280
     0
  9
$OBSCOLOR
 70
   257
  9
$OBSLTYPE
280
     0
  9
$INTERSECTIONDISPLAY
280
     0
  9
$INTERSECTIONCOLOR
 70
   257
  9
$DIMASSOC
280
     2
  9
$PROJECTNAME
  1

  9
$CAMERADISPLAY
290
     0
  9
$LENSLENGTH
 40
50.0
  9
$CAMERAHEIGHT
 40
0.0
  9
$STEPSPERSEC
 40
2.0
  9
$STEPSIZE
 40
6.0
  9
$3DDWFPREC
 40
2.0
  9
$PSOLWIDTH
 40
5.0
  9
$PSOLHEIGHT
 40
80.0
  9
$LOFTANG1
 40
1.5707963268
  9
$LOFTANG2
 40
1.5707963268
  9
$LOFTMAG1
 40
0.0
  9
$LOFTMAG2
 40
0.0
  9
$LOFTPARAM
 70
     7
  9
$LOFTNORMALS
280
     1
  9
$LATITUDE
 40
37.795
  9
$LONGITUDE
 40
-122.394
  9
$NORTHDIRECTION
 40
0.0
  9
$TIMEZONE
 70
 -8000
  9
$LIGHTGLYPHDISPLAY
280
     1
  9
$TILEMODELIGHTSYNCH
280
     1
  9
$CMATERIAL
347
44
  9
$SOLIDHIST
280
     0
  9
$SHOWHIST
280
     1
  9
$DWFFRAME
280
     2
  9
$DGNFRAME
280
     2
  9
$REALWORLDSCALE
290
     1
  9
$INTERFERECOLOR
 62
   256
  9
$CSHADOW
280
     0
  9
$SHADOWPLANELOCATION
 40
0.0
  0
ENDSEC
  0
SECTION
  2
CLASSES
  0
CLASS
  1
ACDBDICTIONARYWDFLT
  2
AcDbDictionaryWithDefault
  3
ObjectDBX Classes
 90
        0
 91
        4
280
     0
281
     0
  0
CLASS
  1
VISUALSTYLE
  2
AcDbVisualStyle
  3
ObjectDBX Classes
 90
     4095
 91
        4
280
     0
281
     0
  0
CLASS
  1
MATERIAL
  2
AcDbMaterial
  3
ObjectDBX Classes
 90
     1153
 91
        4
280
     0
281
     0
  0
CLASS
  1
SCALE
  2
AcDbScale
  3
ObjectDBX Classes
 90
     1153
 91
        4
280
     0
281
     0
  0
CLASS
  1
TABLESTYLE
  2
AcDbTableStyle
  3
ObjectDBX Classes
 90
     4095
 91
        4
280
     0
281
     0
  0
CLASS
  1
MLEADERSTYLE
  2
AcDbMLeaderStyle
  3
ACDB_MLEADERSTYLE_CLASS
 90
     4095
 91
        4
280
     0
281
     0
  0
CLASS
  1
SUN
  2
AcDbSun
  3
SCENEOE
 90
     1153
 91
        4
280
     0
281
     0
  0
CLASS
  1
DICTIONARYVAR
  2
AcDbDictionaryVar
  3
ObjectDBX Classes
 90
        0
 91
        4
280
     0
281
     0
  0
CLASS
  1
CELLSTYLEMAP
  2
AcDbCellStyleMap
  3
ObjectDBX Classes
 90
     1152
 91
        4
280
     0
281
     0
  0
ENDSEC
  0
SECTION
  2
TABLES
  0
TABLE
  2
VPORT
  5
8
330
0
100
AcDbSymbolTable
 70
     1
  0
VPORT
  5
29
330
8
100
AcDbSymbolTableRecord
100
AcDbViewportTableRecord
  2
*Active
 70
     0
 10
0.0
 20
0.0
 11
1.0
 21
1.0
 12
344.1869158879
 22
148.5
 13
0.0
 23
0.0
 14
10.0
 24
10.0
 15
10.0
 25
10.0
 16
0.0
 26
0.0
 36
1.0
 17
0.0
 27
0.0
 37
0.0
 40
297.0
 41
1.9729729729
 42
50.0
 43
0.0
 44
0.0
 50
0.0
 51
0.0
 71
     0
 72
   100
 73
     1
 74
     3
 75
     0
 76
     0
 77
     0
 78
     0
281
     0
 65
     1
110
0.0
120
0.0
130
0.0
111
1.0
121
0.0
131
0.0
112
0.0
122
1.0
132
0.0
 79
     0
146
0.0
348
2F
 60
     3
 61
     5
292
     1
282
     1
141
0.0
142
0.0
 63
   250
361
6D
  0
ENDTAB
  0
TABLE
  2
LTYPE
  5
5
330
0
100
AcDbSymbolTable
 70
     1
  0
LTYPE
  5
14
330
5
100
AcDbSymbolTableRecord
100
AcDbLinetypeTableRecord
  2
ByBlock
 70
     0
  3

 72
    65
 73
     0
 40
0.0
  0
LTYPE
  5
15
330
5
100
AcDbSymbolTableRecord
100
AcDbLinetypeTableRecord
  2
ByLayer
 70
     0
  3

 72
    65
 73
     0
 40
0.0
  0
LTYPE
  5
16
330
5
100
AcDbSymbolTableRecord
100
AcDbLinetypeTableRecord
  2
Continuous
 70
     0
  3
Solid line
 72
    65
 73
     0
 40
0.0
  0
ENDTAB
  0
TABLE
  2
LAYER
  5
2
330
0
100
AcDbSymbolTable
 70
     3
  0
LAYER
  5
10
330
2
100
AcDbSymbolTableRecord
100
AcDbLayerTableRecord
  2
0
 70
     0
 62
     7
  6
Continuous
370
    -3
390
F
347
46
  0
LAYER
  5
6E
330
2
100
AcDbSymbolTableRecord
100
AcDbLayerTableRecord
  2
Default
 70
     0
 62
     7
  6
Continuous
370
    -3
390
F
347
46
  0
LAYER
  5
71
330
2
100
AcDbSymbolTableRecord
100
AcDbLayerTableRecord
  2
DN20
 70
     0
 62
     7
  6
Continuous
370
    -3
390
F
347
46
  0
ENDTAB
  0
TABLE
  2
STYLE
  5
3
330
0
100
AcDbSymbolTable
 70
     1
  0
STYLE
  5
11
330
3
100
AcDbSymbolTableRecord
100
AcDbTextStyleTableRecord
  2
Standard
 70
     0
 40
0.0
 41
1.0
 50
0.0
 71
     0
 42
2.5
  3
txt
  4

  0
ENDTAB
  0
TABLE
  2
VIEW
  5
6
330
0
100
AcDbSymbolTable
 70
     0
  0
ENDTAB
  0
TABLE
  2
UCS
  5
7
330
0
100
AcDbSymbolTable
 70
     0
  0
ENDTAB
  0
TABLE
  2
APPID
  5
9
330
0
100
AcDbSymbolTable
 70
     2
  0
APPID
  5
12
330
9
100
AcDbSymbolTableRecord
100
AcDbRegAppTableRecord
  2
ACAD
 70
     0
  0
APPID
  5
33C
330
9
100
AcDbSymbolTableRecord
100
AcDbRegAppTableRecord
  2
ACAD_MLEADERVER
 70
     0
  0
ENDTAB
  0
TABLE
  2
DIMSTYLE
  5
A
330
0
100
AcDbSymbolTable
 70
     1
100
AcDbDimStyleTable
  0
DIMSTYLE
105
27
330
A
100
AcDbSymbolTableRecord
100
AcDbDimStyleTableRecord
  2
ISO-25
 70
     0
 41
2.5
 42
0.625
 43
3.75
 44
1.25
 73
     0
 74
     0
 77
     1
 78
     8
140
2.5
141
2.5
143
0.0393700787
147
0.625
171
     3
172
     1
178
     0
271
     2
272
     2
274
     3
278
    44
283
     0
284
     8
340
11
  0
ENDTAB
  0
TABLE
  2
BLOCK_RECORD
  5
1
330
0
100
AcDbSymbolTable
 70
     5
  0
BLOCK_RECORD
  5
1F
330
1
100
AcDbSymbolTableRecord
100
AcDbBlockTableRecord
  2
*Model_Space
340
22
 70
     0
280
     1
281
     0
  0
BLOCK_RECORD
  5
1B
330
1
100
AcDbSymbolTableRecord
100
AcDbBlockTableRecord
  2
*Paper_Space
340
1E
 70
     0
280
     1
281
     0
  0
BLOCK_RECORD
  5
6F
330
1
100
AcDbSymbolTableRecord
100
AcDbBlockTableRecord
  2
SE
340
0
102
{BLKREFS
331
70
102
}
 70
     0
280
     1
281
     0
  0
BLOCK_RECORD
  5
127
330
1
100
AcDbSymbolTableRecord
100
AcDbBlockTableRecord
  2
SE1
340
0
102
{BLKREFS
331
128
102
}
 70
     0
280
     1
281
     0
  0
BLOCK_RECORD
  5
1DE
330
1
100
AcDbSymbolTableRecord
100
AcDbBlockTableRecord
  2
SE2
340
0
102
{BLKREFS
331
1DF
102
}
 70
     0
280
     1
281
     0
  0
BLOCK_RECORD
  5
279
330
1
100
AcDbSymbolTableRecord
100
AcDbBlockTableRecord
  2
SE3
340
0
102
{BLKREFS
331
27A
102
}
 70
     0
280
     1
281
     0
  0
ENDTAB
  0
ENDSEC
  0
SECTION
  2
BLOCKS
  0
BLOCK
  5
20
330
1F
100
AcDbEntity
  8
0
100
AcDbBlockBegin
  2
*Model_Space
 70
     0
 10
0.0
 20
0.0
 30
0.0
  3
*Model_Space
  1

  0
ENDBLK
  5
21
330
1F
100
AcDbEntity
  8
0
100
AcDbBlockEnd
  0
BLOCK
  5
1C
330
1B
100
AcDbEntity
 67
     1
  8
0
100
AcDbBlockBegin
  2
*Paper_Space
 70
     0
 10
0.0
 20
0.0
 30
0.0
  3
*Paper_Space
  1

  0
ENDBLK
  5
1D
330
1B
100
AcDbEntity
 67
     1
  8
0
100
AcDbBlockEnd
  0
BLOCK
  5
125
330
6F
100
AcDbEntity
  8
0
100
AcDbBlockBegin
  2
SE
 70
     0
 10
0.0
 20
0.0
 30
0.0
  3
SE
  1

  0
LINE
  5
72
330
6F
100
AcDbEntity
  8
DN20
  6
Continuous
 62
     7
100
AcDbLine
 10
321.8695100081
 20
141.7658004259
 30
0.0
 11
321.8695100081
 21
172.2658004259
 31
0.0
  0
LINE
  5
73
330
6F
100
AcDbEntity
  8
DN20
  6
Continuous
 62
     7
100
AcDbLine
 10
255.6663207136
 20
141.8975167931
 30
0.0
 11
255.6663207136
 21
172.2658004259
 31
0.0
  0
LINE
  5
74
330
6F
100
AcDbEntity
  8
DN20
  6
Continuous
 62
     7
100
AcDbLine
 10
245.8663207136
 20
141.8975167931
 30
0.0
 11
245.8663207136
 21
172.2658004259
 31
0.0
  0
LINE
  5
75
330
6F
100
AcDbEntity
  8
DN20
  6
Continuous
 62
     7
100
AcDbLine
 10
244.5873716225
 20
173.2658004259
 30
0.0
 11
237.9632846877
 21
173.2658004259
 31
0.0
  0
LINE
  5
76
330
6F
100
AcDbEntity
  8
DN20
  6
Continuous
 62
     7
100
AcDbLine
 10
244.5873716225
 20
173.2658004259
 30
0.0
 11
245.502348779
 21
173.2658004259
 31
0.0
  0
LINE
  5
77
330
6F
100
AcDbEntity
  8
DN20
  6
Continuous
 62
     7
100
AcDbLine
 10
322.2334819428
 20
173.2658004259
 30
0.0
 11
323.1484590993
 21
173.2658004259
 31
0.0
  0
LINE
  5
78
330
6F
100
AcDbEntity
  8
DN20
  6
Continuous
 62
     7
100
AcDbLine
 10
244.5873716225
 20
157.0158004259
 30
0.0
 11
237.9632846877
 21
157.0158004259
 31
0.0
  0
ARC
  5
79
330
6F
100
AcDbEntity
  8
DN20
  6
Continuous
 62
     7
100
AcDbCircle
 10
208.6377040776
 20
165.1408004259
 30
0.0
 40
36.85640000850862
100
AcDbArc
 50
347.2645244266
 51
12.7354755734
  0
ARC
  5
7A
330
6F
100
AcDbEntity
  8
DN20
  6
Continuous
 62
     7
100
AcDbCircle
 10
359.0981266442
 20
165.1408004259
 30
0.0
 40
36.85640000850796
100
AcDbArc
 50
167.2645244266
 51
192.7354755734
  0
LINE
  5
7B
330
6F
100
AcDbEntity
  8
DN20
  6
Continuous
 62
     7
100
AcDbLine
 10
244.5873716225
 20
140.7658004259
 30
0.0
 11
237.9632846877
 21
140.7658004259
 31
0.0
  0
ARC
  5
7C
330
6F
100
AcDbEntity
  8
DN20
  6
Continuous
 62
     7
100
AcDbCircle
 10
208.6377040776
 20
148.8908004259
 30
0.0
 40
36.85640000850879
100
AcDbArc
 50
347.2645244266
 51
12.7354755734
  0
ARC
  5
7D
330
6F
100
AcDbEntity
  8
DN20
  6
Continuous
 62
     7
100
AcDbCircle
 10
359.0981266442
 20
148.8908004259
 30
0.0
 40
36.85640000850834
100
AcDbArc
 50
167.2645244266
 51
192.7354755734
  0
LINE
  5
7E
330
6F
100
AcDbEntity
  8
DN20
  6
Continuous
 62
     7
100
AcDbLine
 10
245.502348779
 20
140.7658004259
 30
0.0
 11
244.5873716225
 21
140.7658004259
 31
0.0
  0
LINE
  5
7F
330
6F
100
AcDbEntity
  8
DN20
  6
Continuous
 62
     7
100
AcDbLine
 10
323.1484590993
 20
140.7658004259
 30
0.0
 11
322.2334819428
 21
140.7658004259
 31
0.0
  0
LINE
  5
80
330
6F
100
AcDbEntity
  8
DN20
  6
Continuous
 62
     7
100
AcDbLine
 10
260.8131373229
 20
145.6931200635
 30
0.0
 11
260.8131373229
 21
169.8658004259
 31
0.0
  0
LINE
  5
81
330
6F
100
AcDbEntity
  8
DN20
  6
Continuous
 62
     7
100
AcDbLine
 10
260.8131373229
 20
145.6931200635
 30
0.0
 11
261.6380224759
 21
145.9243833288
 31
0.0
  0
SPLINE
  5
82
330
6F
100
AcDbEntity
  8
DN20
  6
Continuous
 62
     7
100
AcDbSpline
210
0.0
220
0.0
230
1.0
 70
     8
 71
     3
 72
    16
 73
    12
 74
     0
 42
0.000000001
 43
0.0000000001
 40
0.0
 40
0.0
 40
0.0
 40
0.0
 40
0.25
 40
0.25
 40
0.5
 40
0.5
 40
0.75
 40
0.75
 40
0.875
 40
0.875
 40
1.0
 40
1.0
 40
1.0
 40
1.0
 10
261.6380224758527
 20
145.9243833287585
 30
0.0
 10
262.8314110790299
 20
146.6657408289543
 30
0.0
 10
264.1756377778997
 20
147.5092025184928
 30
0.0
 10
267.0038930478119
 20
149.3374682093453
 30
0.0
 10
268.4758769082866
 20
150.3116547221864
 30
0.0
 10
271.3799750507521
 20
152.3831598589818
 30
0.0
 10
272.8375911604732
 20
153.4678122094234
 30
0.0
 10
274.8308769059802
 20
155.4468967368854
 30
0.0
 10
275.4541751917963
 20
156.1653141630213
 30
0.0
 10
276.414123289032
 20
157.8118681595469
 30
0.0
 10
276.7109709776166
 20
158.7256351996533
 30
0.0
 10
276.7869702482768
 20
159.6577856680479
 30
0.0
  0
ARC
  5
83
330
6F
100
AcDbEntity
  8
DN20
  6
Continuous
 62
     7
100
AcDbCircle
 10
267.156365713
 20
130.0921313331
 30
0.0
 40
31.09463715768691
100
AcDbArc
 50
48.0423058802
 51
71.9576941198
  0
ARC
  5
84
330
6F
100
AcDbEntity
  8
DN20
  6
Continuous
 62
     7
100
AcDbCircle
 10
315.8842317973
 20
157.9272559219
 30
0.0
 40
28.33311904929321
100
AcDbArc
 50
189.5730732154
 51
208.9175935944
  0
LINE
  5
85
330
6F
100
AcDbEntity
  8
DN20
  6
Continuous
 62
     7
100
AcDbLine
 10
287.945671179
 20
153.2153066819
 30
0.0
 11
276.7869702483
 21
159.657785668
 31
0.0
  0
LINE
  5
86
330
6F
100
AcDbEntity
  8
DN20
  6
Continuous
 62
     7
100
AcDbLine
 10
259.6400836507
 20
145.0778938473
 30
0.0
 11
260.8131373229
 21
145.6931200635
 31
0.0
  0
LINE
  5
87
330
6F
100
AcDbEntity
  8
DN20
  6
Continuous
 62
     7
100
AcDbLine
 10
245.551735535
 20
141.0260796758
 30
0.0
 11
251.4832110262
 21
137.287267713
 31
0.0
  0
LINE
  5
88
330
6F
100
AcDbEntity
  8
DN20
  6
Continuous
 62
     7
100
AcDbLine
 10
252.4458692542
 20
138.9546406742
 30
0.0
 11
251.4832110262
 21
137.287267713
 31
0.0
  0
LINE
  5
89
330
6F
100
AcDbEntity
  8
DN20
  6
Continuous
 62
     7
100
AcDbLine
 10
255.1907794215
 20
139.6785196794
 30
0.0
 11
252.4458692542
 21
138.9546406742
 31
0.0
  0
ARC
  5
8A
330
6F
100
AcDbEntity
  8
DN20
  6
Continuous
 62
     7
100
AcDbCircle
 10
185.1386605165
 20
222.5220645087
 30
0.0
 40
107.4619077554531
100
AcDbArc
 50
311.8049135525
 51
313.8904848548
  0
LINE
  5
8B
330
6F
100
AcDbEntity
  8
DN20
  6
Continuous
 62
     7
100
AcDbLine
 10
256.7723811574
 20
142.4179342432
 30
0.0
 11
255.1907794215
 21
139.6785196794
 31
0.0
  0
LINE
  5
8C
330
6F
100
AcDbEntity
  8
DN20
  6
Continuous
 62
     7
100
AcDbLine
 10
256.7723811574
 20
142.4179342432
 30
0.0
 11
255.6663207136
 21
141.8975167931
 31
0.0
  0
LINE
  5
8D
330
6F
100
AcDbEntity
  8
DN20
  6
Continuous
 62
     7
100
AcDbLine
 10
255.6663207136
 20
141.8975167931
 30
0.0
 11
245.8663207136
 21
141.8975167931
 31
0.0
  0
LINE
  5
8E
330
6F
100
AcDbEntity
  8
DN20
  6
Continuous
 62
     7
100
AcDbLine
 10
245.8663207136
 20
141.8975167931
 30
0.0
 11
245.551735535
 21
141.0260796758
 31
0.0
  0
LINE
  5
8F
330
6F
100
AcDbEntity
  8
DN20
  6
Continuous
 62
     7
100
AcDbLine
 10
278.2983309457
 20
136.3055497489
 30
0.0
 11
261.6380224759
 21
145.9243833288
 31
0.0
  0
LINE
  5
90
330
6F
100
AcDbEntity
  8
DN20
  6
Continuous
 62
     7
100
AcDbLine
 10
280.4221551502
 20
133.0793592727
 30
0.0
 11
259.6400836507
 21
145.0778938473
 31
0.0
  0
ARC
  5
91
330
6F
100
AcDbEntity
  8
DN20
  6
Continuous
 62
     7
100
AcDbCircle
 10
396.1654712968
 20
211.5861694975
 30
0.0
 40
139.8564781634258
100
AcDbArc
 50
212.5659833352
 51
214.1484069217
  0
LINE
  5
92
330
6F
100
AcDbEntity
  8
DN20
  6
Continuous
 62
     7
100
AcDbLine
 10
278.2983309457
 20
136.3055497489
 30
0.0
 11
279.4831299902
 21
138.3576818907
 31
0.0
  0
LINE
  5
93
330
6F
100
AcDbEntity
  8
DN20
  6
Continuous
 62
     7
100
AcDbLine
 10
278.9729795985
 20
130.569313588
 30
0.0
 11
280.4221551502
 21
133.0793592727
 31
0.0
  0
LINE
  5
94
330
6F
100
AcDbEntity
  8
DN20
  6
Continuous
 62
     7
100
AcDbLine
 10
278.9729795985
 20
130.569313588
 30
0.0
 11
283.0211498081
 21
128.2321014278
 31
0.0
  0
LINE
  5
95
330
6F
100
AcDbEntity
  8
DN20
  6
Continuous
 62
     7
100
AcDbLine
 10
279.4831299902
 20
138.3576818907
 30
0.0
 11
287.5357275493
 21
133.7085125222
 31
0.0
  0
LINE
  5
96
330
6F
100
AcDbEntity
  8
DN20
  6
Continuous
 62
     7
100
AcDbLine
 10
280.9114415645
 20
122.5200348381
 30
0.0
 11
252.4458692542
 21
138.9546406742
 31
0.0
  0
LINE
  5
97
330
6F
100
AcDbEntity
  8
DN20
  6
Continuous
 62
     7
100
AcDbLine
 10
280.9114415645
 20
122.5200348381
 30
0.0
 11
280.2088986382
 21
120.782785897
 31
0.0
  0
ARC
  5
98
330
6F
100
AcDbEntity
  8
DN20
  6
Continuous
 62
     7
100
AcDbCircle
 10
342.167348321
 20
107.5858042026
 30
0.0
 40
63.34832131112028
100
AcDbArc
 50
167.9758420229
 51
169.0527880267
  0
LINE
  5
99
330
6F
100
AcDbEntity
  8
DN20
  6
Continuous
 62
     7
100
AcDbLine
 10
280.4266706971
 20
125.1085710582
 30
0.0
 11
255.1907794215
 21
139.6785196794
 31
0.0
  0
ARC
  5
9A
330
6F
100
AcDbEntity
  8
DN20
  6
Continuous
 62
     7
100
AcDbCircle
 10
294.4236068626
 20
123.4313235036
 30
0.0
 40
12.37188326646764
100
AcDbArc
 50
123.8304058824
 51
157.1674411524
  0
LINE
  5
9B
330
6F
100
AcDbEntity
  8
DN20
  6
Continuous
 62
     7
100
AcDbLine
 10
280.9053293223
 20
126.1848703399
 30
0.0
 11
280.4266706971
 21
125.1085710582
 31
0.0
  0
LINE
  5
9C
330
6F
100
AcDbEntity
  8
DN20
  6
Continuous
 62
     7
100
AcDbLine
 10
280.4266706971
 20
125.1085710582
 30
0.0
 11
280.9114415645
 21
122.5200348381
 31
0.0
  0
LINE
  5
9D
330
6F
100
AcDbEntity
  8
DN20
  6
Continuous
 62
     7
100
AcDbLine
 10
280.2088986382
 20
120.782785897
 30
0.0
 11
294.409689907
 21
128.9816165587
 31
0.0
  0
ARC
  5
9E
330
6F
100
AcDbEntity
  8
DN20
  6
Continuous
 62
     7
100
AcDbCircle
 10
307.342514672
 20
117.9829097999
 30
0.0
 40
27.68026238882109
100
AcDbArc
 50
156.8149450001
 51
162.763845001
  0
LINE
  5
9F
330
6F
100
AcDbEntity
  8
DN20
  6
Continuous
 62
     7
100
AcDbLine
 10
280.9053293223
 20
126.1848703399
 30
0.0
 11
290.0500346054
 21
131.4645683967
 31
0.0
  0
LINE
  5
A0
330
6F
100
AcDbEntity
  8
DN20
  6
Continuous
 62
     7
100
AcDbLine
 10
312.0663207136
 20
172.2658004259
 30
0.0
 11
312.0663207136
 21
142.4158777848
 31
0.0
  0
ARC
  5
A1
330
6F
100
AcDbEntity
  8
DN20
  6
Continuous
 62
     7
100
AcDbCircle
 10
304.0340951874
 20
86.6937824279
 30
0.0
 40
56.29803333923151
100
AcDbArc
 50
78.0207321022
 51
81.7974324258
  0
LINE
  5
A2
330
6F
100
AcDbEntity
  8
DN20
  6
Continuous
 62
     7
100
AcDbLine
 10
306.9195041044
 20
145.5271531502
 30
0.0
 11
306.9195041044
 21
169.8658004259
 31
0.0
  0
ARC
  5
A3
330
6F
100
AcDbEntity
  8
DN20
  6
Continuous
 62
     7
100
AcDbCircle
 10
36.5915383173
 20
-262.2324837861
 30
0.0
 40
489.2291187174093
100
AcDbArc
 50
55.9685325203
 51
56.4572493441
  0
ARC
  5
A4
330
6F
100
AcDbEntity
  8
DN20
  6
Continuous
 62
     7
100
AcDbCircle
 10
303.4938031597
 20
132.2556257535
 30
0.0
 40
13.70652641640466
100
AcDbArc
 50
75.5265056892
 51
119.1452238026
  0
LINE
  5
A5
330
6F
100
AcDbEntity
  8
DN20
  6
Continuous
 62
     7
100
AcDbLine
 10
312.0663207136
 20
142.4158777848
 30
0.0
 11
310.3877025734
 21
143.2065264728
 31
0.0
  0
LINE
  5
A6
330
6F
100
AcDbEntity
  8
DN20
  6
Continuous
 62
     7
100
AcDbLine
 10
316.135866895
 20
141.5252306912
 30
0.0
 11
300.6229515203
 21
132.5688448237
 31
0.0
  0
LINE
  5
A7
330
6F
100
AcDbEntity
  8
DN20
  6
Continuous
 62
     7
100
AcDbLine
 10
302.3729515203
 20
129.5377559105
 30
0.0
 11
300.6229515203
 21
132.5688448237
 31
0.0
  0
LINE
  5
A8
330
6F
100
AcDbEntity
  8
DN20
  6
Continuous
 62
     7
100
AcDbLine
 10
300.652479803
 20
137.5858929857
 30
0.0
 11
310.3877025734
 21
143.2065264728
 31
0.0
  0
ARC
  5
A9
330
6F
100
AcDbEntity
  8
DN20
  6
Continuous
 62
     7
100
AcDbCircle
 10
294.4086006379
 20
125.2058960883
 30
0.0
 40
13.94886865730568
100
AcDbArc
 50
122.6515233974
 51
133.6483720024
  0
LINE
  5
AA
330
6F
100
AcDbEntity
  8
DN20
  6
Continuous
 62
     7
100
AcDbLine
 10
296.159689907
 20
125.9505276455
 30
0.0
 11
294.409689907
 21
128.9816165587
 31
0.0
  0
LINE
  5
AB
330
6F
100
AcDbEntity
  8
DN20
  6
Continuous
 62
     7
100
AcDbLine
 10
294.409689907
 20
128.9816165587
 30
0.0
 11
290.0500346054
 21
131.4645683967
 31
0.0
  0
LINE
  5
AC
330
6F
100
AcDbEntity
  8
DN20
  6
Continuous
 62
     7
100
AcDbLine
 10
290.0500346054
 20
131.4645683967
 30
0.0
 11
286.8827934085
 21
136.9503910696
 31
0.0
  0
LINE
  5
AD
330
6F
100
AcDbEntity
  8
DN20
  6
Continuous
 62
     7
100
AcDbLine
 10
286.8827934085
 20
136.9503910696
 30
0.0
 11
291.083796925
 21
144.2267426029
 31
0.0
  0
LINE
  5
AE
330
6F
100
AcDbEntity
  8
DN20
  6
Continuous
 62
     7
100
AcDbLine
 10
296.159689907
 20
125.9505276455
 30
0.0
 11
302.3729515203
 21
129.5377559105
 31
0.0
  0
LINE
  5
AF
330
6F
100
AcDbEntity
  8
DN20
  6
Continuous
 62
     7
100
AcDbLine
 10
300.6229515203
 20
132.5688448237
 30
0.0
 11
300.652479803
 21
137.5858929857
 31
0.0
  0
LINE
  5
B0
330
6F
100
AcDbEntity
  8
DN20
  6
Continuous
 62
     7
100
AcDbLine
 10
300.652479803
 20
137.5858929857
 30
0.0
 11
296.8183834888
 21
144.2267426029
 31
0.0
  0
LINE
  5
B1
330
6F
100
AcDbEntity
  8
DN20
  6
Continuous
 62
     7
100
AcDbLine
 10
296.8183834888
 20
144.2267426029
 30
0.0
 11
291.083796925
 21
144.2267426029
 31
0.0
  0
ARC
  5
B2
330
6F
100
AcDbEntity
  8
DN20
  6
Continuous
 62
     7
100
AcDbCircle
 10
273.9129522326
 20
148.8908004259
 30
0.0
 40
36.85640000850845
100
AcDbArc
 50
167.2645244266
 51
192.7354755734
  0
LINE
  5
B3
330
6F
100
AcDbEntity
  8
DN20
  6
Continuous
 62
     7
100
AcDbLine
 10
237.0483072883
 20
140.7658004259
 30
0.0
 11
237.9632846877
 21
140.7658004259
 31
0.0
  0
ARC
  5
B4
330
6F
100
AcDbEntity
  8
DN20
  6
Continuous
 62
     7
100
AcDbCircle
 10
273.9129522326
 20
165.1408004259
 30
0.0
 40
36.85640000850835
100
AcDbArc
 50
167.2645244266
 51
192.7354755734
  0
LINE
  5
B5
330
6F
100
AcDbEntity
  8
DN20
  6
Continuous
 62
     7
100
AcDbLine
 10
237.9632846877
 20
173.2658004259
 30
0.0
 11
237.0483072883
 21
173.2658004259
 31
0.0
  0
LINE
  5
B6
330
6F
100
AcDbEntity
  8
DN20
  6
Continuous
 62
     7
100
AcDbLine
 10
236.8663207136
 20
172.7658004259
 30
0.0
 11
236.8663207136
 21
141.2658004259
 31
0.0
  0
LINE
  5
B7
330
6F
100
AcDbEntity
  8
DN20
  6
Continuous
 62
     7
100
AcDbLine
 10
329.7693567396
 20
157.0158004259
 30
0.0
 11
323.1484590993
 21
157.0158004259
 31
0.0
  0
LINE
  5
B8
330
6F
100
AcDbEntity
  8
DN20
  6
Continuous
 62
     7
100
AcDbLine
 10
329.7693567396
 20
173.2658004259
 30
0.0
 11
323.1484590993
 21
173.2658004259
 31
0.0
  0
ARC
  5
B9
330
6F
100
AcDbEntity
  8
DN20
  6
Continuous
 62
     7
100
AcDbCircle
 10
293.8196891947
 20
165.1408004259
 30
0.0
 40
36.85640000850839
100
AcDbArc
 50
347.2645244266
 51
12.7354755734
  0
LINE
  5
BA
330
6F
100
AcDbEntity
  8
DN20
  6
Continuous
 62
     7
100
AcDbLine
 10
329.7693567396
 20
140.7658004259
 30
0.0
 11
323.1484590993
 21
140.7658004259
 31
0.0
  0
LINE
  5
BB
330
6F
100
AcDbEntity
  8
DN20
  6
Continuous
 62
     7
100
AcDbLine
 10
330.8663207136
 20
172.7658004259
 30
0.0
 11
330.8663207136
 21
141.2658004259
 31
0.0
  0
LINE
  5
BC
330
6F
100
AcDbEntity
  8
DN20
  6
Continuous
 62
     7
100
AcDbLine
 10
329.7693567396
 20
173.2658004259
 30
0.0
 11
330.6843341387
 21
173.2658004259
 31
0.0
  0
LINE
  5
BD
330
6F
100
AcDbEntity
  8
DN20
  6
Continuous
 62
     7
100
AcDbLine
 10
330.6843341387
 20
140.7658004259
 30
0.0
 11
329.7693567396
 21
140.7658004259
 31
0.0
  0
ARC
  5
BE
330
6F
100
AcDbEntity
  8
DN20
  6
Continuous
 62
     7
100
AcDbCircle
 10
293.8196891947
 20
148.8908004259
 30
0.0
 40
36.85640000850849
100
AcDbArc
 50
347.2645244266
 51
12.7354755734
  0
LINE
  5
BF
330
6F
100
AcDbEntity
  8
DN20
  6
Continuous
 62
     7
100
AcDbLine
 10
279.8703857771
 20
119.0810220919
 30
0.0
 11
250.5942248387
 21
135.9836214905
 31
0.0
  0
ARC
  5
C0
330
6F
100
AcDbEntity
  8
DN20
  6
Continuous
 62
     7
100
AcDbCircle
 10
350.818362023
 20
104.9178449725
 30
0.0
 40
71.96345020639207
100
AcDbArc
 50
168.8142695374
 51
169.5132314676
  0
LINE
  5
C1
330
6F
100
AcDbEntity
  8
DN20
  6
Continuous
 62
     7
100
AcDbLine
 10
280.2219655653
 20
118.8780374065
 30
0.0
 11
279.8703857771
 21
119.0810220919
 31
0.0
  0
LINE
  5
C2
330
6F
100
AcDbEntity
  8
DN20
  6
Continuous
 62
     7
100
AcDbLine
 10
284.6467745323
 20
110.0659385477
 30
0.0
 11
300.2352318004
 21
119.0659385477
 31
0.0
  0
LINE
  5
C3
330
6F
100
AcDbEntity
  8
DN20
  6
Continuous
 62
     7
100
AcDbLine
 10
306.2974096269
 20
122.5659385477
 30
0.0
 11
321.885866895
 21
131.5659385477
 31
0.0
  0
ARC
  5
C4
330
6F
100
AcDbEntity
  8
DN20
  6
Continuous
 62
     7
100
AcDbCircle
 10
349.1106992947
 20
106.2308636257
 30
0.0
 40
70.42263548485612
100
AcDbArc
 50
169.1071135603
 51
169.4862205179
  0
LINE
  5
C5
330
6F
100
AcDbEntity
  8
DN20
  6
Continuous
 62
     7
100
AcDbLine
 10
308.4946873438
 20
101.2601419037
 30
0.0
 11
295.9373189889
 21
94.0101419037
 31
0.0
  0
LINE
  5
C6
330
6F
100
AcDbEntity
  8
DN20
  6
Continuous
 62
     7
100
AcDbLine
 10
295.5479965693
 20
97.249468115
 30
0.0
 11
305.8840097634
 21
103.216968115
 31
0.0
  0
LINE
  5
C7
330
6F
100
AcDbEntity
  8
DN20
  6
Continuous
 62
     7
100
AcDbLine
 10
312.9946873438
 20
93.4659132696
 30
0.0
 11
300.4373189889
 21
86.2159132696
 31
0.0
  0
LINE
  5
C8
330
6F
100
AcDbEntity
  8
DN20
  6
Continuous
 62
     7
100
AcDbLine
 10
330.1453224384
 20
113.7601419037
 30
0.0
 11
317.5879540835
 21
106.5101419037
 31
0.0
  0
LINE
  5
C9
330
6F
100
AcDbEntity
  8
DN20
  6
Continuous
 62
     7
100
AcDbLine
 10
317.1986316639
 20
109.749468115
 30
0.0
 11
327.534644858
 21
115.716968115
 31
0.0
  0
LINE
  5
CA
330
6F
100
AcDbEntity
  8
DN20
  6
Continuous
 62
     7
100
AcDbLine
 10
334.6453224384
 20
105.9659132696
 30
0.0
 11
322.0879540835
 21
98.7159132696
 31
0.0
  0
LINE
  5
CB
330
6F
100
AcDbEntity
  8
DN20
  6
Continuous
 62
     7
100
AcDbLine
 10
249.2255839537
 20
133.55676323
 30
0.0
 11
278.6205669336
 21
116.5855618937
 31
0.0
  0
LINE
  5
CC
330
6F
100
AcDbEntity
  8
DN20
  6
Continuous
 62
     7
100
AcDbLine
 10
279.972263014
 20
119.6156715745
 30
0.0
 11
250.8506435793
 21
136.4290463943
 31
0.0
  0
LINE
  5
CD
330
6F
100
AcDbEntity
  8
DN20
  6
Continuous
 62
     7
100
AcDbLine
 10
279.9569260193
 20
119.5388773917
 30
0.0
 11
250.8141170597
 21
136.3644859894
 31
0.0
  0
LINE
  5
CE
330
6F
100
AcDbEntity
  8
DN20
  6
Continuous
 62
     7
100
AcDbLine
 10
279.9569260193
 20
119.5388773917
 30
0.0
 11
279.972263014
 21
119.6156715745
 31
0.0
  0
SPLINE
  5
CF
330
6F
100
AcDbEntity
  8
DN20
  6
Continuous
 62
     7
100
AcDbSpline
210
0.0
220
0.0
230
1.0
 70
     8
 71
     3
 72
    14
 73
    10
 74
     0
 42
0.000000001
 43
0.0000000001
 40
0.0
 40
0.0
 40
0.0
 40
0.0
 40
0.25
 40
0.25
 40
0.5
 40
0.5
 40
0.75
 40
0.75
 40
1.0
 40
1.0
 40
1.0
 40
1.0
 10
269.9172384004162
 20
120.6847374658882
 30
0.0
 10
268.7442861504121
 20
121.1043894324703
 30
0.0
 10
267.5889871125466
 20
121.5614295045673
 30
0.0
 10
265.3360396480214
 20
122.5750543331779
 30
0.0
 10
264.2375902457801
 20
123.1327287512855
 30
0.0
 10
262.1043169048548
 20
124.3635529107964
 30
0.0
 10
261.0695089171294
 20
125.0367316019631
 30
0.0
 10
259.0567009628375
 20
126.4861911739288
 30
0.0
 10
258.0762624690174
 20
127.2638147331521
 30
0.0
 10
257.1272384004162
 20
128.0690474088235
 30
0.0
  0
LINE
  5
D0
330
6F
100
AcDbEntity
  8
DN20
  6
Continuous
 62
     7
100
AcDbLine
 10
257.1272384004
 20
128.0690474088
 30
0.0
 11
253.8280754437
 21
122.3547295453
 31
0.0
  0
ARC
  5
D1
330
6F
100
AcDbEntity
  8
DN20
  6
Continuous
 62
     7
100
AcDbCircle
 10
258.5386548816
 20
137.8980024079
 30
0.0
 40
9.929776072854894
100
AcDbArc
 50
218.1716867869
 51
261.8283132131
  0
LINE
  5
D2
330
6F
100
AcDbEntity
  8
DN20
  6
Continuous
 62
     7
100
AcDbLine
 10
250.7322384004
 20
131.7612023803
 30
0.0
 11
247.4330754437
 21
126.0468845168
 31
0.0
  0
LINE
  5
D3
330
6F
100
AcDbEntity
  8
DN20
  6
Continuous
 62
     7
100
AcDbLine
 10
276.3122384004
 20
116.9925824944
 30
0.0
 11
273.0130754437
 21
111.2782646309
 31
0.0
  0
ARC
  5
D4
330
6F
100
AcDbEntity
  8
DN20
  6
Continuous
 62
     7
100
AcDbCircle
 10
277.7236548816
 20
126.8215374935
 30
0.0
 40
9.929776072854574
100
AcDbArc
 50
218.1716867869
 51
261.8283132131
  0
LINE
  5
D5
330
6F
100
AcDbEntity
  8
DN20
  6
Continuous
 62
     7
100
AcDbLine
 10
269.9172384004
 20
120.6847374659
 30
0.0
 11
266.6180754437
 21
114.9704196023
 31
0.0
  0
LINE
  5
D6
330
6F
100
AcDbEntity
  8
DN20
  6
Continuous
 62
     7
100
AcDbLine
 10
266.6180754437
 20
114.9704196023
 30
0.0
 11
253.8280754437
 21
122.3547295453
 31
0.0
  0
LINE
  5
D7
330
6F
100
AcDbEntity
  8
DN20
  6
Continuous
 62
     7
100
AcDbLine
 10
253.8280754437
 20
122.3547295453
 30
0.0
 11
247.4330754437
 21
126.0468845168
 31
0.0
  0
LINE
  5
D8
330
6F
100
AcDbEntity
  8
DN20
  6
Continuous
 62
     7
100
AcDbLine
 10
273.0130754437
 20
111.2782646309
 30
0.0
 11
266.6180754437
 21
114.9704196023
 31
0.0
  0
LINE
  5
D9
330
6F
100
AcDbEntity
  8
DN20
  6
Continuous
 62
     7
100
AcDbLine
 10
266.6645002619
 20
59.8194496321
 30
0.0
 11
265.400986226
 21
60.5489398009
 31
0.0
  0
LINE
  5
DA
330
6F
100
AcDbEntity
  8
DN20
  6
Continuous
 62
     7
100
AcDbLine
 10
261.4048357194
 20
90.193618949
 30
0.0
 11
257.8070628338
 21
92.2707940929
 31
0.0
  0
ELLIPSE
  5
DB
330
6F
100
AcDbEntity
  8
DN20
  6
Continuous
 62
     7
100
AcDbEllipse
 10
291.6962070036
 20
153.5339252705
 30
0.0
 11
-48.63123875832284
 21
-84.23177636444106
 31
0.0
210
0.0
220
0.0
230
1.0
 40
0.906307787
 41
0.0145519554128475
 42
0.2724474645231066
  0
LINE
  5
DC
330
6F
100
AcDbEntity
  8
DN20
  6
Continuous
 62
     7
100
AcDbLine
 10
265.400986226
 20
60.5489398009
 30
0.0
 11
271.738471214
 21
71.5257857923
 31
0.0
  0
ELLIPSE
  5
DD
330
6F
100
AcDbEntity
  8
DN20
  6
Continuous
 62
     7
100
AcDbEllipse
 10
297.3777143437
 20
150.2537054786
 30
0.0
 11
-49.23439875167204
 21
-85.27648011794739
 31
0.0
210
0.0
220
0.0
230
1.0
 40
0.3420201433
 41
-0.2822902643746588
 42
-0.1573587721921976
  0
LINE
  5
DE
330
6F
100
AcDbEntity
  8
DN20
  6
Continuous
 62
     7
100
AcDbLine
 10
244.1809730457
 20
68.6697142715
 30
0.0
 11
257.8070628338
 21
92.2707940929
 31
0.0
  0
LINE
  5
DF
330
6F
100
AcDbEntity
  8
DN20
  6
Continuous
 62
     7
100
AcDbLine
 10
257.8070628338
 20
92.2707940929
 30
0.0
 11
257.4917550483
 21
92.4528371278
 31
0.0
  0
LINE
  5
E0
330
6F
100
AcDbEntity
  8
DN20
  6
Continuous
 62
     7
100
AcDbLine
 10
229.8432174925
 20
80.0431170756
 30
0.0
 11
241.9675731455
 21
73.0431170756
 31
0.0
  0
LINE
  5
E1
330
6F
100
AcDbEntity
  8
DN20
  6
Continuous
 62
     7
100
AcDbLine
 10
241.9675731455
 20
73.0431170756
 30
0.0
 11
248.8972026225
 21
85.0455874075
 31
0.0
  0
ELLIPSE
  5
E2
330
6F
100
AcDbEntity
  8
DN20
  6
Continuous
 62
     7
100
AcDbEllipse
 10
269.0044778917
 20
166.6350011825
 30
0.0
 11
-49.23439875182265
 21
-85.27648011841801
 31
0.0
210
0.0
220
0.0
230
1.0
 40
0.3420201433
 41
0.1683144529109635
 42
0.2822902643737927
  0
LINE
  5
E3
330
6F
100
AcDbEntity
  8
DN20
  6
Continuous
 62
     7
100
AcDbLine
 10
229.8432174925
 20
80.0431170756
 30
0.0
 11
236.7728469695
 21
92.0455874075
 31
0.0
  0
ELLIPSE
  5
E4
330
6F
100
AcDbEntity
  8
DN20
  6
Continuous
 62
     7
100
AcDbEllipse
 10
278.0275893587
 20
161.425505348
 30
0.0
 11
-49.23439875281488
 21
-85.27648011771329
 31
0.0
210
0.0
220
0.0
230
1.0
 40
0.9396926208
 41
6.000895042816177
 42
6.114870854279086
  0
LINE
  5
E5
330
6F
100
AcDbEntity
  8
DN20
  6
Continuous
 62
     7
100
AcDbLine
 10
216.0648821243
 20
85.1044934114
 30
0.0
 11
229.6035265224
 21
108.5541133744
 31
0.0
  0
LINE
  5
E6
330
6F
100
AcDbEntity
  8
DN20
  6
Continuous
 62
     7
100
AcDbLine
 10
208.4201720163
 20
92.4117181482
 30
0.0
 11
207.759569696
 21
92.7931170756
 31
0.0
  0
LINE
  5
E7
330
6F
100
AcDbEntity
  8
DN20
  6
Continuous
 62
     7
100
AcDbLine
 10
208.4201720163
 20
92.4117181482
 30
0.0
 11
215.3498014933
 21
104.4141884801
 31
0.0
  0
LINE
  5
E8
330
6F
100
AcDbEntity
  8
DN20
  6
Continuous
 62
     7
100
AcDbLine
 10
216.0648821243
 20
85.1044934114
 30
0.0
 11
225.3517927885
 21
79.7426930395
 31
0.0
  0
LINE
  5
E9
330
6F
100
AcDbEntity
  8
DN20
  6
Continuous
 62
     7
100
AcDbLine
 10
225.3517927885
 20
79.7426930395
 30
0.0
 11
238.8904371865
 21
103.1923130025
 31
0.0
  0
LINE
  5
EA
330
6F
100
AcDbEntity
  8
DN20
  6
Continuous
 62
     7
100
AcDbLine
 10
238.8904371865
 20
103.1923130025
 30
0.0
 11
229.6035265224
 21
108.5541133744
 31
0.0
  0
SPLINE
  5
EB
330
6F
100
AcDbEntity
  8
DN20
  6
Continuous
 62
     7
100
AcDbSpline
210
0.0
220
0.0
230
1.0
 70
     8
 71
     3
 72
    18
 73
    14
 74
     0
 42
0.000000001
 43
0.0000000001
 40
0.0
 40
0.0
 40
0.0
 40
0.0
 40
0.0625000000000002
 40
0.0625000000000002
 40
0.1250000000000005
 40
0.1250000000000005
 40
0.2500000000000011
 40
0.2500000000000011
 40
0.5000000000000007
 40
0.5000000000000007
 40
0.7500000000000003
 40
0.7500000000000003
 40
1.0
 40
1.0
 40
1.0
 40
1.0
 10
261.4048357193722
 20
90.1936189489555
 30
0.0
 10
261.1465407051834
 20
89.74623886103863
 30
0.0
 10
261.0164095061519
 20
89.24507491507211
 30
0.0
 10
260.9251754506423
 20
88.25132427009241
 30
0.0
 10
260.9570508431044
 20
87.75307691883452
 30
0.0
 10
261.1575513657388
 20
86.3023526938482
 30
0.0
 10
261.4231069946936
 20
85.38453593629181
 30
0.0
 10
262.3634084268023
 20
82.68481193629815
 30
0.0
 10
263.1925219897508
 20
80.98519258202133
 30
0.0
 10
265.0982943635471
 20
77.80432847398572
 30
0.0
 10
266.1987128866033
 20
76.30605640630753
 30
0.0
 10
268.7340443662293
 20
73.61536073207095
 30
0.0
 10
270.1407744514088
 20
72.4482164482183
 30
0.0
 10
271.7384712139778
 20
71.52578579226568
 30
0.0
  0
LINE
  5
EC
330
6F
100
AcDbEntity
  8
DN20
  6
Continuous
 62
     7
100
AcDbLine
 10
273.0019852499
 20
70.7962956235
 30
0.0
 11
271.738471214
 21
71.5257857923
 31
0.0
  0
LINE
  5
ED
330
6F
100
AcDbEntity
  8
DN20
  6
Continuous
 62
     7
100
AcDbLine
 10
261.4048357194
 20
90.193618949
 30
0.0
 11
268.9757058082
 21
85.8225750651
 31
0.0
  0
SPLINE
  5
EE
330
6F
100
AcDbEntity
  8
DN20
  6
Continuous
 62
     7
100
AcDbSpline
210
0.0
220
0.0
230
1.0
 70
     8
 71
     3
 72
    14
 73
    10
 74
     0
 42
0.000000001
 43
0.0000000001
 40
0.0
 40
0.0
 40
0.0
 40
0.0
 40
0.25
 40
0.25
 40
0.5
 40
0.5
 40
0.75
 40
0.75
 40
1.0
 40
1.0
 40
1.0
 40
1.0
 10
248.8972026225062
 20
85.04558740750323
 30
0.0
 10
249.4330975251806
 20
85.0450002400949
 30
0.0
 10
250.0345054122319
 20
85.20335108889881
 30
0.0
 10
251.3606431522314
 20
85.81923849452295
 30
0.0
 10
252.0902379030189
 20
86.28368790589761
 30
0.0
 10
253.5949113570682
 20
87.49714257041421
 30
0.0
 10
254.3992699899809
 20
88.26893997672327
 30
0.0
 10
255.9959806107243
 20
90.13558684598316
 30
0.0
 10
256.7945265182535
 20
91.2452018892197
 30
0.0
 10
257.4917550483056
 20
92.45283712775657
 30
0.0
  0
LINE
  5
EF
330
6F
100
AcDbEntity
  8
DN20
  6
Continuous
 62
     7
100
AcDbLine
 10
257.4917550483
 20
92.4528371278
 30
0.0
 11
238.8904371865
 21
103.1923130025
 31
0.0
  0
SPLINE
  5
F0
330
6F
100
AcDbEntity
  8
DN20
  6
Continuous
 62
     7
100
AcDbSpline
210
0.0
220
0.0
230
1.0
 70
     8
 71
     3
 72
    14
 73
    10
 74
     0
 42
0.000000001
 43
0.0000000001
 40
0.0
 40
0.0
 40
0.0
 40
0.0
 40
0.25
 40
0.25
 40
0.5
 40
0.5
 40
0.75
 40
0.75
 40
1.0
 40
1.0
 40
1.0
 40
1.0
 10
238.890437186539
 20
103.1923130025293
 30
0.0
 10
238.195329499386
 20
101.9883511716487
 30
0.0
 10
237.6388662644281
 20
100.7555265340965
 30
0.0
 10
236.8191470070004
 20
98.44219449236577
 30
0.0
 10
236.5511765826937
 20
97.35915154101578
 30
0.0
 10
236.2492214703865
 20
95.44065820605793
 30
0.0
 10
236.211158337101
 20
94.57744466302289
 30
0.0
 10
236.3389867042655
 20
93.1182209467105
 30
0.0
 10
236.5049397650513
 20
92.50844436299593
 30
0.0
 10
236.7728469695241
 20
92.04558740750323
 30
0.0
  0
LINE
  5
F1
330
6F
100
AcDbEntity
  8
DN20
  6
Continuous
 62
     7
100
AcDbLine
 10
236.7728469695
 20
92.0455874075
 30
0.0
 11
248.8972026225
 21
85.0455874075
 31
0.0
  0
SPLINE
  5
F2
330
6F
100
AcDbEntity
  8
DN20
  6
Continuous
 62
     7
100
AcDbSpline
210
0.0
220
0.0
230
1.0
 70
     8
 71
     3
 72
    14
 73
    10
 74
     0
 42
0.000000001
 43
0.0000000001
 40
0.0
 40
0.0
 40
0.0
 40
0.0
 40
0.25
 40
0.25
 40
0.5
 40
0.5
 40
0.75
 40
0.75
 40
1.0
 40
1.0
 40
1.0
 40
1.0
 10
215.3498014933021
 20
104.4141884800616
 30
0.0
 10
216.5884888749817
 20
104.0078438857152
 30
0.0
 10
217.8582858814813
 20
103.7803000964822
 30
0.0
 10
220.4564408061472
 20
103.6617880381253
 30
0.0
 10
221.790808778271
 20
103.7770714673628
 30
0.0
 10
224.3493226186456
 20
104.3820911011516
 30
0.0
 10
225.6238765638686
 20
104.8824211173266
 30
0.0
 10
227.9007947993417
 20
106.3563499371175
 30
0.0
 10
228.9062979923053
 20
107.3464781358977
 30
0.0
 10
229.6035265223574
 20
108.5541133744346
 30
0.0
  0
LINE
  5
F3
330
6F
100
AcDbEntity
  8
DN20
  6
Continuous
 62
     7
100
AcDbLine
 10
227.4064864266
 20
109.8225750651
 30
0.0
 11
229.6035265224
 21
108.5541133744
 31
0.0
  0
LINE
  5
F4
330
6F
100
AcDbEntity
  8
DN20
  6
Continuous
 62
     7
100
AcDbLine
 10
215.3498014933
 20
104.4141884801
 30
0.0
 11
214.689199173
 21
104.7955874075
 31
0.0
  0
LINE
  5
F5
330
6F
100
AcDbEntity
  8
DN20
  6
Continuous
 62
     7
100
AcDbLine
 10
263.2909327176
 20
97.4762592426
 30
0.0
 11
240.3412595173
 21
110.7262592426
 31
0.0
  0
LINE
  5
F6
330
6F
100
AcDbEntity
  8
DN20
  6
Continuous
 62
     7
100
AcDbLine
 10
322.2334802424
 20
173.2658004259
 30
0.0
 11
321.8695100081
 21
172.2658004259
 31
0.0
  0
LINE
  5
F7
330
6F
100
AcDbEntity
  8
DN20
  6
Continuous
 62
     7
100
AcDbLine
 10
321.8695100081
 20
141.7658004259
 30
0.0
 11
322.2334802424
 21
140.7658004259
 31
0.0
  0
LINE
  5
F8
330
6F
100
AcDbEntity
  8
DN20
  6
Continuous
 62
     7
100
AcDbLine
 10
260.8131373229
 20
169.8658004259
 30
0.0
 11
255.6663207136
 21
172.2658004259
 31
0.0
  0
LINE
  5
F9
330
6F
100
AcDbEntity
  8
DN20
  6
Continuous
 62
     7
100
AcDbLine
 10
255.6663207136
 20
172.2658004259
 30
0.0
 11
245.8663207136
 21
172.2658004259
 31
0.0
  0
LINE
  5
FA
330
6F
100
AcDbEntity
  8
DN20
  6
Continuous
 62
     7
100
AcDbLine
 10
245.5023504794
 20
140.7658004259
 30
0.0
 11
245.5886218206
 21
141.0028289879
 31
0.0
  0
LINE
  5
FB
330
6F
100
AcDbEntity
  8
DN20
  6
Continuous
 62
     7
100
AcDbLine
 10
245.8663207136
 20
172.2658004259
 30
0.0
 11
245.5023504794
 21
173.2658004259
 31
0.0
  0
LINE
  5
FC
330
6F
100
AcDbEntity
  8
DN20
  6
Continuous
 62
     7
100
AcDbLine
 10
251.3832599095
 20
137.350270322
 30
0.0
 11
250.851204165
 21
136.42872274
 31
0.0
  0
LINE
  5
FD
330
6F
100
AcDbEntity
  8
DN20
  6
Continuous
 62
     7
100
AcDbLine
 10
321.8695100081
 20
172.2658004259
 30
0.0
 11
312.0663207136
 21
172.2658004259
 31
0.0
  0
LINE
  5
FE
330
6F
100
AcDbEntity
  8
DN20
  6
Continuous
 62
     7
100
AcDbLine
 10
315.7060210451
 20
141.7658004259
 30
0.0
 11
321.8695100081
 21
141.7658004259
 31
0.0
  0
LINE
  5
FF
330
6F
100
AcDbEntity
  8
DN20
  6
Continuous
 62
     7
100
AcDbLine
 10
312.0663207136
 20
172.2658004259
 30
0.0
 11
306.9195041044
 21
169.8658004259
 31
0.0
  0
LINE
  5
100
330
6F
100
AcDbEntity
  8
DN20
  6
Continuous
 62
     7
100
AcDbLine
 10
306.9195041044
 20
169.8658004259
 30
0.0
 11
260.8131373229
 21
169.8658004259
 31
0.0
  0
LINE
  5
101
330
6F
100
AcDbEntity
  8
DN20
  6
Continuous
 62
     7
100
AcDbLine
 10
316.135866895
 20
141.5252306912
 30
0.0
 11
315.7081142377
 21
141.772193803
 31
0.0
  0
LINE
  5
102
330
6F
100
AcDbEntity
  8
DN20
  6
Continuous
 62
     7
100
AcDbLine
 10
237.0483058308
 20
173.2658004259
 30
0.0
 11
236.8663207136
 21
172.7658004259
 31
0.0
  0
LINE
  5
103
330
6F
100
AcDbEntity
  8
DN20
  6
Continuous
 62
     7
100
AcDbLine
 10
236.8663207136
 20
141.2658004259
 30
0.0
 11
237.0483058308
 21
140.7658004259
 31
0.0
  0
LINE
  5
104
330
6F
100
AcDbEntity
  8
DN20
  6
Continuous
 62
     7
100
AcDbLine
 10
330.6843355965
 20
140.7658004259
 30
0.0
 11
330.8663207136
 21
141.2658004259
 31
0.0
  0
LINE
  5
105
330
6F
100
AcDbEntity
  8
DN20
  6
Continuous
 62
     7
100
AcDbLine
 10
330.8663207136
 20
172.7658004259
 30
0.0
 11
330.6843355965
 21
173.2658004259
 31
0.0
  0
LINE
  5
106
330
6F
100
AcDbEntity
  8
DN20
  6
Continuous
 62
     7
100
AcDbLine
 10
280.0522138212
 20
118.0239511377
 30
0.0
 11
284.6467745323
 21
110.0659385477
 31
0.0
  0
LINE
  5
107
330
6F
100
AcDbEntity
  8
DN20
  6
Continuous
 62
     7
100
AcDbLine
 10
300.2352318004
 20
119.0659385477
 30
0.0
 11
296.2352318004
 21
125.994141778
 31
0.0
  0
LINE
  5
108
330
6F
100
AcDbEntity
  8
DN20
  6
Continuous
 62
     7
100
AcDbLine
 10
302.2974096269
 20
129.494141778
 30
0.0
 11
306.2974096269
 21
122.5659385477
 31
0.0
  0
LINE
  5
109
330
6F
100
AcDbEntity
  8
DN20
  6
Continuous
 62
     7
100
AcDbLine
 10
321.885866895
 20
131.5659385477
 30
0.0
 11
316.135866895
 21
141.5252306912
 31
0.0
  0
LINE
  5
10A
330
6F
100
AcDbEntity
  8
DN20
  6
Continuous
 62
     7
100
AcDbLine
 10
250.8141170597
 20
136.3644859894
 30
0.0
 11
250.5942248387
 21
135.9836214905
 31
0.0
  0
LINE
  5
10B
330
6F
100
AcDbEntity
  8
DN20
  6
Continuous
 62
     7
100
AcDbLine
 10
305.7667073219
 20
99.6851419037
 30
0.0
 11
304.2667073219
 21
102.283218115
 31
0.0
  0
LINE
  5
10C
330
6F
100
AcDbEntity
  8
DN20
  6
Continuous
 62
     7
100
AcDbLine
 10
297.1652990108
 20
98.183218115
 30
0.0
 11
298.6652990108
 21
95.5851419037
 31
0.0
  0
LINE
  5
10D
330
6F
100
AcDbEntity
  8
DN20
  6
Continuous
 62
     7
100
AcDbLine
 10
305.8840097634
 20
103.216968115
 30
0.0
 11
297.6090097634
 21
117.5496885477
 31
0.0
  0
LINE
  5
10E
330
6F
100
AcDbEntity
  8
DN20
  6
Continuous
 62
     7
100
AcDbLine
 10
287.2729965693
 20
111.5821885477
 30
0.0
 11
295.5479965693
 21
97.249468115
 31
0.0
  0
LINE
  5
10F
330
6F
100
AcDbEntity
  8
DN20
  6
Continuous
 62
     7
100
AcDbLine
 10
295.9373189889
 20
94.0101419037
 30
0.0
 11
300.4373189889
 21
86.2159132696
 31
0.0
  0
LINE
  5
110
330
6F
100
AcDbEntity
  8
DN20
  6
Continuous
 62
     7
100
AcDbLine
 10
312.9946873438
 20
93.4659132696
 30
0.0
 11
308.4946873438
 21
101.2601419037
 31
0.0
  0
LINE
  5
111
330
6F
100
AcDbEntity
  8
DN20
  6
Continuous
 62
     7
100
AcDbLine
 10
327.4173424165
 20
112.1851419037
 30
0.0
 11
325.9173424165
 21
114.783218115
 31
0.0
  0
LINE
  5
112
330
6F
100
AcDbEntity
  8
DN20
  6
Continuous
 62
     7
100
AcDbLine
 10
318.8159341054
 20
110.683218115
 30
0.0
 11
320.3159341054
 21
108.0851419037
 31
0.0
  0
LINE
  5
113
330
6F
100
AcDbEntity
  8
DN20
  6
Continuous
 62
     7
100
AcDbLine
 10
327.534644858
 20
115.716968115
 30
0.0
 11
319.259644858
 21
130.0496885477
 31
0.0
  0
LINE
  5
114
330
6F
100
AcDbEntity
  8
DN20
  6
Continuous
 62
     7
100
AcDbLine
 10
308.9236316639
 20
124.0821885477
 30
0.0
 11
317.1986316639
 21
109.749468115
 31
0.0
  0
LINE
  5
115
330
6F
100
AcDbEntity
  8
DN20
  6
Continuous
 62
     7
100
AcDbLine
 10
317.5879540835
 20
106.5101419037
 30
0.0
 11
322.0879540835
 21
98.7159132696
 31
0.0
  0
LINE
  5
116
330
6F
100
AcDbEntity
  8
DN20
  6
Continuous
 62
     7
100
AcDbLine
 10
334.6453224384
 20
105.9659132696
 30
0.0
 11
330.1453224384
 21
113.7601419037
 31
0.0
  0
LINE
  5
117
330
6F
100
AcDbEntity
  8
DN20
  6
Continuous
 62
     7
100
AcDbLine
 10
250.5975485928
 20
135.9817025202
 30
0.0
 11
249.2255839537
 21
133.55676323
 31
0.0
  0
LINE
  5
118
330
6F
100
AcDbEntity
  8
DN20
  6
Continuous
 62
     7
100
AcDbLine
 10
278.6205669336
 20
116.5855618937
 30
0.0
 11
280.034643642
 21
118.9861877694
 31
0.0
  0
LINE
  5
119
330
6F
100
AcDbEntity
  8
DN20
  6
Continuous
 62
     7
100
AcDbLine
 10
249.2255839537
 20
133.55676323
 30
0.0
 11
250.7322384004
 21
131.7612023803
 31
0.0
  0
LINE
  5
11A
330
6F
100
AcDbEntity
  8
DN20
  6
Continuous
 62
     7
100
AcDbLine
 10
276.3122384004
 20
116.9925824944
 30
0.0
 11
278.6205669336
 21
116.5855618937
 31
0.0
  0
LINE
  5
11B
330
6F
100
AcDbEntity
  8
DN20
  6
Continuous
 62
     7
100
AcDbLine
 10
250.8506435793
 20
136.4290463943
 30
0.0
 11
250.8141170597
 21
136.3644859894
 31
0.0
  0
LINE
  5
11C
330
6F
100
AcDbEntity
  8
DN20
  6
Continuous
 62
     7
100
AcDbLine
 10
249.2893720553
 20
124.9751511683
 30
0.0
 11
241.0094674028
 21
110.34046924
 31
0.0
  0
LINE
  5
11D
330
6F
100
AcDbEntity
  8
DN20
  6
Continuous
 62
     7
100
AcDbLine
 10
262.622724832
 20
97.8620492452
 30
0.0
 11
271.156778832
 21
112.3499979793
 31
0.0
  0
LINE
  5
11E
330
6F
100
AcDbEntity
  8
DN20
  6
Continuous
 62
     7
100
AcDbLine
 10
266.6645002619
 20
59.8194496321
 30
0.0
 11
273.0019852499
 21
70.7962956235
 31
0.0
  0
LINE
  5
11F
330
6F
100
AcDbEntity
  8
DN20
  6
Continuous
 62
     7
100
AcDbLine
 10
214.689199173
 20
104.7955874075
 30
0.0
 11
207.759569696
 21
92.7931170756
 31
0.0
  0
ARC
  5
120
330
6F
100
AcDbEntity
  8
DN20
  6
Continuous
 62
     7
100
AcDbCircle
 10
283.1910961174
 20
158.4443533301
 30
0.0
 40
100.0
100
AcDbArc
 50
221.0344250112
 51
260.4873151147
  0
ARC
  5
121
330
6F
100
AcDbEntity
  8
DN20
  6
Continuous
 62
     7
100
AcDbCircle
 10
278.5019852499
 20
80.3225750651
 30
0.0
 40
11.00000000000001
100
AcDbArc
 50
150.0
 51
240.0
  0
ARC
  5
122
330
6F
100
AcDbEntity
  8
DN20
  6
Continuous
 62
     7
100
AcDbCircle
 10
217.880206985
 20
115.3225750651
 30
0.0
 40
11.0
100
AcDbArc
 50
253.1365587869
 51
330.0
  0
LINE
  5
123
330
6F
100
AcDbEntity
  8
DN20
  6
Continuous
 62
     7
100
AcDbLine
 10
240.3412595173
 20
110.7262592426
 30
0.0
 11
236.7162595173
 21
104.4475750651
 31
0.0
  0
LINE
  5
124
330
6F
100
AcDbEntity
  8
DN20
  6
Continuous
 62
     7
100
AcDbLine
 10
259.6659327176
 20
91.1975750651
 30
0.0
 11
263.2909327176
 21
97.4762592426
 31
0.0
  0
ENDBLK
  5
126
330
6F
100
AcDbEntity
  8
0
100
AcDbBlockEnd
  0
BLOCK
  5
1DC
330
127
100
AcDbEntity
  8
0
100
AcDbBlockBegin
  2
SE1
 70
     0
 10
0.0
 20
0.0
 30
0.0
  3
SE1
  1

  0
LINE
  5
129
330
127
100
AcDbEntity
  8
DN20
  6
Continuous
 62
     7
100
AcDbLine
 10
77.3996911022
 20
142.1280720044
 30
0.0
 11
77.3996911022
 21
172.6280720044
 31
0.0
  0
LINE
  5
12A
330
127
100
AcDbEntity
  8
DN20
  6
Continuous
 62
     7
100
AcDbLine
 10
143.6028803967
 20
142.2597883716
 30
0.0
 11
143.6028803967
 21
172.6280720044
 31
0.0
  0
LINE
  5
12B
330
127
100
AcDbEntity
  8
DN20
  6
Continuous
 62
     7
100
AcDbLine
 10
153.4028803967
 20
142.2597883716
 30
0.0
 11
153.4028803967
 21
172.6280720044
 31
0.0
  0
LINE
  5
12C
330
127
100
AcDbEntity
  8
DN20
  6
Continuous
 62
     7
100
AcDbLine
 10
154.6818294879
 20
173.6280720044
 30
0.0
 11
153.7668523313
 21
173.6280720044
 31
0.0
  0
LINE
  5
12D
330
127
100
AcDbEntity
  8
DN20
  6
Continuous
 62
     7
100
AcDbLine
 10
77.0357191676
 20
173.6280720044
 30
0.0
 11
76.120742011
 21
173.6280720044
 31
0.0
  0
LINE
  5
12E
330
127
100
AcDbEntity
  8
DN20
  6
Continuous
 62
     7
100
AcDbLine
 10
154.6818294879
 20
141.1280720044
 30
0.0
 11
161.3059164226
 21
141.1280720044
 31
0.0
  0
LINE
  5
12F
330
127
100
AcDbEntity
  8
DN20
  6
Continuous
 62
     7
100
AcDbLine
 10
153.7668523313
 20
141.1280720044
 30
0.0
 11
154.6818294879
 21
141.1280720044
 31
0.0
  0
LINE
  5
130
330
127
100
AcDbEntity
  8
DN20
  6
Continuous
 62
     7
100
AcDbLine
 10
76.120742011
 20
141.1280720044
 30
0.0
 11
77.0357191676
 21
141.1280720044
 31
0.0
  0
LINE
  5
131
330
127
100
AcDbEntity
  8
DN20
  6
Continuous
 62
     7
100
AcDbLine
 10
154.6818294879
 20
157.3780720044
 30
0.0
 11
161.3059164226
 21
157.3780720044
 31
0.0
  0
ARC
  5
132
330
127
100
AcDbEntity
  8
DN20
  6
Continuous
 62
     7
100
AcDbCircle
 10
190.6314970327
 20
149.2530720044
 30
0.0
 40
36.85640000850827
100
AcDbArc
 50
167.2645244266
 51
192.7354755734
  0
ARC
  5
133
330
127
100
AcDbEntity
  8
DN20
  6
Continuous
 62
     7
100
AcDbCircle
 10
40.1710744662
 20
149.2530720044
 30
0.0
 40
36.85640000850825
100
AcDbArc
 50
347.2645244266
 51
12.7354755734
  0
LINE
  5
134
330
127
100
AcDbEntity
  8
DN20
  6
Continuous
 62
     7
100
AcDbLine
 10
154.6818294879
 20
173.6280720044
 30
0.0
 11
161.3059164226
 21
173.6280720044
 31
0.0
  0
ARC
  5
135
330
127
100
AcDbEntity
  8
DN20
  6
Continuous
 62
     7
100
AcDbCircle
 10
190.6314970327
 20
165.5030720044
 30
0.0
 40
36.85640000850847
100
AcDbArc
 50
167.2645244266
 51
192.7354755734
  0
ARC
  5
136
330
127
100
AcDbEntity
  8
DN20
  6
Continuous
 62
     7
100
AcDbCircle
 10
40.1710744662
 20
165.5030720044
 30
0.0
 40
36.85640000850825
100
AcDbArc
 50
347.2645244266
 51
12.7354755734
  0
LINE
  5
137
330
127
100
AcDbEntity
  8
DN20
  6
Continuous
 62
     7
100
AcDbLine
 10
138.4560637875
 20
146.055391642
 30
0.0
 11
138.4560637875
 21
170.2280720044
 31
0.0
  0
ARC
  5
138
330
127
100
AcDbEntity
  8
DN20
  6
Continuous
 62
     7
100
AcDbCircle
 10
132.1279907117
 20
130.428153137
 30
0.0
 40
31.12429070530318
100
AcDbArc
 50
108.0538666203
 51
131.9461333797
  0
SPLINE
  5
139
330
127
100
AcDbEntity
  8
DN20
  6
Continuous
 62
     7
100
AcDbSpline
210
0.0
220
0.0
230
1.0
 70
     8
 71
     3
 72
    16
 73
    12
 74
     0
 42
0.000000001
 43
0.0000000001
 40
0.0
 40
0.0
 40
0.0
 40
0.0
 40
0.125
 40
0.125
 40
0.25
 40
0.25
 40
0.5
 40
0.5
 40
0.75
 40
0.75
 40
1.0
 40
1.0
 40
1.0
 40
1.0
 10
122.4822308620501
 20
160.0200572465614
 30
0.0
 10
122.5579730265513
 20
159.0910602508417
 30
0.0
 10
122.8551444479677
 20
158.1774782040922
 30
0.0
 10
123.8012253977284
 20
156.547854037346
 30
0.0
 10
124.425676976301
 20
155.8239244751763
 30
0.0
 10
126.3964954422828
 20
153.8606494035555
 30
0.0
 10
127.8843989469764
 20
152.7487892050594
 30
0.0
 10
130.802682342886
 20
150.667336664833
 30
0.0
 10
132.2541827900486
 20
149.7072237625423
 30
0.0
 10
135.0587961534747
 20
147.8936610652943
 30
0.0
 10
136.4360799632278
 20
147.0290747368595
 30
0.0
 10
137.6311786344743
 20
146.286654907272
 30
0.0
  0
LINE
  5
13A
330
127
100
AcDbEntity
  8
DN20
  6
Continuous
 62
     7
100
AcDbLine
 10
137.6311786345
 20
146.2866549073
 30
0.0
 11
138.4560637875
 21
146.055391642
 31
0.0
  0
ARC
  5
13B
330
127
100
AcDbEntity
  8
DN20
  6
Continuous
 62
     7
100
AcDbCircle
 10
215.2321231139
 20
224.0719522203
 30
0.0
 40
109.0814941153707
100
AcDbArc
 50
226.1249995663
 51
228.1796020264
  0
LINE
  5
13C
330
127
100
AcDbEntity
  8
DN20
  6
Continuous
 62
     7
100
AcDbLine
 10
139.6291174597
 20
145.4401654258
 30
0.0
 11
118.8470459601
 21
133.4416308512
 31
0.0
  0
LINE
  5
13D
330
127
100
AcDbEntity
  8
DN20
  6
Continuous
 62
     7
100
AcDbLine
 10
122.4822308621
 20
160.0200572466
 30
0.0
 11
111.3235299313
 21
153.5775782604
 31
0.0
  0
LINE
  5
13E
330
127
100
AcDbEntity
  8
DN20
  6
Continuous
 62
     7
100
AcDbLine
 10
137.6311786345
 20
146.2866549073
 30
0.0
 11
120.9708701646
 21
136.6678213274
 31
0.0
  0
LINE
  5
13F
330
127
100
AcDbEntity
  8
DN20
  6
Continuous
 62
     7
100
AcDbLine
 10
138.4560637875
 20
146.055391642
 30
0.0
 11
139.6291174597
 21
145.4401654258
 31
0.0
  0
LINE
  5
140
330
127
100
AcDbEntity
  8
DN20
  6
Continuous
 62
     7
100
AcDbLine
 10
144.0784216888
 20
140.0407912579
 30
0.0
 11
118.8425304132
 21
125.4708426367
 31
0.0
  0
LINE
  5
141
330
127
100
AcDbEntity
  8
DN20
  6
Continuous
 62
     7
100
AcDbLine
 10
146.8233318562
 20
139.3169122527
 30
0.0
 11
118.3577595458
 21
122.8823064167
 31
0.0
  0
LINE
  5
142
330
127
100
AcDbEntity
  8
DN20
  6
Continuous
 62
     7
100
AcDbLine
 10
153.7174655753
 20
141.3883512543
 30
0.0
 11
147.7859900841
 21
137.6495392915
 31
0.0
  0
LINE
  5
143
330
127
100
AcDbEntity
  8
DN20
  6
Continuous
 62
     7
100
AcDbLine
 10
146.8233318562
 20
139.3169122527
 30
0.0
 11
147.7859900841
 21
137.6495392915
 31
0.0
  0
LINE
  5
144
330
127
100
AcDbEntity
  8
DN20
  6
Continuous
 62
     7
100
AcDbLine
 10
144.0784216888
 20
140.0407912579
 30
0.0
 11
146.8233318562
 21
139.3169122527
 31
0.0
  0
LINE
  5
145
330
127
100
AcDbEntity
  8
DN20
  6
Continuous
 62
     7
100
AcDbLine
 10
142.4968199529
 20
142.7802058217
 30
0.0
 11
144.0784216888
 21
140.0407912579
 31
0.0
  0
LINE
  5
146
330
127
100
AcDbEntity
  8
DN20
  6
Continuous
 62
     7
100
AcDbLine
 10
142.4968199529
 20
142.7802058217
 30
0.0
 11
143.6028803967
 21
142.2597883716
 31
0.0
  0
LINE
  5
147
330
127
100
AcDbEntity
  8
DN20
  6
Continuous
 62
     7
100
AcDbLine
 10
143.6028803967
 20
142.2597883716
 30
0.0
 11
153.4028803967
 21
142.2597883716
 31
0.0
  0
LINE
  5
148
330
127
100
AcDbEntity
  8
DN20
  6
Continuous
 62
     7
100
AcDbLine
 10
153.4028803967
 20
142.2597883716
 30
0.0
 11
153.7174655753
 21
141.3883512543
 31
0.0
  0
ARC
  5
149
330
127
100
AcDbEntity
  8
DN20
  6
Continuous
 62
     7
100
AcDbCircle
 10
3.6159819654
 20
211.6112218303
 30
0.0
 40
139.2432514098255
100
AcDbArc
 50
325.8481083616
 51
327.4375013816
  0
LINE
  5
14A
330
127
100
AcDbEntity
  8
DN20
  6
Continuous
 62
     7
100
AcDbLine
 10
119.7860711201
 20
138.7199534692
 30
0.0
 11
120.9708701646
 21
136.6678213274
 31
0.0
  0
LINE
  5
14B
330
127
100
AcDbEntity
  8
DN20
  6
Continuous
 62
     7
100
AcDbLine
 10
118.8470459601
 20
133.4416308512
 30
0.0
 11
120.2962215118
 21
130.9315851665
 31
0.0
  0
LINE
  5
14C
330
127
100
AcDbEntity
  8
DN20
  6
Continuous
 62
     7
100
AcDbLine
 10
116.2480513023
 20
128.5943730063
 30
0.0
 11
120.2962215118
 21
130.9315851665
 31
0.0
  0
LINE
  5
14D
330
127
100
AcDbEntity
  8
DN20
  6
Continuous
 62
     7
100
AcDbLine
 10
111.733473561
 20
134.0707841008
 30
0.0
 11
119.7860711201
 21
138.7199534692
 31
0.0
  0
LINE
  5
14E
330
127
100
AcDbEntity
  8
DN20
  6
Continuous
 62
     7
100
AcDbLine
 10
119.0603024721
 20
121.1450574755
 30
0.0
 11
118.3577595458
 21
122.8823064167
 31
0.0
  0
ARC
  5
14F
330
127
100
AcDbEntity
  8
DN20
  6
Continuous
 62
     7
100
AcDbCircle
 10
104.8149065483
 20
123.7682971265
 30
0.0
 40
12.40998820964006
100
AcDbArc
 50
22.8852268965
 51
56.1169260686
  0
LINE
  5
150
330
127
100
AcDbEntity
  8
DN20
  6
Continuous
 62
     7
100
AcDbLine
 10
118.3577595458
 20
122.8823064167
 30
0.0
 11
118.8425304132
 21
125.4708426367
 31
0.0
  0
LINE
  5
151
330
127
100
AcDbEntity
  8
DN20
  6
Continuous
 62
     7
100
AcDbLine
 10
118.8425304132
 20
125.4708426367
 30
0.0
 11
118.363871788
 21
126.5471419184
 31
0.0
  0
ARC
  5
152
330
127
100
AcDbEntity
  8
DN20
  6
Continuous
 62
     7
100
AcDbCircle
 10
91.6607298043
 20
118.2472724959
 30
0.0
 40
27.96329065464023
100
AcDbArc
 50
17.2662873271
 51
23.1549226718
  0
ARC
  5
153
330
127
100
AcDbEntity
  8
DN20
  6
Continuous
 62
     7
100
AcDbCircle
 10
104.8432298434
 20
125.5460538113
 30
0.0
 40
13.9768600093925
100
AcDbArc
 50
46.3626734766
 51
57.3374311236
  0
LINE
  5
154
330
127
100
AcDbEntity
  8
DN20
  6
Continuous
 62
     7
100
AcDbLine
 10
87.2028803967
 20
172.6280720044
 30
0.0
 11
87.2028803967
 21
142.7781493633
 31
0.0
  0
ARC
  5
155
330
127
100
AcDbEntity
  8
DN20
  6
Continuous
 62
     7
100
AcDbCircle
 10
95.2351059229
 20
87.0560540064
 30
0.0
 40
56.29803333922123
100
AcDbArc
 50
98.2025675742
 51
101.9792678978
  0
LINE
  5
156
330
127
100
AcDbEntity
  8
DN20
  6
Continuous
 62
     7
100
AcDbLine
 10
92.3496970059
 20
145.8894247287
 30
0.0
 11
92.3496970059
 21
170.2280720044
 31
0.0
  0
ARC
  5
157
330
127
100
AcDbEntity
  8
DN20
  6
Continuous
 62
     7
100
AcDbCircle
 10
362.6437645829
 20
-261.8195510126
 30
0.0
 40
489.1681631784355
100
AcDbArc
 50
123.5427202061
 51
124.0314979296
  0
LINE
  5
158
330
127
100
AcDbEntity
  8
DN20
  6
Continuous
 62
     7
100
AcDbLine
 10
88.8814985369
 20
143.5687980513
 30
0.0
 11
98.6167213073
 21
137.9481645642
 31
0.0
  0
LINE
  5
159
330
127
100
AcDbEntity
  8
DN20
  6
Continuous
 62
     7
100
AcDbLine
 10
88.8814985369
 20
143.5687980513
 30
0.0
 11
87.2028803967
 21
142.7781493633
 31
0.0
  0
LINE
  5
15A
330
127
100
AcDbEntity
  8
DN20
  6
Continuous
 62
     7
100
AcDbLine
 10
83.1333342153
 20
141.8875022697
 30
0.0
 11
98.64624959
 21
132.9311164022
 31
0.0
  0
LINE
  5
15B
330
127
100
AcDbEntity
  8
DN20
  6
Continuous
 62
     7
100
AcDbLine
 10
98.64624959
 20
132.9311164022
 30
0.0
 11
96.89624959
 21
129.900027489
 31
0.0
  0
ARC
  5
15C
330
127
100
AcDbEntity
  8
DN20
  6
Continuous
 62
     7
100
AcDbCircle
 10
95.7754448824
 20
132.6182618813
 30
0.0
 40
13.70618516718163
100
AcDbArc
 50
60.8542053589
 51
104.4740651494
  0
LINE
  5
15D
330
127
100
AcDbEntity
  8
DN20
  6
Continuous
 62
     7
100
AcDbLine
 10
109.2191665049
 20
131.8268399753
 30
0.0
 11
118.363871788
 21
126.5471419184
 31
0.0
  0
LINE
  5
15E
330
127
100
AcDbEntity
  8
DN20
  6
Continuous
 62
     7
100
AcDbLine
 10
104.8595112034
 20
129.3438881372
 30
0.0
 11
119.0603024721
 21
121.1450574755
 31
0.0
  0
ARC
  5
15F
330
127
100
AcDbEntity
  8
DN20
  6
Continuous
 62
     7
100
AcDbCircle
 10
83.006622757
 20
158.4216174603
 30
0.0
 40
28.72824303173484
100
AcDbArc
 50
331.2166888042
 51
350.292644386
  0
LINE
  5
160
330
127
100
AcDbEntity
  8
DN20
  6
Continuous
 62
     7
100
AcDbLine
 10
108.1854041854
 20
144.5890141814
 30
0.0
 11
112.3864077018
 21
137.3126626481
 31
0.0
  0
LINE
  5
161
330
127
100
AcDbEntity
  8
DN20
  6
Continuous
 62
     7
100
AcDbLine
 10
112.3864077018
 20
137.3126626481
 30
0.0
 11
109.2191665049
 21
131.8268399753
 31
0.0
  0
LINE
  5
162
330
127
100
AcDbEntity
  8
DN20
  6
Continuous
 62
     7
100
AcDbLine
 10
109.2191665049
 20
131.8268399753
 30
0.0
 11
104.8595112034
 21
129.3438881372
 31
0.0
  0
LINE
  5
163
330
127
100
AcDbEntity
  8
DN20
  6
Continuous
 62
     7
100
AcDbLine
 10
104.8595112034
 20
129.3438881372
 30
0.0
 11
103.1095112034
 21
126.312799224
 31
0.0
  0
LINE
  5
164
330
127
100
AcDbEntity
  8
DN20
  6
Continuous
 62
     7
100
AcDbLine
 10
108.1854041854
 20
144.5890141814
 30
0.0
 11
102.4508176215
 21
144.5890141814
 31
0.0
  0
LINE
  5
165
330
127
100
AcDbEntity
  8
DN20
  6
Continuous
 62
     7
100
AcDbLine
 10
102.4508176215
 20
144.5890141814
 30
0.0
 11
98.6167213073
 21
137.9481645642
 31
0.0
  0
LINE
  5
166
330
127
100
AcDbEntity
  8
DN20
  6
Continuous
 62
     7
100
AcDbLine
 10
98.6167213073
 20
137.9481645642
 30
0.0
 11
98.64624959
 21
132.9311164022
 31
0.0
  0
LINE
  5
167
330
127
100
AcDbEntity
  8
DN20
  6
Continuous
 62
     7
100
AcDbLine
 10
96.89624959
 20
129.900027489
 30
0.0
 11
103.1095112034
 21
126.312799224
 31
0.0
  0
ARC
  5
168
330
127
100
AcDbEntity
  8
DN20
  6
Continuous
 62
     7
100
AcDbCircle
 10
125.3562488778
 20
165.5030720044
 30
0.0
 40
36.85640000850944
100
AcDbArc
 50
347.2645244266
 51
12.7354755734
  0
ARC
  5
169
330
127
100
AcDbEntity
  8
DN20
  6
Continuous
 62
     7
100
AcDbCircle
 10
125.3562488778
 20
149.2530720044
 30
0.0
 40
36.85640000850936
100
AcDbArc
 50
347.2645244266
 51
12.7354755734
  0
LINE
  5
16A
330
127
100
AcDbEntity
  8
DN20
  6
Continuous
 62
     7
100
AcDbLine
 10
162.220893822
 20
141.1280720044
 30
0.0
 11
161.3059164226
 21
141.1280720044
 31
0.0
  0
LINE
  5
16B
330
127
100
AcDbEntity
  8
DN20
  6
Continuous
 62
     7
100
AcDbLine
 10
161.3059164226
 20
173.6280720044
 30
0.0
 11
162.220893822
 21
173.6280720044
 31
0.0
  0
LINE
  5
16C
330
127
100
AcDbEntity
  8
DN20
  6
Continuous
 62
     7
100
AcDbLine
 10
162.4028803967
 20
173.1280720044
 30
0.0
 11
162.4028803967
 21
141.6280720044
 31
0.0
  0
LINE
  5
16D
330
127
100
AcDbEntity
  8
DN20
  6
Continuous
 62
     7
100
AcDbLine
 10
69.4998443707
 20
173.6280720044
 30
0.0
 11
76.120742011
 21
173.6280720044
 31
0.0
  0
LINE
  5
16E
330
127
100
AcDbEntity
  8
DN20
  6
Continuous
 62
     7
100
AcDbLine
 10
69.4998443707
 20
141.1280720044
 30
0.0
 11
76.120742011
 21
141.1280720044
 31
0.0
  0
LINE
  5
16F
330
127
100
AcDbEntity
  8
DN20
  6
Continuous
 62
     7
100
AcDbLine
 10
69.4998443707
 20
157.3780720044
 30
0.0
 11
76.120742011
 21
157.3780720044
 31
0.0
  0
LINE
  5
170
330
127
100
AcDbEntity
  8
DN20
  6
Continuous
 62
     7
100
AcDbLine
 10
68.4028803967
 20
173.1280720044
 30
0.0
 11
68.4028803967
 21
141.6280720044
 31
0.0
  0
LINE
  5
171
330
127
100
AcDbEntity
  8
DN20
  6
Continuous
 62
     7
100
AcDbLine
 10
69.4998443707
 20
173.6280720044
 30
0.0
 11
68.5848669716
 21
173.6280720044
 31
0.0
  0
ARC
  5
172
330
127
100
AcDbEntity
  8
DN20
  6
Continuous
 62
     7
100
AcDbCircle
 10
105.4495119156
 20
165.5030720044
 30
0.0
 40
36.85640000850935
100
AcDbArc
 50
167.2645244266
 51
192.7354755734
  0
ARC
  5
173
330
127
100
AcDbEntity
  8
DN20
  6
Continuous
 62
     7
100
AcDbCircle
 10
105.4495119156
 20
149.2530720044
 30
0.0
 40
36.85640000850923
100
AcDbArc
 50
167.2645244266
 51
192.7354755734
  0
LINE
  5
174
330
127
100
AcDbEntity
  8
DN20
  6
Continuous
 62
     7
100
AcDbLine
 10
68.5848669716
 20
141.1280720044
 30
0.0
 11
69.4998443707
 21
141.1280720044
 31
0.0
  0
ARC
  5
175
330
127
100
AcDbEntity
  8
DN20
  6
Continuous
 62
     7
100
AcDbCircle
 10
50.1993216035
 20
106.6008506425
 30
0.0
 40
70.38109316697758
100
AcDbArc
 50
10.5136675981
 51
10.8929983237
  0
LINE
  5
176
330
127
100
AcDbEntity
  8
DN20
  6
Continuous
 62
     7
100
AcDbLine
 10
119.3988153333
 20
119.4432936704
 30
0.0
 11
148.6749762716
 21
136.345893069
 31
0.0
  0
SPLINE
  5
177
330
127
100
AcDbEntity
  8
DN20
  6
Continuous
 62
     7
100
AcDbSpline
210
0.0
220
0.0
230
1.0
 70
     8
 71
     3
 72
    14
 73
    10
 74
     0
 42
0.000000001
 43
0.0000000001
 40
0.0
 40
0.0
 40
0.0
 40
0.0
 40
0.2500000000000007
 40
0.2500000000000007
 40
0.3750000000000006
 40
0.3750000000000006
 40
0.5000000000000006
 40
0.5000000000000006
 40
0.5004526490978959
 40
0.5004526490978959
 40
0.5004526490978959
 40
0.5004526490978959
 10
119.047235545045
 20
119.2403089850431
 30
0.0
 10
119.100795758718
 20
118.9696026704923
 30
0.0
 10
119.1416982582879
 20
118.754648891011
 30
0.0
 10
119.1837299114271
 20
118.5315675060203
 30
0.0
 10
119.1945040892014
 20
118.4737770890817
 30
0.0
 10
119.2087094176017
 20
118.3974020306814
 30
0.0
 10
119.2122528136598
 20
118.3782267649935
 30
0.0
 10
119.2122814040873
 20
118.3780723788941
 30
0.0
 10
119.2122814611597
 20
118.3780720712622
 30
0.0
 10
119.2122814721412
 20
118.3780720130607
 30
0.0
  0
LINE
  5
178
330
127
100
AcDbEntity
  8
DN20
  6
Continuous
 62
     7
100
AcDbLine
 10
119.3988153333
 20
119.4432936704
 30
0.0
 11
119.047235545
 21
119.240308985
 31
0.0
  0
LINE
  5
179
330
127
100
AcDbEntity
  8
DN20
  6
Continuous
 62
     7
100
AcDbLine
 10
114.6224265781
 20
110.4282101262
 30
0.0
 11
99.0339693099
 21
119.4282101262
 31
0.0
  0
LINE
  5
17A
330
127
100
AcDbEntity
  8
DN20
  6
Continuous
 62
     7
100
AcDbLine
 10
92.9717914834
 20
122.9282101262
 30
0.0
 11
77.3833342153
 21
131.9282101262
 31
0.0
  0
ARC
  5
17B
330
127
100
AcDbEntity
  8
DN20
  6
Continuous
 62
     7
100
AcDbCircle
 10
57.095369779
 20
107.9467584845
 30
0.0
 40
63.35493650789742
100
AcDbArc
 50
10.9472681995
 51
12.0241017509
  0
LINE
  5
17C
330
127
100
AcDbEntity
  8
DN20
  6
Continuous
 62
     7
100
AcDbLine
 10
90.7745137666
 20
101.6224134822
 30
0.0
 11
103.3318821214
 21
94.3724134822
 31
0.0
  0
LINE
  5
17D
330
127
100
AcDbEntity
  8
DN20
  6
Continuous
 62
     7
100
AcDbLine
 10
103.7212045411
 20
97.6117396936
 30
0.0
 11
93.3851913469
 21
103.5792396936
 31
0.0
  0
LINE
  5
17E
330
127
100
AcDbEntity
  8
DN20
  6
Continuous
 62
     7
100
AcDbLine
 10
86.2745137666
 20
93.8281848481
 30
0.0
 11
98.8318821214
 21
86.5781848481
 31
0.0
  0
LINE
  5
17F
330
127
100
AcDbEntity
  8
DN20
  6
Continuous
 62
     7
100
AcDbLine
 10
69.1238786719
 20
114.1224134822
 30
0.0
 11
81.6812470268
 21
106.8724134822
 31
0.0
  0
LINE
  5
180
330
127
100
AcDbEntity
  8
DN20
  6
Continuous
 62
     7
100
AcDbLine
 10
82.0705694465
 20
110.1117396936
 30
0.0
 11
71.7345562523
 21
116.0792396936
 31
0.0
  0
LINE
  5
181
330
127
100
AcDbEntity
  8
DN20
  6
Continuous
 62
     7
100
AcDbLine
 10
64.6238786719
 20
106.3281848481
 30
0.0
 11
77.1812470268
 21
99.0781848481
 31
0.0
  0
LINE
  5
182
330
127
100
AcDbEntity
  8
DN20
  6
Continuous
 62
     7
100
AcDbLine
 10
150.0436171566
 20
133.9190348085
 30
0.0
 11
120.6486341767
 21
116.9478334722
 31
0.0
  0
LINE
  5
183
330
127
100
AcDbEntity
  8
DN20
  6
Continuous
 62
     7
100
AcDbLine
 10
119.2969380963
 20
119.977943153
 30
0.0
 11
148.418557531
 21
136.7913179728
 31
0.0
  0
LINE
  5
184
330
127
100
AcDbEntity
  8
DN20
  6
Continuous
 62
     7
100
AcDbLine
 10
119.2969380963
 20
119.977943153
 30
0.0
 11
119.3122750911
 21
119.9011489702
 31
0.0
  0
LINE
  5
185
330
127
100
AcDbEntity
  8
DN20
  6
Continuous
 62
     7
100
AcDbLine
 10
119.3122750911
 20
119.9011489702
 30
0.0
 11
148.4550840506
 21
136.726757568
 31
0.0
  0
LINE
  5
186
330
127
100
AcDbEntity
  8
DN20
  6
Continuous
 62
     7
100
AcDbLine
 10
148.5369627099
 20
132.1234739588
 30
0.0
 11
151.8361256667
 21
126.4091560953
 31
0.0
  0
ARC
  5
187
330
127
100
AcDbEntity
  8
DN20
  6
Continuous
 62
     7
100
AcDbCircle
 10
140.7305462287
 20
138.2602739864
 30
0.0
 40
9.929776072854718
100
AcDbArc
 50
278.1716867869
 51
321.8283132131
  0
LINE
  5
188
330
127
100
AcDbEntity
  8
DN20
  6
Continuous
 62
     7
100
AcDbLine
 10
142.1419627099
 20
128.4313189873
 30
0.0
 11
145.4411256667
 21
122.7170011238
 31
0.0
  0
SPLINE
  5
189
330
127
100
AcDbEntity
  8
DN20
  6
Continuous
 62
     7
100
AcDbSpline
210
0.0
220
0.0
230
1.0
 70
     8
 71
     3
 72
    14
 73
    10
 74
     0
 42
0.000000001
 43
0.0000000001
 40
0.0
 40
0.0
 40
0.0
 40
0.0
 40
0.2500000000000003
 40
0.2500000000000003
 40
0.5000000000000001
 40
0.5000000000000001
 40
0.75
 40
0.75
 40
1.0
 40
1.0
 40
1.0
 40
1.0
 10
142.1419627099108
 20
128.431318987337
 30
0.0
 10
141.1929386413095
 20
127.6260863116656
 30
0.0
 10
140.2125001474894
 20
126.8484627524423
 30
0.0
 10
138.1996921931976
 20
125.3990031804765
 30
0.0
 10
137.1648842054721
 20
124.7258244893099
 30
0.0
 10
135.0316108645468
 20
123.495000329799
 30
0.0
 10
133.9331614623055
 20
122.9373259116914
 30
0.0
 10
131.6802139977803
 20
121.9237010830808
 30
0.0
 10
130.5249149599148
 20
121.4666610109837
 30
0.0
 10
129.3519627099107
 20
121.0470090444017
 30
0.0
  0
LINE
  5
18A
330
127
100
AcDbEntity
  8
DN20
  6
Continuous
 62
     7
100
AcDbLine
 10
129.3519627099
 20
121.0470090444
 30
0.0
 11
132.6511256667
 21
115.3326911809
 31
0.0
  0
ARC
  5
18B
330
127
100
AcDbEntity
  8
DN20
  6
Continuous
 62
     7
100
AcDbCircle
 10
121.5455462287
 20
127.183809072
 30
0.0
 40
9.929776072854192
100
AcDbArc
 50
278.1716867869
 51
321.8283132131
  0
LINE
  5
18C
330
127
100
AcDbEntity
  8
DN20
  6
Continuous
 62
     7
100
AcDbLine
 10
122.9569627099
 20
117.3548540729
 30
0.0
 11
126.2561256667
 21
111.6405362094
 31
0.0
  0
LINE
  5
18D
330
127
100
AcDbEntity
  8
DN20
  6
Continuous
 62
     7
100
AcDbLine
 10
151.8361256667
 20
126.4091560953
 30
0.0
 11
145.4411256667
 21
122.7170011238
 31
0.0
  0
LINE
  5
18E
330
127
100
AcDbEntity
  8
DN20
  6
Continuous
 62
     7
100
AcDbLine
 10
145.4411256667
 20
122.7170011238
 30
0.0
 11
132.6511256667
 21
115.3326911809
 31
0.0
  0
LINE
  5
18F
330
127
100
AcDbEntity
  8
DN20
  6
Continuous
 62
     7
100
AcDbLine
 10
132.6511256667
 20
115.3326911809
 30
0.0
 11
126.2561256667
 21
111.6405362094
 31
0.0
  0
LINE
  5
190
330
127
100
AcDbEntity
  8
DN20
  6
Continuous
 62
     7
100
AcDbLine
 10
132.6047008484
 20
60.1817212106
 30
0.0
 11
133.8682148843
 21
60.9112113794
 31
0.0
  0
LINE
  5
191
330
127
100
AcDbEntity
  8
DN20
  6
Continuous
 62
     7
100
AcDbLine
 10
133.8682148843
 20
60.9112113794
 30
0.0
 11
127.5307298963
 21
71.8880573708
 31
0.0
  0
LINE
  5
192
330
127
100
AcDbEntity
  8
DN20
  6
Continuous
 62
     7
100
AcDbLine
 10
190.8490290941
 20
92.7739897267
 30
0.0
 11
191.5096314143
 21
93.1553886542
 31
0.0
  0
ELLIPSE
  5
193
330
127
100
AcDbEntity
  8
DN20
  6
Continuous
 62
     7
100
AcDbEllipse
 10
121.2416117514
 20
161.7877769267
 30
0.0
 11
49.23439875357428
 21
-85.27648011754498
 31
0.0
210
0.0
220
0.0
230
1.0
 40
0.9396926208
 41
0.1683144528932345
 42
0.2822902643559821
  0
LINE
  5
194
330
127
100
AcDbEntity
  8
DN20
  6
Continuous
 62
     7
100
AcDbLine
 10
190.8490290941
 20
92.7739897267
 30
0.0
 11
183.919399617
 21
104.7764600586
 31
0.0
  0
ELLIPSE
  5
195
330
127
100
AcDbEntity
  8
DN20
  6
Continuous
 62
     7
100
AcDbEllipse
 10
130.2647232186
 20
166.997272761
 30
0.0
 11
49.23439875181682
 21
-85.27648011838008
 31
0.0
210
0.0
220
0.0
230
1.0
 40
0.3420201433
 41
-0.2822902643738834
 42
-0.1683144529110221
  0
LINE
  5
196
330
127
100
AcDbEntity
  8
DN20
  6
Continuous
 62
     7
100
AcDbLine
 10
173.9174083218
 20
80.104964618
 30
0.0
 11
160.3787639238
 21
103.554584581
 31
0.0
  0
LINE
  5
197
330
127
100
AcDbEntity
  8
DN20
  6
Continuous
 62
     7
100
AcDbLine
 10
157.3016279649
 20
73.4053886542
 30
0.0
 11
169.4259836178
 21
80.4053886542
 31
0.0
  0
LINE
  5
198
330
127
100
AcDbEntity
  8
DN20
  6
Continuous
 62
     7
100
AcDbLine
 10
169.4259836178
 20
80.4053886542
 30
0.0
 11
162.4963541408
 21
92.407858986
 31
0.0
  0
LINE
  5
199
330
127
100
AcDbEntity
  8
DN20
  6
Continuous
 62
     7
100
AcDbLine
 10
141.777446062
 20
92.8151087063
 30
0.0
 11
141.4621382765
 21
92.6330656714
 31
0.0
  0
ELLIPSE
  5
19A
330
127
100
AcDbEntity
  8
DN20
  6
Continuous
 62
     7
100
AcDbEllipse
 10
101.8914867664
 20
150.6159770575
 30
0.0
 11
49.2343987518833
 21
-85.27648011824243
 31
0.0
210
0.0
220
0.0
230
1.0
 40
0.3420201433
 41
0.15735877219179
 42
0.2822902643740135
  0
LINE
  5
19B
330
127
100
AcDbEntity
  8
DN20
  6
Continuous
 62
     7
100
AcDbLine
 10
157.3016279649
 20
73.4053886542
 30
0.0
 11
150.3719984878
 21
85.407858986
 31
0.0
  0
ELLIPSE
  5
19C
330
127
100
AcDbEntity
  8
DN20
  6
Continuous
 62
     7
100
AcDbEllipse
 10
107.5729941067
 20
153.8961968492
 30
0.0
 11
48.63123875828764
 21
-84.23177636473133
 31
0.0
210
0.0
220
0.0
230
1.0
 40
0.906307787
 41
6.010737842658424
 42
6.268633351768387
  0
LINE
  5
19D
330
127
100
AcDbEntity
  8
DN20
  6
Continuous
 62
     7
100
AcDbLine
 10
155.0882280646
 20
69.03198585
 30
0.0
 11
141.4621382765
 21
92.6330656714
 31
0.0
  0
LINE
  5
19E
330
127
100
AcDbEntity
  8
DN20
  6
Continuous
 62
     7
100
AcDbLine
 10
141.4621382765
 20
92.6330656714
 30
0.0
 11
137.864365391
 21
90.5558905275
 31
0.0
  0
LINE
  5
19F
330
127
100
AcDbEntity
  8
DN20
  6
Continuous
 62
     7
100
AcDbLine
 10
173.9174083218
 20
80.104964618
 30
0.0
 11
183.204318986
 21
85.4667649899
 31
0.0
  0
LINE
  5
1A0
330
127
100
AcDbEntity
  8
DN20
  6
Continuous
 62
     7
100
AcDbLine
 10
183.204318986
 20
85.4667649899
 30
0.0
 11
169.665674588
 21
108.9163849529
 31
0.0
  0
LINE
  5
1A1
330
127
100
AcDbEntity
  8
DN20
  6
Continuous
 62
     7
100
AcDbLine
 10
169.665674588
 20
108.9163849529
 30
0.0
 11
160.3787639238
 21
103.554584581
 31
0.0
  0
LINE
  5
1A2
330
127
100
AcDbEntity
  8
DN20
  6
Continuous
 62
     7
100
AcDbLine
 10
126.2672158604
 20
71.158567202
 30
0.0
 11
127.5307298963
 21
71.8880573708
 31
0.0
  0
SPLINE
  5
1A3
330
127
100
AcDbEntity
  8
DN20
  6
Continuous
 62
     7
100
AcDbSpline
210
0.0
220
0.0
230
1.0
 70
     8
 71
     3
 72
    18
 73
    14
 74
     0
 42
0.000000001
 43
0.0000000001
 40
0.0
 40
0.0
 40
0.0
 40
0.0
 40
0.2500000000000004
 40
0.2500000000000004
 40
0.5000000000000008
 40
0.5000000000000008
 40
0.7500000000000011
 40
0.7500000000000011
 40
0.8750000000000013
 40
0.8750000000000013
 40
0.9375000000000007
 40
0.9375000000000007
 40
1.0
 40
1.0
 40
1.0
 40
1.0
 10
127.530729896349
 20
71.88805737077917
 30
0.0
 10
129.1308372641899
 20
72.81187979033437
 30
0.0
 10
130.5352428935486
 20
73.97837076829342
 30
0.0
 10
133.0630529464379
 20
76.65979192591152
 30
0.0
 10
134.1733665588397
 20
78.17009155646656
 30
0.0
 10
136.0793044967923
 20
81.35246182315394
 30
0.0
 10
136.9002488924521
 20
83.03271446567575
 30
0.0
 10
137.8460125734311
 20
85.74580295896253
 30
0.0
 10
138.1152790585087
 20
86.68061752370923
 30
0.0
 10
138.3130680152839
 20
88.12722866707234
 30
0.0
 10
138.3440184963383
 20
88.61399331992223
 30
0.0
 10
138.2527486645843
 20
89.60749458409717
 30
0.0
 10
138.1233410983134
 20
90.10733144439776
 30
0.0
 10
137.8643653909548
 20
90.55589052746902
 30
0.0
  0
LINE
  5
1A4
330
127
100
AcDbEntity
  8
DN20
  6
Continuous
 62
     7
100
AcDbLine
 10
137.864365391
 20
90.5558905275
 30
0.0
 11
130.2934953021
 21
86.1848466437
 31
0.0
  0
LINE
  5
1A5
330
127
100
AcDbEntity
  8
DN20
  6
Continuous
 62
     7
100
AcDbLine
 10
171.8627146837
 20
110.1848466437
 30
0.0
 11
169.665674588
 21
108.9163849529
 31
0.0
  0
SPLINE
  5
1A6
330
127
100
AcDbEntity
  8
DN20
  6
Continuous
 62
     7
100
AcDbSpline
210
0.0
220
0.0
230
1.0
 70
     8
 71
     3
 72
    14
 73
    10
 74
     0
 42
0.000000001
 43
0.0000000001
 40
0.0
 40
0.0
 40
0.0
 40
0.0
 40
0.25
 40
0.25
 40
0.5
 40
0.5
 40
0.75
 40
0.75
 40
1.0
 40
1.0
 40
1.0
 40
1.0
 10
169.6656745879695
 20
108.916384952948
 30
0.0
 10
170.3607822751224
 20
107.7124231220674
 30
0.0
 10
171.3537565555439
 20
106.7316182541178
 30
0.0
 10
173.6234224745832
 20
105.2554133077791
 30
0.0
 10
174.8956926251062
 20
104.7522030737072
 30
0.0
 10
177.462119609777
 20
104.1411031838309
 30
0.0
 10
178.7939434045775
 20
104.0248427069884
 30
0.0
 10
181.3932805684874
 20
104.1401487441665
 30
0.0
 10
182.6832442267278
 20
104.3709460700994
 30
0.0
 10
183.9193996170247
 20
104.776460058575
 30
0.0
  0
LINE
  5
1A7
330
127
100
AcDbEntity
  8
DN20
  6
Continuous
 62
     7
100
AcDbLine
 10
183.919399617
 20
104.7764600586
 30
0.0
 11
184.5800019373
 21
105.157858986
 31
0.0
  0
SPLINE
  5
1A8
330
127
100
AcDbEntity
  8
DN20
  6
Continuous
 62
     7
100
AcDbSpline
210
0.0
220
0.0
230
1.0
 70
     8
 71
     3
 72
    14
 73
    10
 74
     0
 42
0.000000001
 43
0.0000000001
 40
0.0
 40
0.0
 40
0.0
 40
0.0
 40
0.25
 40
0.25
 40
0.5
 40
0.5
 40
0.75
 40
0.75
 40
1.0
 40
1.0
 40
1.0
 40
1.0
 10
162.4963541408029
 20
92.40785898601663
 30
0.0
 10
162.7648100940319
 20
92.87166400178715
 30
0.0
 10
162.9283781797826
 20
93.4716739344118
 30
0.0
 10
163.0580729106409
 20
94.9280866089807
 30
0.0
 10
163.0206452970115
 20
95.79215890331783
 30
0.0
 10
162.722099458224
 20
97.70197167118292
 30
0.0
 10
162.4558826142417
 20
98.78446538419311
 30
0.0
 10
161.6376743159397
 20
101.1005807788792
 30
0.0
 10
161.0759924538401
 20
102.3469493425059
 30
0.0
 10
160.3787639237879
 20
103.5545845810428
 30
0.0
  0
LINE
  5
1A9
330
127
100
AcDbEntity
  8
DN20
  6
Continuous
 62
     7
100
AcDbLine
 10
160.3787639238
 20
103.554584581
 30
0.0
 11
141.777446062
 21
92.8151087063
 31
0.0
  0
SPLINE
  5
1AA
330
127
100
AcDbEntity
  8
DN20
  6
Continuous
 62
     7
100
AcDbSpline
210
0.0
220
0.0
230
1.0
 70
     8
 71
     3
 72
    14
 73
    10
 74
     0
 42
0.000000001
 43
0.0000000001
 40
0.0
 40
0.0
 40
0.0
 40
0.0
 40
0.2499999999999999
 40
0.2499999999999999
 40
0.4999999999999998
 40
0.4999999999999998
 40
0.7499999999999997
 40
0.7499999999999997
 40
1.0
 40
1.0
 40
1.0
 40
1.0
 10
141.7774460620213
 20
92.81510870627
 30
0.0
 10
142.4725537491742
 20
91.61114687538938
 30
0.0
 10
143.2619795862268
 20
90.51282325886761
 30
0.0
 10
144.8555242730403
 20
88.64625953709856
 30
0.0
 10
145.6594817701458
 20
87.87266886651105
 30
0.0
 10
147.1699681790568
 20
86.65192140097156
 30
0.0
 10
147.8985014695732
 20
86.18735098908115
 30
0.0
 10
149.2261404612867
 20
85.56844174421366
 30
0.0
 10
149.8371990038093
 20
85.40727301883273
 30
0.0
 10
150.3719984878207
 20
85.40785898601663
 30
0.0
  0
LINE
  5
1AB
330
127
100
AcDbEntity
  8
DN20
  6
Continuous
 62
     7
100
AcDbLine
 10
150.3719984878
 20
85.407858986
 30
0.0
 11
162.4963541408
 21
92.407858986
 31
0.0
  0
LINE
  5
1AC
330
127
100
AcDbEntity
  8
DN20
  6
Continuous
 62
     7
100
AcDbLine
 10
135.9782683928
 20
97.8385308211
 30
0.0
 11
158.9279415931
 21
111.0885308211
 31
0.0
  0
LINE
  5
1AD
330
127
100
AcDbEntity
  8
DN20
  6
Continuous
 62
     7
100
AcDbLine
 10
77.035720868
 20
141.1280720044
 30
0.0
 11
77.3996911022
 21
142.1280720044
 31
0.0
  0
LINE
  5
1AE
330
127
100
AcDbEntity
  8
DN20
  6
Continuous
 62
     7
100
AcDbLine
 10
77.3996911022
 20
172.6280720044
 30
0.0
 11
77.035720868
 21
173.6280720044
 31
0.0
  0
LINE
  5
1AF
330
127
100
AcDbEntity
  8
DN20
  6
Continuous
 62
     7
100
AcDbLine
 10
143.6028803967
 20
172.6280720044
 30
0.0
 11
138.4560637875
 21
170.2280720044
 31
0.0
  0
LINE
  5
1B0
330
127
100
AcDbEntity
  8
DN20
  6
Continuous
 62
     7
100
AcDbLine
 10
153.4028803967
 20
172.6280720044
 30
0.0
 11
143.6028803967
 21
172.6280720044
 31
0.0
  0
LINE
  5
1B1
330
127
100
AcDbEntity
  8
DN20
  6
Continuous
 62
     7
100
AcDbLine
 10
153.766850631
 20
173.6280720044
 30
0.0
 11
153.4028803967
 21
172.6280720044
 31
0.0
  0
LINE
  5
1B2
330
127
100
AcDbEntity
  8
DN20
  6
Continuous
 62
     7
100
AcDbLine
 10
153.6805792897
 20
141.3651005664
 30
0.0
 11
153.766850631
 21
141.1280720044
 31
0.0
  0
LINE
  5
1B3
330
127
100
AcDbEntity
  8
DN20
  6
Continuous
 62
     7
100
AcDbLine
 10
148.4179969454
 20
136.7909943186
 30
0.0
 11
147.8859412009
 21
137.7125419005
 31
0.0
  0
LINE
  5
1B4
330
127
100
AcDbEntity
  8
DN20
  6
Continuous
 62
     7
100
AcDbLine
 10
77.3996911022
 20
142.1280720044
 30
0.0
 11
83.5631800652
 21
142.1280720044
 31
0.0
  0
LINE
  5
1B5
330
127
100
AcDbEntity
  8
DN20
  6
Continuous
 62
     7
100
AcDbLine
 10
87.2028803967
 20
172.6280720044
 30
0.0
 11
77.3996911022
 21
172.6280720044
 31
0.0
  0
LINE
  5
1B6
330
127
100
AcDbEntity
  8
DN20
  6
Continuous
 62
     7
100
AcDbLine
 10
92.3496970059
 20
170.2280720044
 30
0.0
 11
87.2028803967
 21
172.6280720044
 31
0.0
  0
LINE
  5
1B7
330
127
100
AcDbEntity
  8
DN20
  6
Continuous
 62
     7
100
AcDbLine
 10
138.4560637875
 20
170.2280720044
 30
0.0
 11
92.3496970059
 21
170.2280720044
 31
0.0
  0
LINE
  5
1B8
330
127
100
AcDbEntity
  8
DN20
  6
Continuous
 62
     7
100
AcDbLine
 10
83.5610868726
 20
142.1344653816
 30
0.0
 11
83.1333342153
 21
141.8875022697
 31
0.0
  0
LINE
  5
1B9
330
127
100
AcDbEntity
  8
DN20
  6
Continuous
 62
     7
100
AcDbLine
 10
162.2208952796
 20
141.1280720044
 30
0.0
 11
162.4028803967
 21
141.6280720044
 31
0.0
  0
LINE
  5
1BA
330
127
100
AcDbEntity
  8
DN20
  6
Continuous
 62
     7
100
AcDbLine
 10
162.4028803967
 20
173.1280720044
 30
0.0
 11
162.2208952796
 21
173.6280720044
 31
0.0
  0
LINE
  5
1BB
330
127
100
AcDbEntity
  8
DN20
  6
Continuous
 62
     7
100
AcDbLine
 10
68.5848655138
 20
173.6280720044
 30
0.0
 11
68.4028803967
 21
173.1280720044
 31
0.0
  0
LINE
  5
1BC
330
127
100
AcDbEntity
  8
DN20
  6
Continuous
 62
     7
100
AcDbLine
 10
68.4028803967
 20
141.6280720044
 30
0.0
 11
68.5848655138
 21
141.1280720044
 31
0.0
  0
LINE
  5
1BD
330
127
100
AcDbEntity
  8
DN20
  6
Continuous
 62
     7
100
AcDbLine
 10
103.0339693099
 20
126.3564133565
 30
0.0
 11
99.0339693099
 21
119.4282101262
 31
0.0
  0
LINE
  5
1BE
330
127
100
AcDbEntity
  8
DN20
  6
Continuous
 62
     7
100
AcDbLine
 10
114.622426578
 20
110.4282101262
 30
0.0
 11
119.2169872891
 21
118.3862227162
 31
0.0
  0
LINE
  5
1BF
330
127
100
AcDbEntity
  8
DN20
  6
Continuous
 62
     7
100
AcDbLine
 10
83.1333342153
 20
141.8875022697
 30
0.0
 11
77.3833342153
 21
131.9282101262
 31
0.0
  0
LINE
  5
1C0
330
127
100
AcDbEntity
  8
DN20
  6
Continuous
 62
     7
100
AcDbLine
 10
92.9717914834
 20
122.9282101262
 30
0.0
 11
96.9717914834
 21
129.8564133565
 31
0.0
  0
LINE
  5
1C1
330
127
100
AcDbEntity
  8
DN20
  6
Continuous
 62
     7
100
AcDbLine
 10
148.6749762716
 20
136.345893069
 30
0.0
 11
148.4550840506
 21
136.726757568
 31
0.0
  0
LINE
  5
1C2
330
127
100
AcDbEntity
  8
DN20
  6
Continuous
 62
     7
100
AcDbLine
 10
100.6039020995
 20
95.9474134822
 30
0.0
 11
102.1039020995
 21
98.5454896936
 31
0.0
  0
LINE
  5
1C3
330
127
100
AcDbEntity
  8
DN20
  6
Continuous
 62
     7
100
AcDbLine
 10
95.0024937885
 20
102.6454896936
 30
0.0
 11
93.5024937885
 21
100.0474134822
 31
0.0
  0
LINE
  5
1C4
330
127
100
AcDbEntity
  8
DN20
  6
Continuous
 62
     7
100
AcDbLine
 10
103.7212045411
 20
97.6117396936
 30
0.0
 11
111.9962045411
 21
111.9444601262
 31
0.0
  0
LINE
  5
1C5
330
127
100
AcDbEntity
  8
DN20
  6
Continuous
 62
     7
100
AcDbLine
 10
101.6601913469
 20
117.9119601262
 30
0.0
 11
93.3851913469
 21
103.5792396936
 31
0.0
  0
LINE
  5
1C6
330
127
100
AcDbEntity
  8
DN20
  6
Continuous
 62
     7
100
AcDbLine
 10
90.7745137666
 20
101.6224134822
 30
0.0
 11
86.2745137666
 21
93.8281848481
 31
0.0
  0
LINE
  5
1C7
330
127
100
AcDbEntity
  8
DN20
  6
Continuous
 62
     7
100
AcDbLine
 10
98.8318821214
 20
86.5781848481
 30
0.0
 11
103.3318821214
 21
94.3724134822
 31
0.0
  0
LINE
  5
1C8
330
127
100
AcDbEntity
  8
DN20
  6
Continuous
 62
     7
100
AcDbLine
 10
78.9532670049
 20
108.4474134822
 30
0.0
 11
80.4532670049
 21
111.0454896936
 31
0.0
  0
LINE
  5
1C9
330
127
100
AcDbEntity
  8
DN20
  6
Continuous
 62
     7
100
AcDbLine
 10
73.3518586939
 20
115.1454896936
 30
0.0
 11
71.8518586939
 21
112.5474134822
 31
0.0
  0
LINE
  5
1CA
330
127
100
AcDbEntity
  8
DN20
  6
Continuous
 62
     7
100
AcDbLine
 10
82.0705694465
 20
110.1117396936
 30
0.0
 11
90.3455694465
 21
124.4444601262
 31
0.0
  0
LINE
  5
1CB
330
127
100
AcDbEntity
  8
DN20
  6
Continuous
 62
     7
100
AcDbLine
 10
80.0095562523
 20
130.4119601262
 30
0.0
 11
71.7345562523
 21
116.0792396936
 31
0.0
  0
LINE
  5
1CC
330
127
100
AcDbEntity
  8
DN20
  6
Continuous
 62
     7
100
AcDbLine
 10
69.1238786719
 20
114.1224134822
 30
0.0
 11
64.6238786719
 21
106.3281848481
 31
0.0
  0
LINE
  5
1CD
330
127
100
AcDbEntity
  8
DN20
  6
Continuous
 62
     7
100
AcDbLine
 10
77.1812470268
 20
99.0781848481
 30
0.0
 11
81.6812470268
 21
106.8724134822
 31
0.0
  0
LINE
  5
1CE
330
127
100
AcDbEntity
  8
DN20
  6
Continuous
 62
     7
100
AcDbLine
 10
119.2345574683
 20
119.3484593479
 30
0.0
 11
120.6486341767
 21
116.9478334722
 31
0.0
  0
LINE
  5
1CF
330
127
100
AcDbEntity
  8
DN20
  6
Continuous
 62
     7
100
AcDbLine
 10
150.0436171566
 20
133.9190348085
 30
0.0
 11
148.6716525175
 21
136.3439740987
 31
0.0
  0
LINE
  5
1D0
330
127
100
AcDbEntity
  8
DN20
  6
Continuous
 62
     7
100
AcDbLine
 10
120.6486341767
 20
116.9478334722
 30
0.0
 11
122.9569627099
 21
117.3548540729
 31
0.0
  0
LINE
  5
1D1
330
127
100
AcDbEntity
  8
DN20
  6
Continuous
 62
     7
100
AcDbLine
 10
148.5369627099
 20
132.1234739588
 30
0.0
 11
150.0436171566
 21
133.9190348085
 31
0.0
  0
LINE
  5
1D2
330
127
100
AcDbEntity
  8
DN20
  6
Continuous
 62
     7
100
AcDbLine
 10
148.4550840506
 20
136.726757568
 30
0.0
 11
148.418557531
 21
136.7913179728
 31
0.0
  0
LINE
  5
1D3
330
127
100
AcDbEntity
  8
DN20
  6
Continuous
 62
     7
100
AcDbLine
 10
128.1124222783
 20
112.7122695578
 30
0.0
 11
136.6464762783
 21
98.2243208237
 31
0.0
  0
LINE
  5
1D4
330
127
100
AcDbEntity
  8
DN20
  6
Continuous
 62
     7
100
AcDbLine
 10
158.2597337075
 20
110.7027408185
 30
0.0
 11
149.979829055
 21
125.3374227468
 31
0.0
  0
LINE
  5
1D5
330
127
100
AcDbEntity
  8
DN20
  6
Continuous
 62
     7
100
AcDbLine
 10
126.2672158604
 20
71.158567202
 30
0.0
 11
132.6047008484
 21
60.1817212106
 31
0.0
  0
LINE
  5
1D6
330
127
100
AcDbEntity
  8
DN20
  6
Continuous
 62
     7
100
AcDbLine
 10
191.5096314143
 20
93.1553886542
 30
0.0
 11
184.5800019373
 21
105.157858986
 31
0.0
  0
ARC
  5
1D7
330
127
100
AcDbEntity
  8
DN20
  6
Continuous
 62
     7
100
AcDbCircle
 10
116.0781049929
 20
158.8066249086
 30
0.0
 40
100.0
100
AcDbArc
 50
279.5126848853
 51
318.9655749888
  0
ARC
  5
1D8
330
127
100
AcDbEntity
  8
DN20
  6
Continuous
 62
     7
100
AcDbCircle
 10
120.7672158604
 20
80.6848466437
 30
0.0
 40
11.0
100
AcDbArc
 50
300.0
 51
30.0
  0
ARC
  5
1D9
330
127
100
AcDbEntity
  8
DN20
  6
Continuous
 62
     7
100
AcDbCircle
 10
181.3889941254
 20
115.6848466437
 30
0.0
 40
11.0
100
AcDbArc
 50
210.0
 51
286.8634412131
  0
LINE
  5
1DA
330
127
100
AcDbEntity
  8
DN20
  6
Continuous
 62
     7
100
AcDbLine
 10
135.9782683928
 20
97.8385308211
 30
0.0
 11
139.6032683928
 21
91.5598466437
 31
0.0
  0
LINE
  5
1DB
330
127
100
AcDbEntity
  8
DN20
  6
Continuous
 62
     7
100
AcDbLine
 10
162.5529415931
 20
104.8098466437
 30
0.0
 11
158.9279415931
 21
111.0885308211
 31
0.0
  0
ENDBLK
  5
1DD
330
127
100
AcDbEntity
  8
0
100
AcDbBlockEnd
  0
BLOCK
  5
277
330
1DE
100
AcDbEntity
  8
0
100
AcDbBlockBegin
  2
SE2
 70
     0
 10
0.0
 20
0.0
 30
0.0
  3
SE2
  1

  0
LINE
  5
1E0
330
1DE
100
AcDbEntity
  8
DN20
  6
Continuous
 62
     7
100
AcDbLine
 10
77.3996911022
 20
192.4936223274
 30
0.0
 11
77.3996911022
 21
200.8701609246
 31
0.0
  0
LINE
  5
1E1
330
1DE
100
AcDbEntity
  8
DN20
  6
Continuous
 62
     7
100
AcDbLine
 10
77.3996911022
 20
214.6170837302
 30
0.0
 11
77.3996911022
 21
222.9936223274
 31
0.0
  0
ARC
  5
1E2
330
1DE
100
AcDbEntity
  8
DN20
  6
Continuous
 62
     7
100
AcDbCircle
 10
64.4092654168
 20
193.6707095159
 30
0.0
 40
12.61601729350165
100
AcDbArc
 50
338.1716867869
 51
21.8283132131
  0
SPLINE
  5
1E3
330
1DE
100
AcDbEntity
  8
DN20
  6
Continuous
 62
     7
100
AcDbSpline
210
0.0
220
0.0
230
1.0
 70
     8
 71
     3
 72
     8
 73
     4
 74
     0
 42
0.000000001
 43
0.0000000001
 40
0.0
 40
0.0
 40
0.0
 40
0.0
 40
0.1209355661681183
 40
0.1209355661681183
 40
0.1209355661681183
 40
0.1209355661681183
 10
76.12074201103181
 20
217.1255642017227
 30
0.0
 10
76.2577120074159
 20
216.3729202573064
 30
0.0
 10
76.3828919096587
 20
215.6163440674936
 30
0.0
 10
76.49353088091532
 20
214.8583207047175
 30
0.0
  0
SPLINE
  5
1E4
330
1DE
100
AcDbEntity
  8
DN20
  6
Continuous
 62
     7
100
AcDbSpline
210
0.0
220
0.0
230
1.0
 70
     8
 71
     3
 72
     8
 73
     4
 74
     0
 42
0.000000001
 43
0.0000000001
 40
0.8797979723321842
 40
0.8797979723321842
 40
0.8797979723321842
 40
0.8797979723321842
 40
1.0
 40
1.0
 40
1.0
 40
1.0
 10
76.49091831371354
 20
200.6105151705504
 30
0.0
 10
76.38116050390806
 20
199.8601920421487
 30
0.0
 10
76.25699652133454
 20
199.1103928337712
 30
0.0
 10
76.12074201103181
 20
198.3616804530599
 30
0.0
  0
ARC
  5
1E5
330
1DE
100
AcDbEntity
  8
DN20
  6
Continuous
 62
     7
100
AcDbCircle
 10
64.4092654168
 20
221.8165351389
 30
0.0
 40
12.61601729350173
100
AcDbArc
 50
338.1716867869
 51
21.8283132131
  0
ARC
  5
1E6
330
1DE
100
AcDbEntity
  8
DN20
  6
Continuous
 62
     7
100
AcDbCircle
 10
133.0872276705
 20
207.6223550778
 30
0.0
 40
24.92739157048042
100
AcDbArc
 50
200.9071820302
 51
209.1810200732
  0
ELLIPSE
  5
1E7
330
1DE
100
AcDbEntity
  8
DN20
  6
Continuous
 62
     7
100
AcDbEllipse
 10
127.753704845
 20
207.7436223274
 30
0.0
 11
6.836647181163004E-15
 21
-15.00000000000001
 31
0.0
210
0.0
220
0.0
230
1.0
 40
0.8660254038
 41
3.387823137539879
 42
3.89706820351619
  0
ELLIPSE
  5
1E8
330
1DE
100
AcDbEntity
  8
DN20
  6
Continuous
 62
     7
100
AcDbEllipse
 10
117.153704845
 20
207.7436223274
 30
0.0
 11
-4.181621170648671E-14
 21
13.99999999999998
 31
0.0
210
0.0
220
0.0
230
1.0
 40
0.8660254038
 41
2.639951976545583
 42
3.141592653589793
  0
ELLIPSE
  5
1E9
330
1DE
100
AcDbEntity
  8
DN20
  6
Continuous
 62
     7
100
AcDbEllipse
 10
117.153704845
 20
207.7436223274
 30
0.0
 11
1.536167869784039E-14
 21
-14.00000000000006
 31
0.0
210
0.0
220
0.0
230
1.0
 40
0.8660254038
 41
3.141592653589793
 42
3.643233330633993
  0
ELLIPSE
  5
1EA
330
1DE
100
AcDbEntity
  8
DN20
  6
Continuous
 62
     7
100
AcDbEllipse
 10
132.203704845
 20
207.7436223274
 30
0.0
 11
2.740847880548697E-14
 21
-16.99935269147146
 31
0.0
210
0.0
220
0.0
230
1.0
 40
0.8660254038
 41
3.141592653589793
 42
4.354050916146593
  0
ELLIPSE
  5
1EB
330
1DE
100
AcDbEntity
  8
DN20
  6
Continuous
 62
     7
100
AcDbEllipse
 10
127.753704845
 20
207.7436223274
 30
0.0
 11
1.836970198721031E-15
 21
15.00000000000001
 31
0.0
210
0.0
220
0.0
230
1.0
 40
0.8660254038
 41
2.386117103663397
 42
2.895362169639706
  0
ELLIPSE
  5
1EC
330
1DE
100
AcDbEntity
  8
DN20
  6
Continuous
 62
     7
100
AcDbEllipse
 10
129.2028803967
 20
207.7436223274
 30
0.0
 11
-4.215275799900897E-12
 21
15.00000000000156
 31
0.0
210
0.0
220
0.0
230
1.0
 40
0.8660254038
 41
0.7554755499261274
 42
1.097190616502014
  0
LINE
  5
1ED
330
1DE
100
AcDbEntity
  8
DN20
  6
Continuous
 62
     7
100
AcDbLine
 10
120.2198723531
 20
195.5238913983
 30
0.0
 11
119.7860711201
 21
195.5238913983
 31
0.0
  0
LINE
  5
1EE
330
1DE
100
AcDbEntity
  8
DN20
  6
Continuous
 62
     7
100
AcDbLine
 10
120.2962215118
 20
196.8244387493
 30
0.0
 11
118.8470459601
 21
196.8244387493
 31
0.0
  0
LINE
  5
1EF
330
1DE
100
AcDbEntity
  8
DN20
  6
Continuous
 62
     7
100
AcDbLine
 10
119.7860711201
 20
219.9633532565
 30
0.0
 11
120.2198723531
 21
219.9633532565
 31
0.0
  0
LINE
  5
1F0
330
1DE
100
AcDbEntity
  8
DN20
  6
Continuous
 62
     7
100
AcDbLine
 10
118.8470459601
 20
218.6628059054
 30
0.0
 11
120.2962215118
 21
218.6628059054
 31
0.0
  0
ELLIPSE
  5
1F1
330
1DE
100
AcDbEntity
  8
DN20
  6
Continuous
 62
     7
100
AcDbEllipse
 10
125.5655737008
 20
207.7436223274
 30
0.0
 11
1.904930291599577E-12
 21
-12.49999999999918
 31
0.0
210
0.0
220
0.0
230
1.0
 40
0.8660254038
 41
5.354932323485096
 42
5.774806287164824
  0
ELLIPSE
  5
1F2
330
1DE
100
AcDbEntity
  8
DN20
  6
Continuous
 62
     7
100
AcDbEllipse
 10
122.0655737008
 20
207.7436223274
 30
0.0
 11
-1.533191126469048E-13
 21
-12.50000000000006
 31
0.0
210
0.0
220
0.0
230
1.0
 40
0.8660254038
 41
5.489472595200808
 42
6.071025849450872
  0
ELLIPSE
  5
1F3
330
1DE
100
AcDbEntity
  8
DN20
  6
Continuous
 62
     7
100
AcDbEllipse
 10
129.2028803967
 20
207.7436223274
 30
0.0
 11
-8.139424796005922E-12
 21
-15.00000000000331
 31
0.0
210
0.0
220
0.0
230
1.0
 40
0.8660254038
 41
5.185994690677861
 42
5.527709757253708
  0
ELLIPSE
  5
1F4
330
1DE
100
AcDbEntity
  8
DN20
  6
Continuous
 62
     7
100
AcDbEllipse
 10
125.5655737008
 20
207.7436223274
 30
0.0
 11
-2.402795929204920E-12
 21
12.50000000000098
 31
0.0
210
0.0
220
0.0
230
1.0
 40
0.8660254038
 41
0.5083790200144334
 42
0.9282529836941233
  0
ELLIPSE
  5
1F5
330
1DE
100
AcDbEntity
  8
DN20
  6
Continuous
 62
     7
100
AcDbEllipse
 10
122.0655737008
 20
207.7436223274
 30
0.0
 11
7.612391796593689E-14
 21
12.49999999999998
 31
0.0
210
0.0
220
0.0
230
1.0
 40
0.8660254038
 41
0.2121594577287436
 42
0.7937127119788002
  0
ELLIPSE
  5
1F6
330
1DE
100
AcDbEntity
  8
DN20
  6
Continuous
 62
     7
100
AcDbEllipse
 10
132.203704845
 20
207.7436223274
 30
0.0
 11
4.544990718553893E-14
 21
16.99935269147146
 31
0.0
210
0.0
220
0.0
230
1.0
 40
0.8660254038
 41
1.929134391032994
 42
3.141592653589793
  0
ARC
  5
1F7
330
1DE
100
AcDbEntity
  8
DN20
  6
Continuous
 62
     7
100
AcDbCircle
 10
101.3000301617
 20
206.3861202737
 30
0.0
 40
18.12947580694074
100
AcDbArc
 50
348.4170894089
 51
353.078900061
  0
ELLIPSE
  5
1F8
330
1DE
100
AcDbEntity
  8
DN20
  6
Continuous
 62
     7
100
AcDbEllipse
 10
112.578197944
 20
207.7436223274
 30
0.0
 11
1.051855906778411E-13
 21
9.000000000000032
 31
0.0
210
0.0
220
0.0
230
1.0
 40
0.8660254038
 41
3.141592653589792
 42
4.123673047425129
  0
LINE
  5
1F9
330
1DE
100
AcDbEntity
  8
DN20
  6
Continuous
 62
     7
100
AcDbLine
 10
87.2028803967
 20
222.9936223274
 30
0.0
 11
87.2028803967
 21
216.7436223274
 31
0.0
  0
LINE
  5
1FA
330
1DE
100
AcDbEntity
  8
DN20
  6
Continuous
 62
     7
100
AcDbLine
 10
87.2028803967
 20
198.7436223274
 30
0.0
 11
87.2028803967
 21
192.4936223274
 31
0.0
  0
LINE
  5
1FB
330
1DE
100
AcDbEntity
  8
DN20
  6
Continuous
 62
     7
100
AcDbLine
 10
92.3496970059
 20
220.5936223274
 30
0.0
 11
92.3496970059
 21
216.5925419933
 31
0.0
  0
LINE
  5
1FC
330
1DE
100
AcDbEntity
  8
DN20
  6
Continuous
 62
     7
100
AcDbLine
 10
92.3496970059
 20
198.8947026614
 30
0.0
 11
92.3496970059
 21
194.8936223274
 31
0.0
  0
ELLIPSE
  5
1FD
330
1DE
100
AcDbEntity
  8
DN20
  6
Continuous
 62
     7
100
AcDbEllipse
 10
90.9275628494
 20
207.7436223274
 30
0.0
 11
4.571629071186234E-15
 21
9.000000000000014
 31
0.0
210
0.0
220
0.0
230
1.0
 40
0.8660254038
 41
3.141592653589793
 42
3.775776494413833
  0
ELLIPSE
  5
1FE
330
1DE
100
AcDbEntity
  8
DN20
  6
Continuous
 62
     7
100
AcDbEllipse
 10
90.9275628494
 20
207.7436223274
 30
0.0
 11
4.571629071186234E-15
 21
9.000000000000014
 31
0.0
210
0.0
220
0.0
230
1.0
 40
0.8660254038
 41
-0.6341838408240411
 42
0.0000000000000007
  0
ELLIPSE
  5
1FF
330
1DE
100
AcDbEntity
  8
DN20
  6
Continuous
 62
     7
100
AcDbEllipse
 10
112.578197944
 20
207.7436223274
 30
0.0
 11
-6.181750377842086E-14
 21
-8.999999999999982
 31
0.0
210
0.0
220
0.0
230
1.0
 40
0.8660254038
 41
2.159512259754462
 42
3.141592653589793
  0
ARC
  5
200
330
1DE
100
AcDbEntity
  8
DN20
  6
Continuous
 62
     7
100
AcDbCircle
 10
133.634337034
 20
207.7091636655
 30
0.0
 40
25.48132683339232
100
AcDbArc
 50
151.1130736444
 51
159.2042921177
  0
LINE
  5
201
330
1DE
100
AcDbEntity
  8
DN20
  6
Continuous
 62
     7
100
AcDbLine
 10
69.4998443707
 20
188.9797385787
 30
0.0
 11
76.120742011
 21
188.9797385787
 31
0.0
  0
LINE
  5
202
330
1DE
100
AcDbEntity
  8
DN20
  6
Continuous
 62
     7
100
AcDbLine
 10
69.4998443707
 20
198.3616804531
 30
0.0
 11
76.120742011
 21
198.3616804531
 31
0.0
  0
LINE
  5
203
330
1DE
100
AcDbEntity
  8
DN20
  6
Continuous
 62
     7
100
AcDbLine
 10
69.4998443707
 20
217.1255642017
 30
0.0
 11
76.120742011
 21
217.1255642017
 31
0.0
  0
LINE
  5
204
330
1DE
100
AcDbEntity
  8
DN20
  6
Continuous
 62
     7
100
AcDbLine
 10
69.4998443707
 20
226.5075060761
 30
0.0
 11
76.120742011
 21
226.5075060761
 31
0.0
  0
LINE
  5
205
330
1DE
100
AcDbEntity
  8
DN20
  6
Continuous
 62
     7
100
AcDbLine
 10
68.4028803967
 20
223.4936223274
 30
0.0
 11
68.4028803967
 21
214.3942827092
 31
0.0
  0
LINE
  5
206
330
1DE
100
AcDbEntity
  8
DN20
  6
Continuous
 62
     7
100
AcDbLine
 10
68.4028803967
 20
201.0929619456
 30
0.0
 11
68.4028803967
 21
191.9936223274
 31
0.0
  0
ARC
  5
207
330
1DE
100
AcDbEntity
  8
DN20
  6
Continuous
 62
     7
100
AcDbCircle
 10
81.2113209649
 20
221.8165351389
 30
0.0
 40
12.61601729350196
100
AcDbArc
 50
158.1716867869
 51
201.8283132131
  0
SPLINE
  5
208
330
1DE
100
AcDbEntity
  8
DN20
  6
Continuous
 62
     7
100
AcDbSpline
210
0.0
220
0.0
230
1.0
 70
     8
 71
     3
 72
     8
 73
     4
 74
     0
 42
0.000000001
 43
0.0000000001
 40
0.0
 40
0.0
 40
0.0
 40
0.0
 40
0.1303837306390763
 40
0.1303837306390763
 40
0.1303837306390763
 40
0.1303837306390763
 10
69.499844370738
 20
217.1255642017228
 30
0.0
 10
69.35215441227622
 20
216.3140145498147
 30
0.0
 10
69.21819067445608
 20
215.4979981212081
 30
0.0
 10
69.10138602598282
 20
214.6805955764013
 30
0.0
  0
SPLINE
  5
209
330
1DE
100
AcDbEntity
  8
DN20
  6
Continuous
 62
     7
100
AcDbSpline
210
0.0
220
0.0
230
1.0
 70
     8
 71
     3
 72
     8
 73
     4
 74
     0
 42
0.000000001
 43
0.0000000001
 40
0.8693047450759549
 40
0.8693047450759549
 40
0.8693047450759549
 40
0.8693047450759549
 40
1.0
 40
1.0
 40
1.0
 40
1.0
 10
69.10121394413632
 20
200.8073496138688
 30
0.0
 10
69.21782068536494
 20
199.9912504095859
 30
0.0
 10
69.3516986503421
 20
199.1757344962133
 30
0.0
 10
69.49984437073806
 20
198.3616804530599
 30
0.0
  0
ARC
  5
20A
330
1DE
100
AcDbEntity
  8
DN20
  6
Continuous
 62
     7
100
AcDbCircle
 10
81.2113209649
 20
193.6707095159
 30
0.0
 40
12.61601729350171
100
AcDbArc
 50
158.1716867869
 51
201.8283132131
  0
ARC
  5
20B
330
1DE
100
AcDbEntity
  8
DN20
  6
Continuous
 62
     7
100
AcDbCircle
 10
94.6085577437
 20
208.2475270187
 30
0.0
 40
24.8751825135026
100
AcDbArc
 50
4.7358257129
 51
6.7311958536
  0
ELLIPSE
  5
20C
330
1DE
100
AcDbEntity
  8
DN20
  6
Continuous
 62
     7
100
AcDbEllipse
 10
133.9531049929
 20
207.7436223274
 30
0.0
 11
-5.412352456542296E-14
 21
-16.99935269147147
 31
0.0
210
0.0
220
0.0
230
1.0
 40
0.8660254038
 41
-1.419767616418174
 42
0.0363658156456483
  0
ELLIPSE
  5
20D
330
1DE
100
AcDbEntity
  8
DN20
  6
Continuous
 62
     7
100
AcDbEllipse
 10
133.9531049929
 20
207.7436223274
 30
0.0
 11
-5.412352456542296E-14
 21
-16.99935269147147
 31
0.0
210
0.0
220
0.0
230
1.0
 40
0.8660254038
 41
3.105226837944175
 42
4.561360270007974
  0
ARC
  5
20E
330
1DE
100
AcDbEntity
  8
DN20
  6
Continuous
 62
     7
100
AcDbCircle
 10
88.9046264532
 20
207.7436223274
 30
0.0
 40
30.30808952854342
100
AcDbArc
 50
354.0099633636
 51
5.9900366364
  0
ELLIPSE
  5
20F
330
1DE
100
AcDbEntity
  8
DN20
  6
Continuous
 62
     7
100
AcDbEllipse
 10
104.4530662989
 20
207.7436223274
 30
0.0
 11
15.58845726808305
 21
-1.459488826982293E-11
 31
0.0
210
0.0
220
0.0
230
1.0
 40
0.5773502692
 41
0.2881535169476548
 42
0.3590917415569373
  0
ELLIPSE
  5
210
330
1DE
100
AcDbEntity
  8
DN20
  6
Continuous
 62
     7
100
AcDbEllipse
 10
104.4530662982
 20
207.7436223275
 30
0.0
 11
15.58845726879599
 21
-1.737054360592146E-10
 31
0.0
210
0.0
220
0.0
230
1.0
 40
0.5773502692
 41
-0.3590917415418309
 42
-0.288153516934254
  0
ELLIPSE
  5
211
330
1DE
100
AcDbEntity
  8
DN20
  6
Continuous
 62
     7
100
AcDbEllipse
 10
106.828197944
 20
207.7436223274
 30
0.0
 11
9.775799499117480E-15
 21
9.000000000006752
 31
0.0
210
0.0
220
0.0
230
1.0
 40
0.8660254038
 41
0.0
 42
0.8459030514355533
  0
ELLIPSE
  5
212
330
1DE
100
AcDbEntity
  8
DN20
  6
Continuous
 62
     7
100
AcDbEllipse
 10
106.828197944
 20
207.7436223274
 30
0.0
 11
9.775799499117480E-15
 21
9.000000000006752
 31
0.0
210
0.0
220
0.0
230
1.0
 40
0.8660254038
 41
2.295689602154246
 42
6.283185307179586
  0
ELLIPSE
  5
213
330
1DE
100
AcDbEntity
  8
DN20
  6
Continuous
 62
     7
100
AcDbEllipse
 10
85.1775628494
 20
207.7436223274
 30
0.0
 11
-1.102182119231799E-15
 21
-8.999999999993314
 31
0.0
210
0.0
220
0.0
230
1.0
 40
0.8660254038
 41
0.0000000000000001
 42
0.7190230251115782
  0
ELLIPSE
  5
214
330
1DE
100
AcDbEntity
  8
DN20
  6
Continuous
 62
     7
100
AcDbEllipse
 10
85.1775628494
 20
207.7436223274
 30
0.0
 11
-1.102182119231799E-15
 21
-8.999999999993314
 31
0.0
210
0.0
220
0.0
230
1.0
 40
0.8660254038
 41
2.42256962847822
 42
3.987495705024023
  0
ELLIPSE
  5
215
330
1DE
100
AcDbEntity
  8
DN20
  6
Continuous
 62
     7
100
AcDbEllipse
 10
85.1775628494
 20
207.7436223274
 30
0.0
 11
-1.102182119231799E-15
 21
-8.999999999993314
 31
0.0
210
0.0
220
0.0
230
1.0
 40
0.8660254038
 41
5.437282255745365
 42
6.283185307179586
  0
ELLIPSE
  5
216
330
1DE
100
AcDbEntity
  8
DN20
  6
Continuous
 62
     7
100
AcDbEllipse
 10
85.1775628494
 20
207.7436223274
 30
0.0
 11
2.154748968911287E-14
 21
5.967499999999996
 31
0.0
210
0.0
220
0.0
230
1.0
 40
0.8660254038
 41
3.141592653589792
 42
3.720150448353534
  0
ELLIPSE
  5
217
330
1DE
100
AcDbEntity
  8
DN20
  6
Continuous
 62
     7
100
AcDbEllipse
 10
85.1775628494
 20
207.7436223274
 30
0.0
 11
2.154748968911287E-14
 21
5.967499999999996
 31
0.0
210
0.0
220
0.0
230
1.0
 40
0.8660254038
 41
5.704627512415851
 42
6.283185307179586
  0
ELLIPSE
  5
218
330
1DE
100
AcDbEntity
  8
DN20
  6
Continuous
 62
     7
100
AcDbEllipse
 10
106.828197944
 20
207.7436223274
 30
0.0
 11
1.634331926118245E-14
 21
5.967499999999995
 31
0.0
210
0.0
220
0.0
230
1.0
 40
0.8660254038
 41
3.141592653589794
 42
6.283185307179586
  0
ARC
  5
219
330
1DE
100
AcDbEntity
  8
DN20
  6
Continuous
 62
     7
100
AcDbCircle
 10
94.5975848672
 20
207.2408193568
 30
0.0
 40
24.8862088887837
100
AcDbArc
 50
353.2692462371
 51
355.2637321964
  0
ARC
  5
21A
330
1DE
100
AcDbEntity
  8
DN20
  6
Continuous
 62
     7
100
AcDbCircle
 10
101.3004507821
 20
209.1011928985
 30
0.0
 40
18.12904999513684
100
AcDbArc
 50
6.9210451609
 51
11.5829653692
  0
ELLIPSE
  5
21B
330
1DE
100
AcDbEntity
  8
DN20
  6
Continuous
 62
     7
100
AcDbEllipse
 10
97.053197944
 20
207.7436223274
 30
0.0
 11
-8.878689293818308E-16
 21
-7.249999999999999
 31
0.0
210
0.0
220
0.0
230
1.0
 40
0.8660254038
 41
0.0000000000000001
 42
3.141592653589793
  0
ELLIPSE
  5
21C
330
1DE
100
AcDbEntity
  8
DN20
  6
Continuous
 62
     7
100
AcDbEllipse
 10
98.553197944
 20
207.7436223274
 30
0.0
 11
-7.308079773911831E-16
 21
-5.967500000000001
 31
0.0
210
0.0
220
0.0
230
1.0
 40
0.8660254038
 41
0.7408221704914437
 42
2.40077048309835
  0
ELLIPSE
  5
21D
330
1DE
100
AcDbEntity
  8
DN20
  6
Continuous
 62
     7
100
AcDbEllipse
 10
92.553197944
 20
207.7436223274
 30
0.0
 11
-6.051024974525397E-15
 21
7.250000000000005
 31
0.0
210
0.0
220
0.0
230
1.0
 40
0.8660254038
 41
0.0
 42
6.283185307179586
  0
ELLIPSE
  5
21E
330
1DE
100
AcDbEntity
  8
DN20
  6
Continuous
 62
     7
100
AcDbEllipse
 10
75.4025628494
 20
207.7436223274
 30
0.0
 11
-1.992881278233985E-14
 21
7.250000000000006
 31
0.0
210
0.0
220
0.0
230
1.0
 40
0.8660254038
 41
3.141592653589794
 42
6.283185307179586
  0
ELLIPSE
  5
21F
330
1DE
100
AcDbEntity
  8
DN20
  6
Continuous
 62
     7
100
AcDbEllipse
 10
76.9025628494
 20
207.7436223274
 30
0.0
 11
2.008587373433050E-14
 21
-5.967499999999996
 31
0.0
210
0.0
220
0.0
230
1.0
 40
0.8660254038
 41
0.7408221704914819
 42
2.400770483098291
  0
ELLIPSE
  5
220
330
1DE
100
AcDbEntity
  8
DN20
  6
Continuous
 62
     7
100
AcDbEllipse
 10
70.9025628494
 20
207.7436223274
 30
0.0
 11
-8.878689293818310E-16
 21
-7.250000000000001
 31
0.0
210
0.0
220
0.0
230
1.0
 40
0.8660254038
 41
0.0
 42
6.283185307179586
  0
ELLIPSE
  5
221
330
1DE
100
AcDbEntity
  8
DN20
  6
Continuous
 62
     7
100
AcDbEllipse
 10
133.9531049929
 20
207.7436223274
 30
0.0
 11
2.081350273941635E-15
 21
16.9955147507898
 31
0.0
210
0.0
220
0.0
230
1.0
 40
0.8660254038
 41
6.268069353135606
 42
6.283185307179586
  0
ELLIPSE
  5
222
330
1DE
100
AcDbEntity
  8
DN20
  6
Continuous
 62
     7
100
AcDbEllipse
 10
133.9531049929
 20
207.7436223274
 30
0.0
 11
2.081350273941635E-15
 21
16.9955147507898
 31
0.0
210
0.0
220
0.0
230
1.0
 40
0.8660254038
 41
0.0
 42
3.156708607633671
  0
ELLIPSE
  5
223
330
1DE
100
AcDbEntity
  8
DN20
  6
Continuous
 62
     7
100
AcDbEllipse
 10
135.3461256667
 20
207.7436223274
 30
0.0
 11
4.718118311481433E-14
 21
16.97120133629049
 31
0.0
210
0.0
220
0.0
230
1.0
 40
0.8660254038
 41
0.0
 42
3.209786971647923
  0
ELLIPSE
  5
224
330
1DE
100
AcDbEntity
  8
DN20
  6
Continuous
 62
     7
100
AcDbEllipse
 10
135.3461256667
 20
207.7436223274
 30
0.0
 11
4.718118311481433E-14
 21
16.97120133629049
 31
0.0
210
0.0
220
0.0
230
1.0
 40
0.8660254038
 41
6.214990989121436
 42
6.283185307179586
  0
ELLIPSE
  5
225
330
1DE
100
AcDbEntity
  8
DN20
  6
Continuous
 62
     7
100
AcDbEllipse
 10
133.6961256667
 20
207.7436223274
 30
0.0
 11
-3.330692212613303E-14
 21
-16.99999999999998
 31
0.0
210
0.0
220
0.0
230
1.0
 40
0.8660254038
 41
-1.360859570057568
 42
0.0087266504354049
  0
ELLIPSE
  5
226
330
1DE
100
AcDbEntity
  8
DN20
  6
Continuous
 62
     7
100
AcDbEllipse
 10
133.6961256667
 20
207.7436223274
 30
0.0
 11
-3.330692212613303E-14
 21
-16.99999999999998
 31
0.0
210
0.0
220
0.0
230
1.0
 40
0.8660254038
 41
3.132866003154346
 42
4.502452223647365
  0
LINE
  5
227
330
1DE
100
AcDbEntity
  8
DN20
  6
Continuous
 62
     7
100
AcDbLine
 10
119.2969380963
 20
211.286389102
 30
0.0
 11
119.3122750911
 21
211.1631837714
 31
0.0
  0
ELLIPSE
  5
228
330
1DE
100
AcDbEntity
  8
DN20
  6
Continuous
 62
     7
100
AcDbEllipse
 10
133.7332127719
 20
207.7436223274
 30
0.0
 11
4.857073617788481E-15
 21
-16.99935269147147
 31
0.0
210
0.0
220
0.0
230
1.0
 40
0.8660254038
 41
3.141592653589791
 42
4.509848698300401
  0
ELLIPSE
  5
229
330
1DE
100
AcDbEntity
  8
DN20
  6
Continuous
 62
     7
100
AcDbEllipse
 10
133.7332127719
 20
207.7436223274
 30
0.0
 11
4.857073617788481E-15
 21
-16.99935269147147
 31
0.0
210
0.0
220
0.0
230
1.0
 40
0.8660254038
 41
-1.368256044710606
 42
-0.0000000000000022
  0
LINE
  5
22A
330
1DE
100
AcDbEntity
  8
DN20
  6
Continuous
 62
     7
100
AcDbLine
 10
119.3122750911
 20
204.3240608834
 30
0.0
 11
119.2969380963
 21
204.2008555528
 31
0.0
  0
LINE
  5
22B
330
1DE
100
AcDbEntity
  8
DN20
  6
Continuous
 62
     7
100
AcDbLine
 10
129.3519627099
 20
220.5336223274
 30
0.0
 11
132.1952888733
 21
220.5336223274
 31
0.0
  0
ARC
  5
22C
330
1DE
100
AcDbEntity
  8
DN20
  6
Continuous
 62
     7
100
AcDbCircle
 10
54.7749235883
 20
249.8283918882
 30
0.0
 40
80.12439258910842
100
AcDbArc
 50
336.7718158044
 51
338.5544952858
  0
ARC
  5
22D
330
1DE
100
AcDbEntity
  8
DN20
  6
Continuous
 62
     7
100
AcDbCircle
 10
54.7749235883
 20
249.8283918882
 30
0.0
 40
80.12439258910842
100
AcDbArc
 50
328.31540236
 51
334.2925466209
  0
LINE
  5
22E
330
1DE
100
AcDbEntity
  8
DN20
  6
Continuous
 62
     7
100
AcDbLine
 10
122.9569627099
 20
207.7436223274
 30
0.0
 11
126.2561256667
 21
207.7436223274
 31
0.0
  0
ARC
  5
22F
330
1DE
100
AcDbEntity
  8
DN20
  6
Continuous
 62
     7
100
AcDbCircle
 10
54.7749235883
 20
165.6588527666
 30
0.0
 40
80.12439258910835
100
AcDbArc
 50
25.7558158902
 51
31.68459764
  0
ARC
  5
230
330
1DE
100
AcDbEntity
  8
DN20
  6
Continuous
 62
     7
100
AcDbCircle
 10
54.7749235883
 20
165.6588527666
 30
0.0
 40
80.12439258910835
100
AcDbArc
 50
21.4455047142
 51
23.2295743867
  0
LINE
  5
231
330
1DE
100
AcDbEntity
  8
DN20
  6
Continuous
 62
     7
100
AcDbLine
 10
129.3519627099
 20
194.9536223274
 30
0.0
 11
132.2036419203
 21
194.9536223274
 31
0.0
  0
LINE
  5
232
330
1DE
100
AcDbEntity
  8
DN20
  6
Continuous
 62
     7
100
AcDbLine
 10
126.2672219537
 20
207.7658149014
 30
0.0
 11
126.2561256667
 21
207.7436223274
 31
0.0
  0
LINE
  5
233
330
1DE
100
AcDbEntity
  8
DN20
  6
Continuous
 62
     7
100
AcDbLine
 10
126.2561256667
 20
207.7436223274
 30
0.0
 11
126.2672219537
 21
207.7214297533
 31
0.0
  0
ELLIPSE
  5
234
330
1DE
100
AcDbEntity
  8
DN20
  6
Continuous
 62
     7
100
AcDbEllipse
 10
162.9155899809
 20
207.7436223274
 30
0.0
 11
-2.124530809142325E-13
 21
-34.9999999999997
 31
0.0
210
0.0
220
0.0
230
1.0
 40
0.8660254038
 41
4.422637278948644
 42
5.002140681820745
  0
LINE
  5
235
330
1DE
100
AcDbEntity
  8
DN20
  6
Continuous
 62
     7
100
AcDbLine
 10
133.8682148843
 20
217.7436223274
 30
0.0
 11
127.5307298963
 21
217.7436223274
 31
0.0
  0
LINE
  5
236
330
1DE
100
AcDbEntity
  8
DN20
  6
Continuous
 62
     7
100
AcDbLine
 10
137.864365391
 20
189.2180693179
 30
0.0
 11
141.4621382765
 21
187.2808639639
 31
0.0
  0
ELLIPSE
  5
237
330
1DE
100
AcDbEntity
  8
DN20
  6
Continuous
 62
     7
100
AcDbEllipse
 10
107.5729941068
 20
186.6827284145
 30
0.0
 11
90.18621021465114
 21
-36.42028308230828
 31
0.0
210
0.0
220
0.0
230
1.0
 40
0.2113091309
 41
1.103268614520337
 42
1.361164123630622
  0
LINE
  5
238
330
1DE
100
AcDbEntity
  8
DN20
  6
Continuous
 62
     7
100
AcDbLine
 10
133.8682148843
 20
197.7436223274
 30
0.0
 11
127.5307298963
 21
197.7436223274
 31
0.0
  0
ELLIPSE
  5
239
330
1DE
100
AcDbEntity
  8
DN20
  6
Continuous
 62
     7
100
AcDbEllipse
 10
101.8914867666
 20
201.7813182927
 30
0.0
 11
38.1516619784406
 21
-90.77750145272203
 31
0.0
210
0.0
220
0.0
230
1.0
 40
0.4698463104
 41
1.093548780608304
 42
1.21848027279077
  0
LINE
  5
23A
330
1DE
100
AcDbEntity
  8
DN20
  6
Continuous
 62
     7
100
AcDbLine
 10
155.0882280646
 20
187.2808639639
 30
0.0
 11
141.4621382765
 21
187.2808639639
 31
0.0
  0
LINE
  5
23B
330
1DE
100
AcDbEntity
  8
DN20
  6
Continuous
 62
     7
100
AcDbLine
 10
141.4621382765
 20
187.2808639639
 30
0.0
 11
141.777446062
 21
186.2805457088
 31
0.0
  0
ELLIPSE
  5
23C
330
1DE
100
AcDbEntity
  8
DN20
  6
Continuous
 62
     7
100
AcDbEllipse
 10
163.3638057913
 20
207.7436223274
 30
0.0
 11
3.370470094847766E-13
 21
32.50000000000576
 31
0.0
210
0.0
220
0.0
230
1.0
 40
0.8660254038
 41
2.924506981298455
 42
3.358678325881149
  0
LINE
  5
23D
330
1DE
100
AcDbEntity
  8
DN20
  6
Continuous
 62
     7
100
AcDbLine
 10
157.3016279649
 20
176.0064201823
 30
0.0
 11
150.3719984878
 21
176.0064201823
 31
0.0
  0
ELLIPSE
  5
23E
330
1DE
100
AcDbEntity
  8
DN20
  6
Continuous
 62
     7
100
AcDbEllipse
 10
130.2647232186
 20
201.7813182928
 30
0.0
 11
38.15166197839036
 21
90.77750145298813
 31
0.0
210
0.0
220
0.0
230
1.0
 40
0.4698463104
 41
4.625055997819393
 42
4.739031809282222
  0
ELLIPSE
  5
23F
330
1DE
100
AcDbEntity
  8
DN20
  6
Continuous
 62
     7
100
AcDbEllipse
 10
121.2416117516
 20
191.3623266239
 30
0.0
 11
93.913820525049
 21
29.60233768076029
 31
0.0
210
0.0
220
0.0
230
1.0
 40
0.1710100717
 41
-0.9053904908264698
 42
-0.7914146793635624
  0
ELLIPSE
  5
240
330
1DE
100
AcDbEntity
  8
DN20
  6
Continuous
 62
     7
100
AcDbEllipse
 10
163.3638057913
 20
207.7436223274
 30
0.0
 11
-1.425432042107660E-12
 21
32.5000000000036
 31
0.0
210
0.0
220
0.0
230
1.0
 40
0.8660254038
 41
4.495303308093311
 42
4.929474652675986
  0
ELLIPSE
  5
241
330
1DE
100
AcDbEntity
  8
DN20
  6
Continuous
 62
     7
100
AcDbEllipse
 10
121.2416117514
 20
224.1249180309
 30
0.0
 11
93.91382052525188
 21
-29.60233768079998
 31
0.0
210
0.0
220
0.0
230
1.0
 40
0.1710100717
 41
0.7914146793627195
 42
0.9053904908254776
  0
ELLIPSE
  5
242
330
1DE
100
AcDbEntity
  8
DN20
  6
Continuous
 62
     7
100
AcDbEllipse
 10
130.2647232186
 20
213.705926362
 30
0.0
 11
-38.15166197842865
 21
90.77750145294328
 31
0.0
210
0.0
220
0.0
230
1.0
 40
0.4698463104
 41
4.685746151486414
 42
4.799721962949273
  0
ELLIPSE
  5
243
330
1DE
100
AcDbEntity
  8
DN20
  6
Continuous
 62
     7
100
AcDbEllipse
 10
163.3638057913
 20
207.7436223274
 30
0.0
 11
-3.980102097229794E-15
 21
-32.50000000000733
 31
0.0
210
0.0
220
0.0
230
1.0
 40
0.8660254038
 41
2.924506981298456
 42
3.35867832588113
  0
LINE
  5
244
330
1DE
100
AcDbEntity
  8
DN20
  6
Continuous
 62
     7
100
AcDbLine
 10
141.777446062
 20
229.206698946
 30
0.0
 11
141.4621382765
 21
228.2063806909
 31
0.0
  0
ELLIPSE
  5
245
330
1DE
100
AcDbEntity
  8
DN20
  6
Continuous
 62
     7
100
AcDbEllipse
 10
101.8914867664
 20
213.705926362
 30
0.0
 11
38.15166197860339
 21
90.77750145289136
 31
0.0
210
0.0
220
0.0
230
1.0
 40
0.4698463104
 41
-1.218480272789479
 42
-1.093548780607257
  0
LINE
  5
246
330
1DE
100
AcDbEntity
  8
DN20
  6
Continuous
 62
     7
100
AcDbLine
 10
157.3016279649
 20
239.4808244725
 30
0.0
 11
150.3719984878
 21
239.4808244725
 31
0.0
  0
ELLIPSE
  5
247
330
1DE
100
AcDbEntity
  8
DN20
  6
Continuous
 62
     7
100
AcDbEllipse
 10
107.5729941067
 20
228.8045162403
 30
0.0
 11
90.18621021477567
 21
36.42028308234136
 31
0.0
210
0.0
220
0.0
230
1.0
 40
0.2113091309
 41
-1.361164123630071
 42
-1.103268614520095
  0
LINE
  5
248
330
1DE
100
AcDbEntity
  8
DN20
  6
Continuous
 62
     7
100
AcDbLine
 10
155.0882280646
 20
228.2063806909
 30
0.0
 11
141.4621382765
 21
228.2063806909
 31
0.0
  0
LINE
  5
249
330
1DE
100
AcDbEntity
  8
DN20
  6
Continuous
 62
     7
100
AcDbLine
 10
141.4621382765
 20
228.2063806909
 30
0.0
 11
137.864365391
 21
226.2691753369
 31
0.0
  0
ELLIPSE
  5
24A
330
1DE
100
AcDbEntity
  8
DN20
  6
Continuous
 62
     7
100
AcDbEllipse
 10
164.616749391
 20
207.7436223274
 30
0.0
 11
9.962615698446872E-13
 21
-24.00000000000048
 31
0.0
210
0.0
220
0.0
230
1.0
 40
0.8660254038
 41
0.4639434246049445
 42
1.106852902189869
  0
ELLIPSE
  5
24B
330
1DE
100
AcDbEntity
  8
DN20
  6
Continuous
 62
     7
100
AcDbEllipse
 10
164.616749391
 20
207.7436223274
 30
0.0
 11
3.069472793358254E-14
 21
23.99999999999986
 31
0.0
210
0.0
220
0.0
230
1.0
 40
0.8660254038
 41
5.176332404989669
 42
5.819241882574605
  0
SPLINE
  5
24C
330
1DE
100
AcDbEntity
  8
DN20
  6
Continuous
 62
     7
100
AcDbSpline
210
0.0
220
0.0
230
1.0
 70
     8
 71
     3
 72
    18
 73
    14
 74
     0
 42
0.000000001
 43
0.0000000001
 40
0.0
 40
0.0
 40
0.0
 40
0.0
 40
0.0625000000000002
 40
0.0625000000000002
 40
0.1250000000000005
 40
0.1250000000000005
 40
0.2500000000000011
 40
0.2500000000000011
 40
0.5000000000000007
 40
0.5000000000000007
 40
0.7500000000000003
 40
0.7500000000000003
 40
1.0
 40
1.0
 40
1.0
 40
1.0
 10
137.8643653909546
 20
189.2180693178548
 30
0.0
 10
138.1226604051434
 20
189.2180693178548
 30
0.0
 10
138.2527916041749
 20
189.282366172054
 30
0.0
 10
138.3440256596846
 20
189.4772195011488
 30
0.0
 10
138.3121502672225
 20
189.6062601550213
 30
0.0
 10
138.1116497445881
 20
190.0254710467973
 30
0.0
 10
137.8460941156333
 20
190.3467040038854
 30
0.0
 10
136.9057926835246
 20
191.3558809418192
 30
0.0
 10
136.076679120576
 20
192.0869781792679
 30
0.0
 10
134.1709067467798
 20
193.5982250363244
 30
0.0
 10
133.0704882237235
 20
194.3919396255952
 30
0.0
 10
130.5351567440975
 20
196.0431393823428
 30
0.0
 10
129.1284266589181
 20
196.8833493694159
 30
0.0
 10
127.530729896349
 20
197.7436223273912
 30
0.0
  0
ELLIPSE
  5
24D
330
1DE
100
AcDbEntity
  8
DN20
  6
Continuous
 62
     7
100
AcDbEllipse
 10
156.5781049929
 20
207.7436223274
 30
0.0
 11
2.246972350319229E-13
 21
-34.99999999999889
 31
0.0
210
0.0
220
0.0
230
1.0
 40
0.8660254038
 41
4.422637278948628
 42
5.002140681820743
  0
SPLINE
  5
24E
330
1DE
100
AcDbEntity
  8
DN20
  6
Continuous
 62
     7
100
AcDbSpline
210
0.0
220
0.0
230
1.0
 70
     8
 71
     3
 72
    18
 73
    14
 74
     0
 42
0.000000001
 43
0.0000000001
 40
0.0
 40
0.0
 40
0.0
 40
0.0
 40
0.2500000000000004
 40
0.2500000000000004
 40
0.5000000000000008
 40
0.5000000000000008
 40
0.7500000000000011
 40
0.7500000000000011
 40
0.8750000000000013
 40
0.8750000000000013
 40
0.9375000000000007
 40
0.9375000000000007
 40
1.0
 40
1.0
 40
1.0
 40
1.0
 10
127.530729896349
 20
217.7436223273913
 30
0.0
 10
129.1308372641899
 20
218.605193265419
 30
0.0
 10
130.5352428935486
 20
219.4443122367835
 30
0.0
 10
133.0630529464379
 20
221.0903121945333
 30
0.0
 10
134.1733665588397
 20
221.8908270324044
 30
0.0
 10
136.0793044967923
 20
223.4024919165993
 30
0.0
 10
136.9002488924521
 20
224.1257747412722
 30
0.0
 10
137.8460125734311
 20
225.1402735053195
 30
0.0
 10
138.1152790585087
 20
225.4669681371428
 30
0.0
 10
138.3130680152839
 20
225.8841250249482
 30
0.0
 10
138.3440184963383
 20
226.0101149327882
 30
0.0
 10
138.2527486645843
 20
226.2048956701198
 30
0.0
 10
138.1233410983134
 20
226.2691753369278
 30
0.0
 10
137.8643653909548
 20
226.2691753369278
 30
0.0
  0
ELLIPSE
  5
24F
330
1DE
100
AcDbEntity
  8
DN20
  6
Continuous
 62
     7
100
AcDbEllipse
 10
151.0781049929
 20
207.7436223274
 30
0.0
 11
1.681694012576810E-14
 21
23.99999999999999
 31
0.0
210
0.0
220
0.0
230
1.0
 40
0.8660254038
 41
0.6889750287622238
 42
0.9260403346120123
  0
ELLIPSE
  5
250
330
1DE
100
AcDbEntity
  8
DN20
  6
Continuous
 62
     7
100
AcDbEllipse
 10
151.0781049929
 20
207.7436223274
 30
0.0
 11
1.681694012576810E-14
 21
23.99999999999999
 31
0.0
210
0.0
220
0.0
230
1.0
 40
0.8660254038
 41
2.214569814873771
 42
2.452617624827563
  0
SPLINE
  5
251
330
1DE
100
AcDbEntity
  8
DN20
  6
Continuous
 62
     7
100
AcDbSpline
210
0.0
220
0.0
230
1.0
 70
     8
 71
     3
 72
    14
 73
    10
 74
     0
 42
0.000000001
 43
0.0000000001
 40
0.0
 40
0.0
 40
0.0
 40
0.0
 40
0.25
 40
0.25
 40
0.5
 40
0.5
 40
0.75
 40
0.75
 40
1.0
 40
1.0
 40
1.0
 40
1.0
 10
150.3719984878207
 20
176.0064201822745
 30
0.0
 10
149.8361035851462
 20
177.2823272193295
 30
0.0
 10
149.234695698095
 20
178.4957755792241
 30
0.0
 10
147.9085579580955
 20
180.8050997761308
 30
0.0
 10
147.1789632073079
 20
181.9030546233676
 30
0.0
 10
145.6742897532586
 20
183.8162827881717
 30
0.0
 10
144.869931120346
 20
184.669913875141
 30
0.0
 10
143.2732204996026
 20
185.9048184995053
 30
0.0
 10
142.4746745920734
 20
186.280545708808
 30
0.0
 10
141.7774460620213
 20
186.280545708808
 30
0.0
  0
ELLIPSE
  5
252
330
1DE
100
AcDbEntity
  8
DN20
  6
Continuous
 62
     7
100
AcDbEllipse
 10
151.0781049929
 20
207.7436223274
 30
0.0
 11
2.939152317953642E-15
 21
23.99999999999996
 31
0.0
210
0.0
220
0.0
230
1.0
 40
0.8660254038
 41
2.677649228984811
 42
2.811035153727186
  0
ELLIPSE
  5
253
330
1DE
100
AcDbEntity
  8
DN20
  6
Continuous
 62
     7
100
AcDbEllipse
 10
156.4341763143
 20
207.7436223274
 30
0.0
 11
3.023525399652379E-13
 21
32.49999999998544
 31
0.0
210
0.0
220
0.0
230
1.0
 40
0.8660254038
 41
2.924506981298391
 42
3.141592653589793
  0
ELLIPSE
  5
254
330
1DE
100
AcDbEntity
  8
DN20
  6
Continuous
 62
     7
100
AcDbEllipse
 10
151.0781049929
 20
207.7436223274
 30
0.0
 11
-9.314477306874761E-14
 21
-24.0000000000001
 31
0.0
210
0.0
220
0.0
230
1.0
 40
0.8660254038
 41
3.472827365995551
 42
3.60553607819478
  0
SPLINE
  5
255
330
1DE
100
AcDbEntity
  8
DN20
  6
Continuous
 62
     7
100
AcDbSpline
210
0.0
220
0.0
230
1.0
 70
     8
 71
     3
 72
    14
 73
    10
 74
     0
 42
0.000000001
 43
0.0000000001
 40
0.0
 40
0.0
 40
0.0
 40
0.0
 40
0.2499999999999999
 40
0.2499999999999999
 40
0.4999999999999998
 40
0.4999999999999998
 40
0.7499999999999997
 40
0.7499999999999997
 40
1.0
 40
1.0
 40
1.0
 40
1.0
 10
141.7774460620213
 20
229.2066989459744
 30
0.0
 10
142.4725537491742
 20
229.2066989459744
 30
0.0
 10
143.2619795862268
 20
229.5762374641492
 30
0.0
 10
144.8555242730403
 20
230.8037233349716
 30
0.0
 10
145.6594817701458
 20
231.6539364887653
 30
0.0
 10
147.1699681790568
 20
233.5709775095099
 30
0.0
 10
147.8985014695732
 20
234.6662405107504
 30
0.0
 10
149.2261404612867
 20
236.9749855462865
 30
0.0
 10
149.8371990038093
 20
238.2075255072478
 30
0.0
 10
150.3719984878207
 20
239.4808244725079
 30
0.0
  0
ELLIPSE
  5
256
330
1DE
100
AcDbEntity
  8
DN20
  6
Continuous
 62
     7
100
AcDbEllipse
 10
156.4341763143
 20
207.7436223274
 30
0.0
 11
2.527589723473392E-13
 21
-32.49999999999477
 31
0.0
210
0.0
220
0.0
230
1.0
 40
0.8660254038
 41
3.141592653589793
 42
3.358678325881162
  0
LINE
  5
257
330
1DE
100
AcDbEntity
  8
DN20
  6
Continuous
 62
     7
100
AcDbLine
 10
76.120742011
 20
188.9797385787
 30
0.0
 11
77.3996911022
 21
192.4936223274
 31
0.0
  0
LINE
  5
258
330
1DE
100
AcDbEntity
  8
DN20
  6
Continuous
 62
     7
100
AcDbLine
 10
77.3996911022
 20
222.9936223274
 30
0.0
 11
76.120742011
 21
226.5075060761
 31
0.0
  0
LINE
  5
259
330
1DE
100
AcDbEntity
  8
DN20
  6
Continuous
 62
     7
100
AcDbLine
 10
133.5676497809
 20
224.7429750189
 30
0.0
 11
132.203704845
 21
224.7429750189
 31
0.0
  0
LINE
  5
25A
330
1DE
100
AcDbEntity
  8
DN20
  6
Continuous
 62
     7
100
AcDbLine
 10
132.203704845
 20
190.7442696359
 30
0.0
 11
133.5676497809
 21
190.7442696359
 31
0.0
  0
LINE
  5
25B
330
1DE
100
AcDbEntity
  8
DN20
  6
Continuous
 62
     7
100
AcDbLine
 10
77.3996911022
 20
192.4936223274
 30
0.0
 11
87.2028803967
 21
192.4936223274
 31
0.0
  0
LINE
  5
25C
330
1DE
100
AcDbEntity
  8
DN20
  6
Continuous
 62
     7
100
AcDbLine
 10
87.2028803967
 20
222.9936223274
 30
0.0
 11
77.3996911022
 21
222.9936223274
 31
0.0
  0
LINE
  5
25D
330
1DE
100
AcDbEntity
  8
DN20
  6
Continuous
 62
     7
100
AcDbLine
 10
87.2028803967
 20
192.4936223274
 30
0.0
 11
92.3496970059
 21
194.8936223274
 31
0.0
  0
LINE
  5
25E
330
1DE
100
AcDbEntity
  8
DN20
  6
Continuous
 62
     7
100
AcDbLine
 10
92.3496970059
 20
220.5936223274
 30
0.0
 11
87.2028803967
 21
222.9936223274
 31
0.0
  0
LINE
  5
25F
330
1DE
100
AcDbEntity
  8
DN20
  6
Continuous
 62
     7
100
AcDbLine
 10
92.3496970059
 20
194.8936223274
 30
0.0
 11
112.3414158885
 21
194.8936223274
 31
0.0
  0
LINE
  5
260
330
1DE
100
AcDbEntity
  8
DN20
  6
Continuous
 62
     7
100
AcDbLine
 10
112.3414158885
 20
220.5936223274
 30
0.0
 11
92.3496970059
 21
220.5936223274
 31
0.0
  0
LINE
  5
261
330
1DE
100
AcDbEntity
  8
DN20
  6
Continuous
 62
     7
100
AcDbLine
 10
117.153704845
 20
193.7436223274
 30
0.0
 11
123.0900153184
 21
193.7436223274
 31
0.0
  0
LINE
  5
262
330
1DE
100
AcDbEntity
  8
DN20
  6
Continuous
 62
     7
100
AcDbLine
 10
123.0900153184
 20
221.7436223274
 30
0.0
 11
117.153704845
 21
221.7436223274
 31
0.0
  0
LINE
  5
263
330
1DE
100
AcDbEntity
  8
DN20
  6
Continuous
 62
     7
100
AcDbLine
 10
69.4998443707
 20
226.5075060761
 30
0.0
 11
68.4028803967
 21
223.4936223274
 31
0.0
  0
LINE
  5
264
330
1DE
100
AcDbEntity
  8
DN20
  6
Continuous
 62
     7
100
AcDbLine
 10
68.4028803967
 20
191.9936223274
 30
0.0
 11
69.4998443707
 21
188.9797385787
 31
0.0
  0
LINE
  5
265
330
1DE
100
AcDbEntity
  8
DN20
  6
Continuous
 62
     7
100
AcDbLine
 10
112.578197944
 20
216.7436223274
 30
0.0
 11
106.828197944
 21
216.7436223274
 31
0.0
  0
LINE
  5
266
330
1DE
100
AcDbEntity
  8
DN20
  6
Continuous
 62
     7
100
AcDbLine
 10
106.828197944
 20
198.7436223274
 30
0.0
 11
112.578197944
 21
198.7436223274
 31
0.0
  0
LINE
  5
267
330
1DE
100
AcDbEntity
  8
DN20
  6
Continuous
 62
     7
100
AcDbLine
 10
90.9275628494
 20
216.7436223274
 30
0.0
 11
85.1775628494
 21
216.7436223274
 31
0.0
  0
LINE
  5
268
330
1DE
100
AcDbEntity
  8
DN20
  6
Continuous
 62
     7
100
AcDbLine
 10
85.1775628494
 20
198.7436223274
 30
0.0
 11
90.9275628494
 21
198.7436223274
 31
0.0
  0
LINE
  5
269
330
1DE
100
AcDbEntity
  8
DN20
  6
Continuous
 62
     7
100
AcDbLine
 10
133.9531049929
 20
224.7429750189
 30
0.0
 11
133.7332127719
 21
224.7429750189
 31
0.0
  0
LINE
  5
26A
330
1DE
100
AcDbEntity
  8
DN20
  6
Continuous
 62
     7
100
AcDbLine
 10
133.7332127719
 20
190.7442696359
 30
0.0
 11
133.9531049929
 21
190.7442696359
 31
0.0
  0
LINE
  5
26B
330
1DE
100
AcDbEntity
  8
DN20
  6
Continuous
 62
     7
100
AcDbLine
 10
100.6188090855
 20
201.7761223274
 30
0.0
 11
106.828197944
 21
201.7761223274
 31
0.0
  0
LINE
  5
26C
330
1DE
100
AcDbEntity
  8
DN20
  6
Continuous
 62
     7
100
AcDbLine
 10
106.828197944
 20
213.7111223274
 30
0.0
 11
100.6188090855
 21
213.7111223274
 31
0.0
  0
LINE
  5
26D
330
1DE
100
AcDbEntity
  8
DN20
  6
Continuous
 62
     7
100
AcDbLine
 10
97.053197944
 20
214.9936223274
 30
0.0
 11
92.553197944
 21
214.9936223274
 31
0.0
  0
LINE
  5
26E
330
1DE
100
AcDbEntity
  8
DN20
  6
Continuous
 62
     7
100
AcDbLine
 10
92.553197944
 20
200.4936223274
 30
0.0
 11
97.053197944
 21
200.4936223274
 31
0.0
  0
LINE
  5
26F
330
1DE
100
AcDbEntity
  8
DN20
  6
Continuous
 62
     7
100
AcDbLine
 10
78.9681739909
 20
201.7761223274
 30
0.0
 11
85.1775628494
 21
201.7761223274
 31
0.0
  0
LINE
  5
270
330
1DE
100
AcDbEntity
  8
DN20
  6
Continuous
 62
     7
100
AcDbLine
 10
85.1775628494
 20
213.7111223274
 30
0.0
 11
78.9681739909
 21
213.7111223274
 31
0.0
  0
LINE
  5
271
330
1DE
100
AcDbEntity
  8
DN20
  6
Continuous
 62
     7
100
AcDbLine
 10
75.4025628494
 20
214.9936223274
 30
0.0
 11
70.9025628494
 21
214.9936223274
 31
0.0
  0
LINE
  5
272
330
1DE
100
AcDbEntity
  8
DN20
  6
Continuous
 62
     7
100
AcDbLine
 10
70.9025628494
 20
200.4936223274
 30
0.0
 11
75.4025628494
 21
200.4936223274
 31
0.0
  0
LINE
  5
273
330
1DE
100
AcDbEntity
  8
DN20
  6
Continuous
 62
     7
100
AcDbLine
 10
134.1755814083
 20
190.7500492098
 30
0.0
 11
135.5682838121
 21
190.7743598466
 31
0.0
  0
LINE
  5
274
330
1DE
100
AcDbEntity
  8
DN20
  6
Continuous
 62
     7
100
AcDbLine
 10
135.5682838121
 20
224.7128848082
 30
0.0
 11
134.1755814083
 21
224.737195445
 31
0.0
  0
LINE
  5
275
330
1DE
100
AcDbEntity
  8
DN20
  6
Continuous
 62
     7
100
AcDbLine
 10
156.4341763143
 20
175.2436223274
 30
0.0
 11
163.3638057913
 21
175.2436223274
 31
0.0
  0
LINE
  5
276
330
1DE
100
AcDbEntity
  8
DN20
  6
Continuous
 62
     7
100
AcDbLine
 10
163.3638057913
 20
240.2436223274
 30
0.0
 11
156.4341763143
 21
240.2436223274
 31
0.0
  0
ENDBLK
  5
278
330
1DE
100
AcDbEntity
  8
0
100
AcDbBlockEnd
  0
BLOCK
  5
305
330
279
100
AcDbEntity
  8
0
100
AcDbBlockBegin
  2
SE3
 70
     0
 10
0.0
 20
0.0
 30
0.0
  3
SE3
  1

  0
ELLIPSE
  5
27B
330
279
100
AcDbEntity
  8
DN20
  6
Continuous
 62
     7
100
AcDbEllipse
 10
260.8243553993
 20
207.7436223274
 30
0.0
 11
-4.387932051314130E-15
 21
-15.00000000000001
 31
0.0
210
0.0
220
0.0
230
1.0
 40
0.5
 41
2.386117103663397
 42
3.481429563043547
  0
ELLIPSE
  5
27C
330
279
100
AcDbEntity
  8
DN20
  6
Continuous
 62
     7
100
AcDbEllipse
 10
259.3243553993
 20
207.7436223274
 30
0.0
 11
-1.126559361526399E-14
 21
-13.99999999999998
 31
0.0
210
0.0
220
0.0
230
1.0
 40
0.5
 41
2.631784042776323
 42
3.141592653589793
  0
ELLIPSE
  5
27D
330
279
100
AcDbEntity
  8
DN20
  6
Continuous
 62
     7
100
AcDbEllipse
 10
266.800491271
 20
207.7436223274
 30
0.0
 11
2.550961852593098E-15
 21
-15.00000000000001
 31
0.0
210
0.0
220
0.0
230
1.0
 40
0.5
 41
2.199714948847112
 42
3.141592653589793
  0
ELLIPSE
  5
27E
330
279
100
AcDbEntity
  8
DN20
  6
Continuous
 62
     7
100
AcDbEllipse
 10
268.531981493
 20
207.7436223274
 30
0.0
 11
-7.979804046966604E-15
 21
-16.99935269147148
 31
0.0
210
0.0
220
0.0
230
1.0
 40
0.5
 41
2.128727129310764
 42
3.631478578022298
  0
ELLIPSE
  5
27F
330
279
100
AcDbEntity
  8
DN20
  6
Continuous
 62
     7
100
AcDbEllipse
 10
259.3243553993
 20
207.7436223274
 30
0.0
 11
-9.551088096457695E-15
 21
13.99999999999998
 31
0.0
210
0.0
220
0.0
230
1.0
 40
0.5
 41
3.141592653589792
 42
3.651401264403258
  0
ELLIPSE
  5
280
330
279
100
AcDbEntity
  8
DN20
  6
Continuous
 62
     7
100
AcDbEllipse
 10
260.8243553993
 20
207.7436223274
 30
0.0
 11
-6.020408804546712E-15
 21
15.00000000000001
 31
0.0
210
0.0
220
0.0
230
1.0
 40
0.5
 41
2.801755744136044
 42
3.89706820351619
  0
ARC
  5
281
330
279
100
AcDbEntity
  8
DN20
  6
Continuous
 62
     7
100
AcDbCircle
 10
260.3509529076
 20
209.3841442841
 30
0.0
 40
10.84570182593127
100
AcDbArc
 50
58.8166868585
 51
77.2724479619
  0
ARC
  5
282
330
279
100
AcDbEntity
  8
DN20
  6
Continuous
 62
     7
100
AcDbCircle
 10
260.3537314259
 20
206.0962078655
 30
0.0
 40
10.83836659398337
100
AcDbArc
 50
282.7212521352
 51
301.1896130444
  0
ELLIPSE
  5
283
330
279
100
AcDbEntity
  8
DN20
  6
Continuous
 62
     7
100
AcDbEllipse
 10
257.2722232575
 20
207.7436223274
 30
0.0
 11
-8.774707165736605E-16
 21
13.99999999999999
 31
0.0
210
0.0
220
0.0
230
1.0
 40
0.5
 41
5.410611453747247
 42
5.773376696366116
  0
LINE
  5
284
330
279
100
AcDbEntity
  8
DN20
  6
Continuous
 62
     7
100
AcDbLine
 10
262.7404268279
 20
195.5238913983
 30
0.0
 11
260.6882946861
 21
195.5238913983
 31
0.0
  0
LINE
  5
285
330
279
100
AcDbEntity
  8
DN20
  6
Continuous
 62
     7
100
AcDbLine
 10
268.4766629887
 20
196.8244387493
 30
0.0
 11
265.966617304
 21
196.8244387493
 31
0.0
  0
LINE
  5
286
330
279
100
AcDbEntity
  8
DN20
  6
Continuous
 62
     7
100
AcDbLine
 10
260.6882946861
 20
219.9633532565
 30
0.0
 11
262.7404268279
 21
219.9633532565
 31
0.0
  0
LINE
  5
287
330
279
100
AcDbEntity
  8
DN20
  6
Continuous
 62
     7
100
AcDbLine
 10
265.966617304
 20
218.6628059054
 30
0.0
 11
268.4766629887
 21
218.6628059054
 31
0.0
  0
ELLIPSE
  5
288
330
279
100
AcDbEntity
  8
DN20
  6
Continuous
 62
     7
100
AcDbEllipse
 10
265.434401084
 20
207.7436223274
 30
0.0
 11
-4.101601445799935E-13
 21
-12.49999999999917
 31
0.0
210
0.0
220
0.0
230
1.0
 40
0.5
 41
0.5083790200146492
 42
0.7669940078619055
  0
ELLIPSE
  5
289
330
279
100
AcDbEntity
  8
DN20
  6
Continuous
 62
     7
100
AcDbEllipse
 10
259.3722232575
 20
207.7436223274
 30
0.0
 11
2.005127746225458E-14
 21
-12.50000000000005
 31
0.0
210
0.0
220
0.0
230
1.0
 40
0.5
 41
0.2121594577287205
 42
0.7669940078618599
  0
ELLIPSE
  5
28A
330
279
100
AcDbEntity
  8
DN20
  6
Continuous
 62
     7
100
AcDbEllipse
 10
265.434401084
 20
207.7436223274
 30
0.0
 11
4.309768262917153E-13
 21
12.50000000000094
 31
0.0
210
0.0
220
0.0
230
1.0
 40
0.5
 41
-0.7669940078618227
 42
-0.5083790200145852
  0
ELLIPSE
  5
28B
330
279
100
AcDbEntity
  8
DN20
  6
Continuous
 62
     7
100
AcDbEllipse
 10
259.3722232575
 20
207.7436223274
 30
0.0
 11
-1.311238355834736E-14
 21
12.49999999999998
 31
0.0
210
0.0
220
0.0
230
1.0
 40
0.5
 41
5.516191299317717
 42
6.071025849450846
  0
ELLIPSE
  5
28C
330
279
100
AcDbEntity
  8
DN20
  6
Continuous
 62
     7
100
AcDbEllipse
 10
257.2722232575
 20
207.7436223274
 30
0.0
 11
-6.330729789456819E-14
 21
-13.99999999999984
 31
0.0
210
0.0
220
0.0
230
1.0
 40
0.5
 41
0.5098086108134705
 42
0.8725738534323427
  0
ELLIPSE
  5
28D
330
279
100
AcDbEntity
  8
DN20
  6
Continuous
 62
     7
100
AcDbEllipse
 10
268.531981493
 20
207.7436223274
 30
0.0
 11
4.510357095012988E-15
 21
16.99935269147146
 31
0.0
210
0.0
220
0.0
230
1.0
 40
0.5
 41
2.651706729157294
 42
4.15445817786882
  0
ELLIPSE
  5
28E
330
279
100
AcDbEntity
  8
DN20
  6
Continuous
 62
     7
100
AcDbEllipse
 10
266.800491271
 20
207.7436223274
 30
0.0
 11
-2.550961852593099E-15
 21
15.00000000000001
 31
0.0
210
0.0
220
0.0
230
1.0
 40
0.5
 41
3.141592653589793
 42
4.083470358332469
  0
ELLIPSE
  5
28F
330
279
100
AcDbEntity
  8
DN20
  6
Continuous
 62
     7
100
AcDbEllipse
 10
274.5207458855
 20
207.7436223274
 30
0.0
 11
2.136777277133800E-14
 21
9.000000000000032
 31
0.0
210
0.0
220
0.0
230
1.0
 40
0.5
 41
2.8554009611267
 42
3.141592653589798
  0
ELLIPSE
  5
290
330
279
100
AcDbEntity
  8
DN20
  6
Continuous
 62
     7
100
AcDbEllipse
 10
262.0207458855
 20
207.7436223274
 30
0.0
 11
5.510910596163097E-16
 21
9.000000000000014
 31
0.0
210
0.0
220
0.0
230
1.0
 40
0.5
 41
2.157545487092867
 42
3.141592653589793
  0
ELLIPSE
  5
291
330
279
100
AcDbEntity
  8
DN20
  6
Continuous
 62
     7
100
AcDbEllipse
 10
262.0207458855
 20
207.7436223274
 30
0.0
 11
5.510910596163097E-16
 21
9.000000000000014
 31
0.0
210
0.0
220
0.0
230
1.0
 40
0.5
 41
0.0000000000000002
 42
0.98569656398079
  0
ELLIPSE
  5
292
330
279
100
AcDbEntity
  8
DN20
  6
Continuous
 62
     7
100
AcDbEllipse
 10
274.5207458855
 20
207.7436223274
 30
0.0
 11
-1.442887886743076E-14
 21
-8.99999999999998
 31
0.0
210
0.0
220
0.0
230
1.0
 40
0.5
 41
3.141592653589793
 42
3.427784346052901
  0
LINE
  5
293
330
279
100
AcDbEntity
  8
DN20
  6
Continuous
 62
     7
100
AcDbLine
 10
242.0301761509
 20
188.9797385787
 30
0.0
 11
225.7801761509
 21
198.3616804531
 31
0.0
  0
CIRCLE
  5
294
330
279
100
AcDbEntity
  8
DN20
  6
Continuous
 62
     7
100
AcDbCircle
 10
242.0301761509
 20
207.7436223274
 30
0.0
 40
15.75
  0
LINE
  5
295
330
279
100
AcDbEntity
  8
DN20
  6
Continuous
 62
     7
100
AcDbLine
 10
225.7801761509
 20
198.3616804531
 30
0.0
 11
225.7801761509
 21
217.1255642017
 31
0.0
  0
LINE
  5
296
330
279
100
AcDbEntity
  8
DN20
  6
Continuous
 62
     7
100
AcDbLine
 10
225.7801761509
 20
217.1255642017
 30
0.0
 11
242.0301761509
 21
226.5075060761
 31
0.0
  0
LINE
  5
297
330
279
100
AcDbEntity
  8
DN20
  6
Continuous
 62
     7
100
AcDbLine
 10
242.0301761509
 20
226.5075060761
 30
0.0
 11
258.2801761509
 21
217.1255642017
 31
0.0
  0
LINE
  5
298
330
279
100
AcDbEntity
  8
DN20
  6
Continuous
 62
     7
100
AcDbLine
 10
258.2801761509
 20
217.1255642017
 30
0.0
 11
258.2801761509
 21
198.3616804531
 31
0.0
  0
LINE
  5
299
330
279
100
AcDbEntity
  8
DN20
  6
Continuous
 62
     7
100
AcDbLine
 10
258.2801761509
 20
198.3616804531
 30
0.0
 11
242.0301761509
 21
188.9797385787
 31
0.0
  0
ELLIPSE
  5
29A
330
279
100
AcDbEntity
  8
DN20
  6
Continuous
 62
     7
100
AcDbEllipse
 10
271.562031432
 20
207.7436223274
 30
0.0
 11
1.040910143059375E-15
 21
16.99935269147148
 31
0.0
210
0.0
220
0.0
230
1.0
 40
0.5
 41
3.141592653589793
 42
4.15445817786882
  0
ELLIPSE
  5
29B
330
279
100
AcDbEntity
  8
DN20
  6
Continuous
 62
     7
100
AcDbEllipse
 10
271.562031432
 20
207.7436223274
 30
0.0
 11
1.040910143059375E-15
 21
16.99935269147148
 31
0.0
210
0.0
220
0.0
230
1.0
 40
0.5
 41
-1.01286552427903
 42
0.0000000000000002
  0
ELLIPSE
  5
29C
330
279
100
AcDbEntity
  8
DN20
  6
Continuous
 62
     7
100
AcDbEllipse
 10
284.4800380291
 20
207.7436223274
 30
0.0
 11
-5.510910596167226E-16
 21
-9.00000000000675
 31
0.0
210
0.0
220
0.0
230
1.0
 40
0.5
 41
0.0000000000000001
 42
0.735007302818125
  0
ELLIPSE
  5
29D
330
279
100
AcDbEntity
  8
DN20
  6
Continuous
 62
     7
100
AcDbEllipse
 10
284.4800380291
 20
207.7436223274
 30
0.0
 11
-5.510910596167226E-16
 21
-9.00000000000675
 31
0.0
210
0.0
220
0.0
230
1.0
 40
0.5
 41
2.406585350771664
 42
3.987495705025345
  0
ELLIPSE
  5
29E
330
279
100
AcDbEntity
  8
DN20
  6
Continuous
 62
     7
100
AcDbEllipse
 10
284.4800380291
 20
207.7436223274
 30
0.0
 11
-5.510910596167226E-16
 21
-9.00000000000675
 31
0.0
210
0.0
220
0.0
230
1.0
 40
0.5
 41
5.437282255744043
 42
6.283185307179586
  0
ELLIPSE
  5
29F
330
279
100
AcDbEntity
  8
DN20
  6
Continuous
 62
     7
100
AcDbEllipse
 10
271.9800380291
 20
207.7436223274
 30
0.0
 11
2.918355892337715E-15
 21
-8.99999999999331
 31
0.0
210
0.0
220
0.0
230
1.0
 40
0.5
 41
0.0
 42
0.8459030514342211
  0
ELLIPSE
  5
2A0
330
279
100
AcDbEntity
  8
DN20
  6
Continuous
 62
     7
100
AcDbEllipse
 10
271.9800380291
 20
207.7436223274
 30
0.0
 11
2.918355892337715E-15
 21
-8.99999999999331
 31
0.0
210
0.0
220
0.0
230
1.0
 40
0.5
 41
2.295689602155564
 42
6.283185307179585
  0
ELLIPSE
  5
2A1
330
279
100
AcDbEntity
  8
DN20
  6
Continuous
 62
     7
100
AcDbEllipse
 10
271.9800380291
 20
207.7436223274
 30
0.0
 11
3.654039886955914E-16
 21
5.967499999999994
 31
0.0
210
0.0
220
0.0
230
1.0
 40
0.5
 41
0.0
 42
3.141592653589793
  0
ELLIPSE
  5
2A2
330
279
100
AcDbEntity
  8
DN20
  6
Continuous
 62
     7
100
AcDbEllipse
 10
271.1169301824
 20
207.7436223274
 30
0.0
 11
2.532703880673467E-14
 21
16.99935269147149
 31
0.0
210
0.0
220
0.0
230
1.0
 40
0.5
 41
3.14159265358979
 42
4.154458177868821
  0
ELLIPSE
  5
2A3
330
279
100
AcDbEntity
  8
DN20
  6
Continuous
 62
     7
100
AcDbEllipse
 10
271.1169301824
 20
207.7436223274
 30
0.0
 11
2.532703880673467E-14
 21
16.99935269147149
 31
0.0
210
0.0
220
0.0
230
1.0
 40
0.5
 41
-1.012865524279025
 42
0.0000000000000031
  0
ELLIPSE
  5
2A4
330
279
100
AcDbEntity
  8
DN20
  6
Continuous
 62
     7
100
AcDbEllipse
 10
301.410834673
 20
207.7436223274
 30
0.0
 11
-4.439344646909155E-16
 21
-7.249999999999998
 31
0.0
210
0.0
220
0.0
230
1.0
 40
0.5
 41
5.576821506981286
 42
6.283185307179586
  0
ELLIPSE
  5
2A5
330
279
100
AcDbEntity
  8
DN20
  6
Continuous
 62
     7
100
AcDbEllipse
 10
301.410834673
 20
207.7436223274
 30
0.0
 11
-4.439344646909155E-16
 21
-7.249999999999998
 31
0.0
210
0.0
220
0.0
230
1.0
 40
0.5
 41
3.141592653589793
 42
3.847956453788105
  0
ELLIPSE
  5
2A6
330
279
100
AcDbEntity
  8
DN20
  6
Continuous
 62
     7
100
AcDbEllipse
 10
298.8127584617
 20
207.7436223274
 30
0.0
 11
-3.654039886955917E-16
 21
-5.967499999999998
 31
0.0
210
0.0
220
0.0
230
1.0
 40
0.5
 41
0.0000000000000001
 42
0.1627489771237312
  0
ELLIPSE
  5
2A7
330
279
100
AcDbEntity
  8
DN20
  6
Continuous
 62
     7
100
AcDbEllipse
 10
298.8127584617
 20
207.7436223274
 30
0.0
 11
-3.654039886955917E-16
 21
-5.967499999999998
 31
0.0
210
0.0
220
0.0
230
1.0
 40
0.5
 41
2.978843676466062
 42
3.157853767699514
  0
ELLIPSE
  5
2A8
330
279
100
AcDbEntity
  8
DN20
  6
Continuous
 62
     7
100
AcDbEllipse
 10
298.8127584617
 20
207.7436223274
 30
0.0
 11
-3.654039886955917E-16
 21
-5.967499999999998
 31
0.0
210
0.0
220
0.0
230
1.0
 40
0.5
 41
6.266924193069864
 42
6.283185307179586
  0
ELLIPSE
  5
2A9
330
279
100
AcDbEntity
  8
DN20
  6
Continuous
 62
     7
100
AcDbEllipse
 10
309.2050633071
 20
207.7436223274
 30
0.0
 11
4.439344646909159E-16
 21
7.250000000000003
 31
0.0
210
0.0
220
0.0
230
1.0
 40
0.5
 41
0.0
 42
6.283185307179586
  0
ELLIPSE
  5
2AA
330
279
100
AcDbEntity
  8
DN20
  6
Continuous
 62
     7
100
AcDbEllipse
 10
288.910834673
 20
207.7436223274
 30
0.0
 11
-7.382828368598145E-15
 21
-7.250000000000001
 31
0.0
210
0.0
220
0.0
230
1.0
 40
0.5
 41
3.141592653589793
 42
6.283185307179586
  0
ELLIPSE
  5
2AB
330
279
100
AcDbEntity
  8
DN20
  6
Continuous
 62
     7
100
AcDbEllipse
 10
286.3127584617
 20
207.7436223274
 30
0.0
 11
-2.510525938252074E-16
 21
-4.099999999999999
 31
0.0
210
0.0
220
0.0
230
1.0
 40
0.5
 41
3.348482429593645
 42
6.076295531175767
  0
ELLIPSE
  5
2AC
330
279
100
AcDbEntity
  8
DN20
  6
Continuous
 62
     7
100
AcDbEllipse
 10
286.3127584617
 20
207.7436223274
 30
0.0
 11
-3.654039886955915E-16
 21
-5.967499999999998
 31
0.0
210
0.0
220
0.0
230
1.0
 40
0.5
 41
0.0000000000000001
 42
0.1627489771237888
  0
ELLIPSE
  5
2AD
330
279
100
AcDbEntity
  8
DN20
  6
Continuous
 62
     7
100
AcDbEllipse
 10
286.3127584617
 20
207.7436223274
 30
0.0
 11
-3.654039886955915E-16
 21
-5.967499999999998
 31
0.0
210
0.0
220
0.0
230
1.0
 40
0.5
 41
2.978843676465974
 42
6.283185307179586
  0
ELLIPSE
  5
2AE
330
279
100
AcDbEntity
  8
DN20
  6
Continuous
 62
     7
100
AcDbEllipse
 10
296.7050633071
 20
207.7436223274
 30
0.0
 11
-1.432172227250537E-14
 21
-7.250000000000001
 31
0.0
210
0.0
220
0.0
230
1.0
 40
0.5
 41
0.0
 42
6.283185307179586
  0
ELLIPSE
  5
2AF
330
279
100
AcDbEntity
  8
DN20
  6
Continuous
 62
     7
100
AcDbEllipse
 10
273.9748140149
 20
207.7436223274
 30
0.0
 11
-2.185586808143036E-14
 21
-16.97120133629049
 31
0.0
210
0.0
220
0.0
230
1.0
 40
0.5
 41
2.129762655219774
 42
3.136554172803428
  0
ELLIPSE
  5
2B0
330
279
100
AcDbEntity
  8
DN20
  6
Continuous
 62
     7
100
AcDbEllipse
 10
273.9748140149
 20
207.7436223274
 30
0.0
 11
-2.185586808143036E-14
 21
-16.97120133629049
 31
0.0
210
0.0
220
0.0
230
1.0
 40
0.5
 41
0.0050384807860571
 42
1.011829998370019
  0
ELLIPSE
  5
2B1
330
279
100
AcDbEntity
  8
DN20
  6
Continuous
 62
     7
100
AcDbEllipse
 10
271.1169301824
 20
207.7436223274
 30
0.0
 11
3.573541929881139E-14
 21
17.0
 31
0.0
210
0.0
220
0.0
230
1.0
 40
0.5
 41
3.132866003154384
 42
4.154481940416797
  0
ELLIPSE
  5
2B2
330
279
100
AcDbEntity
  8
DN20
  6
Continuous
 62
     7
100
AcDbEllipse
 10
271.1169301824
 20
207.7436223274
 30
0.0
 11
3.573541929881139E-14
 21
17.0
 31
0.0
210
0.0
220
0.0
230
1.0
 40
0.5
 41
-1.012889286827005
 42
0.0087266504354508
  0
ELLIPSE
  5
2B3
330
279
100
AcDbEntity
  8
DN20
  6
Continuous
 62
     7
100
AcDbEllipse
 10
271.181166933
 20
207.7436223274
 30
0.0
 11
2.879648575868828E-14
 21
16.99935269147148
 31
0.0
210
0.0
220
0.0
230
1.0
 40
0.5
 41
-1.012865524279025
 42
-0.0050384807862016
  0
ELLIPSE
  5
2B4
330
279
100
AcDbEntity
  8
DN20
  6
Continuous
 62
     7
100
AcDbEllipse
 10
271.181166933
 20
207.7436223274
 30
0.0
 11
2.879648575868828E-14
 21
16.99935269147148
 31
0.0
210
0.0
220
0.0
230
1.0
 40
0.5
 41
3.146631134375994
 42
4.154458177868821
  0
LINE
  5
2B5
330
279
100
AcDbEntity
  8
DN20
  6
Continuous
 62
     7
100
AcDbLine
 10
279.5523935705
 20
220.5336223274
 30
0.0
 11
284.0755569744
 21
220.5336223274
 31
0.0
  0
LINE
  5
2B6
330
279
100
AcDbEntity
  8
DN20
  6
Continuous
 62
     7
100
AcDbLine
 10
279.5523935705
 20
194.9536223274
 30
0.0
 11
284.0755569744
 21
194.9536223274
 31
0.0
  0
LINE
  5
2B7
330
279
100
AcDbEntity
  8
DN20
  6
Continuous
 62
     7
100
AcDbLine
 10
284.0755569744
 20
220.5336223274
 30
0.0
 11
285.2034243781
 21
216.6265750324
 31
0.0
  0
LINE
  5
2B8
330
279
100
AcDbEntity
  8
DN20
  6
Continuous
 62
     7
100
AcDbLine
 10
285.2034243781
 20
198.8606696223
 30
0.0
 11
284.0755569744
 21
194.9536223274
 31
0.0
  0
ELLIPSE
  5
2B9
330
279
100
AcDbEntity
  8
DN20
  6
Continuous
 62
     7
100
AcDbEllipse
 10
321.7265269446
 20
207.7436223274
 30
0.0
 11
-1.131654343610235E-13
 21
-34.99999999999972
 31
0.0
210
0.0
220
0.0
230
1.0
 40
0.5
 41
1.281044625358849
 42
1.860548028230948
  0
LINE
  5
2BA
330
279
100
AcDbEntity
  8
DN20
  6
Continuous
 62
     7
100
AcDbLine
 10
338.4970367759
 20
217.7436223274
 30
0.0
 11
327.5201907845
 21
217.7436223274
 31
0.0
  0
LINE
  5
2BB
330
279
100
AcDbEntity
  8
DN20
  6
Continuous
 62
     7
100
AcDbLine
 10
308.8523576278
 20
189.2180693179
 30
0.0
 11
306.7751824838
 21
187.2808639639
 31
0.0
  0
ELLIPSE
  5
2BC
330
279
100
AcDbEntity
  8
DN20
  6
Continuous
 62
     7
100
AcDbEllipse
 10
245.5120513063
 20
186.6827284145
 30
0.0
 11
94.72196991243176
 21
22.08478998284313
 31
0.0
210
0.0
220
0.0
230
1.0
 40
0.3659981508
 41
-0.5526553528241891
 42
-0.2947598437138996
  0
LINE
  5
2BD
330
279
100
AcDbEntity
  8
DN20
  6
Continuous
 62
     7
100
AcDbLine
 10
338.4970367759
 20
197.7436223274
 30
0.0
 11
327.5201907845
 21
197.7436223274
 31
0.0
  0
ELLIPSE
  5
2BE
330
279
100
AcDbEntity
  8
DN20
  6
Continuous
 62
     7
100
AcDbEllipse
 10
248.7922710981
 20
201.7813182927
 30
0.0
 11
57.9513230471301
 21
79.60997574928335
 31
0.0
210
0.0
220
0.0
230
1.0
 40
0.8137976814
 41
4.964908475271589
 42
5.08983996745405
  0
LINE
  5
2BF
330
279
100
AcDbEntity
  8
DN20
  6
Continuous
 62
     7
100
AcDbLine
 10
330.3762623052
 20
187.2808639639
 30
0.0
 11
306.7751824838
 21
187.2808639639
 31
0.0
  0
LINE
  5
2C0
330
279
100
AcDbEntity
  8
DN20
  6
Continuous
 62
     7
100
AcDbLine
 10
306.7751824838
 20
187.2808639639
 30
0.0
 11
306.593139449
 21
186.2805457088
 31
0.0
  0
ELLIPSE
  5
2C1
330
279
100
AcDbEntity
  8
DN20
  6
Continuous
 62
     7
100
AcDbEllipse
 10
322.5028595011
 20
207.7436223274
 30
0.0
 11
1.586783885642926E-14
 21
32.5000000000058
 31
0.0
210
0.0
220
0.0
230
1.0
 40
0.5
 41
3.141592653589794
 42
3.358678325881137
  0
LINE
  5
2C2
330
279
100
AcDbEntity
  8
DN20
  6
Continuous
 62
     7
100
AcDbLine
 10
326.0028595011
 20
176.0064201823
 30
0.0
 11
314.0003891692
 21
176.0064201823
 31
0.0
  0
ELLIPSE
  5
2C3
330
279
100
AcDbEntity
  8
DN20
  6
Continuous
 62
     7
100
AcDbEllipse
 10
322.5028595011
 20
207.7436223274
 30
0.0
 11
-1.586783885642935E-14
 21
-32.50000000000724
 31
0.0
210
0.0
220
0.0
230
1.0
 40
0.5
 41
2.924506981298451
 42
3.141592653589794
  0
LINE
  5
2C4
330
279
100
AcDbEntity
  8
DN20
  6
Continuous
 62
     7
100
AcDbLine
 10
306.593139449
 20
229.206698946
 30
0.0
 11
306.7751824838
 21
228.2063806909
 31
0.0
  0
ELLIPSE
  5
2C5
330
279
100
AcDbEntity
  8
DN20
  6
Continuous
 62
     7
100
AcDbEllipse
 10
248.7922710978
 20
213.705926362
 30
0.0
 11
57.95132304744343
 21
-79.60997574930408
 31
0.0
210
0.0
220
0.0
230
1.0
 40
0.8137976814
 41
1.193345339723199
 42
1.318276831905421
  0
LINE
  5
2C6
330
279
100
AcDbEntity
  8
DN20
  6
Continuous
 62
     7
100
AcDbLine
 10
326.0028595011
 20
239.4808244725
 30
0.0
 11
314.0003891692
 21
239.4808244725
 31
0.0
  0
ELLIPSE
  5
2C7
330
279
100
AcDbEntity
  8
DN20
  6
Continuous
 62
     7
100
AcDbEllipse
 10
245.5120513061
 20
228.8045162403
 30
0.0
 11
94.72196991264843
 21
-22.08478998285594
 31
0.0
210
0.0
220
0.0
230
1.0
 40
0.3659981508
 41
0.2947598437134582
 42
0.5526553528234377
  0
LINE
  5
2C8
330
279
100
AcDbEntity
  8
DN20
  6
Continuous
 62
     7
100
AcDbLine
 10
330.3762623052
 20
228.2063806909
 30
0.0
 11
306.7751824838
 21
228.2063806909
 31
0.0
  0
LINE
  5
2C9
330
279
100
AcDbEntity
  8
DN20
  6
Continuous
 62
     7
100
AcDbLine
 10
306.7751824838
 20
228.2063806909
 30
0.0
 11
308.8523576278
 21
226.2691753369
 31
0.0
  0
ELLIPSE
  5
2CA
330
279
100
AcDbEntity
  8
DN20
  6
Continuous
 62
     7
100
AcDbEllipse
 10
301.2234015116
 20
207.7436223274
 30
0.0
 11
-1.468911631225022E-14
 21
-13.25000000001043
 31
0.0
210
0.0
220
0.0
230
1.0
 40
0.5
 41
2.149775551863048
 42
3.141592653589793
  0
ELLIPSE
  5
2CB
330
279
100
AcDbEntity
  8
DN20
  6
Continuous
 62
     7
100
AcDbEllipse
 10
301.2234015116
 20
207.7436223274
 30
0.0
 11
-1.468911631225022E-14
 21
-13.25000000001043
 31
0.0
210
0.0
220
0.0
230
1.0
 40
0.5
 41
0.0
 42
0.991817101726752
  0
ELLIPSE
  5
2CC
330
279
100
AcDbEntity
  8
DN20
  6
Continuous
 62
     7
100
AcDbEllipse
 10
301.2234015116
 20
207.7436223274
 30
0.0
 11
-3.900476347777817E-13
 21
-24.00000000000074
 31
0.0
210
0.0
220
0.0
230
1.0
 40
0.5
 41
5.261118040616664
 42
5.819241882574616
  0
ELLIPSE
  5
2CD
330
279
100
AcDbEntity
  8
DN20
  6
Continuous
 62
     7
100
AcDbEllipse
 10
301.2234015116
 20
207.7436223274
 30
0.0
 11
-7.485825678400267E-14
 21
24.00000000000031
 31
0.0
210
0.0
220
0.0
230
1.0
 40
0.5
 41
0.4639434246049801
 42
1.022067266562935
  0
ARC
  5
2CE
330
279
100
AcDbEntity
  8
DN20
  6
Continuous
 62
     7
100
AcDbCircle
 10
300.8285483831
 20
231.4878970111
 30
0.0
 40
43.0246423345344
100
AcDbArc
 50
280.7482098279
 51
308.3439145118
  0
ELLIPSE
  5
2CF
330
279
100
AcDbEntity
  8
DN20
  6
Continuous
 62
     7
100
AcDbEllipse
 10
310.7496809532
 20
207.7436223274
 30
0.0
 11
1.227569583718223E-13
 21
-34.99999999999888
 31
0.0
210
0.0
220
0.0
230
1.0
 40
0.5
 41
1.281044625358836
 42
1.860548028230953
  0
ARC
  5
2D0
330
279
100
AcDbEntity
  8
DN20
  6
Continuous
 62
     7
100
AcDbCircle
 10
300.8254086185
 20
183.9924727111
 30
0.0
 40
43.03198223778951
100
AcDbArc
 50
51.6584855318
 51
79.2493901286
  0
ELLIPSE
  5
2D1
330
279
100
AcDbEntity
  8
DN20
  6
Continuous
 62
     7
100
AcDbEllipse
 10
301.2234015116
 20
207.7436223274
 30
0.0
 11
2.228625787069851E-14
 21
23.99999999999999
 31
0.0
210
0.0
220
0.0
230
1.0
 40
0.5
 41
3.830567682352024
 42
5.594210278417364
  0
SPLINE
  5
2D2
330
279
100
AcDbEntity
  8
DN20
  6
Continuous
 62
     7
100
AcDbSpline
210
0.0
220
0.0
230
1.0
 70
     8
 71
     3
 72
    14
 73
    10
 74
     0
 42
0.000000001
 43
0.0000000001
 40
0.0
 40
0.0
 40
0.0
 40
0.0
 40
0.25
 40
0.25
 40
0.5
 40
0.5
 40
0.75
 40
0.75
 40
1.0
 40
1.0
 40
1.0
 40
1.0
 10
314.0003891692417
 20
176.0064201822745
 30
0.0
 10
314.00097633665
 20
177.2823272193295
 30
0.0
 10
313.8426254878461
 20
178.4957755792241
 30
0.0
 10
313.226738082222
 20
180.8050997761308
 30
0.0
 10
312.7622886708473
 20
181.9030546233676
 30
0.0
 10
311.5488340063307
 20
183.8162827881717
 30
0.0
 10
310.7770366000216
 20
184.669913875141
 30
0.0
 10
308.9103897307617
 20
185.9048184995053
 30
0.0
 10
307.8007746875252
 20
186.280545708808
 30
0.0
 10
306.5931394489884
 20
186.280545708808
 30
0.0
  0
ELLIPSE
  5
2D3
330
279
100
AcDbEntity
  8
DN20
  6
Continuous
 62
     7
100
AcDbEllipse
 10
301.2234015116
 20
207.7436223274
 30
0.0
 11
6.391962129414188E-14
 21
23.99999999999998
 31
0.0
210
0.0
220
0.0
230
1.0
 40
0.5
 41
2.677649228984811
 42
3.605536078194775
  0
SPLINE
  5
2D4
330
279
100
AcDbEntity
  8
DN20
  6
Continuous
 62
     7
100
AcDbSpline
210
0.0
220
0.0
230
1.0
 70
     8
 71
     3
 72
    12
 73
     8
 74
     0
 42
0.000000001
 43
0.0000000001
 40
0.4288338959787976
 40
0.4288338959787976
 40
0.4288338959787976
 40
0.4288338959787976
 40
0.5
 40
0.5
 40
0.75
 40
0.75
 40
1.0
 40
1.0
 40
1.0
 40
1.0
 10
301.7979438327899
 20
183.6640716299943
 30
0.0
 10
302.0899132312545
 20
183.4117244585283
 30
0.0
 10
302.3730083107289
 20
183.1476443370352
 30
0.0
 10
303.605318370687
 20
181.9162671452725
 30
0.0
 10
304.468531913722
 20
180.821004144032
 30
0.0
 10
305.9277556300344
 20
178.512259108496
 30
0.0
 10
306.537532213749
 20
177.2797191475346
 30
0.0
 10
307.0003891692417
 20
176.0064201822746
 30
0.0
  0
ELLIPSE
  5
2D5
330
279
100
AcDbEntity
  8
DN20
  6
Continuous
 62
     7
100
AcDbEllipse
 10
310.5003891692
 20
207.7436223274
 30
0.0
 11
1.586783885642801E-14
 21
32.49999999998536
 31
0.0
210
0.0
220
0.0
230
1.0
 40
0.5
 41
2.924506981298381
 42
3.358678325881205
  0
SPLINE
  5
2D6
330
279
100
AcDbEntity
  8
DN20
  6
Continuous
 62
     7
100
AcDbSpline
210
0.0
220
0.0
230
1.0
 70
     8
 71
     3
 72
    12
 73
     8
 74
     0
 42
0.000000001
 43
0.0000000001
 40
0.0
 40
0.0
 40
0.0
 40
0.0
 40
0.25
 40
0.25
 40
0.5
 40
0.5
 40
0.5735245208447767
 40
0.5735245208447767
 40
0.5735245208447767
 40
0.5735245208447767
 10
307.0003891692418
 20
239.4808244725079
 30
0.0
 10
306.5365841534712
 20
238.2049174354529
 30
0.0
 10
305.9365742208466
 20
236.9914690755583
 30
0.0
 10
304.4801615462777
 20
234.6821448786516
 30
0.0
 10
303.6160892519406
 20
233.5841900314148
 30
0.0
 10
302.3803467306871
 20
232.3462375808449
 30
0.0
 10
302.0884750954149
 20
232.073806591202
 30
0.0
 10
301.7868913125938
 20
231.8136711645429
 30
0.0
  0
ELLIPSE
  5
2D7
330
279
100
AcDbEntity
  8
DN20
  6
Continuous
 62
     7
100
AcDbEllipse
 10
301.2234015116
 20
207.7436223274
 30
0.0
 11
-2.922515177460574E-14
 21
-24.00000000000009
 31
0.0
210
0.0
220
0.0
230
1.0
 40
0.5
 41
2.677649228984811
 42
3.605536078194776
  0
SPLINE
  5
2D8
330
279
100
AcDbEntity
  8
DN20
  6
Continuous
 62
     7
100
AcDbSpline
210
0.0
220
0.0
230
1.0
 70
     8
 71
     3
 72
    14
 73
    10
 74
     0
 42
0.000000001
 43
0.0000000001
 40
0.0
 40
0.0
 40
0.0
 40
0.0
 40
0.2499999999999999
 40
0.2499999999999999
 40
0.4999999999999998
 40
0.4999999999999998
 40
0.7499999999999997
 40
0.7499999999999997
 40
1.0
 40
1.0
 40
1.0
 40
1.0
 10
306.5931394489884
 20
229.2066989459744
 30
0.0
 10
307.797101279869
 20
229.2066989459744
 30
0.0
 10
308.8954248963908
 20
229.5762374641492
 30
0.0
 10
310.7619886181598
 20
230.8037233349716
 30
0.0
 10
311.5355792887474
 20
231.6539364887653
 30
0.0
 10
312.7563267542869
 20
233.5709775095099
 30
0.0
 10
313.2208971661773
 20
234.6662405107504
 30
0.0
 10
313.8398064110448
 20
236.9749855462865
 30
0.0
 10
314.0009751364257
 20
238.2075255072478
 30
0.0
 10
314.0003891692418
 20
239.4808244725079
 30
0.0
  0
ELLIPSE
  5
2D9
330
279
100
AcDbEntity
  8
DN20
  6
Continuous
 62
     7
100
AcDbEllipse
 10
310.5003891692
 20
207.7436223274
 30
0.0
 11
1.188773675920031E-14
 21
-32.499999999995
 31
0.0
210
0.0
220
0.0
230
1.0
 40
0.5
 41
2.924506981298408
 42
3.358678325881174
  0
ELLIPSE
  5
2DA
330
279
100
AcDbEntity
  8
DN20
  6
Continuous
 62
     7
100
AcDbEllipse
 10
294.9447173342
 20
207.7436223274
 30
0.0
 11
-2.851965847088145E-14
 21
-12.47841999480205
 31
0.0
210
0.0
220
0.0
230
1.0
 40
0.5
 41
2.148390454504567
 42
3.136554172802965
  0
ELLIPSE
  5
2DB
330
279
100
AcDbEntity
  8
DN20
  6
Continuous
 62
     7
100
AcDbEllipse
 10
294.9447173342
 20
207.7436223274
 30
0.0
 11
-2.851965847088145E-14
 21
-12.47841999480205
 31
0.0
210
0.0
220
0.0
230
1.0
 40
0.5
 41
0.0050384807859247
 42
0.9932021990852337
  0
ELLIPSE
  5
2DC
330
279
100
AcDbEntity
  8
DN20
  6
Continuous
 62
     7
100
AcDbEllipse
 10
294.9447173342
 20
207.7436223274
 30
0.0
 11
2.856690412006467E-14
 21
13.25000000001043
 31
0.0
210
0.0
220
0.0
230
1.0
 40
0.5
 41
0.0
 42
0.3379092326242629
  0
ELLIPSE
  5
2DD
330
279
100
AcDbEntity
  8
DN20
  6
Continuous
 62
     7
100
AcDbEllipse
 10
294.9447173342
 20
207.7436223274
 30
0.0
 11
2.856690412006467E-14
 21
13.25000000001043
 31
0.0
210
0.0
220
0.0
230
1.0
 40
0.5
 41
2.803683420965539
 42
4.151756430419078
  0
ELLIPSE
  5
2DE
330
279
100
AcDbEntity
  8
DN20
  6
Continuous
 62
     7
100
AcDbEllipse
 10
294.9447173342
 20
207.7436223274
 30
0.0
 11
2.856690412006467E-14
 21
13.25000000001043
 31
0.0
210
0.0
220
0.0
230
1.0
 40
0.5
 41
5.273021530350303
 42
6.283185307179586
  0
LINE
  5
2DF
330
279
100
AcDbEntity
  8
DN20
  6
Continuous
 62
     7
100
AcDbLine
 10
271.1169301824
 20
224.7429750189
 30
0.0
 11
268.531981493
 21
224.7429750189
 31
0.0
  0
LINE
  5
2E0
330
279
100
AcDbEntity
  8
DN20
  6
Continuous
 62
     7
100
AcDbLine
 10
268.531981493
 20
190.7442696359
 30
0.0
 11
271.1169301824
 21
190.7442696359
 31
0.0
  0
LINE
  5
2E1
330
279
100
AcDbEntity
  8
DN20
  6
Continuous
 62
     7
100
AcDbLine
 10
258.3243553993
 20
221.8857579511
 30
0.0
 11
258.1233452725
 21
221.7436223274
 31
0.0
  0
LINE
  5
2E2
330
279
100
AcDbEntity
  8
DN20
  6
Continuous
 62
     7
100
AcDbLine
 10
258.1233452725
 20
193.7436223274
 30
0.0
 11
258.3243553993
 21
193.6014867037
 31
0.0
  0
LINE
  5
2E3
330
279
100
AcDbEntity
  8
DN20
  6
Continuous
 62
     7
100
AcDbLine
 10
266.800491271
 20
222.7436223274
 30
0.0
 11
260.8243553993
 21
222.7436223274
 31
0.0
  0
LINE
  5
2E4
330
279
100
AcDbEntity
  8
DN20
  6
Continuous
 62
     7
100
AcDbLine
 10
260.8243553993
 20
192.7436223274
 30
0.0
 11
266.800491271
 21
192.7436223274
 31
0.0
  0
LINE
  5
2E5
330
279
100
AcDbEntity
  8
DN20
  6
Continuous
 62
     7
100
AcDbLine
 10
260.5207458855
 20
216.2289037016
 30
0.0
 11
258.2801761509
 21
214.6445816485
 31
0.0
  0
LINE
  5
2E6
330
279
100
AcDbEntity
  8
DN20
  6
Continuous
 62
     7
100
AcDbLine
 10
258.2801761509
 20
200.8426630063
 30
0.0
 11
260.5207458855
 21
199.2583409532
 31
0.0
  0
LINE
  5
2E7
330
279
100
AcDbEntity
  8
DN20
  6
Continuous
 62
     7
100
AcDbLine
 10
250.2814648449
 20
193.7436223274
 30
0.0
 11
259.3243553993
 21
193.7436223274
 31
0.0
  0
LINE
  5
2E8
330
279
100
AcDbEntity
  8
DN20
  6
Continuous
 62
     7
100
AcDbLine
 10
259.3243553993
 20
221.7436223274
 30
0.0
 11
250.2814648449
 21
221.7436223274
 31
0.0
  0
LINE
  5
2E9
330
279
100
AcDbEntity
  8
DN20
  6
Continuous
 62
     7
100
AcDbLine
 10
274.5207458855
 20
198.7436223274
 30
0.0
 11
284.4800380291
 21
198.7436223274
 31
0.0
  0
LINE
  5
2EA
330
279
100
AcDbEntity
  8
DN20
  6
Continuous
 62
     7
100
AcDbLine
 10
284.4800380291
 20
216.7436223274
 30
0.0
 11
274.5207458855
 21
216.7436223274
 31
0.0
  0
LINE
  5
2EB
330
279
100
AcDbEntity
  8
DN20
  6
Continuous
 62
     7
100
AcDbLine
 10
262.0207458855
 20
198.7436223274
 30
0.0
 11
271.9800380291
 21
198.7436223274
 31
0.0
  0
LINE
  5
2EC
330
279
100
AcDbEntity
  8
DN20
  6
Continuous
 62
     7
100
AcDbLine
 10
271.9800380291
 20
216.7436223274
 30
0.0
 11
262.0207458855
 21
216.7436223274
 31
0.0
  0
LINE
  5
2ED
330
279
100
AcDbEntity
  8
DN20
  6
Continuous
 62
     7
100
AcDbLine
 10
271.562031432
 20
224.7429750189
 30
0.0
 11
271.2025797063
 21
224.7429750189
 31
0.0
  0
LINE
  5
2EE
330
279
100
AcDbEntity
  8
DN20
  6
Continuous
 62
     7
100
AcDbLine
 10
271.2025797063
 20
190.7442696359
 30
0.0
 11
271.562031432
 21
190.7442696359
 31
0.0
  0
LINE
  5
2EF
330
279
100
AcDbEntity
  8
DN20
  6
Continuous
 62
     7
100
AcDbLine
 10
298.8127584617
 20
213.7111223274
 30
0.0
 11
298.7636698595
 21
213.7111223274
 31
0.0
  0
LINE
  5
2F0
330
279
100
AcDbEntity
  8
DN20
  6
Continuous
 62
     7
100
AcDbLine
 10
286.8522281207
 20
213.7111223274
 30
0.0
 11
286.3127584617
 21
213.7111223274
 31
0.0
  0
LINE
  5
2F1
330
279
100
AcDbEntity
  8
DN20
  6
Continuous
 62
     7
100
AcDbLine
 10
286.3127584617
 20
201.7761223274
 30
0.0
 11
286.8522281207
 21
201.7761223274
 31
0.0
  0
LINE
  5
2F2
330
279
100
AcDbEntity
  8
DN20
  6
Continuous
 62
     7
100
AcDbLine
 10
298.7636698595
 20
201.7761223274
 30
0.0
 11
298.8127584617
 21
201.7761223274
 31
0.0
  0
LINE
  5
2F3
330
279
100
AcDbEntity
  8
DN20
  6
Continuous
 62
     7
100
AcDbLine
 10
301.410834673
 20
200.4936223274
 30
0.0
 11
309.2050633071
 21
200.4936223274
 31
0.0
  0
LINE
  5
2F4
330
279
100
AcDbEntity
  8
DN20
  6
Continuous
 62
     7
100
AcDbLine
 10
309.2050633071
 20
214.9936223274
 30
0.0
 11
301.410834673
 21
214.9936223274
 31
0.0
  0
LINE
  5
2F5
330
279
100
AcDbEntity
  8
DN20
  6
Continuous
 62
     7
100
AcDbLine
 10
286.3127584617
 20
213.7111223274
 30
0.0
 11
271.9800380291
 21
213.7111223274
 31
0.0
  0
LINE
  5
2F6
330
279
100
AcDbEntity
  8
DN20
  6
Continuous
 62
     7
100
AcDbLine
 10
271.9800380291
 20
201.7761223274
 30
0.0
 11
286.3127584617
 21
201.7761223274
 31
0.0
  0
LINE
  5
2F7
330
279
100
AcDbEntity
  8
DN20
  6
Continuous
 62
     7
100
AcDbLine
 10
288.910834673
 20
200.4936223274
 30
0.0
 11
296.7050633071
 21
200.4936223274
 31
0.0
  0
LINE
  5
2F8
330
279
100
AcDbEntity
  8
DN20
  6
Continuous
 62
     7
100
AcDbLine
 10
296.7050633071
 20
214.9936223274
 30
0.0
 11
288.910834673
 21
214.9936223274
 31
0.0
  0
LINE
  5
2F9
330
279
100
AcDbEntity
  8
DN20
  6
Continuous
 62
     7
100
AcDbLine
 10
271.7854480989
 20
190.750143228
 30
0.0
 11
274.01756837
 21
190.7726364086
 31
0.0
  0
LINE
  5
2FA
330
279
100
AcDbEntity
  8
DN20
  6
Continuous
 62
     7
100
AcDbLine
 10
274.01756837
 20
224.7146082462
 30
0.0
 11
271.7854480989
 21
224.7371014268
 31
0.0
  0
LINE
  5
2FB
330
279
100
AcDbEntity
  8
DN20
  6
Continuous
 62
     7
100
AcDbLine
 10
271.1597570879
 20
190.7438381104
 30
0.0
 11
271.2239922078
 21
190.7444854107
 31
0.0
  0
LINE
  5
2FC
330
279
100
AcDbEntity
  8
DN20
  6
Continuous
 62
     7
100
AcDbLine
 10
271.2239922078
 20
224.7427592441
 30
0.0
 11
271.1597570879
 21
224.7434065444
 31
0.0
  0
LINE
  5
2FD
330
279
100
AcDbEntity
  8
DN20
  6
Continuous
 62
     7
100
AcDbLine
 10
284.1340083754
 20
195.1561039199
 30
0.0
 11
294.9761533409
 21
195.2653607226
 31
0.0
  0
LINE
  5
2FE
330
279
100
AcDbEntity
  8
DN20
  6
Continuous
 62
     7
100
AcDbLine
 10
294.9761533409
 20
220.2218839321
 30
0.0
 11
284.1340083754
 21
220.3311407349
 31
0.0
  0
LINE
  5
2FF
330
279
100
AcDbEntity
  8
DN20
  6
Continuous
 62
     7
100
AcDbLine
 10
310.5003891692
 20
175.2436223274
 30
0.0
 11
322.5028595011
 21
175.2436223274
 31
0.0
  0
LINE
  5
300
330
279
100
AcDbEntity
  8
DN20
  6
Continuous
 62
     7
100
AcDbLine
 10
322.5028595011
 20
240.2436223274
 30
0.0
 11
310.5003891692
 21
240.2436223274
 31
0.0
  0
SPLINE
  5
301
330
279
100
AcDbEntity
  8
DN20
  6
Continuous
 62
     7
100
AcDbSpline
210
0.0
220
0.0
230
1.0
 70
     8
 71
     3
 72
    13
 73
     9
 74
     0
 42
0.000000001
 43
0.0000000001
 40
0.0
 40
0.0
 40
0.0
 40
0.0
 40
0.0551822958700738
 40
0.1985539338618144
 40
0.3177420138606669
 40
0.4241767799511448
 40
0.522031245465271
 40
0.6138284211446825
 40
0.6138284211446825
 40
0.6138284211446825
 40
0.6138284211446825
 10
301.2238151276214
 20
183.7402214451847
 30
0.0
 10
301.2583791405388
 20
183.7412531209691
 30
0.0
 10
301.3636148537948
 20
183.7442319023498
 30
0.0
 10
301.5441267100992
 20
183.7229804097269
 30
0.0
 10
301.7123054577024
 20
183.6896718042648
 30
0.0
 10
301.8235426546403
 20
183.6569582208851
 30
0.0
 10
301.8858095436492
 20
183.6333692074643
 30
0.0
 10
301.8994358564698
 20
183.6268022108542
 30
0.0
 10
301.8994329258895
 20
183.62681250358
 30
0.0
  0
SPLINE
  5
302
330
279
100
AcDbEntity
  8
DN20
  6
Continuous
 62
     7
100
AcDbSpline
210
0.0
220
0.0
230
1.0
 70
     8
 71
     3
 72
    13
 73
     9
 74
     0
 42
0.000000001
 43
0.0000000001
 40
0.3863476037333644
 40
0.3863476037333644
 40
0.3863476037333644
 40
0.3863476037333644
 40
0.4630208538900403
 40
0.5603436112594518
 40
0.664027255086697
 40
0.776941534394051
 40
0.9040943241518583
 40
1.0
 40
1.0
 40
1.0
 40
1.0
 10
301.8994318396054
 20
231.8604357026765
 30
0.0
 10
301.8994208458489
 20
231.8604353906557
 30
0.0
 10
301.88898485377
 20
231.8553970435898
 30
0.0
 10
301.8365245539797
 20
231.8347810207249
 30
0.0
 10
301.7350367134711
 20
231.8036007964452
 30
0.0
 10
301.584813597841
 20
231.7710633304087
 30
0.0
 10
301.4016381785457
 20
231.7463751211326
 30
0.0
 10
301.2836455727412
 20
231.746703504883
 30
0.0
 10
301.2229878955826
 20
231.7470232095978
 30
0.0
  0
LINE
  5
303
330
279
100
AcDbEntity
  8
DN20
  6
Continuous
 62
     7
100
AcDbLine
 10
294.9447173342
 20
194.4936223274
 30
0.0
 11
301.2234015116
 21
194.4936223274
 31
0.0
  0
LINE
  5
304
330
279
100
AcDbEntity
  8
DN20
  6
Continuous
 62
     7
100
AcDbLine
 10
301.2234015116
 20
220.9936223274
 30
0.0
 11
294.9447173342
 21
220.9936223274
 31
0.0
  0
ENDBLK
  5
306
330
279
100
AcDbEntity
  8
0
100
AcDbBlockEnd
  0
ENDSEC
  0
SECTION
  2
ENTITIES
  0
INSERT
  5
70
330
1F
100
AcDbEntity
  8
Default
100
AcDbBlockReference
  2
SE
 10
0.0
 20
0.0
 30
0.0
  0
INSERT
  5
128
330
1F
100
AcDbEntity
  8
Default
100
AcDbBlockReference
  2
SE1
 10
0.0
 20
0.0
 30
0.0
  0
INSERT
  5
1DF
330
1F
100
AcDbEntity
  8
Default
100
AcDbBlockReference
  2
SE2
 10
0.0
 20
0.0
 30
0.0
  0
INSERT
  5
27A
330
1F
100
AcDbEntity
  8
Default
100
AcDbBlockReference
  2
SE3
 10
0.0
 20
0.0
 30
0.0
  0
ENDSEC
  0
SECTION
  2
OBJECTS
  0
DICTIONARY
  5
C
330
0
100
AcDbDictionary
281
     1
  3
ACAD_DETAILVIEWSTYLE
350
342
  3
ACAD_GROUP
350
D
  3
ACAD_LAYOUT
350
1A
  3
ACAD_MATERIAL
350
43
  3
ACAD_MLEADERSTYLE
350
6B
  3
ACAD_MLINESTYLE
350
17
  3
ACAD_PLOTSETTINGS
350
19
  3
ACAD_PLOTSTYLENAME
350
E
  3
ACAD_SCALELIST
350
47
  3
ACAD_SECTIONVIEWSTYLE
350
343
  3
ACAD_TABLESTYLE
350
69
  3
ACAD_VISUALSTYLE
350
2A
  3
ACDB_RECOMPOSE_DATA
350
33F
  3
AcDbVariableDictionary
350
307
  0
SUN
  5
6D
330
29
100
AcDbSun
 90
        1
290
     0
 63
     7
421
 16777215
 40
1.0
291
     1
 91
  2455826
 92
 54000000
292
     0
 70
     2
 71
   256
280
     1
  0
DICTIONARY
  5
342
102
{ACAD_REACTORS
330
C
102
}
330
C
100
AcDbDictionary
281
     1
  0
DICTIONARY
  5
D
102
{ACAD_REACTORS
330
C
102
}
330
C
100
AcDbDictionary
281
     1
  0
DICTIONARY
  5
1A
102
{ACAD_REACTORS
330
C
102
}
330
C
100
AcDbDictionary
281
     1
  3
Layout1
350
1E
  3
Model
350
22
  0
DICTIONARY
  5
43
102
{ACAD_REACTORS
330
C
102
}
330
C
100
AcDbDictionary
281
     1
  3
ByBlock
350
45
  3
ByLayer
350
44
  3
Global
350
46
  0
DICTIONARY
  5
6B
102
{ACAD_REACTORS
330
C
102
}
330
C
100
AcDbDictionary
281
     1
  3
Standard
350
6C
  0
DICTIONARY
  5
17
102
{ACAD_REACTORS
330
C
102
}
330
C
100
AcDbDictionary
281
     1
  3
Standard
350
18
  0
DICTIONARY
  5
19
102
{ACAD_REACTORS
330
C
102
}
330
C
100
AcDbDictionary
281
     1
  0
ACDBDICTIONARYWDFLT
  5
E
102
{ACAD_REACTORS
330
C
102
}
330
C
100
AcDbDictionary
281
     1
  3
Normal
350
F
100
AcDbDictionaryWithDefault
340
F
  0
DICTIONARY
  5
47
102
{ACAD_REACTORS
330
C
102
}
330
C
100
AcDbDictionary
281
     1
  3
A0
350
48
  3
A1
350
49
  3
A2
350
4A
  3
A3
350
4B
  3
A4
350
4C
  3
A5
350
4D
  3
A6
350
4E
  3
A7
350
4F
  3
A8
350
50
  3
A9
350
51
  3
B0
350
52
  3
B1
350
53
  3
B2
350
54
  3
B3
350
55
  3
B4
350
56
  3
B5
350
57
  3
B6
350
58
  3
B7
350
59
  3
B8
350
5A
  3
B9
350
5B
  3
C0
350
5C
  3
C1
350
5D
  3
C2
350
5E
  3
C3
350
5F
  3
C4
350
60
  3
C5
350
61
  3
C6
350
62
  3
C7
350
63
  3
C8
350
64
  3
C9
350
65
  3
D0
350
66
  3
D1
350
67
  3
D2
350
68
  0
DICTIONARY
  5
343
102
{ACAD_REACTORS
330
C
102
}
330
C
100
AcDbDictionary
281
     1
  0
DICTIONARY
  5
69
102
{ACAD_REACTORS
330
C
102
}
330
C
100
AcDbDictionary
281
     1
  3
Standard
350
6A
  0
DICTIONARY
  5
2A
102
{ACAD_REACTORS
330
C
102
}
330
C
100
AcDbDictionary
281
     1
  3
2dWireframe
350
2F
  3
Basic
350
32
  3
Brighten
350
36
  3
ColorChange
350
3A
  3
Conceptual
350
34
  3
Dim
350
35
  3
EdgeColorOff
350
3D
  3
Facepattern
350
39
  3
Flat
350
2B
  3
FlatWithEdges
350
2C
  3
Gouraud
350
2D
  3
GouraudWithEdges
350
2E
  3
Hidden
350
31
  3
JitterOff
350
3B
  3
Linepattern
350
38
  3
OverhangOff
350
3C
  3
Realistic
350
33
  3
Shaded
350
42
  3
Shaded with edges
350
41
  3
Shades of Gray
350
3E
  3
Sketchy
350
3F
  3
Thicken
350
37
  3
Wireframe
350
30
  3
X-Ray
350
40
  0
XRECORD
  5
33F
102
{ACAD_REACTORS
330
C
102
}
330
C
100
AcDbXrecord
280
     1
 90
        1
330
6A
  0
DICTIONARY
  5
307
102
{ACAD_REACTORS
330
C
102
}
330
C
100
AcDbDictionary
281
     1
  3
CANNOSCALE
350
308
  3
CMLEADERSTYLE
350
341
  3
CTABLESTYLE
350
340
  3
XCLIPFRAME
350
309
  0
LAYOUT
  5
1E
102
{ACAD_REACTORS
330
1A
102
}
330
1A
100
AcDbPlotSettings
  1

  2
none_device
  4

  6

 40
0.0
 41
0.0
 42
0.0
 43
0.0
 44
0.0
 45
0.0
 46
0.0
 47
0.0
 48
0.0
 49
0.0
140
0.0
141
0.0
142
1.0
143
1.0
 70
   688
 72
     1
 73
     0
 74
     5
  7

 75
    16
 76
     0
 77
     2
 78
   300
147
1.0
148
0.0
149
0.0
100
AcDbLayout
  1
Layout1
 70
     1
 71
     1
 10
0.0
 20
0.0
 11
420.0
 21
297.0
 12
0.0
 22
0.0
 32
0.0
 14
0.0
 24
0.0
 34
0.0
 15
420.0
 25
297.0
 35
0.0
146
0.0
 13
0.0
 23
0.0
 33
0.0
 16
1.0
 26
0.0
 36
0.0
 17
0.0
 27
1.0
 37
0.0
 76
     0
330
1B
  0
LAYOUT
  5
22
102
{ACAD_REACTORS
330
1A
102
}
330
1A
100
AcDbPlotSettings
  1

  2
none_device
  4
Letter_(8.50_x_11.00_Inches)
  6

 40
6.35
 41
6.35
 42
6.35000508
 43
6.35000508
 44
215.9
 45
279.4
 46
0.0
 47
0.0
 48
0.0
 49
0.0
140
0.0
141
0.0
142
1.0
143
1.0
 70
  1712
 72
     1
 73
     0
 74
     0
  7

 75
     0
 76
     0
 77
     2
 78
   300
147
1.0
148
0.0
149
0.0
100
AcDbLayout
  1
Model
 70
     1
 71
     0
 10
0.0
 20
0.0
 11
420.0
 21
297.0
 12
0.0
 22
0.0
 32
0.0
 14
0.0
 24
0.0
 34
0.0
 15
420.0
 25
297.0
 35
0.0
146
0.0
 13
0.0
 23
0.0
 33
0.0
 16
1.0
 26
0.0
 36
0.0
 17
0.0
 27
1.0
 37
0.0
 76
     0
330
1F
331
29
  0
MATERIAL
  5
45
102
{ACAD_REACTORS
330
43
102
}
330
43
100
AcDbMaterial
  1
ByBlock
 72
     1
 94
      127
  0
MATERIAL
  5
44
102
{ACAD_REACTORS
330
43
102
}
330
43
100
AcDbMaterial
  1
ByLayer
 72
     1
 94
      127
  0
MATERIAL
  5
46
102
{ACAD_REACTORS
330
43
102
}
330
43
100
AcDbMaterial
  1
Global
 72
     1
 94
      127
  0
MLEADERSTYLE
  5
6C
102
{ACAD_REACTORS
330
6B
102
}
102
{ACAD_XDICTIONARY
360
33D
102
}
330
6B
100
AcDbMLeaderStyle
170
     2
171
     1
172
     0
 90
        2
 40
0.0
 41
0.0
173
     1
 91
-1056964608
340
14
 92
       -2
290
     1
 42
2.0
291
     1
 43
8.0
  3
Standard
341
0
 44
4.0
300

342
11
174
     1
178
     6
175
     1
176
     0
 93
-1056964608
 45
4.0
292
     0
297
     0
 46
4.0
343
0
 94
-1056964608
 47
1.0
 49
1.0
140
1.0
293
     1
141
0.0
294
     1
177
     0
142
1.0
295
     0
296
     0
143
3.75
1001
ACAD_MLEADERVER
1070
     2
  0
MLINESTYLE
  5
18
102
{ACAD_REACTORS
330
17
102
}
330
17
100
AcDbMlineStyle
  2
Standard
 70
     0
  3

 62
   256
 51
90.0
 52
90.0
 71
     2
 49
0.5
 62
   256
  6
BYLAYER
 49
-0.5
 62
   256
  6
BYLAYER
  0
ACDBPLACEHOLDER
  5
F
102
{ACAD_REACTORS
330
E
102
}
330
E
  0
SCALE
  5
48
102
{ACAD_REACTORS
330
47
102
}
330
47
100
AcDbScale
 70
     0
300
1:1
140
1.0
141
1.0
290
     1
  0
SCALE
  5
49
102
{ACAD_REACTORS
330
47
102
}
330
47
100
AcDbScale
 70
     0
300
1:2
140
1.0
141
2.0
290
     0
  0
SCALE
  5
4A
102
{ACAD_REACTORS
330
47
102
}
330
47
100
AcDbScale
 70
     0
300
1:4
140
1.0
141
4.0
290
     0
  0
SCALE
  5
4B
102
{ACAD_REACTORS
330
47
102
}
330
47
100
AcDbScale
 70
     0
300
1:5
140
1.0
141
5.0
290
     0
  0
SCALE
  5
4C
102
{ACAD_REACTORS
330
47
102
}
330
47
100
AcDbScale
 70
     0
300
1:8
140
1.0
141
8.0
290
     0
  0
SCALE
  5
4D
102
{ACAD_REACTORS
330
47
102
}
330
47
100
AcDbScale
 70
     0
300
1:10
140
1.0
141
10.0
290
     0
  0
SCALE
  5
4E
102
{ACAD_REACTORS
330
47
102
}
330
47
100
AcDbScale
 70
     0
300
1:16
140
1.0
141
16.0
290
     0
  0
SCALE
  5
4F
102
{ACAD_REACTORS
330
47
102
}
330
47
100
AcDbScale
 70
     0
300
1:20
140
1.0
141
20.0
290
     0
  0
SCALE
  5
50
102
{ACAD_REACTORS
330
47
102
}
330
47
100
AcDbScale
 70
     0
300
1:30
140
1.0
141
30.0
290
     0
  0
SCALE
  5
51
102
{ACAD_REACTORS
330
47
102
}
330
47
100
AcDbScale
 70
     0
300
1:40
140
1.0
141
40.0
290
     0
  0
SCALE
  5
52
102
{ACAD_REACTORS
330
47
102
}
330
47
100
AcDbScale
 70
     0
300
1:50
140
1.0
141
50.0
290
     0
  0
SCALE
  5
53
102
{ACAD_REACTORS
330
47
102
}
330
47
100
AcDbScale
 70
     0
300
1:100
140
1.0
141
100.0
290
     0
  0
SCALE
  5
54
102
{ACAD_REACTORS
330
47
102
}
330
47
100
AcDbScale
 70
     0
300
2:1
140
2.0
141
1.0
290
     0
  0
SCALE
  5
55
102
{ACAD_REACTORS
330
47
102
}
330
47
100
AcDbScale
 70
     0
300
4:1
140
4.0
141
1.0
290
     0
  0
SCALE
  5
56
102
{ACAD_REACTORS
330
47
102
}
330
47
100
AcDbScale
 70
     0
300
8:1
140
8.0
141
1.0
290
     0
  0
SCALE
  5
57
102
{ACAD_REACTORS
330
47
102
}
330
47
100
AcDbScale
 70
     0
300
10:1
140
10.0
141
1.0
290
     0
  0
SCALE
  5
58
102
{ACAD_REACTORS
330
47
102
}
330
47
100
AcDbScale
 70
     0
300
100:1
140
100.0
141
1.0
290
     0
  0
SCALE
  5
59
102
{ACAD_REACTORS
330
47
102
}
330
47
100
AcDbScale
 70
     0
300
1/128" = 1'-0"
140
0.0078125
141
12.0
290
     0
  0
SCALE
  5
5A
102
{ACAD_REACTORS
330
47
102
}
330
47
100
AcDbScale
 70
     0
300
1/64" = 1'-0"
140
0.015625
141
12.0
290
     0
  0
SCALE
  5
5B
102
{ACAD_REACTORS
330
47
102
}
330
47
100
AcDbScale
 70
     0
300
1/32" = 1'-0"
140
0.03125
141
12.0
290
     0
  0
SCALE
  5
5C
102
{ACAD_REACTORS
330
47
102
}
330
47
100
AcDbScale
 70
     0
300
1/16" = 1'-0"
140
0.0625
141
12.0
290
     0
  0
SCALE
  5
5D
102
{ACAD_REACTORS
330
47
102
}
330
47
100
AcDbScale
 70
     0
300
3/32" = 1'-0"
140
0.09375
141
12.0
290
     0
  0
SCALE
  5
5E
102
{ACAD_REACTORS
330
47
102
}
330
47
100
AcDbScale
 70
     0
300
1/8" = 1'-0"
140
0.125
141
12.0
290
     0
  0
SCALE
  5
5F
102
{ACAD_REACTORS
330
47
102
}
330
47
100
AcDbScale
 70
     0
300
3/16" = 1'-0"
140
0.1875
141
12.0
290
     0
  0
SCALE
  5
60
102
{ACAD_REACTORS
330
47
102
}
330
47
100
AcDbScale
 70
     0
300
1/4" = 1'-0"
140
0.25
141
12.0
290
     0
  0
SCALE
  5
61
102
{ACAD_REACTORS
330
47
102
}
330
47
100
AcDbScale
 70
     0
300
3/8" = 1'-0"
140
0.375
141
12.0
290
     0
  0
SCALE
  5
62
102
{ACAD_REACTORS
330
47
102
}
330
47
100
AcDbScale
 70
     0
300
1/2" = 1'-0"
140
0.5
141
12.0
290
     0
  0
SCALE
  5
63
102
{ACAD_REACTORS
330
47
102
}
330
47
100
AcDbScale
 70
     0
300
3/4" = 1'-0"
140
0.75
141
12.0
290
     0
  0
SCALE
  5
64
102
{ACAD_REACTORS
330
47
102
}
330
47
100
AcDbScale
 70
     0
300
1" = 1'-0"
140
1.0
141
12.0
290
     0
  0
SCALE
  5
65
102
{ACAD_REACTORS
330
47
102
}
330
47
100
AcDbScale
 70
     0
300
1-1/2" = 1'-0"
140
1.5
141
12.0
290
     0
  0
SCALE
  5
66
102
{ACAD_REACTORS
330
47
102
}
330
47
100
AcDbScale
 70
     0
300
3" = 1'-0"
140
3.0
141
12.0
290
     0
  0
SCALE
  5
67
102
{ACAD_REACTORS
330
47
102
}
330
47
100
AcDbScale
 70
     0
300
6" = 1'-0"
140
6.0
141
12.0
290
     0
  0
SCALE
  5
68
102
{ACAD_REACTORS
330
47
102
}
330
47
100
AcDbScale
 70
     0
300
1'-0" = 1'-0"
140
12.0
141
12.0
290
     0
  0
TABLESTYLE
  5
6A
102
{ACAD_REACTORS
330
69
102
}
102
{ACAD_XDICTIONARY
360
33A
102
}
330
69
100
AcDbTableStyle
  3
Standard
 70
     0
 71
     0
 40
0.06
 41
0.06
280
     0
281
     0
  7
Standard
140
4.5
170
     2
 62
     0
 63
   257
283
     0
 90
        4
 91
        0
  1

274
    -2
284
     1
 64
     0
275
    -2
285
     1
 65
     0
276
    -2
286
     1
 66
     0
277
    -2
287
     1
 67
     0
278
    -2
288
     1
 68
     0
279
    -2
289
     1
 69
     0
  7
Standard
140
6.0
170
     5
 62
     0
 63
   257
283
     0
 90
        4
 91
        0
  1

274
    -2
284
     1
 64
     0
275
    -2
285
     1
 65
     0
276
    -2
286
     1
 66
     0
277
    -2
287
     1
 67
     0
278
    -2
288
     1
 68
     0
279
    -2
289
     1
 69
     0
  7
Standard
140
4.5
170
     5
 62
     0
 63
   257
283
     0
 90
        4
 91
        0
  1

274
    -2
284
     1
 64
     0
275
    -2
285
     1
 65
     0
276
    -2
286
     1
 66
     0
277
    -2
287
     1
 67
     0
278
    -2
288
     1
 68
     0
279
    -2
289
     1
 69
     0
  0
VISUALSTYLE
  5
2F
102
{ACAD_REACTORS
330
2A
102
}
102
{ACAD_XDICTIONARY
360
312
102
}
330
2A
100
AcDbVisualStyle
  2
2dWireframe
 70
     4
 71
     0
 72
     2
 73
     0
 90
        0
 40
0.6
 41
30.0
 62
     5
 63
     7
421
 16777215
 74
     1
 91
        4
 64
     7
 65
   257
 75
     1
175
     1
 42
1.0
 92
        0
 66
   257
 43
1.0
 76
     1
 77
     6
 78
     2
 67
     7
 79
     5
170
     0
171
     0
290
     0
174
     0
 93
        1
 44
0.0
173
     0
291
     0
 45
0.0
  0
VISUALSTYLE
  5
32
102
{ACAD_REACTORS
330
2A
102
}
102
{ACAD_XDICTIONARY
360
318
102
}
330
2A
100
AcDbVisualStyle
  2
Basic
 70
     7
 71
     1
 72
     0
 73
     1
 90
        0
 40
0.6
 41
30.0
 62
     5
 63
     7
421
 16777215
 74
     0
 91
        4
 64
     7
 65
   257
 75
     1
175
     1
 42
1.0
 92
        8
 66
     7
 43
1.0
 76
     1
 77
     6
 78
     2
 67
     7
 79
     5
170
     0
171
     0
290
     0
174
     0
 93
        1
 44
0.0
173
     0
291
     1
 45
0.0
  0
VISUALSTYLE
  5
36
102
{ACAD_REACTORS
330
2A
102
}
102
{ACAD_XDICTIONARY
360
320
102
}
330
2A
100
AcDbVisualStyle
  2
Brighten
 70
    12
 71
     2
 72
     2
 73
     0
 90
        0
 40
0.6
 41
30.0
 62
     5
 63
     7
421
 16777215
 74
     1
 91
        4
 64
     7
 65
   257
 75
     1
175
     1
 42
1.0
 92
        8
 66
     7
 43
1.0
 76
     1
 77
     6
 78
     2
 67
     7
 79
     5
170
     0
171
     0
290
     0
174
     0
 93
        1
 44
50.0
173
     0
291
     1
 45
0.0
  0
VISUALSTYLE
  5
3A
102
{ACAD_REACTORS
330
2A
102
}
102
{ACAD_XDICTIONARY
360
328
102
}
330
2A
100
AcDbVisualStyle
  2
ColorChange
 70
    16
 71
     2
 72
     2
 73
     3
 90
        0
 40
0.6
 41
30.0
 62
     5
 63
     8
421
  8421504
 74
     1
 91
        4
 64
     7
 65
   257
 75
     1
175
     1
 42
1.0
 92
        8
 66
     8
424
  8421504
 43
1.0
 76
     1
 77
     6
 78
     2
 67
     7
 79
     5
170
     0
171
     0
290
     0
174
     0
 93
        1
 44
0.0
173
     0
291
     1
 45
0.0
  0
VISUALSTYLE
  5
34
102
{ACAD_REACTORS
330
2A
102
}
102
{ACAD_XDICTIONARY
360
31C
102
}
330
2A
100
AcDbVisualStyle
  2
Conceptual
 70
     9
 71
     3
 72
     2
 73
     0
 90
        0
 40
0.6
 41
30.0
 62
     5
 63
     7
421
 16777215
 74
     2
 91
        2
 64
     7
 65
   257
 75
     1
175
     1
 42
179.0
 92
        8
 66
     7
 43
1.0
 76
     1
 77
     6
 78
     2
 67
     7
 79
     3
170
     0
171
     0
290
     0
174
     0
 93
        1
 44
0.0
173
     0
291
     0
 45
0.0
  0
VISUALSTYLE
  5
35
102
{ACAD_REACTORS
330
2A
102
}
102
{ACAD_XDICTIONARY
360
31E
102
}
330
2A
100
AcDbVisualStyle
  2
Dim
 70
    11
 71
     2
 72
     2
 73
     0
 90
        0
 40
0.6
 41
30.0
 62
     5
 63
     7
421
 16777215
 74
     1
 91
        4
 64
     7
 65
   257
 75
     1
175
     1
 42
1.0
 92
        8
 66
     7
 43
1.0
 76
     1
 77
     6
 78
     2
 67
     7
 79
     5
170
     0
171
     0
290
     0
174
     0
 93
        1
 44
-50.0
173
     0
291
     1
 45
0.0
  0
VISUALSTYLE
  5
3D
102
{ACAD_REACTORS
330
2A
102
}
102
{ACAD_XDICTIONARY
360
32E
102
}
330
2A
100
AcDbVisualStyle
  2
EdgeColorOff
 70
    22
 71
     2
 72
     2
 73
     0
 90
        0
 40
0.6
 41
30.0
 62
     5
 63
     7
421
 16777215
 74
     1
 91
        4
 64
     7
 65
   257
 75
     1
175
     1
 42
1.0
 92
        8
 66
     7
 43
1.0
 76
     1
 77
     6
 78
     2
 67
     7
 79
     5
170
     0
171
     0
290
     0
174
     0
 93
        1
 44
0.0
173
     0
291
     1
 45
0.0
  0
VISUALSTYLE
  5
39
102
{ACAD_REACTORS
330
2A
102
}
102
{ACAD_XDICTIONARY
360
326
102
}
330
2A
100
AcDbVisualStyle
  2
Facepattern
 70
    15
 71
     2
 72
     2
 73
     0
 90
        0
 40
0.6
 41
30.0
 62
     5
 63
     7
421
 16777215
 74
     1
 91
        4
 64
     7
 65
   257
 75
     1
175
     1
 42
1.0
 92
        8
 66
     7
 43
1.0
 76
     1
 77
     6
 78
     2
 67
     7
 79
     5
170
     0
171
     0
290
     0
174
     0
 93
        1
 44
0.0
173
     0
291
     1
 45
0.0
  0
VISUALSTYLE
  5
2B
102
{ACAD_REACTORS
330
2A
102
}
102
{ACAD_XDICTIONARY
360
30A
102
}
330
2A
100
AcDbVisualStyle
  2
Flat
 70
     0
 71
     2
 72
     1
 73
     1
 90
        2
 40
0.6
 41
30.0
 62
     5
 63
     7
421
 16777215
 74
     0
 91
        0
 64
     7
 65
   257
 75
     1
175
     1
 42
1.0
 92
        8
 66
     7
 43
1.0
 76
     1
 77
     6
 78
     2
 67
     7
 79
     5
170
     0
171
     0
290
     0
174
     0
 93
       13
 44
0.0
173
     0
291
     1
 45
0.0
  0
VISUALSTYLE
  5
2C
102
{ACAD_REACTORS
330
2A
102
}
102
{ACAD_XDICTIONARY
360
30C
102
}
330
2A
100
AcDbVisualStyle
  2
FlatWithEdges
 70
     1
 71
     2
 72
     1
 73
     1
 90
        2
 40
0.6
 41
30.0
 62
     5
 63
     7
421
 16777215
 74
     1
 91
        0
 64
     7
 65
   257
 75
     1
175
     1
 42
1.0
 92
        0
 66
   257
 43
1.0
 76
     1
 77
     6
 78
     2
 67
     7
 79
     5
170
     0
171
     0
290
     0
174
     0
 93
       13
 44
0.0
173
     0
291
     1
 45
0.0
  0
VISUALSTYLE
  5
2D
102
{ACAD_REACTORS
330
2A
102
}
102
{ACAD_XDICTIONARY
360
30E
102
}
330
2A
100
AcDbVisualStyle
  2
Gouraud
 70
     2
 71
     2
 72
     2
 73
     1
 90
        2
 40
0.6
 41
30.0
 62
     5
 63
     7
421
 16777215
 74
     0
 91
        0
 64
     7
 65
   257
 75
     1
175
     1
 42
1.0
 92
        0
 66
     7
 43
1.0
 76
     1
 77
     6
 78
     2
 67
     7
 79
     5
170
     0
171
     0
290
     0
174
     0
 93
       13
 44
0.0
173
     0
291
     1
 45
0.0
  0
VISUALSTYLE
  5
2E
102
{ACAD_REACTORS
330
2A
102
}
102
{ACAD_XDICTIONARY
360
310
102
}
330
2A
100
AcDbVisualStyle
  2
GouraudWithEdges
 70
     3
 71
     2
 72
     2
 73
     1
 90
        2
 40
0.6
 41
30.0
 62
     5
 63
     7
421
 16777215
 74
     1
 91
        0
 64
     7
 65
   257
 75
     1
175
     1
 42
1.0
 92
        0
 66
   257
 43
1.0
 76
     1
 77
     6
 78
     2
 67
     7
 79
     5
170
     0
171
     0
290
     0
174
     0
 93
       13
 44
0.0
173
     0
291
     1
 45
0.0
  0
VISUALSTYLE
  5
31
102
{ACAD_REACTORS
330
2A
102
}
102
{ACAD_XDICTIONARY
360
316
102
}
330
2A
100
AcDbVisualStyle
  2
Hidden
 70
     6
 71
     1
 72
     2
 73
     2
 90
        0
 40
0.6
 41
30.0
 62
     5
 63
     7
421
 16777215
 74
     2
 91
        2
 64
     7
 65
   257
 75
     2
175
     1
 42
40.0
 92
        0
 66
   257
 43
1.0
 76
     1
 77
     6
 78
     2
 67
     7
 79
     3
170
     0
171
     0
290
     0
174
     0
 93
        1
 44
0.0
173
     0
291
     0
 45
0.0
  0
VISUALSTYLE
  5
3B
102
{ACAD_REACTORS
330
2A
102
}
102
{ACAD_XDICTIONARY
360
32A
102
}
330
2A
100
AcDbVisualStyle
  2
JitterOff
 70
    20
 71
     2
 72
     2
 73
     0
 90
        0
 40
0.6
 41
30.0
 62
     5
 63
     7
421
 16777215
 74
     1
 91
        4
 64
     7
 65
   257
 75
     1
175
     1
 42
1.0
 92
       10
 66
     7
 43
1.0
 76
     1
 77
     6
 78
     2
 67
     7
 79
     5
170
     0
171
     0
290
     0
174
     0
 93
        1
 44
0.0
173
     0
291
     1
 45
0.0
  0
VISUALSTYLE
  5
38
102
{ACAD_REACTORS
330
2A
102
}
102
{ACAD_XDICTIONARY
360
324
102
}
330
2A
100
AcDbVisualStyle
  2
Linepattern
 70
    14
 71
     2
 72
     2
 73
     0
 90
        0
 40
0.6
 41
30.0
 62
     5
 63
     7
421
 16777215
 74
     1
 91
        4
 64
     7
 65
   257
 75
     7
175
     7
 42
1.0
 92
        8
 66
     7
 43
1.0
 76
     1
 77
     6
 78
     2
 67
     7
 79
     5
170
     0
171
     0
290
     0
174
     0
 93
        1
 44
0.0
173
     0
291
     1
 45
0.0
  0
VISUALSTYLE
  5
3C
102
{ACAD_REACTORS
330
2A
102
}
102
{ACAD_XDICTIONARY
360
32C
102
}
330
2A
100
AcDbVisualStyle
  2
OverhangOff
 70
    21
 71
     2
 72
     2
 73
     0
 90
        0
 40
0.6
 41
30.0
 62
     5
 63
     7
421
 16777215
 74
     1
 91
        4
 64
     7
 65
   257
 75
     1
175
     1
 42
1.0
 92
        9
 66
     7
 43
1.0
 76
     1
 77
     6
 78
     2
 67
     7
 79
     5
170
     0
171
     0
290
     0
174
     0
 93
        1
 44
0.0
173
     0
291
     1
 45
0.0
  0
VISUALSTYLE
  5
33
102
{ACAD_REACTORS
330
2A
102
}
102
{ACAD_XDICTIONARY
360
31A
102
}
330
2A
100
AcDbVisualStyle
  2
Realistic
 70
     8
 71
     2
 72
     3
 73
     0
 90
        2
 40
0.6
 41
30.0
 62
     5
 63
     7
421
 16777215
 74
     0
 91
        0
 64
     7
 65
   257
 75
     1
175
     1
 42
1.0
 92
        8
 66
   257
 43
1.0
 76
     1
 77
     6
 78
     2
 67
     7
 79
     3
170
     0
171
     0
290
     0
174
     0
 93
       13
 44
0.0
173
     0
291
     0
 45
0.0
  0
VISUALSTYLE
  5
42
102
{ACAD_REACTORS
330
2A
102
}
102
{ACAD_XDICTIONARY
360
338
102
}
330
2A
100
AcDbVisualStyle
  2
Shaded
 70
    27
 71
     2
 72
     2
 73
     1
 90
        2
 40
0.6
 41
30.0
 62
     5
 63
     7
421
 16777215
 74
     0
 91
        4
 64
     7
 65
   257
 75
     1
175
     1
 42
1.0
 92
        8
 66
   257
 43
1.0
 76
     1
 77
     6
 78
     2
 67
     8
425
  7895160
 79
     3
170
     0
171
     0
290
     0
174
     0
 93
        5
 44
0.0
173
     0
291
     0
 45
0.0
  0
VISUALSTYLE
  5
41
102
{ACAD_REACTORS
330
2A
102
}
102
{ACAD_XDICTIONARY
360
336
102
}
330
2A
100
AcDbVisualStyle
  2
Shaded with edges
 70
    26
 71
     2
 72
     2
 73
     1
 90
        2
 40
0.6
 41
30.0
 62
     5
 63
     7
421
 16777215
 74
     1
 91
       10
 64
     7
 65
   257
 75
     2
175
     1
 42
1.0
 92
        8
 66
   257
 43
1.0
 76
     1
 77
     6
 78
     2
 67
     7
 79
     3
170
     0
171
     0
290
     0
174
     0
 93
        5
 44
0.0
173
     0
291
     0
 45
0.0
  0
VISUALSTYLE
  5
3E
102
{ACAD_REACTORS
330
2A
102
}
102
{ACAD_XDICTIONARY
360
330
102
}
330
2A
100
AcDbVisualStyle
  2
Shades of Gray
 70
    23
 71
     2
 72
     2
 73
     3
 90
        0
 40
0.6
 41
30.0
 62
     5
 63
     7
421
 16777215
 74
     2
 91
        2
 64
     7
 65
     7
 75
     1
175
     1
 42
40.0
 92
        8
 66
     7
 43
1.0
 76
     1
 77
     6
 78
     2
 67
     7
 79
     3
170
     0
171
     0
290
     0
174
     0
 93
        1
 44
0.0
173
     0
291
     0
 45
0.0
  0
VISUALSTYLE
  5
3F
102
{ACAD_REACTORS
330
2A
102
}
102
{ACAD_XDICTIONARY
360
332
102
}
330
2A
100
AcDbVisualStyle
  2
Sketchy
 70
    24
 71
     1
 72
     2
 73
     2
 90
        0
 40
0.6
 41
30.0
 62
     5
 63
     7
421
 16777215
 74
     2
 91
        2
 64
     7
 65
     7
 75
     1
175
     1
 42
40.0
 92
       11
 66
     7
 43
1.0
 76
     1
 77
     6
 78
     2
 67
     7
 79
     6
170
     0
171
     0
290
     0
174
     0
 93
        1
 44
0.0
173
     0
291
     0
 45
0.0
  0
VISUALSTYLE
  5
37
102
{ACAD_REACTORS
330
2A
102
}
102
{ACAD_XDICTIONARY
360
322
102
}
330
2A
100
AcDbVisualStyle
  2
Thicken
 70
    13
 71
     2
 72
     2
 73
     0
 90
        0
 40
0.6
 41
30.0
 62
     5
 63
     7
421
 16777215
 74
     1
 91
        4
 64
     7
 65
   257
 75
     1
175
     1
 42
1.0
 92
       12
 66
     7
 43
1.0
 76
     1
 77
     6
 78
     2
 67
     7
 79
     5
170
     0
171
     0
290
     0
174
     0
 93
        1
 44
0.0
173
     0
291
     1
 45
0.0
  0
VISUALSTYLE
  5
30
102
{ACAD_REACTORS
330
2A
102
}
102
{ACAD_XDICTIONARY
360
314
102
}
330
2A
100
AcDbVisualStyle
  2
Wireframe
 70
     5
 71
     0
 72
     2
 73
     0
 90
        0
 40
0.6
 41
30.0
 62
     5
 63
     7
421
 16777215
 74
     1
 91
        4
 64
     7
 65
   257
 75
     1
175
     1
 42
1.0
 92
        0
 66
   257
 43
1.0
 76
     1
 77
     6
 78
     2
 67
     7
 79
     3
170
     0
171
     0
290
     0
174
     0
 93
        1
 44
0.0
173
     0
291
     0
 45
0.0
  0
VISUALSTYLE
  5
40
102
{ACAD_REACTORS
330
2A
102
}
102
{ACAD_XDICTIONARY
360
334
102
}
330
2A
100
AcDbVisualStyle
  2
X-Ray
 70
    25
 71
     2
 72
     2
 73
     1
 90
        1
 40
0.5
 41
30.0
 62
     5
 63
     7
421
 16777215
 74
     1
 91
        0
 64
     7
 65
   257
 75
     1
175
     1
 42
1.0
 92
        8
 66
     7
 43
1.0
 76
     1
 77
     6
 78
     2
 67
     7
 79
     3
170
     0
171
     0
290
     0
174
     0
 93
       13
 44
0.0
173
     0
291
     0
 45
0.0
  0
DICTIONARYVAR
  5
308
102
{ACAD_REACTORS
330
307
102
}
330
307
100
DictionaryVariables
280
     0
  1
1:1
  0
DICTIONARYVAR
  5
341
102
{ACAD_REACTORS
330
307
102
}
330
307
100
DictionaryVariables
280
     0
  1
Standard
  0
DICTIONARYVAR
  5
340
102
{ACAD_REACTORS
330
307
102
}
330
307
100
DictionaryVariables
280
     0
  1
Standard
  0
DICTIONARYVAR
  5
309
102
{ACAD_REACTORS
330
307
102
}
330
307
100
DictionaryVariables
280
     0
  1
2
  0
DICTIONARY
  5
33D
330
6C
100
AcDbDictionary
280
     1
281
     1
  3
ACAD_XREC_ROUNDTRIP
360
33E
  0
DICTIONARY
  5
33A
330
6A
100
AcDbDictionary
280
     1
281
     1
  3
ACAD_ROUNDTRIP_2008_TABLESTYLE_CELLSTYLEMAP
360
33B
  0
DICTIONARY
  5
312
330
2F
100
AcDbDictionary
280
     1
281
     1
  3
ACAD_XREC_ROUNDTRIP
360
313
  0
DICTIONARY
  5
318
330
32
100
AcDbDictionary
280
     1
281
     1
  3
ACAD_XREC_ROUNDTRIP
360
319
  0
DICTIONARY
  5
320
330
36
100
AcDbDictionary
280
     1
281
     1
  3
ACAD_XREC_ROUNDTRIP
360
321
  0
DICTIONARY
  5
328
330
3A
100
AcDbDictionary
280
     1
281
     1
  3
ACAD_XREC_ROUNDTRIP
360
329
  0
DICTIONARY
  5
31C
330
34
100
AcDbDictionary
280
     1
281
     1
  3
ACAD_XREC_ROUNDTRIP
360
31D
  0
DICTIONARY
  5
31E
330
35
100
AcDbDictionary
280
     1
281
     1
  3
ACAD_XREC_ROUNDTRIP
360
31F
  0
DICTIONARY
  5
32E
330
3D
100
AcDbDictionary
280
     1
281
     1
  3
ACAD_XREC_ROUNDTRIP
360
32F
  0
DICTIONARY
  5
326
330
39
100
AcDbDictionary
280
     1
281
     1
  3
ACAD_XREC_ROUNDTRIP
360
327
  0
DICTIONARY
  5
30A
330
2B
100
AcDbDictionary
280
     1
281
     1
  3
ACAD_XREC_ROUNDTRIP
360
30B
  0
DICTIONARY
  5
30C
330
2C
100
AcDbDictionary
280
     1
281
     1
  3
ACAD_XREC_ROUNDTRIP
360
30D
  0
DICTIONARY
  5
30E
330
2D
100
AcDbDictionary
280
     1
281
     1
  3
ACAD_XREC_ROUNDTRIP
360
30F
  0
DICTIONARY
  5
310
330
2E
100
AcDbDictionary
280
     1
281
     1
  3
ACAD_XREC_ROUNDTRIP
360
311
  0
DICTIONARY
  5
316
330
31
100
AcDbDictionary
280
     1
281
     1
  3
ACAD_XREC_ROUNDTRIP
360
317
  0
DICTIONARY
  5
32A
330
3B
100
AcDbDictionary
280
     1
281
     1
  3
ACAD_XREC_ROUNDTRIP
360
32B
  0
DICTIONARY
  5
324
330
38
100
AcDbDictionary
280
     1
281
     1
  3
ACAD_XREC_ROUNDTRIP
360
325
  0
DICTIONARY
  5
32C
330
3C
100
AcDbDictionary
280
     1
281
     1
  3
ACAD_XREC_ROUNDTRIP
360
32D
  0
DICTIONARY
  5
31A
330
33
100
AcDbDictionary
280
     1
281
     1
  3
ACAD_XREC_ROUNDTRIP
360
31B
  0
DICTIONARY
  5
338
330
42
100
AcDbDictionary
280
     1
281
     1
  3
ACAD_XREC_ROUNDTRIP
360
339
  0
DICTIONARY
  5
336
330
41
100
AcDbDictionary
280
     1
281
     1
  3
ACAD_XREC_ROUNDTRIP
360
337
  0
DICTIONARY
  5
330
330
3E
100
AcDbDictionary
280
     1
281
     1
  3
ACAD_XREC_ROUNDTRIP
360
331
  0
DICTIONARY
  5
332
330
3F
100
AcDbDictionary
280
     1
281
     1
  3
ACAD_XREC_ROUNDTRIP
360
333
  0
DICTIONARY
  5
322
330
37
100
AcDbDictionary
280
     1
281
     1
  3
ACAD_XREC_ROUNDTRIP
360
323
  0
DICTIONARY
  5
314
330
30
100
AcDbDictionary
280
     1
281
     1
  3
ACAD_XREC_ROUNDTRIP
360
315
  0
DICTIONARY
  5
334
330
40
100
AcDbDictionary
280
     1
281
     1
  3
ACAD_XREC_ROUNDTRIP
360
335
  0
XRECORD
  5
33E
102
{ACAD_REACTORS
330
33D
102
}
330
33D
100
AcDbXrecord
280
     1
102
ACAD_ROUNDTRIP_2010_MLEADER_STYLE
  0
CELLSTYLEMAP
  5
33B
102
{ACAD_REACTORS
330
33A
102
}
330
33A
100
AcDbCellStyleMap
 90
        3
300
CELLSTYLE
  1
TABLEFORMAT_BEGIN
 90
        5
170
     1
 91
        0
 92
    32768
 62
   257
 93
        1
300
CONTENTFORMAT
  1
CONTENTFORMAT_BEGIN
 90
        0
 91
        0
 92
        4
 93
        0
300

 40
0.0
140
1.0
 94
        5
 62
     0
340
11
144
6.0
309
CONTENTFORMAT_END
171
     1
301
MARGIN
  1
CELLMARGIN_BEGIN
 40
1.5
 40
1.5
 40
1.5
 40
1.5
 40
1.5
 40
1.5
309
CELLMARGIN_END
 94
        6
 95
        1
302
GRIDFORMAT
  1
GRIDFORMAT_BEGIN
 90
        0
 91
        1
 62
     0
 92
       -2
340
14
 93
        0
 40
0.045
309
GRIDFORMAT_END
 95
        2
302
GRIDFORMAT
  1
GRIDFORMAT_BEGIN
 90
        0
 91
        1
 62
     0
 92
       -2
340
14
 93
        0
 40
0.045
309
GRIDFORMAT_END
 95
        4
302
GRIDFORMAT
  1
GRIDFORMAT_BEGIN
 90
        0
 91
        1
 62
     0
 92
       -2
340
14
 93
        0
 40
0.045
309
GRIDFORMAT_END
 95
        8
302
GRIDFORMAT
  1
GRIDFORMAT_BEGIN
 90
        0
 91
        1
 62
     0
 92
       -2
340
14
 93
        0
 40
0.045
309
GRIDFORMAT_END
 95
       16
302
GRIDFORMAT
  1
GRIDFORMAT_BEGIN
 90
        0
 91
        1
 62
     0
 92
       -2
340
14
 93
        0
 40
0.045
309
GRIDFORMAT_END
 95
       32
302
GRIDFORMAT
  1
GRIDFORMAT_BEGIN
 90
        0
 91
        1
 62
     0
 92
       -2
340
14
 93
        0
 40
0.045
309
GRIDFORMAT_END
309
TABLEFORMAT_END
  1
CELLSTYLE_BEGIN
 90
        1
 91
        1
300
_TITLE
309
CELLSTYLE_END
300
CELLSTYLE
  1
TABLEFORMAT_BEGIN
 90
        5
170
     1
 91
        0
 92
        0
 62
   257
 93
        1
300
CONTENTFORMAT
  1
CONTENTFORMAT_BEGIN
 90
        0
 91
        0
 92
        4
 93
        0
300

 40
0.0
140
1.0
 94
        5
 62
     0
340
11
144
4.5
309
CONTENTFORMAT_END
171
     1
301
MARGIN
  1
CELLMARGIN_BEGIN
 40
1.5
 40
1.5
 40
1.5
 40
1.5
 40
1.5
 40
1.5
309
CELLMARGIN_END
 94
        6
 95
        1
302
GRIDFORMAT
  1
GRIDFORMAT_BEGIN
 90
        0
 91
        1
 62
     0
 92
       -2
340
14
 93
        0
 40
0.045
309
GRIDFORMAT_END
 95
        2
302
GRIDFORMAT
  1
GRIDFORMAT_BEGIN
 90
        0
 91
        1
 62
     0
 92
       -2
340
14
 93
        0
 40
0.045
309
GRIDFORMAT_END
 95
        4
302
GRIDFORMAT
  1
GRIDFORMAT_BEGIN
 90
        0
 91
        1
 62
     0
 92
       -2
340
14
 93
        0
 40
0.045
309
GRIDFORMAT_END
 95
        8
302
GRIDFORMAT
  1
GRIDFORMAT_BEGIN
 90
        0
 91
        1
 62
     0
 92
       -2
340
14
 93
        0
 40
0.045
309
GRIDFORMAT_END
 95
       16
302
GRIDFORMAT
  1
GRIDFORMAT_BEGIN
 90
        0
 91
        1
 62
     0
 92
       -2
340
14
 93
        0
 40
0.045
309
GRIDFORMAT_END
 95
       32
302
GRIDFORMAT
  1
GRIDFORMAT_BEGIN
 90
        0
 91
        1
 62
     0
 92
       -2
340
14
 93
        0
 40
0.045
309
GRIDFORMAT_END
309
TABLEFORMAT_END
  1
CELLSTYLE_BEGIN
 90
        2
 91
        1
300
_HEADER
309
CELLSTYLE_END
300
CELLSTYLE
  1
TABLEFORMAT_BEGIN
 90
        5
170
     1
 91
        0
 92
        0
 62
   257
 93
        1
300
CONTENTFORMAT
  1
CONTENTFORMAT_BEGIN
 90
        0
 91
        0
 92
        4
 93
        0
300

 40
0.0
140
1.0
 94
        2
 62
     0
340
11
144
4.5
309
CONTENTFORMAT_END
171
     1
301
MARGIN
  1
CELLMARGIN_BEGIN
 40
1.5
 40
1.5
 40
1.5
 40
1.5
 40
1.5
 40
1.5
309
CELLMARGIN_END
 94
        6
 95
        1
302
GRIDFORMAT
  1
GRIDFORMAT_BEGIN
 90
        0
 91
        1
 62
     0
 92
       -2
340
14
 93
        0
 40
0.045
309
GRIDFORMAT_END
 95
        2
302
GRIDFORMAT
  1
GRIDFORMAT_BEGIN
 90
        0
 91
        1
 62
     0
 92
       -2
340
14
 93
        0
 40
0.045
309
GRIDFORMAT_END
 95
        4
302
GRIDFORMAT
  1
GRIDFORMAT_BEGIN
 90
        0
 91
        1
 62
     0
 92
       -2
340
14
 93
        0
 40
0.045
309
GRIDFORMAT_END
 95
        8
302
GRIDFORMAT
  1
GRIDFORMAT_BEGIN
 90
        0
 91
        1
 62
     0
 92
       -2
340
14
 93
        0
 40
0.045
309
GRIDFORMAT_END
 95
       16
302
GRIDFORMAT
  1
GRIDFORMAT_BEGIN
 90
        0
 91
        1
 62
     0
 92
       -2
340
14
 93
        0
 40
0.045
309
GRIDFORMAT_END
 95
       32
302
GRIDFORMAT
  1
GRIDFORMAT_BEGIN
 90
        0
 91
        1
 62
     0
 92
       -2
340
14
 93
        0
 40
0.045
309
GRIDFORMAT_END
309
TABLEFORMAT_END
  1
CELLSTYLE_BEGIN
 90
        3
 91
        2
300
_DATA
309
CELLSTYLE_END
  0
XRECORD
  5
313
102
{ACAD_REACTORS
330
312
102
}
330
312
100
AcDbXrecord
280
     1
102
RTVSPropertyOp0
 70
     1
102
RTVSPropertyOp1
 70
     1
102
RTVSPropertyOp2
 70
     1
102
RTVSPropertyOp3
 70
     1
102
RTVSPropertyOp4
 70
     1
102
RTVSPropertyOp5
 70
     1
102
RTVSPropertyOp6
 70
     1
102
RTVSPropertyOp7
 70
     1
102
RTVSPropertyOp8
 70
     1
102
RTVSPropertyOp9
 70
     1
102
RTVSPropertyOp10
 70
     1
102
RTVSPropertyOp11
 70
     1
102
RTVSPropertyOp12
 70
     1
102
RTVSPropertyOp13
 70
     1
102
RTVSPropertyOp14
 70
     1
102
RTVSPropertyOp15
 70
     1
102
RTVSPropertyOp16
 70
     1
102
RTVSPropertyOp17
 70
     1
102
RTVSPropertyOp18
 70
     1
102
RTVSPropertyOp19
 70
     1
102
RTVSPropertyOp20
 70
     1
102
RTVSPropertyOp21
 70
     1
102
RTVSPropertyOp22
 70
     1
102
RTVSPropertyOp23
 70
     1
102
RTVSPropertyOp24
 70
     1
102
RTVSPropertyOp25
 70
     1
102
RTVSPropertyOp26
 70
     1
102
RTVSPropertyOp27
 70
     1
102
RTVSPropertyOp28
 70
     1
102
RTVSPropertyOp29
 70
     1
102
RTVSPropertyOp30
 70
     1
102
RTVSPropertyOp31
 70
     1
102
RTVSPropertyOp32
 70
     1
102
RTVSPropertyOp33
 70
     1
102
RTVSPropertyOp34
 70
     1
102
RTVSPropertyOp35
 70
     1
102
RTVSPropertyOp36
 70
     1
102
RTVSPropertyOp37
 70
     1
102
RTVSPropertyOp38
 70
     1
102
RTVSPropertyOp39
 70
     1
102
RTVSPropertyOp40
 70
     1
102
RTVSPropertyOp41
 70
     1
102
RTVSPropertyOp42
 70
     1
102
RTVSPropertyOp43
 70
     1
102
RTVSPropertyOp44
 70
     1
102
RTVSPropertyOp45
 70
     1
102
RTVSPropertyOp46
 70
     1
102
RTVSPropertyOp47
 70
     1
102
RTVSPropertyOp48
 70
     1
102
RTVSPropertyOp49
 70
     1
102
RTVSPropertyOp50
 70
     1
102
RTVSPropertyOp51
 70
     0
102
RTVSPropertyOp52
 70
     0
102
RTVSPropertyOp53
 70
     1
102
RTVSPropertyOp54
 70
     1
102
RTVSPropertyOp55
 70
     1
102
RTVSPropertyOp56
 70
     1
102
RTVSPropertyOp57
 70
     1
102
RTVSPost2010Prop28
280
     1
102
RTVSPost2010PropOp28
 70
     1
102
RTVSPost2010Prop29
280
     1
102
RTVSPost2010PropOp29
 70
     1
102
RTVSPost2010Prop30
280
     0
102
RTVSPost2010PropOp30
 70
     1
102
RTVSPost2010Prop31
280
     0
102
RTVSPost2010PropOp31
 70
     1
102
RTVSPost2010Prop32
280
     0
102
RTVSPost2010PropOp32
 70
     1
102
RTVSPost2010Prop33
280
     0
102
RTVSPost2010PropOp33
 70
     1
102
RTVSPost2010Prop34
280
     0
102
RTVSPost2010PropOp34
 70
     1
102
RTVSPost2010Prop35
280
     0
102
RTVSPost2010PropOp35
 70
     1
102
RTVSPost2010Prop36
280
     0
102
RTVSPost2010PropOp36
 70
     1
102
RTVSPost2010Prop37
 90
       50
102
RTVSPost2010PropOp37
 70
     1
102
RTVSPost2010Prop38
140
0.0
102
RTVSPost2010PropOp38
 70
     1
102
RTVSPost2010Prop39
140
1.0
102
RTVSPost2010PropOp39
 70
     1
102
RTVSPost2010Prop40
 90
        0
102
RTVSPost2010PropOp40
 70
     1
102
RTVSPost2010Prop41ColorIndex
 90
       18
102
RTVSPost2010Prop41ColorRGB
 90
        0
102
RTVSPost2010PropOp41
 70
     1
102
RTVSPost2010Prop42
 90
       50
102
RTVSPost2010PropOp42
 70
     1
102
RTVSPost2010Prop43
 90
        3
102
RTVSPost2010PropOp43
 70
     1
102
RTVSPost2010Prop44ColorIndex
 90
        5
102
RTVSPost2010Prop44ColorRGB
 90
      255
102
RTVSPost2010PropOp44
 70
     1
102
RTVSPost2010Prop45
280
     0
102
RTVSPost2010PropOp45
 70
     1
102
RTVSPost2010Prop46
 90
       50
102
RTVSPost2010PropOp46
 70
     1
102
RTVSPost2010Prop47
 90
       50
102
RTVSPost2010PropOp47
 70
     1
102
RTVSPost2010Prop48
 90
       50
102
RTVSPost2010PropOp48
 70
     1
102
RTVSPost2010Prop49
280
     0
102
RTVSPost2010PropOp49
 70
     1
102
RTVSPost2010Prop50
 90
       50
102
RTVSPost2010PropOp50
 70
     1
102
RTVSPost2010Prop51ColorIndex
 90
      256
102
RTVSPost2010Prop51ColorRGB
 90
-16777216
102
RTVSPost2010PropOp51
 70
     0
102
RTVSPost2010Prop52
140
1.0
102
RTVSPost2010PropOp52
 70
     0
102
RTVSPost2010Prop53
 90
        2
102
RTVSPost2010PropOp53
 70
     1
102
RTVSPost2010Prop54
  1
strokes_ogs.tif
102
RTVSPost2010PropOp54
 70
     1
102
RTVSPost2010Prop55
280
     0
102
RTVSPost2010PropOp55
 70
     1
102
RTVSPost2010Prop56
140
1.0
102
RTVSPost2010PropOp56
 70
     1
102
RTVSPost2010Prop57
140
1.0
102
RTVSPost2010PropOp57
 70
     1
  0
XRECORD
  5
319
102
{ACAD_REACTORS
330
318
102
}
330
318
100
AcDbXrecord
280
     1
102
RTVSPropertyOp0
 70
     1
102
RTVSPropertyOp1
 70
     1
102
RTVSPropertyOp2
 70
     1
102
RTVSPropertyOp3
 70
     1
102
RTVSPropertyOp4
 70
     1
102
RTVSPropertyOp5
 70
     1
102
RTVSPropertyOp6
 70
     1
102
RTVSPropertyOp7
 70
     1
102
RTVSPropertyOp8
 70
     1
102
RTVSPropertyOp9
 70
     1
102
RTVSPropertyOp10
 70
     1
102
RTVSPropertyOp11
 70
     1
102
RTVSPropertyOp12
 70
     1
102
RTVSPropertyOp13
 70
     1
102
RTVSPropertyOp14
 70
     1
102
RTVSPropertyOp15
 70
     1
102
RTVSPropertyOp16
 70
     1
102
RTVSPropertyOp17
 70
     1
102
RTVSPropertyOp18
 70
     1
102
RTVSPropertyOp19
 70
     1
102
RTVSPropertyOp20
 70
     1
102
RTVSPropertyOp21
 70
     1
102
RTVSPropertyOp22
 70
     1
102
RTVSPropertyOp23
 70
     1
102
RTVSPropertyOp24
 70
     1
102
RTVSPropertyOp25
 70
     1
102
RTVSPropertyOp26
 70
     1
102
RTVSPropertyOp27
 70
     1
102
RTVSPropertyOp28
 70
     1
102
RTVSPropertyOp29
 70
     1
102
RTVSPropertyOp30
 70
     1
102
RTVSPropertyOp31
 70
     1
102
RTVSPropertyOp32
 70
     1
102
RTVSPropertyOp33
 70
     1
102
RTVSPropertyOp34
 70
     1
102
RTVSPropertyOp35
 70
     1
102
RTVSPropertyOp36
 70
     1
102
RTVSPropertyOp37
 70
     1
102
RTVSPropertyOp38
 70
     1
102
RTVSPropertyOp39
 70
     1
102
RTVSPropertyOp40
 70
     1
102
RTVSPropertyOp41
 70
     1
102
RTVSPropertyOp42
 70
     1
102
RTVSPropertyOp43
 70
     1
102
RTVSPropertyOp44
 70
     1
102
RTVSPropertyOp45
 70
     1
102
RTVSPropertyOp46
 70
     1
102
RTVSPropertyOp47
 70
     1
102
RTVSPropertyOp48
 70
     1
102
RTVSPropertyOp49
 70
     1
102
RTVSPropertyOp50
 70
     1
102
RTVSPropertyOp51
 70
     0
102
RTVSPropertyOp52
 70
     0
102
RTVSPropertyOp53
 70
     1
102
RTVSPropertyOp54
 70
     1
102
RTVSPropertyOp55
 70
     1
102
RTVSPropertyOp56
 70
     1
102
RTVSPropertyOp57
 70
     1
102
RTVSPost2010Prop28
280
     0
102
RTVSPost2010PropOp28
 70
     1
102
RTVSPost2010Prop29
280
     1
102
RTVSPost2010PropOp29
 70
     1
102
RTVSPost2010Prop30
280
     1
102
RTVSPost2010PropOp30
 70
     1
102
RTVSPost2010Prop31
280
     0
102
RTVSPost2010PropOp31
 70
     1
102
RTVSPost2010Prop32
280
     0
102
RTVSPost2010PropOp32
 70
     1
102
RTVSPost2010Prop33
280
     0
102
RTVSPost2010PropOp33
 70
     1
102
RTVSPost2010Prop34
280
     0
102
RTVSPost2010PropOp34
 70
     1
102
RTVSPost2010Prop35
280
     0
102
RTVSPost2010PropOp35
 70
     1
102
RTVSPost2010Prop36
280
     0
102
RTVSPost2010PropOp36
 70
     1
102
RTVSPost2010Prop37
 90
       50
102
RTVSPost2010PropOp37
 70
     1
102
RTVSPost2010Prop38
140
0.0
102
RTVSPost2010PropOp38
 70
     1
102
RTVSPost2010Prop39
140
1.0
102
RTVSPost2010PropOp39
 70
     1
102
RTVSPost2010Prop40
 90
        0
102
RTVSPost2010PropOp40
 70
     1
102
RTVSPost2010Prop41ColorIndex
 90
       18
102
RTVSPost2010Prop41ColorRGB
 90
        0
102
RTVSPost2010PropOp41
 70
     1
102
RTVSPost2010Prop42
 90
       50
102
RTVSPost2010PropOp42
 70
     1
102
RTVSPost2010Prop43
 90
        3
102
RTVSPost2010PropOp43
 70
     1
102
RTVSPost2010Prop44ColorIndex
 90
        5
102
RTVSPost2010Prop44ColorRGB
 90
      255
102
RTVSPost2010PropOp44
 70
     1
102
RTVSPost2010Prop45
280
     0
102
RTVSPost2010PropOp45
 70
     1
102
RTVSPost2010Prop46
 90
       50
102
RTVSPost2010PropOp46
 70
     1
102
RTVSPost2010Prop47
 90
       50
102
RTVSPost2010PropOp47
 70
     1
102
RTVSPost2010Prop48
 90
       50
102
RTVSPost2010PropOp48
 70
     1
102
RTVSPost2010Prop49
280
     0
102
RTVSPost2010PropOp49
 70
     1
102
RTVSPost2010Prop50
 90
       50
102
RTVSPost2010PropOp50
 70
     1
102
RTVSPost2010Prop51ColorIndex
 90
      256
102
RTVSPost2010Prop51ColorRGB
 90
-16777216
102
RTVSPost2010PropOp51
 70
     0
102
RTVSPost2010Prop52
140
1.0
102
RTVSPost2010PropOp52
 70
     0
102
RTVSPost2010Prop53
 90
        2
102
RTVSPost2010PropOp53
 70
     1
102
RTVSPost2010Prop54
  1
strokes_ogs.tif
102
RTVSPost2010PropOp54
 70
     1
102
RTVSPost2010Prop55
280
     0
102
RTVSPost2010PropOp55
 70
     1
102
RTVSPost2010Prop56
140
1.0
102
RTVSPost2010PropOp56
 70
     1
102
RTVSPost2010Prop57
140
1.0
102
RTVSPost2010PropOp57
 70
     1
  0
XRECORD
  5
321
102
{ACAD_REACTORS
330
320
102
}
330
320
100
AcDbXrecord
280
     1
102
RTVSPropertyOp0
 70
     1
102
RTVSPropertyOp1
 70
     1
102
RTVSPropertyOp2
 70
     1
102
RTVSPropertyOp3
 70
     1
102
RTVSPropertyOp4
 70
     1
102
RTVSPropertyOp5
 70
     1
102
RTVSPropertyOp6
 70
     1
102
RTVSPropertyOp7
 70
     1
102
RTVSPropertyOp8
 70
     1
102
RTVSPropertyOp9
 70
     1
102
RTVSPropertyOp10
 70
     1
102
RTVSPropertyOp11
 70
     1
102
RTVSPropertyOp12
 70
     1
102
RTVSPropertyOp13
 70
     1
102
RTVSPropertyOp14
 70
     1
102
RTVSPropertyOp15
 70
     1
102
RTVSPropertyOp16
 70
     1
102
RTVSPropertyOp17
 70
     1
102
RTVSPropertyOp18
 70
     1
102
RTVSPropertyOp19
 70
     1
102
RTVSPropertyOp20
 70
     1
102
RTVSPropertyOp21
 70
     1
102
RTVSPropertyOp22
 70
     1
102
RTVSPropertyOp23
 70
     1
102
RTVSPropertyOp24
 70
     1
102
RTVSPropertyOp25
 70
     1
102
RTVSPropertyOp26
 70
     1
102
RTVSPropertyOp27
 70
     1
102
RTVSPropertyOp28
 70
     1
102
RTVSPropertyOp29
 70
     1
102
RTVSPropertyOp30
 70
     1
102
RTVSPropertyOp31
 70
     1
102
RTVSPropertyOp32
 70
     1
102
RTVSPropertyOp33
 70
     1
102
RTVSPropertyOp34
 70
     1
102
RTVSPropertyOp35
 70
     1
102
RTVSPropertyOp36
 70
     1
102
RTVSPropertyOp37
 70
     1
102
RTVSPropertyOp38
 70
     1
102
RTVSPropertyOp39
 70
     1
102
RTVSPropertyOp40
 70
     1
102
RTVSPropertyOp41
 70
     1
102
RTVSPropertyOp42
 70
     1
102
RTVSPropertyOp43
 70
     1
102
RTVSPropertyOp44
 70
     1
102
RTVSPropertyOp45
 70
     1
102
RTVSPropertyOp46
 70
     1
102
RTVSPropertyOp47
 70
     1
102
RTVSPropertyOp48
 70
     1
102
RTVSPropertyOp49
 70
     1
102
RTVSPropertyOp50
 70
     1
102
RTVSPropertyOp51
 70
     0
102
RTVSPropertyOp52
 70
     0
102
RTVSPropertyOp53
 70
     1
102
RTVSPropertyOp54
 70
     1
102
RTVSPropertyOp55
 70
     1
102
RTVSPropertyOp56
 70
     1
102
RTVSPropertyOp57
 70
     1
102
RTVSPost2010Prop28
280
     0
102
RTVSPost2010PropOp28
 70
     1
102
RTVSPost2010Prop29
280
     1
102
RTVSPost2010PropOp29
 70
     1
102
RTVSPost2010Prop30
280
     1
102
RTVSPost2010PropOp30
 70
     1
102
RTVSPost2010Prop31
280
     0
102
RTVSPost2010PropOp31
 70
     1
102
RTVSPost2010Prop32
280
     0
102
RTVSPost2010PropOp32
 70
     1
102
RTVSPost2010Prop33
280
     0
102
RTVSPost2010PropOp33
 70
     1
102
RTVSPost2010Prop34
280
     0
102
RTVSPost2010PropOp34
 70
     1
102
RTVSPost2010Prop35
280
     0
102
RTVSPost2010PropOp35
 70
     1
102
RTVSPost2010Prop36
280
     0
102
RTVSPost2010PropOp36
 70
     1
102
RTVSPost2010Prop37
 90
       50
102
RTVSPost2010PropOp37
 70
     1
102
RTVSPost2010Prop38
140
0.0
102
RTVSPost2010PropOp38
 70
     1
102
RTVSPost2010Prop39
140
1.0
102
RTVSPost2010PropOp39
 70
     1
102
RTVSPost2010Prop40
 90
        0
102
RTVSPost2010PropOp40
 70
     1
102
RTVSPost2010Prop41ColorIndex
 90
       18
102
RTVSPost2010Prop41ColorRGB
 90
        0
102
RTVSPost2010PropOp41
 70
     1
102
RTVSPost2010Prop42
 90
       50
102
RTVSPost2010PropOp42
 70
     1
102
RTVSPost2010Prop43
 90
        3
102
RTVSPost2010PropOp43
 70
     1
102
RTVSPost2010Prop44ColorIndex
 90
        5
102
RTVSPost2010Prop44ColorRGB
 90
      255
102
RTVSPost2010PropOp44
 70
     1
102
RTVSPost2010Prop45
280
     0
102
RTVSPost2010PropOp45
 70
     1
102
RTVSPost2010Prop46
 90
       50
102
RTVSPost2010PropOp46
 70
     1
102
RTVSPost2010Prop47
 90
       50
102
RTVSPost2010PropOp47
 70
     1
102
RTVSPost2010Prop48
 90
       50
102
RTVSPost2010PropOp48
 70
     1
102
RTVSPost2010Prop49
280
     0
102
RTVSPost2010PropOp49
 70
     1
102
RTVSPost2010Prop50
 90
       50
102
RTVSPost2010PropOp50
 70
     1
102
RTVSPost2010Prop51ColorIndex
 90
      256
102
RTVSPost2010Prop51ColorRGB
 90
-16777216
102
RTVSPost2010PropOp51
 70
     0
102
RTVSPost2010Prop52
140
1.0
102
RTVSPost2010PropOp52
 70
     0
102
RTVSPost2010Prop53
 90
        2
102
RTVSPost2010PropOp53
 70
     1
102
RTVSPost2010Prop54
  1
strokes_ogs.tif
102
RTVSPost2010PropOp54
 70
     1
102
RTVSPost2010Prop55
280
     0
102
RTVSPost2010PropOp55
 70
     1
102
RTVSPost2010Prop56
140
1.0
102
RTVSPost2010PropOp56
 70
     1
102
RTVSPost2010Prop57
140
1.0
102
RTVSPost2010PropOp57
 70
     1
  0
XRECORD
  5
329
102
{ACAD_REACTORS
330
328
102
}
330
328
100
AcDbXrecord
280
     1
102
RTVSPropertyOp0
 70
     1
102
RTVSPropertyOp1
 70
     1
102
RTVSPropertyOp2
 70
     1
102
RTVSPropertyOp3
 70
     1
102
RTVSPropertyOp4
 70
     1
102
RTVSPropertyOp5
 70
     1
102
RTVSPropertyOp6
 70
     1
102
RTVSPropertyOp7
 70
     1
102
RTVSPropertyOp8
 70
     1
102
RTVSPropertyOp9
 70
     1
102
RTVSPropertyOp10
 70
     1
102
RTVSPropertyOp11
 70
     1
102
RTVSPropertyOp12
 70
     1
102
RTVSPropertyOp13
 70
     1
102
RTVSPropertyOp14
 70
     1
102
RTVSPropertyOp15
 70
     1
102
RTVSPropertyOp16
 70
     1
102
RTVSPropertyOp17
 70
     1
102
RTVSPropertyOp18
 70
     1
102
RTVSPropertyOp19
 70
     1
102
RTVSPropertyOp20
 70
     1
102
RTVSPropertyOp21
 70
     1
102
RTVSPropertyOp22
 70
     1
102
RTVSPropertyOp23
 70
     1
102
RTVSPropertyOp24
 70
     1
102
RTVSPropertyOp25
 70
     1
102
RTVSPropertyOp26
 70
     1
102
RTVSPropertyOp27
 70
     1
102
RTVSPropertyOp28
 70
     1
102
RTVSPropertyOp29
 70
     1
102
RTVSPropertyOp30
 70
     1
102
RTVSPropertyOp31
 70
     1
102
RTVSPropertyOp32
 70
     1
102
RTVSPropertyOp33
 70
     1
102
RTVSPropertyOp34
 70
     1
102
RTVSPropertyOp35
 70
     1
102
RTVSPropertyOp36
 70
     1
102
RTVSPropertyOp37
 70
     1
102
RTVSPropertyOp38
 70
     1
102
RTVSPropertyOp39
 70
     1
102
RTVSPropertyOp40
 70
     1
102
RTVSPropertyOp41
 70
     1
102
RTVSPropertyOp42
 70
     1
102
RTVSPropertyOp43
 70
     1
102
RTVSPropertyOp44
 70
     1
102
RTVSPropertyOp45
 70
     1
102
RTVSPropertyOp46
 70
     1
102
RTVSPropertyOp47
 70
     1
102
RTVSPropertyOp48
 70
     1
102
RTVSPropertyOp49
 70
     1
102
RTVSPropertyOp50
 70
     1
102
RTVSPropertyOp51
 70
     0
102
RTVSPropertyOp52
 70
     0
102
RTVSPropertyOp53
 70
     1
102
RTVSPropertyOp54
 70
     1
102
RTVSPropertyOp55
 70
     1
102
RTVSPropertyOp56
 70
     1
102
RTVSPropertyOp57
 70
     1
102
RTVSPost2010Prop28
280
     0
102
RTVSPost2010PropOp28
 70
     1
102
RTVSPost2010Prop29
280
     1
102
RTVSPost2010PropOp29
 70
     1
102
RTVSPost2010Prop30
280
     1
102
RTVSPost2010PropOp30
 70
     1
102
RTVSPost2010Prop31
280
     0
102
RTVSPost2010PropOp31
 70
     1
102
RTVSPost2010Prop32
280
     0
102
RTVSPost2010PropOp32
 70
     1
102
RTVSPost2010Prop33
280
     0
102
RTVSPost2010PropOp33
 70
     1
102
RTVSPost2010Prop34
280
     0
102
RTVSPost2010PropOp34
 70
     1
102
RTVSPost2010Prop35
280
     0
102
RTVSPost2010PropOp35
 70
     1
102
RTVSPost2010Prop36
280
     0
102
RTVSPost2010PropOp36
 70
     1
102
RTVSPost2010Prop37
 90
       50
102
RTVSPost2010PropOp37
 70
     1
102
RTVSPost2010Prop38
140
0.0
102
RTVSPost2010PropOp38
 70
     1
102
RTVSPost2010Prop39
140
1.0
102
RTVSPost2010PropOp39
 70
     1
102
RTVSPost2010Prop40
 90
        0
102
RTVSPost2010PropOp40
 70
     1
102
RTVSPost2010Prop41ColorIndex
 90
       18
102
RTVSPost2010Prop41ColorRGB
 90
        0
102
RTVSPost2010PropOp41
 70
     1
102
RTVSPost2010Prop42
 90
       50
102
RTVSPost2010PropOp42
 70
     1
102
RTVSPost2010Prop43
 90
        3
102
RTVSPost2010PropOp43
 70
     1
102
RTVSPost2010Prop44ColorIndex
 90
        5
102
RTVSPost2010Prop44ColorRGB
 90
      255
102
RTVSPost2010PropOp44
 70
     1
102
RTVSPost2010Prop45
280
     0
102
RTVSPost2010PropOp45
 70
     1
102
RTVSPost2010Prop46
 90
       50
102
RTVSPost2010PropOp46
 70
     1
102
RTVSPost2010Prop47
 90
       50
102
RTVSPost2010PropOp47
 70
     1
102
RTVSPost2010Prop48
 90
       50
102
RTVSPost2010PropOp48
 70
     1
102
RTVSPost2010Prop49
280
     0
102
RTVSPost2010PropOp49
 70
     1
102
RTVSPost2010Prop50
 90
       50
102
RTVSPost2010PropOp50
 70
     1
102
RTVSPost2010Prop51ColorIndex
 90
      256
102
RTVSPost2010Prop51ColorRGB
 90
-16777216
102
RTVSPost2010PropOp51
 70
     0
102
RTVSPost2010Prop52
140
1.0
102
RTVSPost2010PropOp52
 70
     0
102
RTVSPost2010Prop53
 90
        2
102
RTVSPost2010PropOp53
 70
     1
102
RTVSPost2010Prop54
  1
strokes_ogs.tif
102
RTVSPost2010PropOp54
 70
     1
102
RTVSPost2010Prop55
280
     0
102
RTVSPost2010PropOp55
 70
     1
102
RTVSPost2010Prop56
140
1.0
102
RTVSPost2010PropOp56
 70
     1
102
RTVSPost2010Prop57
140
1.0
102
RTVSPost2010PropOp57
 70
     1
  0
XRECORD
  5
31D
102
{ACAD_REACTORS
330
31C
102
}
330
31C
100
AcDbXrecord
280
     1
102
RTVSPropertyOp0
 70
     1
102
RTVSPropertyOp1
 70
     1
102
RTVSPropertyOp2
 70
     1
102
RTVSPropertyOp3
 70
     1
102
RTVSPropertyOp4
 70
     1
102
RTVSPropertyOp5
 70
     1
102
RTVSPropertyOp6
 70
     1
102
RTVSPropertyOp7
 70
     1
102
RTVSPropertyOp8
 70
     1
102
RTVSPropertyOp9
 70
     1
102
RTVSPropertyOp10
 70
     1
102
RTVSPropertyOp11
 70
     1
102
RTVSPropertyOp12
 70
     1
102
RTVSPropertyOp13
 70
     1
102
RTVSPropertyOp14
 70
     1
102
RTVSPropertyOp15
 70
     1
102
RTVSPropertyOp16
 70
     1
102
RTVSPropertyOp17
 70
     1
102
RTVSPropertyOp18
 70
     1
102
RTVSPropertyOp19
 70
     1
102
RTVSPropertyOp20
 70
     1
102
RTVSPropertyOp21
 70
     1
102
RTVSPropertyOp22
 70
     1
102
RTVSPropertyOp23
 70
     1
102
RTVSPropertyOp24
 70
     1
102
RTVSPropertyOp25
 70
     1
102
RTVSPropertyOp26
 70
     1
102
RTVSPropertyOp27
 70
     1
102
RTVSPropertyOp28
 70
     1
102
RTVSPropertyOp29
 70
     1
102
RTVSPropertyOp30
 70
     1
102
RTVSPropertyOp31
 70
     1
102
RTVSPropertyOp32
 70
     1
102
RTVSPropertyOp33
 70
     1
102
RTVSPropertyOp34
 70
     1
102
RTVSPropertyOp35
 70
     1
102
RTVSPropertyOp36
 70
     1
102
RTVSPropertyOp37
 70
     1
102
RTVSPropertyOp38
 70
     1
102
RTVSPropertyOp39
 70
     1
102
RTVSPropertyOp40
 70
     1
102
RTVSPropertyOp41
 70
     1
102
RTVSPropertyOp42
 70
     1
102
RTVSPropertyOp43
 70
     1
102
RTVSPropertyOp44
 70
     1
102
RTVSPropertyOp45
 70
     1
102
RTVSPropertyOp46
 70
     1
102
RTVSPropertyOp47
 70
     1
102
RTVSPropertyOp48
 70
     1
102
RTVSPropertyOp49
 70
     1
102
RTVSPropertyOp50
 70
     1
102
RTVSPropertyOp51
 70
     0
102
RTVSPropertyOp52
 70
     0
102
RTVSPropertyOp53
 70
     1
102
RTVSPropertyOp54
 70
     1
102
RTVSPropertyOp55
 70
     1
102
RTVSPropertyOp56
 70
     1
102
RTVSPropertyOp57
 70
     1
102
RTVSPost2010Prop28
280
     0
102
RTVSPost2010PropOp28
 70
     1
102
RTVSPost2010Prop29
280
     1
102
RTVSPost2010PropOp29
 70
     1
102
RTVSPost2010Prop30
280
     1
102
RTVSPost2010PropOp30
 70
     1
102
RTVSPost2010Prop31
280
     0
102
RTVSPost2010PropOp31
 70
     1
102
RTVSPost2010Prop32
280
     0
102
RTVSPost2010PropOp32
 70
     1
102
RTVSPost2010Prop33
280
     0
102
RTVSPost2010PropOp33
 70
     1
102
RTVSPost2010Prop34
280
     0
102
RTVSPost2010PropOp34
 70
     1
102
RTVSPost2010Prop35
280
     0
102
RTVSPost2010PropOp35
 70
     1
102
RTVSPost2010Prop36
280
     0
102
RTVSPost2010PropOp36
 70
     1
102
RTVSPost2010Prop37
 90
       50
102
RTVSPost2010PropOp37
 70
     1
102
RTVSPost2010Prop38
140
0.0
102
RTVSPost2010PropOp38
 70
     1
102
RTVSPost2010Prop39
140
1.0
102
RTVSPost2010PropOp39
 70
     1
102
RTVSPost2010Prop40
 90
        0
102
RTVSPost2010PropOp40
 70
     1
102
RTVSPost2010Prop41ColorIndex
 90
       18
102
RTVSPost2010Prop41ColorRGB
 90
        0
102
RTVSPost2010PropOp41
 70
     1
102
RTVSPost2010Prop42
 90
       50
102
RTVSPost2010PropOp42
 70
     1
102
RTVSPost2010Prop43
 90
        3
102
RTVSPost2010PropOp43
 70
     1
102
RTVSPost2010Prop44ColorIndex
 90
        5
102
RTVSPost2010Prop44ColorRGB
 90
      255
102
RTVSPost2010PropOp44
 70
     1
102
RTVSPost2010Prop45
280
     0
102
RTVSPost2010PropOp45
 70
     1
102
RTVSPost2010Prop46
 90
       50
102
RTVSPost2010PropOp46
 70
     1
102
RTVSPost2010Prop47
 90
       50
102
RTVSPost2010PropOp47
 70
     1
102
RTVSPost2010Prop48
 90
       50
102
RTVSPost2010PropOp48
 70
     1
102
RTVSPost2010Prop49
280
     0
102
RTVSPost2010PropOp49
 70
     1
102
RTVSPost2010Prop50
 90
       50
102
RTVSPost2010PropOp50
 70
     1
102
RTVSPost2010Prop51ColorIndex
 90
      256
102
RTVSPost2010Prop51ColorRGB
 90
-16777216
102
RTVSPost2010PropOp51
 70
     0
102
RTVSPost2010Prop52
140
1.0
102
RTVSPost2010PropOp52
 70
     0
102
RTVSPost2010Prop53
 90
        2
102
RTVSPost2010PropOp53
 70
     1
102
RTVSPost2010Prop54
  1
strokes_ogs.tif
102
RTVSPost2010PropOp54
 70
     1
102
RTVSPost2010Prop55
280
     0
102
RTVSPost2010PropOp55
 70
     1
102
RTVSPost2010Prop56
140
1.0
102
RTVSPost2010PropOp56
 70
     1
102
RTVSPost2010Prop57
140
1.0
102
RTVSPost2010PropOp57
 70
     1
  0
XRECORD
  5
31F
102
{ACAD_REACTORS
330
31E
102
}
330
31E
100
AcDbXrecord
280
     1
102
RTVSPropertyOp0
 70
     1
102
RTVSPropertyOp1
 70
     1
102
RTVSPropertyOp2
 70
     1
102
RTVSPropertyOp3
 70
     1
102
RTVSPropertyOp4
 70
     1
102
RTVSPropertyOp5
 70
     1
102
RTVSPropertyOp6
 70
     1
102
RTVSPropertyOp7
 70
     1
102
RTVSPropertyOp8
 70
     1
102
RTVSPropertyOp9
 70
     1
102
RTVSPropertyOp10
 70
     1
102
RTVSPropertyOp11
 70
     1
102
RTVSPropertyOp12
 70
     1
102
RTVSPropertyOp13
 70
     1
102
RTVSPropertyOp14
 70
     1
102
RTVSPropertyOp15
 70
     1
102
RTVSPropertyOp16
 70
     1
102
RTVSPropertyOp17
 70
     1
102
RTVSPropertyOp18
 70
     1
102
RTVSPropertyOp19
 70
     1
102
RTVSPropertyOp20
 70
     1
102
RTVSPropertyOp21
 70
     1
102
RTVSPropertyOp22
 70
     1
102
RTVSPropertyOp23
 70
     1
102
RTVSPropertyOp24
 70
     1
102
RTVSPropertyOp25
 70
     1
102
RTVSPropertyOp26
 70
     1
102
RTVSPropertyOp27
 70
     1
102
RTVSPropertyOp28
 70
     1
102
RTVSPropertyOp29
 70
     1
102
RTVSPropertyOp30
 70
     1
102
RTVSPropertyOp31
 70
     1
102
RTVSPropertyOp32
 70
     1
102
RTVSPropertyOp33
 70
     1
102
RTVSPropertyOp34
 70
     1
102
RTVSPropertyOp35
 70
     1
102
RTVSPropertyOp36
 70
     1
102
RTVSPropertyOp37
 70
     1
102
RTVSPropertyOp38
 70
     1
102
RTVSPropertyOp39
 70
     1
102
RTVSPropertyOp40
 70
     1
102
RTVSPropertyOp41
 70
     1
102
RTVSPropertyOp42
 70
     1
102
RTVSPropertyOp43
 70
     1
102
RTVSPropertyOp44
 70
     1
102
RTVSPropertyOp45
 70
     1
102
RTVSPropertyOp46
 70
     1
102
RTVSPropertyOp47
 70
     1
102
RTVSPropertyOp48
 70
     1
102
RTVSPropertyOp49
 70
     1
102
RTVSPropertyOp50
 70
     1
102
RTVSPropertyOp51
 70
     0
102
RTVSPropertyOp52
 70
     0
102
RTVSPropertyOp53
 70
     1
102
RTVSPropertyOp54
 70
     1
102
RTVSPropertyOp55
 70
     1
102
RTVSPropertyOp56
 70
     1
102
RTVSPropertyOp57
 70
     1
102
RTVSPost2010Prop28
280
     0
102
RTVSPost2010PropOp28
 70
     1
102
RTVSPost2010Prop29
280
     1
102
RTVSPost2010PropOp29
 70
     1
102
RTVSPost2010Prop30
280
     1
102
RTVSPost2010PropOp30
 70
     1
102
RTVSPost2010Prop31
280
     0
102
RTVSPost2010PropOp31
 70
     1
102
RTVSPost2010Prop32
280
     0
102
RTVSPost2010PropOp32
 70
     1
102
RTVSPost2010Prop33
280
     0
102
RTVSPost2010PropOp33
 70
     1
102
RTVSPost2010Prop34
280
     0
102
RTVSPost2010PropOp34
 70
     1
102
RTVSPost2010Prop35
280
     0
102
RTVSPost2010PropOp35
 70
     1
102
RTVSPost2010Prop36
280
     0
102
RTVSPost2010PropOp36
 70
     1
102
RTVSPost2010Prop37
 90
       50
102
RTVSPost2010PropOp37
 70
     1
102
RTVSPost2010Prop38
140
0.0
102
RTVSPost2010PropOp38
 70
     1
102
RTVSPost2010Prop39
140
1.0
102
RTVSPost2010PropOp39
 70
     1
102
RTVSPost2010Prop40
 90
        0
102
RTVSPost2010PropOp40
 70
     1
102
RTVSPost2010Prop41ColorIndex
 90
       18
102
RTVSPost2010Prop41ColorRGB
 90
        0
102
RTVSPost2010PropOp41
 70
     1
102
RTVSPost2010Prop42
 90
       50
102
RTVSPost2010PropOp42
 70
     1
102
RTVSPost2010Prop43
 90
        3
102
RTVSPost2010PropOp43
 70
     1
102
RTVSPost2010Prop44ColorIndex
 90
        5
102
RTVSPost2010Prop44ColorRGB
 90
      255
102
RTVSPost2010PropOp44
 70
     1
102
RTVSPost2010Prop45
280
     0
102
RTVSPost2010PropOp45
 70
     1
102
RTVSPost2010Prop46
 90
       50
102
RTVSPost2010PropOp46
 70
     1
102
RTVSPost2010Prop47
 90
       50
102
RTVSPost2010PropOp47
 70
     1
102
RTVSPost2010Prop48
 90
       50
102
RTVSPost2010PropOp48
 70
     1
102
RTVSPost2010Prop49
280
     0
102
RTVSPost2010PropOp49
 70
     1
102
RTVSPost2010Prop50
 90
       50
102
RTVSPost2010PropOp50
 70
     1
102
RTVSPost2010Prop51ColorIndex
 90
      256
102
RTVSPost2010Prop51ColorRGB
 90
-16777216
102
RTVSPost2010PropOp51
 70
     0
102
RTVSPost2010Prop52
140
1.0
102
RTVSPost2010PropOp52
 70
     0
102
RTVSPost2010Prop53
 90
        2
102
RTVSPost2010PropOp53
 70
     1
102
RTVSPost2010Prop54
  1
strokes_ogs.tif
102
RTVSPost2010PropOp54
 70
     1
102
RTVSPost2010Prop55
280
     0
102
RTVSPost2010PropOp55
 70
     1
102
RTVSPost2010Prop56
140
1.0
102
RTVSPost2010PropOp56
 70
     1
102
RTVSPost2010Prop57
140
1.0
102
RTVSPost2010PropOp57
 70
     1
  0
XRECORD
  5
32F
102
{ACAD_REACTORS
330
32E
102
}
330
32E
100
AcDbXrecord
280
     1
102
RTVSPropertyOp0
 70
     0
102
RTVSPropertyOp1
 70
     0
102
RTVSPropertyOp2
 70
     0
102
RTVSPropertyOp3
 70
     0
102
RTVSPropertyOp4
 70
     0
102
RTVSPropertyOp5
 70
     0
102
RTVSPropertyOp6
 70
     0
102
RTVSPropertyOp7
 70
     0
102
RTVSPropertyOp8
 70
     0
102
RTVSPropertyOp9
 70
     0
102
RTVSPropertyOp10
 70
     0
102
RTVSPropertyOp11
 70
     0
102
RTVSPropertyOp12
 70
     0
102
RTVSPropertyOp13
 70
     0
102
RTVSPropertyOp14
 70
     2
102
RTVSPropertyOp15
 70
     0
102
RTVSPropertyOp16
 70
     0
102
RTVSPropertyOp17
 70
     0
102
RTVSPropertyOp18
 70
     0
102
RTVSPropertyOp19
 70
     0
102
RTVSPropertyOp20
 70
     0
102
RTVSPropertyOp21
 70
     0
102
RTVSPropertyOp22
 70
     0
102
RTVSPropertyOp23
 70
     0
102
RTVSPropertyOp24
 70
     0
102
RTVSPropertyOp25
 70
     0
102
RTVSPropertyOp26
 70
     0
102
RTVSPropertyOp27
 70
     0
102
RTVSPropertyOp28
 70
     0
102
RTVSPropertyOp29
 70
     0
102
RTVSPropertyOp30
 70
     0
102
RTVSPropertyOp31
 70
     0
102
RTVSPropertyOp32
 70
     0
102
RTVSPropertyOp33
 70
     0
102
RTVSPropertyOp34
 70
     0
102
RTVSPropertyOp35
 70
     0
102
RTVSPropertyOp36
 70
     0
102
RTVSPropertyOp37
 70
     0
102
RTVSPropertyOp38
 70
     0
102
RTVSPropertyOp39
 70
     0
102
RTVSPropertyOp40
 70
     0
102
RTVSPropertyOp41
 70
     0
102
RTVSPropertyOp42
 70
     0
102
RTVSPropertyOp43
 70
     0
102
RTVSPropertyOp44
 70
     0
102
RTVSPropertyOp45
 70
     0
102
RTVSPropertyOp46
 70
     0
102
RTVSPropertyOp47
 70
     0
102
RTVSPropertyOp48
 70
     0
102
RTVSPropertyOp49
 70
     0
102
RTVSPropertyOp50
 70
     0
102
RTVSPropertyOp51
 70
     0
102
RTVSPropertyOp52
 70
     0
102
RTVSPropertyOp53
 70
     0
102
RTVSPropertyOp54
 70
     0
102
RTVSPropertyOp55
 70
     0
102
RTVSPropertyOp56
 70
     0
102
RTVSPropertyOp57
 70
     0
102
RTVSPost2010Prop28
280
     0
102
RTVSPost2010PropOp28
 70
     0
102
RTVSPost2010Prop29
280
     1
102
RTVSPost2010PropOp29
 70
     0
102
RTVSPost2010Prop30
280
     1
102
RTVSPost2010PropOp30
 70
     0
102
RTVSPost2010Prop31
280
     0
102
RTVSPost2010PropOp31
 70
     0
102
RTVSPost2010Prop32
280
     0
102
RTVSPost2010PropOp32
 70
     0
102
RTVSPost2010Prop33
280
     0
102
RTVSPost2010PropOp33
 70
     0
102
RTVSPost2010Prop34
280
     0
102
RTVSPost2010PropOp34
 70
     0
102
RTVSPost2010Prop35
280
     0
102
RTVSPost2010PropOp35
 70
     0
102
RTVSPost2010Prop36
280
     0
102
RTVSPost2010PropOp36
 70
     0
102
RTVSPost2010Prop37
 90
       50
102
RTVSPost2010PropOp37
 70
     0
102
RTVSPost2010Prop38
140
0.0
102
RTVSPost2010PropOp38
 70
     0
102
RTVSPost2010Prop39
140
1.0
102
RTVSPost2010PropOp39
 70
     0
102
RTVSPost2010Prop40
 90
        0
102
RTVSPost2010PropOp40
 70
     0
102
RTVSPost2010Prop41ColorIndex
 90
       18
102
RTVSPost2010Prop41ColorRGB
 90
        0
102
RTVSPost2010PropOp41
 70
     0
102
RTVSPost2010Prop42
 90
       50
102
RTVSPost2010PropOp42
 70
     0
102
RTVSPost2010Prop43
 90
        3
102
RTVSPost2010PropOp43
 70
     0
102
RTVSPost2010Prop44ColorIndex
 90
        5
102
RTVSPost2010Prop44ColorRGB
 90
      255
102
RTVSPost2010PropOp44
 70
     0
102
RTVSPost2010Prop45
280
     0
102
RTVSPost2010PropOp45
 70
     0
102
RTVSPost2010Prop46
 90
       50
102
RTVSPost2010PropOp46
 70
     0
102
RTVSPost2010Prop47
 90
       50
102
RTVSPost2010PropOp47
 70
     0
102
RTVSPost2010Prop48
 90
       50
102
RTVSPost2010PropOp48
 70
     0
102
RTVSPost2010Prop49
280
     0
102
RTVSPost2010PropOp49
 70
     0
102
RTVSPost2010Prop50
 90
       50
102
RTVSPost2010PropOp50
 70
     0
102
RTVSPost2010Prop51ColorIndex
 90
      256
102
RTVSPost2010Prop51ColorRGB
 90
-16777216
102
RTVSPost2010PropOp51
 70
     0
102
RTVSPost2010Prop52
140
1.0
102
RTVSPost2010PropOp52
 70
     0
102
RTVSPost2010Prop53
 90
        2
102
RTVSPost2010PropOp53
 70
     0
102
RTVSPost2010Prop54
  1
strokes_ogs.tif
102
RTVSPost2010PropOp54
 70
     0
102
RTVSPost2010Prop55
280
     0
102
RTVSPost2010PropOp55
 70
     0
102
RTVSPost2010Prop56
140
1.0
102
RTVSPost2010PropOp56
 70
     0
102
RTVSPost2010Prop57
140
1.0
102
RTVSPost2010PropOp57
 70
     0
  0
XRECORD
  5
327
102
{ACAD_REACTORS
330
326
102
}
330
326
100
AcDbXrecord
280
     1
102
RTVSPropertyOp0
 70
     1
102
RTVSPropertyOp1
 70
     1
102
RTVSPropertyOp2
 70
     1
102
RTVSPropertyOp3
 70
     1
102
RTVSPropertyOp4
 70
     1
102
RTVSPropertyOp5
 70
     1
102
RTVSPropertyOp6
 70
     1
102
RTVSPropertyOp7
 70
     1
102
RTVSPropertyOp8
 70
     1
102
RTVSPropertyOp9
 70
     1
102
RTVSPropertyOp10
 70
     1
102
RTVSPropertyOp11
 70
     1
102
RTVSPropertyOp12
 70
     1
102
RTVSPropertyOp13
 70
     1
102
RTVSPropertyOp14
 70
     1
102
RTVSPropertyOp15
 70
     1
102
RTVSPropertyOp16
 70
     1
102
RTVSPropertyOp17
 70
     1
102
RTVSPropertyOp18
 70
     1
102
RTVSPropertyOp19
 70
     1
102
RTVSPropertyOp20
 70
     1
102
RTVSPropertyOp21
 70
     1
102
RTVSPropertyOp22
 70
     1
102
RTVSPropertyOp23
 70
     1
102
RTVSPropertyOp24
 70
     1
102
RTVSPropertyOp25
 70
     1
102
RTVSPropertyOp26
 70
     1
102
RTVSPropertyOp27
 70
     1
102
RTVSPropertyOp28
 70
     1
102
RTVSPropertyOp29
 70
     1
102
RTVSPropertyOp30
 70
     1
102
RTVSPropertyOp31
 70
     1
102
RTVSPropertyOp32
 70
     1
102
RTVSPropertyOp33
 70
     1
102
RTVSPropertyOp34
 70
     1
102
RTVSPropertyOp35
 70
     1
102
RTVSPropertyOp36
 70
     1
102
RTVSPropertyOp37
 70
     1
102
RTVSPropertyOp38
 70
     1
102
RTVSPropertyOp39
 70
     1
102
RTVSPropertyOp40
 70
     1
102
RTVSPropertyOp41
 70
     1
102
RTVSPropertyOp42
 70
     1
102
RTVSPropertyOp43
 70
     1
102
RTVSPropertyOp44
 70
     1
102
RTVSPropertyOp45
 70
     1
102
RTVSPropertyOp46
 70
     1
102
RTVSPropertyOp47
 70
     1
102
RTVSPropertyOp48
 70
     1
102
RTVSPropertyOp49
 70
     1
102
RTVSPropertyOp50
 70
     1
102
RTVSPropertyOp51
 70
     0
102
RTVSPropertyOp52
 70
     0
102
RTVSPropertyOp53
 70
     1
102
RTVSPropertyOp54
 70
     1
102
RTVSPropertyOp55
 70
     1
102
RTVSPropertyOp56
 70
     1
102
RTVSPropertyOp57
 70
     1
102
RTVSPost2010Prop28
280
     0
102
RTVSPost2010PropOp28
 70
     1
102
RTVSPost2010Prop29
280
     1
102
RTVSPost2010PropOp29
 70
     1
102
RTVSPost2010Prop30
280
     1
102
RTVSPost2010PropOp30
 70
     1
102
RTVSPost2010Prop31
280
     0
102
RTVSPost2010PropOp31
 70
     1
102
RTVSPost2010Prop32
280
     0
102
RTVSPost2010PropOp32
 70
     1
102
RTVSPost2010Prop33
280
     0
102
RTVSPost2010PropOp33
 70
     1
102
RTVSPost2010Prop34
280
     0
102
RTVSPost2010PropOp34
 70
     1
102
RTVSPost2010Prop35
280
     0
102
RTVSPost2010PropOp35
 70
     1
102
RTVSPost2010Prop36
280
     0
102
RTVSPost2010PropOp36
 70
     1
102
RTVSPost2010Prop37
 90
       50
102
RTVSPost2010PropOp37
 70
     1
102
RTVSPost2010Prop38
140
0.0
102
RTVSPost2010PropOp38
 70
     1
102
RTVSPost2010Prop39
140
1.0
102
RTVSPost2010PropOp39
 70
     1
102
RTVSPost2010Prop40
 90
        0
102
RTVSPost2010PropOp40
 70
     1
102
RTVSPost2010Prop41ColorIndex
 90
       18
102
RTVSPost2010Prop41ColorRGB
 90
        0
102
RTVSPost2010PropOp41
 70
     1
102
RTVSPost2010Prop42
 90
       50
102
RTVSPost2010PropOp42
 70
     1
102
RTVSPost2010Prop43
 90
        3
102
RTVSPost2010PropOp43
 70
     1
102
RTVSPost2010Prop44ColorIndex
 90
        5
102
RTVSPost2010Prop44ColorRGB
 90
      255
102
RTVSPost2010PropOp44
 70
     1
102
RTVSPost2010Prop45
280
     0
102
RTVSPost2010PropOp45
 70
     1
102
RTVSPost2010Prop46
 90
       50
102
RTVSPost2010PropOp46
 70
     1
102
RTVSPost2010Prop47
 90
       50
102
RTVSPost2010PropOp47
 70
     1
102
RTVSPost2010Prop48
 90
       50
102
RTVSPost2010PropOp48
 70
     1
102
RTVSPost2010Prop49
280
     0
102
RTVSPost2010PropOp49
 70
     1
102
RTVSPost2010Prop50
 90
       50
102
RTVSPost2010PropOp50
 70
     1
102
RTVSPost2010Prop51ColorIndex
 90
      256
102
RTVSPost2010Prop51ColorRGB
 90
-16777216
102
RTVSPost2010PropOp51
 70
     0
102
RTVSPost2010Prop52
140
1.0
102
RTVSPost2010PropOp52
 70
     0
102
RTVSPost2010Prop53
 90
        2
102
RTVSPost2010PropOp53
 70
     1
102
RTVSPost2010Prop54
  1
strokes_ogs.tif
102
RTVSPost2010PropOp54
 70
     1
102
RTVSPost2010Prop55
280
     0
102
RTVSPost2010PropOp55
 70
     1
102
RTVSPost2010Prop56
140
1.0
102
RTVSPost2010PropOp56
 70
     1
102
RTVSPost2010Prop57
140
1.0
102
RTVSPost2010PropOp57
 70
     1
  0
XRECORD
  5
30B
102
{ACAD_REACTORS
330
30A
102
}
330
30A
100
AcDbXrecord
280
     1
102
RTVSPropertyOp0
 70
     1
102
RTVSPropertyOp1
 70
     1
102
RTVSPropertyOp2
 70
     1
102
RTVSPropertyOp3
 70
     1
102
RTVSPropertyOp4
 70
     1
102
RTVSPropertyOp5
 70
     1
102
RTVSPropertyOp6
 70
     1
102
RTVSPropertyOp7
 70
     1
102
RTVSPropertyOp8
 70
     1
102
RTVSPropertyOp9
 70
     1
102
RTVSPropertyOp10
 70
     1
102
RTVSPropertyOp11
 70
     1
102
RTVSPropertyOp12
 70
     1
102
RTVSPropertyOp13
 70
     1
102
RTVSPropertyOp14
 70
     1
102
RTVSPropertyOp15
 70
     1
102
RTVSPropertyOp16
 70
     1
102
RTVSPropertyOp17
 70
     1
102
RTVSPropertyOp18
 70
     1
102
RTVSPropertyOp19
 70
     1
102
RTVSPropertyOp20
 70
     1
102
RTVSPropertyOp21
 70
     1
102
RTVSPropertyOp22
 70
     1
102
RTVSPropertyOp23
 70
     1
102
RTVSPropertyOp24
 70
     1
102
RTVSPropertyOp25
 70
     1
102
RTVSPropertyOp26
 70
     1
102
RTVSPropertyOp27
 70
     1
102
RTVSPropertyOp28
 70
     1
102
RTVSPropertyOp29
 70
     1
102
RTVSPropertyOp30
 70
     1
102
RTVSPropertyOp31
 70
     1
102
RTVSPropertyOp32
 70
     1
102
RTVSPropertyOp33
 70
     1
102
RTVSPropertyOp34
 70
     1
102
RTVSPropertyOp35
 70
     1
102
RTVSPropertyOp36
 70
     1
102
RTVSPropertyOp37
 70
     1
102
RTVSPropertyOp38
 70
     1
102
RTVSPropertyOp39
 70
     1
102
RTVSPropertyOp40
 70
     1
102
RTVSPropertyOp41
 70
     1
102
RTVSPropertyOp42
 70
     1
102
RTVSPropertyOp43
 70
     1
102
RTVSPropertyOp44
 70
     1
102
RTVSPropertyOp45
 70
     1
102
RTVSPropertyOp46
 70
     1
102
RTVSPropertyOp47
 70
     1
102
RTVSPropertyOp48
 70
     1
102
RTVSPropertyOp49
 70
     1
102
RTVSPropertyOp50
 70
     1
102
RTVSPropertyOp51
 70
     0
102
RTVSPropertyOp52
 70
     0
102
RTVSPropertyOp53
 70
     1
102
RTVSPropertyOp54
 70
     1
102
RTVSPropertyOp55
 70
     1
102
RTVSPropertyOp56
 70
     1
102
RTVSPropertyOp57
 70
     1
102
RTVSPost2010Prop28
280
     0
102
RTVSPost2010PropOp28
 70
     1
102
RTVSPost2010Prop29
280
     1
102
RTVSPost2010PropOp29
 70
     1
102
RTVSPost2010Prop30
280
     1
102
RTVSPost2010PropOp30
 70
     1
102
RTVSPost2010Prop31
280
     0
102
RTVSPost2010PropOp31
 70
     1
102
RTVSPost2010Prop32
280
     0
102
RTVSPost2010PropOp32
 70
     1
102
RTVSPost2010Prop33
280
     0
102
RTVSPost2010PropOp33
 70
     1
102
RTVSPost2010Prop34
280
     0
102
RTVSPost2010PropOp34
 70
     1
102
RTVSPost2010Prop35
280
     0
102
RTVSPost2010PropOp35
 70
     1
102
RTVSPost2010Prop36
280
     0
102
RTVSPost2010PropOp36
 70
     1
102
RTVSPost2010Prop37
 90
       50
102
RTVSPost2010PropOp37
 70
     1
102
RTVSPost2010Prop38
140
0.0
102
RTVSPost2010PropOp38
 70
     1
102
RTVSPost2010Prop39
140
1.0
102
RTVSPost2010PropOp39
 70
     1
102
RTVSPost2010Prop40
 90
        0
102
RTVSPost2010PropOp40
 70
     1
102
RTVSPost2010Prop41ColorIndex
 90
       18
102
RTVSPost2010Prop41ColorRGB
 90
        0
102
RTVSPost2010PropOp41
 70
     1
102
RTVSPost2010Prop42
 90
       50
102
RTVSPost2010PropOp42
 70
     1
102
RTVSPost2010Prop43
 90
        3
102
RTVSPost2010PropOp43
 70
     1
102
RTVSPost2010Prop44ColorIndex
 90
        5
102
RTVSPost2010Prop44ColorRGB
 90
      255
102
RTVSPost2010PropOp44
 70
     1
102
RTVSPost2010Prop45
280
     0
102
RTVSPost2010PropOp45
 70
     1
102
RTVSPost2010Prop46
 90
       50
102
RTVSPost2010PropOp46
 70
     1
102
RTVSPost2010Prop47
 90
       50
102
RTVSPost2010PropOp47
 70
     1
102
RTVSPost2010Prop48
 90
       50
102
RTVSPost2010PropOp48
 70
     1
102
RTVSPost2010Prop49
280
     0
102
RTVSPost2010PropOp49
 70
     1
102
RTVSPost2010Prop50
 90
       50
102
RTVSPost2010PropOp50
 70
     1
102
RTVSPost2010Prop51ColorIndex
 90
      256
102
RTVSPost2010Prop51ColorRGB
 90
-16777216
102
RTVSPost2010PropOp51
 70
     0
102
RTVSPost2010Prop52
140
1.0
102
RTVSPost2010PropOp52
 70
     0
102
RTVSPost2010Prop53
 90
        2
102
RTVSPost2010PropOp53
 70
     1
102
RTVSPost2010Prop54
  1
strokes_ogs.tif
102
RTVSPost2010PropOp54
 70
     1
102
RTVSPost2010Prop55
280
     0
102
RTVSPost2010PropOp55
 70
     1
102
RTVSPost2010Prop56
140
1.0
102
RTVSPost2010PropOp56
 70
     1
102
RTVSPost2010Prop57
140
1.0
102
RTVSPost2010PropOp57
 70
     1
  0
XRECORD
  5
30D
102
{ACAD_REACTORS
330
30C
102
}
330
30C
100
AcDbXrecord
280
     1
102
RTVSPropertyOp0
 70
     1
102
RTVSPropertyOp1
 70
     1
102
RTVSPropertyOp2
 70
     1
102
RTVSPropertyOp3
 70
     1
102
RTVSPropertyOp4
 70
     1
102
RTVSPropertyOp5
 70
     1
102
RTVSPropertyOp6
 70
     1
102
RTVSPropertyOp7
 70
     1
102
RTVSPropertyOp8
 70
     1
102
RTVSPropertyOp9
 70
     1
102
RTVSPropertyOp10
 70
     1
102
RTVSPropertyOp11
 70
     1
102
RTVSPropertyOp12
 70
     1
102
RTVSPropertyOp13
 70
     1
102
RTVSPropertyOp14
 70
     1
102
RTVSPropertyOp15
 70
     1
102
RTVSPropertyOp16
 70
     1
102
RTVSPropertyOp17
 70
     1
102
RTVSPropertyOp18
 70
     1
102
RTVSPropertyOp19
 70
     1
102
RTVSPropertyOp20
 70
     1
102
RTVSPropertyOp21
 70
     1
102
RTVSPropertyOp22
 70
     1
102
RTVSPropertyOp23
 70
     1
102
RTVSPropertyOp24
 70
     1
102
RTVSPropertyOp25
 70
     1
102
RTVSPropertyOp26
 70
     1
102
RTVSPropertyOp27
 70
     1
102
RTVSPropertyOp28
 70
     1
102
RTVSPropertyOp29
 70
     1
102
RTVSPropertyOp30
 70
     1
102
RTVSPropertyOp31
 70
     1
102
RTVSPropertyOp32
 70
     1
102
RTVSPropertyOp33
 70
     1
102
RTVSPropertyOp34
 70
     1
102
RTVSPropertyOp35
 70
     1
102
RTVSPropertyOp36
 70
     1
102
RTVSPropertyOp37
 70
     1
102
RTVSPropertyOp38
 70
     1
102
RTVSPropertyOp39
 70
     1
102
RTVSPropertyOp40
 70
     1
102
RTVSPropertyOp41
 70
     1
102
RTVSPropertyOp42
 70
     1
102
RTVSPropertyOp43
 70
     1
102
RTVSPropertyOp44
 70
     1
102
RTVSPropertyOp45
 70
     1
102
RTVSPropertyOp46
 70
     1
102
RTVSPropertyOp47
 70
     1
102
RTVSPropertyOp48
 70
     1
102
RTVSPropertyOp49
 70
     1
102
RTVSPropertyOp50
 70
     1
102
RTVSPropertyOp51
 70
     0
102
RTVSPropertyOp52
 70
     0
102
RTVSPropertyOp53
 70
     1
102
RTVSPropertyOp54
 70
     1
102
RTVSPropertyOp55
 70
     1
102
RTVSPropertyOp56
 70
     1
102
RTVSPropertyOp57
 70
     1
102
RTVSPost2010Prop28
280
     0
102
RTVSPost2010PropOp28
 70
     1
102
RTVSPost2010Prop29
280
     1
102
RTVSPost2010PropOp29
 70
     1
102
RTVSPost2010Prop30
280
     1
102
RTVSPost2010PropOp30
 70
     1
102
RTVSPost2010Prop31
280
     0
102
RTVSPost2010PropOp31
 70
     1
102
RTVSPost2010Prop32
280
     0
102
RTVSPost2010PropOp32
 70
     1
102
RTVSPost2010Prop33
280
     0
102
RTVSPost2010PropOp33
 70
     1
102
RTVSPost2010Prop34
280
     0
102
RTVSPost2010PropOp34
 70
     1
102
RTVSPost2010Prop35
280
     0
102
RTVSPost2010PropOp35
 70
     1
102
RTVSPost2010Prop36
280
     0
102
RTVSPost2010PropOp36
 70
     1
102
RTVSPost2010Prop37
 90
       50
102
RTVSPost2010PropOp37
 70
     1
102
RTVSPost2010Prop38
140
0.0
102
RTVSPost2010PropOp38
 70
     1
102
RTVSPost2010Prop39
140
1.0
102
RTVSPost2010PropOp39
 70
     1
102
RTVSPost2010Prop40
 90
        0
102
RTVSPost2010PropOp40
 70
     1
102
RTVSPost2010Prop41ColorIndex
 90
       18
102
RTVSPost2010Prop41ColorRGB
 90
        0
102
RTVSPost2010PropOp41
 70
     1
102
RTVSPost2010Prop42
 90
       50
102
RTVSPost2010PropOp42
 70
     1
102
RTVSPost2010Prop43
 90
        3
102
RTVSPost2010PropOp43
 70
     1
102
RTVSPost2010Prop44ColorIndex
 90
        5
102
RTVSPost2010Prop44ColorRGB
 90
      255
102
RTVSPost2010PropOp44
 70
     1
102
RTVSPost2010Prop45
280
     0
102
RTVSPost2010PropOp45
 70
     1
102
RTVSPost2010Prop46
 90
       50
102
RTVSPost2010PropOp46
 70
     1
102
RTVSPost2010Prop47
 90
       50
102
RTVSPost2010PropOp47
 70
     1
102
RTVSPost2010Prop48
 90
       50
102
RTVSPost2010PropOp48
 70
     1
102
RTVSPost2010Prop49
280
     0
102
RTVSPost2010PropOp49
 70
     1
102
RTVSPost2010Prop50
 90
       50
102
RTVSPost2010PropOp50
 70
     1
102
RTVSPost2010Prop51ColorIndex
 90
      256
102
RTVSPost2010Prop51ColorRGB
 90
-16777216
102
RTVSPost2010PropOp51
 70
     0
102
RTVSPost2010Prop52
140
1.0
102
RTVSPost2010PropOp52
 70
     0
102
RTVSPost2010Prop53
 90
        2
102
RTVSPost2010PropOp53
 70
     1
102
RTVSPost2010Prop54
  1
strokes_ogs.tif
102
RTVSPost2010PropOp54
 70
     1
102
RTVSPost2010Prop55
280
     0
102
RTVSPost2010PropOp55
 70
     1
102
RTVSPost2010Prop56
140
1.0
102
RTVSPost2010PropOp56
 70
     1
102
RTVSPost2010Prop57
140
1.0
102
RTVSPost2010PropOp57
 70
     1
  0
XRECORD
  5
30F
102
{ACAD_REACTORS
330
30E
102
}
330
30E
100
AcDbXrecord
280
     1
102
RTVSPropertyOp0
 70
     1
102
RTVSPropertyOp1
 70
     1
102
RTVSPropertyOp2
 70
     1
102
RTVSPropertyOp3
 70
     1
102
RTVSPropertyOp4
 70
     1
102
RTVSPropertyOp5
 70
     1
102
RTVSPropertyOp6
 70
     1
102
RTVSPropertyOp7
 70
     1
102
RTVSPropertyOp8
 70
     1
102
RTVSPropertyOp9
 70
     1
102
RTVSPropertyOp10
 70
     1
102
RTVSPropertyOp11
 70
     1
102
RTVSPropertyOp12
 70
     1
102
RTVSPropertyOp13
 70
     1
102
RTVSPropertyOp14
 70
     1
102
RTVSPropertyOp15
 70
     1
102
RTVSPropertyOp16
 70
     1
102
RTVSPropertyOp17
 70
     1
102
RTVSPropertyOp18
 70
     1
102
RTVSPropertyOp19
 70
     1
102
RTVSPropertyOp20
 70
     1
102
RTVSPropertyOp21
 70
     1
102
RTVSPropertyOp22
 70
     1
102
RTVSPropertyOp23
 70
     1
102
RTVSPropertyOp24
 70
     1
102
RTVSPropertyOp25
 70
     1
102
RTVSPropertyOp26
 70
     1
102
RTVSPropertyOp27
 70
     1
102
RTVSPropertyOp28
 70
     1
102
RTVSPropertyOp29
 70
     1
102
RTVSPropertyOp30
 70
     1
102
RTVSPropertyOp31
 70
     1
102
RTVSPropertyOp32
 70
     1
102
RTVSPropertyOp33
 70
     1
102
RTVSPropertyOp34
 70
     1
102
RTVSPropertyOp35
 70
     1
102
RTVSPropertyOp36
 70
     1
102
RTVSPropertyOp37
 70
     1
102
RTVSPropertyOp38
 70
     1
102
RTVSPropertyOp39
 70
     1
102
RTVSPropertyOp40
 70
     1
102
RTVSPropertyOp41
 70
     1
102
RTVSPropertyOp42
 70
     1
102
RTVSPropertyOp43
 70
     1
102
RTVSPropertyOp44
 70
     1
102
RTVSPropertyOp45
 70
     1
102
RTVSPropertyOp46
 70
     1
102
RTVSPropertyOp47
 70
     1
102
RTVSPropertyOp48
 70
     1
102
RTVSPropertyOp49
 70
     1
102
RTVSPropertyOp50
 70
     1
102
RTVSPropertyOp51
 70
     0
102
RTVSPropertyOp52
 70
     0
102
RTVSPropertyOp53
 70
     1
102
RTVSPropertyOp54
 70
     1
102
RTVSPropertyOp55
 70
     1
102
RTVSPropertyOp56
 70
     1
102
RTVSPropertyOp57
 70
     1
102
RTVSPost2010Prop28
280
     0
102
RTVSPost2010PropOp28
 70
     1
102
RTVSPost2010Prop29
280
     1
102
RTVSPost2010PropOp29
 70
     1
102
RTVSPost2010Prop30
280
     1
102
RTVSPost2010PropOp30
 70
     1
102
RTVSPost2010Prop31
280
     0
102
RTVSPost2010PropOp31
 70
     1
102
RTVSPost2010Prop32
280
     0
102
RTVSPost2010PropOp32
 70
     1
102
RTVSPost2010Prop33
280
     0
102
RTVSPost2010PropOp33
 70
     1
102
RTVSPost2010Prop34
280
     0
102
RTVSPost2010PropOp34
 70
     1
102
RTVSPost2010Prop35
280
     0
102
RTVSPost2010PropOp35
 70
     1
102
RTVSPost2010Prop36
280
     0
102
RTVSPost2010PropOp36
 70
     1
102
RTVSPost2010Prop37
 90
       50
102
RTVSPost2010PropOp37
 70
     1
102
RTVSPost2010Prop38
140
0.0
102
RTVSPost2010PropOp38
 70
     1
102
RTVSPost2010Prop39
140
1.0
102
RTVSPost2010PropOp39
 70
     1
102
RTVSPost2010Prop40
 90
        0
102
RTVSPost2010PropOp40
 70
     1
102
RTVSPost2010Prop41ColorIndex
 90
       18
102
RTVSPost2010Prop41ColorRGB
 90
        0
102
RTVSPost2010PropOp41
 70
     1
102
RTVSPost2010Prop42
 90
       50
102
RTVSPost2010PropOp42
 70
     1
102
RTVSPost2010Prop43
 90
        3
102
RTVSPost2010PropOp43
 70
     1
102
RTVSPost2010Prop44ColorIndex
 90
        5
102
RTVSPost2010Prop44ColorRGB
 90
      255
102
RTVSPost2010PropOp44
 70
     1
102
RTVSPost2010Prop45
280
     0
102
RTVSPost2010PropOp45
 70
     1
102
RTVSPost2010Prop46
 90
       50
102
RTVSPost2010PropOp46
 70
     1
102
RTVSPost2010Prop47
 90
       50
102
RTVSPost2010PropOp47
 70
     1
102
RTVSPost2010Prop48
 90
       50
102
RTVSPost2010PropOp48
 70
     1
102
RTVSPost2010Prop49
280
     0
102
RTVSPost2010PropOp49
 70
     1
102
RTVSPost2010Prop50
 90
       50
102
RTVSPost2010PropOp50
 70
     1
102
RTVSPost2010Prop51ColorIndex
 90
      256
102
RTVSPost2010Prop51ColorRGB
 90
-16777216
102
RTVSPost2010PropOp51
 70
     0
102
RTVSPost2010Prop52
140
1.0
102
RTVSPost2010PropOp52
 70
     0
102
RTVSPost2010Prop53
 90
        2
102
RTVSPost2010PropOp53
 70
     1
102
RTVSPost2010Prop54
  1
strokes_ogs.tif
102
RTVSPost2010PropOp54
 70
     1
102
RTVSPost2010Prop55
280
     0
102
RTVSPost2010PropOp55
 70
     1
102
RTVSPost2010Prop56
140
1.0
102
RTVSPost2010PropOp56
 70
     1
102
RTVSPost2010Prop57
140
1.0
102
RTVSPost2010PropOp57
 70
     1
  0
XRECORD
  5
311
102
{ACAD_REACTORS
330
310
102
}
330
310
100
AcDbXrecord
280
     1
102
RTVSPropertyOp0
 70
     1
102
RTVSPropertyOp1
 70
     1
102
RTVSPropertyOp2
 70
     1
102
RTVSPropertyOp3
 70
     1
102
RTVSPropertyOp4
 70
     1
102
RTVSPropertyOp5
 70
     1
102
RTVSPropertyOp6
 70
     1
102
RTVSPropertyOp7
 70
     1
102
RTVSPropertyOp8
 70
     1
102
RTVSPropertyOp9
 70
     1
102
RTVSPropertyOp10
 70
     1
102
RTVSPropertyOp11
 70
     1
102
RTVSPropertyOp12
 70
     1
102
RTVSPropertyOp13
 70
     1
102
RTVSPropertyOp14
 70
     1
102
RTVSPropertyOp15
 70
     1
102
RTVSPropertyOp16
 70
     1
102
RTVSPropertyOp17
 70
     1
102
RTVSPropertyOp18
 70
     1
102
RTVSPropertyOp19
 70
     1
102
RTVSPropertyOp20
 70
     1
102
RTVSPropertyOp21
 70
     1
102
RTVSPropertyOp22
 70
     1
102
RTVSPropertyOp23
 70
     1
102
RTVSPropertyOp24
 70
     1
102
RTVSPropertyOp25
 70
     1
102
RTVSPropertyOp26
 70
     1
102
RTVSPropertyOp27
 70
     1
102
RTVSPropertyOp28
 70
     1
102
RTVSPropertyOp29
 70
     1
102
RTVSPropertyOp30
 70
     1
102
RTVSPropertyOp31
 70
     1
102
RTVSPropertyOp32
 70
     1
102
RTVSPropertyOp33
 70
     1
102
RTVSPropertyOp34
 70
     1
102
RTVSPropertyOp35
 70
     1
102
RTVSPropertyOp36
 70
     1
102
RTVSPropertyOp37
 70
     1
102
RTVSPropertyOp38
 70
     1
102
RTVSPropertyOp39
 70
     1
102
RTVSPropertyOp40
 70
     1
102
RTVSPropertyOp41
 70
     1
102
RTVSPropertyOp42
 70
     1
102
RTVSPropertyOp43
 70
     1
102
RTVSPropertyOp44
 70
     1
102
RTVSPropertyOp45
 70
     1
102
RTVSPropertyOp46
 70
     1
102
RTVSPropertyOp47
 70
     1
102
RTVSPropertyOp48
 70
     1
102
RTVSPropertyOp49
 70
     1
102
RTVSPropertyOp50
 70
     1
102
RTVSPropertyOp51
 70
     0
102
RTVSPropertyOp52
 70
     0
102
RTVSPropertyOp53
 70
     1
102
RTVSPropertyOp54
 70
     1
102
RTVSPropertyOp55
 70
     1
102
RTVSPropertyOp56
 70
     1
102
RTVSPropertyOp57
 70
     1
102
RTVSPost2010Prop28
280
     0
102
RTVSPost2010PropOp28
 70
     1
102
RTVSPost2010Prop29
280
     1
102
RTVSPost2010PropOp29
 70
     1
102
RTVSPost2010Prop30
280
     1
102
RTVSPost2010PropOp30
 70
     1
102
RTVSPost2010Prop31
280
     0
102
RTVSPost2010PropOp31
 70
     1
102
RTVSPost2010Prop32
280
     0
102
RTVSPost2010PropOp32
 70
     1
102
RTVSPost2010Prop33
280
     0
102
RTVSPost2010PropOp33
 70
     1
102
RTVSPost2010Prop34
280
     0
102
RTVSPost2010PropOp34
 70
     1
102
RTVSPost2010Prop35
280
     0
102
RTVSPost2010PropOp35
 70
     1
102
RTVSPost2010Prop36
280
     0
102
RTVSPost2010PropOp36
 70
     1
102
RTVSPost2010Prop37
 90
       50
102
RTVSPost2010PropOp37
 70
     1
102
RTVSPost2010Prop38
140
0.0
102
RTVSPost2010PropOp38
 70
     1
102
RTVSPost2010Prop39
140
1.0
102
RTVSPost2010PropOp39
 70
     1
102
RTVSPost2010Prop40
 90
        0
102
RTVSPost2010PropOp40
 70
     1
102
RTVSPost2010Prop41ColorIndex
 90
       18
102
RTVSPost2010Prop41ColorRGB
 90
        0
102
RTVSPost2010PropOp41
 70
     1
102
RTVSPost2010Prop42
 90
       50
102
RTVSPost2010PropOp42
 70
     1
102
RTVSPost2010Prop43
 90
        3
102
RTVSPost2010PropOp43
 70
     1
102
RTVSPost2010Prop44ColorIndex
 90
        5
102
RTVSPost2010Prop44ColorRGB
 90
      255
102
RTVSPost2010PropOp44
 70
     1
102
RTVSPost2010Prop45
280
     0
102
RTVSPost2010PropOp45
 70
     1
102
RTVSPost2010Prop46
 90
       50
102
RTVSPost2010PropOp46
 70
     1
102
RTVSPost2010Prop47
 90
       50
102
RTVSPost2010PropOp47
 70
     1
102
RTVSPost2010Prop48
 90
       50
102
RTVSPost2010PropOp48
 70
     1
102
RTVSPost2010Prop49
280
     0
102
RTVSPost2010PropOp49
 70
     1
102
RTVSPost2010Prop50
 90
       50
102
RTVSPost2010PropOp50
 70
     1
102
RTVSPost2010Prop51ColorIndex
 90
      256
102
RTVSPost2010Prop51ColorRGB
 90
-16777216
102
RTVSPost2010PropOp51
 70
     0
102
RTVSPost2010Prop52
140
1.0
102
RTVSPost2010PropOp52
 70
     0
102
RTVSPost2010Prop53
 90
        2
102
RTVSPost2010PropOp53
 70
     1
102
RTVSPost2010Prop54
  1
strokes_ogs.tif
102
RTVSPost2010PropOp54
 70
     1
102
RTVSPost2010Prop55
280
     0
102
RTVSPost2010PropOp55
 70
     1
102
RTVSPost2010Prop56
140
1.0
102
RTVSPost2010PropOp56
 70
     1
102
RTVSPost2010Prop57
140
1.0
102
RTVSPost2010PropOp57
 70
     1
  0
XRECORD
  5
317
102
{ACAD_REACTORS
330
316
102
}
330
316
100
AcDbXrecord
280
     1
102
RTVSPropertyOp0
 70
     1
102
RTVSPropertyOp1
 70
     1
102
RTVSPropertyOp2
 70
     1
102
RTVSPropertyOp3
 70
     1
102
RTVSPropertyOp4
 70
     1
102
RTVSPropertyOp5
 70
     1
102
RTVSPropertyOp6
 70
     1
102
RTVSPropertyOp7
 70
     1
102
RTVSPropertyOp8
 70
     1
102
RTVSPropertyOp9
 70
     1
102
RTVSPropertyOp10
 70
     1
102
RTVSPropertyOp11
 70
     1
102
RTVSPropertyOp12
 70
     1
102
RTVSPropertyOp13
 70
     1
102
RTVSPropertyOp14
 70
     1
102
RTVSPropertyOp15
 70
     1
102
RTVSPropertyOp16
 70
     1
102
RTVSPropertyOp17
 70
     1
102
RTVSPropertyOp18
 70
     1
102
RTVSPropertyOp19
 70
     1
102
RTVSPropertyOp20
 70
     1
102
RTVSPropertyOp21
 70
     1
102
RTVSPropertyOp22
 70
     1
102
RTVSPropertyOp23
 70
     1
102
RTVSPropertyOp24
 70
     1
102
RTVSPropertyOp25
 70
     1
102
RTVSPropertyOp26
 70
     1
102
RTVSPropertyOp27
 70
     1
102
RTVSPropertyOp28
 70
     1
102
RTVSPropertyOp29
 70
     1
102
RTVSPropertyOp30
 70
     1
102
RTVSPropertyOp31
 70
     1
102
RTVSPropertyOp32
 70
     1
102
RTVSPropertyOp33
 70
     1
102
RTVSPropertyOp34
 70
     1
102
RTVSPropertyOp35
 70
     1
102
RTVSPropertyOp36
 70
     1
102
RTVSPropertyOp37
 70
     1
102
RTVSPropertyOp38
 70
     1
102
RTVSPropertyOp39
 70
     1
102
RTVSPropertyOp40
 70
     1
102
RTVSPropertyOp41
 70
     1
102
RTVSPropertyOp42
 70
     1
102
RTVSPropertyOp43
 70
     1
102
RTVSPropertyOp44
 70
     1
102
RTVSPropertyOp45
 70
     1
102
RTVSPropertyOp46
 70
     1
102
RTVSPropertyOp47
 70
     1
102
RTVSPropertyOp48
 70
     1
102
RTVSPropertyOp49
 70
     1
102
RTVSPropertyOp50
 70
     1
102
RTVSPropertyOp51
 70
     0
102
RTVSPropertyOp52
 70
     0
102
RTVSPropertyOp53
 70
     1
102
RTVSPropertyOp54
 70
     1
102
RTVSPropertyOp55
 70
     1
102
RTVSPropertyOp56
 70
     1
102
RTVSPropertyOp57
 70
     1
102
RTVSPost2010Prop28
280
     0
102
RTVSPost2010PropOp28
 70
     1
102
RTVSPost2010Prop29
280
     1
102
RTVSPost2010PropOp29
 70
     1
102
RTVSPost2010Prop30
280
     1
102
RTVSPost2010PropOp30
 70
     1
102
RTVSPost2010Prop31
280
     0
102
RTVSPost2010PropOp31
 70
     1
102
RTVSPost2010Prop32
280
     0
102
RTVSPost2010PropOp32
 70
     1
102
RTVSPost2010Prop33
280
     0
102
RTVSPost2010PropOp33
 70
     1
102
RTVSPost2010Prop34
280
     0
102
RTVSPost2010PropOp34
 70
     1
102
RTVSPost2010Prop35
280
     0
102
RTVSPost2010PropOp35
 70
     1
102
RTVSPost2010Prop36
280
     0
102
RTVSPost2010PropOp36
 70
     1
102
RTVSPost2010Prop37
 90
       50
102
RTVSPost2010PropOp37
 70
     1
102
RTVSPost2010Prop38
140
0.0
102
RTVSPost2010PropOp38
 70
     1
102
RTVSPost2010Prop39
140
1.0
102
RTVSPost2010PropOp39
 70
     1
102
RTVSPost2010Prop40
 90
        0
102
RTVSPost2010PropOp40
 70
     1
102
RTVSPost2010Prop41ColorIndex
 90
       18
102
RTVSPost2010Prop41ColorRGB
 90
        0
102
RTVSPost2010PropOp41
 70
     1
102
RTVSPost2010Prop42
 90
       50
102
RTVSPost2010PropOp42
 70
     1
102
RTVSPost2010Prop43
 90
        3
102
RTVSPost2010PropOp43
 70
     1
102
RTVSPost2010Prop44ColorIndex
 90
        5
102
RTVSPost2010Prop44ColorRGB
 90
      255
102
RTVSPost2010PropOp44
 70
     1
102
RTVSPost2010Prop45
280
     0
102
RTVSPost2010PropOp45
 70
     1
102
RTVSPost2010Prop46
 90
       50
102
RTVSPost2010PropOp46
 70
     1
102
RTVSPost2010Prop47
 90
       50
102
RTVSPost2010PropOp47
 70
     1
102
RTVSPost2010Prop48
 90
       50
102
RTVSPost2010PropOp48
 70
     1
102
RTVSPost2010Prop49
280
     0
102
RTVSPost2010PropOp49
 70
     1
102
RTVSPost2010Prop50
 90
       50
102
RTVSPost2010PropOp50
 70
     1
102
RTVSPost2010Prop51ColorIndex
 90
      256
102
RTVSPost2010Prop51ColorRGB
 90
-16777216
102
RTVSPost2010PropOp51
 70
     0
102
RTVSPost2010Prop52
140
1.0
102
RTVSPost2010PropOp52
 70
     0
102
RTVSPost2010Prop53
 90
        2
102
RTVSPost2010PropOp53
 70
     1
102
RTVSPost2010Prop54
  1
strokes_ogs.tif
102
RTVSPost2010PropOp54
 70
     1
102
RTVSPost2010Prop55
280
     0
102
RTVSPost2010PropOp55
 70
     1
102
RTVSPost2010Prop56
140
1.0
102
RTVSPost2010PropOp56
 70
     1
102
RTVSPost2010Prop57
140
1.0
102
RTVSPost2010PropOp57
 70
     1
  0
XRECORD
  5
32B
102
{ACAD_REACTORS
330
32A
102
}
330
32A
100
AcDbXrecord
280
     1
102
RTVSPropertyOp0
 70
     0
102
RTVSPropertyOp1
 70
     0
102
RTVSPropertyOp2
 70
     0
102
RTVSPropertyOp3
 70
     0
102
RTVSPropertyOp4
 70
     0
102
RTVSPropertyOp5
 70
     0
102
RTVSPropertyOp6
 70
     0
102
RTVSPropertyOp7
 70
     0
102
RTVSPropertyOp8
 70
     0
102
RTVSPropertyOp9
 70
     0
102
RTVSPropertyOp10
 70
     0
102
RTVSPropertyOp11
 70
     0
102
RTVSPropertyOp12
 70
     0
102
RTVSPropertyOp13
 70
     0
102
RTVSPropertyOp14
 70
     2
102
RTVSPropertyOp15
 70
     0
102
RTVSPropertyOp16
 70
     0
102
RTVSPropertyOp17
 70
     0
102
RTVSPropertyOp18
 70
     0
102
RTVSPropertyOp19
 70
     0
102
RTVSPropertyOp20
 70
     0
102
RTVSPropertyOp21
 70
     0
102
RTVSPropertyOp22
 70
     0
102
RTVSPropertyOp23
 70
     0
102
RTVSPropertyOp24
 70
     0
102
RTVSPropertyOp25
 70
     0
102
RTVSPropertyOp26
 70
     0
102
RTVSPropertyOp27
 70
     0
102
RTVSPropertyOp28
 70
     0
102
RTVSPropertyOp29
 70
     0
102
RTVSPropertyOp30
 70
     0
102
RTVSPropertyOp31
 70
     0
102
RTVSPropertyOp32
 70
     0
102
RTVSPropertyOp33
 70
     0
102
RTVSPropertyOp34
 70
     0
102
RTVSPropertyOp35
 70
     0
102
RTVSPropertyOp36
 70
     0
102
RTVSPropertyOp37
 70
     0
102
RTVSPropertyOp38
 70
     0
102
RTVSPropertyOp39
 70
     0
102
RTVSPropertyOp40
 70
     0
102
RTVSPropertyOp41
 70
     0
102
RTVSPropertyOp42
 70
     0
102
RTVSPropertyOp43
 70
     0
102
RTVSPropertyOp44
 70
     0
102
RTVSPropertyOp45
 70
     0
102
RTVSPropertyOp46
 70
     0
102
RTVSPropertyOp47
 70
     0
102
RTVSPropertyOp48
 70
     0
102
RTVSPropertyOp49
 70
     0
102
RTVSPropertyOp50
 70
     0
102
RTVSPropertyOp51
 70
     0
102
RTVSPropertyOp52
 70
     0
102
RTVSPropertyOp53
 70
     0
102
RTVSPropertyOp54
 70
     0
102
RTVSPropertyOp55
 70
     0
102
RTVSPropertyOp56
 70
     0
102
RTVSPropertyOp57
 70
     0
102
RTVSPost2010Prop28
280
     0
102
RTVSPost2010PropOp28
 70
     0
102
RTVSPost2010Prop29
280
     1
102
RTVSPost2010PropOp29
 70
     0
102
RTVSPost2010Prop30
280
     1
102
RTVSPost2010PropOp30
 70
     0
102
RTVSPost2010Prop31
280
     0
102
RTVSPost2010PropOp31
 70
     0
102
RTVSPost2010Prop32
280
     0
102
RTVSPost2010PropOp32
 70
     0
102
RTVSPost2010Prop33
280
     0
102
RTVSPost2010PropOp33
 70
     0
102
RTVSPost2010Prop34
280
     0
102
RTVSPost2010PropOp34
 70
     0
102
RTVSPost2010Prop35
280
     0
102
RTVSPost2010PropOp35
 70
     0
102
RTVSPost2010Prop36
280
     0
102
RTVSPost2010PropOp36
 70
     0
102
RTVSPost2010Prop37
 90
       50
102
RTVSPost2010PropOp37
 70
     0
102
RTVSPost2010Prop38
140
0.0
102
RTVSPost2010PropOp38
 70
     0
102
RTVSPost2010Prop39
140
1.0
102
RTVSPost2010PropOp39
 70
     0
102
RTVSPost2010Prop40
 90
        0
102
RTVSPost2010PropOp40
 70
     0
102
RTVSPost2010Prop41ColorIndex
 90
       18
102
RTVSPost2010Prop41ColorRGB
 90
        0
102
RTVSPost2010PropOp41
 70
     0
102
RTVSPost2010Prop42
 90
       50
102
RTVSPost2010PropOp42
 70
     0
102
RTVSPost2010Prop43
 90
        3
102
RTVSPost2010PropOp43
 70
     0
102
RTVSPost2010Prop44ColorIndex
 90
        5
102
RTVSPost2010Prop44ColorRGB
 90
      255
102
RTVSPost2010PropOp44
 70
     0
102
RTVSPost2010Prop45
280
     0
102
RTVSPost2010PropOp45
 70
     0
102
RTVSPost2010Prop46
 90
       50
102
RTVSPost2010PropOp46
 70
     0
102
RTVSPost2010Prop47
 90
       50
102
RTVSPost2010PropOp47
 70
     0
102
RTVSPost2010Prop48
 90
       50
102
RTVSPost2010PropOp48
 70
     0
102
RTVSPost2010Prop49
280
     0
102
RTVSPost2010PropOp49
 70
     0
102
RTVSPost2010Prop50
 90
       50
102
RTVSPost2010PropOp50
 70
     0
102
RTVSPost2010Prop51ColorIndex
 90
      256
102
RTVSPost2010Prop51ColorRGB
 90
-16777216
102
RTVSPost2010PropOp51
 70
     0
102
RTVSPost2010Prop52
140
1.0
102
RTVSPost2010PropOp52
 70
     0
102
RTVSPost2010Prop53
 90
        2
102
RTVSPost2010PropOp53
 70
     0
102
RTVSPost2010Prop54
  1
strokes_ogs.tif
102
RTVSPost2010PropOp54
 70
     0
102
RTVSPost2010Prop55
280
     0
102
RTVSPost2010PropOp55
 70
     0
102
RTVSPost2010Prop56
140
1.0
102
RTVSPost2010PropOp56
 70
     0
102
RTVSPost2010Prop57
140
1.0
102
RTVSPost2010PropOp57
 70
     0
  0
XRECORD
  5
325
102
{ACAD_REACTORS
330
324
102
}
330
324
100
AcDbXrecord
280
     1
102
RTVSPropertyOp0
 70
     1
102
RTVSPropertyOp1
 70
     1
102
RTVSPropertyOp2
 70
     1
102
RTVSPropertyOp3
 70
     1
102
RTVSPropertyOp4
 70
     1
102
RTVSPropertyOp5
 70
     1
102
RTVSPropertyOp6
 70
     1
102
RTVSPropertyOp7
 70
     1
102
RTVSPropertyOp8
 70
     1
102
RTVSPropertyOp9
 70
     1
102
RTVSPropertyOp10
 70
     1
102
RTVSPropertyOp11
 70
     1
102
RTVSPropertyOp12
 70
     1
102
RTVSPropertyOp13
 70
     1
102
RTVSPropertyOp14
 70
     1
102
RTVSPropertyOp15
 70
     1
102
RTVSPropertyOp16
 70
     1
102
RTVSPropertyOp17
 70
     1
102
RTVSPropertyOp18
 70
     1
102
RTVSPropertyOp19
 70
     1
102
RTVSPropertyOp20
 70
     1
102
RTVSPropertyOp21
 70
     1
102
RTVSPropertyOp22
 70
     1
102
RTVSPropertyOp23
 70
     1
102
RTVSPropertyOp24
 70
     1
102
RTVSPropertyOp25
 70
     1
102
RTVSPropertyOp26
 70
     1
102
RTVSPropertyOp27
 70
     1
102
RTVSPropertyOp28
 70
     1
102
RTVSPropertyOp29
 70
     1
102
RTVSPropertyOp30
 70
     1
102
RTVSPropertyOp31
 70
     1
102
RTVSPropertyOp32
 70
     1
102
RTVSPropertyOp33
 70
     1
102
RTVSPropertyOp34
 70
     1
102
RTVSPropertyOp35
 70
     1
102
RTVSPropertyOp36
 70
     1
102
RTVSPropertyOp37
 70
     1
102
RTVSPropertyOp38
 70
     1
102
RTVSPropertyOp39
 70
     1
102
RTVSPropertyOp40
 70
     1
102
RTVSPropertyOp41
 70
     1
102
RTVSPropertyOp42
 70
     1
102
RTVSPropertyOp43
 70
     1
102
RTVSPropertyOp44
 70
     1
102
RTVSPropertyOp45
 70
     1
102
RTVSPropertyOp46
 70
     1
102
RTVSPropertyOp47
 70
     1
102
RTVSPropertyOp48
 70
     1
102
RTVSPropertyOp49
 70
     1
102
RTVSPropertyOp50
 70
     1
102
RTVSPropertyOp51
 70
     0
102
RTVSPropertyOp52
 70
     0
102
RTVSPropertyOp53
 70
     1
102
RTVSPropertyOp54
 70
     1
102
RTVSPropertyOp55
 70
     1
102
RTVSPropertyOp56
 70
     1
102
RTVSPropertyOp57
 70
     1
102
RTVSPost2010Prop28
280
     0
102
RTVSPost2010PropOp28
 70
     1
102
RTVSPost2010Prop29
280
     1
102
RTVSPost2010PropOp29
 70
     1
102
RTVSPost2010Prop30
280
     1
102
RTVSPost2010PropOp30
 70
     1
102
RTVSPost2010Prop31
280
     0
102
RTVSPost2010PropOp31
 70
     1
102
RTVSPost2010Prop32
280
     0
102
RTVSPost2010PropOp32
 70
     1
102
RTVSPost2010Prop33
280
     0
102
RTVSPost2010PropOp33
 70
     1
102
RTVSPost2010Prop34
280
     0
102
RTVSPost2010PropOp34
 70
     1
102
RTVSPost2010Prop35
280
     0
102
RTVSPost2010PropOp35
 70
     1
102
RTVSPost2010Prop36
280
     0
102
RTVSPost2010PropOp36
 70
     1
102
RTVSPost2010Prop37
 90
       50
102
RTVSPost2010PropOp37
 70
     1
102
RTVSPost2010Prop38
140
0.0
102
RTVSPost2010PropOp38
 70
     1
102
RTVSPost2010Prop39
140
1.0
102
RTVSPost2010PropOp39
 70
     1
102
RTVSPost2010Prop40
 90
        0
102
RTVSPost2010PropOp40
 70
     1
102
RTVSPost2010Prop41ColorIndex
 90
       18
102
RTVSPost2010Prop41ColorRGB
 90
        0
102
RTVSPost2010PropOp41
 70
     1
102
RTVSPost2010Prop42
 90
       50
102
RTVSPost2010PropOp42
 70
     1
102
RTVSPost2010Prop43
 90
        3
102
RTVSPost2010PropOp43
 70
     1
102
RTVSPost2010Prop44ColorIndex
 90
        5
102
RTVSPost2010Prop44ColorRGB
 90
      255
102
RTVSPost2010PropOp44
 70
     1
102
RTVSPost2010Prop45
280
     0
102
RTVSPost2010PropOp45
 70
     1
102
RTVSPost2010Prop46
 90
       50
102
RTVSPost2010PropOp46
 70
     1
102
RTVSPost2010Prop47
 90
       50
102
RTVSPost2010PropOp47
 70
     1
102
RTVSPost2010Prop48
 90
       50
102
RTVSPost2010PropOp48
 70
     1
102
RTVSPost2010Prop49
280
     0
102
RTVSPost2010PropOp49
 70
     1
102
RTVSPost2010Prop50
 90
       50
102
RTVSPost2010PropOp50
 70
     1
102
RTVSPost2010Prop51ColorIndex
 90
      256
102
RTVSPost2010Prop51ColorRGB
 90
-16777216
102
RTVSPost2010PropOp51
 70
     0
102
RTVSPost2010Prop52
140
1.0
102
RTVSPost2010PropOp52
 70
     0
102
RTVSPost2010Prop53
 90
        2
102
RTVSPost2010PropOp53
 70
     1
102
RTVSPost2010Prop54
  1
strokes_ogs.tif
102
RTVSPost2010PropOp54
 70
     1
102
RTVSPost2010Prop55
280
     0
102
RTVSPost2010PropOp55
 70
     1
102
RTVSPost2010Prop56
140
1.0
102
RTVSPost2010PropOp56
 70
     1
102
RTVSPost2010Prop57
140
1.0
102
RTVSPost2010PropOp57
 70
     1
  0
XRECORD
  5
32D
102
{ACAD_REACTORS
330
32C
102
}
330
32C
100
AcDbXrecord
280
     1
102
RTVSPropertyOp0
 70
     0
102
RTVSPropertyOp1
 70
     0
102
RTVSPropertyOp2
 70
     0
102
RTVSPropertyOp3
 70
     0
102
RTVSPropertyOp4
 70
     0
102
RTVSPropertyOp5
 70
     0
102
RTVSPropertyOp6
 70
     0
102
RTVSPropertyOp7
 70
     0
102
RTVSPropertyOp8
 70
     0
102
RTVSPropertyOp9
 70
     0
102
RTVSPropertyOp10
 70
     0
102
RTVSPropertyOp11
 70
     0
102
RTVSPropertyOp12
 70
     0
102
RTVSPropertyOp13
 70
     0
102
RTVSPropertyOp14
 70
     2
102
RTVSPropertyOp15
 70
     0
102
RTVSPropertyOp16
 70
     0
102
RTVSPropertyOp17
 70
     0
102
RTVSPropertyOp18
 70
     0
102
RTVSPropertyOp19
 70
     0
102
RTVSPropertyOp20
 70
     0
102
RTVSPropertyOp21
 70
     0
102
RTVSPropertyOp22
 70
     0
102
RTVSPropertyOp23
 70
     0
102
RTVSPropertyOp24
 70
     0
102
RTVSPropertyOp25
 70
     0
102
RTVSPropertyOp26
 70
     0
102
RTVSPropertyOp27
 70
     0
102
RTVSPropertyOp28
 70
     0
102
RTVSPropertyOp29
 70
     0
102
RTVSPropertyOp30
 70
     0
102
RTVSPropertyOp31
 70
     0
102
RTVSPropertyOp32
 70
     0
102
RTVSPropertyOp33
 70
     0
102
RTVSPropertyOp34
 70
     0
102
RTVSPropertyOp35
 70
     0
102
RTVSPropertyOp36
 70
     0
102
RTVSPropertyOp37
 70
     0
102
RTVSPropertyOp38
 70
     0
102
RTVSPropertyOp39
 70
     0
102
RTVSPropertyOp40
 70
     0
102
RTVSPropertyOp41
 70
     0
102
RTVSPropertyOp42
 70
     0
102
RTVSPropertyOp43
 70
     0
102
RTVSPropertyOp44
 70
     0
102
RTVSPropertyOp45
 70
     0
102
RTVSPropertyOp46
 70
     0
102
RTVSPropertyOp47
 70
     0
102
RTVSPropertyOp48
 70
     0
102
RTVSPropertyOp49
 70
     0
102
RTVSPropertyOp50
 70
     0
102
RTVSPropertyOp51
 70
     0
102
RTVSPropertyOp52
 70
     0
102
RTVSPropertyOp53
 70
     0
102
RTVSPropertyOp54
 70
     0
102
RTVSPropertyOp55
 70
     0
102
RTVSPropertyOp56
 70
     0
102
RTVSPropertyOp57
 70
     0
102
RTVSPost2010Prop28
280
     0
102
RTVSPost2010PropOp28
 70
     0
102
RTVSPost2010Prop29
280
     1
102
RTVSPost2010PropOp29
 70
     0
102
RTVSPost2010Prop30
280
     1
102
RTVSPost2010PropOp30
 70
     0
102
RTVSPost2010Prop31
280
     0
102
RTVSPost2010PropOp31
 70
     0
102
RTVSPost2010Prop32
280
     0
102
RTVSPost2010PropOp32
 70
     0
102
RTVSPost2010Prop33
280
     0
102
RTVSPost2010PropOp33
 70
     0
102
RTVSPost2010Prop34
280
     0
102
RTVSPost2010PropOp34
 70
     0
102
RTVSPost2010Prop35
280
     0
102
RTVSPost2010PropOp35
 70
     0
102
RTVSPost2010Prop36
280
     0
102
RTVSPost2010PropOp36
 70
     0
102
RTVSPost2010Prop37
 90
       50
102
RTVSPost2010PropOp37
 70
     0
102
RTVSPost2010Prop38
140
0.0
102
RTVSPost2010PropOp38
 70
     0
102
RTVSPost2010Prop39
140
1.0
102
RTVSPost2010PropOp39
 70
     0
102
RTVSPost2010Prop40
 90
        0
102
RTVSPost2010PropOp40
 70
     0
102
RTVSPost2010Prop41ColorIndex
 90
       18
102
RTVSPost2010Prop41ColorRGB
 90
        0
102
RTVSPost2010PropOp41
 70
     0
102
RTVSPost2010Prop42
 90
       50
102
RTVSPost2010PropOp42
 70
     0
102
RTVSPost2010Prop43
 90
        3
102
RTVSPost2010PropOp43
 70
     0
102
RTVSPost2010Prop44ColorIndex
 90
        5
102
RTVSPost2010Prop44ColorRGB
 90
      255
102
RTVSPost2010PropOp44
 70
     0
102
RTVSPost2010Prop45
280
     0
102
RTVSPost2010PropOp45
 70
     0
102
RTVSPost2010Prop46
 90
       50
102
RTVSPost2010PropOp46
 70
     0
102
RTVSPost2010Prop47
 90
       50
102
RTVSPost2010PropOp47
 70
     0
102
RTVSPost2010Prop48
 90
       50
102
RTVSPost2010PropOp48
 70
     0
102
RTVSPost2010Prop49
280
     0
102
RTVSPost2010PropOp49
 70
     0
102
RTVSPost2010Prop50
 90
       50
102
RTVSPost2010PropOp50
 70
     0
102
RTVSPost2010Prop51ColorIndex
 90
      256
102
RTVSPost2010Prop51ColorRGB
 90
-16777216
102
RTVSPost2010PropOp51
 70
     0
102
RTVSPost2010Prop52
140
1.0
102
RTVSPost2010PropOp52
 70
     0
102
RTVSPost2010Prop53
 90
        2
102
RTVSPost2010PropOp53
 70
     0
102
RTVSPost2010Prop54
  1
strokes_ogs.tif
102
RTVSPost2010PropOp54
 70
     0
102
RTVSPost2010Prop55
280
     0
102
RTVSPost2010PropOp55
 70
     0
102
RTVSPost2010Prop56
140
1.0
102
RTVSPost2010PropOp56
 70
     0
102
RTVSPost2010Prop57
140
1.0
102
RTVSPost2010PropOp57
 70
     0
  0
XRECORD
  5
31B
102
{ACAD_REACTORS
330
31A
102
}
330
31A
100
AcDbXrecord
280
     1
102
RTVSPropertyOp0
 70
     1
102
RTVSPropertyOp1
 70
     1
102
RTVSPropertyOp2
 70
     1
102
RTVSPropertyOp3
 70
     1
102
RTVSPropertyOp4
 70
     1
102
RTVSPropertyOp5
 70
     1
102
RTVSPropertyOp6
 70
     1
102
RTVSPropertyOp7
 70
     1
102
RTVSPropertyOp8
 70
     1
102
RTVSPropertyOp9
 70
     1
102
RTVSPropertyOp10
 70
     1
102
RTVSPropertyOp11
 70
     1
102
RTVSPropertyOp12
 70
     1
102
RTVSPropertyOp13
 70
     1
102
RTVSPropertyOp14
 70
     1
102
RTVSPropertyOp15
 70
     1
102
RTVSPropertyOp16
 70
     1
102
RTVSPropertyOp17
 70
     1
102
RTVSPropertyOp18
 70
     1
102
RTVSPropertyOp19
 70
     1
102
RTVSPropertyOp20
 70
     1
102
RTVSPropertyOp21
 70
     1
102
RTVSPropertyOp22
 70
     1
102
RTVSPropertyOp23
 70
     1
102
RTVSPropertyOp24
 70
     1
102
RTVSPropertyOp25
 70
     1
102
RTVSPropertyOp26
 70
     1
102
RTVSPropertyOp27
 70
     1
102
RTVSPropertyOp28
 70
     1
102
RTVSPropertyOp29
 70
     1
102
RTVSPropertyOp30
 70
     1
102
RTVSPropertyOp31
 70
     1
102
RTVSPropertyOp32
 70
     1
102
RTVSPropertyOp33
 70
     1
102
RTVSPropertyOp34
 70
     1
102
RTVSPropertyOp35
 70
     1
102
RTVSPropertyOp36
 70
     1
102
RTVSPropertyOp37
 70
     1
102
RTVSPropertyOp38
 70
     1
102
RTVSPropertyOp39
 70
     1
102
RTVSPropertyOp40
 70
     1
102
RTVSPropertyOp41
 70
     1
102
RTVSPropertyOp42
 70
     1
102
RTVSPropertyOp43
 70
     1
102
RTVSPropertyOp44
 70
     1
102
RTVSPropertyOp45
 70
     1
102
RTVSPropertyOp46
 70
     1
102
RTVSPropertyOp47
 70
     1
102
RTVSPropertyOp48
 70
     1
102
RTVSPropertyOp49
 70
     1
102
RTVSPropertyOp50
 70
     1
102
RTVSPropertyOp51
 70
     0
102
RTVSPropertyOp52
 70
     0
102
RTVSPropertyOp53
 70
     1
102
RTVSPropertyOp54
 70
     1
102
RTVSPropertyOp55
 70
     1
102
RTVSPropertyOp56
 70
     1
102
RTVSPropertyOp57
 70
     1
102
RTVSPost2010Prop28
280
     0
102
RTVSPost2010PropOp28
 70
     1
102
RTVSPost2010Prop29
280
     1
102
RTVSPost2010PropOp29
 70
     1
102
RTVSPost2010Prop30
280
     1
102
RTVSPost2010PropOp30
 70
     1
102
RTVSPost2010Prop31
280
     0
102
RTVSPost2010PropOp31
 70
     1
102
RTVSPost2010Prop32
280
     0
102
RTVSPost2010PropOp32
 70
     1
102
RTVSPost2010Prop33
280
     0
102
RTVSPost2010PropOp33
 70
     1
102
RTVSPost2010Prop34
280
     0
102
RTVSPost2010PropOp34
 70
     1
102
RTVSPost2010Prop35
280
     0
102
RTVSPost2010PropOp35
 70
     1
102
RTVSPost2010Prop36
280
     0
102
RTVSPost2010PropOp36
 70
     1
102
RTVSPost2010Prop37
 90
       50
102
RTVSPost2010PropOp37
 70
     1
102
RTVSPost2010Prop38
140
0.0
102
RTVSPost2010PropOp38
 70
     1
102
RTVSPost2010Prop39
140
1.0
102
RTVSPost2010PropOp39
 70
     1
102
RTVSPost2010Prop40
 90
        0
102
RTVSPost2010PropOp40
 70
     1
102
RTVSPost2010Prop41ColorIndex
 90
       18
102
RTVSPost2010Prop41ColorRGB
 90
        0
102
RTVSPost2010PropOp41
 70
     1
102
RTVSPost2010Prop42
 90
       50
102
RTVSPost2010PropOp42
 70
     1
102
RTVSPost2010Prop43
 90
        3
102
RTVSPost2010PropOp43
 70
     1
102
RTVSPost2010Prop44ColorIndex
 90
        5
102
RTVSPost2010Prop44ColorRGB
 90
      255
102
RTVSPost2010PropOp44
 70
     1
102
RTVSPost2010Prop45
280
     0
102
RTVSPost2010PropOp45
 70
     1
102
RTVSPost2010Prop46
 90
       50
102
RTVSPost2010PropOp46
 70
     1
102
RTVSPost2010Prop47
 90
       50
102
RTVSPost2010PropOp47
 70
     1
102
RTVSPost2010Prop48
 90
       50
102
RTVSPost2010PropOp48
 70
     1
102
RTVSPost2010Prop49
280
     0
102
RTVSPost2010PropOp49
 70
     1
102
RTVSPost2010Prop50
 90
       50
102
RTVSPost2010PropOp50
 70
     1
102
RTVSPost2010Prop51ColorIndex
 90
      256
102
RTVSPost2010Prop51ColorRGB
 90
-16777216
102
RTVSPost2010PropOp51
 70
     0
102
RTVSPost2010Prop52
140
1.0
102
RTVSPost2010PropOp52
 70
     0
102
RTVSPost2010Prop53
 90
        2
102
RTVSPost2010PropOp53
 70
     1
102
RTVSPost2010Prop54
  1
strokes_ogs.tif
102
RTVSPost2010PropOp54
 70
     1
102
RTVSPost2010Prop55
280
     0
102
RTVSPost2010PropOp55
 70
     1
102
RTVSPost2010Prop56
140
1.0
102
RTVSPost2010PropOp56
 70
     1
102
RTVSPost2010Prop57
140
1.0
102
RTVSPost2010PropOp57
 70
     1
  0
XRECORD
  5
339
102
{ACAD_REACTORS
330
338
102
}
330
338
100
AcDbXrecord
280
     1
102
RTVSPropertyOp0
 70
     1
102
RTVSPropertyOp1
 70
     1
102
RTVSPropertyOp2
 70
     1
102
RTVSPropertyOp3
 70
     1
102
RTVSPropertyOp4
 70
     1
102
RTVSPropertyOp5
 70
     1
102
RTVSPropertyOp6
 70
     1
102
RTVSPropertyOp7
 70
     1
102
RTVSPropertyOp8
 70
     1
102
RTVSPropertyOp9
 70
     1
102
RTVSPropertyOp10
 70
     1
102
RTVSPropertyOp11
 70
     1
102
RTVSPropertyOp12
 70
     1
102
RTVSPropertyOp13
 70
     1
102
RTVSPropertyOp14
 70
     1
102
RTVSPropertyOp15
 70
     1
102
RTVSPropertyOp16
 70
     1
102
RTVSPropertyOp17
 70
     1
102
RTVSPropertyOp18
 70
     1
102
RTVSPropertyOp19
 70
     1
102
RTVSPropertyOp20
 70
     1
102
RTVSPropertyOp21
 70
     1
102
RTVSPropertyOp22
 70
     1
102
RTVSPropertyOp23
 70
     1
102
RTVSPropertyOp24
 70
     1
102
RTVSPropertyOp25
 70
     1
102
RTVSPropertyOp26
 70
     1
102
RTVSPropertyOp27
 70
     1
102
RTVSPropertyOp28
 70
     1
102
RTVSPropertyOp29
 70
     1
102
RTVSPropertyOp30
 70
     1
102
RTVSPropertyOp31
 70
     1
102
RTVSPropertyOp32
 70
     1
102
RTVSPropertyOp33
 70
     1
102
RTVSPropertyOp34
 70
     1
102
RTVSPropertyOp35
 70
     1
102
RTVSPropertyOp36
 70
     1
102
RTVSPropertyOp37
 70
     1
102
RTVSPropertyOp38
 70
     1
102
RTVSPropertyOp39
 70
     1
102
RTVSPropertyOp40
 70
     1
102
RTVSPropertyOp41
 70
     1
102
RTVSPropertyOp42
 70
     1
102
RTVSPropertyOp43
 70
     1
102
RTVSPropertyOp44
 70
     1
102
RTVSPropertyOp45
 70
     1
102
RTVSPropertyOp46
 70
     1
102
RTVSPropertyOp47
 70
     1
102
RTVSPropertyOp48
 70
     1
102
RTVSPropertyOp49
 70
     1
102
RTVSPropertyOp50
 70
     1
102
RTVSPropertyOp51
 70
     0
102
RTVSPropertyOp52
 70
     0
102
RTVSPropertyOp53
 70
     1
102
RTVSPropertyOp54
 70
     1
102
RTVSPropertyOp55
 70
     1
102
RTVSPropertyOp56
 70
     1
102
RTVSPropertyOp57
 70
     1
102
RTVSPost2010Prop28
280
     0
102
RTVSPost2010PropOp28
 70
     1
102
RTVSPost2010Prop29
280
     1
102
RTVSPost2010PropOp29
 70
     1
102
RTVSPost2010Prop30
280
     1
102
RTVSPost2010PropOp30
 70
     1
102
RTVSPost2010Prop31
280
     0
102
RTVSPost2010PropOp31
 70
     1
102
RTVSPost2010Prop32
280
     0
102
RTVSPost2010PropOp32
 70
     1
102
RTVSPost2010Prop33
280
     0
102
RTVSPost2010PropOp33
 70
     1
102
RTVSPost2010Prop34
280
     0
102
RTVSPost2010PropOp34
 70
     1
102
RTVSPost2010Prop35
280
     0
102
RTVSPost2010PropOp35
 70
     1
102
RTVSPost2010Prop36
280
     0
102
RTVSPost2010PropOp36
 70
     1
102
RTVSPost2010Prop37
 90
       50
102
RTVSPost2010PropOp37
 70
     1
102
RTVSPost2010Prop38
140
0.0
102
RTVSPost2010PropOp38
 70
     1
102
RTVSPost2010Prop39
140
1.0
102
RTVSPost2010PropOp39
 70
     1
102
RTVSPost2010Prop40
 90
        0
102
RTVSPost2010PropOp40
 70
     1
102
RTVSPost2010Prop41ColorIndex
 90
       18
102
RTVSPost2010Prop41ColorRGB
 90
        0
102
RTVSPost2010PropOp41
 70
     1
102
RTVSPost2010Prop42
 90
       50
102
RTVSPost2010PropOp42
 70
     1
102
RTVSPost2010Prop43
 90
        3
102
RTVSPost2010PropOp43
 70
     1
102
RTVSPost2010Prop44ColorIndex
 90
        5
102
RTVSPost2010Prop44ColorRGB
 90
      255
102
RTVSPost2010PropOp44
 70
     1
102
RTVSPost2010Prop45
280
     0
102
RTVSPost2010PropOp45
 70
     1
102
RTVSPost2010Prop46
 90
       50
102
RTVSPost2010PropOp46
 70
     1
102
RTVSPost2010Prop47
 90
       50
102
RTVSPost2010PropOp47
 70
     1
102
RTVSPost2010Prop48
 90
       50
102
RTVSPost2010PropOp48
 70
     1
102
RTVSPost2010Prop49
280
     0
102
RTVSPost2010PropOp49
 70
     1
102
RTVSPost2010Prop50
 90
       50
102
RTVSPost2010PropOp50
 70
     1
102
RTVSPost2010Prop51ColorIndex
 90
      256
102
RTVSPost2010Prop51ColorRGB
 90
-16777216
102
RTVSPost2010PropOp51
 70
     0
102
RTVSPost2010Prop52
140
1.0
102
RTVSPost2010PropOp52
 70
     0
102
RTVSPost2010Prop53
 90
        2
102
RTVSPost2010PropOp53
 70
     1
102
RTVSPost2010Prop54
  1
strokes_ogs.tif
102
RTVSPost2010PropOp54
 70
     1
102
RTVSPost2010Prop55
280
     0
102
RTVSPost2010PropOp55
 70
     1
102
RTVSPost2010Prop56
140
1.0
102
RTVSPost2010PropOp56
 70
     1
102
RTVSPost2010Prop57
140
1.0
102
RTVSPost2010PropOp57
 70
     1
  0
XRECORD
  5
337
102
{ACAD_REACTORS
330
336
102
}
330
336
100
AcDbXrecord
280
     1
102
RTVSPropertyOp0
 70
     1
102
RTVSPropertyOp1
 70
     1
102
RTVSPropertyOp2
 70
     1
102
RTVSPropertyOp3
 70
     1
102
RTVSPropertyOp4
 70
     1
102
RTVSPropertyOp5
 70
     1
102
RTVSPropertyOp6
 70
     1
102
RTVSPropertyOp7
 70
     1
102
RTVSPropertyOp8
 70
     1
102
RTVSPropertyOp9
 70
     1
102
RTVSPropertyOp10
 70
     1
102
RTVSPropertyOp11
 70
     1
102
RTVSPropertyOp12
 70
     1
102
RTVSPropertyOp13
 70
     1
102
RTVSPropertyOp14
 70
     1
102
RTVSPropertyOp15
 70
     1
102
RTVSPropertyOp16
 70
     1
102
RTVSPropertyOp17
 70
     1
102
RTVSPropertyOp18
 70
     1
102
RTVSPropertyOp19
 70
     1
102
RTVSPropertyOp20
 70
     1
102
RTVSPropertyOp21
 70
     1
102
RTVSPropertyOp22
 70
     1
102
RTVSPropertyOp23
 70
     1
102
RTVSPropertyOp24
 70
     1
102
RTVSPropertyOp25
 70
     1
102
RTVSPropertyOp26
 70
     1
102
RTVSPropertyOp27
 70
     1
102
RTVSPropertyOp28
 70
     1
102
RTVSPropertyOp29
 70
     1
102
RTVSPropertyOp30
 70
     1
102
RTVSPropertyOp31
 70
     1
102
RTVSPropertyOp32
 70
     1
102
RTVSPropertyOp33
 70
     1
102
RTVSPropertyOp34
 70
     1
102
RTVSPropertyOp35
 70
     1
102
RTVSPropertyOp36
 70
     1
102
RTVSPropertyOp37
 70
     1
102
RTVSPropertyOp38
 70
     1
102
RTVSPropertyOp39
 70
     1
102
RTVSPropertyOp40
 70
     1
102
RTVSPropertyOp41
 70
     1
102
RTVSPropertyOp42
 70
     1
102
RTVSPropertyOp43
 70
     1
102
RTVSPropertyOp44
 70
     1
102
RTVSPropertyOp45
 70
     1
102
RTVSPropertyOp46
 70
     1
102
RTVSPropertyOp47
 70
     1
102
RTVSPropertyOp48
 70
     1
102
RTVSPropertyOp49
 70
     1
102
RTVSPropertyOp50
 70
     1
102
RTVSPropertyOp51
 70
     0
102
RTVSPropertyOp52
 70
     0
102
RTVSPropertyOp53
 70
     1
102
RTVSPropertyOp54
 70
     1
102
RTVSPropertyOp55
 70
     1
102
RTVSPropertyOp56
 70
     1
102
RTVSPropertyOp57
 70
     1
102
RTVSPost2010Prop28
280
     0
102
RTVSPost2010PropOp28
 70
     1
102
RTVSPost2010Prop29
280
     1
102
RTVSPost2010PropOp29
 70
     1
102
RTVSPost2010Prop30
280
     1
102
RTVSPost2010PropOp30
 70
     1
102
RTVSPost2010Prop31
280
     0
102
RTVSPost2010PropOp31
 70
     1
102
RTVSPost2010Prop32
280
     0
102
RTVSPost2010PropOp32
 70
     1
102
RTVSPost2010Prop33
280
     0
102
RTVSPost2010PropOp33
 70
     1
102
RTVSPost2010Prop34
280
     0
102
RTVSPost2010PropOp34
 70
     1
102
RTVSPost2010Prop35
280
     0
102
RTVSPost2010PropOp35
 70
     1
102
RTVSPost2010Prop36
280
     0
102
RTVSPost2010PropOp36
 70
     1
102
RTVSPost2010Prop37
 90
       50
102
RTVSPost2010PropOp37
 70
     1
102
RTVSPost2010Prop38
140
0.0
102
RTVSPost2010PropOp38
 70
     1
102
RTVSPost2010Prop39
140
1.0
102
RTVSPost2010PropOp39
 70
     1
102
RTVSPost2010Prop40
 90
        0
102
RTVSPost2010PropOp40
 70
     1
102
RTVSPost2010Prop41ColorIndex
 90
       18
102
RTVSPost2010Prop41ColorRGB
 90
        0
102
RTVSPost2010PropOp41
 70
     1
102
RTVSPost2010Prop42
 90
       50
102
RTVSPost2010PropOp42
 70
     1
102
RTVSPost2010Prop43
 90
        3
102
RTVSPost2010PropOp43
 70
     1
102
RTVSPost2010Prop44ColorIndex
 90
        5
102
RTVSPost2010Prop44ColorRGB
 90
      255
102
RTVSPost2010PropOp44
 70
     1
102
RTVSPost2010Prop45
280
     0
102
RTVSPost2010PropOp45
 70
     1
102
RTVSPost2010Prop46
 90
       50
102
RTVSPost2010PropOp46
 70
     1
102
RTVSPost2010Prop47
 90
       50
102
RTVSPost2010PropOp47
 70
     1
102
RTVSPost2010Prop48
 90
       50
102
RTVSPost2010PropOp48
 70
     1
102
RTVSPost2010Prop49
280
     0
102
RTVSPost2010PropOp49
 70
     1
102
RTVSPost2010Prop50
 90
       50
102
RTVSPost2010PropOp50
 70
     1
102
RTVSPost2010Prop51ColorIndex
 90
      256
102
RTVSPost2010Prop51ColorRGB
 90
-16777216
102
RTVSPost2010PropOp51
 70
     0
102
RTVSPost2010Prop52
140
1.0
102
RTVSPost2010PropOp52
 70
     0
102
RTVSPost2010Prop53
 90
        2
102
RTVSPost2010PropOp53
 70
     1
102
RTVSPost2010Prop54
  1
strokes_ogs.tif
102
RTVSPost2010PropOp54
 70
     1
102
RTVSPost2010Prop55
280
     0
102
RTVSPost2010PropOp55
 70
     1
102
RTVSPost2010Prop56
140
1.0
102
RTVSPost2010PropOp56
 70
     1
102
RTVSPost2010Prop57
140
1.0
102
RTVSPost2010PropOp57
 70
     1
  0
XRECORD
  5
331
102
{ACAD_REACTORS
330
330
102
}
330
330
100
AcDbXrecord
280
     1
102
RTVSPropertyOp0
 70
     1
102
RTVSPropertyOp1
 70
     1
102
RTVSPropertyOp2
 70
     1
102
RTVSPropertyOp3
 70
     1
102
RTVSPropertyOp4
 70
     1
102
RTVSPropertyOp5
 70
     1
102
RTVSPropertyOp6
 70
     1
102
RTVSPropertyOp7
 70
     1
102
RTVSPropertyOp8
 70
     1
102
RTVSPropertyOp9
 70
     1
102
RTVSPropertyOp10
 70
     1
102
RTVSPropertyOp11
 70
     1
102
RTVSPropertyOp12
 70
     1
102
RTVSPropertyOp13
 70
     1
102
RTVSPropertyOp14
 70
     1
102
RTVSPropertyOp15
 70
     1
102
RTVSPropertyOp16
 70
     1
102
RTVSPropertyOp17
 70
     1
102
RTVSPropertyOp18
 70
     1
102
RTVSPropertyOp19
 70
     1
102
RTVSPropertyOp20
 70
     1
102
RTVSPropertyOp21
 70
     1
102
RTVSPropertyOp22
 70
     1
102
RTVSPropertyOp23
 70
     1
102
RTVSPropertyOp24
 70
     1
102
RTVSPropertyOp25
 70
     1
102
RTVSPropertyOp26
 70
     1
102
RTVSPropertyOp27
 70
     1
102
RTVSPropertyOp28
 70
     1
102
RTVSPropertyOp29
 70
     1
102
RTVSPropertyOp30
 70
     1
102
RTVSPropertyOp31
 70
     1
102
RTVSPropertyOp32
 70
     1
102
RTVSPropertyOp33
 70
     1
102
RTVSPropertyOp34
 70
     1
102
RTVSPropertyOp35
 70
     1
102
RTVSPropertyOp36
 70
     1
102
RTVSPropertyOp37
 70
     1
102
RTVSPropertyOp38
 70
     1
102
RTVSPropertyOp39
 70
     1
102
RTVSPropertyOp40
 70
     1
102
RTVSPropertyOp41
 70
     1
102
RTVSPropertyOp42
 70
     1
102
RTVSPropertyOp43
 70
     1
102
RTVSPropertyOp44
 70
     1
102
RTVSPropertyOp45
 70
     1
102
RTVSPropertyOp46
 70
     1
102
RTVSPropertyOp47
 70
     1
102
RTVSPropertyOp48
 70
     1
102
RTVSPropertyOp49
 70
     1
102
RTVSPropertyOp50
 70
     1
102
RTVSPropertyOp51
 70
     0
102
RTVSPropertyOp52
 70
     0
102
RTVSPropertyOp53
 70
     1
102
RTVSPropertyOp54
 70
     1
102
RTVSPropertyOp55
 70
     1
102
RTVSPropertyOp56
 70
     1
102
RTVSPropertyOp57
 70
     1
102
RTVSPost2010Prop28
280
     0
102
RTVSPost2010PropOp28
 70
     1
102
RTVSPost2010Prop29
280
     1
102
RTVSPost2010PropOp29
 70
     1
102
RTVSPost2010Prop30
280
     1
102
RTVSPost2010PropOp30
 70
     1
102
RTVSPost2010Prop31
280
     0
102
RTVSPost2010PropOp31
 70
     1
102
RTVSPost2010Prop32
280
     0
102
RTVSPost2010PropOp32
 70
     1
102
RTVSPost2010Prop33
280
     0
102
RTVSPost2010PropOp33
 70
     1
102
RTVSPost2010Prop34
280
     0
102
RTVSPost2010PropOp34
 70
     1
102
RTVSPost2010Prop35
280
     0
102
RTVSPost2010PropOp35
 70
     1
102
RTVSPost2010Prop36
280
     0
102
RTVSPost2010PropOp36
 70
     1
102
RTVSPost2010Prop37
 90
       50
102
RTVSPost2010PropOp37
 70
     1
102
RTVSPost2010Prop38
140
0.0
102
RTVSPost2010PropOp38
 70
     1
102
RTVSPost2010Prop39
140
1.0
102
RTVSPost2010PropOp39
 70
     1
102
RTVSPost2010Prop40
 90
        0
102
RTVSPost2010PropOp40
 70
     1
102
RTVSPost2010Prop41ColorIndex
 90
       18
102
RTVSPost2010Prop41ColorRGB
 90
        0
102
RTVSPost2010PropOp41
 70
     1
102
RTVSPost2010Prop42
 90
       50
102
RTVSPost2010PropOp42
 70
     1
102
RTVSPost2010Prop43
 90
        3
102
RTVSPost2010PropOp43
 70
     1
102
RTVSPost2010Prop44ColorIndex
 90
        5
102
RTVSPost2010Prop44ColorRGB
 90
      255
102
RTVSPost2010PropOp44
 70
     1
102
RTVSPost2010Prop45
280
     0
102
RTVSPost2010PropOp45
 70
     1
102
RTVSPost2010Prop46
 90
       50
102
RTVSPost2010PropOp46
 70
     1
102
RTVSPost2010Prop47
 90
       50
102
RTVSPost2010PropOp47
 70
     1
102
RTVSPost2010Prop48
 90
       50
102
RTVSPost2010PropOp48
 70
     1
102
RTVSPost2010Prop49
280
     0
102
RTVSPost2010PropOp49
 70
     1
102
RTVSPost2010Prop50
 90
       50
102
RTVSPost2010PropOp50
 70
     1
102
RTVSPost2010Prop51ColorIndex
 90
      256
102
RTVSPost2010Prop51ColorRGB
 90
-16777216
102
RTVSPost2010PropOp51
 70
     0
102
RTVSPost2010Prop52
140
1.0
102
RTVSPost2010PropOp52
 70
     0
102
RTVSPost2010Prop53
 90
        2
102
RTVSPost2010PropOp53
 70
     1
102
RTVSPost2010Prop54
  1
strokes_ogs.tif
102
RTVSPost2010PropOp54
 70
     1
102
RTVSPost2010Prop55
280
     0
102
RTVSPost2010PropOp55
 70
     1
102
RTVSPost2010Prop56
140
1.0
102
RTVSPost2010PropOp56
 70
     1
102
RTVSPost2010Prop57
140
1.0
102
RTVSPost2010PropOp57
 70
     1
  0
XRECORD
  5
333
102
{ACAD_REACTORS
330
332
102
}
330
332
100
AcDbXrecord
280
     1
102
RTVSPropertyOp0
 70
     1
102
RTVSPropertyOp1
 70
     1
102
RTVSPropertyOp2
 70
     1
102
RTVSPropertyOp3
 70
     1
102
RTVSPropertyOp4
 70
     1
102
RTVSPropertyOp5
 70
     1
102
RTVSPropertyOp6
 70
     1
102
RTVSPropertyOp7
 70
     1
102
RTVSPropertyOp8
 70
     1
102
RTVSPropertyOp9
 70
     1
102
RTVSPropertyOp10
 70
     1
102
RTVSPropertyOp11
 70
     1
102
RTVSPropertyOp12
 70
     1
102
RTVSPropertyOp13
 70
     1
102
RTVSPropertyOp14
 70
     1
102
RTVSPropertyOp15
 70
     1
102
RTVSPropertyOp16
 70
     1
102
RTVSPropertyOp17
 70
     1
102
RTVSPropertyOp18
 70
     1
102
RTVSPropertyOp19
 70
     1
102
RTVSPropertyOp20
 70
     1
102
RTVSPropertyOp21
 70
     1
102
RTVSPropertyOp22
 70
     1
102
RTVSPropertyOp23
 70
     1
102
RTVSPropertyOp24
 70
     1
102
RTVSPropertyOp25
 70
     1
102
RTVSPropertyOp26
 70
     1
102
RTVSPropertyOp27
 70
     1
102
RTVSPropertyOp28
 70
     1
102
RTVSPropertyOp29
 70
     1
102
RTVSPropertyOp30
 70
     1
102
RTVSPropertyOp31
 70
     1
102
RTVSPropertyOp32
 70
     1
102
RTVSPropertyOp33
 70
     1
102
RTVSPropertyOp34
 70
     1
102
RTVSPropertyOp35
 70
     1
102
RTVSPropertyOp36
 70
     1
102
RTVSPropertyOp37
 70
     1
102
RTVSPropertyOp38
 70
     1
102
RTVSPropertyOp39
 70
     1
102
RTVSPropertyOp40
 70
     1
102
RTVSPropertyOp41
 70
     1
102
RTVSPropertyOp42
 70
     1
102
RTVSPropertyOp43
 70
     1
102
RTVSPropertyOp44
 70
     1
102
RTVSPropertyOp45
 70
     1
102
RTVSPropertyOp46
 70
     1
102
RTVSPropertyOp47
 70
     1
102
RTVSPropertyOp48
 70
     1
102
RTVSPropertyOp49
 70
     1
102
RTVSPropertyOp50
 70
     1
102
RTVSPropertyOp51
 70
     0
102
RTVSPropertyOp52
 70
     0
102
RTVSPropertyOp53
 70
     1
102
RTVSPropertyOp54
 70
     1
102
RTVSPropertyOp55
 70
     1
102
RTVSPropertyOp56
 70
     1
102
RTVSPropertyOp57
 70
     1
102
RTVSPost2010Prop28
280
     0
102
RTVSPost2010PropOp28
 70
     1
102
RTVSPost2010Prop29
280
     1
102
RTVSPost2010PropOp29
 70
     1
102
RTVSPost2010Prop30
280
     1
102
RTVSPost2010PropOp30
 70
     1
102
RTVSPost2010Prop31
280
     0
102
RTVSPost2010PropOp31
 70
     1
102
RTVSPost2010Prop32
280
     0
102
RTVSPost2010PropOp32
 70
     1
102
RTVSPost2010Prop33
280
     0
102
RTVSPost2010PropOp33
 70
     1
102
RTVSPost2010Prop34
280
     0
102
RTVSPost2010PropOp34
 70
     1
102
RTVSPost2010Prop35
280
     0
102
RTVSPost2010PropOp35
 70
     1
102
RTVSPost2010Prop36
280
     0
102
RTVSPost2010PropOp36
 70
     1
102
RTVSPost2010Prop37
 90
       50
102
RTVSPost2010PropOp37
 70
     1
102
RTVSPost2010Prop38
140
0.0
102
RTVSPost2010PropOp38
 70
     1
102
RTVSPost2010Prop39
140
1.0
102
RTVSPost2010PropOp39
 70
     1
102
RTVSPost2010Prop40
 90
        0
102
RTVSPost2010PropOp40
 70
     1
102
RTVSPost2010Prop41ColorIndex
 90
       18
102
RTVSPost2010Prop41ColorRGB
 90
        0
102
RTVSPost2010PropOp41
 70
     1
102
RTVSPost2010Prop42
 90
       50
102
RTVSPost2010PropOp42
 70
     1
102
RTVSPost2010Prop43
 90
        3
102
RTVSPost2010PropOp43
 70
     1
102
RTVSPost2010Prop44ColorIndex
 90
        5
102
RTVSPost2010Prop44ColorRGB
 90
      255
102
RTVSPost2010PropOp44
 70
     1
102
RTVSPost2010Prop45
280
     0
102
RTVSPost2010PropOp45
 70
     1
102
RTVSPost2010Prop46
 90
       50
102
RTVSPost2010PropOp46
 70
     1
102
RTVSPost2010Prop47
 90
       50
102
RTVSPost2010PropOp47
 70
     1
102
RTVSPost2010Prop48
 90
       50
102
RTVSPost2010PropOp48
 70
     1
102
RTVSPost2010Prop49
280
     0
102
RTVSPost2010PropOp49
 70
     1
102
RTVSPost2010Prop50
 90
       50
102
RTVSPost2010PropOp50
 70
     1
102
RTVSPost2010Prop51ColorIndex
 90
      256
102
RTVSPost2010Prop51ColorRGB
 90
-16777216
102
RTVSPost2010PropOp51
 70
     0
102
RTVSPost2010Prop52
140
1.0
102
RTVSPost2010PropOp52
 70
     0
102
RTVSPost2010Prop53
 90
        2
102
RTVSPost2010PropOp53
 70
     1
102
RTVSPost2010Prop54
  1
strokes_ogs.tif
102
RTVSPost2010PropOp54
 70
     1
102
RTVSPost2010Prop55
280
     0
102
RTVSPost2010PropOp55
 70
     1
102
RTVSPost2010Prop56
140
1.0
102
RTVSPost2010PropOp56
 70
     1
102
RTVSPost2010Prop57
140
1.0
102
RTVSPost2010PropOp57
 70
     1
  0
XRECORD
  5
323
102
{ACAD_REACTORS
330
322
102
}
330
322
100
AcDbXrecord
280
     1
102
RTVSPropertyOp0
 70
     1
102
RTVSPropertyOp1
 70
     1
102
RTVSPropertyOp2
 70
     1
102
RTVSPropertyOp3
 70
     1
102
RTVSPropertyOp4
 70
     1
102
RTVSPropertyOp5
 70
     1
102
RTVSPropertyOp6
 70
     1
102
RTVSPropertyOp7
 70
     1
102
RTVSPropertyOp8
 70
     1
102
RTVSPropertyOp9
 70
     1
102
RTVSPropertyOp10
 70
     1
102
RTVSPropertyOp11
 70
     1
102
RTVSPropertyOp12
 70
     1
102
RTVSPropertyOp13
 70
     1
102
RTVSPropertyOp14
 70
     1
102
RTVSPropertyOp15
 70
     1
102
RTVSPropertyOp16
 70
     1
102
RTVSPropertyOp17
 70
     1
102
RTVSPropertyOp18
 70
     1
102
RTVSPropertyOp19
 70
     1
102
RTVSPropertyOp20
 70
     1
102
RTVSPropertyOp21
 70
     1
102
RTVSPropertyOp22
 70
     1
102
RTVSPropertyOp23
 70
     1
102
RTVSPropertyOp24
 70
     1
102
RTVSPropertyOp25
 70
     1
102
RTVSPropertyOp26
 70
     1
102
RTVSPropertyOp27
 70
     1
102
RTVSPropertyOp28
 70
     1
102
RTVSPropertyOp29
 70
     1
102
RTVSPropertyOp30
 70
     1
102
RTVSPropertyOp31
 70
     1
102
RTVSPropertyOp32
 70
     1
102
RTVSPropertyOp33
 70
     1
102
RTVSPropertyOp34
 70
     1
102
RTVSPropertyOp35
 70
     1
102
RTVSPropertyOp36
 70
     1
102
RTVSPropertyOp37
 70
     1
102
RTVSPropertyOp38
 70
     1
102
RTVSPropertyOp39
 70
     1
102
RTVSPropertyOp40
 70
     1
102
RTVSPropertyOp41
 70
     1
102
RTVSPropertyOp42
 70
     1
102
RTVSPropertyOp43
 70
     1
102
RTVSPropertyOp44
 70
     1
102
RTVSPropertyOp45
 70
     1
102
RTVSPropertyOp46
 70
     1
102
RTVSPropertyOp47
 70
     1
102
RTVSPropertyOp48
 70
     1
102
RTVSPropertyOp49
 70
     1
102
RTVSPropertyOp50
 70
     1
102
RTVSPropertyOp51
 70
     0
102
RTVSPropertyOp52
 70
     0
102
RTVSPropertyOp53
 70
     1
102
RTVSPropertyOp54
 70
     1
102
RTVSPropertyOp55
 70
     1
102
RTVSPropertyOp56
 70
     1
102
RTVSPropertyOp57
 70
     1
102
RTVSPost2010Prop28
280
     0
102
RTVSPost2010PropOp28
 70
     1
102
RTVSPost2010Prop29
280
     1
102
RTVSPost2010PropOp29
 70
     1
102
RTVSPost2010Prop30
280
     1
102
RTVSPost2010PropOp30
 70
     1
102
RTVSPost2010Prop31
280
     0
102
RTVSPost2010PropOp31
 70
     1
102
RTVSPost2010Prop32
280
     0
102
RTVSPost2010PropOp32
 70
     1
102
RTVSPost2010Prop33
280
     0
102
RTVSPost2010PropOp33
 70
     1
102
RTVSPost2010Prop34
280
     0
102
RTVSPost2010PropOp34
 70
     1
102
RTVSPost2010Prop35
280
     0
102
RTVSPost2010PropOp35
 70
     1
102
RTVSPost2010Prop36
280
     0
102
RTVSPost2010PropOp36
 70
     1
102
RTVSPost2010Prop37
 90
       50
102
RTVSPost2010PropOp37
 70
     1
102
RTVSPost2010Prop38
140
0.0
102
RTVSPost2010PropOp38
 70
     1
102
RTVSPost2010Prop39
140
1.0
102
RTVSPost2010PropOp39
 70
     1
102
RTVSPost2010Prop40
 90
        0
102
RTVSPost2010PropOp40
 70
     1
102
RTVSPost2010Prop41ColorIndex
 90
       18
102
RTVSPost2010Prop41ColorRGB
 90
        0
102
RTVSPost2010PropOp41
 70
     1
102
RTVSPost2010Prop42
 90
       50
102
RTVSPost2010PropOp42
 70
     1
102
RTVSPost2010Prop43
 90
        3
102
RTVSPost2010PropOp43
 70
     1
102
RTVSPost2010Prop44ColorIndex
 90
        5
102
RTVSPost2010Prop44ColorRGB
 90
      255
102
RTVSPost2010PropOp44
 70
     1
102
RTVSPost2010Prop45
280
     0
102
RTVSPost2010PropOp45
 70
     1
102
RTVSPost2010Prop46
 90
       50
102
RTVSPost2010PropOp46
 70
     1
102
RTVSPost2010Prop47
 90
       50
102
RTVSPost2010PropOp47
 70
     1
102
RTVSPost2010Prop48
 90
       50
102
RTVSPost2010PropOp48
 70
     1
102
RTVSPost2010Prop49
280
     0
102
RTVSPost2010PropOp49
 70
     1
102
RTVSPost2010Prop50
 90
       50
102
RTVSPost2010PropOp50
 70
     1
102
RTVSPost2010Prop51ColorIndex
 90
      256
102
RTVSPost2010Prop51ColorRGB
 90
-16777216
102
RTVSPost2010PropOp51
 70
     0
102
RTVSPost2010Prop52
140
1.0
102
RTVSPost2010PropOp52
 70
     0
102
RTVSPost2010Prop53
 90
        2
102
RTVSPost2010PropOp53
 70
     1
102
RTVSPost2010Prop54
  1
strokes_ogs.tif
102
RTVSPost2010PropOp54
 70
     1
102
RTVSPost2010Prop55
280
     0
102
RTVSPost2010PropOp55
 70
     1
102
RTVSPost2010Prop56
140
1.0
102
RTVSPost2010PropOp56
 70
     1
102
RTVSPost2010Prop57
140
1.0
102
RTVSPost2010PropOp57
 70
     1
  0
XRECORD
  5
315
102
{ACAD_REACTORS
330
314
102
}
330
314
100
AcDbXrecord
280
     1
102
RTVSPropertyOp0
 70
     1
102
RTVSPropertyOp1
 70
     1
102
RTVSPropertyOp2
 70
     1
102
RTVSPropertyOp3
 70
     1
102
RTVSPropertyOp4
 70
     1
102
RTVSPropertyOp5
 70
     1
102
RTVSPropertyOp6
 70
     1
102
RTVSPropertyOp7
 70
     1
102
RTVSPropertyOp8
 70
     1
102
RTVSPropertyOp9
 70
     1
102
RTVSPropertyOp10
 70
     1
102
RTVSPropertyOp11
 70
     1
102
RTVSPropertyOp12
 70
     1
102
RTVSPropertyOp13
 70
     1
102
RTVSPropertyOp14
 70
     1
102
RTVSPropertyOp15
 70
     1
102
RTVSPropertyOp16
 70
     1
102
RTVSPropertyOp17
 70
     1
102
RTVSPropertyOp18
 70
     1
102
RTVSPropertyOp19
 70
     1
102
RTVSPropertyOp20
 70
     1
102
RTVSPropertyOp21
 70
     1
102
RTVSPropertyOp22
 70
     1
102
RTVSPropertyOp23
 70
     1
102
RTVSPropertyOp24
 70
     1
102
RTVSPropertyOp25
 70
     1
102
RTVSPropertyOp26
 70
     1
102
RTVSPropertyOp27
 70
     1
102
RTVSPropertyOp28
 70
     1
102
RTVSPropertyOp29
 70
     1
102
RTVSPropertyOp30
 70
     1
102
RTVSPropertyOp31
 70
     1
102
RTVSPropertyOp32
 70
     1
102
RTVSPropertyOp33
 70
     1
102
RTVSPropertyOp34
 70
     1
102
RTVSPropertyOp35
 70
     1
102
RTVSPropertyOp36
 70
     1
102
RTVSPropertyOp37
 70
     1
102
RTVSPropertyOp38
 70
     1
102
RTVSPropertyOp39
 70
     1
102
RTVSPropertyOp40
 70
     1
102
RTVSPropertyOp41
 70
     1
102
RTVSPropertyOp42
 70
     1
102
RTVSPropertyOp43
 70
     1
102
RTVSPropertyOp44
 70
     1
102
RTVSPropertyOp45
 70
     1
102
RTVSPropertyOp46
 70
     1
102
RTVSPropertyOp47
 70
     1
102
RTVSPropertyOp48
 70
     1
102
RTVSPropertyOp49
 70
     1
102
RTVSPropertyOp50
 70
     1
102
RTVSPropertyOp51
 70
     0
102
RTVSPropertyOp52
 70
     0
102
RTVSPropertyOp53
 70
     1
102
RTVSPropertyOp54
 70
     1
102
RTVSPropertyOp55
 70
     1
102
RTVSPropertyOp56
 70
     1
102
RTVSPropertyOp57
 70
     1
102
RTVSPost2010Prop28
280
     0
102
RTVSPost2010PropOp28
 70
     1
102
RTVSPost2010Prop29
280
     1
102
RTVSPost2010PropOp29
 70
     1
102
RTVSPost2010Prop30
280
     1
102
RTVSPost2010PropOp30
 70
     1
102
RTVSPost2010Prop31
280
     0
102
RTVSPost2010PropOp31
 70
     1
102
RTVSPost2010Prop32
280
     0
102
RTVSPost2010PropOp32
 70
     1
102
RTVSPost2010Prop33
280
     0
102
RTVSPost2010PropOp33
 70
     1
102
RTVSPost2010Prop34
280
     0
102
RTVSPost2010PropOp34
 70
     1
102
RTVSPost2010Prop35
280
     0
102
RTVSPost2010PropOp35
 70
     1
102
RTVSPost2010Prop36
280
     0
102
RTVSPost2010PropOp36
 70
     1
102
RTVSPost2010Prop37
 90
       50
102
RTVSPost2010PropOp37
 70
     1
102
RTVSPost2010Prop38
140
0.0
102
RTVSPost2010PropOp38
 70
     1
102
RTVSPost2010Prop39
140
1.0
102
RTVSPost2010PropOp39
 70
     1
102
RTVSPost2010Prop40
 90
        0
102
RTVSPost2010PropOp40
 70
     1
102
RTVSPost2010Prop41ColorIndex
 90
       18
102
RTVSPost2010Prop41ColorRGB
 90
        0
102
RTVSPost2010PropOp41
 70
     1
102
RTVSPost2010Prop42
 90
       50
102
RTVSPost2010PropOp42
 70
     1
102
RTVSPost2010Prop43
 90
        3
102
RTVSPost2010PropOp43
 70
     1
102
RTVSPost2010Prop44ColorIndex
 90
        5
102
RTVSPost2010Prop44ColorRGB
 90
      255
102
RTVSPost2010PropOp44
 70
     1
102
RTVSPost2010Prop45
280
     0
102
RTVSPost2010PropOp45
 70
     1
102
RTVSPost2010Prop46
 90
       50
102
RTVSPost2010PropOp46
 70
     1
102
RTVSPost2010Prop47
 90
       50
102
RTVSPost2010PropOp47
 70
     1
102
RTVSPost2010Prop48
 90
       50
102
RTVSPost2010PropOp48
 70
     1
102
RTVSPost2010Prop49
280
     0
102
RTVSPost2010PropOp49
 70
     1
102
RTVSPost2010Prop50
 90
       50
102
RTVSPost2010PropOp50
 70
     1
102
RTVSPost2010Prop51ColorIndex
 90
      256
102
RTVSPost2010Prop51ColorRGB
 90
-16777216
102
RTVSPost2010PropOp51
 70
     0
102
RTVSPost2010Prop52
140
1.0
102
RTVSPost2010PropOp52
 70
     0
102
RTVSPost2010Prop53
 90
        2
102
RTVSPost2010PropOp53
 70
     1
102
RTVSPost2010Prop54
  1
strokes_ogs.tif
102
RTVSPost2010PropOp54
 70
     1
102
RTVSPost2010Prop55
280
     0
102
RTVSPost2010PropOp55
 70
     1
102
RTVSPost2010Prop56
140
1.0
102
RTVSPost2010PropOp56
 70
     1
102
RTVSPost2010Prop57
140
1.0
102
RTVSPost2010PropOp57
 70
     1
  0
XRECORD
  5
335
102
{ACAD_REACTORS
330
334
102
}
330
334
100
AcDbXrecord
280
     1
102
RTVSPropertyOp0
 70
     1
102
RTVSPropertyOp1
 70
     1
102
RTVSPropertyOp2
 70
     1
102
RTVSPropertyOp3
 70
     1
102
RTVSPropertyOp4
 70
     1
102
RTVSPropertyOp5
 70
     1
102
RTVSPropertyOp6
 70
     1
102
RTVSPropertyOp7
 70
     1
102
RTVSPropertyOp8
 70
     1
102
RTVSPropertyOp9
 70
     1
102
RTVSPropertyOp10
 70
     1
102
RTVSPropertyOp11
 70
     1
102
RTVSPropertyOp12
 70
     1
102
RTVSPropertyOp13
 70
     1
102
RTVSPropertyOp14
 70
     1
102
RTVSPropertyOp15
 70
     1
102
RTVSPropertyOp16
 70
     1
102
RTVSPropertyOp17
 70
     1
102
RTVSPropertyOp18
 70
     1
102
RTVSPropertyOp19
 70
     1
102
RTVSPropertyOp20
 70
     1
102
RTVSPropertyOp21
 70
     1
102
RTVSPropertyOp22
 70
     1
102
RTVSPropertyOp23
 70
     1
102
RTVSPropertyOp24
 70
     1
102
RTVSPropertyOp25
 70
     1
102
RTVSPropertyOp26
 70
     1
102
RTVSPropertyOp27
 70
     1
102
RTVSPropertyOp28
 70
     1
102
RTVSPropertyOp29
 70
     1
102
RTVSPropertyOp30
 70
     1
102
RTVSPropertyOp31
 70
     1
102
RTVSPropertyOp32
 70
     1
102
RTVSPropertyOp33
 70
     1
102
RTVSPropertyOp34
 70
     1
102
RTVSPropertyOp35
 70
     1
102
RTVSPropertyOp36
 70
     1
102
RTVSPropertyOp37
 70
     1
102
RTVSPropertyOp38
 70
     1
102
RTVSPropertyOp39
 70
     1
102
RTVSPropertyOp40
 70
     1
102
RTVSPropertyOp41
 70
     1
102
RTVSPropertyOp42
 70
     1
102
RTVSPropertyOp43
 70
     1
102
RTVSPropertyOp44
 70
     1
102
RTVSPropertyOp45
 70
     1
102
RTVSPropertyOp46
 70
     1
102
RTVSPropertyOp47
 70
     1
102
RTVSPropertyOp48
 70
     1
102
RTVSPropertyOp49
 70
     1
102
RTVSPropertyOp50
 70
     1
102
RTVSPropertyOp51
 70
     0
102
RTVSPropertyOp52
 70
     0
102
RTVSPropertyOp53
 70
     1
102
RTVSPropertyOp54
 70
     1
102
RTVSPropertyOp55
 70
     1
102
RTVSPropertyOp56
 70
     1
102
RTVSPropertyOp57
 70
     1
102
RTVSPost2010Prop28
280
     0
102
RTVSPost2010PropOp28
 70
     1
102
RTVSPost2010Prop29
280
     1
102
RTVSPost2010PropOp29
 70
     1
102
RTVSPost2010Prop30
280
     1
102
RTVSPost2010PropOp30
 70
     1
102
RTVSPost2010Prop31
280
     0
102
RTVSPost2010PropOp31
 70
     1
102
RTVSPost2010Prop32
280
     0
102
RTVSPost2010PropOp32
 70
     1
102
RTVSPost2010Prop33
280
     0
102
RTVSPost2010PropOp33
 70
     1
102
RTVSPost2010Prop34
280
     0
102
RTVSPost2010PropOp34
 70
     1
102
RTVSPost2010Prop35
280
     0
102
RTVSPost2010PropOp35
 70
     1
102
RTVSPost2010Prop36
280
     0
102
RTVSPost2010PropOp36
 70
     1
102
RTVSPost2010Prop37
 90
       50
102
RTVSPost2010PropOp37
 70
     1
102
RTVSPost2010Prop38
140
0.0
102
RTVSPost2010PropOp38
 70
     1
102
RTVSPost2010Prop39
140
1.0
102
RTVSPost2010PropOp39
 70
     1
102
RTVSPost2010Prop40
 90
        0
102
RTVSPost2010PropOp40
 70
     1
102
RTVSPost2010Prop41ColorIndex
 90
       18
102
RTVSPost2010Prop41ColorRGB
 90
        0
102
RTVSPost2010PropOp41
 70
     1
102
RTVSPost2010Prop42
 90
       50
102
RTVSPost2010PropOp42
 70
     1
102
RTVSPost2010Prop43
 90
        3
102
RTVSPost2010PropOp43
 70
     1
102
RTVSPost2010Prop44ColorIndex
 90
        5
102
RTVSPost2010Prop44ColorRGB
 90
      255
102
RTVSPost2010PropOp44
 70
     1
102
RTVSPost2010Prop45
280
     0
102
RTVSPost2010PropOp45
 70
     1
102
RTVSPost2010Prop46
 90
       50
102
RTVSPost2010PropOp46
 70
     1
102
RTVSPost2010Prop47
 90
       50
102
RTVSPost2010PropOp47
 70
     1
102
RTVSPost2010Prop48
 90
       50
102
RTVSPost2010PropOp48
 70
     1
102
RTVSPost2010Prop49
280
     0
102
RTVSPost2010PropOp49
 70
     1
102
RTVSPost2010Prop50
 90
       50
102
RTVSPost2010PropOp50
 70
     1
102
RTVSPost2010Prop51ColorIndex
 90
      256
102
RTVSPost2010Prop51ColorRGB
 90
-16777216
102
RTVSPost2010PropOp51
 70
     0
102
RTVSPost2010Prop52
140
1.0
102
RTVSPost2010PropOp52
 70
     0
102
RTVSPost2010Prop53
 90
        2
102
RTVSPost2010PropOp53
 70
     1
102
RTVSPost2010Prop54
  1
strokes_ogs.tif
102
RTVSPost2010PropOp54
 70
     1
102
RTVSPost2010Prop55
280
     0
102
RTVSPost2010PropOp55
 70
     1
102
RTVSPost2010Prop56
140
1.0
102
RTVSPost2010PropOp56
 70
     1
102
RTVSPost2010Prop57
140
1.0
102
RTVSPost2010PropOp57
 70
     1
  0
ENDSEC
  0
EOF
