  0
SECTION
  2
HEADER
  9
$ACADVER
  1
AC1009
  9
$DWGCODEPAGE
  3
ansi_1252
  9
$INSBASE
 10
0.0
 20
0.0
 30
0.0
  9
$EXTMIN
 10
0.0
 20
0.0
 30
0.0
  9
$EXTMAX
 10
1100.0
 20
1400.0
 30
0.0
  9
$LIMMIN
 10
0.0
 20
0.0
  9
$LIMMAX
 10
1100.0
 20
1400.0
  9
$ORTHOMODE
 70
     0
  9
$REGENMODE
 70
     1
  9
$FILLMODE
 70
     1
  9
$QTEXTMODE
 70
     0
  9
$MIRRTEXT
 70
     1
  9
$DRAGMODE
 70
     2
  9
$LTSCALE
 40
25.4
  9
$OSMODE
 70
    37
  9
$ATTMODE
 70
     1
  9
$TEXTSIZE
 40
0.2
  9
$TRACEWID
 40
0.05
  9
$TEXTSTYLE
  7
STANDARD
  9
$CLAYER
  8
0
  9
$CELTYPE
  6
BYLAYER
  9
$CECOLOR
 62
   256
  9
$DIMSCALE
 40
1.0
  9
$DIMASZ
 40
0.18
  9
$DIMEXO
 40
0.0625
  9
$DIMDLI
 40
0.38
  9
$DIMRND
 40
0.0
  9
$DIMDLE
 40
0.0
  9
$DIMEXE
 40
0.18
  9
$DIMTP
 40
0.0
  9
$DIMTM
 40
0.0
  9
$DIMTXT
 40
0.18
  9
$DIMCEN
 40
0.09
  9
$DIMTSZ
 40
0.0
  9
$DIMTOL
 70
     0
  9
$DIMLIM
 70
     0
  9
$DIMTIH
 70
     1
  9
$DIMTOH
 70
     1
  9
$DIMSE1
 70
     0
  9
$DIMSE2
 70
     0
  9
$DIMTAD
 70
     0
  9
$DIMZIN
 70
     0
  9
$DIMBLK
  1

  9
$DIMASO
 70
     1
  9
$DIMSHO
 70
     1
  9
$DIMPOST
  1

  9
$DIMAPOST
  1

  9
$DIMALT
 70
     0
  9
$DIMALTD
 70
     2
  9
$DIMALTF
 40
25.4
  9
$DIMLFAC
 40
1.0
  9
$DIMTOFL
 70
     0
  9
$DIMTVP
 40
0.0
  9
$DIMTIX
 70
     0
  9
$DIMSOXD
 70
     0
  9
$DIMSAH
 70
     0
  9
$DIMBLK1
  1

  9
$DIMBLK2
  1

  9
$DIMSTYLE
  2
STANDARD
  9
$DIMCLRD
 70
     0
  9
$DIMCLRE
 70
     0
  9
$DIMCLRT
 70
     0
  9
$DIMTFAC
 40
1.0
  9
$DIMGAP
 40
0.09
  9
$LUNITS
 70
     2
  9
$LUPREC
 70
     4
  9
$SKETCHINC
 40
0.1
  9
$FILLETRAD
 40
0.5
  9
$AUNITS
 70
     0
  9
$AUPREC
 70
     0
  9
$MENU
  1
.
  9
$ELEVATION
 40
0.0
  9
$PELEVATION
 40
0.0
  9
$THICKNESS
 40
0.0
  9
$LIMCHECK
 70
     0
  9
$CHAMFERA
 40
0.5
  9
$CHAMFERB
 40
0.5
  9
$SKPOLY
 70
     0
  9
$TDCREATE
 40
2454483.579265023
  9
$TDUPDATE
 40
2454483.579265035
  9
$TDINDWG
 40
0.0000000116
  9
$TDUSRTIMER
 40
0.0000000116
  9
$USRTIMER
 70
     1
  9
$ANGBASE
 50
0.0
  9
$ANGDIR
 70
     0
  9
$PDMODE
 70
     0
  9
$PDSIZE
 40
0.0
  9
$PLINEWID
 40
0.0
  9
$COORDS
 70
     1
  9
$SPLFRAME
 70
     0
  9
$SPLINETYPE
 70
     6
  9
$SPLINESEGS
 70
     8
  9
$ATTDIA
 70
     0
  9
$ATTREQ
 70
     1
  9
$HANDLING
 70
     1
  9
$HANDSEED
  5
460
  9
$SURFTAB1
 70
     6
  9
$SURFTAB2
 70
     6
  9
$SURFTYPE
 70
     6
  9
$SURFU
 70
     6
  9
$SURFV
 70
     6
  9
$UCSNAME
  2

  9
$UCSORG
 10
0.0
 20
0.0
 30
0.0
  9
$UCSXDIR
 10
1.0
 20
0.0
 30
0.0
  9
$UCSYDIR
 10
0.0
 20
1.0
 30
0.0
  9
$PUCSNAME
  2

  9
$PUCSORG
 10
0.0
 20
0.0
 30
0.0
  9
$PUCSXDIR
 10
1.0
 20
0.0
 30
0.0
  9
$PUCSYDIR
 10
0.0
 20
1.0
 30
0.0
  9
$USERI1
 70
     0
  9
$USERI2
 70
     0
  9
$USERI3
 70
     0
  9
$USERI4
 70
     0
  9
$USERI5
 70
     0
  9
$USERR1
 40
0.0
  9
$USERR2
 40
0.0
  9
$USERR3
 40
0.0
  9
$USERR4
 40
0.0
  9
$USERR5
 40
0.0
  9
$WORLDVIEW
 70
     1
  9
$SHADEDGE
 70
     3
  9
$SHADEDIF
 70
    70
  9
$TILEMODE
 70
     1
  9
$MAXACTVP
 70
    64
  9
$PLIMCHECK
 70
     0
  9
$PEXTMIN
 10
0.0
 20
0.0
 30
0.0
  9
$PEXTMAX
 10
1100.0
 20
1400.0
 30
0.0
  9
$PLIMMIN
 10
0.0
 20
0.0
  9
$PLIMMAX
 10
1100.0
 20
1400.0
  9
$UNITMODE
 70
     0
  9
$VISRETAIN
 70
     1
  9
$PLINEGEN
 70
     0
  9
$PSLTSCALE
 70
     1
  0
ENDSEC
  0
SECTION
  2
TABLES
  0
TABLE
  2
VPORT
 70
     1
  0
VPORT
  2
*ACTIVE
 70
     0
 10
0.0
 20
0.0
 11
1.0
 21
1.0
 12
10.4299065421
 22
4.5
 13
0.0
 23
0.0
 14
0.5
 24
0.5
 15
0.5
 25
0.5
 16
0.0
 26
0.0
 36
1.0
 17
0.0
 27
0.0
 37
0.0
 40
9.0
 41
1.9729729729
 42
50.0
 43
0.0
 44
0.0
 50
0.0
 51
0.0
 71
     0
 72
   100
 73
     1
 74
     3
 75
     0
 76
     0
 77
     0
 78
     0
  0
ENDTAB
  0
TABLE
  2
LTYPE
 70
     1
  0
LTYPE
  2
CONTINUOUS
 70
     0
  3
Solid line
 72
    65
 73
     0
 40
0.0
  0
ENDTAB
  0
TABLE
  2
LAYER
 70
     3
  0
LAYER
  2
0
 70
     0
 62
     7
  6
CONTINUOUS
  0
LAYER
  2
DEFAULT
 70
     0
 62
     7
  6
CONTINUOUS
  0
LAYER
  2
52176797
 70
     0
 62
     7
  6
CONTINUOUS
  0
ENDTAB
  0
TABLE
  2
STYLE
 70
     1
  0
STYLE
  2
STANDARD
 70
     0
 40
0.0
 41
1.0
 50
0.0
 71
     0
 42
0.2
  3
txt
  4

  0
ENDTAB
  0
TABLE
  2
VIEW
 70
     0
  0
ENDTAB
  0
TABLE
  2
UCS
 70
     0
  0
ENDTAB
  0
TABLE
  2
APPID
 70
     1
  0
APPID
  2
ACAD
 70
     0
  0
ENDTAB
  0
TABLE
  2
DIMSTYLE
 70
     1
  0
DIMSTYLE
  2
STANDARD
 70
     0
  3

  4

  5

  6

  7

 40
1.0
 41
0.18
 42
0.0625
 43
0.38
 44
0.18
 45
0.0
 46
0.0
 47
0.0
 48
0.0
140
0.18
141
0.09
142
0.0
143
25.4
144
1.0
145
0.0
146
1.0
147
0.09
 71
     0
 72
     0
 73
     1
 74
     1
 75
     0
 76
     0
 77
     0
 78
     0
170
     0
171
     2
172
     0
173
     0
174
     0
175
     0
176
     0
177
     0
178
     0
  0
ENDTAB
  0
ENDSEC
  0
SECTION
  2
BLOCKS
  0
BLOCK
  8
0
  2
$MODEL_SPACE
 70
     0
 10
0.0
 20
0.0
 30
0.0
  3
$MODEL_SPACE
  1

  0
ENDBLK
  5
21
  8
0
  0
BLOCK
 67
     1
  8
0
  2
$PAPER_SPACE
 70
     0
 10
0.0
 20
0.0
 30
0.0
  3
$PAPER_SPACE
  1

  0
ENDBLK
  5
1D
 67
     1
  8
0
  0
BLOCK
  8
0
  2
SE
 70
     0
 10
0.0
 20
0.0
 30
0.0
  3
SE
  1

  0
LINE
  5
2E
  8
52176797
  6
CONTINUOUS
 62
     7
 10
158.00147999
 20
21.3484377014
 30
0.0
 11
158.00147999
 21
567.3484377014
 31
0.0
  0
LINE
  5
2F
  8
52176797
  6
CONTINUOUS
 62
     7
 10
181.00147999
 20
21.3484377014
 30
0.0
 11
181.00147999
 21
567.3484377014
 31
0.0
  0
POLYLINE
  5
30
  8
52176797
  6
CONTINUOUS
 62
     7
 66
     1
 10
0.0
 20
0.0
 30
0.0
  0
VERTEX
  5
192
  8
52176797
  6
CONTINUOUS
 62
     7
 10
176.4542697615
 20
567.3472312622
 30
0.0
  0
VERTEX
  5
193
  8
52176797
  6
CONTINUOUS
 62
     7
 10
176.4581351795
 20
567.3473296571
 30
0.0
  0
VERTEX
  5
194
  8
52176797
  6
CONTINUOUS
 62
     7
 10
176.4618354499
 20
567.3474237484
 30
0.0
  0
VERTEX
  5
195
  8
52176797
  6
CONTINUOUS
 62
     7
 10
176.4653706591
 20
567.3475135431
 30
0.0
  0
VERTEX
  5
196
  8
52176797
  6
CONTINUOUS
 62
     7
 10
176.4687408937
 20
567.3475990481
 30
0.0
  0
VERTEX
  5
197
  8
52176797
  6
CONTINUOUS
 62
     7
 10
176.4719462401
 20
567.3476802704
 30
0.0
  0
VERTEX
  5
198
  8
52176797
  6
CONTINUOUS
 62
     7
 10
176.4749867851
 20
567.3477572169
 30
0.0
  0
VERTEX
  5
199
  8
52176797
  6
CONTINUOUS
 62
     7
 10
176.477862615
 20
567.3478298945
 30
0.0
  0
VERTEX
  5
19A
  8
52176797
  6
CONTINUOUS
 62
     7
 10
176.4805738164
 20
567.3478983102
 30
0.0
  0
VERTEX
  5
19B
  8
52176797
  6
CONTINUOUS
 62
     7
 10
176.4831204759
 20
567.347962471
 30
0.0
  0
VERTEX
  5
19C
  8
52176797
  6
CONTINUOUS
 62
     7
 10
176.4855026801
 20
567.3480223837
 30
0.0
  0
VERTEX
  5
19D
  8
52176797
  6
CONTINUOUS
 62
     7
 10
176.4877205154
 20
567.3480780554
 30
0.0
  0
VERTEX
  5
19E
  8
52176797
  6
CONTINUOUS
 62
     7
 10
176.4897740684
 20
567.3481294929
 30
0.0
  0
VERTEX
  5
19F
  8
52176797
  6
CONTINUOUS
 62
     7
 10
176.4916634256
 20
567.3481767033
 30
0.0
  0
VERTEX
  5
1A0
  8
52176797
  6
CONTINUOUS
 62
     7
 10
176.4933886737
 20
567.3482196934
 30
0.0
  0
VERTEX
  5
1A1
  8
52176797
  6
CONTINUOUS
 62
     7
 10
176.494949899
 20
567.3482584702
 30
0.0
  0
VERTEX
  5
1A2
  8
52176797
  6
CONTINUOUS
 62
     7
 10
176.4963471882
 20
567.3482930406
 30
0.0
  0
VERTEX
  5
1A3
  8
52176797
  6
CONTINUOUS
 62
     7
 10
176.4975806279
 20
567.3483234116
 30
0.0
  0
VERTEX
  5
1A4
  8
52176797
  6
CONTINUOUS
 62
     7
 10
176.4986503045
 20
567.3483495902
 30
0.0
  0
VERTEX
  5
1A5
  8
52176797
  6
CONTINUOUS
 62
     7
 10
176.4995563046
 20
567.3483715833
 30
0.0
  0
VERTEX
  5
1A6
  8
52176797
  6
CONTINUOUS
 62
     7
 10
176.5002987147
 20
567.3483893977
 30
0.0
  0
VERTEX
  5
1A7
  8
52176797
  6
CONTINUOUS
 62
     7
 10
176.5008776214
 20
567.3484030406
 30
0.0
  0
VERTEX
  5
1A8
  8
52176797
  6
CONTINUOUS
 62
     7
 10
176.5012931112
 20
567.3484125187
 30
0.0
  0
VERTEX
  5
1A9
  8
52176797
  6
CONTINUOUS
 62
     7
 10
176.5015452707
 20
567.3484178392
 30
0.0
  0
VERTEX
  5
1AA
  8
52176797
  6
CONTINUOUS
 62
     7
 10
176.5016341864
 20
567.3484190088
 30
0.0
  0
SEQEND
  5
1AB
  8
52176797
  6
CONTINUOUS
 62
     7
  0
POLYLINE
  5
31
  8
52176797
  6
CONTINUOUS
 62
     7
 66
     1
 10
0.0
 20
0.0
 30
0.0
  0
VERTEX
  5
1AC
  8
52176797
  6
CONTINUOUS
 62
     7
 10
162.5035370043
 20
567.3482726668
 30
0.0
  0
VERTEX
  5
1AD
  8
52176797
  6
CONTINUOUS
 62
     7
 10
162.5087188495
 20
567.3480842291
 30
0.0
  0
VERTEX
  5
1AE
  8
52176797
  6
CONTINUOUS
 62
     7
 10
162.5221874935
 20
567.3476829422
 30
0.0
  0
VERTEX
  5
1AF
  8
52176797
  6
CONTINUOUS
 62
     7
 10
162.5438622639
 20
567.3470760563
 30
0.0
  0
VERTEX
  5
1B0
  8
52176797
  6
CONTINUOUS
 62
     7
 10
162.5736624883
 20
567.346270822
 30
0.0
  0
VERTEX
  5
1B1
  8
52176797
  6
CONTINUOUS
 62
     7
 10
162.6115074945
 20
567.3452744895
 30
0.0
  0
VERTEX
  5
1B2
  8
52176797
  6
CONTINUOUS
 62
     7
 10
162.65731661
 20
567.3440943091
 30
0.0
  0
VERTEX
  5
1B3
  8
52176797
  6
CONTINUOUS
 62
     7
 10
162.7110091625
 20
567.3427375314
 30
0.0
  0
VERTEX
  5
1B4
  8
52176797
  6
CONTINUOUS
 62
     7
 10
162.7725044797
 20
567.3412114066
 30
0.0
  0
VERTEX
  5
1B5
  8
52176797
  6
CONTINUOUS
 62
     7
 10
162.8417218892
 20
567.3395231851
 30
0.0
  0
VERTEX
  5
1B6
  8
52176797
  6
CONTINUOUS
 62
     7
 10
162.9185807187
 20
567.3376801173
 30
0.0
  0
VERTEX
  5
1B7
  8
52176797
  6
CONTINUOUS
 62
     7
 10
163.0030002958
 20
567.3356894535
 30
0.0
  0
VERTEX
  5
1B8
  8
52176797
  6
CONTINUOUS
 62
     7
 10
163.0948999481
 20
567.3335584442
 30
0.0
  0
VERTEX
  5
1B9
  8
52176797
  6
CONTINUOUS
 62
     7
 10
163.1941990034
 20
567.3312943396
 30
0.0
  0
VERTEX
  5
1BA
  8
52176797
  6
CONTINUOUS
 62
     7
 10
163.3008167892
 20
567.3289043901
 30
0.0
  0
VERTEX
  5
1BB
  8
52176797
  6
CONTINUOUS
 62
     7
 10
163.4146726332
 20
567.3263958462
 30
0.0
  0
VERTEX
  5
1BC
  8
52176797
  6
CONTINUOUS
 62
     7
 10
163.5356858632
 20
567.3237759582
 30
0.0
  0
VERTEX
  5
1BD
  8
52176797
  6
CONTINUOUS
 62
     7
 10
163.6637758066
 20
567.3210519764
 30
0.0
  0
VERTEX
  5
1BE
  8
52176797
  6
CONTINUOUS
 62
     7
 10
163.7988617912
 20
567.3182311513
 30
0.0
  0
VERTEX
  5
1BF
  8
52176797
  6
CONTINUOUS
 62
     7
 10
163.9408631447
 20
567.3153207331
 30
0.0
  0
VERTEX
  5
1C0
  8
52176797
  6
CONTINUOUS
 62
     7
 10
164.0896810187
 20
567.312332327
 30
0.0
  0
VERTEX
  5
1C1
  8
52176797
  6
CONTINUOUS
 62
     7
 10
164.2450846055
 20
567.309297646
 30
0.0
  0
VERTEX
  5
1C2
  8
52176797
  6
CONTINUOUS
 62
     7
 10
164.406835719
 20
567.3062339007
 30
0.0
  0
VERTEX
  5
1C3
  8
52176797
  6
CONTINUOUS
 62
     7
 10
164.5747032895
 20
567.3031556245
 30
0.0
  0
VERTEX
  5
1C4
  8
52176797
  6
CONTINUOUS
 62
     7
 10
164.7484562471
 20
567.3000773512
 30
0.0
  0
VERTEX
  5
1C5
  8
52176797
  6
CONTINUOUS
 62
     7
 10
164.9278635222
 20
567.2970136144
 30
0.0
  0
VERTEX
  5
1C6
  8
52176797
  6
CONTINUOUS
 62
     7
 10
165.1126940448
 20
567.2939789477
 30
0.0
  0
VERTEX
  5
1C7
  8
52176797
  6
CONTINUOUS
 62
     7
 10
165.3027167454
 20
567.2909878848
 30
0.0
  0
VERTEX
  5
1C8
  8
52176797
  6
CONTINUOUS
 62
     7
 10
165.497700554
 20
567.2880549594
 30
0.0
  0
VERTEX
  5
1C9
  8
52176797
  6
CONTINUOUS
 62
     7
 10
165.6974144009
 20
567.285194705
 30
0.0
  0
VERTEX
  5
1CA
  8
52176797
  6
CONTINUOUS
 62
     7
 10
165.9016272164
 20
567.2824216554
 30
0.0
  0
VERTEX
  5
1CB
  8
52176797
  6
CONTINUOUS
 62
     7
 10
166.1101057392
 20
567.2797503856
 30
0.0
  0
VERTEX
  5
1CC
  8
52176797
  6
CONTINUOUS
 62
     7
 10
166.3224556753
 20
567.2771973504
 30
0.0
  0
VERTEX
  5
1CD
  8
52176797
  6
CONTINUOUS
 62
     7
 10
166.538372781
 20
567.2747736158
 30
0.0
  0
VERTEX
  5
1CE
  8
52176797
  6
CONTINUOUS
 62
     7
 10
166.7576658156
 20
567.2724873951
 30
0.0
  0
VERTEX
  5
1CF
  8
52176797
  6
CONTINUOUS
 62
     7
 10
166.9801435382
 20
567.2703469015
 30
0.0
  0
VERTEX
  5
1D0
  8
52176797
  6
CONTINUOUS
 62
     7
 10
167.2056147081
 20
567.2683603483
 30
0.0
  0
VERTEX
  5
1D1
  8
52176797
  6
CONTINUOUS
 62
     7
 10
167.4338880846
 20
567.2665359487
 30
0.0
  0
VERTEX
  5
1D2
  8
52176797
  6
CONTINUOUS
 62
     7
 10
167.6647724268
 20
567.264881916
 30
0.0
  0
VERTEX
  5
1D3
  8
52176797
  6
CONTINUOUS
 62
     7
 10
167.898076494
 20
567.2634064634
 30
0.0
  0
VERTEX
  5
1D4
  8
52176797
  6
CONTINUOUS
 62
     7
 10
168.1336090454
 20
567.2621178042
 30
0.0
  0
VERTEX
  5
1D5
  8
52176797
  6
CONTINUOUS
 62
     7
 10
168.3711788402
 20
567.2610241517
 30
0.0
  0
VERTEX
  5
1D6
  8
52176797
  6
CONTINUOUS
 62
     7
 10
168.6105946377
 20
567.260133719
 30
0.0
  0
VERTEX
  5
1D7
  8
52176797
  6
CONTINUOUS
 62
     7
 10
168.8514243053
 20
567.259461816
 30
0.0
  0
VERTEX
  5
1D8
  8
52176797
  6
CONTINUOUS
 62
     7
 10
169.0927468805
 20
567.2590297457
 30
0.0
  0
VERTEX
  5
1D9
  8
52176797
  6
CONTINUOUS
 62
     7
 10
169.3342631612
 20
567.2588317043
 30
0.0
  0
VERTEX
  5
1DA
  8
52176797
  6
CONTINUOUS
 62
     7
 10
169.575717313
 20
567.2588603482
 30
0.0
  0
VERTEX
  5
1DB
  8
52176797
  6
CONTINUOUS
 62
     7
 10
169.8168535013
 20
567.2591083339
 30
0.0
  0
VERTEX
  5
1DC
  8
52176797
  6
CONTINUOUS
 62
     7
 10
170.0574158914
 20
567.2595683176
 30
0.0
  0
VERTEX
  5
1DD
  8
52176797
  6
CONTINUOUS
 62
     7
 10
170.2971486488
 20
567.2602329559
 30
0.0
  0
VERTEX
  5
1DE
  8
52176797
  6
CONTINUOUS
 62
     7
 10
170.5357959388
 20
567.2610949051
 30
0.0
  0
VERTEX
  5
1DF
  8
52176797
  6
CONTINUOUS
 62
     7
 10
170.773101927
 20
567.2621468216
 30
0.0
  0
VERTEX
  5
1E0
  8
52176797
  6
CONTINUOUS
 62
     7
 10
171.0088107788
 20
567.2633813618
 30
0.0
  0
VERTEX
  5
1E1
  8
52176797
  6
CONTINUOUS
 62
     7
 10
171.2426666595
 20
567.2647911822
 30
0.0
  0
VERTEX
  5
1E2
  8
52176797
  6
CONTINUOUS
 62
     7
 10
171.4744137345
 20
567.2663689391
 30
0.0
  0
VERTEX
  5
1E3
  8
52176797
  6
CONTINUOUS
 62
     7
 10
171.7037961694
 20
567.2681072889
 30
0.0
  0
VERTEX
  5
1E4
  8
52176797
  6
CONTINUOUS
 62
     7
 10
171.9305581295
 20
567.2699988881
 30
0.0
  0
VERTEX
  5
1E5
  8
52176797
  6
CONTINUOUS
 62
     7
 10
172.1544437802
 20
567.272036393
 30
0.0
  0
VERTEX
  5
1E6
  8
52176797
  6
CONTINUOUS
 62
     7
 10
172.375197287
 20
567.27421246
 30
0.0
  0
VERTEX
  5
1E7
  8
52176797
  6
CONTINUOUS
 62
     7
 10
172.5925628153
 20
567.2765197456
 30
0.0
  0
VERTEX
  5
1E8
  8
52176797
  6
CONTINUOUS
 62
     7
 10
172.8062845304
 20
567.2789509061
 30
0.0
  0
VERTEX
  5
1E9
  8
52176797
  6
CONTINUOUS
 62
     7
 10
173.0161065978
 20
567.281498598
 30
0.0
  0
VERTEX
  5
1EA
  8
52176797
  6
CONTINUOUS
 62
     7
 10
173.221773183
 20
567.2841554776
 30
0.0
  0
VERTEX
  5
1EB
  8
52176797
  6
CONTINUOUS
 62
     7
 10
173.4230284514
 20
567.2869142014
 30
0.0
  0
VERTEX
  5
1EC
  8
52176797
  6
CONTINUOUS
 62
     7
 10
173.6196165683
 20
567.2897674257
 30
0.0
  0
VERTEX
  5
1ED
  8
52176797
  6
CONTINUOUS
 62
     7
 10
173.8112816991
 20
567.292707807
 30
0.0
  0
VERTEX
  5
1EE
  8
52176797
  6
CONTINUOUS
 62
     7
 10
173.9977181114
 20
567.295711629
 30
0.0
  0
VERTEX
  5
1EF
  8
52176797
  6
CONTINUOUS
 62
     7
 10
174.1786481871
 20
567.2987405843
 30
0.0
  0
VERTEX
  5
1F0
  8
52176797
  6
CONTINUOUS
 62
     7
 10
174.3539279388
 20
567.3017824289
 30
0.0
  0
VERTEX
  5
1F1
  8
52176797
  6
CONTINUOUS
 62
     7
 10
174.5234153631
 20
567.3048254129
 30
0.0
  0
VERTEX
  5
1F2
  8
52176797
  6
CONTINUOUS
 62
     7
 10
174.6869684567
 20
567.3078577864
 30
0.0
  0
VERTEX
  5
1F3
  8
52176797
  6
CONTINUOUS
 62
     7
 10
174.8444452162
 20
567.3108677996
 30
0.0
  0
VERTEX
  5
1F4
  8
52176797
  6
CONTINUOUS
 62
     7
 10
174.9957036383
 20
567.3138437026
 30
0.0
  0
VERTEX
  5
1F5
  8
52176797
  6
CONTINUOUS
 62
     7
 10
175.1406017196
 20
567.3167737455
 30
0.0
  0
VERTEX
  5
1F6
  8
52176797
  6
CONTINUOUS
 62
     7
 10
175.2789974568
 20
567.3196461785
 30
0.0
  0
VERTEX
  5
1F7
  8
52176797
  6
CONTINUOUS
 62
     7
 10
175.4107488464
 20
567.3224492515
 30
0.0
  0
VERTEX
  5
1F8
  8
52176797
  6
CONTINUOUS
 62
     7
 10
175.5357138852
 20
567.3251712149
 30
0.0
  0
VERTEX
  5
1F9
  8
52176797
  6
CONTINUOUS
 62
     7
 10
175.6537505697
 20
567.3278003187
 30
0.0
  0
VERTEX
  5
1FA
  8
52176797
  6
CONTINUOUS
 62
     7
 10
175.7647168967
 20
567.330324813
 30
0.0
  0
VERTEX
  5
1FB
  8
52176797
  6
CONTINUOUS
 62
     7
 10
175.8684708627
 20
567.3327329479
 30
0.0
  0
VERTEX
  5
1FC
  8
52176797
  6
CONTINUOUS
 62
     7
 10
175.9648704645
 20
567.3350129736
 30
0.0
  0
VERTEX
  5
1FD
  8
52176797
  6
CONTINUOUS
 62
     7
 10
176.0537736986
 20
567.3371531402
 30
0.0
  0
VERTEX
  5
1FE
  8
52176797
  6
CONTINUOUS
 62
     7
 10
176.1350385617
 20
567.3391416979
 30
0.0
  0
VERTEX
  5
1FF
  8
52176797
  6
CONTINUOUS
 62
     7
 10
176.2085230505
 20
567.3409668967
 30
0.0
  0
VERTEX
  5
200
  8
52176797
  6
CONTINUOUS
 62
     7
 10
176.2740851615
 20
567.3426169867
 30
0.0
  0
VERTEX
  5
201
  8
52176797
  6
CONTINUOUS
 62
     7
 10
176.3315828915
 20
567.3440802182
 30
0.0
  0
VERTEX
  5
202
  8
52176797
  6
CONTINUOUS
 62
     7
 10
176.3808742371
 20
567.3453448412
 30
0.0
  0
VERTEX
  5
203
  8
52176797
  6
CONTINUOUS
 62
     7
 10
176.4218171948
 20
567.3463991058
 30
0.0
  0
VERTEX
  5
204
  8
52176797
  6
CONTINUOUS
 62
     7
 10
176.4542697609
 20
567.3472312622
 30
0.0
  0
SEQEND
  5
205
  8
52176797
  6
CONTINUOUS
 62
     7
  0
LINE
  5
32
  8
52176797
  6
CONTINUOUS
 62
     7
 10
178.00147999
 20
630.3484377014
 30
0.0
 11
161.00147999
 21
630.3484377014
 31
0.0
  0
LINE
  5
33
  8
52176797
  6
CONTINUOUS
 62
     7
 10
176.50147999
 20
607.3484377014
 30
0.0
 11
162.50147999
 21
607.3484377014
 31
0.0
  0
LINE
  5
34
  8
52176797
  6
CONTINUOUS
 62
     7
 10
176.50147999
 20
605.8484377014
 30
0.0
 11
162.50147999
 21
605.8484377014
 31
0.0
  0
LINE
  5
35
  8
52176797
  6
CONTINUOUS
 62
     7
 10
176.50147999
 20
607.3484377014
 30
0.0
 11
176.50147999
 21
605.8484377014
 31
0.0
  0
LINE
  5
36
  8
52176797
  6
CONTINUOUS
 62
     7
 10
162.50147999
 20
605.8484377014
 30
0.0
 11
162.50147999
 21
607.3484377014
 31
0.0
  0
LINE
  5
37
  8
52176797
  6
CONTINUOUS
 62
     7
 10
178.00147999
 20
616.7144631052
 30
0.0
 11
176.50147999
 21
615.8484377014
 31
0.0
  0
LINE
  5
38
  8
52176797
  6
CONTINUOUS
 62
     7
 10
162.50147999
 20
615.8484377014
 30
0.0
 11
161.00147999
 21
616.7144631052
 31
0.0
  0
LINE
  5
39
  8
52176797
  6
CONTINUOUS
 62
     7
 10
162.50147999
 20
607.3484377014
 30
0.0
 11
162.50147999
 21
615.8484377014
 31
0.0
  0
LINE
  5
3A
  8
52176797
  6
CONTINUOUS
 62
     7
 10
176.50147999
 20
615.8484377014
 30
0.0
 11
176.50147999
 21
607.3484377014
 31
0.0
  0
CIRCLE
  5
3B
  8
52176797
  6
CONTINUOUS
 62
     7
 10
169.50147999
 20
294.3484377014
 30
0.0
 40
8.5
  0
POLYLINE
  5
3C
  8
52176797
  6
CONTINUOUS
 62
     7
 66
     1
 10
0.0
 20
0.0
 30
0.0
  0
VERTEX
  5
206
  8
52176797
  6
CONTINUOUS
 62
     7
 10
167.5639469037
 20
487.9627014684
 30
0.0
  0
VERTEX
  5
207
  8
52176797
  6
CONTINUOUS
 62
     7
 10
167.4350421541
 20
487.9901308346
 30
0.0
  0
VERTEX
  5
208
  8
52176797
  6
CONTINUOUS
 62
     7
 10
167.3061374802
 20
488.0175562633
 30
0.0
  0
VERTEX
  5
209
  8
52176797
  6
CONTINUOUS
 62
     7
 10
167.1772328819
 20
488.0449777545
 30
0.0
  0
VERTEX
  5
20A
  8
52176797
  6
CONTINUOUS
 62
     7
 10
167.0483283592
 20
488.0723953082
 30
0.0
  0
VERTEX
  5
20B
  8
52176797
  6
CONTINUOUS
 62
     7
 10
166.9194239123
 20
488.0998089244
 30
0.0
  0
VERTEX
  5
20C
  8
52176797
  6
CONTINUOUS
 62
     7
 10
166.790519541
 20
488.127218603
 30
0.0
  0
VERTEX
  5
20D
  8
52176797
  6
CONTINUOUS
 62
     7
 10
166.6616152454
 20
488.1546243442
 30
0.0
  0
VERTEX
  5
20E
  8
52176797
  6
CONTINUOUS
 62
     7
 10
166.5327110254
 20
488.1820261478
 30
0.0
  0
VERTEX
  5
20F
  8
52176797
  6
CONTINUOUS
 62
     7
 10
166.4038068812
 20
488.2094240139
 30
0.0
  0
VERTEX
  5
210
  8
52176797
  6
CONTINUOUS
 62
     7
 10
166.2749028125
 20
488.2368179425
 30
0.0
  0
VERTEX
  5
211
  8
52176797
  6
CONTINUOUS
 62
     7
 10
166.1459988196
 20
488.2642079336
 30
0.0
  0
VERTEX
  5
212
  8
52176797
  6
CONTINUOUS
 62
     7
 10
166.0170949023
 20
488.2915939872
 30
0.0
  0
VERTEX
  5
213
  8
52176797
  6
CONTINUOUS
 62
     7
 10
165.8881910607
 20
488.3189761033
 30
0.0
  0
VERTEX
  5
214
  8
52176797
  6
CONTINUOUS
 62
     7
 10
165.7592872948
 20
488.3463542818
 30
0.0
  0
VERTEX
  5
215
  8
52176797
  6
CONTINUOUS
 62
     7
 10
165.6303836045
 20
488.3737285228
 30
0.0
  0
VERTEX
  5
216
  8
52176797
  6
CONTINUOUS
 62
     7
 10
165.5014799902
 20
488.4010988263
 30
0.0
  0
SEQEND
  5
217
  8
52176797
  6
CONTINUOUS
 62
     7
  0
POLYLINE
  5
3D
  8
52176797
  6
CONTINUOUS
 62
     7
 66
     1
 10
0.0
 20
0.0
 30
0.0
  0
VERTEX
  5
218
  8
52176797
  6
CONTINUOUS
 62
     7
 10
171.0963567442
 20
488.4715074997
 30
0.0
  0
VERTEX
  5
219
  8
52176797
  6
CONTINUOUS
 62
     7
 10
170.8755789196
 20
488.5082352172
 30
0.0
  0
VERTEX
  5
21A
  8
52176797
  6
CONTINUOUS
 62
     7
 10
170.6548013897
 20
488.544955817
 30
0.0
  0
VERTEX
  5
21B
  8
52176797
  6
CONTINUOUS
 62
     7
 10
170.4340241544
 20
488.5816692989
 30
0.0
  0
VERTEX
  5
21C
  8
52176797
  6
CONTINUOUS
 62
     7
 10
170.2132472136
 20
488.6183756631
 30
0.0
  0
VERTEX
  5
21D
  8
52176797
  6
CONTINUOUS
 62
     7
 10
169.9924705675
 20
488.6550749094
 30
0.0
  0
VERTEX
  5
21E
  8
52176797
  6
CONTINUOUS
 62
     7
 10
169.771694216
 20
488.691767038
 30
0.0
  0
VERTEX
  5
21F
  8
52176797
  6
CONTINUOUS
 62
     7
 10
169.550918159
 20
488.7284520487
 30
0.0
  0
VERTEX
  5
220
  8
52176797
  6
CONTINUOUS
 62
     7
 10
169.3301423967
 20
488.7651299417
 30
0.0
  0
VERTEX
  5
221
  8
52176797
  6
CONTINUOUS
 62
     7
 10
169.109366929
 20
488.8018007168
 30
0.0
  0
VERTEX
  5
222
  8
52176797
  6
CONTINUOUS
 62
     7
 10
168.8885917558
 20
488.8384643742
 30
0.0
  0
VERTEX
  5
223
  8
52176797
  6
CONTINUOUS
 62
     7
 10
168.6678168773
 20
488.8751209138
 30
0.0
  0
VERTEX
  5
224
  8
52176797
  6
CONTINUOUS
 62
     7
 10
168.4470422934
 20
488.9117703355
 30
0.0
  0
VERTEX
  5
225
  8
52176797
  6
CONTINUOUS
 62
     7
 10
168.226268004
 20
488.9484126395
 30
0.0
  0
VERTEX
  5
226
  8
52176797
  6
CONTINUOUS
 62
     7
 10
168.0054940093
 20
488.9850478257
 30
0.0
  0
VERTEX
  5
227
  8
52176797
  6
CONTINUOUS
 62
     7
 10
167.7847203092
 20
489.0216758941
 30
0.0
  0
VERTEX
  5
228
  8
52176797
  6
CONTINUOUS
 62
     7
 10
167.5639469041
 20
489.0582968446
 30
0.0
  0
SEQEND
  5
229
  8
52176797
  6
CONTINUOUS
 62
     7
  0
POLYLINE
  5
3E
  8
52176797
  6
CONTINUOUS
 62
     7
 66
     1
 10
0.0
 20
0.0
 30
0.0
  0
VERTEX
  5
22B
  8
52176797
  6
CONTINUOUS
 62
     7
 10
173.5014799899
 20
487.2807522277
 30
0.0
  0
VERTEX
  5
22C
  8
52176797
  6
CONTINUOUS
 62
     7
 10
169.5014372586
 20
486.438453072
 30
0.0
  0
VERTEX
  5
22D
  8
52176797
  6
CONTINUOUS
 62
     7
 10
165.5014799895
 20
485.5925166609
 30
0.0
  0
SEQEND
  5
22A
  8
52176797
  6
CONTINUOUS
 62
     7
  0
LINE
  5
3F
  8
52176797
  6
CONTINUOUS
 62
     7
 10
173.50147999
 20
489.6593037699
 30
0.0
 11
173.50147999
 21
487.4221735952
 31
0.0
  0
POLYLINE
  5
40
  8
52176797
  6
CONTINUOUS
 62
     7
 66
     1
 10
0.0
 20
0.0
 30
0.0
  0
VERTEX
  5
22F
  8
52176797
  6
CONTINUOUS
 62
     7
 10
173.5014799899
 20
487.4221735937
 30
0.0
  0
VERTEX
  5
230
  8
52176797
  6
CONTINUOUS
 62
     7
 10
169.5014373214
 20
486.5798761324
 30
0.0
  0
VERTEX
  5
231
  8
52176797
  6
CONTINUOUS
 62
     7
 10
165.50147999
 20
485.7339440653
 30
0.0
  0
SEQEND
  5
22E
  8
52176797
  6
CONTINUOUS
 62
     7
  0
LINE
  5
41
  8
52176797
  6
CONTINUOUS
 62
     7
 10
165.50147999
 20
485.733944067
 30
0.0
 11
165.50147999
 21
487.5300103216
 31
0.0
  0
POLYLINE
  5
42
  8
52176797
  6
CONTINUOUS
 62
     7
 66
     1
 10
0.0
 20
0.0
 30
0.0
  0
VERTEX
  5
233
  8
52176797
  6
CONTINUOUS
 62
     7
 10
171.5194789316
 20
488.5425221498
 30
0.0
  0
VERTEX
  5
234
  8
52176797
  6
CONTINUOUS
 62
     7
 10
168.5104898478
 20
488.0369348503
 30
0.0
  0
VERTEX
  5
235
  8
52176797
  6
CONTINUOUS
 62
     7
 10
165.5014799899
 20
487.5300103346
 30
0.0
  0
SEQEND
  5
232
  8
52176797
  6
CONTINUOUS
 62
     7
  0
POLYLINE
  5
43
  8
52176797
  6
CONTINUOUS
 62
     7
 66
     1
 10
0.0
 20
0.0
 30
0.0
  0
VERTEX
  5
236
  8
52176797
  6
CONTINUOUS
 62
     7
 10
171.5194789312
 20
488.5425221368
 30
0.0
  0
VERTEX
  5
237
  8
52176797
  6
CONTINUOUS
 62
     7
 10
171.272255413
 20
488.5836641128
 30
0.0
  0
VERTEX
  5
238
  8
52176797
  6
CONTINUOUS
 62
     7
 10
171.0250322637
 20
488.6247971704
 30
0.0
  0
VERTEX
  5
239
  8
52176797
  6
CONTINUOUS
 62
     7
 10
170.7778094832
 20
488.6659213095
 30
0.0
  0
VERTEX
  5
23A
  8
52176797
  6
CONTINUOUS
 62
     7
 10
170.5305870716
 20
488.70703653
 30
0.0
  0
VERTEX
  5
23B
  8
52176797
  6
CONTINUOUS
 62
     7
 10
170.2833650289
 20
488.7481428321
 30
0.0
  0
VERTEX
  5
23C
  8
52176797
  6
CONTINUOUS
 62
     7
 10
170.036143355
 20
488.7892402157
 30
0.0
  0
VERTEX
  5
23D
  8
52176797
  6
CONTINUOUS
 62
     7
 10
169.78892205
 20
488.8303286807
 30
0.0
  0
VERTEX
  5
23E
  8
52176797
  6
CONTINUOUS
 62
     7
 10
169.5417011139
 20
488.8714082273
 30
0.0
  0
VERTEX
  5
23F
  8
52176797
  6
CONTINUOUS
 62
     7
 10
169.2944805466
 20
488.9124788553
 30
0.0
  0
VERTEX
  5
240
  8
52176797
  6
CONTINUOUS
 62
     7
 10
169.0472603481
 20
488.9535405649
 30
0.0
  0
VERTEX
  5
241
  8
52176797
  6
CONTINUOUS
 62
     7
 10
168.8000405186
 20
488.994593356
 30
0.0
  0
VERTEX
  5
242
  8
52176797
  6
CONTINUOUS
 62
     7
 10
168.5528210579
 20
489.0356372285
 30
0.0
  0
VERTEX
  5
243
  8
52176797
  6
CONTINUOUS
 62
     7
 10
168.305601966
 20
489.0766721826
 30
0.0
  0
VERTEX
  5
244
  8
52176797
  6
CONTINUOUS
 62
     7
 10
168.0583832431
 20
489.1176982181
 30
0.0
  0
VERTEX
  5
245
  8
52176797
  6
CONTINUOUS
 62
     7
 10
167.8111648889
 20
489.1587153352
 30
0.0
  0
VERTEX
  5
246
  8
52176797
  6
CONTINUOUS
 62
     7
 10
167.5639469041
 20
489.1997235337
 30
0.0
  0
SEQEND
  5
247
  8
52176797
  6
CONTINUOUS
 62
     7
  0
LINE
  5
44
  8
52176797
  6
CONTINUOUS
 62
     7
 10
167.5639469037
 20
489.1997235337
 30
0.0
 11
167.5639469037
 21
488.1041234513
 31
0.0
  0
POLYLINE
  5
45
  8
52176797
  6
CONTINUOUS
 62
     7
 66
     1
 10
0.0
 20
0.0
 30
0.0
  0
VERTEX
  5
248
  8
52176797
  6
CONTINUOUS
 62
     7
 10
167.5639469037
 20
488.1041234514
 30
0.0
  0
VERTEX
  5
249
  8
52176797
  6
CONTINUOUS
 62
     7
 10
167.4350421549
 20
488.1315528789
 30
0.0
  0
VERTEX
  5
24A
  8
52176797
  6
CONTINUOUS
 62
     7
 10
167.3061374817
 20
488.1589783718
 30
0.0
  0
VERTEX
  5
24B
  8
52176797
  6
CONTINUOUS
 62
     7
 10
167.177232884
 20
488.18639993
 30
0.0
  0
VERTEX
  5
24C
  8
52176797
  6
CONTINUOUS
 62
     7
 10
167.0483283618
 20
488.2138175537
 30
0.0
  0
VERTEX
  5
24D
  8
52176797
  6
CONTINUOUS
 62
     7
 10
166.9194239153
 20
488.2412312427
 30
0.0
  0
VERTEX
  5
24E
  8
52176797
  6
CONTINUOUS
 62
     7
 10
166.7905195443
 20
488.268640997
 30
0.0
  0
VERTEX
  5
24F
  8
52176797
  6
CONTINUOUS
 62
     7
 10
166.6616152488
 20
488.2960468168
 30
0.0
  0
VERTEX
  5
250
  8
52176797
  6
CONTINUOUS
 62
     7
 10
166.5327110289
 20
488.323448702
 30
0.0
  0
VERTEX
  5
251
  8
52176797
  6
CONTINUOUS
 62
     7
 10
166.4038068846
 20
488.3508466525
 30
0.0
  0
VERTEX
  5
252
  8
52176797
  6
CONTINUOUS
 62
     7
 10
166.2749028158
 20
488.3782406684
 30
0.0
  0
VERTEX
  5
253
  8
52176797
  6
CONTINUOUS
 62
     7
 10
166.1459988226
 20
488.4056307497
 30
0.0
  0
VERTEX
  5
254
  8
52176797
  6
CONTINUOUS
 62
     7
 10
166.0170949049
 20
488.4330168963
 30
0.0
  0
VERTEX
  5
255
  8
52176797
  6
CONTINUOUS
 62
     7
 10
165.8881910629
 20
488.4603991084
 30
0.0
  0
VERTEX
  5
256
  8
52176797
  6
CONTINUOUS
 62
     7
 10
165.7592872963
 20
488.4877773858
 30
0.0
  0
VERTEX
  5
257
  8
52176797
  6
CONTINUOUS
 62
     7
 10
165.6303836054
 20
488.5151517286
 30
0.0
  0
VERTEX
  5
258
  8
52176797
  6
CONTINUOUS
 62
     7
 10
165.5014799902
 20
488.5425221367
 30
0.0
  0
SEQEND
  5
259
  8
52176797
  6
CONTINUOUS
 62
     7
  0
LINE
  5
46
  8
52176797
  6
CONTINUOUS
 62
     7
 10
165.50147999
 20
488.5425221367
 30
0.0
 11
165.50147999
 21
491.3133619847
 31
0.0
  0
POLYLINE
  5
47
  8
52176797
  6
CONTINUOUS
 62
     7
 66
     1
 10
0.0
 20
0.0
 30
0.0
  0
VERTEX
  5
25B
  8
52176797
  6
CONTINUOUS
 62
     7
 10
173.5014799902
 20
489.6593037652
 30
0.0
  0
VERTEX
  5
25C
  8
52176797
  6
CONTINUOUS
 62
     7
 10
169.5013457545
 20
490.4881875206
 30
0.0
  0
VERTEX
  5
25D
  8
52176797
  6
CONTINUOUS
 62
     7
 10
165.5014799904
 20
491.3133619799
 30
0.0
  0
SEQEND
  5
25A
  8
52176797
  6
CONTINUOUS
 62
     7
  0
LINE
  5
48
  8
52176797
  6
CONTINUOUS
 62
     7
 10
173.50147999
 20
487.2807522169
 30
0.0
 11
173.50147999
 21
487.4221735952
 31
0.0
  0
LINE
  5
49
  8
52176797
  6
CONTINUOUS
 62
     7
 10
165.50147999
 20
485.5925166499
 30
0.0
 11
165.50147999
 21
485.733944067
 31
0.0
  0
LINE
  5
4A
  8
52176797
  6
CONTINUOUS
 62
     7
 10
167.5639469037
 20
487.9627014682
 30
0.0
 11
167.5639469037
 21
488.1041234512
 31
0.0
  0
LINE
  5
4B
  8
52176797
  6
CONTINUOUS
 62
     7
 10
165.50147999
 20
488.4010988263
 30
0.0
 11
165.50147999
 21
488.5425221367
 31
0.0
  0
LINE
  5
4C
  8
52176797
  6
CONTINUOUS
 62
     7
 10
163.50147999
 20
479.9318872281
 30
0.0
 11
170.1009955578
 21
479.9318872281
 31
0.0
  0
POLYLINE
  5
4D
  8
52176797
  6
CONTINUOUS
 62
     7
 66
     1
 10
0.0
 20
0.0
 30
0.0
  0
VERTEX
  5
25F
  8
52176797
  6
CONTINUOUS
 62
     7
 10
175.50147999
 20
480.7162781687
 30
0.0
  0
VERTEX
  5
260
  8
52176797
  6
CONTINUOUS
 62
     7
 10
173.7113719748
 20
479.4024125143
 30
0.0
  0
VERTEX
  5
261
  8
52176797
  6
CONTINUOUS
 62
     7
 10
171.9217408903
 20
478.0805686523
 30
0.0
  0
SEQEND
  5
25E
  8
52176797
  6
CONTINUOUS
 62
     7
  0
LINE
  5
4E
  8
52176797
  6
CONTINUOUS
 62
     7
 10
170.1009955578
 20
478.0805686523
 30
0.0
 11
171.9217408902
 21
478.0805686523
 31
0.0
  0
LINE
  5
4F
  8
52176797
  6
CONTINUOUS
 62
     7
 10
170.1009955578
 20
480.0734102368
 30
0.0
 11
170.1009955578
 21
478.2221470726
 31
0.0
  0
LINE
  5
50
  8
52176797
  6
CONTINUOUS
 62
     7
 10
170.1009955578
 20
478.2221470725
 30
0.0
 11
171.9217408902
 21
478.2221470725
 31
0.0
  0
POLYLINE
  5
51
  8
52176797
  6
CONTINUOUS
 62
     7
 66
     1
 10
0.0
 20
0.0
 30
0.0
  0
VERTEX
  5
263
  8
52176797
  6
CONTINUOUS
 62
     7
 10
175.50147999
 20
480.8577812131
 30
0.0
  0
VERTEX
  5
264
  8
52176797
  6
CONTINUOUS
 62
     7
 10
173.7113723244
 20
479.543950445
 30
0.0
  0
VERTEX
  5
265
  8
52176797
  6
CONTINUOUS
 62
     7
 10
171.9217408903
 20
478.2221470725
 30
0.0
  0
SEQEND
  5
262
  8
52176797
  6
CONTINUOUS
 62
     7
  0
POLYLINE
  5
52
  8
52176797
  6
CONTINUOUS
 62
     7
 66
     1
 10
0.0
 20
0.0
 30
0.0
  0
VERTEX
  5
267
  8
52176797
  6
CONTINUOUS
 62
     7
 10
175.5014799902
 20
480.8577812133
 30
0.0
  0
VERTEX
  5
268
  8
52176797
  6
CONTINUOUS
 62
     7
 10
173.7117713575
 20
482.1630025493
 30
0.0
  0
VERTEX
  5
269
  8
52176797
  6
CONTINUOUS
 62
     7
 10
171.9217408902
 20
483.4601457381
 30
0.0
  0
SEQEND
  5
266
  8
52176797
  6
CONTINUOUS
 62
     7
  0
LINE
  5
53
  8
52176797
  6
CONTINUOUS
 62
     7
 10
171.9217408902
 20
483.4601457381
 30
0.0
 11
170.1009955578
 21
483.4601457381
 31
0.0
  0
LINE
  5
54
  8
52176797
  6
CONTINUOUS
 62
     7
 10
170.1009955578
 20
483.4601457381
 30
0.0
 11
170.1009955578
 21
481.6405465081
 31
0.0
  0
LINE
  5
55
  8
52176797
  6
CONTINUOUS
 62
     7
 10
170.1009955578
 20
481.6405465081
 30
0.0
 11
163.50147999
 21
481.6405465081
 31
0.0
  0
LINE
  5
56
  8
52176797
  6
CONTINUOUS
 62
     7
 10
163.50147999
 20
481.6405465081
 30
0.0
 11
163.50147999
 21
480.0734102368
 31
0.0
  0
LINE
  5
57
  8
52176797
  6
CONTINUOUS
 62
     7
 10
163.50147999
 20
480.0734102368
 30
0.0
 11
170.1009955578
 21
480.0734102368
 31
0.0
  0
LINE
  5
58
  8
52176797
  6
CONTINUOUS
 62
     7
 10
171.9217408902
 20
478.0805686523
 30
0.0
 11
171.9217408902
 21
478.2221470725
 31
0.0
  0
LINE
  5
59
  8
52176797
  6
CONTINUOUS
 62
     7
 10
175.50147999
 20
480.7162781685
 30
0.0
 11
175.50147999
 21
480.8577812131
 31
0.0
  0
LINE
  5
5A
  8
52176797
  6
CONTINUOUS
 62
     7
 10
163.50147999
 20
479.9318872281
 30
0.0
 11
163.50147999
 21
480.0734102368
 31
0.0
  0
LINE
  5
5B
  8
52176797
  6
CONTINUOUS
 62
     7
 10
170.1009955578
 20
478.0805686523
 30
0.0
 11
170.1009955578
 21
478.2221470725
 31
0.0
  0
POLYLINE
  5
5C
  8
52176797
  6
CONTINUOUS
 62
     7
 66
     1
 10
0.0
 20
0.0
 30
0.0
  0
VERTEX
  5
26A
  8
52176797
  6
CONTINUOUS
 62
     7
 10
171.2950215461
 20
490.4425192669
 30
0.0
  0
VERTEX
  5
26B
  8
52176797
  6
CONTINUOUS
 62
     7
 10
171.4329229065
 20
490.4139697909
 30
0.0
  0
VERTEX
  5
26C
  8
52176797
  6
CONTINUOUS
 62
     7
 10
171.5708245725
 20
490.3854158904
 30
0.0
  0
VERTEX
  5
26D
  8
52176797
  6
CONTINUOUS
 62
     7
 10
171.7087265441
 20
490.3568575654
 30
0.0
  0
VERTEX
  5
26E
  8
52176797
  6
CONTINUOUS
 62
     7
 10
171.8466288214
 20
490.3282948159
 30
0.0
  0
VERTEX
  5
26F
  8
52176797
  6
CONTINUOUS
 62
     7
 10
171.9845314044
 20
490.2997276418
 30
0.0
  0
VERTEX
  5
270
  8
52176797
  6
CONTINUOUS
 62
     7
 10
172.122434293
 20
490.2711560432
 30
0.0
  0
VERTEX
  5
271
  8
52176797
  6
CONTINUOUS
 62
     7
 10
172.2603374872
 20
490.24258002
 30
0.0
  0
VERTEX
  5
272
  8
52176797
  6
CONTINUOUS
 62
     7
 10
172.3982409871
 20
490.2139995724
 30
0.0
  0
VERTEX
  5
273
  8
52176797
  6
CONTINUOUS
 62
     7
 10
172.5361447927
 20
490.1854147002
 30
0.0
  0
VERTEX
  5
274
  8
52176797
  6
CONTINUOUS
 62
     7
 10
172.6740489039
 20
490.1568254035
 30
0.0
  0
VERTEX
  5
275
  8
52176797
  6
CONTINUOUS
 62
     7
 10
172.8119533208
 20
490.1282316822
 30
0.0
  0
VERTEX
  5
276
  8
52176797
  6
CONTINUOUS
 62
     7
 10
172.9498580433
 20
490.0996335365
 30
0.0
  0
VERTEX
  5
277
  8
52176797
  6
CONTINUOUS
 62
     7
 10
173.0877630715
 20
490.0710309662
 30
0.0
  0
VERTEX
  5
278
  8
52176797
  6
CONTINUOUS
 62
     7
 10
173.2256684053
 20
490.0424239713
 30
0.0
  0
VERTEX
  5
279
  8
52176797
  6
CONTINUOUS
 62
     7
 10
173.3635740447
 20
490.013812552
 30
0.0
  0
VERTEX
  5
27A
  8
52176797
  6
CONTINUOUS
 62
     7
 10
173.5014799896
 20
489.9851967081
 30
0.0
  0
SEQEND
  5
27B
  8
52176797
  6
CONTINUOUS
 62
     7
  0
LINE
  5
5D
  8
52176797
  6
CONTINUOUS
 62
     7
 10
165.50147999
 20
491.3391518031
 30
0.0
 11
171.2950215463
 21
491.3391518031
 31
0.0
  0
LINE
  5
5E
  8
52176797
  6
CONTINUOUS
 62
     7
 10
171.2950215463
 20
493.1243703421
 30
0.0
 11
165.50147999
 21
493.1243703421
 31
0.0
  0
LINE
  5
5F
  8
52176797
  6
CONTINUOUS
 62
     7
 10
165.50147999
 20
493.1243703421
 30
0.0
 11
165.50147999
 21
491.4806033837
 31
0.0
  0
LINE
  5
60
  8
52176797
  6
CONTINUOUS
 62
     7
 10
165.50147999
 20
491.4806033837
 30
0.0
 11
171.2950215463
 21
491.4806033837
 31
0.0
  0
LINE
  5
61
  8
52176797
  6
CONTINUOUS
 62
     7
 10
171.2950215463
 20
491.4806033837
 30
0.0
 11
171.2950215463
 21
490.5839585969
 31
0.0
  0
POLYLINE
  5
62
  8
52176797
  6
CONTINUOUS
 62
     7
 66
     1
 10
0.0
 20
0.0
 30
0.0
  0
VERTEX
  5
27C
  8
52176797
  6
CONTINUOUS
 62
     7
 10
171.2950215461
 20
490.5839585963
 30
0.0
  0
VERTEX
  5
27D
  8
52176797
  6
CONTINUOUS
 62
     7
 10
171.4329229098
 20
490.5554087825
 30
0.0
  0
VERTEX
  5
27E
  8
52176797
  6
CONTINUOUS
 62
     7
 10
171.5708245787
 20
490.5268545474
 30
0.0
  0
VERTEX
  5
27F
  8
52176797
  6
CONTINUOUS
 62
     7
 10
171.7087265528
 20
490.498295891
 30
0.0
  0
VERTEX
  5
280
  8
52176797
  6
CONTINUOUS
 62
     7
 10
171.8466288322
 20
490.4697328134
 30
0.0
  0
VERTEX
  5
281
  8
52176797
  6
CONTINUOUS
 62
     7
 10
171.9845314167
 20
490.4411653146
 30
0.0
  0
VERTEX
  5
282
  8
52176797
  6
CONTINUOUS
 62
     7
 10
172.1224343064
 20
490.4125933945
 30
0.0
  0
VERTEX
  5
283
  8
52176797
  6
CONTINUOUS
 62
     7
 10
172.2603375013
 20
490.3840170532
 30
0.0
  0
VERTEX
  5
284
  8
52176797
  6
CONTINUOUS
 62
     7
 10
172.3982410015
 20
490.3554362907
 30
0.0
  0
VERTEX
  5
285
  8
52176797
  6
CONTINUOUS
 62
     7
 10
172.5361448068
 20
490.3268511069
 30
0.0
  0
VERTEX
  5
286
  8
52176797
  6
CONTINUOUS
 62
     7
 10
172.6740489174
 20
490.2982615018
 30
0.0
  0
VERTEX
  5
287
  8
52176797
  6
CONTINUOUS
 62
     7
 10
172.8119533331
 20
490.2696674756
 30
0.0
  0
VERTEX
  5
288
  8
52176797
  6
CONTINUOUS
 62
     7
 10
172.949858054
 20
490.241069028
 30
0.0
  0
VERTEX
  5
289
  8
52176797
  6
CONTINUOUS
 62
     7
 10
173.0877630802
 20
490.2124661593
 30
0.0
  0
VERTEX
  5
28A
  8
52176797
  6
CONTINUOUS
 62
     7
 10
173.2256684115
 20
490.1838588693
 30
0.0
  0
VERTEX
  5
28B
  8
52176797
  6
CONTINUOUS
 62
     7
 10
173.3635740481
 20
490.155247158
 30
0.0
  0
VERTEX
  5
28C
  8
52176797
  6
CONTINUOUS
 62
     7
 10
173.5014799896
 20
490.1266310256
 30
0.0
  0
SEQEND
  5
28D
  8
52176797
  6
CONTINUOUS
 62
     7
  0
LINE
  5
63
  8
52176797
  6
CONTINUOUS
 62
     7
 10
173.50147999
 20
490.1266310258
 30
0.0
 11
173.50147999
 21
493.8842975996
 31
0.0
  0
POLYLINE
  5
64
  8
52176797
  6
CONTINUOUS
 62
     7
 66
     1
 10
0.0
 20
0.0
 30
0.0
  0
VERTEX
  5
28E
  8
52176797
  6
CONTINUOUS
 62
     7
 10
173.5014799899
 20
493.8842975995
 30
0.0
  0
VERTEX
  5
28F
  8
52176797
  6
CONTINUOUS
 62
     7
 10
173.3635710202
 20
493.9119741932
 30
0.0
  0
VERTEX
  5
290
  8
52176797
  6
CONTINUOUS
 62
     7
 10
173.2256627594
 20
493.9396463924
 30
0.0
  0
VERTEX
  5
291
  8
52176797
  6
CONTINUOUS
 62
     7
 10
173.0877552076
 20
493.9673141969
 30
0.0
  0
VERTEX
  5
292
  8
52176797
  6
CONTINUOUS
 62
     7
 10
172.9498483647
 20
493.9949776068
 30
0.0
  0
VERTEX
  5
293
  8
52176797
  6
CONTINUOUS
 62
     7
 10
172.8119422307
 20
494.022636622
 30
0.0
  0
VERTEX
  5
294
  8
52176797
  6
CONTINUOUS
 62
     7
 10
172.6740368056
 20
494.0502912427
 30
0.0
  0
VERTEX
  5
295
  8
52176797
  6
CONTINUOUS
 62
     7
 10
172.5361320895
 20
494.0779414687
 30
0.0
  0
VERTEX
  5
296
  8
52176797
  6
CONTINUOUS
 62
     7
 10
172.3982280823
 20
494.1055873001
 30
0.0
  0
VERTEX
  5
297
  8
52176797
  6
CONTINUOUS
 62
     7
 10
172.2603247841
 20
494.1332287369
 30
0.0
  0
VERTEX
  5
298
  8
52176797
  6
CONTINUOUS
 62
     7
 10
172.1224221947
 20
494.160865779
 30
0.0
  0
VERTEX
  5
299
  8
52176797
  6
CONTINUOUS
 62
     7
 10
171.9845203143
 20
494.1884984265
 30
0.0
  0
VERTEX
  5
29A
  8
52176797
  6
CONTINUOUS
 62
     7
 10
171.8466191429
 20
494.2161266795
 30
0.0
  0
VERTEX
  5
29B
  8
52176797
  6
CONTINUOUS
 62
     7
 10
171.7087186803
 20
494.2437505377
 30
0.0
  0
VERTEX
  5
29C
  8
52176797
  6
CONTINUOUS
 62
     7
 10
171.5708189267
 20
494.2713700014
 30
0.0
  0
VERTEX
  5
29D
  8
52176797
  6
CONTINUOUS
 62
     7
 10
171.4329198821
 20
494.2989850704
 30
0.0
  0
VERTEX
  5
29E
  8
52176797
  6
CONTINUOUS
 62
     7
 10
171.2950215466
 20
494.3265957448
 30
0.0
  0
SEQEND
  5
29F
  8
52176797
  6
CONTINUOUS
 62
     7
  0
LINE
  5
65
  8
52176797
  6
CONTINUOUS
 62
     7
 10
171.2950215463
 20
494.3265957449
 30
0.0
 11
171.2950215463
 21
493.1243703421
 31
0.0
  0
LINE
  5
66
  8
52176797
  6
CONTINUOUS
 62
     7
 10
165.50147999
 20
491.3391518031
 30
0.0
 11
165.50147999
 21
491.4806033837
 31
0.0
  0
LINE
  5
67
  8
52176797
  6
CONTINUOUS
 62
     7
 10
171.2950215463
 20
490.4425192674
 30
0.0
 11
171.2950215463
 21
490.5839585969
 31
0.0
  0
LINE
  5
68
  8
52176797
  6
CONTINUOUS
 62
     7
 10
173.50147999
 20
489.9851967084
 30
0.0
 11
173.50147999
 21
490.1266310258
 31
0.0
  0
LINE
  5
69
  8
52176797
  6
CONTINUOUS
 62
     7
 10
176.35147999
 20
646.3484377014
 30
0.0
 11
175.50147999
 21
646.3484377014
 31
0.0
  0
LINE
  5
6A
  8
52176797
  6
CONTINUOUS
 62
     7
 10
175.50147999
 20
651.3484377014
 30
0.0
 11
175.3636251645
 21
651.3484377014
 31
0.0
  0
LINE
  5
6B
  8
52176797
  6
CONTINUOUS
 62
     7
 10
175.3636251645
 20
646.3484377014
 30
0.0
 11
169.6393348154
 21
646.3484377014
 31
0.0
  0
LINE
  5
6C
  8
52176797
  6
CONTINUOUS
 62
     7
 10
169.6393348154
 20
651.3484377014
 30
0.0
 11
169.3636251645
 21
651.3484377014
 31
0.0
  0
LINE
  5
6D
  8
52176797
  6
CONTINUOUS
 62
     7
 10
169.3636251645
 20
646.3484377014
 30
0.0
 11
163.6393348154
 21
646.3484377014
 31
0.0
  0
LINE
  5
6E
  8
52176797
  6
CONTINUOUS
 62
     7
 10
163.6393348154
 20
651.3484377014
 30
0.0
 11
163.50147999
 21
651.3484377014
 31
0.0
  0
LINE
  5
6F
  8
52176797
  6
CONTINUOUS
 62
     7
 10
163.50147999
 20
646.3484377014
 30
0.0
 11
162.65147999
 21
646.3484377014
 31
0.0
  0
LINE
  5
70
  8
52176797
  6
CONTINUOUS
 62
     7
 10
176.25147999
 20
654.3484377014
 30
0.0
 11
162.75147999
 21
654.3484377014
 31
0.0
  0
LINE
  5
71
  8
52176797
  6
CONTINUOUS
 62
     7
 10
176.25147999
 20
655.3484377014
 30
0.0
 11
162.75147999
 21
655.3484377014
 31
0.0
  0
LINE
  5
72
  8
52176797
  6
CONTINUOUS
 62
     7
 10
175.50147999
 20
656.8484377014
 30
0.0
 11
163.50147999
 21
656.8484377014
 31
0.0
  0
LINE
  5
73
  8
52176797
  6
CONTINUOUS
 62
     7
 10
176.40147999
 20
657.7484377014
 30
0.0
 11
162.60147999
 21
657.7484377014
 31
0.0
  0
LINE
  5
74
  8
52176797
  6
CONTINUOUS
 62
     7
 10
176.40147999
 20
663.3484377014
 30
0.0
 11
162.60147999
 21
663.3484377014
 31
0.0
  0
LINE
  5
75
  8
52176797
  6
CONTINUOUS
 62
     7
 10
163.50147999
 20
646.3484377014
 30
0.0
 11
163.50147999
 21
651.3484377014
 31
0.0
  0
LINE
  5
76
  8
52176797
  6
CONTINUOUS
 62
     7
 10
169.3636251645
 20
646.3484377014
 30
0.0
 11
169.3636251645
 21
651.3484377014
 31
0.0
  0
LINE
  5
77
  8
52176797
  6
CONTINUOUS
 62
     7
 10
169.3636251645
 20
651.3484377014
 30
0.0
 11
163.6393348154
 21
651.3484377014
 31
0.0
  0
LINE
  5
78
  8
52176797
  6
CONTINUOUS
 62
     7
 10
163.6393348154
 20
651.3484377014
 30
0.0
 11
163.6393348154
 21
646.3484377014
 31
0.0
  0
LINE
  5
79
  8
52176797
  6
CONTINUOUS
 62
     7
 10
175.3636251645
 20
646.3484377014
 30
0.0
 11
175.3636251645
 21
651.3484377014
 31
0.0
  0
LINE
  5
7A
  8
52176797
  6
CONTINUOUS
 62
     7
 10
175.3636251645
 20
651.3484377014
 30
0.0
 11
169.6393348154
 21
651.3484377014
 31
0.0
  0
LINE
  5
7B
  8
52176797
  6
CONTINUOUS
 62
     7
 10
169.6393348154
 20
651.3484377014
 30
0.0
 11
169.6393348154
 21
646.3484377014
 31
0.0
  0
LINE
  5
7C
  8
52176797
  6
CONTINUOUS
 62
     7
 10
175.50147999
 20
651.3484377014
 30
0.0
 11
175.50147999
 21
646.3484377014
 31
0.0
  0
CIRCLE
  5
7D
  8
52176797
  6
CONTINUOUS
 62
     7
 10
169.50147999
 20
294.3484377014
 30
0.0
 40
6.9
  0
LINE
  5
7E
  8
52176797
  6
CONTINUOUS
 62
     7
 10
158.00147999
 20
21.3484377014
 30
0.0
 11
181.00147999
 21
21.3484377014
 31
0.0
  0
LINE
  5
7F
  8
52176797
  6
CONTINUOUS
 62
     7
 10
162.5073357128
 20
567.3484377014
 30
0.0
 11
158.00147999
 21
567.3484377014
 31
0.0
  0
LINE
  5
80
  8
52176797
  6
CONTINUOUS
 62
     7
 10
181.00147999
 20
567.3484377014
 30
0.0
 11
176.4956619578
 21
567.3484377014
 31
0.0
  0
LINE
  5
81
  8
52176797
  6
CONTINUOUS
 62
     7
 10
176.50147999
 20
567.3482879652
 30
0.0
 11
176.50147999
 21
605.8484377014
 31
0.0
  0
LINE
  5
82
  8
52176797
  6
CONTINUOUS
 62
     7
 10
162.50147999
 20
605.8484377014
 30
0.0
 11
162.50147999
 21
567.3482868914
 31
0.0
  0
LINE
  5
83
  8
52176797
  6
CONTINUOUS
 62
     7
 10
178.00147999
 20
616.7144631052
 30
0.0
 11
178.00147999
 21
630.3484377014
 31
0.0
  0
LINE
  5
84
  8
52176797
  6
CONTINUOUS
 62
     7
 10
161.00147999
 20
630.3484377014
 30
0.0
 11
161.00147999
 21
616.7144631052
 31
0.0
  0
LINE
  5
85
  8
52176797
  6
CONTINUOUS
 62
     7
 10
176.35147999
 20
630.3484377014
 30
0.0
 11
176.35147999
 21
646.3484377014
 31
0.0
  0
LINE
  5
86
  8
52176797
  6
CONTINUOUS
 62
     7
 10
162.65147999
 20
646.3484377014
 30
0.0
 11
162.65147999
 21
630.3484377014
 31
0.0
  0
LINE
  5
87
  8
52176797
  6
CONTINUOUS
 62
     7
 10
173.50147999
 20
651.3484377014
 30
0.0
 11
173.50147999
 21
654.3484377014
 31
0.0
  0
LINE
  5
88
  8
52176797
  6
CONTINUOUS
 62
     7
 10
165.50147999
 20
654.3484377014
 30
0.0
 11
165.50147999
 21
651.3484377014
 31
0.0
  0
LINE
  5
89
  8
52176797
  6
CONTINUOUS
 62
     7
 10
176.25147999
 20
654.3484377014
 30
0.0
 11
176.25147999
 21
655.3484377014
 31
0.0
  0
LINE
  5
8A
  8
52176797
  6
CONTINUOUS
 62
     7
 10
162.75147999
 20
655.3484377014
 30
0.0
 11
162.75147999
 21
654.3484377014
 31
0.0
  0
LINE
  5
8B
  8
52176797
  6
CONTINUOUS
 62
     7
 10
175.50147999
 20
655.3484377014
 30
0.0
 11
175.50147999
 21
656.8484377014
 31
0.0
  0
LINE
  5
8C
  8
52176797
  6
CONTINUOUS
 62
     7
 10
163.50147999
 20
656.8484377014
 30
0.0
 11
163.50147999
 21
655.3484377014
 31
0.0
  0
LINE
  5
8D
  8
52176797
  6
CONTINUOUS
 62
     7
 10
162.60147999
 20
657.7484377014
 30
0.0
 11
163.50147999
 21
656.8484377014
 31
0.0
  0
LINE
  5
8E
  8
52176797
  6
CONTINUOUS
 62
     7
 10
175.50147999
 20
656.8484377014
 30
0.0
 11
176.40147999
 21
657.7484377014
 31
0.0
  0
LINE
  5
8F
  8
52176797
  6
CONTINUOUS
 62
     7
 10
176.40147999
 20
657.7484377014
 30
0.0
 11
176.40147999
 21
663.3484377014
 31
0.0
  0
LINE
  5
90
  8
52176797
  6
CONTINUOUS
 62
     7
 10
162.60147999
 20
663.3484377014
 30
0.0
 11
162.60147999
 21
657.7484377014
 31
0.0
  0
ENDBLK
  5
95
  8
0
  0
BLOCK
  8
0
  2
SE1
 70
     0
 10
0.0
 20
0.0
 30
0.0
  3
SE1
  1

  0
LINE
  5
98
  8
52176797
  6
CONTINUOUS
 62
     7
 10
740.8597588781
 20
21.3484377014
 30
0.0
 11
740.8597588781
 21
567.3484377014
 31
0.0
  0
LINE
  5
99
  8
52176797
  6
CONTINUOUS
 62
     7
 10
717.8597588781
 20
21.3484377014
 30
0.0
 11
717.8597588781
 21
567.3484377014
 31
0.0
  0
ARC
  5
9A
  8
52176797
  6
CONTINUOUS
 62
     7
 10
729.3613795708
 20
840.2598232961
 30
0.0
 40
273.0012078145501
 50
268.5303502609
 51
271.4685178034
  0
LINE
  5
9B
  8
52176797
  6
CONTINUOUS
 62
     7
 10
720.8597588781
 20
630.3484377014
 30
0.0
 11
737.8597588781
 21
630.3484377014
 31
0.0
  0
LINE
  5
9C
  8
52176797
  6
CONTINUOUS
 62
     7
 10
736.3597588781
 20
607.3484377014
 30
0.0
 11
722.3597588781
 21
607.3484377014
 31
0.0
  0
LINE
  5
9D
  8
52176797
  6
CONTINUOUS
 62
     7
 10
736.3597588781
 20
605.8484377014
 30
0.0
 11
722.3597588781
 21
605.8484377014
 31
0.0
  0
LINE
  5
9E
  8
52176797
  6
CONTINUOUS
 62
     7
 10
722.3597588781
 20
605.8484377014
 30
0.0
 11
722.3597588781
 21
607.3484377014
 31
0.0
  0
LINE
  5
9F
  8
52176797
  6
CONTINUOUS
 62
     7
 10
736.3597588781
 20
607.3484377014
 30
0.0
 11
736.3597588781
 21
605.8484377014
 31
0.0
  0
LINE
  5
A0
  8
52176797
  6
CONTINUOUS
 62
     7
 10
720.8597588781
 20
616.7144631052
 30
0.0
 11
722.3597588781
 21
615.8484377014
 31
0.0
  0
LINE
  5
A1
  8
52176797
  6
CONTINUOUS
 62
     7
 10
736.3597588781
 20
615.8484377014
 30
0.0
 11
737.8597588781
 21
616.7144631052
 31
0.0
  0
LINE
  5
A2
  8
52176797
  6
CONTINUOUS
 62
     7
 10
722.3597588781
 20
607.3484377014
 30
0.0
 11
722.3597588781
 21
615.8484377014
 31
0.0
  0
LINE
  5
A3
  8
52176797
  6
CONTINUOUS
 62
     7
 10
736.3597588781
 20
615.8484377014
 30
0.0
 11
736.3597588781
 21
607.3484377014
 31
0.0
  0
LINE
  5
A4
  8
52176797
  6
CONTINUOUS
 62
     7
 10
729.2219040526
 20
646.3484377014
 30
0.0
 11
723.4976137036
 21
646.3484377014
 31
0.0
  0
LINE
  5
A5
  8
52176797
  6
CONTINUOUS
 62
     7
 10
723.4976137036
 20
651.3484377014
 30
0.0
 11
723.3597588781
 21
651.3484377014
 31
0.0
  0
LINE
  5
A6
  8
52176797
  6
CONTINUOUS
 62
     7
 10
722.5097588781
 20
646.3484377014
 30
0.0
 11
723.3597588781
 21
646.3484377014
 31
0.0
  0
LINE
  5
A7
  8
52176797
  6
CONTINUOUS
 62
     7
 10
735.3597588781
 20
646.3484377014
 30
0.0
 11
736.2097588781
 21
646.3484377014
 31
0.0
  0
LINE
  5
A8
  8
52176797
  6
CONTINUOUS
 62
     7
 10
735.3597588781
 20
651.3484377014
 30
0.0
 11
735.2219040526
 21
651.3484377014
 31
0.0
  0
LINE
  5
A9
  8
52176797
  6
CONTINUOUS
 62
     7
 10
735.2219040526
 20
646.3484377014
 30
0.0
 11
729.4976137036
 21
646.3484377014
 31
0.0
  0
LINE
  5
AA
  8
52176797
  6
CONTINUOUS
 62
     7
 10
729.4976137036
 20
651.3484377014
 30
0.0
 11
729.2219040526
 21
651.3484377014
 31
0.0
  0
LINE
  5
AB
  8
52176797
  6
CONTINUOUS
 62
     7
 10
722.6097588781
 20
654.3484377014
 30
0.0
 11
736.1097588781
 21
654.3484377014
 31
0.0
  0
LINE
  5
AC
  8
52176797
  6
CONTINUOUS
 62
     7
 10
722.6097588781
 20
655.3484377014
 30
0.0
 11
736.1097588781
 21
655.3484377014
 31
0.0
  0
LINE
  5
AD
  8
52176797
  6
CONTINUOUS
 62
     7
 10
723.3597588781
 20
656.8484377014
 30
0.0
 11
735.3597588781
 21
656.8484377014
 31
0.0
  0
LINE
  5
AE
  8
52176797
  6
CONTINUOUS
 62
     7
 10
722.4597588781
 20
657.7484377014
 30
0.0
 11
736.2597588781
 21
657.7484377014
 31
0.0
  0
LINE
  5
AF
  8
52176797
  6
CONTINUOUS
 62
     7
 10
722.4597588781
 20
663.3484377014
 30
0.0
 11
736.2597588781
 21
663.3484377014
 31
0.0
  0
LINE
  5
B0
  8
52176797
  6
CONTINUOUS
 62
     7
 10
735.3597588781
 20
651.3484377014
 30
0.0
 11
735.3597588781
 21
646.3484377014
 31
0.0
  0
LINE
  5
B1
  8
52176797
  6
CONTINUOUS
 62
     7
 10
723.3597588781
 20
646.3484377014
 30
0.0
 11
723.3597588781
 21
651.3484377014
 31
0.0
  0
LINE
  5
B2
  8
52176797
  6
CONTINUOUS
 62
     7
 10
729.2219040526
 20
646.3484377014
 30
0.0
 11
729.2219040526
 21
651.3484377014
 31
0.0
  0
LINE
  5
B3
  8
52176797
  6
CONTINUOUS
 62
     7
 10
729.2219040526
 20
651.3484377014
 30
0.0
 11
723.4976137036
 21
651.3484377014
 31
0.0
  0
LINE
  5
B4
  8
52176797
  6
CONTINUOUS
 62
     7
 10
723.4976137036
 20
651.3484377014
 30
0.0
 11
723.4976137036
 21
646.3484377014
 31
0.0
  0
LINE
  5
B5
  8
52176797
  6
CONTINUOUS
 62
     7
 10
735.2219040526
 20
646.3484377014
 30
0.0
 11
735.2219040526
 21
651.3484377014
 31
0.0
  0
LINE
  5
B6
  8
52176797
  6
CONTINUOUS
 62
     7
 10
735.2219040526
 20
651.3484377014
 30
0.0
 11
729.4976137036
 21
651.3484377014
 31
0.0
  0
LINE
  5
B7
  8
52176797
  6
CONTINUOUS
 62
     7
 10
729.4976137036
 20
651.3484377014
 30
0.0
 11
729.4976137036
 21
646.3484377014
 31
0.0
  0
LINE
  5
B8
  8
52176797
  6
CONTINUOUS
 62
     7
 10
722.3656021592
 20
567.3484377014
 30
0.0
 11
717.8597588781
 21
567.3484377014
 31
0.0
  0
LINE
  5
B9
  8
52176797
  6
CONTINUOUS
 62
     7
 10
740.8597588781
 20
567.3484377014
 30
0.0
 11
736.3539946522
 21
567.3484377014
 31
0.0
  0
LINE
  5
BA
  8
52176797
  6
CONTINUOUS
 62
     7
 10
717.8597588781
 20
21.3484377014
 30
0.0
 11
740.8597588781
 21
21.3484377014
 31
0.0
  0
LINE
  5
BB
  8
52176797
  6
CONTINUOUS
 62
     7
 10
736.3597588781
 20
567.3482900115
 30
0.0
 11
736.3597588781
 21
605.8484377014
 31
0.0
  0
LINE
  5
BC
  8
52176797
  6
CONTINUOUS
 62
     7
 10
722.3597588781
 20
605.8484377014
 30
0.0
 11
722.3597588781
 21
567.3482879569
 31
0.0
  0
LINE
  5
BD
  8
52176797
  6
CONTINUOUS
 62
     7
 10
737.8597588781
 20
616.7144631052
 30
0.0
 11
737.8597588781
 21
630.3484377014
 31
0.0
  0
LINE
  5
BE
  8
52176797
  6
CONTINUOUS
 62
     7
 10
720.8597588781
 20
630.3484377014
 30
0.0
 11
720.8597588781
 21
616.7144631052
 31
0.0
  0
LINE
  5
BF
  8
52176797
  6
CONTINUOUS
 62
     7
 10
736.2097588781
 20
630.3484377014
 30
0.0
 11
736.2097588781
 21
646.3484377014
 31
0.0
  0
LINE
  5
C0
  8
52176797
  6
CONTINUOUS
 62
     7
 10
722.5097588781
 20
646.3484377014
 30
0.0
 11
722.5097588781
 21
630.3484377014
 31
0.0
  0
LINE
  5
C1
  8
52176797
  6
CONTINUOUS
 62
     7
 10
733.3597588781
 20
651.3484377014
 30
0.0
 11
733.3597588781
 21
654.3484377014
 31
0.0
  0
LINE
  5
C2
  8
52176797
  6
CONTINUOUS
 62
     7
 10
725.3597588781
 20
654.3484377014
 30
0.0
 11
725.3597588781
 21
651.3484377014
 31
0.0
  0
LINE
  5
C3
  8
52176797
  6
CONTINUOUS
 62
     7
 10
736.1097588781
 20
654.3484377014
 30
0.0
 11
736.1097588781
 21
655.3484377014
 31
0.0
  0
LINE
  5
C4
  8
52176797
  6
CONTINUOUS
 62
     7
 10
722.6097588781
 20
655.3484377014
 30
0.0
 11
722.6097588781
 21
654.3484377014
 31
0.0
  0
LINE
  5
C5
  8
52176797
  6
CONTINUOUS
 62
     7
 10
735.3597588781
 20
655.3484377014
 30
0.0
 11
735.3597588781
 21
656.8484377014
 31
0.0
  0
LINE
  5
C6
  8
52176797
  6
CONTINUOUS
 62
     7
 10
723.3597588781
 20
656.8484377014
 30
0.0
 11
723.3597588781
 21
655.3484377014
 31
0.0
  0
LINE
  5
C7
  8
52176797
  6
CONTINUOUS
 62
     7
 10
722.4597588781
 20
657.7484377014
 30
0.0
 11
723.3597588781
 21
656.8484377014
 31
0.0
  0
LINE
  5
C8
  8
52176797
  6
CONTINUOUS
 62
     7
 10
735.3597588781
 20
656.8484377014
 30
0.0
 11
736.2597588781
 21
657.7484377014
 31
0.0
  0
LINE
  5
C9
  8
52176797
  6
CONTINUOUS
 62
     7
 10
736.2597588781
 20
657.7484377014
 30
0.0
 11
736.2597588781
 21
663.3484377014
 31
0.0
  0
LINE
  5
CA
  8
52176797
  6
CONTINUOUS
 62
     7
 10
722.4597588781
 20
663.3484377014
 30
0.0
 11
722.4597588781
 21
657.7484377014
 31
0.0
  0
ENDBLK
  5
CF
  8
0
  0
BLOCK
  8
0
  2
SE2
 70
     0
 10
0.0
 20
0.0
 30
0.0
  3
SE2
  1

  0
LINE
  5
D2
  8
52176797
  6
CONTINUOUS
 62
     7
 10
158.00147999
 20
1276.011894997
 30
0.0
 11
158.00147999
 21
730.011894997
 31
0.0
  0
LINE
  5
D3
  8
52176797
  6
CONTINUOUS
 62
     7
 10
181.00147999
 20
1276.011894997
 30
0.0
 11
181.00147999
 21
730.011894997
 31
0.0
  0
POLYLINE
  5
D4
  8
52176797
  6
CONTINUOUS
 62
     7
 66
     1
 10
0.0
 20
0.0
 30
0.0
  0
VERTEX
  5
2A0
  8
52176797
  6
CONTINUOUS
 62
     7
 10
176.4542697615
 20
1276.0106885577
 30
0.0
  0
VERTEX
  5
2A1
  8
52176797
  6
CONTINUOUS
 62
     7
 10
176.4581351795
 20
1276.0107869526
 30
0.0
  0
VERTEX
  5
2A2
  8
52176797
  6
CONTINUOUS
 62
     7
 10
176.4618354499
 20
1276.010881044
 30
0.0
  0
VERTEX
  5
2A3
  8
52176797
  6
CONTINUOUS
 62
     7
 10
176.4653706591
 20
1276.0109708387
 30
0.0
  0
VERTEX
  5
2A4
  8
52176797
  6
CONTINUOUS
 62
     7
 10
176.4687408937
 20
1276.0110563437
 30
0.0
  0
VERTEX
  5
2A5
  8
52176797
  6
CONTINUOUS
 62
     7
 10
176.4719462401
 20
1276.011137566
 30
0.0
  0
VERTEX
  5
2A6
  8
52176797
  6
CONTINUOUS
 62
     7
 10
176.4749867851
 20
1276.0112145125
 30
0.0
  0
VERTEX
  5
2A7
  8
52176797
  6
CONTINUOUS
 62
     7
 10
176.477862615
 20
1276.0112871901
 30
0.0
  0
VERTEX
  5
2A8
  8
52176797
  6
CONTINUOUS
 62
     7
 10
176.4805738164
 20
1276.0113556058
 30
0.0
  0
VERTEX
  5
2A9
  8
52176797
  6
CONTINUOUS
 62
     7
 10
176.4831204759
 20
1276.0114197666
 30
0.0
  0
VERTEX
  5
2AA
  8
52176797
  6
CONTINUOUS
 62
     7
 10
176.4855026801
 20
1276.0114796793
 30
0.0
  0
VERTEX
  5
2AB
  8
52176797
  6
CONTINUOUS
 62
     7
 10
176.4877205154
 20
1276.011535351
 30
0.0
  0
VERTEX
  5
2AC
  8
52176797
  6
CONTINUOUS
 62
     7
 10
176.4897740684
 20
1276.0115867885
 30
0.0
  0
VERTEX
  5
2AD
  8
52176797
  6
CONTINUOUS
 62
     7
 10
176.4916634256
 20
1276.0116339988
 30
0.0
  0
VERTEX
  5
2AE
  8
52176797
  6
CONTINUOUS
 62
     7
 10
176.4933886737
 20
1276.0116769889
 30
0.0
  0
VERTEX
  5
2AF
  8
52176797
  6
CONTINUOUS
 62
     7
 10
176.494949899
 20
1276.0117157657
 30
0.0
  0
VERTEX
  5
2B0
  8
52176797
  6
CONTINUOUS
 62
     7
 10
176.4963471882
 20
1276.0117503362
 30
0.0
  0
VERTEX
  5
2B1
  8
52176797
  6
CONTINUOUS
 62
     7
 10
176.4975806279
 20
1276.0117807072
 30
0.0
  0
VERTEX
  5
2B2
  8
52176797
  6
CONTINUOUS
 62
     7
 10
176.4986503045
 20
1276.0118068858
 30
0.0
  0
VERTEX
  5
2B3
  8
52176797
  6
CONTINUOUS
 62
     7
 10
176.4995563046
 20
1276.0118288788
 30
0.0
  0
VERTEX
  5
2B4
  8
52176797
  6
CONTINUOUS
 62
     7
 10
176.5002987147
 20
1276.0118466933
 30
0.0
  0
VERTEX
  5
2B5
  8
52176797
  6
CONTINUOUS
 62
     7
 10
176.5008776214
 20
1276.0118603362
 30
0.0
  0
VERTEX
  5
2B6
  8
52176797
  6
CONTINUOUS
 62
     7
 10
176.5012931112
 20
1276.0118698143
 30
0.0
  0
VERTEX
  5
2B7
  8
52176797
  6
CONTINUOUS
 62
     7
 10
176.5015452707
 20
1276.0118751347
 30
0.0
  0
VERTEX
  5
2B8
  8
52176797
  6
CONTINUOUS
 62
     7
 10
176.5016341864
 20
1276.0118763043
 30
0.0
  0
SEQEND
  5
2B9
  8
52176797
  6
CONTINUOUS
 62
     7
  0
POLYLINE
  5
D5
  8
52176797
  6
CONTINUOUS
 62
     7
 66
     1
 10
0.0
 20
0.0
 30
0.0
  0
VERTEX
  5
2BA
  8
52176797
  6
CONTINUOUS
 62
     7
 10
162.5035370043
 20
1276.0117299624
 30
0.0
  0
VERTEX
  5
2BB
  8
52176797
  6
CONTINUOUS
 62
     7
 10
162.5087188495
 20
1276.0115415247
 30
0.0
  0
VERTEX
  5
2BC
  8
52176797
  6
CONTINUOUS
 62
     7
 10
162.5221874935
 20
1276.0111402378
 30
0.0
  0
VERTEX
  5
2BD
  8
52176797
  6
CONTINUOUS
 62
     7
 10
162.5438622639
 20
1276.0105333519
 30
0.0
  0
VERTEX
  5
2BE
  8
52176797
  6
CONTINUOUS
 62
     7
 10
162.5736624883
 20
1276.0097281176
 30
0.0
  0
VERTEX
  5
2BF
  8
52176797
  6
CONTINUOUS
 62
     7
 10
162.6115074945
 20
1276.008731785
 30
0.0
  0
VERTEX
  5
2C0
  8
52176797
  6
CONTINUOUS
 62
     7
 10
162.65731661
 20
1276.0075516047
 30
0.0
  0
VERTEX
  5
2C1
  8
52176797
  6
CONTINUOUS
 62
     7
 10
162.7110091625
 20
1276.006194827
 30
0.0
  0
VERTEX
  5
2C2
  8
52176797
  6
CONTINUOUS
 62
     7
 10
162.7725044797
 20
1276.0046687022
 30
0.0
  0
VERTEX
  5
2C3
  8
52176797
  6
CONTINUOUS
 62
     7
 10
162.8417218892
 20
1276.0029804807
 30
0.0
  0
VERTEX
  5
2C4
  8
52176797
  6
CONTINUOUS
 62
     7
 10
162.9185807187
 20
1276.0011374129
 30
0.0
  0
VERTEX
  5
2C5
  8
52176797
  6
CONTINUOUS
 62
     7
 10
163.0030002958
 20
1275.9991467491
 30
0.0
  0
VERTEX
  5
2C6
  8
52176797
  6
CONTINUOUS
 62
     7
 10
163.0948999481
 20
1275.9970157397
 30
0.0
  0
VERTEX
  5
2C7
  8
52176797
  6
CONTINUOUS
 62
     7
 10
163.1941990034
 20
1275.9947516351
 30
0.0
  0
VERTEX
  5
2C8
  8
52176797
  6
CONTINUOUS
 62
     7
 10
163.3008167892
 20
1275.9923616857
 30
0.0
  0
VERTEX
  5
2C9
  8
52176797
  6
CONTINUOUS
 62
     7
 10
163.4146726332
 20
1275.9898531418
 30
0.0
  0
VERTEX
  5
2CA
  8
52176797
  6
CONTINUOUS
 62
     7
 10
163.5356858632
 20
1275.9872332538
 30
0.0
  0
VERTEX
  5
2CB
  8
52176797
  6
CONTINUOUS
 62
     7
 10
163.6637758066
 20
1275.984509272
 30
0.0
  0
VERTEX
  5
2CC
  8
52176797
  6
CONTINUOUS
 62
     7
 10
163.7988617912
 20
1275.9816884469
 30
0.0
  0
VERTEX
  5
2CD
  8
52176797
  6
CONTINUOUS
 62
     7
 10
163.9408631447
 20
1275.9787780287
 30
0.0
  0
VERTEX
  5
2CE
  8
52176797
  6
CONTINUOUS
 62
     7
 10
164.0896810187
 20
1275.9757896225
 30
0.0
  0
VERTEX
  5
2CF
  8
52176797
  6
CONTINUOUS
 62
     7
 10
164.2450846055
 20
1275.9727549416
 30
0.0
  0
VERTEX
  5
2D0
  8
52176797
  6
CONTINUOUS
 62
     7
 10
164.406835719
 20
1275.9696911962
 30
0.0
  0
VERTEX
  5
2D1
  8
52176797
  6
CONTINUOUS
 62
     7
 10
164.5747032895
 20
1275.9666129201
 30
0.0
  0
VERTEX
  5
2D2
  8
52176797
  6
CONTINUOUS
 62
     7
 10
164.7484562471
 20
1275.9635346468
 30
0.0
  0
VERTEX
  5
2D3
  8
52176797
  6
CONTINUOUS
 62
     7
 10
164.9278635222
 20
1275.96047091
 30
0.0
  0
VERTEX
  5
2D4
  8
52176797
  6
CONTINUOUS
 62
     7
 10
165.1126940448
 20
1275.9574362433
 30
0.0
  0
VERTEX
  5
2D5
  8
52176797
  6
CONTINUOUS
 62
     7
 10
165.3027167454
 20
1275.9544451804
 30
0.0
  0
VERTEX
  5
2D6
  8
52176797
  6
CONTINUOUS
 62
     7
 10
165.497700554
 20
1275.9515122549
 30
0.0
  0
VERTEX
  5
2D7
  8
52176797
  6
CONTINUOUS
 62
     7
 10
165.6974144009
 20
1275.9486520006
 30
0.0
  0
VERTEX
  5
2D8
  8
52176797
  6
CONTINUOUS
 62
     7
 10
165.9016272164
 20
1275.9458789509
 30
0.0
  0
VERTEX
  5
2D9
  8
52176797
  6
CONTINUOUS
 62
     7
 10
166.1101057392
 20
1275.9432076812
 30
0.0
  0
VERTEX
  5
2DA
  8
52176797
  6
CONTINUOUS
 62
     7
 10
166.3224556753
 20
1275.940654646
 30
0.0
  0
VERTEX
  5
2DB
  8
52176797
  6
CONTINUOUS
 62
     7
 10
166.538372781
 20
1275.9382309114
 30
0.0
  0
VERTEX
  5
2DC
  8
52176797
  6
CONTINUOUS
 62
     7
 10
166.7576658156
 20
1275.9359446907
 30
0.0
  0
VERTEX
  5
2DD
  8
52176797
  6
CONTINUOUS
 62
     7
 10
166.9801435382
 20
1275.9338041971
 30
0.0
  0
VERTEX
  5
2DE
  8
52176797
  6
CONTINUOUS
 62
     7
 10
167.2056147081
 20
1275.9318176439
 30
0.0
  0
VERTEX
  5
2DF
  8
52176797
  6
CONTINUOUS
 62
     7
 10
167.4338880846
 20
1275.9299932443
 30
0.0
  0
VERTEX
  5
2E0
  8
52176797
  6
CONTINUOUS
 62
     7
 10
167.6647724268
 20
1275.9283392116
 30
0.0
  0
VERTEX
  5
2E1
  8
52176797
  6
CONTINUOUS
 62
     7
 10
167.898076494
 20
1275.926863759
 30
0.0
  0
VERTEX
  5
2E2
  8
52176797
  6
CONTINUOUS
 62
     7
 10
168.1336090454
 20
1275.9255750998
 30
0.0
  0
VERTEX
  5
2E3
  8
52176797
  6
CONTINUOUS
 62
     7
 10
168.3711788402
 20
1275.9244814472
 30
0.0
  0
VERTEX
  5
2E4
  8
52176797
  6
CONTINUOUS
 62
     7
 10
168.6105946377
 20
1275.9235910146
 30
0.0
  0
VERTEX
  5
2E5
  8
52176797
  6
CONTINUOUS
 62
     7
 10
168.8514243053
 20
1275.9229191116
 30
0.0
  0
VERTEX
  5
2E6
  8
52176797
  6
CONTINUOUS
 62
     7
 10
169.0927468805
 20
1275.9224870413
 30
0.0
  0
VERTEX
  5
2E7
  8
52176797
  6
CONTINUOUS
 62
     7
 10
169.3342631612
 20
1275.9222889999
 30
0.0
  0
VERTEX
  5
2E8
  8
52176797
  6
CONTINUOUS
 62
     7
 10
169.575717313
 20
1275.9223176438
 30
0.0
  0
VERTEX
  5
2E9
  8
52176797
  6
CONTINUOUS
 62
     7
 10
169.8168535013
 20
1275.9225656294
 30
0.0
  0
VERTEX
  5
2EA
  8
52176797
  6
CONTINUOUS
 62
     7
 10
170.0574158914
 20
1275.9230256132
 30
0.0
  0
VERTEX
  5
2EB
  8
52176797
  6
CONTINUOUS
 62
     7
 10
170.2971486488
 20
1275.9236902515
 30
0.0
  0
VERTEX
  5
2EC
  8
52176797
  6
CONTINUOUS
 62
     7
 10
170.5357959388
 20
1275.9245522006
 30
0.0
  0
VERTEX
  5
2ED
  8
52176797
  6
CONTINUOUS
 62
     7
 10
170.773101927
 20
1275.9256041172
 30
0.0
  0
VERTEX
  5
2EE
  8
52176797
  6
CONTINUOUS
 62
     7
 10
171.0088107788
 20
1275.9268386574
 30
0.0
  0
VERTEX
  5
2EF
  8
52176797
  6
CONTINUOUS
 62
     7
 10
171.2426666595
 20
1275.9282484778
 30
0.0
  0
VERTEX
  5
2F0
  8
52176797
  6
CONTINUOUS
 62
     7
 10
171.4744137345
 20
1275.9298262347
 30
0.0
  0
VERTEX
  5
2F1
  8
52176797
  6
CONTINUOUS
 62
     7
 10
171.7037961694
 20
1275.9315645845
 30
0.0
  0
VERTEX
  5
2F2
  8
52176797
  6
CONTINUOUS
 62
     7
 10
171.9305581295
 20
1275.9334561837
 30
0.0
  0
VERTEX
  5
2F3
  8
52176797
  6
CONTINUOUS
 62
     7
 10
172.1544437802
 20
1275.9354936886
 30
0.0
  0
VERTEX
  5
2F4
  8
52176797
  6
CONTINUOUS
 62
     7
 10
172.375197287
 20
1275.9376697556
 30
0.0
  0
VERTEX
  5
2F5
  8
52176797
  6
CONTINUOUS
 62
     7
 10
172.5925628153
 20
1275.9399770412
 30
0.0
  0
VERTEX
  5
2F6
  8
52176797
  6
CONTINUOUS
 62
     7
 10
172.8062845304
 20
1275.9424082017
 30
0.0
  0
VERTEX
  5
2F7
  8
52176797
  6
CONTINUOUS
 62
     7
 10
173.0161065978
 20
1275.9449558936
 30
0.0
  0
VERTEX
  5
2F8
  8
52176797
  6
CONTINUOUS
 62
     7
 10
173.221773183
 20
1275.9476127732
 30
0.0
  0
VERTEX
  5
2F9
  8
52176797
  6
CONTINUOUS
 62
     7
 10
173.4230284514
 20
1275.950371497
 30
0.0
  0
VERTEX
  5
2FA
  8
52176797
  6
CONTINUOUS
 62
     7
 10
173.6196165683
 20
1275.9532247213
 30
0.0
  0
VERTEX
  5
2FB
  8
52176797
  6
CONTINUOUS
 62
     7
 10
173.8112816991
 20
1275.9561651026
 30
0.0
  0
VERTEX
  5
2FC
  8
52176797
  6
CONTINUOUS
 62
     7
 10
173.9977181114
 20
1275.9591689245
 30
0.0
  0
VERTEX
  5
2FD
  8
52176797
  6
CONTINUOUS
 62
     7
 10
174.1786481871
 20
1275.9621978799
 30
0.0
  0
VERTEX
  5
2FE
  8
52176797
  6
CONTINUOUS
 62
     7
 10
174.3539279388
 20
1275.9652397245
 30
0.0
  0
VERTEX
  5
2FF
  8
52176797
  6
CONTINUOUS
 62
     7
 10
174.5234153631
 20
1275.9682827085
 30
0.0
  0
VERTEX
  5
300
  8
52176797
  6
CONTINUOUS
 62
     7
 10
174.6869684567
 20
1275.971315082
 30
0.0
  0
VERTEX
  5
301
  8
52176797
  6
CONTINUOUS
 62
     7
 10
174.8444452162
 20
1275.9743250952
 30
0.0
  0
VERTEX
  5
302
  8
52176797
  6
CONTINUOUS
 62
     7
 10
174.9957036383
 20
1275.9773009982
 30
0.0
  0
VERTEX
  5
303
  8
52176797
  6
CONTINUOUS
 62
     7
 10
175.1406017196
 20
1275.9802310411
 30
0.0
  0
VERTEX
  5
304
  8
52176797
  6
CONTINUOUS
 62
     7
 10
175.2789974568
 20
1275.983103474
 30
0.0
  0
VERTEX
  5
305
  8
52176797
  6
CONTINUOUS
 62
     7
 10
175.4107488464
 20
1275.9859065471
 30
0.0
  0
VERTEX
  5
306
  8
52176797
  6
CONTINUOUS
 62
     7
 10
175.5357138852
 20
1275.9886285105
 30
0.0
  0
VERTEX
  5
307
  8
52176797
  6
CONTINUOUS
 62
     7
 10
175.6537505697
 20
1275.9912576142
 30
0.0
  0
VERTEX
  5
308
  8
52176797
  6
CONTINUOUS
 62
     7
 10
175.7647168967
 20
1275.9937821085
 30
0.0
  0
VERTEX
  5
309
  8
52176797
  6
CONTINUOUS
 62
     7
 10
175.8684708627
 20
1275.9961902435
 30
0.0
  0
VERTEX
  5
30A
  8
52176797
  6
CONTINUOUS
 62
     7
 10
175.9648704645
 20
1275.9984702692
 30
0.0
  0
VERTEX
  5
30B
  8
52176797
  6
CONTINUOUS
 62
     7
 10
176.0537736986
 20
1276.0006104358
 30
0.0
  0
VERTEX
  5
30C
  8
52176797
  6
CONTINUOUS
 62
     7
 10
176.1350385617
 20
1276.0025989935
 30
0.0
  0
VERTEX
  5
30D
  8
52176797
  6
CONTINUOUS
 62
     7
 10
176.2085230505
 20
1276.0044241923
 30
0.0
  0
VERTEX
  5
30E
  8
52176797
  6
CONTINUOUS
 62
     7
 10
176.2740851615
 20
1276.0060742823
 30
0.0
  0
VERTEX
  5
30F
  8
52176797
  6
CONTINUOUS
 62
     7
 10
176.3315828915
 20
1276.0075375138
 30
0.0
  0
VERTEX
  5
310
  8
52176797
  6
CONTINUOUS
 62
     7
 10
176.3808742371
 20
1276.0088021367
 30
0.0
  0
VERTEX
  5
311
  8
52176797
  6
CONTINUOUS
 62
     7
 10
176.4218171948
 20
1276.0098564014
 30
0.0
  0
VERTEX
  5
312
  8
52176797
  6
CONTINUOUS
 62
     7
 10
176.4542697609
 20
1276.0106885577
 30
0.0
  0
SEQEND
  5
313
  8
52176797
  6
CONTINUOUS
 62
     7
  0
LINE
  5
D6
  8
52176797
  6
CONTINUOUS
 62
     7
 10
161.00147999
 20
1339.011894997
 30
0.0
 11
178.00147999
 21
1339.011894997
 31
0.0
  0
LINE
  5
D7
  8
52176797
  6
CONTINUOUS
 62
     7
 10
176.50147999
 20
1314.511894997
 30
0.0
 11
162.50147999
 21
1314.511894997
 31
0.0
  0
LINE
  5
D8
  8
52176797
  6
CONTINUOUS
 62
     7
 10
176.50147999
 20
1316.011894997
 30
0.0
 11
162.50147999
 21
1316.011894997
 31
0.0
  0
LINE
  5
D9
  8
52176797
  6
CONTINUOUS
 62
     7
 10
176.50147999
 20
1316.011894997
 30
0.0
 11
176.50147999
 21
1314.511894997
 31
0.0
  0
LINE
  5
DA
  8
52176797
  6
CONTINUOUS
 62
     7
 10
162.50147999
 20
1314.511894997
 30
0.0
 11
162.50147999
 21
1316.011894997
 31
0.0
  0
LINE
  5
DB
  8
52176797
  6
CONTINUOUS
 62
     7
 10
178.00147999
 20
1325.3779204008
 30
0.0
 11
176.50147999
 21
1324.511894997
 31
0.0
  0
LINE
  5
DC
  8
52176797
  6
CONTINUOUS
 62
     7
 10
162.50147999
 20
1324.511894997
 30
0.0
 11
161.00147999
 21
1325.3779204008
 31
0.0
  0
LINE
  5
DD
  8
52176797
  6
CONTINUOUS
 62
     7
 10
162.50147999
 20
1316.011894997
 30
0.0
 11
162.50147999
 21
1324.511894997
 31
0.0
  0
LINE
  5
DE
  8
52176797
  6
CONTINUOUS
 62
     7
 10
176.50147999
 20
1324.511894997
 30
0.0
 11
176.50147999
 21
1316.011894997
 31
0.0
  0
LINE
  5
DF
  8
52176797
  6
CONTINUOUS
 62
     7
 10
175.50147999
 20
1355.011894997
 30
0.0
 11
176.35147999
 21
1355.011894997
 31
0.0
  0
LINE
  5
E0
  8
52176797
  6
CONTINUOUS
 62
     7
 10
175.50147999
 20
1360.011894997
 30
0.0
 11
175.3636251645
 21
1360.011894997
 31
0.0
  0
LINE
  5
E1
  8
52176797
  6
CONTINUOUS
 62
     7
 10
175.3636251645
 20
1355.011894997
 30
0.0
 11
169.6393348154
 21
1355.011894997
 31
0.0
  0
LINE
  5
E2
  8
52176797
  6
CONTINUOUS
 62
     7
 10
169.6393348154
 20
1360.011894997
 30
0.0
 11
169.3636251645
 21
1360.011894997
 31
0.0
  0
LINE
  5
E3
  8
52176797
  6
CONTINUOUS
 62
     7
 10
169.3636251645
 20
1355.011894997
 30
0.0
 11
163.6393348154
 21
1355.011894997
 31
0.0
  0
LINE
  5
E4
  8
52176797
  6
CONTINUOUS
 62
     7
 10
163.6393348154
 20
1360.011894997
 30
0.0
 11
163.50147999
 21
1360.011894997
 31
0.0
  0
LINE
  5
E5
  8
52176797
  6
CONTINUOUS
 62
     7
 10
163.50147999
 20
1355.011894997
 30
0.0
 11
162.65147999
 21
1355.011894997
 31
0.0
  0
LINE
  5
E6
  8
52176797
  6
CONTINUOUS
 62
     7
 10
162.75147999
 20
1363.011894997
 30
0.0
 11
176.25147999
 21
1363.011894997
 31
0.0
  0
LINE
  5
E7
  8
52176797
  6
CONTINUOUS
 62
     7
 10
162.75147999
 20
1364.011894997
 30
0.0
 11
176.25147999
 21
1364.011894997
 31
0.0
  0
LINE
  5
E8
  8
52176797
  6
CONTINUOUS
 62
     7
 10
163.50147999
 20
1365.511894997
 30
0.0
 11
175.50147999
 21
1365.511894997
 31
0.0
  0
LINE
  5
E9
  8
52176797
  6
CONTINUOUS
 62
     7
 10
162.60147999
 20
1366.411894997
 30
0.0
 11
176.40147999
 21
1366.411894997
 31
0.0
  0
LINE
  5
EA
  8
52176797
  6
CONTINUOUS
 62
     7
 10
162.60147999
 20
1372.011894997
 30
0.0
 11
176.40147999
 21
1372.011894997
 31
0.0
  0
LINE
  5
EB
  8
52176797
  6
CONTINUOUS
 62
     7
 10
163.50147999
 20
1355.011894997
 30
0.0
 11
163.50147999
 21
1360.011894997
 31
0.0
  0
LINE
  5
EC
  8
52176797
  6
CONTINUOUS
 62
     7
 10
169.3636251645
 20
1355.011894997
 30
0.0
 11
169.3636251645
 21
1360.011894997
 31
0.0
  0
LINE
  5
ED
  8
52176797
  6
CONTINUOUS
 62
     7
 10
169.3636251645
 20
1360.011894997
 30
0.0
 11
163.6393348154
 21
1360.011894997
 31
0.0
  0
LINE
  5
EE
  8
52176797
  6
CONTINUOUS
 62
     7
 10
163.6393348154
 20
1360.011894997
 30
0.0
 11
163.6393348154
 21
1355.011894997
 31
0.0
  0
LINE
  5
EF
  8
52176797
  6
CONTINUOUS
 62
     7
 10
175.3636251645
 20
1355.011894997
 30
0.0
 11
175.3636251645
 21
1360.011894997
 31
0.0
  0
LINE
  5
F0
  8
52176797
  6
CONTINUOUS
 62
     7
 10
175.3636251645
 20
1360.011894997
 30
0.0
 11
169.6393348154
 21
1360.011894997
 31
0.0
  0
LINE
  5
F1
  8
52176797
  6
CONTINUOUS
 62
     7
 10
169.6393348154
 20
1360.011894997
 30
0.0
 11
169.6393348154
 21
1355.011894997
 31
0.0
  0
LINE
  5
F2
  8
52176797
  6
CONTINUOUS
 62
     7
 10
175.50147999
 20
1360.011894997
 30
0.0
 11
175.50147999
 21
1355.011894997
 31
0.0
  0
LINE
  5
F3
  8
52176797
  6
CONTINUOUS
 62
     7
 10
158.00147999
 20
730.011894997
 30
0.0
 11
181.00147999
 21
730.011894997
 31
0.0
  0
LINE
  5
F4
  8
52176797
  6
CONTINUOUS
 62
     7
 10
162.5073357128
 20
1276.011894997
 30
0.0
 11
158.00147999
 21
1276.011894997
 31
0.0
  0
LINE
  5
F5
  8
52176797
  6
CONTINUOUS
 62
     7
 10
181.00147999
 20
1276.011894997
 30
0.0
 11
176.4956619578
 21
1276.011894997
 31
0.0
  0
LINE
  5
F6
  8
52176797
  6
CONTINUOUS
 62
     7
 10
176.50147999
 20
1276.0117452608
 30
0.0
 11
176.50147999
 21
1314.511894997
 31
0.0
  0
LINE
  5
F7
  8
52176797
  6
CONTINUOUS
 62
     7
 10
162.50147999
 20
1314.511894997
 30
0.0
 11
162.50147999
 21
1276.011744187
 31
0.0
  0
LINE
  5
F8
  8
52176797
  6
CONTINUOUS
 62
     7
 10
178.00147999
 20
1325.3779204008
 30
0.0
 11
178.00147999
 21
1339.011894997
 31
0.0
  0
LINE
  5
F9
  8
52176797
  6
CONTINUOUS
 62
     7
 10
161.00147999
 20
1339.011894997
 30
0.0
 11
161.00147999
 21
1325.3779204008
 31
0.0
  0
LINE
  5
FA
  8
52176797
  6
CONTINUOUS
 62
     7
 10
176.35147999
 20
1339.011894997
 30
0.0
 11
176.35147999
 21
1355.011894997
 31
0.0
  0
LINE
  5
FB
  8
52176797
  6
CONTINUOUS
 62
     7
 10
162.65147999
 20
1355.011894997
 30
0.0
 11
162.65147999
 21
1339.011894997
 31
0.0
  0
LINE
  5
FC
  8
52176797
  6
CONTINUOUS
 62
     7
 10
173.50147999
 20
1360.011894997
 30
0.0
 11
173.50147999
 21
1363.011894997
 31
0.0
  0
LINE
  5
FD
  8
52176797
  6
CONTINUOUS
 62
     7
 10
165.50147999
 20
1363.011894997
 30
0.0
 11
165.50147999
 21
1360.011894997
 31
0.0
  0
LINE
  5
FE
  8
52176797
  6
CONTINUOUS
 62
     7
 10
176.25147999
 20
1363.011894997
 30
0.0
 11
176.25147999
 21
1364.011894997
 31
0.0
  0
LINE
  5
FF
  8
52176797
  6
CONTINUOUS
 62
     7
 10
162.75147999
 20
1364.011894997
 30
0.0
 11
162.75147999
 21
1363.011894997
 31
0.0
  0
LINE
  5
100
  8
52176797
  6
CONTINUOUS
 62
     7
 10
175.50147999
 20
1364.011894997
 30
0.0
 11
175.50147999
 21
1365.511894997
 31
0.0
  0
LINE
  5
101
  8
52176797
  6
CONTINUOUS
 62
     7
 10
163.50147999
 20
1365.511894997
 30
0.0
 11
163.50147999
 21
1364.011894997
 31
0.0
  0
LINE
  5
102
  8
52176797
  6
CONTINUOUS
 62
     7
 10
162.60147999
 20
1366.411894997
 30
0.0
 11
163.50147999
 21
1365.511894997
 31
0.0
  0
LINE
  5
103
  8
52176797
  6
CONTINUOUS
 62
     7
 10
175.50147999
 20
1365.511894997
 30
0.0
 11
176.40147999
 21
1366.411894997
 31
0.0
  0
LINE
  5
104
  8
52176797
  6
CONTINUOUS
 62
     7
 10
176.40147999
 20
1366.411894997
 30
0.0
 11
176.40147999
 21
1372.011894997
 31
0.0
  0
LINE
  5
105
  8
52176797
  6
CONTINUOUS
 62
     7
 10
162.60147999
 20
1372.011894997
 30
0.0
 11
162.60147999
 21
1366.411894997
 31
0.0
  0
ENDBLK
  5
10A
  8
0
  0
BLOCK
  8
0
  2
SE3
 70
     0
 10
0.0
 20
0.0
 30
0.0
  3
SE3
  1

  0
CIRCLE
  5
10D
  8
52176797
  6
CONTINUOUS
 62
     7
 10
718.6588353495
 20
1003.011894997
 30
0.0
 40
156.0
  0
CIRCLE
  5
10E
  8
52176797
  6
CONTINUOUS
 62
     7
 10
718.6588353495
 20
1003.011894997
 30
0.0
 40
194.5
  0
CIRCLE
  5
10F
  8
52176797
  6
CONTINUOUS
 62
     7
 10
718.6588353495
 20
1003.011894997
 30
0.0
 40
273.0
  0
LINE
  5
110
  8
52176797
  6
CONTINUOUS
 62
     7
 10
382.6588353495
 20
994.511894997
 30
0.0
 11
382.6588353495
 21
1011.511894997
 31
0.0
  0
LINE
  5
111
  8
52176797
  6
CONTINUOUS
 62
     7
 10
405.6588353495
 20
998.1900696165
 30
0.0
 11
405.6588353495
 21
994.511894997
 31
0.0
  0
LINE
  5
112
  8
52176797
  6
CONTINUOUS
 62
     7
 10
407.1588353495
 20
1003.011894997
 30
0.0
 11
407.1588353495
 21
996.011894997
 31
0.0
  0
LINE
  5
113
  8
52176797
  6
CONTINUOUS
 62
     7
 10
405.6588353495
 20
1011.511894997
 30
0.0
 11
405.6588353495
 21
1007.8337203775
 31
0.0
  0
LINE
  5
114
  8
52176797
  6
CONTINUOUS
 62
     7
 10
407.1588353495
 20
1003.011894997
 30
0.0
 11
407.1588353495
 21
1010.011894997
 31
0.0
  0
POLYLINE
  5
115
  8
52176797
  6
CONTINUOUS
 62
     7
 66
     1
 10
0.0
 20
0.0
 30
0.0
  0
VERTEX
  5
314
  8
52176797
  6
CONTINUOUS
 62
     7
 10
407.1588353495
 20
1003.011894997
 30
0.0
  0
VERTEX
  5
315
  8
52176797
  6
CONTINUOUS
 62
     7
 10
407.1584756187
 20
1003.0826301218
 30
0.0
  0
VERTEX
  5
316
  8
52176797
  6
CONTINUOUS
 62
     7
 10
407.1573983259
 20
1003.1533310431
 30
0.0
  0
VERTEX
  5
317
  8
52176797
  6
CONTINUOUS
 62
     7
 10
407.1556063201
 20
1003.2239978967
 30
0.0
  0
VERTEX
  5
318
  8
52176797
  6
CONTINUOUS
 62
     7
 10
407.1531024507
 20
1003.2946308184
 30
0.0
  0
VERTEX
  5
319
  8
52176797
  6
CONTINUOUS
 62
     7
 10
407.1498895667
 20
1003.3652299441
 30
0.0
  0
VERTEX
  5
31A
  8
52176797
  6
CONTINUOUS
 62
     7
 10
407.1459705173
 20
1003.4357954096
 30
0.0
  0
VERTEX
  5
31B
  8
52176797
  6
CONTINUOUS
 62
     7
 10
407.1413481518
 20
1003.5063273506
 30
0.0
  0
VERTEX
  5
31C
  8
52176797
  6
CONTINUOUS
 62
     7
 10
407.1360253192
 20
1003.5768259029
 30
0.0
  0
VERTEX
  5
31D
  8
52176797
  6
CONTINUOUS
 62
     7
 10
407.1300048688
 20
1003.6472912025
 30
0.0
  0
VERTEX
  5
31E
  8
52176797
  6
CONTINUOUS
 62
     7
 10
407.1232896498
 20
1003.717723385
 30
0.0
  0
VERTEX
  5
31F
  8
52176797
  6
CONTINUOUS
 62
     7
 10
407.1158825112
 20
1003.7881225863
 30
0.0
  0
VERTEX
  5
320
  8
52176797
  6
CONTINUOUS
 62
     7
 10
407.1077863024
 20
1003.8584889423
 30
0.0
  0
VERTEX
  5
321
  8
52176797
  6
CONTINUOUS
 62
     7
 10
407.0990038725
 20
1003.9288225886
 30
0.0
  0
VERTEX
  5
322
  8
52176797
  6
CONTINUOUS
 62
     7
 10
407.0895380706
 20
1003.9991236612
 30
0.0
  0
VERTEX
  5
323
  8
52176797
  6
CONTINUOUS
 62
     7
 10
407.079391746
 20
1004.0693922959
 30
0.0
  0
VERTEX
  5
324
  8
52176797
  6
CONTINUOUS
 62
     7
 10
407.0685677477
 20
1004.1396286283
 30
0.0
  0
VERTEX
  5
325
  8
52176797
  6
CONTINUOUS
 62
     7
 10
407.0570689251
 20
1004.2098327945
 30
0.0
  0
VERTEX
  5
326
  8
52176797
  6
CONTINUOUS
 62
     7
 10
407.0448981272
 20
1004.2800049301
 30
0.0
  0
VERTEX
  5
327
  8
52176797
  6
CONTINUOUS
 62
     7
 10
407.0320536178
 20
1004.3501650923
 30
0.0
  0
VERTEX
  5
328
  8
52176797
  6
CONTINUOUS
 62
     7
 10
407.0185418407
 20
1004.4203109911
 30
0.0
  0
VERTEX
  5
329
  8
52176797
  6
CONTINUOUS
 62
     7
 10
407.0043779154
 20
1004.4904092413
 30
0.0
  0
VERTEX
  5
32A
  8
52176797
  6
CONTINUOUS
 62
     7
 10
406.9895769612
 20
1004.5604264578
 30
0.0
  0
VERTEX
  5
32B
  8
52176797
  6
CONTINUOUS
 62
     7
 10
406.9741540976
 20
1004.6303292556
 30
0.0
  0
VERTEX
  5
32C
  8
52176797
  6
CONTINUOUS
 62
     7
 10
406.958124444
 20
1004.7000842495
 30
0.0
  0
VERTEX
  5
32D
  8
52176797
  6
CONTINUOUS
 62
     7
 10
406.9415031198
 20
1004.7696580545
 30
0.0
  0
VERTEX
  5
32E
  8
52176797
  6
CONTINUOUS
 62
     7
 10
406.9243052446
 20
1004.8390172853
 30
0.0
  0
VERTEX
  5
32F
  8
52176797
  6
CONTINUOUS
 62
     7
 10
406.9065459376
 20
1004.908128557
 30
0.0
  0
VERTEX
  5
330
  8
52176797
  6
CONTINUOUS
 62
     7
 10
406.8882368122
 20
1004.9769926243
 30
0.0
  0
VERTEX
  5
331
  8
52176797
  6
CONTINUOUS
 62
     7
 10
406.8693853768
 20
1005.0456349418
 30
0.0
  0
VERTEX
  5
332
  8
52176797
  6
CONTINUOUS
 62
     7
 10
406.8500005935
 20
1005.1140591741
 30
0.0
  0
VERTEX
  5
333
  8
52176797
  6
CONTINUOUS
 62
     7
 10
406.8300914245
 20
1005.1822689858
 30
0.0
  0
VERTEX
  5
334
  8
52176797
  6
CONTINUOUS
 62
     7
 10
406.809666832
 20
1005.2502680415
 30
0.0
  0
VERTEX
  5
335
  8
52176797
  6
CONTINUOUS
 62
     7
 10
406.788735778
 20
1005.3180600059
 30
0.0
  0
VERTEX
  5
336
  8
52176797
  6
CONTINUOUS
 62
     7
 10
406.7673072248
 20
1005.3856485435
 30
0.0
  0
VERTEX
  5
337
  8
52176797
  6
CONTINUOUS
 62
     7
 10
406.7453901344
 20
1005.4530373189
 30
0.0
  0
VERTEX
  5
338
  8
52176797
  6
CONTINUOUS
 62
     7
 10
406.722993469
 20
1005.5202299968
 30
0.0
  0
VERTEX
  5
339
  8
52176797
  6
CONTINUOUS
 62
     7
 10
406.7001316936
 20
1005.5872324918
 30
0.0
  0
VERTEX
  5
33A
  8
52176797
  6
CONTINUOUS
 62
     7
 10
406.6768174018
 20
1005.6540499536
 30
0.0
  0
VERTEX
  5
33B
  8
52176797
  6
CONTINUOUS
 62
     7
 10
406.6530567494
 20
1005.7206848991
 30
0.0
  0
VERTEX
  5
33C
  8
52176797
  6
CONTINUOUS
 62
     7
 10
406.628855892
 20
1005.7871398453
 30
0.0
  0
VERTEX
  5
33D
  8
52176797
  6
CONTINUOUS
 62
     7
 10
406.6042209852
 20
1005.8534173094
 30
0.0
  0
VERTEX
  5
33E
  8
52176797
  6
CONTINUOUS
 62
     7
 10
406.5791581845
 20
1005.9195198083
 30
0.0
  0
VERTEX
  5
33F
  8
52176797
  6
CONTINUOUS
 62
     7
 10
406.5536736456
 20
1005.985449859
 30
0.0
  0
VERTEX
  5
340
  8
52176797
  6
CONTINUOUS
 62
     7
 10
406.5277735241
 20
1006.0512099785
 30
0.0
  0
VERTEX
  5
341
  8
52176797
  6
CONTINUOUS
 62
     7
 10
406.5014639756
 20
1006.116802684
 30
0.0
  0
VERTEX
  5
342
  8
52176797
  6
CONTINUOUS
 62
     7
 10
406.4747511558
 20
1006.1822304923
 30
0.0
  0
VERTEX
  5
343
  8
52176797
  6
CONTINUOUS
 62
     7
 10
406.4476412201
 20
1006.2474959205
 30
0.0
  0
VERTEX
  5
344
  8
52176797
  6
CONTINUOUS
 62
     7
 10
406.4201403242
 20
1006.3126014856
 30
0.0
  0
VERTEX
  5
345
  8
52176797
  6
CONTINUOUS
 62
     7
 10
406.3922546238
 20
1006.3775497047
 30
0.0
  0
VERTEX
  5
346
  8
52176797
  6
CONTINUOUS
 62
     7
 10
406.3639902744
 20
1006.4423430948
 30
0.0
  0
VERTEX
  5
347
  8
52176797
  6
CONTINUOUS
 62
     7
 10
406.3353534317
 20
1006.5069841728
 30
0.0
  0
VERTEX
  5
348
  8
52176797
  6
CONTINUOUS
 62
     7
 10
406.3063502512
 20
1006.5714754559
 30
0.0
  0
VERTEX
  5
349
  8
52176797
  6
CONTINUOUS
 62
     7
 10
406.2769868885
 20
1006.635819461
 30
0.0
  0
VERTEX
  5
34A
  8
52176797
  6
CONTINUOUS
 62
     7
 10
406.2472694994
 20
1006.7000187051
 30
0.0
  0
VERTEX
  5
34B
  8
52176797
  6
CONTINUOUS
 62
     7
 10
406.2172042393
 20
1006.7640757052
 30
0.0
  0
VERTEX
  5
34C
  8
52176797
  6
CONTINUOUS
 62
     7
 10
406.1867972639
 20
1006.8279929785
 30
0.0
  0
VERTEX
  5
34D
  8
52176797
  6
CONTINUOUS
 62
     7
 10
406.1560547287
 20
1006.8917730419
 30
0.0
  0
VERTEX
  5
34E
  8
52176797
  6
CONTINUOUS
 62
     7
 10
406.1249827895
 20
1006.9554184123
 30
0.0
  0
VERTEX
  5
34F
  8
52176797
  6
CONTINUOUS
 62
     7
 10
406.0935876018
 20
1007.018931607
 30
0.0
  0
VERTEX
  5
350
  8
52176797
  6
CONTINUOUS
 62
     7
 10
406.0618753212
 20
1007.0823151427
 30
0.0
  0
VERTEX
  5
351
  8
52176797
  6
CONTINUOUS
 62
     7
 10
406.0298521033
 20
1007.1455715367
 30
0.0
  0
VERTEX
  5
352
  8
52176797
  6
CONTINUOUS
 62
     7
 10
405.9975241037
 20
1007.2087033059
 30
0.0
  0
VERTEX
  5
353
  8
52176797
  6
CONTINUOUS
 62
     7
 10
405.964897478
 20
1007.2717129672
 30
0.0
  0
VERTEX
  5
354
  8
52176797
  6
CONTINUOUS
 62
     7
 10
405.9319783819
 20
1007.3346030378
 30
0.0
  0
VERTEX
  5
355
  8
52176797
  6
CONTINUOUS
 62
     7
 10
405.898772971
 20
1007.3973760347
 30
0.0
  0
VERTEX
  5
356
  8
52176797
  6
CONTINUOUS
 62
     7
 10
405.8652874008
 20
1007.4600344748
 30
0.0
  0
VERTEX
  5
357
  8
52176797
  6
CONTINUOUS
 62
     7
 10
405.831527827
 20
1007.5225808753
 30
0.0
  0
VERTEX
  5
358
  8
52176797
  6
CONTINUOUS
 62
     7
 10
405.7975004051
 20
1007.585017753
 30
0.0
  0
VERTEX
  5
359
  8
52176797
  6
CONTINUOUS
 62
     7
 10
405.7632112908
 20
1007.6473476251
 30
0.0
  0
VERTEX
  5
35A
  8
52176797
  6
CONTINUOUS
 62
     7
 10
405.7286666397
 20
1007.7095730085
 30
0.0
  0
VERTEX
  5
35B
  8
52176797
  6
CONTINUOUS
 62
     7
 10
405.6938726074
 20
1007.7716964203
 30
0.0
  0
VERTEX
  5
35C
  8
52176797
  6
CONTINUOUS
 62
     7
 10
405.6588353497
 20
1007.8337203771
 30
0.0
  0
SEQEND
  5
35D
  8
52176797
  6
CONTINUOUS
 62
     7
  0
POLYLINE
  5
116
  8
52176797
  6
CONTINUOUS
 62
     7
 66
     1
 10
0.0
 20
0.0
 30
0.0
  0
VERTEX
  5
35E
  8
52176797
  6
CONTINUOUS
 62
     7
 10
405.6588353495
 20
998.1900696165
 30
0.0
  0
VERTEX
  5
35F
  8
52176797
  6
CONTINUOUS
 62
     7
 10
405.6938726074
 20
998.2520935737
 30
0.0
  0
VERTEX
  5
360
  8
52176797
  6
CONTINUOUS
 62
     7
 10
405.7286666397
 20
998.3142169855
 30
0.0
  0
VERTEX
  5
361
  8
52176797
  6
CONTINUOUS
 62
     7
 10
405.7632112908
 20
998.3764423689
 30
0.0
  0
VERTEX
  5
362
  8
52176797
  6
CONTINUOUS
 62
     7
 10
405.7975004051
 20
998.438772241
 30
0.0
  0
VERTEX
  5
363
  8
52176797
  6
CONTINUOUS
 62
     7
 10
405.831527827
 20
998.5012091188
 30
0.0
  0
VERTEX
  5
364
  8
52176797
  6
CONTINUOUS
 62
     7
 10
405.8652874008
 20
998.5637555192
 30
0.0
  0
VERTEX
  5
365
  8
52176797
  6
CONTINUOUS
 62
     7
 10
405.898772971
 20
998.6264139593
 30
0.0
  0
VERTEX
  5
366
  8
52176797
  6
CONTINUOUS
 62
     7
 10
405.9319783819
 20
998.6891869562
 30
0.0
  0
VERTEX
  5
367
  8
52176797
  6
CONTINUOUS
 62
     7
 10
405.964897478
 20
998.7520770268
 30
0.0
  0
VERTEX
  5
368
  8
52176797
  6
CONTINUOUS
 62
     7
 10
405.9975241037
 20
998.8150866882
 30
0.0
  0
VERTEX
  5
369
  8
52176797
  6
CONTINUOUS
 62
     7
 10
406.0298521033
 20
998.8782184573
 30
0.0
  0
VERTEX
  5
36A
  8
52176797
  6
CONTINUOUS
 62
     7
 10
406.0618753212
 20
998.9414748513
 30
0.0
  0
VERTEX
  5
36B
  8
52176797
  6
CONTINUOUS
 62
     7
 10
406.0935876018
 20
999.0048583871
 30
0.0
  0
VERTEX
  5
36C
  8
52176797
  6
CONTINUOUS
 62
     7
 10
406.1249827895
 20
999.0683715817
 30
0.0
  0
VERTEX
  5
36D
  8
52176797
  6
CONTINUOUS
 62
     7
 10
406.1560547287
 20
999.1320169522
 30
0.0
  0
VERTEX
  5
36E
  8
52176797
  6
CONTINUOUS
 62
     7
 10
406.1867972639
 20
999.1957970155
 30
0.0
  0
VERTEX
  5
36F
  8
52176797
  6
CONTINUOUS
 62
     7
 10
406.2172042393
 20
999.2597142888
 30
0.0
  0
VERTEX
  5
370
  8
52176797
  6
CONTINUOUS
 62
     7
 10
406.2472694994
 20
999.323771289
 30
0.0
  0
VERTEX
  5
371
  8
52176797
  6
CONTINUOUS
 62
     7
 10
406.2769868885
 20
999.3879705331
 30
0.0
  0
VERTEX
  5
372
  8
52176797
  6
CONTINUOUS
 62
     7
 10
406.3063502512
 20
999.4523145382
 30
0.0
  0
VERTEX
  5
373
  8
52176797
  6
CONTINUOUS
 62
     7
 10
406.3353534317
 20
999.5168058212
 30
0.0
  0
VERTEX
  5
374
  8
52176797
  6
CONTINUOUS
 62
     7
 10
406.3639902744
 20
999.5814468993
 30
0.0
  0
VERTEX
  5
375
  8
52176797
  6
CONTINUOUS
 62
     7
 10
406.3922546238
 20
999.6462402893
 30
0.0
  0
VERTEX
  5
376
  8
52176797
  6
CONTINUOUS
 62
     7
 10
406.4201403242
 20
999.7111885084
 30
0.0
  0
VERTEX
  5
377
  8
52176797
  6
CONTINUOUS
 62
     7
 10
406.4476412201
 20
999.7762940736
 30
0.0
  0
VERTEX
  5
378
  8
52176797
  6
CONTINUOUS
 62
     7
 10
406.4747511558
 20
999.8415595018
 30
0.0
  0
VERTEX
  5
379
  8
52176797
  6
CONTINUOUS
 62
     7
 10
406.5014639756
 20
999.9069873101
 30
0.0
  0
VERTEX
  5
37A
  8
52176797
  6
CONTINUOUS
 62
     7
 10
406.5277735241
 20
999.9725800155
 30
0.0
  0
VERTEX
  5
37B
  8
52176797
  6
CONTINUOUS
 62
     7
 10
406.5536736456
 20
1000.0383401351
 30
0.0
  0
VERTEX
  5
37C
  8
52176797
  6
CONTINUOUS
 62
     7
 10
406.5791581845
 20
1000.1042701858
 30
0.0
  0
VERTEX
  5
37D
  8
52176797
  6
CONTINUOUS
 62
     7
 10
406.6042209852
 20
1000.1703726847
 30
0.0
  0
VERTEX
  5
37E
  8
52176797
  6
CONTINUOUS
 62
     7
 10
406.628855892
 20
1000.2366501487
 30
0.0
  0
VERTEX
  5
37F
  8
52176797
  6
CONTINUOUS
 62
     7
 10
406.6530567494
 20
1000.303105095
 30
0.0
  0
VERTEX
  5
380
  8
52176797
  6
CONTINUOUS
 62
     7
 10
406.6768174018
 20
1000.3697400405
 30
0.0
  0
VERTEX
  5
381
  8
52176797
  6
CONTINUOUS
 62
     7
 10
406.7001316936
 20
1000.4365575022
 30
0.0
  0
VERTEX
  5
382
  8
52176797
  6
CONTINUOUS
 62
     7
 10
406.722993469
 20
1000.5035599973
 30
0.0
  0
VERTEX
  5
383
  8
52176797
  6
CONTINUOUS
 62
     7
 10
406.7453901344
 20
1000.5707526751
 30
0.0
  0
VERTEX
  5
384
  8
52176797
  6
CONTINUOUS
 62
     7
 10
406.7673072248
 20
1000.6381414506
 30
0.0
  0
VERTEX
  5
385
  8
52176797
  6
CONTINUOUS
 62
     7
 10
406.788735778
 20
1000.7057299882
 30
0.0
  0
VERTEX
  5
386
  8
52176797
  6
CONTINUOUS
 62
     7
 10
406.809666832
 20
1000.7735219525
 30
0.0
  0
VERTEX
  5
387
  8
52176797
  6
CONTINUOUS
 62
     7
 10
406.8300914245
 20
1000.8415210082
 30
0.0
  0
VERTEX
  5
388
  8
52176797
  6
CONTINUOUS
 62
     7
 10
406.8500005935
 20
1000.90973082
 30
0.0
  0
VERTEX
  5
389
  8
52176797
  6
CONTINUOUS
 62
     7
 10
406.8693853768
 20
1000.9781550522
 30
0.0
  0
VERTEX
  5
38A
  8
52176797
  6
CONTINUOUS
 62
     7
 10
406.8882368122
 20
1001.0467973697
 30
0.0
  0
VERTEX
  5
38B
  8
52176797
  6
CONTINUOUS
 62
     7
 10
406.9065459376
 20
1001.115661437
 30
0.0
  0
VERTEX
  5
38C
  8
52176797
  6
CONTINUOUS
 62
     7
 10
406.9243052446
 20
1001.1847727087
 30
0.0
  0
VERTEX
  5
38D
  8
52176797
  6
CONTINUOUS
 62
     7
 10
406.9415031198
 20
1001.2541319396
 30
0.0
  0
VERTEX
  5
38E
  8
52176797
  6
CONTINUOUS
 62
     7
 10
406.958124444
 20
1001.3237057445
 30
0.0
  0
VERTEX
  5
38F
  8
52176797
  6
CONTINUOUS
 62
     7
 10
406.9741540976
 20
1001.3934607384
 30
0.0
  0
VERTEX
  5
390
  8
52176797
  6
CONTINUOUS
 62
     7
 10
406.9895769612
 20
1001.4633635362
 30
0.0
  0
VERTEX
  5
391
  8
52176797
  6
CONTINUOUS
 62
     7
 10
407.0043779154
 20
1001.5333807527
 30
0.0
  0
VERTEX
  5
392
  8
52176797
  6
CONTINUOUS
 62
     7
 10
407.0185418407
 20
1001.603479003
 30
0.0
  0
VERTEX
  5
393
  8
52176797
  6
CONTINUOUS
 62
     7
 10
407.0320536178
 20
1001.6736249017
 30
0.0
  0
VERTEX
  5
394
  8
52176797
  6
CONTINUOUS
 62
     7
 10
407.0448981272
 20
1001.743785064
 30
0.0
  0
VERTEX
  5
395
  8
52176797
  6
CONTINUOUS
 62
     7
 10
407.0570689251
 20
1001.8139571996
 30
0.0
  0
VERTEX
  5
396
  8
52176797
  6
CONTINUOUS
 62
     7
 10
407.0685677477
 20
1001.8841613657
 30
0.0
  0
VERTEX
  5
397
  8
52176797
  6
CONTINUOUS
 62
     7
 10
407.079391746
 20
1001.9543976982
 30
0.0
  0
VERTEX
  5
398
  8
52176797
  6
CONTINUOUS
 62
     7
 10
407.0895380706
 20
1002.0246663328
 30
0.0
  0
VERTEX
  5
399
  8
52176797
  6
CONTINUOUS
 62
     7
 10
407.0990038725
 20
1002.0949674054
 30
0.0
  0
VERTEX
  5
39A
  8
52176797
  6
CONTINUOUS
 62
     7
 10
407.1077863024
 20
1002.1653010518
 30
0.0
  0
VERTEX
  5
39B
  8
52176797
  6
CONTINUOUS
 62
     7
 10
407.1158825112
 20
1002.2356674077
 30
0.0
  0
VERTEX
  5
39C
  8
52176797
  6
CONTINUOUS
 62
     7
 10
407.1232896498
 20
1002.306066609
 30
0.0
  0
VERTEX
  5
39D
  8
52176797
  6
CONTINUOUS
 62
     7
 10
407.1300048688
 20
1002.3764987916
 30
0.0
  0
VERTEX
  5
39E
  8
52176797
  6
CONTINUOUS
 62
     7
 10
407.1360253192
 20
1002.4469640911
 30
0.0
  0
VERTEX
  5
39F
  8
52176797
  6
CONTINUOUS
 62
     7
 10
407.1413481518
 20
1002.5174626435
 30
0.0
  0
VERTEX
  5
3A0
  8
52176797
  6
CONTINUOUS
 62
     7
 10
407.1459705173
 20
1002.5879945845
 30
0.0
  0
VERTEX
  5
3A1
  8
52176797
  6
CONTINUOUS
 62
     7
 10
407.1498895667
 20
1002.6585600499
 30
0.0
  0
VERTEX
  5
3A2
  8
52176797
  6
CONTINUOUS
 62
     7
 10
407.1531024507
 20
1002.7291591756
 30
0.0
  0
VERTEX
  5
3A3
  8
52176797
  6
CONTINUOUS
 62
     7
 10
407.1556063201
 20
1002.7997920973
 30
0.0
  0
VERTEX
  5
3A4
  8
52176797
  6
CONTINUOUS
 62
     7
 10
407.1573983259
 20
1002.870458951
 30
0.0
  0
VERTEX
  5
3A5
  8
52176797
  6
CONTINUOUS
 62
     7
 10
407.1584756187
 20
1002.9411598722
 30
0.0
  0
VERTEX
  5
3A6
  8
52176797
  6
CONTINUOUS
 62
     7
 10
407.1588353495
 20
1003.0118949965
 30
0.0
  0
SEQEND
  5
3A7
  8
52176797
  6
CONTINUOUS
 62
     7
  0
POLYLINE
  5
117
  8
52176797
  6
CONTINUOUS
 62
     7
 66
     1
 10
0.0
 20
0.0
 30
0.0
  0
VERTEX
  5
3A9
  8
52176797
  6
CONTINUOUS
 62
     7
 10
397.1588353495
 20
1007.8337203775
 30
0.0
  0
VERTEX
  5
3AA
  8
52176797
  6
CONTINUOUS
 62
     7
 10
396.9698621854
 20
1007.3200862333
 30
0.0
  0
VERTEX
  5
3AB
  8
52176797
  6
CONTINUOUS
 62
     7
 10
396.7995093215
 20
1006.7734719669
 30
0.0
  0
VERTEX
  5
3AC
  8
52176797
  6
CONTINUOUS
 62
     7
 10
396.6503240755
 20
1006.1967820866
 30
0.0
  0
VERTEX
  5
3AD
  8
52176797
  6
CONTINUOUS
 62
     7
 10
396.5246592664
 20
1005.5936597677
 30
0.0
  0
VERTEX
  5
3AE
  8
52176797
  6
CONTINUOUS
 62
     7
 10
396.4245870584
 20
1004.9684387616
 30
0.0
  0
VERTEX
  5
3AF
  8
52176797
  6
CONTINUOUS
 62
     7
 10
396.3518176886
 20
1004.3260598302
 30
0.0
  0
VERTEX
  5
3B0
  8
52176797
  6
CONTINUOUS
 62
     7
 10
396.3076286995
 20
1003.6719536299
 30
0.0
  0
VERTEX
  5
3B1
  8
52176797
  6
CONTINUOUS
 62
     7
 10
396.2928099457
 20
1003.011894997
 30
0.0
  0
VERTEX
  5
3B2
  8
52176797
  6
CONTINUOUS
 62
     7
 10
396.3076286995
 20
1002.3518363642
 30
0.0
  0
VERTEX
  5
3B3
  8
52176797
  6
CONTINUOUS
 62
     7
 10
396.3518176886
 20
1001.6977301639
 30
0.0
  0
VERTEX
  5
3B4
  8
52176797
  6
CONTINUOUS
 62
     7
 10
396.4245870584
 20
1001.0553512325
 30
0.0
  0
VERTEX
  5
3B5
  8
52176797
  6
CONTINUOUS
 62
     7
 10
396.5246592664
 20
1000.4301302264
 30
0.0
  0
VERTEX
  5
3B6
  8
52176797
  6
CONTINUOUS
 62
     7
 10
396.6503240755
 20
999.8270079074
 30
0.0
  0
VERTEX
  5
3B7
  8
52176797
  6
CONTINUOUS
 62
     7
 10
396.7995093215
 20
999.2503180272
 30
0.0
  0
VERTEX
  5
3B8
  8
52176797
  6
CONTINUOUS
 62
     7
 10
396.9698621854
 20
998.7037037608
 30
0.0
  0
VERTEX
  5
3B9
  8
52176797
  6
CONTINUOUS
 62
     7
 10
397.1588353495
 20
998.1900696165
 30
0.0
  0
SEQEND
  5
3A8
  8
52176797
  6
CONTINUOUS
 62
     7
  0
LINE
  5
118
  8
52176797
  6
CONTINUOUS
 62
     7
 10
397.1588353495
 20
1007.8337203775
 30
0.0
 11
397.1588353495
 21
998.1900696165
 31
0.0
  0
LINE
  5
119
  8
52176797
  6
CONTINUOUS
 62
     7
 10
405.6588353495
 20
1007.8337203775
 30
0.0
 11
397.1588353495
 21
1007.8337203775
 31
0.0
  0
LINE
  5
11A
  8
52176797
  6
CONTINUOUS
 62
     7
 10
397.1588353495
 20
998.1900696165
 30
0.0
 11
405.6588353495
 21
998.1900696165
 31
0.0
  0
LINE
  5
11B
  8
52176797
  6
CONTINUOUS
 62
     7
 10
710.1588353495
 20
1339.011894997
 30
0.0
 11
727.1588353495
 21
1339.011894997
 31
0.0
  0
LINE
  5
11C
  8
52176797
  6
CONTINUOUS
 62
     7
 10
725.6588353495
 20
1314.511894997
 30
0.0
 11
718.6588353495
 21
1314.511894997
 31
0.0
  0
LINE
  5
11D
  8
52176797
  6
CONTINUOUS
 62
     7
 10
727.1588353495
 20
1316.011894997
 30
0.0
 11
723.48066073
 21
1316.011894997
 31
0.0
  0
LINE
  5
11E
  8
52176797
  6
CONTINUOUS
 62
     7
 10
713.837009969
 20
1316.011894997
 30
0.0
 11
710.1588353495
 21
1316.011894997
 31
0.0
  0
LINE
  5
11F
  8
52176797
  6
CONTINUOUS
 62
     7
 10
718.6588353495
 20
1314.511894997
 30
0.0
 11
711.6588353495
 21
1314.511894997
 31
0.0
  0
POLYLINE
  5
120
  8
52176797
  6
CONTINUOUS
 62
     7
 66
     1
 10
0.0
 20
0.0
 30
0.0
  0
VERTEX
  5
3BA
  8
52176797
  6
CONTINUOUS
 62
     7
 10
718.6588353495
 20
1314.511894997
 30
0.0
  0
VERTEX
  5
3BB
  8
52176797
  6
CONTINUOUS
 62
     7
 10
718.7295704743
 20
1314.5122547278
 30
0.0
  0
VERTEX
  5
3BC
  8
52176797
  6
CONTINUOUS
 62
     7
 10
718.8002713955
 20
1314.5133320206
 30
0.0
  0
VERTEX
  5
3BD
  8
52176797
  6
CONTINUOUS
 62
     7
 10
718.8709382492
 20
1314.5151240264
 30
0.0
  0
VERTEX
  5
3BE
  8
52176797
  6
CONTINUOUS
 62
     7
 10
718.9415711709
 20
1314.5176278958
 30
0.0
  0
VERTEX
  5
3BF
  8
52176797
  6
CONTINUOUS
 62
     7
 10
719.0121702966
 20
1314.5208407798
 30
0.0
  0
VERTEX
  5
3C0
  8
52176797
  6
CONTINUOUS
 62
     7
 10
719.082735762
 20
1314.5247598292
 30
0.0
  0
VERTEX
  5
3C1
  8
52176797
  6
CONTINUOUS
 62
     7
 10
719.153267703
 20
1314.5293821947
 30
0.0
  0
VERTEX
  5
3C2
  8
52176797
  6
CONTINUOUS
 62
     7
 10
719.2237662554
 20
1314.5347050273
 30
0.0
  0
VERTEX
  5
3C3
  8
52176797
  6
CONTINUOUS
 62
     7
 10
719.2942315549
 20
1314.5407254777
 30
0.0
  0
VERTEX
  5
3C4
  8
52176797
  6
CONTINUOUS
 62
     7
 10
719.3646637375
 20
1314.5474406968
 30
0.0
  0
VERTEX
  5
3C5
  8
52176797
  6
CONTINUOUS
 62
     7
 10
719.4350629388
 20
1314.5548478353
 30
0.0
  0
VERTEX
  5
3C6
  8
52176797
  6
CONTINUOUS
 62
     7
 10
719.5054292947
 20
1314.5629440441
 30
0.0
  0
VERTEX
  5
3C7
  8
52176797
  6
CONTINUOUS
 62
     7
 10
719.5757629411
 20
1314.571726474
 30
0.0
  0
VERTEX
  5
3C8
  8
52176797
  6
CONTINUOUS
 62
     7
 10
719.6460640137
 20
1314.5811922759
 30
0.0
  0
VERTEX
  5
3C9
  8
52176797
  6
CONTINUOUS
 62
     7
 10
719.7163326483
 20
1314.5913386006
 30
0.0
  0
VERTEX
  5
3CA
  8
52176797
  6
CONTINUOUS
 62
     7
 10
719.7865689808
 20
1314.6021625988
 30
0.0
  0
VERTEX
  5
3CB
  8
52176797
  6
CONTINUOUS
 62
     7
 10
719.8567731469
 20
1314.6136614214
 30
0.0
  0
VERTEX
  5
3CC
  8
52176797
  6
CONTINUOUS
 62
     7
 10
719.9269452825
 20
1314.6258322193
 30
0.0
  0
VERTEX
  5
3CD
  8
52176797
  6
CONTINUOUS
 62
     7
 10
719.9971054448
 20
1314.6386767287
 30
0.0
  0
VERTEX
  5
3CE
  8
52176797
  6
CONTINUOUS
 62
     7
 10
720.0672513435
 20
1314.6521885058
 30
0.0
  0
VERTEX
  5
3CF
  8
52176797
  6
CONTINUOUS
 62
     7
 10
720.1373495938
 20
1314.6663524311
 30
0.0
  0
VERTEX
  5
3D0
  8
52176797
  6
CONTINUOUS
 62
     7
 10
720.2073668103
 20
1314.6811533853
 30
0.0
  0
VERTEX
  5
3D1
  8
52176797
  6
CONTINUOUS
 62
     7
 10
720.2772696081
 20
1314.6965762489
 30
0.0
  0
VERTEX
  5
3D2
  8
52176797
  6
CONTINUOUS
 62
     7
 10
720.347024602
 20
1314.7126059025
 30
0.0
  0
VERTEX
  5
3D3
  8
52176797
  6
CONTINUOUS
 62
     7
 10
720.4165984069
 20
1314.7292272267
 30
0.0
  0
VERTEX
  5
3D4
  8
52176797
  6
CONTINUOUS
 62
     7
 10
720.4859576378
 20
1314.7464251019
 30
0.0
  0
VERTEX
  5
3D5
  8
52176797
  6
CONTINUOUS
 62
     7
 10
720.5550689095
 20
1314.7641844089
 30
0.0
  0
VERTEX
  5
3D6
  8
52176797
  6
CONTINUOUS
 62
     7
 10
720.6239329768
 20
1314.7824935343
 30
0.0
  0
VERTEX
  5
3D7
  8
52176797
  6
CONTINUOUS
 62
     7
 10
720.6925752943
 20
1314.8013449698
 30
0.0
  0
VERTEX
  5
3D8
  8
52176797
  6
CONTINUOUS
 62
     7
 10
720.7609995266
 20
1314.820729753
 30
0.0
  0
VERTEX
  5
3D9
  8
52176797
  6
CONTINUOUS
 62
     7
 10
720.8292093383
 20
1314.840638922
 30
0.0
  0
VERTEX
  5
3DA
  8
52176797
  6
CONTINUOUS
 62
     7
 10
720.897208394
 20
1314.8610635145
 30
0.0
  0
VERTEX
  5
3DB
  8
52176797
  6
CONTINUOUS
 62
     7
 10
720.9650003583
 20
1314.8819945685
 30
0.0
  0
VERTEX
  5
3DC
  8
52176797
  6
CONTINUOUS
 62
     7
 10
721.0325888959
 20
1314.9034231217
 30
0.0
  0
VERTEX
  5
3DD
  8
52176797
  6
CONTINUOUS
 62
     7
 10
721.0999776714
 20
1314.9253402121
 30
0.0
  0
VERTEX
  5
3DE
  8
52176797
  6
CONTINUOUS
 62
     7
 10
721.1671703493
 20
1314.9477368775
 30
0.0
  0
VERTEX
  5
3DF
  8
52176797
  6
CONTINUOUS
 62
     7
 10
721.2341728443
 20
1314.970598653
 30
0.0
  0
VERTEX
  5
3E0
  8
52176797
  6
CONTINUOUS
 62
     7
 10
721.300990306
 20
1314.9939129447
 30
0.0
  0
VERTEX
  5
3E1
  8
52176797
  6
CONTINUOUS
 62
     7
 10
721.3676252515
 20
1315.0176735971
 30
0.0
  0
VERTEX
  5
3E2
  8
52176797
  6
CONTINUOUS
 62
     7
 10
721.4340801978
 20
1315.0418744545
 30
0.0
  0
VERTEX
  5
3E3
  8
52176797
  6
CONTINUOUS
 62
     7
 10
721.5003576619
 20
1315.0665093613
 30
0.0
  0
VERTEX
  5
3E4
  8
52176797
  6
CONTINUOUS
 62
     7
 10
721.5664601607
 20
1315.091572162
 30
0.0
  0
VERTEX
  5
3E5
  8
52176797
  6
CONTINUOUS
 62
     7
 10
721.6323902114
 20
1315.1170567009
 30
0.0
  0
VERTEX
  5
3E6
  8
52176797
  6
CONTINUOUS
 62
     7
 10
721.698150331
 20
1315.1429568224
 30
0.0
  0
VERTEX
  5
3E7
  8
52176797
  6
CONTINUOUS
 62
     7
 10
721.7637430364
 20
1315.1692663709
 30
0.0
  0
VERTEX
  5
3E8
  8
52176797
  6
CONTINUOUS
 62
     7
 10
721.8291708447
 20
1315.1959791907
 30
0.0
  0
VERTEX
  5
3E9
  8
52176797
  6
CONTINUOUS
 62
     7
 10
721.8944362729
 20
1315.2230891264
 30
0.0
  0
VERTEX
  5
3EA
  8
52176797
  6
CONTINUOUS
 62
     7
 10
721.9595418381
 20
1315.2505900223
 30
0.0
  0
VERTEX
  5
3EB
  8
52176797
  6
CONTINUOUS
 62
     7
 10
722.0244900572
 20
1315.2784757227
 30
0.0
  0
VERTEX
  5
3EC
  8
52176797
  6
CONTINUOUS
 62
     7
 10
722.0892834473
 20
1315.3067400721
 30
0.0
  0
VERTEX
  5
3ED
  8
52176797
  6
CONTINUOUS
 62
     7
 10
722.1539245253
 20
1315.3353769148
 30
0.0
  0
VERTEX
  5
3EE
  8
52176797
  6
CONTINUOUS
 62
     7
 10
722.2184158083
 20
1315.3643800953
 30
0.0
  0
VERTEX
  5
3EF
  8
52176797
  6
CONTINUOUS
 62
     7
 10
722.2827598134
 20
1315.393743458
 30
0.0
  0
VERTEX
  5
3F0
  8
52176797
  6
CONTINUOUS
 62
     7
 10
722.3469590575
 20
1315.4234608471
 30
0.0
  0
VERTEX
  5
3F1
  8
52176797
  6
CONTINUOUS
 62
     7
 10
722.4110160577
 20
1315.4535261072
 30
0.0
  0
VERTEX
  5
3F2
  8
52176797
  6
CONTINUOUS
 62
     7
 10
722.474933331
 20
1315.4839330826
 30
0.0
  0
VERTEX
  5
3F3
  8
52176797
  6
CONTINUOUS
 62
     7
 10
722.5387133943
 20
1315.5146756178
 30
0.0
  0
VERTEX
  5
3F4
  8
52176797
  6
CONTINUOUS
 62
     7
 10
722.6023587648
 20
1315.545747557
 30
0.0
  0
VERTEX
  5
3F5
  8
52176797
  6
CONTINUOUS
 62
     7
 10
722.6658719594
 20
1315.5771427447
 30
0.0
  0
VERTEX
  5
3F6
  8
52176797
  6
CONTINUOUS
 62
     7
 10
722.7292554952
 20
1315.6088550253
 30
0.0
  0
VERTEX
  5
3F7
  8
52176797
  6
CONTINUOUS
 62
     7
 10
722.7925118892
 20
1315.6408782432
 30
0.0
  0
VERTEX
  5
3F8
  8
52176797
  6
CONTINUOUS
 62
     7
 10
722.8556436583
 20
1315.6732062428
 30
0.0
  0
VERTEX
  5
3F9
  8
52176797
  6
CONTINUOUS
 62
     7
 10
722.9186533197
 20
1315.7058328685
 30
0.0
  0
VERTEX
  5
3FA
  8
52176797
  6
CONTINUOUS
 62
     7
 10
722.9815433903
 20
1315.7387519646
 30
0.0
  0
VERTEX
  5
3FB
  8
52176797
  6
CONTINUOUS
 62
     7
 10
723.0443163872
 20
1315.7719573755
 30
0.0
  0
VERTEX
  5
3FC
  8
52176797
  6
CONTINUOUS
 62
     7
 10
723.1069748273
 20
1315.8054429457
 30
0.0
  0
VERTEX
  5
3FD
  8
52176797
  6
CONTINUOUS
 62
     7
 10
723.1695212277
 20
1315.8392025195
 30
0.0
  0
VERTEX
  5
3FE
  8
52176797
  6
CONTINUOUS
 62
     7
 10
723.2319581055
 20
1315.8732299414
 30
0.0
  0
VERTEX
  5
3FF
  8
52176797
  6
CONTINUOUS
 62
     7
 10
723.2942879776
 20
1315.9075190557
 30
0.0
  0
VERTEX
  5
400
  8
52176797
  6
CONTINUOUS
 62
     7
 10
723.356513361
 20
1315.9420637068
 30
0.0
  0
VERTEX
  5
401
  8
52176797
  6
CONTINUOUS
 62
     7
 10
723.4186367728
 20
1315.9768577391
 30
0.0
  0
VERTEX
  5
402
  8
52176797
  6
CONTINUOUS
 62
     7
 10
723.4806607295
 20
1316.0118949968
 30
0.0
  0
SEQEND
  5
403
  8
52176797
  6
CONTINUOUS
 62
     7
  0
POLYLINE
  5
121
  8
52176797
  6
CONTINUOUS
 62
     7
 66
     1
 10
0.0
 20
0.0
 30
0.0
  0
VERTEX
  5
404
  8
52176797
  6
CONTINUOUS
 62
     7
 10
713.837009969
 20
1316.011894997
 30
0.0
  0
VERTEX
  5
405
  8
52176797
  6
CONTINUOUS
 62
     7
 10
713.8990339262
 20
1315.9768577391
 30
0.0
  0
VERTEX
  5
406
  8
52176797
  6
CONTINUOUS
 62
     7
 10
713.961157338
 20
1315.9420637068
 30
0.0
  0
VERTEX
  5
407
  8
52176797
  6
CONTINUOUS
 62
     7
 10
714.0233827214
 20
1315.9075190557
 30
0.0
  0
VERTEX
  5
408
  8
52176797
  6
CONTINUOUS
 62
     7
 10
714.0857125935
 20
1315.8732299414
 30
0.0
  0
VERTEX
  5
409
  8
52176797
  6
CONTINUOUS
 62
     7
 10
714.1481494712
 20
1315.8392025195
 30
0.0
  0
VERTEX
  5
40A
  8
52176797
  6
CONTINUOUS
 62
     7
 10
714.2106958717
 20
1315.8054429457
 30
0.0
  0
VERTEX
  5
40B
  8
52176797
  6
CONTINUOUS
 62
     7
 10
714.2733543118
 20
1315.7719573755
 30
0.0
  0
VERTEX
  5
40C
  8
52176797
  6
CONTINUOUS
 62
     7
 10
714.3361273087
 20
1315.7387519646
 30
0.0
  0
VERTEX
  5
40D
  8
52176797
  6
CONTINUOUS
 62
     7
 10
714.3990173793
 20
1315.7058328685
 30
0.0
  0
VERTEX
  5
40E
  8
52176797
  6
CONTINUOUS
 62
     7
 10
714.4620270406
 20
1315.6732062428
 30
0.0
  0
VERTEX
  5
40F
  8
52176797
  6
CONTINUOUS
 62
     7
 10
714.5251588098
 20
1315.6408782432
 30
0.0
  0
VERTEX
  5
410
  8
52176797
  6
CONTINUOUS
 62
     7
 10
714.5884152038
 20
1315.6088550253
 30
0.0
  0
VERTEX
  5
411
  8
52176797
  6
CONTINUOUS
 62
     7
 10
714.6517987395
 20
1315.5771427447
 30
0.0
  0
VERTEX
  5
412
  8
52176797
  6
CONTINUOUS
 62
     7
 10
714.7153119342
 20
1315.545747557
 30
0.0
  0
VERTEX
  5
413
  8
52176797
  6
CONTINUOUS
 62
     7
 10
714.7789573046
 20
1315.5146756178
 30
0.0
  0
VERTEX
  5
414
  8
52176797
  6
CONTINUOUS
 62
     7
 10
714.842737368
 20
1315.4839330826
 30
0.0
  0
VERTEX
  5
415
  8
52176797
  6
CONTINUOUS
 62
     7
 10
714.9066546413
 20
1315.4535261072
 30
0.0
  0
VERTEX
  5
416
  8
52176797
  6
CONTINUOUS
 62
     7
 10
714.9707116414
 20
1315.4234608471
 30
0.0
  0
VERTEX
  5
417
  8
52176797
  6
CONTINUOUS
 62
     7
 10
715.0349108856
 20
1315.393743458
 30
0.0
  0
VERTEX
  5
418
  8
52176797
  6
CONTINUOUS
 62
     7
 10
715.0992548906
 20
1315.3643800953
 30
0.0
  0
VERTEX
  5
419
  8
52176797
  6
CONTINUOUS
 62
     7
 10
715.1637461737
 20
1315.3353769148
 30
0.0
  0
VERTEX
  5
41A
  8
52176797
  6
CONTINUOUS
 62
     7
 10
715.2283872517
 20
1315.3067400721
 30
0.0
  0
VERTEX
  5
41B
  8
52176797
  6
CONTINUOUS
 62
     7
 10
715.2931806418
 20
1315.2784757227
 30
0.0
  0
VERTEX
  5
41C
  8
52176797
  6
CONTINUOUS
 62
     7
 10
715.3581288609
 20
1315.2505900223
 30
0.0
  0
VERTEX
  5
41D
  8
52176797
  6
CONTINUOUS
 62
     7
 10
715.423234426
 20
1315.2230891264
 30
0.0
  0
VERTEX
  5
41E
  8
52176797
  6
CONTINUOUS
 62
     7
 10
715.4884998542
 20
1315.1959791907
 30
0.0
  0
VERTEX
  5
41F
  8
52176797
  6
CONTINUOUS
 62
     7
 10
715.5539276626
 20
1315.1692663709
 30
0.0
  0
VERTEX
  5
420
  8
52176797
  6
CONTINUOUS
 62
     7
 10
715.619520368
 20
1315.1429568224
 30
0.0
  0
VERTEX
  5
421
  8
52176797
  6
CONTINUOUS
 62
     7
 10
715.6852804875
 20
1315.1170567009
 30
0.0
  0
VERTEX
  5
422
  8
52176797
  6
CONTINUOUS
 62
     7
 10
715.7512105382
 20
1315.091572162
 30
0.0
  0
VERTEX
  5
423
  8
52176797
  6
CONTINUOUS
 62
     7
 10
715.8173130371
 20
1315.0665093613
 30
0.0
  0
VERTEX
  5
424
  8
52176797
  6
CONTINUOUS
 62
     7
 10
715.8835905012
 20
1315.0418744545
 30
0.0
  0
VERTEX
  5
425
  8
52176797
  6
CONTINUOUS
 62
     7
 10
715.9500454475
 20
1315.0176735971
 30
0.0
  0
VERTEX
  5
426
  8
52176797
  6
CONTINUOUS
 62
     7
 10
716.016680393
 20
1314.9939129447
 30
0.0
  0
VERTEX
  5
427
  8
52176797
  6
CONTINUOUS
 62
     7
 10
716.0834978547
 20
1314.970598653
 30
0.0
  0
VERTEX
  5
428
  8
52176797
  6
CONTINUOUS
 62
     7
 10
716.1505003497
 20
1314.9477368775
 30
0.0
  0
VERTEX
  5
429
  8
52176797
  6
CONTINUOUS
 62
     7
 10
716.2176930276
 20
1314.9253402121
 30
0.0
  0
VERTEX
  5
42A
  8
52176797
  6
CONTINUOUS
 62
     7
 10
716.285081803
 20
1314.9034231217
 30
0.0
  0
VERTEX
  5
42B
  8
52176797
  6
CONTINUOUS
 62
     7
 10
716.3526703406
 20
1314.8819945685
 30
0.0
  0
VERTEX
  5
42C
  8
52176797
  6
CONTINUOUS
 62
     7
 10
716.420462305
 20
1314.8610635145
 30
0.0
  0
VERTEX
  5
42D
  8
52176797
  6
CONTINUOUS
 62
     7
 10
716.4884613607
 20
1314.840638922
 30
0.0
  0
VERTEX
  5
42E
  8
52176797
  6
CONTINUOUS
 62
     7
 10
716.5566711724
 20
1314.820729753
 30
0.0
  0
VERTEX
  5
42F
  8
52176797
  6
CONTINUOUS
 62
     7
 10
716.6250954047
 20
1314.8013449698
 30
0.0
  0
VERTEX
  5
430
  8
52176797
  6
CONTINUOUS
 62
     7
 10
716.6937377222
 20
1314.7824935343
 30
0.0
  0
VERTEX
  5
431
  8
52176797
  6
CONTINUOUS
 62
     7
 10
716.7626017895
 20
1314.7641844089
 30
0.0
  0
VERTEX
  5
432
  8
52176797
  6
CONTINUOUS
 62
     7
 10
716.8317130612
 20
1314.7464251019
 30
0.0
  0
VERTEX
  5
433
  8
52176797
  6
CONTINUOUS
 62
     7
 10
716.901072292
 20
1314.7292272267
 30
0.0
  0
VERTEX
  5
434
  8
52176797
  6
CONTINUOUS
 62
     7
 10
716.970646097
 20
1314.7126059025
 30
0.0
  0
VERTEX
  5
435
  8
52176797
  6
CONTINUOUS
 62
     7
 10
717.0404010909
 20
1314.6965762489
 30
0.0
  0
VERTEX
  5
436
  8
52176797
  6
CONTINUOUS
 62
     7
 10
717.1103038887
 20
1314.6811533853
 30
0.0
  0
VERTEX
  5
437
  8
52176797
  6
CONTINUOUS
 62
     7
 10
717.1803211052
 20
1314.6663524311
 30
0.0
  0
VERTEX
  5
438
  8
52176797
  6
CONTINUOUS
 62
     7
 10
717.2504193554
 20
1314.6521885058
 30
0.0
  0
VERTEX
  5
439
  8
52176797
  6
CONTINUOUS
 62
     7
 10
717.3205652542
 20
1314.6386767287
 30
0.0
  0
VERTEX
  5
43A
  8
52176797
  6
CONTINUOUS
 62
     7
 10
717.3907254164
 20
1314.6258322193
 30
0.0
  0
VERTEX
  5
43B
  8
52176797
  6
CONTINUOUS
 62
     7
 10
717.460897552
 20
1314.6136614214
 30
0.0
  0
VERTEX
  5
43C
  8
52176797
  6
CONTINUOUS
 62
     7
 10
717.5311017182
 20
1314.6021625988
 30
0.0
  0
VERTEX
  5
43D
  8
52176797
  6
CONTINUOUS
 62
     7
 10
717.6013380506
 20
1314.5913386006
 30
0.0
  0
VERTEX
  5
43E
  8
52176797
  6
CONTINUOUS
 62
     7
 10
717.6716066853
 20
1314.5811922759
 30
0.0
  0
VERTEX
  5
43F
  8
52176797
  6
CONTINUOUS
 62
     7
 10
717.7419077579
 20
1314.571726474
 30
0.0
  0
VERTEX
  5
440
  8
52176797
  6
CONTINUOUS
 62
     7
 10
717.8122414042
 20
1314.5629440441
 30
0.0
  0
VERTEX
  5
441
  8
52176797
  6
CONTINUOUS
 62
     7
 10
717.8826077602
 20
1314.5548478353
 30
0.0
  0
VERTEX
  5
442
  8
52176797
  6
CONTINUOUS
 62
     7
 10
717.9530069615
 20
1314.5474406968
 30
0.0
  0
VERTEX
  5
443
  8
52176797
  6
CONTINUOUS
 62
     7
 10
718.023439144
 20
1314.5407254777
 30
0.0
  0
VERTEX
  5
444
  8
52176797
  6
CONTINUOUS
 62
     7
 10
718.0939044436
 20
1314.5347050273
 30
0.0
  0
VERTEX
  5
445
  8
52176797
  6
CONTINUOUS
 62
     7
 10
718.164402996
 20
1314.5293821947
 30
0.0
  0
VERTEX
  5
446
  8
52176797
  6
CONTINUOUS
 62
     7
 10
718.2349349369
 20
1314.5247598292
 30
0.0
  0
VERTEX
  5
447
  8
52176797
  6
CONTINUOUS
 62
     7
 10
718.3055004024
 20
1314.5208407798
 30
0.0
  0
VERTEX
  5
448
  8
52176797
  6
CONTINUOUS
 62
     7
 10
718.3760995281
 20
1314.5176278958
 30
0.0
  0
VERTEX
  5
449
  8
52176797
  6
CONTINUOUS
 62
     7
 10
718.4467324498
 20
1314.5151240264
 30
0.0
  0
VERTEX
  5
44A
  8
52176797
  6
CONTINUOUS
 62
     7
 10
718.5173993034
 20
1314.5133320206
 30
0.0
  0
VERTEX
  5
44B
  8
52176797
  6
CONTINUOUS
 62
     7
 10
718.5881002247
 20
1314.5122547278
 30
0.0
  0
VERTEX
  5
44C
  8
52176797
  6
CONTINUOUS
 62
     7
 10
718.658835349
 20
1314.511894997
 30
0.0
  0
SEQEND
  5
44D
  8
52176797
  6
CONTINUOUS
 62
     7
  0
POLYLINE
  5
122
  8
52176797
  6
CONTINUOUS
 62
     7
 66
     1
 10
0.0
 20
0.0
 30
0.0
  0
VERTEX
  5
44F
  8
52176797
  6
CONTINUOUS
 62
     7
 10
723.48066073
 20
1324.511894997
 30
0.0
  0
VERTEX
  5
450
  8
52176797
  6
CONTINUOUS
 62
     7
 10
722.9670265857
 20
1324.7008681612
 30
0.0
  0
VERTEX
  5
451
  8
52176797
  6
CONTINUOUS
 62
     7
 10
722.4204123194
 20
1324.871221025
 30
0.0
  0
VERTEX
  5
452
  8
52176797
  6
CONTINUOUS
 62
     7
 10
721.8437224391
 20
1325.020406271
 30
0.0
  0
VERTEX
  5
453
  8
52176797
  6
CONTINUOUS
 62
     7
 10
721.2406001201
 20
1325.1460710801
 30
0.0
  0
VERTEX
  5
454
  8
52176797
  6
CONTINUOUS
 62
     7
 10
720.615379114
 20
1325.2461432881
 30
0.0
  0
VERTEX
  5
455
  8
52176797
  6
CONTINUOUS
 62
     7
 10
719.9730001826
 20
1325.3189126579
 30
0.0
  0
VERTEX
  5
456
  8
52176797
  6
CONTINUOUS
 62
     7
 10
719.3188939823
 20
1325.363101647
 30
0.0
  0
VERTEX
  5
457
  8
52176797
  6
CONTINUOUS
 62
     7
 10
718.6588353495
 20
1325.3779204008
 30
0.0
  0
VERTEX
  5
458
  8
52176797
  6
CONTINUOUS
 62
     7
 10
717.9987767166
 20
1325.363101647
 30
0.0
  0
VERTEX
  5
459
  8
52176797
  6
CONTINUOUS
 62
     7
 10
717.3446705163
 20
1325.3189126579
 30
0.0
  0
VERTEX
  5
45A
  8
52176797
  6
CONTINUOUS
 62
     7
 10
716.7022915849
 20
1325.2461432881
 30
0.0
  0
VERTEX
  5
45B
  8
52176797
  6
CONTINUOUS
 62
     7
 10
716.0770705788
 20
1325.1460710801
 30
0.0
  0
VERTEX
  5
45C
  8
52176797
  6
CONTINUOUS
 62
     7
 10
715.4739482599
 20
1325.020406271
 30
0.0
  0
VERTEX
  5
45D
  8
52176797
  6
CONTINUOUS
 62
     7
 10
714.8972583796
 20
1324.871221025
 30
0.0
  0
VERTEX
  5
45E
  8
52176797
  6
CONTINUOUS
 62
     7
 10
714.3506441132
 20
1324.7008681612
 30
0.0
  0
VERTEX
  5
45F
  8
52176797
  6
CONTINUOUS
 62
     7
 10
713.837009969
 20
1324.511894997
 30
0.0
  0
SEQEND
  5
44E
  8
52176797
  6
CONTINUOUS
 62
     7
  0
LINE
  5
123
  8
52176797
  6
CONTINUOUS
 62
     7
 10
723.48066073
 20
1324.511894997
 30
0.0
 11
713.837009969
 21
1324.511894997
 31
0.0
  0
LINE
  5
124
  8
52176797
  6
CONTINUOUS
 62
     7
 10
723.48066073
 20
1316.011894997
 30
0.0
 11
723.48066073
 21
1324.511894997
 31
0.0
  0
LINE
  5
125
  8
52176797
  6
CONTINUOUS
 62
     7
 10
713.837009969
 20
1324.511894997
 30
0.0
 11
713.837009969
 21
1316.011894997
 31
0.0
  0
ARC
  5
126
  8
52176797
  6
CONTINUOUS
 62
     7
 10
718.6588353495
 20
1003.011894997
 30
0.0
 40
273.2
 50
134.46975022
 51
135.0
  0
ARC
  5
127
  8
52176797
  6
CONTINUOUS
 62
     7
 10
718.6588353498
 20
1003.0118949967
 30
0.0
 40
273.200000000473
 50
135.0000000001
 51
135.1705304101
  0
ARC
  5
128
  8
52176797
  6
CONTINUOUS
 62
     7
 10
718.6588353458
 20
1003.0118950007
 30
0.0
 40
273.1999999948036
 50
135.1705304101
 51
135.3010936966
  0
ARC
  5
129
  8
52176797
  6
CONTINUOUS
 62
     7
 10
718.6588353495
 20
1003.011894997
 30
0.0
 40
273.1999999999599
 50
135.3010936966
 51
136.1333889252
  0
LINE
  5
12A
  8
52176797
  6
CONTINUOUS
 62
     7
 10
527.414756401
 20
1197.8315610145
 30
0.0
 11
527.2733289839
 21
1197.9729884316
 31
0.0
  0
LINE
  5
12B
  8
52176797
  6
CONTINUOUS
 62
     7
 10
525.6186840856
 20
1196.0520462609
 30
0.0
 11
525.4772627293
 21
1196.1934676172
 31
0.0
  0
LINE
  5
12C
  8
52176797
  6
CONTINUOUS
 62
     7
 10
525.0445715828
 20
1195.4762212137
 30
0.0
 11
524.9031495997
 21
1195.6176431968
 31
0.0
  0
LINE
  5
12D
  8
52176797
  6
CONTINUOUS
 62
     7
 10
524.6061742246
 20
1195.0341976348
 30
0.0
 11
524.4647509142
 21
1195.1756209453
 31
0.0
  0
LINE
  5
12E
  8
52176797
  6
CONTINUOUS
 62
     7
 10
521.8353601165
 20
1192.193076929
 30
0.0
 11
521.6939110662
 21
1192.3345259793
 31
0.0
  0
ARC
  5
12F
  8
52176797
  6
CONTINUOUS
 62
     7
 10
718.6588353495
 20
1003.011894997
 30
0.0
 40
273.2
 50
132.3018971584
 51
132.8290493572
  0
ARC
  5
130
  8
52176797
  6
CONTINUOUS
 62
     7
 10
718.6588353495
 20
1003.011894997
 30
0.0
 40
273.2000000000804
 50
133.2788333413
 51
133.8052865334
  0
ARC
  5
131
  8
52176797
  6
CONTINUOUS
 62
     7
 10
718.6588353495
 20
1003.011894997
 30
0.0
 40
273.2000000000804
 50
132.8290493572
 51
133.2788333413
  0
LINE
  5
132
  8
52176797
  6
CONTINUOUS
 62
     7
 10
529.6885794416
 20
1200.0378891759
 30
0.0
 11
529.5471273128
 21
1200.1793413047
 31
0.0
  0
LINE
  5
133
  8
52176797
  6
CONTINUOUS
 62
     7
 10
531.5082117794
 20
1201.767131651
 30
0.0
 11
531.3667265429
 21
1201.9086168876
 31
0.0
  0
LINE
  5
134
  8
52176797
  6
CONTINUOUS
 62
     7
 10
533.0753858229
 20
1203.2312328787
 30
0.0
 11
532.9338628142
 21
1203.3727558874
 31
0.0
  0
LINE
  5
135
  8
52176797
  6
CONTINUOUS
 62
     7
 10
534.9267043987
 20
1204.9314434718
 30
0.0
 11
534.7851259784
 21
1205.0730218921
 31
0.0
  0
ARC
  5
136
  8
52176797
  6
CONTINUOUS
 62
     7
 10
718.6588353495
 20
1003.011894997
 30
0.0
 40
273.2000000000402
 50
136.1840254219
 51
136.6842278553
  0
ARC
  5
137
  8
52176797
  6
CONTINUOUS
 62
     7
 10
718.6588353495
 20
1003.011894997
 30
0.0
 40
273.2000000000402
 50
136.6842278553
 51
137.0530184377
  0
LINE
  5
138
  8
52176797
  6
CONTINUOUS
 62
     7
 10
521.6681212479
 20
1192.0189280876
 30
0.0
 11
521.5266696673
 21
1192.1603796682
 31
0.0
  0
LINE
  5
139
  8
52176797
  6
CONTINUOUS
 62
     7
 10
518.8221895648
 20
1189.0073653762
 30
0.0
 11
518.680677306
 21
1189.148877635
 31
0.0
  0
LINE
  5
13A
  8
52176797
  6
CONTINUOUS
 62
     7
 10
520.0243852319
 20
1190.2907118091
 30
0.0
 11
519.8829027088
 21
1190.4321943321
 31
0.0
  0
LINE
  5
13B
  8
52176797
  6
CONTINUOUS
 62
     7
 10
361.6588353495
 20
1009.861894997
 30
0.0
 11
361.6588353495
 21
1009.8605077067
 31
0.0
  0
LINE
  5
13C
  8
52176797
  6
CONTINUOUS
 62
     7
 10
366.6588353495
 20
1009.8605077067
 30
0.0
 11
366.6588353495
 21
1006.5555871328
 31
0.0
  0
LINE
  5
13D
  8
52176797
  6
CONTINUOUS
 62
     7
 10
361.6588353495
 20
1006.5555871328
 30
0.0
 11
361.6588353495
 21
1006.316815571
 31
0.0
  0
LINE
  5
13E
  8
52176797
  6
CONTINUOUS
 62
     7
 10
366.6588353495
 20
1006.316815571
 30
0.0
 11
366.6588353495
 21
999.7069744231
 31
0.0
  0
LINE
  5
13F
  8
52176797
  6
CONTINUOUS
 62
     7
 10
361.6588353495
 20
999.7069744231
 30
0.0
 11
361.6588353495
 21
999.4682028613
 31
0.0
  0
LINE
  5
140
  8
52176797
  6
CONTINUOUS
 62
     7
 10
366.6588353495
 20
999.4682028613
 30
0.0
 11
366.6588353495
 21
996.1632822873
 31
0.0
  0
LINE
  5
141
  8
52176797
  6
CONTINUOUS
 62
     7
 10
361.6588353495
 20
996.161894997
 30
0.0
 11
361.6588353495
 21
996.1632822873
 31
0.0
  0
LINE
  5
142
  8
52176797
  6
CONTINUOUS
 62
     7
 10
358.6588353495
 20
1009.761894997
 30
0.0
 11
358.6588353495
 21
996.261894997
 31
0.0
  0
LINE
  5
143
  8
52176797
  6
CONTINUOUS
 62
     7
 10
357.6588353495
 20
1009.761894997
 30
0.0
 11
357.6588353495
 21
996.261894997
 31
0.0
  0
LINE
  5
144
  8
52176797
  6
CONTINUOUS
 62
     7
 10
356.1588353495
 20
1009.011894997
 30
0.0
 11
356.1588353495
 21
997.011894997
 31
0.0
  0
LINE
  5
145
  8
52176797
  6
CONTINUOUS
 62
     7
 10
355.2588353495
 20
1009.911894997
 30
0.0
 11
355.2588353495
 21
996.111894997
 31
0.0
  0
LINE
  5
146
  8
52176797
  6
CONTINUOUS
 62
     7
 10
349.6588353495
 20
1009.911894997
 30
0.0
 11
349.6588353495
 21
996.111894997
 31
0.0
  0
LINE
  5
147
  8
52176797
  6
CONTINUOUS
 62
     7
 10
366.6588353495
 20
1006.316815571
 30
0.0
 11
361.6588353495
 21
1006.316815571
 31
0.0
  0
LINE
  5
148
  8
52176797
  6
CONTINUOUS
 62
     7
 10
361.6588353495
 20
1006.316815571
 30
0.0
 11
361.6588353495
 21
999.7069744231
 31
0.0
  0
LINE
  5
149
  8
52176797
  6
CONTINUOUS
 62
     7
 10
361.6588353495
 20
999.7069744231
 30
0.0
 11
366.6588353495
 21
999.7069744231
 31
0.0
  0
LINE
  5
14A
  8
52176797
  6
CONTINUOUS
 62
     7
 10
366.6588353495
 20
1009.8605077067
 30
0.0
 11
361.6588353495
 21
1009.8605077067
 31
0.0
  0
LINE
  5
14B
  8
52176797
  6
CONTINUOUS
 62
     7
 10
361.6588353495
 20
1009.8605077067
 30
0.0
 11
361.6588353495
 21
1006.5555871328
 31
0.0
  0
LINE
  5
14C
  8
52176797
  6
CONTINUOUS
 62
     7
 10
361.6588353495
 20
1006.5555871328
 30
0.0
 11
366.6588353495
 21
1006.5555871328
 31
0.0
  0
LINE
  5
14D
  8
52176797
  6
CONTINUOUS
 62
     7
 10
366.6588353495
 20
999.4682028613
 30
0.0
 11
361.6588353495
 21
999.4682028613
 31
0.0
  0
LINE
  5
14E
  8
52176797
  6
CONTINUOUS
 62
     7
 10
361.6588353495
 20
999.4682028613
 30
0.0
 11
361.6588353495
 21
996.1632822873
 31
0.0
  0
LINE
  5
14F
  8
52176797
  6
CONTINUOUS
 62
     7
 10
361.6588353495
 20
996.1632822873
 30
0.0
 11
366.6588353495
 21
996.1632822873
 31
0.0
  0
LINE
  5
150
  8
52176797
  6
CONTINUOUS
 62
     7
 10
725.5088353495
 20
1360.011894997
 30
0.0
 11
725.5074480592
 21
1360.011894997
 31
0.0
  0
LINE
  5
151
  8
52176797
  6
CONTINUOUS
 62
     7
 10
725.5074480592
 20
1355.011894997
 30
0.0
 11
722.2025274852
 21
1355.011894997
 31
0.0
  0
LINE
  5
152
  8
52176797
  6
CONTINUOUS
 62
     7
 10
722.2025274852
 20
1360.011894997
 30
0.0
 11
721.9637559234
 21
1360.011894997
 31
0.0
  0
LINE
  5
153
  8
52176797
  6
CONTINUOUS
 62
     7
 10
721.9637559234
 20
1355.011894997
 30
0.0
 11
715.3539147756
 21
1355.011894997
 31
0.0
  0
LINE
  5
154
  8
52176797
  6
CONTINUOUS
 62
     7
 10
715.3539147756
 20
1360.011894997
 30
0.0
 11
715.1151432137
 21
1360.011894997
 31
0.0
  0
LINE
  5
155
  8
52176797
  6
CONTINUOUS
 62
     7
 10
715.1151432137
 20
1355.011894997
 30
0.0
 11
711.8102226398
 21
1355.011894997
 31
0.0
  0
LINE
  5
156
  8
52176797
  6
CONTINUOUS
 62
     7
 10
711.8088353495
 20
1360.011894997
 30
0.0
 11
711.8102226398
 21
1360.011894997
 31
0.0
  0
LINE
  5
157
  8
52176797
  6
CONTINUOUS
 62
     7
 10
711.9088353495
 20
1363.011894997
 30
0.0
 11
725.4088353495
 21
1363.011894997
 31
0.0
  0
LINE
  5
158
  8
52176797
  6
CONTINUOUS
 62
     7
 10
711.9088353495
 20
1364.011894997
 30
0.0
 11
725.4088353495
 21
1364.011894997
 31
0.0
  0
LINE
  5
159
  8
52176797
  6
CONTINUOUS
 62
     7
 10
712.6588353495
 20
1365.511894997
 30
0.0
 11
724.6588353495
 21
1365.511894997
 31
0.0
  0
LINE
  5
15A
  8
52176797
  6
CONTINUOUS
 62
     7
 10
711.7588353495
 20
1366.411894997
 30
0.0
 11
725.5588353495
 21
1366.411894997
 31
0.0
  0
LINE
  5
15B
  8
52176797
  6
CONTINUOUS
 62
     7
 10
711.7588353495
 20
1372.011894997
 30
0.0
 11
725.5588353495
 21
1372.011894997
 31
0.0
  0
LINE
  5
15C
  8
52176797
  6
CONTINUOUS
 62
     7
 10
721.9637559234
 20
1355.011894997
 30
0.0
 11
721.9637559234
 21
1360.011894997
 31
0.0
  0
LINE
  5
15D
  8
52176797
  6
CONTINUOUS
 62
     7
 10
721.9637559234
 20
1360.011894997
 30
0.0
 11
715.3539147756
 21
1360.011894997
 31
0.0
  0
LINE
  5
15E
  8
52176797
  6
CONTINUOUS
 62
     7
 10
715.3539147756
 20
1360.011894997
 30
0.0
 11
715.3539147756
 21
1355.011894997
 31
0.0
  0
LINE
  5
15F
  8
52176797
  6
CONTINUOUS
 62
     7
 10
725.5074480592
 20
1355.011894997
 30
0.0
 11
725.5074480592
 21
1360.011894997
 31
0.0
  0
LINE
  5
160
  8
52176797
  6
CONTINUOUS
 62
     7
 10
725.5074480592
 20
1360.011894997
 30
0.0
 11
722.2025274852
 21
1360.011894997
 31
0.0
  0
LINE
  5
161
  8
52176797
  6
CONTINUOUS
 62
     7
 10
722.2025274852
 20
1360.011894997
 30
0.0
 11
722.2025274852
 21
1355.011894997
 31
0.0
  0
LINE
  5
162
  8
52176797
  6
CONTINUOUS
 62
     7
 10
715.1151432137
 20
1355.011894997
 30
0.0
 11
715.1151432137
 21
1360.011894997
 31
0.0
  0
LINE
  5
163
  8
52176797
  6
CONTINUOUS
 62
     7
 10
715.1151432137
 20
1360.011894997
 30
0.0
 11
711.8102226398
 21
1360.011894997
 31
0.0
  0
LINE
  5
164
  8
52176797
  6
CONTINUOUS
 62
     7
 10
711.8102226398
 20
1360.011894997
 30
0.0
 11
711.8102226398
 21
1355.011894997
 31
0.0
  0
LINE
  5
165
  8
52176797
  6
CONTINUOUS
 62
     7
 10
445.7482932698
 20
1010.011894997
 30
0.0
 11
407.1588353495
 21
1010.011894997
 31
0.0
  0
LINE
  5
166
  8
52176797
  6
CONTINUOUS
 62
     7
 10
407.1588353495
 20
996.011894997
 30
0.0
 11
445.7485910012
 21
996.011894997
 31
0.0
  0
LINE
  5
167
  8
52176797
  6
CONTINUOUS
 62
     7
 10
405.6588353495
 20
1011.511894997
 30
0.0
 11
382.6588353495
 21
1011.511894997
 31
0.0
  0
LINE
  5
168
  8
52176797
  6
CONTINUOUS
 62
     7
 10
382.6588353495
 20
994.511894997
 30
0.0
 11
405.6588353495
 21
994.511894997
 31
0.0
  0
LINE
  5
169
  8
52176797
  6
CONTINUOUS
 62
     7
 10
407.1588353495
 20
1010.011894997
 30
0.0
 11
405.6588353495
 21
1011.511894997
 31
0.0
  0
LINE
  5
16A
  8
52176797
  6
CONTINUOUS
 62
     7
 10
405.6588353495
 20
994.511894997
 30
0.0
 11
407.1588353495
 21
996.011894997
 31
0.0
  0
LINE
  5
16B
  8
52176797
  6
CONTINUOUS
 62
     7
 10
725.6588353495
 20
1275.9227081141
 30
0.0
 11
725.6588353495
 21
1314.511894997
 31
0.0
  0
LINE
  5
16C
  8
52176797
  6
CONTINUOUS
 62
     7
 10
711.6588353495
 20
1314.511894997
 30
0.0
 11
711.6588353495
 21
1275.9221420231
 31
0.0
  0
LINE
  5
16D
  8
52176797
  6
CONTINUOUS
 62
     7
 10
727.1588353495
 20
1316.011894997
 30
0.0
 11
727.1588353495
 21
1339.011894997
 31
0.0
  0
LINE
  5
16E
  8
52176797
  6
CONTINUOUS
 62
     7
 10
710.1588353495
 20
1339.011894997
 30
0.0
 11
710.1588353495
 21
1316.011894997
 31
0.0
  0
LINE
  5
16F
  8
52176797
  6
CONTINUOUS
 62
     7
 10
725.6588353495
 20
1314.511894997
 30
0.0
 11
727.1588353495
 21
1316.011894997
 31
0.0
  0
LINE
  5
170
  8
52176797
  6
CONTINUOUS
 62
     7
 10
710.1588353495
 20
1316.011894997
 30
0.0
 11
711.6588353495
 21
1314.511894997
 31
0.0
  0
LINE
  5
171
  8
52176797
  6
CONTINUOUS
 62
     7
 10
382.6588353495
 20
1009.861894997
 30
0.0
 11
361.6588353495
 21
1009.861894997
 31
0.0
  0
LINE
  5
172
  8
52176797
  6
CONTINUOUS
 62
     7
 10
361.6588353495
 20
996.161894997
 30
0.0
 11
382.6588353495
 21
996.161894997
 31
0.0
  0
LINE
  5
173
  8
52176797
  6
CONTINUOUS
 62
     7
 10
361.6588353495
 20
1007.011894997
 30
0.0
 11
358.6588353495
 21
1007.011894997
 31
0.0
  0
LINE
  5
174
  8
52176797
  6
CONTINUOUS
 62
     7
 10
358.6588353495
 20
999.011894997
 30
0.0
 11
361.6588353495
 21
999.011894997
 31
0.0
  0
LINE
  5
175
  8
52176797
  6
CONTINUOUS
 62
     7
 10
358.6588353495
 20
1009.761894997
 30
0.0
 11
357.6588353495
 21
1009.761894997
 31
0.0
  0
LINE
  5
176
  8
52176797
  6
CONTINUOUS
 62
     7
 10
357.6588353495
 20
996.261894997
 30
0.0
 11
358.6588353495
 21
996.261894997
 31
0.0
  0
LINE
  5
177
  8
52176797
  6
CONTINUOUS
 62
     7
 10
357.6588353495
 20
1009.011894997
 30
0.0
 11
356.1588353495
 21
1009.011894997
 31
0.0
  0
LINE
  5
178
  8
52176797
  6
CONTINUOUS
 62
     7
 10
356.1588353495
 20
997.011894997
 30
0.0
 11
357.6588353495
 21
997.011894997
 31
0.0
  0
LINE
  5
179
  8
52176797
  6
CONTINUOUS
 62
     7
 10
355.2588353495
 20
996.111894997
 30
0.0
 11
356.1588353495
 21
997.011894997
 31
0.0
  0
LINE
  5
17A
  8
52176797
  6
CONTINUOUS
 62
     7
 10
356.1588353495
 20
1009.011894997
 30
0.0
 11
355.2588353495
 21
1009.911894997
 31
0.0
  0
LINE
  5
17B
  8
52176797
  6
CONTINUOUS
 62
     7
 10
355.2588353495
 20
1009.911894997
 30
0.0
 11
349.6588353495
 21
1009.911894997
 31
0.0
  0
LINE
  5
17C
  8
52176797
  6
CONTINUOUS
 62
     7
 10
349.6588353495
 20
996.111894997
 30
0.0
 11
355.2588353495
 21
996.111894997
 31
0.0
  0
LINE
  5
17D
  8
52176797
  6
CONTINUOUS
 62
     7
 10
725.5088353495
 20
1339.011894997
 30
0.0
 11
725.5088353495
 21
1360.011894997
 31
0.0
  0
LINE
  5
17E
  8
52176797
  6
CONTINUOUS
 62
     7
 10
711.8088353495
 20
1360.011894997
 30
0.0
 11
711.8088353495
 21
1339.011894997
 31
0.0
  0
LINE
  5
17F
  8
52176797
  6
CONTINUOUS
 62
     7
 10
722.6588353495
 20
1360.011894997
 30
0.0
 11
722.6588353495
 21
1363.011894997
 31
0.0
  0
LINE
  5
180
  8
52176797
  6
CONTINUOUS
 62
     7
 10
714.6588353495
 20
1363.011894997
 30
0.0
 11
714.6588353495
 21
1360.011894997
 31
0.0
  0
LINE
  5
181
  8
52176797
  6
CONTINUOUS
 62
     7
 10
725.4088353495
 20
1363.011894997
 30
0.0
 11
725.4088353495
 21
1364.011894997
 31
0.0
  0
LINE
  5
182
  8
52176797
  6
CONTINUOUS
 62
     7
 10
711.9088353495
 20
1364.011894997
 30
0.0
 11
711.9088353495
 21
1363.011894997
 31
0.0
  0
LINE
  5
183
  8
52176797
  6
CONTINUOUS
 62
     7
 10
724.6588353495
 20
1364.011894997
 30
0.0
 11
724.6588353495
 21
1365.511894997
 31
0.0
  0
LINE
  5
184
  8
52176797
  6
CONTINUOUS
 62
     7
 10
712.6588353495
 20
1365.511894997
 30
0.0
 11
712.6588353495
 21
1364.011894997
 31
0.0
  0
LINE
  5
185
  8
52176797
  6
CONTINUOUS
 62
     7
 10
711.7588353495
 20
1366.411894997
 30
0.0
 11
712.6588353495
 21
1365.511894997
 31
0.0
  0
LINE
  5
186
  8
52176797
  6
CONTINUOUS
 62
     7
 10
724.6588353495
 20
1365.511894997
 30
0.0
 11
725.5588353495
 21
1366.411894997
 31
0.0
  0
LINE
  5
187
  8
52176797
  6
CONTINUOUS
 62
     7
 10
725.5588353495
 20
1366.411894997
 30
0.0
 11
725.5588353495
 21
1372.011894997
 31
0.0
  0
LINE
  5
188
  8
52176797
  6
CONTINUOUS
 62
     7
 10
711.7588353495
 20
1372.011894997
 30
0.0
 11
711.7588353495
 21
1366.411894997
 31
0.0
  0
ENDBLK
  5
18D
  8
0
  0
ENDSEC
  0
SECTION
  2
ENTITIES
  0
INSERT
  5
2C
  8
DEFAULT
  2
SE
 10
0.0
 20
0.0
 30
0.0
  0
INSERT
  5
97
  8
DEFAULT
  2
SE1
 10
0.0
 20
0.0
 30
0.0
  0
INSERT
  5
D1
  8
DEFAULT
  2
SE2
 10
0.0
 20
0.0
 30
0.0
  0
INSERT
  5
10C
  8
DEFAULT
  2
SE3
 10
0.0
 20
0.0
 30
0.0
  0
ENDSEC
  0
EOF
