  0
SECTION
  2
HEADER
  9
$ACADVER
  1
AC1009
  9
$DWGCODEPAGE
  3
ansi_1252
  9
$INSBASE
 10
0.0
 20
0.0
 30
0.0
  9
$EXTMIN
 10
0.0
 20
0.0
 30
0.0
  9
$EXTMAX
 10
1100.0
 20
1260.0
 30
0.0
  9
$LIMMIN
 10
0.0
 20
0.0
  9
$LIMMAX
 10
1100.0
 20
1260.0
  9
$ORTHOMODE
 70
     0
  9
$REGENMODE
 70
     1
  9
$FILLMODE
 70
     1
  9
$QTEXTMODE
 70
     0
  9
$MIRRTEXT
 70
     1
  9
$DRAGMODE
 70
     2
  9
$LTSCALE
 40
25.4
  9
$OSMODE
 70
    37
  9
$ATTMODE
 70
     1
  9
$TEXTSIZE
 40
0.2
  9
$TRACEWID
 40
0.05
  9
$TEXTSTYLE
  7
STANDARD
  9
$CLAYER
  8
0
  9
$CELTYPE
  6
BYLAYER
  9
$CECOLOR
 62
   256
  9
$DIMSCALE
 40
1.0
  9
$DIMASZ
 40
0.18
  9
$DIMEXO
 40
0.0625
  9
$DIMDLI
 40
0.38
  9
$DIMRND
 40
0.0
  9
$DIMDLE
 40
0.0
  9
$DIMEXE
 40
0.18
  9
$DIMTP
 40
0.0
  9
$DIMTM
 40
0.0
  9
$DIMTXT
 40
0.18
  9
$DIMCEN
 40
0.09
  9
$DIMTSZ
 40
0.0
  9
$DIMTOL
 70
     0
  9
$DIMLIM
 70
     0
  9
$DIMTIH
 70
     1
  9
$DIMTOH
 70
     1
  9
$DIMSE1
 70
     0
  9
$DIMSE2
 70
     0
  9
$DIMTAD
 70
     0
  9
$DIMZIN
 70
     0
  9
$DIMBLK
  1

  9
$DIMASO
 70
     1
  9
$DIMSHO
 70
     1
  9
$DIMPOST
  1

  9
$DIMAPOST
  1

  9
$DIMALT
 70
     0
  9
$DIMALTD
 70
     2
  9
$DIMALTF
 40
25.4
  9
$DIMLFAC
 40
1.0
  9
$DIMTOFL
 70
     0
  9
$DIMTVP
 40
0.0
  9
$DIMTIX
 70
     0
  9
$DIMSOXD
 70
     0
  9
$DIMSAH
 70
     0
  9
$DIMBLK1
  1

  9
$DIMBLK2
  1

  9
$DIMSTYLE
  2
STANDARD
  9
$DIMCLRD
 70
     0
  9
$DIMCLRE
 70
     0
  9
$DIMCLRT
 70
     0
  9
$DIMTFAC
 40
1.0
  9
$DIMGAP
 40
0.09
  9
$LUNITS
 70
     2
  9
$LUPREC
 70
     4
  9
$SKETCHINC
 40
0.1
  9
$FILLETRAD
 40
0.5
  9
$AUNITS
 70
     0
  9
$AUPREC
 70
     0
  9
$MENU
  1
.
  9
$ELEVATION
 40
0.0
  9
$PELEVATION
 40
0.0
  9
$THICKNESS
 40
0.0
  9
$LIMCHECK
 70
     0
  9
$CHAMFERA
 40
0.5
  9
$CHAMFERB
 40
0.5
  9
$SKPOLY
 70
     0
  9
$TDCREATE
 40
2454483.572869433
  9
$TDUPDATE
 40
2454483.572869444
  9
$TDINDWG
 40
0.0000000116
  9
$TDUSRTIMER
 40
0.0000000116
  9
$USRTIMER
 70
     1
  9
$ANGBASE
 50
0.0
  9
$ANGDIR
 70
     0
  9
$PDMODE
 70
     0
  9
$PDSIZE
 40
0.0
  9
$PLINEWID
 40
0.0
  9
$COORDS
 70
     1
  9
$SPLFRAME
 70
     0
  9
$SPLINETYPE
 70
     6
  9
$SPLINESEGS
 70
     8
  9
$ATTDIA
 70
     0
  9
$ATTREQ
 70
     1
  9
$HANDLING
 70
     1
  9
$HANDSEED
  5
35B
  9
$SURFTAB1
 70
     6
  9
$SURFTAB2
 70
     6
  9
$SURFTYPE
 70
     6
  9
$SURFU
 70
     6
  9
$SURFV
 70
     6
  9
$UCSNAME
  2

  9
$UCSORG
 10
0.0
 20
0.0
 30
0.0
  9
$UCSXDIR
 10
1.0
 20
0.0
 30
0.0
  9
$UCSYDIR
 10
0.0
 20
1.0
 30
0.0
  9
$PUCSNAME
  2

  9
$PUCSORG
 10
0.0
 20
0.0
 30
0.0
  9
$PUCSXDIR
 10
1.0
 20
0.0
 30
0.0
  9
$PUCSYDIR
 10
0.0
 20
1.0
 30
0.0
  9
$USERI1
 70
     0
  9
$USERI2
 70
     0
  9
$USERI3
 70
     0
  9
$USERI4
 70
     0
  9
$USERI5
 70
     0
  9
$USERR1
 40
0.0
  9
$USERR2
 40
0.0
  9
$USERR3
 40
0.0
  9
$USERR4
 40
0.0
  9
$USERR5
 40
0.0
  9
$WORLDVIEW
 70
     1
  9
$SHADEDGE
 70
     3
  9
$SHADEDIF
 70
    70
  9
$TILEMODE
 70
     1
  9
$MAXACTVP
 70
    64
  9
$PLIMCHECK
 70
     0
  9
$PEXTMIN
 10
0.0
 20
0.0
 30
0.0
  9
$PEXTMAX
 10
1100.0
 20
1260.0
 30
0.0
  9
$PLIMMIN
 10
0.0
 20
0.0
  9
$PLIMMAX
 10
1100.0
 20
1260.0
  9
$UNITMODE
 70
     0
  9
$VISRETAIN
 70
     1
  9
$PLINEGEN
 70
     0
  9
$PSLTSCALE
 70
     1
  0
ENDSEC
  0
SECTION
  2
TABLES
  0
TABLE
  2
VPORT
 70
     1
  0
VPORT
  2
*ACTIVE
 70
     0
 10
0.0
 20
0.0
 11
1.0
 21
1.0
 12
10.4299065421
 22
4.5
 13
0.0
 23
0.0
 14
0.5
 24
0.5
 15
0.5
 25
0.5
 16
0.0
 26
0.0
 36
1.0
 17
0.0
 27
0.0
 37
0.0
 40
9.0
 41
1.9729729729
 42
50.0
 43
0.0
 44
0.0
 50
0.0
 51
0.0
 71
     0
 72
   100
 73
     1
 74
     3
 75
     0
 76
     0
 77
     0
 78
     0
  0
ENDTAB
  0
TABLE
  2
LTYPE
 70
     1
  0
LTYPE
  2
CONTINUOUS
 70
     0
  3
Solid line
 72
    65
 73
     0
 40
0.0
  0
ENDTAB
  0
TABLE
  2
LAYER
 70
     3
  0
LAYER
  2
0
 70
     0
 62
     7
  6
CONTINUOUS
  0
LAYER
  2
DEFAULT
 70
     0
 62
     7
  6
CONTINUOUS
  0
LAYER
  2
52176796
 70
     0
 62
     7
  6
CONTINUOUS
  0
ENDTAB
  0
TABLE
  2
STYLE
 70
     1
  0
STYLE
  2
STANDARD
 70
     0
 40
0.0
 41
1.0
 50
0.0
 71
     0
 42
0.2
  3
txt
  4

  0
ENDTAB
  0
TABLE
  2
VIEW
 70
     0
  0
ENDTAB
  0
TABLE
  2
UCS
 70
     0
  0
ENDTAB
  0
TABLE
  2
APPID
 70
     1
  0
APPID
  2
ACAD
 70
     0
  0
ENDTAB
  0
TABLE
  2
DIMSTYLE
 70
     1
  0
DIMSTYLE
  2
STANDARD
 70
     0
  3

  4

  5

  6

  7

 40
1.0
 41
0.18
 42
0.0625
 43
0.38
 44
0.18
 45
0.0
 46
0.0
 47
0.0
 48
0.0
140
0.18
141
0.09
142
0.0
143
25.4
144
1.0
145
0.0
146
1.0
147
0.09
 71
     0
 72
     0
 73
     1
 74
     1
 75
     0
 76
     0
 77
     0
 78
     0
170
     0
171
     2
172
     0
173
     0
174
     0
175
     0
176
     0
177
     0
178
     0
  0
ENDTAB
  0
ENDSEC
  0
SECTION
  2
BLOCKS
  0
BLOCK
  8
0
  2
$MODEL_SPACE
 70
     0
 10
0.0
 20
0.0
 30
0.0
  3
$MODEL_SPACE
  1

  0
ENDBLK
  5
21
  8
0
  0
BLOCK
 67
     1
  8
0
  2
$PAPER_SPACE
 70
     0
 10
0.0
 20
0.0
 30
0.0
  3
$PAPER_SPACE
  1

  0
ENDBLK
  5
1D
 67
     1
  8
0
  0
BLOCK
  8
0
  2
SE
 70
     0
 10
0.0
 20
0.0
 30
0.0
  3
SE
  1

  0
LINE
  5
2E
  8
52176796
  6
CONTINUOUS
 62
     7
 10
145.194897131
 20
18.3802027538
 30
0.0
 11
145.194897131
 21
492.3802027538
 31
0.0
  0
LINE
  5
2F
  8
52176796
  6
CONTINUOUS
 62
     7
 10
165.194897131
 20
18.3802027538
 30
0.0
 11
165.194897131
 21
492.3802027538
 31
0.0
  0
ARC
  5
30
  8
52176796
  6
CONTINUOUS
 62
     7
 10
155.1933687937
 20
729.2781773872
 30
0.0
 40
237.001442472911
 50
268.3083127382
 51
271.6929218842
  0
LINE
  5
31
  8
52176796
  6
CONTINUOUS
 62
     7
 10
163.694897131
 20
555.3802027538
 30
0.0
 11
146.694897131
 21
555.3802027538
 31
0.0
  0
LINE
  5
32
  8
52176796
  6
CONTINUOUS
 62
     7
 10
162.194897131
 20
532.3802027538
 30
0.0
 11
148.194897131
 21
532.3802027538
 31
0.0
  0
LINE
  5
33
  8
52176796
  6
CONTINUOUS
 62
     7
 10
162.194897131
 20
530.8802027538
 30
0.0
 11
148.194897131
 21
530.8802027538
 31
0.0
  0
LINE
  5
34
  8
52176796
  6
CONTINUOUS
 62
     7
 10
162.194897131
 20
532.3802027538
 30
0.0
 11
162.194897131
 21
530.8802027538
 31
0.0
  0
LINE
  5
35
  8
52176796
  6
CONTINUOUS
 62
     7
 10
148.194897131
 20
530.8802027538
 30
0.0
 11
148.194897131
 21
532.3802027538
 31
0.0
  0
LINE
  5
36
  8
52176796
  6
CONTINUOUS
 62
     7
 10
163.694897131
 20
541.7462281576
 30
0.0
 11
162.194897131
 21
540.8802027538
 31
0.0
  0
LINE
  5
37
  8
52176796
  6
CONTINUOUS
 62
     7
 10
148.194897131
 20
540.8802027538
 30
0.0
 11
146.694897131
 21
541.7462281576
 31
0.0
  0
LINE
  5
38
  8
52176796
  6
CONTINUOUS
 62
     7
 10
148.194897131
 20
532.3802027538
 30
0.0
 11
148.194897131
 21
540.8802027538
 31
0.0
  0
LINE
  5
39
  8
52176796
  6
CONTINUOUS
 62
     7
 10
162.194897131
 20
540.8802027538
 30
0.0
 11
162.194897131
 21
532.3802027538
 31
0.0
  0
CIRCLE
  5
3A
  8
52176796
  6
CONTINUOUS
 62
     7
 10
155.194897131
 20
255.3802027538
 30
0.0
 40
8.5
  0
POLYLINE
  5
3B
  8
52176796
  6
CONTINUOUS
 62
     7
 66
     1
 10
0.0
 20
0.0
 30
0.0
  0
VERTEX
  5
191
  8
52176796
  6
CONTINUOUS
 62
     7
 10
153.2573640448
 20
423.4908173474
 30
0.0
  0
VERTEX
  5
192
  8
52176796
  6
CONTINUOUS
 62
     7
 10
153.128459155
 20
423.5182418506
 30
0.0
  0
VERTEX
  5
193
  8
52176796
  6
CONTINUOUS
 62
     7
 10
152.9995543595
 20
423.5456618167
 30
0.0
  0
VERTEX
  5
194
  8
52176796
  6
CONTINUOUS
 62
     7
 10
152.8706496583
 20
423.5730772456
 30
0.0
  0
VERTEX
  5
195
  8
52176796
  6
CONTINUOUS
 62
     7
 10
152.7417450516
 20
423.6004881374
 30
0.0
  0
VERTEX
  5
196
  8
52176796
  6
CONTINUOUS
 62
     7
 10
152.6128405392
 20
423.627894492
 30
0.0
  0
VERTEX
  5
197
  8
52176796
  6
CONTINUOUS
 62
     7
 10
152.4839361212
 20
423.6552963094
 30
0.0
  0
VERTEX
  5
198
  8
52176796
  6
CONTINUOUS
 62
     7
 10
152.3550317975
 20
423.6826935897
 30
0.0
  0
VERTEX
  5
199
  8
52176796
  6
CONTINUOUS
 62
     7
 10
152.2261275682
 20
423.7100863328
 30
0.0
  0
VERTEX
  5
19A
  8
52176796
  6
CONTINUOUS
 62
     7
 10
152.0972234333
 20
423.7374745387
 30
0.0
  0
VERTEX
  5
19B
  8
52176796
  6
CONTINUOUS
 62
     7
 10
151.9683193927
 20
423.7648582075
 30
0.0
  0
VERTEX
  5
19C
  8
52176796
  6
CONTINUOUS
 62
     7
 10
151.8394154465
 20
423.7922373392
 30
0.0
  0
VERTEX
  5
19D
  8
52176796
  6
CONTINUOUS
 62
     7
 10
151.7105115947
 20
423.8196119336
 30
0.0
  0
VERTEX
  5
19E
  8
52176796
  6
CONTINUOUS
 62
     7
 10
151.5816078372
 20
423.8469819909
 30
0.0
  0
VERTEX
  5
19F
  8
52176796
  6
CONTINUOUS
 62
     7
 10
151.4527041741
 20
423.8743475111
 30
0.0
  0
VERTEX
  5
1A0
  8
52176796
  6
CONTINUOUS
 62
     7
 10
151.3238006054
 20
423.901708494
 30
0.0
  0
VERTEX
  5
1A1
  8
52176796
  6
CONTINUOUS
 62
     7
 10
151.1948971312
 20
423.9290649398
 30
0.0
  0
SEQEND
  5
1A2
  8
52176796
  6
CONTINUOUS
 62
     7
  0
POLYLINE
  5
3C
  8
52176796
  6
CONTINUOUS
 62
     7
 66
     1
 10
0.0
 20
0.0
 30
0.0
  0
VERTEX
  5
1A4
  8
52176796
  6
CONTINUOUS
 62
     7
 10
156.7895549322
 20
423.999471661
 30
0.0
  0
VERTEX
  5
1A5
  8
52176796
  6
CONTINUOUS
 62
     7
 10
155.0234470977
 20
424.2928738106
 30
0.0
  0
VERTEX
  5
1A6
  8
52176796
  6
CONTINUOUS
 62
     7
 10
153.257364047
 20
424.585750775
 30
0.0
  0
SEQEND
  5
1A3
  8
52176796
  6
CONTINUOUS
 62
     7
  0
POLYLINE
  5
3D
  8
52176796
  6
CONTINUOUS
 62
     7
 66
     1
 10
0.0
 20
0.0
 30
0.0
  0
VERTEX
  5
1A8
  8
52176796
  6
CONTINUOUS
 62
     7
 10
159.194897131
 20
422.8087987144
 30
0.0
  0
VERTEX
  5
1A9
  8
52176796
  6
CONTINUOUS
 62
     7
 10
155.1948375699
 20
421.9659073668
 30
0.0
  0
VERTEX
  5
1AA
  8
52176796
  6
CONTINUOUS
 62
     7
 10
151.1948971308
 20
421.1188305814
 30
0.0
  0
SEQEND
  5
1A7
  8
52176796
  6
CONTINUOUS
 62
     7
  0
LINE
  5
3E
  8
52176796
  6
CONTINUOUS
 62
     7
 10
159.194897131
 20
425.1861951843
 30
0.0
 11
159.194897131
 21
422.9502201277
 31
0.0
  0
POLYLINE
  5
3F
  8
52176796
  6
CONTINUOUS
 62
     7
 66
     1
 10
0.0
 20
0.0
 30
0.0
  0
VERTEX
  5
1AC
  8
52176796
  6
CONTINUOUS
 62
     7
 10
159.194897131
 20
422.9502201276
 30
0.0
  0
VERTEX
  5
1AD
  8
52176796
  6
CONTINUOUS
 62
     7
 10
155.1948376704
 20
422.107331234
 30
0.0
  0
VERTEX
  5
1AE
  8
52176796
  6
CONTINUOUS
 62
     7
 10
151.194897131
 20
421.2602604108
 30
0.0
  0
SEQEND
  5
1AB
  8
52176796
  6
CONTINUOUS
 62
     7
  0
LINE
  5
40
  8
52176796
  6
CONTINUOUS
 62
     7
 10
151.194897131
 20
421.260260411
 30
0.0
 11
151.194897131
 21
423.0580921644
 31
0.0
  0
POLYLINE
  5
41
  8
52176796
  6
CONTINUOUS
 62
     7
 66
     1
 10
0.0
 20
0.0
 30
0.0
  0
VERTEX
  5
1B0
  8
52176796
  6
CONTINUOUS
 62
     7
 10
157.2128960722
 20
424.0704886497
 30
0.0
  0
VERTEX
  5
1B1
  8
52176796
  6
CONTINUOUS
 62
     7
 10
154.2039090823
 20
423.5650605778
 30
0.0
  0
VERTEX
  5
1B2
  8
52176796
  6
CONTINUOUS
 62
     7
 10
151.194897131
 20
423.0580921637
 30
0.0
  0
SEQEND
  5
1AF
  8
52176796
  6
CONTINUOUS
 62
     7
  0
POLYLINE
  5
42
  8
52176796
  6
CONTINUOUS
 62
     7
 66
     1
 10
0.0
 20
0.0
 30
0.0
  0
VERTEX
  5
1B4
  8
52176796
  6
CONTINUOUS
 62
     7
 10
157.212896071
 20
424.0704886861
 30
0.0
  0
VERTEX
  5
1B5
  8
52176796
  6
CONTINUOUS
 62
     7
 10
155.2351149547
 20
424.399162745
 30
0.0
  0
VERTEX
  5
1B6
  8
52176796
  6
CONTINUOUS
 62
     7
 10
153.2573640427
 20
424.7271788839
 30
0.0
  0
SEQEND
  5
1B3
  8
52176796
  6
CONTINUOUS
 62
     7
  0
LINE
  5
43
  8
52176796
  6
CONTINUOUS
 62
     7
 10
153.2573640447
 20
424.7271788487
 30
0.0
 11
153.2573640447
 21
423.6322394025
 31
0.0
  0
POLYLINE
  5
44
  8
52176796
  6
CONTINUOUS
 62
     7
 66
     1
 10
0.0
 20
0.0
 30
0.0
  0
VERTEX
  5
1B7
  8
52176796
  6
CONTINUOUS
 62
     7
 10
153.2573640448
 20
423.6322394026
 30
0.0
  0
VERTEX
  5
1B8
  8
52176796
  6
CONTINUOUS
 62
     7
 10
153.1284591562
 20
423.6596639805
 30
0.0
  0
VERTEX
  5
1B9
  8
52176796
  6
CONTINUOUS
 62
     7
 10
152.9995543617
 20
423.6870840251
 30
0.0
  0
VERTEX
  5
1BA
  8
52176796
  6
CONTINUOUS
 62
     7
 10
152.8706496615
 20
423.7144995363
 30
0.0
  0
VERTEX
  5
1BB
  8
52176796
  6
CONTINUOUS
 62
     7
 10
152.7417450554
 20
423.7419105142
 30
0.0
  0
VERTEX
  5
1BC
  8
52176796
  6
CONTINUOUS
 62
     7
 10
152.6128405436
 20
423.7693169588
 30
0.0
  0
VERTEX
  5
1BD
  8
52176796
  6
CONTINUOUS
 62
     7
 10
152.483936126
 20
423.7967188701
 30
0.0
  0
VERTEX
  5
1BE
  8
52176796
  6
CONTINUOUS
 62
     7
 10
152.3550318025
 20
423.824116248
 30
0.0
  0
VERTEX
  5
1BF
  8
52176796
  6
CONTINUOUS
 62
     7
 10
152.2261275733
 20
423.8515090926
 30
0.0
  0
VERTEX
  5
1C0
  8
52176796
  6
CONTINUOUS
 62
     7
 10
152.0972234383
 20
423.8788974039
 30
0.0
  0
VERTEX
  5
1C1
  8
52176796
  6
CONTINUOUS
 62
     7
 10
151.9683193975
 20
423.9062811819
 30
0.0
  0
VERTEX
  5
1C2
  8
52176796
  6
CONTINUOUS
 62
     7
 10
151.8394154509
 20
423.9336604266
 30
0.0
  0
VERTEX
  5
1C3
  8
52176796
  6
CONTINUOUS
 62
     7
 10
151.7105115985
 20
423.961035138
 30
0.0
  0
VERTEX
  5
1C4
  8
52176796
  6
CONTINUOUS
 62
     7
 10
151.5816078403
 20
423.988405316
 30
0.0
  0
VERTEX
  5
1C5
  8
52176796
  6
CONTINUOUS
 62
     7
 10
151.4527041764
 20
424.0157709607
 30
0.0
  0
VERTEX
  5
1C6
  8
52176796
  6
CONTINUOUS
 62
     7
 10
151.3238006066
 20
424.0431320721
 30
0.0
  0
VERTEX
  5
1C7
  8
52176796
  6
CONTINUOUS
 62
     7
 10
151.1948971312
 20
424.0704886501
 30
0.0
  0
SEQEND
  5
1C8
  8
52176796
  6
CONTINUOUS
 62
     7
  0
LINE
  5
45
  8
52176796
  6
CONTINUOUS
 62
     7
 10
151.194897131
 20
424.0704886502
 30
0.0
 11
151.194897131
 21
426.8367962637
 31
0.0
  0
POLYLINE
  5
46
  8
52176796
  6
CONTINUOUS
 62
     7
 66
     1
 10
0.0
 20
0.0
 30
0.0
  0
VERTEX
  5
1CA
  8
52176796
  6
CONTINUOUS
 62
     7
 10
159.1948971311
 20
425.1861951832
 30
0.0
  0
VERTEX
  5
1CB
  8
52176796
  6
CONTINUOUS
 62
     7
 10
155.1947219017
 20
426.0136362569
 30
0.0
  0
VERTEX
  5
1CC
  8
52176796
  6
CONTINUOUS
 62
     7
 10
151.1948971312
 20
426.8367962625
 30
0.0
  0
SEQEND
  5
1C9
  8
52176796
  6
CONTINUOUS
 62
     7
  0
LINE
  5
47
  8
52176796
  6
CONTINUOUS
 62
     7
 10
159.194897131
 20
422.8087987105
 30
0.0
 11
159.194897131
 21
422.9502201277
 31
0.0
  0
LINE
  5
48
  8
52176796
  6
CONTINUOUS
 62
     7
 10
151.194897131
 20
421.1188305775
 30
0.0
 11
151.194897131
 21
421.260260411
 31
0.0
  0
LINE
  5
49
  8
52176796
  6
CONTINUOUS
 62
     7
 10
153.2573640447
 20
423.4908173472
 30
0.0
 11
153.2573640447
 21
423.6322394025
 31
0.0
  0
LINE
  5
4A
  8
52176796
  6
CONTINUOUS
 62
     7
 10
151.194897131
 20
423.9290649399
 30
0.0
 11
151.194897131
 21
424.0704886502
 31
0.0
  0
LINE
  5
4B
  8
52176796
  6
CONTINUOUS
 62
     7
 10
149.194897131
 20
415.4367824556
 30
0.0
 11
155.7944126989
 21
415.4367824556
 31
0.0
  0
POLYLINE
  5
4C
  8
52176796
  6
CONTINUOUS
 62
     7
 66
     1
 10
0.0
 20
0.0
 30
0.0
  0
VERTEX
  5
1CE
  8
52176796
  6
CONTINUOUS
 62
     7
 10
161.194897131
 20
416.2255337929
 30
0.0
  0
VERTEX
  5
1CF
  8
52176796
  6
CONTINUOUS
 62
     7
 10
159.4047090514
 20
414.9040585755
 30
0.0
  0
VERTEX
  5
1D0
  8
52176796
  6
CONTINUOUS
 62
     7
 10
157.6151580312
 20
413.5734525717
 30
0.0
  0
SEQEND
  5
1CD
  8
52176796
  6
CONTINUOUS
 62
     7
  0
LINE
  5
4D
  8
52176796
  6
CONTINUOUS
 62
     7
 10
155.7944126989
 20
413.5734525716
 30
0.0
 11
157.6151580312
 21
413.5734525716
 31
0.0
  0
LINE
  5
4E
  8
52176796
  6
CONTINUOUS
 62
     7
 10
155.7944126989
 20
415.578340496
 30
0.0
 11
155.7944126989
 21
413.7150846258
 31
0.0
  0
LINE
  5
4F
  8
52176796
  6
CONTINUOUS
 62
     7
 10
155.7944126989
 20
413.7150846258
 30
0.0
 11
157.6151580312
 21
413.7150846258
 31
0.0
  0
POLYLINE
  5
50
  8
52176796
  6
CONTINUOUS
 62
     7
 66
     1
 10
0.0
 20
0.0
 30
0.0
  0
VERTEX
  5
1D2
  8
52176796
  6
CONTINUOUS
 62
     7
 10
161.194897131
 20
416.3670651461
 30
0.0
  0
VERTEX
  5
1D3
  8
52176796
  6
CONTINUOUS
 62
     7
 10
159.4047095895
 20
415.0456366116
 30
0.0
  0
VERTEX
  5
1D4
  8
52176796
  6
CONTINUOUS
 62
     7
 10
157.6151580312
 20
413.7150846261
 30
0.0
  0
SEQEND
  5
1D1
  8
52176796
  6
CONTINUOUS
 62
     7
  0
POLYLINE
  5
51
  8
52176796
  6
CONTINUOUS
 62
     7
 66
     1
 10
0.0
 20
0.0
 30
0.0
  0
VERTEX
  5
1D6
  8
52176796
  6
CONTINUOUS
 62
     7
 10
161.1948971309
 20
416.3670651458
 30
0.0
  0
VERTEX
  5
1D7
  8
52176796
  6
CONTINUOUS
 62
     7
 10
159.4052430377
 20
417.6785155846
 30
0.0
  0
VERTEX
  5
1D8
  8
52176796
  6
CONTINUOUS
 62
     7
 10
157.6151580312
 20
418.9807031753
 30
0.0
  0
SEQEND
  5
1D5
  8
52176796
  6
CONTINUOUS
 62
     7
  0
LINE
  5
52
  8
52176796
  6
CONTINUOUS
 62
     7
 10
157.6151580312
 20
418.9807031752
 30
0.0
 11
155.7944126989
 21
418.9807031752
 31
0.0
  0
LINE
  5
53
  8
52176796
  6
CONTINUOUS
 62
     7
 10
155.7944126989
 20
418.9807031752
 30
0.0
 11
155.7944126989
 21
417.1537373204
 31
0.0
  0
LINE
  5
54
  8
52176796
  6
CONTINUOUS
 62
     7
 10
155.7944126989
 20
417.1537373204
 30
0.0
 11
149.194897131
 21
417.1537373204
 31
0.0
  0
LINE
  5
55
  8
52176796
  6
CONTINUOUS
 62
     7
 10
149.194897131
 20
417.1537373204
 30
0.0
 11
149.194897131
 21
415.578340496
 31
0.0
  0
LINE
  5
56
  8
52176796
  6
CONTINUOUS
 62
     7
 10
149.194897131
 20
415.578340496
 30
0.0
 11
155.7944126989
 21
415.578340496
 31
0.0
  0
LINE
  5
57
  8
52176796
  6
CONTINUOUS
 62
     7
 10
157.6151580312
 20
413.5734525716
 30
0.0
 11
157.6151580312
 21
413.7150846258
 31
0.0
  0
LINE
  5
58
  8
52176796
  6
CONTINUOUS
 62
     7
 10
161.194897131
 20
416.2255337927
 30
0.0
 11
161.194897131
 21
416.3670651458
 31
0.0
  0
LINE
  5
59
  8
52176796
  6
CONTINUOUS
 62
     7
 10
149.194897131
 20
415.4367824556
 30
0.0
 11
149.194897131
 21
415.578340496
 31
0.0
  0
LINE
  5
5A
  8
52176796
  6
CONTINUOUS
 62
     7
 10
155.7944126989
 20
413.5734525716
 30
0.0
 11
155.7944126989
 21
413.7150846258
 31
0.0
  0
POLYLINE
  5
5B
  8
52176796
  6
CONTINUOUS
 62
     7
 66
     1
 10
0.0
 20
0.0
 30
0.0
  0
VERTEX
  5
1D9
  8
52176796
  6
CONTINUOUS
 62
     7
 10
156.9884386873
 20
425.9677504641
 30
0.0
  0
VERTEX
  5
1DA
  8
52176796
  6
CONTINUOUS
 62
     7
 10
157.1263393493
 20
425.939262821
 30
0.0
  0
VERTEX
  5
1DB
  8
52176796
  6
CONTINUOUS
 62
     7
 10
157.2642404101
 20
425.9107700714
 30
0.0
  0
VERTEX
  5
1DC
  8
52176796
  6
CONTINUOUS
 62
     7
 10
157.4021418696
 20
425.8822722152
 30
0.0
  0
VERTEX
  5
1DD
  8
52176796
  6
CONTINUOUS
 62
     7
 10
157.5400437278
 20
425.8537692524
 30
0.0
  0
VERTEX
  5
1DE
  8
52176796
  6
CONTINUOUS
 62
     7
 10
157.6779459849
 20
425.8252611831
 30
0.0
  0
VERTEX
  5
1DF
  8
52176796
  6
CONTINUOUS
 62
     7
 10
157.8158486407
 20
425.7967480071
 30
0.0
  0
VERTEX
  5
1E0
  8
52176796
  6
CONTINUOUS
 62
     7
 10
157.9537516953
 20
425.7682297246
 30
0.0
  0
VERTEX
  5
1E1
  8
52176796
  6
CONTINUOUS
 62
     7
 10
158.0916551486
 20
425.7397063354
 30
0.0
  0
VERTEX
  5
1E2
  8
52176796
  6
CONTINUOUS
 62
     7
 10
158.2295590007
 20
425.7111778397
 30
0.0
  0
VERTEX
  5
1E3
  8
52176796
  6
CONTINUOUS
 62
     7
 10
158.3674632516
 20
425.6826442374
 30
0.0
  0
VERTEX
  5
1E4
  8
52176796
  6
CONTINUOUS
 62
     7
 10
158.5053679012
 20
425.6541055285
 30
0.0
  0
VERTEX
  5
1E5
  8
52176796
  6
CONTINUOUS
 62
     7
 10
158.6432729497
 20
425.625561713
 30
0.0
  0
VERTEX
  5
1E6
  8
52176796
  6
CONTINUOUS
 62
     7
 10
158.7811783969
 20
425.597012791
 30
0.0
  0
VERTEX
  5
1E7
  8
52176796
  6
CONTINUOUS
 62
     7
 10
158.9190842428
 20
425.5684587623
 30
0.0
  0
VERTEX
  5
1E8
  8
52176796
  6
CONTINUOUS
 62
     7
 10
159.0569904875
 20
425.5398996271
 30
0.0
  0
VERTEX
  5
1E9
  8
52176796
  6
CONTINUOUS
 62
     7
 10
159.1948971308
 20
425.5113353853
 30
0.0
  0
SEQEND
  5
1EA
  8
52176796
  6
CONTINUOUS
 62
     7
  0
LINE
  5
5C
  8
52176796
  6
CONTINUOUS
 62
     7
 10
151.194897131
 20
426.8621016294
 30
0.0
 11
156.9884386874
 21
426.8621016294
 31
0.0
  0
LINE
  5
5D
  8
52176796
  6
CONTINUOUS
 62
     7
 10
156.9884386874
 20
428.6413992569
 30
0.0
 11
151.194897131
 21
428.6413992569
 31
0.0
  0
LINE
  5
5E
  8
52176796
  6
CONTINUOUS
 62
     7
 10
151.194897131
 20
428.6413992569
 30
0.0
 11
151.194897131
 21
427.0035621334
 31
0.0
  0
LINE
  5
5F
  8
52176796
  6
CONTINUOUS
 62
     7
 10
151.194897131
 20
427.0035621334
 30
0.0
 11
156.9884386874
 21
427.0035621334
 31
0.0
  0
LINE
  5
60
  8
52176796
  6
CONTINUOUS
 62
     7
 10
156.9884386874
 20
427.0035621334
 30
0.0
 11
156.9884386874
 21
426.109194932
 31
0.0
  0
POLYLINE
  5
61
  8
52176796
  6
CONTINUOUS
 62
     7
 66
     1
 10
0.0
 20
0.0
 30
0.0
  0
VERTEX
  5
1EB
  8
52176796
  6
CONTINUOUS
 62
     7
 10
156.9884386873
 20
426.1091949319
 30
0.0
  0
VERTEX
  5
1EC
  8
52176796
  6
CONTINUOUS
 62
     7
 10
157.1263393544
 20
426.0807068473
 30
0.0
  0
VERTEX
  5
1ED
  8
52176796
  6
CONTINUOUS
 62
     7
 10
157.2642404195
 20
426.0522136606
 30
0.0
  0
VERTEX
  5
1EE
  8
52176796
  6
CONTINUOUS
 62
     7
 10
157.4021418827
 20
426.0237153717
 30
0.0
  0
VERTEX
  5
1EF
  8
52176796
  6
CONTINUOUS
 62
     7
 10
157.540043744
 20
425.9952119805
 30
0.0
  0
VERTEX
  5
1F0
  8
52176796
  6
CONTINUOUS
 62
     7
 10
157.6779460034
 20
425.9667034872
 30
0.0
  0
VERTEX
  5
1F1
  8
52176796
  6
CONTINUOUS
 62
     7
 10
157.8158486609
 20
425.9381898916
 30
0.0
  0
VERTEX
  5
1F2
  8
52176796
  6
CONTINUOUS
 62
     7
 10
157.9537517165
 20
425.9096711939
 30
0.0
  0
VERTEX
  5
1F3
  8
52176796
  6
CONTINUOUS
 62
     7
 10
158.0916551701
 20
425.8811473939
 30
0.0
  0
VERTEX
  5
1F4
  8
52176796
  6
CONTINUOUS
 62
     7
 10
158.2295590219
 20
425.8526184917
 30
0.0
  0
VERTEX
  5
1F5
  8
52176796
  6
CONTINUOUS
 62
     7
 10
158.3674632718
 20
425.8240844873
 30
0.0
  0
VERTEX
  5
1F6
  8
52176796
  6
CONTINUOUS
 62
     7
 10
158.5053679198
 20
425.7955453807
 30
0.0
  0
VERTEX
  5
1F7
  8
52176796
  6
CONTINUOUS
 62
     7
 10
158.6432729658
 20
425.7670011719
 30
0.0
  0
VERTEX
  5
1F8
  8
52176796
  6
CONTINUOUS
 62
     7
 10
158.78117841
 20
425.7384518609
 30
0.0
  0
VERTEX
  5
1F9
  8
52176796
  6
CONTINUOUS
 62
     7
 10
158.9190842522
 20
425.7098974477
 30
0.0
  0
VERTEX
  5
1FA
  8
52176796
  6
CONTINUOUS
 62
     7
 10
159.0569904926
 20
425.6813379322
 30
0.0
  0
VERTEX
  5
1FB
  8
52176796
  6
CONTINUOUS
 62
     7
 10
159.1948971308
 20
425.6527733146
 30
0.0
  0
SEQEND
  5
1FC
  8
52176796
  6
CONTINUOUS
 62
     7
  0
LINE
  5
62
  8
52176796
  6
CONTINUOUS
 62
     7
 10
159.194897131
 20
425.6527733145
 30
0.0
 11
159.194897131
 21
429.3978025914
 31
0.0
  0
POLYLINE
  5
63
  8
52176796
  6
CONTINUOUS
 62
     7
 66
     1
 10
0.0
 20
0.0
 30
0.0
  0
VERTEX
  5
1FD
  8
52176796
  6
CONTINUOUS
 62
     7
 10
159.1948971311
 20
429.3978025916
 30
0.0
  0
VERTEX
  5
1FE
  8
52176796
  6
CONTINUOUS
 62
     7
 10
159.0569864728
 20
429.4253417056
 30
0.0
  0
VERTEX
  5
1FF
  8
52176796
  6
CONTINUOUS
 62
     7
 10
158.9190767486
 20
429.4528757326
 30
0.0
  0
VERTEX
  5
200
  8
52176796
  6
CONTINUOUS
 62
     7
 10
158.7811679585
 20
429.4804046728
 30
0.0
  0
VERTEX
  5
201
  8
52176796
  6
CONTINUOUS
 62
     7
 10
158.6432601024
 20
429.507928526
 30
0.0
  0
VERTEX
  5
202
  8
52176796
  6
CONTINUOUS
 62
     7
 10
158.5053531804
 20
429.5354472923
 30
0.0
  0
VERTEX
  5
203
  8
52176796
  6
CONTINUOUS
 62
     7
 10
158.3674471925
 20
429.5629609718
 30
0.0
  0
VERTEX
  5
204
  8
52176796
  6
CONTINUOUS
 62
     7
 10
158.2295421387
 20
429.5904695643
 30
0.0
  0
VERTEX
  5
205
  8
52176796
  6
CONTINUOUS
 62
     7
 10
158.0916380189
 20
429.6179730698
 30
0.0
  0
VERTEX
  5
206
  8
52176796
  6
CONTINUOUS
 62
     7
 10
157.9537348332
 20
429.6454714885
 30
0.0
  0
VERTEX
  5
207
  8
52176796
  6
CONTINUOUS
 62
     7
 10
157.8158325816
 20
429.6729648203
 30
0.0
  0
VERTEX
  5
208
  8
52176796
  6
CONTINUOUS
 62
     7
 10
157.677931264
 20
429.7004530651
 30
0.0
  0
VERTEX
  5
209
  8
52176796
  6
CONTINUOUS
 62
     7
 10
157.5400308806
 20
429.7279362231
 30
0.0
  0
VERTEX
  5
20A
  8
52176796
  6
CONTINUOUS
 62
     7
 10
157.4021314312
 20
429.7554142941
 30
0.0
  0
VERTEX
  5
20B
  8
52176796
  6
CONTINUOUS
 62
     7
 10
157.2642329158
 20
429.7828872782
 30
0.0
  0
VERTEX
  5
20C
  8
52176796
  6
CONTINUOUS
 62
     7
 10
157.1263353346
 20
429.8103551754
 30
0.0
  0
VERTEX
  5
20D
  8
52176796
  6
CONTINUOUS
 62
     7
 10
156.9884386876
 20
429.8378179857
 30
0.0
  0
SEQEND
  5
20E
  8
52176796
  6
CONTINUOUS
 62
     7
  0
LINE
  5
64
  8
52176796
  6
CONTINUOUS
 62
     7
 10
156.9884386874
 20
429.8378179857
 30
0.0
 11
156.9884386874
 21
428.6413992569
 31
0.0
  0
LINE
  5
65
  8
52176796
  6
CONTINUOUS
 62
     7
 10
151.194897131
 20
426.8621016294
 30
0.0
 11
151.194897131
 21
427.0035621334
 31
0.0
  0
LINE
  5
66
  8
52176796
  6
CONTINUOUS
 62
     7
 10
156.9884386874
 20
425.9677504642
 30
0.0
 11
156.9884386874
 21
426.109194932
 31
0.0
  0
LINE
  5
67
  8
52176796
  6
CONTINUOUS
 62
     7
 10
159.194897131
 20
425.5113353852
 30
0.0
 11
159.194897131
 21
425.6527733145
 31
0.0
  0
LINE
  5
68
  8
52176796
  6
CONTINUOUS
 62
     7
 10
162.044897131
 20
571.3802027538
 30
0.0
 11
161.194897131
 21
571.3802027538
 31
0.0
  0
LINE
  5
69
  8
52176796
  6
CONTINUOUS
 62
     7
 10
161.194897131
 20
576.3802027538
 30
0.0
 11
161.0570423055
 21
576.3802027538
 31
0.0
  0
LINE
  5
6A
  8
52176796
  6
CONTINUOUS
 62
     7
 10
161.0570423055
 20
571.3802027538
 30
0.0
 11
155.3327519565
 21
571.3802027538
 31
0.0
  0
LINE
  5
6B
  8
52176796
  6
CONTINUOUS
 62
     7
 10
155.3327519565
 20
576.3802027538
 30
0.0
 11
155.0570423055
 21
576.3802027538
 31
0.0
  0
LINE
  5
6C
  8
52176796
  6
CONTINUOUS
 62
     7
 10
155.0570423055
 20
571.3802027538
 30
0.0
 11
149.3327519565
 21
571.3802027538
 31
0.0
  0
LINE
  5
6D
  8
52176796
  6
CONTINUOUS
 62
     7
 10
149.3327519565
 20
576.3802027538
 30
0.0
 11
149.194897131
 21
576.3802027538
 31
0.0
  0
LINE
  5
6E
  8
52176796
  6
CONTINUOUS
 62
     7
 10
149.194897131
 20
571.3802027538
 30
0.0
 11
148.344897131
 21
571.3802027538
 31
0.0
  0
LINE
  5
6F
  8
52176796
  6
CONTINUOUS
 62
     7
 10
161.944897131
 20
579.3802027538
 30
0.0
 11
148.444897131
 21
579.3802027538
 31
0.0
  0
LINE
  5
70
  8
52176796
  6
CONTINUOUS
 62
     7
 10
161.944897131
 20
580.3802027538
 30
0.0
 11
148.444897131
 21
580.3802027538
 31
0.0
  0
LINE
  5
71
  8
52176796
  6
CONTINUOUS
 62
     7
 10
161.194897131
 20
581.8802027538
 30
0.0
 11
149.194897131
 21
581.8802027538
 31
0.0
  0
LINE
  5
72
  8
52176796
  6
CONTINUOUS
 62
     7
 10
162.094897131
 20
582.7802027538
 30
0.0
 11
148.294897131
 21
582.7802027538
 31
0.0
  0
LINE
  5
73
  8
52176796
  6
CONTINUOUS
 62
     7
 10
162.094897131
 20
588.3802027538
 30
0.0
 11
148.294897131
 21
588.3802027538
 31
0.0
  0
LINE
  5
74
  8
52176796
  6
CONTINUOUS
 62
     7
 10
149.194897131
 20
571.3802027538
 30
0.0
 11
149.194897131
 21
576.3802027538
 31
0.0
  0
LINE
  5
75
  8
52176796
  6
CONTINUOUS
 62
     7
 10
155.0570423055
 20
571.3802027538
 30
0.0
 11
155.0570423055
 21
576.3802027538
 31
0.0
  0
LINE
  5
76
  8
52176796
  6
CONTINUOUS
 62
     7
 10
155.0570423055
 20
576.3802027538
 30
0.0
 11
149.3327519565
 21
576.3802027538
 31
0.0
  0
LINE
  5
77
  8
52176796
  6
CONTINUOUS
 62
     7
 10
149.3327519565
 20
576.3802027538
 30
0.0
 11
149.3327519565
 21
571.3802027538
 31
0.0
  0
LINE
  5
78
  8
52176796
  6
CONTINUOUS
 62
     7
 10
161.0570423055
 20
571.3802027538
 30
0.0
 11
161.0570423055
 21
576.3802027538
 31
0.0
  0
LINE
  5
79
  8
52176796
  6
CONTINUOUS
 62
     7
 10
161.0570423055
 20
576.3802027538
 30
0.0
 11
155.3327519565
 21
576.3802027538
 31
0.0
  0
LINE
  5
7A
  8
52176796
  6
CONTINUOUS
 62
     7
 10
155.3327519565
 20
576.3802027538
 30
0.0
 11
155.3327519565
 21
571.3802027538
 31
0.0
  0
LINE
  5
7B
  8
52176796
  6
CONTINUOUS
 62
     7
 10
161.194897131
 20
576.3802027538
 30
0.0
 11
161.194897131
 21
571.3802027538
 31
0.0
  0
CIRCLE
  5
7C
  8
52176796
  6
CONTINUOUS
 62
     7
 10
155.194897131
 20
255.3802027538
 30
0.0
 40
6.9
  0
LINE
  5
7D
  8
52176796
  6
CONTINUOUS
 62
     7
 10
145.194897131
 20
18.3802027538
 30
0.0
 11
165.194897131
 21
18.3802027538
 31
0.0
  0
LINE
  5
7E
  8
52176796
  6
CONTINUOUS
 62
     7
 10
148.2010049034
 20
492.3802027538
 30
0.0
 11
145.194897131
 21
492.3802027538
 31
0.0
  0
LINE
  5
7F
  8
52176796
  6
CONTINUOUS
 62
     7
 10
165.194897131
 20
492.3802027538
 30
0.0
 11
162.1893166527
 21
492.3802027538
 31
0.0
  0
LINE
  5
80
  8
52176796
  6
CONTINUOUS
 62
     7
 10
162.194897131
 20
492.3800372552
 30
0.0
 11
162.194897131
 21
530.8802027538
 31
0.0
  0
LINE
  5
81
  8
52176796
  6
CONTINUOUS
 62
     7
 10
148.194897131
 20
530.8802027538
 30
0.0
 11
148.194897131
 21
492.380021627
 31
0.0
  0
LINE
  5
82
  8
52176796
  6
CONTINUOUS
 62
     7
 10
163.694897131
 20
541.7462281576
 30
0.0
 11
163.694897131
 21
555.3802027538
 31
0.0
  0
LINE
  5
83
  8
52176796
  6
CONTINUOUS
 62
     7
 10
146.694897131
 20
555.3802027538
 30
0.0
 11
146.694897131
 21
541.7462281576
 31
0.0
  0
LINE
  5
84
  8
52176796
  6
CONTINUOUS
 62
     7
 10
162.044897131
 20
555.3802027538
 30
0.0
 11
162.044897131
 21
571.3802027538
 31
0.0
  0
LINE
  5
85
  8
52176796
  6
CONTINUOUS
 62
     7
 10
148.344897131
 20
571.3802027538
 30
0.0
 11
148.344897131
 21
555.3802027538
 31
0.0
  0
LINE
  5
86
  8
52176796
  6
CONTINUOUS
 62
     7
 10
159.194897131
 20
576.3802027538
 30
0.0
 11
159.194897131
 21
579.3802027538
 31
0.0
  0
LINE
  5
87
  8
52176796
  6
CONTINUOUS
 62
     7
 10
151.194897131
 20
579.3802027538
 30
0.0
 11
151.194897131
 21
576.3802027538
 31
0.0
  0
LINE
  5
88
  8
52176796
  6
CONTINUOUS
 62
     7
 10
161.944897131
 20
579.3802027538
 30
0.0
 11
161.944897131
 21
580.3802027538
 31
0.0
  0
LINE
  5
89
  8
52176796
  6
CONTINUOUS
 62
     7
 10
148.444897131
 20
580.3802027538
 30
0.0
 11
148.444897131
 21
579.3802027538
 31
0.0
  0
LINE
  5
8A
  8
52176796
  6
CONTINUOUS
 62
     7
 10
161.194897131
 20
580.3802027538
 30
0.0
 11
161.194897131
 21
581.8802027538
 31
0.0
  0
LINE
  5
8B
  8
52176796
  6
CONTINUOUS
 62
     7
 10
149.194897131
 20
581.8802027538
 30
0.0
 11
149.194897131
 21
580.3802027538
 31
0.0
  0
LINE
  5
8C
  8
52176796
  6
CONTINUOUS
 62
     7
 10
148.294897131
 20
582.7802027538
 30
0.0
 11
149.194897131
 21
581.8802027538
 31
0.0
  0
LINE
  5
8D
  8
52176796
  6
CONTINUOUS
 62
     7
 10
161.194897131
 20
581.8802027538
 30
0.0
 11
162.094897131
 21
582.7802027538
 31
0.0
  0
LINE
  5
8E
  8
52176796
  6
CONTINUOUS
 62
     7
 10
162.094897131
 20
582.7802027538
 30
0.0
 11
162.094897131
 21
588.3802027538
 31
0.0
  0
LINE
  5
8F
  8
52176796
  6
CONTINUOUS
 62
     7
 10
148.294897131
 20
588.3802027538
 30
0.0
 11
148.294897131
 21
582.7802027538
 31
0.0
  0
ENDBLK
  5
94
  8
0
  0
BLOCK
  8
0
  2
SE1
 70
     0
 10
0.0
 20
0.0
 30
0.0
  3
SE1
  1

  0
LINE
  5
97
  8
52176796
  6
CONTINUOUS
 62
     7
 10
737.8597588781
 20
18.3802027538
 30
0.0
 11
737.8597588781
 21
492.3802027538
 31
0.0
  0
LINE
  5
98
  8
52176796
  6
CONTINUOUS
 62
     7
 10
717.8597588781
 20
18.3802027538
 30
0.0
 11
717.8597588781
 21
492.3802027538
 31
0.0
  0
ARC
  5
99
  8
52176796
  6
CONTINUOUS
 62
     7
 10
727.8612872154
 20
729.2781773872
 30
0.0
 40
237.0014424729108
 50
268.3070781158
 51
271.6916872618
  0
LINE
  5
9A
  8
52176796
  6
CONTINUOUS
 62
     7
 10
719.3597588781
 20
555.3802027538
 30
0.0
 11
736.3597588781
 21
555.3802027538
 31
0.0
  0
LINE
  5
9B
  8
52176796
  6
CONTINUOUS
 62
     7
 10
734.8597588781
 20
532.3802027538
 30
0.0
 11
720.8597588781
 21
532.3802027538
 31
0.0
  0
LINE
  5
9C
  8
52176796
  6
CONTINUOUS
 62
     7
 10
734.8597588781
 20
530.8802027538
 30
0.0
 11
720.8597588781
 21
530.8802027538
 31
0.0
  0
LINE
  5
9D
  8
52176796
  6
CONTINUOUS
 62
     7
 10
720.8597588781
 20
530.8802027538
 30
0.0
 11
720.8597588781
 21
532.3802027538
 31
0.0
  0
LINE
  5
9E
  8
52176796
  6
CONTINUOUS
 62
     7
 10
734.8597588781
 20
532.3802027538
 30
0.0
 11
734.8597588781
 21
530.8802027538
 31
0.0
  0
LINE
  5
9F
  8
52176796
  6
CONTINUOUS
 62
     7
 10
719.3597588781
 20
541.7462281576
 30
0.0
 11
720.8597588781
 21
540.8802027538
 31
0.0
  0
LINE
  5
A0
  8
52176796
  6
CONTINUOUS
 62
     7
 10
734.8597588781
 20
540.8802027538
 30
0.0
 11
736.3597588781
 21
541.7462281576
 31
0.0
  0
LINE
  5
A1
  8
52176796
  6
CONTINUOUS
 62
     7
 10
720.8597588781
 20
532.3802027538
 30
0.0
 11
720.8597588781
 21
540.8802027538
 31
0.0
  0
LINE
  5
A2
  8
52176796
  6
CONTINUOUS
 62
     7
 10
734.8597588781
 20
540.8802027538
 30
0.0
 11
734.8597588781
 21
532.3802027538
 31
0.0
  0
LINE
  5
A3
  8
52176796
  6
CONTINUOUS
 62
     7
 10
727.7219040526
 20
571.3802027538
 30
0.0
 11
721.9976137036
 21
571.3802027538
 31
0.0
  0
LINE
  5
A4
  8
52176796
  6
CONTINUOUS
 62
     7
 10
721.9976137036
 20
576.3802027538
 30
0.0
 11
721.8597588781
 21
576.3802027538
 31
0.0
  0
LINE
  5
A5
  8
52176796
  6
CONTINUOUS
 62
     7
 10
721.0097588781
 20
571.3802027538
 30
0.0
 11
721.8597588781
 21
571.3802027538
 31
0.0
  0
LINE
  5
A6
  8
52176796
  6
CONTINUOUS
 62
     7
 10
733.8597588781
 20
571.3802027538
 30
0.0
 11
734.7097588781
 21
571.3802027538
 31
0.0
  0
LINE
  5
A7
  8
52176796
  6
CONTINUOUS
 62
     7
 10
733.8597588781
 20
576.3802027538
 30
0.0
 11
733.7219040526
 21
576.3802027538
 31
0.0
  0
LINE
  5
A8
  8
52176796
  6
CONTINUOUS
 62
     7
 10
733.7219040526
 20
571.3802027538
 30
0.0
 11
727.9976137036
 21
571.3802027538
 31
0.0
  0
LINE
  5
A9
  8
52176796
  6
CONTINUOUS
 62
     7
 10
727.9976137036
 20
576.3802027538
 30
0.0
 11
727.7219040526
 21
576.3802027538
 31
0.0
  0
LINE
  5
AA
  8
52176796
  6
CONTINUOUS
 62
     7
 10
721.1097588781
 20
579.3802027538
 30
0.0
 11
734.6097588781
 21
579.3802027538
 31
0.0
  0
LINE
  5
AB
  8
52176796
  6
CONTINUOUS
 62
     7
 10
721.1097588781
 20
580.3802027538
 30
0.0
 11
734.6097588781
 21
580.3802027538
 31
0.0
  0
LINE
  5
AC
  8
52176796
  6
CONTINUOUS
 62
     7
 10
721.8597588781
 20
581.8802027538
 30
0.0
 11
733.8597588781
 21
581.8802027538
 31
0.0
  0
LINE
  5
AD
  8
52176796
  6
CONTINUOUS
 62
     7
 10
720.9597588781
 20
582.7802027538
 30
0.0
 11
734.7597588781
 21
582.7802027538
 31
0.0
  0
LINE
  5
AE
  8
52176796
  6
CONTINUOUS
 62
     7
 10
720.9597588781
 20
588.3802027538
 30
0.0
 11
734.7597588781
 21
588.3802027538
 31
0.0
  0
LINE
  5
AF
  8
52176796
  6
CONTINUOUS
 62
     7
 10
733.8597588781
 20
576.3802027538
 30
0.0
 11
733.8597588781
 21
571.3802027538
 31
0.0
  0
LINE
  5
B0
  8
52176796
  6
CONTINUOUS
 62
     7
 10
721.8597588781
 20
571.3802027538
 30
0.0
 11
721.8597588781
 21
576.3802027538
 31
0.0
  0
LINE
  5
B1
  8
52176796
  6
CONTINUOUS
 62
     7
 10
727.7219040526
 20
571.3802027538
 30
0.0
 11
727.7219040526
 21
576.3802027538
 31
0.0
  0
LINE
  5
B2
  8
52176796
  6
CONTINUOUS
 62
     7
 10
727.7219040526
 20
576.3802027538
 30
0.0
 11
721.9976137036
 21
576.3802027538
 31
0.0
  0
LINE
  5
B3
  8
52176796
  6
CONTINUOUS
 62
     7
 10
721.9976137036
 20
576.3802027538
 30
0.0
 11
721.9976137036
 21
571.3802027538
 31
0.0
  0
LINE
  5
B4
  8
52176796
  6
CONTINUOUS
 62
     7
 10
733.7219040526
 20
571.3802027538
 30
0.0
 11
733.7219040526
 21
576.3802027538
 31
0.0
  0
LINE
  5
B5
  8
52176796
  6
CONTINUOUS
 62
     7
 10
733.7219040526
 20
576.3802027538
 30
0.0
 11
727.9976137036
 21
576.3802027538
 31
0.0
  0
LINE
  5
B6
  8
52176796
  6
CONTINUOUS
 62
     7
 10
727.9976137036
 20
576.3802027538
 30
0.0
 11
727.9976137036
 21
571.3802027538
 31
0.0
  0
LINE
  5
B7
  8
52176796
  6
CONTINUOUS
 62
     7
 10
720.8653662928
 20
492.3802027538
 30
0.0
 11
717.8597588781
 21
492.3802027538
 31
0.0
  0
LINE
  5
B8
  8
52176796
  6
CONTINUOUS
 62
     7
 10
737.8597588781
 20
492.3802027538
 30
0.0
 11
734.8537372925
 21
492.3802027538
 31
0.0
  0
LINE
  5
B9
  8
52176796
  6
CONTINUOUS
 62
     7
 10
717.8597588781
 20
18.3802027538
 30
0.0
 11
737.8597588781
 21
18.3802027538
 31
0.0
  0
LINE
  5
BA
  8
52176796
  6
CONTINUOUS
 62
     7
 10
734.8597588781
 20
492.3802027538
 30
0.0
 11
734.8597588781
 21
530.8802027538
 31
0.0
  0
LINE
  5
BB
  8
52176796
  6
CONTINUOUS
 62
     7
 10
720.8597588781
 20
530.8802027538
 30
0.0
 11
720.8597588781
 21
492.3800372454
 31
0.0
  0
LINE
  5
BC
  8
52176796
  6
CONTINUOUS
 62
     7
 10
736.3597588781
 20
541.7462281576
 30
0.0
 11
736.3597588781
 21
555.3802027538
 31
0.0
  0
LINE
  5
BD
  8
52176796
  6
CONTINUOUS
 62
     7
 10
719.3597588781
 20
555.3802027538
 30
0.0
 11
719.3597588781
 21
541.7462281576
 31
0.0
  0
LINE
  5
BE
  8
52176796
  6
CONTINUOUS
 62
     7
 10
734.7097588781
 20
555.3802027538
 30
0.0
 11
734.7097588781
 21
571.3802027538
 31
0.0
  0
LINE
  5
BF
  8
52176796
  6
CONTINUOUS
 62
     7
 10
721.0097588781
 20
571.3802027538
 30
0.0
 11
721.0097588781
 21
555.3802027538
 31
0.0
  0
LINE
  5
C0
  8
52176796
  6
CONTINUOUS
 62
     7
 10
731.8597588781
 20
576.3802027538
 30
0.0
 11
731.8597588781
 21
579.3802027538
 31
0.0
  0
LINE
  5
C1
  8
52176796
  6
CONTINUOUS
 62
     7
 10
723.8597588781
 20
579.3802027538
 30
0.0
 11
723.8597588781
 21
576.3802027538
 31
0.0
  0
LINE
  5
C2
  8
52176796
  6
CONTINUOUS
 62
     7
 10
734.6097588781
 20
579.3802027538
 30
0.0
 11
734.6097588781
 21
580.3802027538
 31
0.0
  0
LINE
  5
C3
  8
52176796
  6
CONTINUOUS
 62
     7
 10
721.1097588781
 20
580.3802027538
 30
0.0
 11
721.1097588781
 21
579.3802027538
 31
0.0
  0
LINE
  5
C4
  8
52176796
  6
CONTINUOUS
 62
     7
 10
733.8597588781
 20
580.3802027538
 30
0.0
 11
733.8597588781
 21
581.8802027538
 31
0.0
  0
LINE
  5
C5
  8
52176796
  6
CONTINUOUS
 62
     7
 10
721.8597588781
 20
581.8802027538
 30
0.0
 11
721.8597588781
 21
580.3802027538
 31
0.0
  0
LINE
  5
C6
  8
52176796
  6
CONTINUOUS
 62
     7
 10
720.9597588781
 20
582.7802027538
 30
0.0
 11
721.8597588781
 21
581.8802027538
 31
0.0
  0
LINE
  5
C7
  8
52176796
  6
CONTINUOUS
 62
     7
 10
733.8597588781
 20
581.8802027538
 30
0.0
 11
734.7597588781
 21
582.7802027538
 31
0.0
  0
LINE
  5
C8
  8
52176796
  6
CONTINUOUS
 62
     7
 10
734.7597588781
 20
582.7802027538
 30
0.0
 11
734.7597588781
 21
588.3802027538
 31
0.0
  0
LINE
  5
C9
  8
52176796
  6
CONTINUOUS
 62
     7
 10
720.9597588781
 20
588.3802027538
 30
0.0
 11
720.9597588781
 21
582.7802027538
 31
0.0
  0
ENDBLK
  5
CE
  8
0
  0
BLOCK
  8
0
  2
SE2
 70
     0
 10
0.0
 20
0.0
 30
0.0
  3
SE2
  1

  0
LINE
  5
D1
  8
52176796
  6
CONTINUOUS
 62
     7
 10
145.194897131
 20
1127.8670367172
 30
0.0
 11
145.194897131
 21
653.8670367172
 31
0.0
  0
LINE
  5
D2
  8
52176796
  6
CONTINUOUS
 62
     7
 10
165.194897131
 20
1127.8670367172
 30
0.0
 11
165.194897131
 21
653.8670367172
 31
0.0
  0
ARC
  5
D3
  8
52176796
  6
CONTINUOUS
 62
     7
 10
155.1933687937
 20
1364.7650113506
 30
0.0
 40
237.0014424728919
 50
268.3083127382
 51
271.6929218842
  0
LINE
  5
D4
  8
52176796
  6
CONTINUOUS
 62
     7
 10
146.694897131
 20
1190.8670367172
 30
0.0
 11
163.694897131
 21
1190.8670367172
 31
0.0
  0
LINE
  5
D5
  8
52176796
  6
CONTINUOUS
 62
     7
 10
162.194897131
 20
1166.3670367172
 30
0.0
 11
148.194897131
 21
1166.3670367172
 31
0.0
  0
LINE
  5
D6
  8
52176796
  6
CONTINUOUS
 62
     7
 10
162.194897131
 20
1167.8670367172
 30
0.0
 11
148.194897131
 21
1167.8670367172
 31
0.0
  0
LINE
  5
D7
  8
52176796
  6
CONTINUOUS
 62
     7
 10
162.194897131
 20
1167.8670367172
 30
0.0
 11
162.194897131
 21
1166.3670367172
 31
0.0
  0
LINE
  5
D8
  8
52176796
  6
CONTINUOUS
 62
     7
 10
148.194897131
 20
1166.3670367172
 30
0.0
 11
148.194897131
 21
1167.8670367172
 31
0.0
  0
LINE
  5
D9
  8
52176796
  6
CONTINUOUS
 62
     7
 10
163.694897131
 20
1177.233062121
 30
0.0
 11
162.194897131
 21
1176.3670367172
 31
0.0
  0
LINE
  5
DA
  8
52176796
  6
CONTINUOUS
 62
     7
 10
148.194897131
 20
1176.3670367172
 30
0.0
 11
146.694897131
 21
1177.233062121
 31
0.0
  0
LINE
  5
DB
  8
52176796
  6
CONTINUOUS
 62
     7
 10
148.194897131
 20
1167.8670367172
 30
0.0
 11
148.194897131
 21
1176.3670367172
 31
0.0
  0
LINE
  5
DC
  8
52176796
  6
CONTINUOUS
 62
     7
 10
162.194897131
 20
1176.3670367172
 30
0.0
 11
162.194897131
 21
1167.8670367172
 31
0.0
  0
LINE
  5
DD
  8
52176796
  6
CONTINUOUS
 62
     7
 10
161.194897131
 20
1206.8670367172
 30
0.0
 11
162.044897131
 21
1206.8670367172
 31
0.0
  0
LINE
  5
DE
  8
52176796
  6
CONTINUOUS
 62
     7
 10
161.194897131
 20
1211.8670367172
 30
0.0
 11
161.0570423055
 21
1211.8670367172
 31
0.0
  0
LINE
  5
DF
  8
52176796
  6
CONTINUOUS
 62
     7
 10
161.0570423055
 20
1206.8670367172
 30
0.0
 11
155.3327519565
 21
1206.8670367172
 31
0.0
  0
LINE
  5
E0
  8
52176796
  6
CONTINUOUS
 62
     7
 10
155.3327519565
 20
1211.8670367172
 30
0.0
 11
155.0570423055
 21
1211.8670367172
 31
0.0
  0
LINE
  5
E1
  8
52176796
  6
CONTINUOUS
 62
     7
 10
155.0570423055
 20
1206.8670367172
 30
0.0
 11
149.3327519565
 21
1206.8670367172
 31
0.0
  0
LINE
  5
E2
  8
52176796
  6
CONTINUOUS
 62
     7
 10
149.3327519565
 20
1211.8670367172
 30
0.0
 11
149.194897131
 21
1211.8670367172
 31
0.0
  0
LINE
  5
E3
  8
52176796
  6
CONTINUOUS
 62
     7
 10
149.194897131
 20
1206.8670367172
 30
0.0
 11
148.344897131
 21
1206.8670367172
 31
0.0
  0
LINE
  5
E4
  8
52176796
  6
CONTINUOUS
 62
     7
 10
148.444897131
 20
1214.8670367172
 30
0.0
 11
161.944897131
 21
1214.8670367172
 31
0.0
  0
LINE
  5
E5
  8
52176796
  6
CONTINUOUS
 62
     7
 10
148.444897131
 20
1215.8670367172
 30
0.0
 11
161.944897131
 21
1215.8670367172
 31
0.0
  0
LINE
  5
E6
  8
52176796
  6
CONTINUOUS
 62
     7
 10
149.194897131
 20
1217.3670367172
 30
0.0
 11
161.194897131
 21
1217.3670367172
 31
0.0
  0
LINE
  5
E7
  8
52176796
  6
CONTINUOUS
 62
     7
 10
148.294897131
 20
1218.2670367172
 30
0.0
 11
162.094897131
 21
1218.2670367172
 31
0.0
  0
LINE
  5
E8
  8
52176796
  6
CONTINUOUS
 62
     7
 10
148.294897131
 20
1223.8670367172
 30
0.0
 11
162.094897131
 21
1223.8670367172
 31
0.0
  0
LINE
  5
E9
  8
52176796
  6
CONTINUOUS
 62
     7
 10
149.194897131
 20
1206.8670367172
 30
0.0
 11
149.194897131
 21
1211.8670367172
 31
0.0
  0
LINE
  5
EA
  8
52176796
  6
CONTINUOUS
 62
     7
 10
155.0570423055
 20
1206.8670367172
 30
0.0
 11
155.0570423055
 21
1211.8670367172
 31
0.0
  0
LINE
  5
EB
  8
52176796
  6
CONTINUOUS
 62
     7
 10
155.0570423055
 20
1211.8670367172
 30
0.0
 11
149.3327519565
 21
1211.8670367172
 31
0.0
  0
LINE
  5
EC
  8
52176796
  6
CONTINUOUS
 62
     7
 10
149.3327519565
 20
1211.8670367172
 30
0.0
 11
149.3327519565
 21
1206.8670367172
 31
0.0
  0
LINE
  5
ED
  8
52176796
  6
CONTINUOUS
 62
     7
 10
161.0570423055
 20
1206.8670367172
 30
0.0
 11
161.0570423055
 21
1211.8670367172
 31
0.0
  0
LINE
  5
EE
  8
52176796
  6
CONTINUOUS
 62
     7
 10
161.0570423055
 20
1211.8670367172
 30
0.0
 11
155.3327519565
 21
1211.8670367172
 31
0.0
  0
LINE
  5
EF
  8
52176796
  6
CONTINUOUS
 62
     7
 10
155.3327519565
 20
1211.8670367172
 30
0.0
 11
155.3327519565
 21
1206.8670367172
 31
0.0
  0
LINE
  5
F0
  8
52176796
  6
CONTINUOUS
 62
     7
 10
161.194897131
 20
1211.8670367172
 30
0.0
 11
161.194897131
 21
1206.8670367172
 31
0.0
  0
LINE
  5
F1
  8
52176796
  6
CONTINUOUS
 62
     7
 10
145.194897131
 20
653.8670367172
 30
0.0
 11
165.194897131
 21
653.8670367172
 31
0.0
  0
LINE
  5
F2
  8
52176796
  6
CONTINUOUS
 62
     7
 10
148.2010049034
 20
1127.8670367172
 30
0.0
 11
145.194897131
 21
1127.8670367172
 31
0.0
  0
LINE
  5
F3
  8
52176796
  6
CONTINUOUS
 62
     7
 10
165.194897131
 20
1127.8670367172
 30
0.0
 11
162.1893166527
 21
1127.8670367172
 31
0.0
  0
LINE
  5
F4
  8
52176796
  6
CONTINUOUS
 62
     7
 10
162.194897131
 20
1127.8668712186
 30
0.0
 11
162.194897131
 21
1166.3670367172
 31
0.0
  0
LINE
  5
F5
  8
52176796
  6
CONTINUOUS
 62
     7
 10
148.194897131
 20
1166.3670367172
 30
0.0
 11
148.194897131
 21
1127.8668555904
 31
0.0
  0
LINE
  5
F6
  8
52176796
  6
CONTINUOUS
 62
     7
 10
163.694897131
 20
1177.233062121
 30
0.0
 11
163.694897131
 21
1190.8670367172
 31
0.0
  0
LINE
  5
F7
  8
52176796
  6
CONTINUOUS
 62
     7
 10
146.694897131
 20
1190.8670367172
 30
0.0
 11
146.694897131
 21
1177.233062121
 31
0.0
  0
LINE
  5
F8
  8
52176796
  6
CONTINUOUS
 62
     7
 10
162.044897131
 20
1190.8670367172
 30
0.0
 11
162.044897131
 21
1206.8670367172
 31
0.0
  0
LINE
  5
F9
  8
52176796
  6
CONTINUOUS
 62
     7
 10
148.344897131
 20
1206.8670367172
 30
0.0
 11
148.344897131
 21
1190.8670367172
 31
0.0
  0
LINE
  5
FA
  8
52176796
  6
CONTINUOUS
 62
     7
 10
159.194897131
 20
1211.8670367172
 30
0.0
 11
159.194897131
 21
1214.8670367172
 31
0.0
  0
LINE
  5
FB
  8
52176796
  6
CONTINUOUS
 62
     7
 10
151.194897131
 20
1214.8670367172
 30
0.0
 11
151.194897131
 21
1211.8670367172
 31
0.0
  0
LINE
  5
FC
  8
52176796
  6
CONTINUOUS
 62
     7
 10
161.944897131
 20
1214.8670367172
 30
0.0
 11
161.944897131
 21
1215.8670367172
 31
0.0
  0
LINE
  5
FD
  8
52176796
  6
CONTINUOUS
 62
     7
 10
148.444897131
 20
1215.8670367172
 30
0.0
 11
148.444897131
 21
1214.8670367172
 31
0.0
  0
LINE
  5
FE
  8
52176796
  6
CONTINUOUS
 62
     7
 10
161.194897131
 20
1215.8670367172
 30
0.0
 11
161.194897131
 21
1217.3670367172
 31
0.0
  0
LINE
  5
FF
  8
52176796
  6
CONTINUOUS
 62
     7
 10
149.194897131
 20
1217.3670367172
 30
0.0
 11
149.194897131
 21
1215.8670367172
 31
0.0
  0
LINE
  5
100
  8
52176796
  6
CONTINUOUS
 62
     7
 10
148.294897131
 20
1218.2670367172
 30
0.0
 11
149.194897131
 21
1217.3670367172
 31
0.0
  0
LINE
  5
101
  8
52176796
  6
CONTINUOUS
 62
     7
 10
161.194897131
 20
1217.3670367172
 30
0.0
 11
162.094897131
 21
1218.2670367172
 31
0.0
  0
LINE
  5
102
  8
52176796
  6
CONTINUOUS
 62
     7
 10
162.094897131
 20
1218.2670367172
 30
0.0
 11
162.094897131
 21
1223.8670367172
 31
0.0
  0
LINE
  5
103
  8
52176796
  6
CONTINUOUS
 62
     7
 10
148.294897131
 20
1223.8670367172
 30
0.0
 11
148.294897131
 21
1218.2670367172
 31
0.0
  0
ENDBLK
  5
108
  8
0
  0
BLOCK
  8
0
  2
SE3
 70
     0
 10
0.0
 20
0.0
 30
0.0
  3
SE3
  1

  0
CIRCLE
  5
10B
  8
52176796
  6
CONTINUOUS
 62
     7
 10
718.6588353495
 20
890.8670367172
 30
0.0
 40
135.5
  0
CIRCLE
  5
10C
  8
52176796
  6
CONTINUOUS
 62
     7
 10
718.6588353495
 20
890.8670367172
 30
0.0
 40
169.0
  0
CIRCLE
  5
10D
  8
52176796
  6
CONTINUOUS
 62
     7
 10
718.6588353495
 20
890.8670367172
 30
0.0
 40
237.0
  0
LINE
  5
10E
  8
52176796
  6
CONTINUOUS
 62
     7
 10
418.6588353495
 20
899.3670367172
 30
0.0
 11
418.6588353495
 21
882.3670367172
 31
0.0
  0
LINE
  5
10F
  8
52176796
  6
CONTINUOUS
 62
     7
 10
441.6588353495
 20
886.0452113367
 30
0.0
 11
441.6588353495
 21
882.3670367172
 31
0.0
  0
LINE
  5
110
  8
52176796
  6
CONTINUOUS
 62
     7
 10
443.1588353495
 20
890.8670367172
 30
0.0
 11
443.1588353495
 21
883.8670367172
 31
0.0
  0
LINE
  5
111
  8
52176796
  6
CONTINUOUS
 62
     7
 10
441.6588353495
 20
899.3670367172
 30
0.0
 11
441.6588353495
 21
895.6888620977
 31
0.0
  0
LINE
  5
112
  8
52176796
  6
CONTINUOUS
 62
     7
 10
443.1588353495
 20
890.8670367172
 30
0.0
 11
443.1588353495
 21
897.8670367172
 31
0.0
  0
POLYLINE
  5
113
  8
52176796
  6
CONTINUOUS
 62
     7
 66
     1
 10
0.0
 20
0.0
 30
0.0
  0
VERTEX
  5
20F
  8
52176796
  6
CONTINUOUS
 62
     7
 10
443.1588353495
 20
890.8670367172
 30
0.0
  0
VERTEX
  5
210
  8
52176796
  6
CONTINUOUS
 62
     7
 10
443.1584756187
 20
890.937771842
 30
0.0
  0
VERTEX
  5
211
  8
52176796
  6
CONTINUOUS
 62
     7
 10
443.1573983259
 20
891.0084727633
 30
0.0
  0
VERTEX
  5
212
  8
52176796
  6
CONTINUOUS
 62
     7
 10
443.1556063201
 20
891.0791396169
 30
0.0
  0
VERTEX
  5
213
  8
52176796
  6
CONTINUOUS
 62
     7
 10
443.1531024507
 20
891.1497725387
 30
0.0
  0
VERTEX
  5
214
  8
52176796
  6
CONTINUOUS
 62
     7
 10
443.1498895667
 20
891.2203716643
 30
0.0
  0
VERTEX
  5
215
  8
52176796
  6
CONTINUOUS
 62
     7
 10
443.1459705173
 20
891.2909371298
 30
0.0
  0
VERTEX
  5
216
  8
52176796
  6
CONTINUOUS
 62
     7
 10
443.1413481518
 20
891.3614690708
 30
0.0
  0
VERTEX
  5
217
  8
52176796
  6
CONTINUOUS
 62
     7
 10
443.1360253192
 20
891.4319676231
 30
0.0
  0
VERTEX
  5
218
  8
52176796
  6
CONTINUOUS
 62
     7
 10
443.1300048688
 20
891.5024329227
 30
0.0
  0
VERTEX
  5
219
  8
52176796
  6
CONTINUOUS
 62
     7
 10
443.1232896498
 20
891.5728651052
 30
0.0
  0
VERTEX
  5
21A
  8
52176796
  6
CONTINUOUS
 62
     7
 10
443.1158825112
 20
891.6432643065
 30
0.0
  0
VERTEX
  5
21B
  8
52176796
  6
CONTINUOUS
 62
     7
 10
443.1077863024
 20
891.7136306625
 30
0.0
  0
VERTEX
  5
21C
  8
52176796
  6
CONTINUOUS
 62
     7
 10
443.0990038725
 20
891.7839643089
 30
0.0
  0
VERTEX
  5
21D
  8
52176796
  6
CONTINUOUS
 62
     7
 10
443.0895380706
 20
891.8542653814
 30
0.0
  0
VERTEX
  5
21E
  8
52176796
  6
CONTINUOUS
 62
     7
 10
443.079391746
 20
891.9245340161
 30
0.0
  0
VERTEX
  5
21F
  8
52176796
  6
CONTINUOUS
 62
     7
 10
443.0685677477
 20
891.9947703485
 30
0.0
  0
VERTEX
  5
220
  8
52176796
  6
CONTINUOUS
 62
     7
 10
443.0570689251
 20
892.0649745147
 30
0.0
  0
VERTEX
  5
221
  8
52176796
  6
CONTINUOUS
 62
     7
 10
443.0448981272
 20
892.1351466503
 30
0.0
  0
VERTEX
  5
222
  8
52176796
  6
CONTINUOUS
 62
     7
 10
443.0320536178
 20
892.2053068125
 30
0.0
  0
VERTEX
  5
223
  8
52176796
  6
CONTINUOUS
 62
     7
 10
443.0185418407
 20
892.2754527113
 30
0.0
  0
VERTEX
  5
224
  8
52176796
  6
CONTINUOUS
 62
     7
 10
443.0043779154
 20
892.3455509615
 30
0.0
  0
VERTEX
  5
225
  8
52176796
  6
CONTINUOUS
 62
     7
 10
442.9895769612
 20
892.4155681781
 30
0.0
  0
VERTEX
  5
226
  8
52176796
  6
CONTINUOUS
 62
     7
 10
442.9741540976
 20
892.4854709758
 30
0.0
  0
VERTEX
  5
227
  8
52176796
  6
CONTINUOUS
 62
     7
 10
442.958124444
 20
892.5552259698
 30
0.0
  0
VERTEX
  5
228
  8
52176796
  6
CONTINUOUS
 62
     7
 10
442.9415031198
 20
892.6247997747
 30
0.0
  0
VERTEX
  5
229
  8
52176796
  6
CONTINUOUS
 62
     7
 10
442.9243052446
 20
892.6941590056
 30
0.0
  0
VERTEX
  5
22A
  8
52176796
  6
CONTINUOUS
 62
     7
 10
442.9065459376
 20
892.7632702772
 30
0.0
  0
VERTEX
  5
22B
  8
52176796
  6
CONTINUOUS
 62
     7
 10
442.8882368122
 20
892.8321343445
 30
0.0
  0
VERTEX
  5
22C
  8
52176796
  6
CONTINUOUS
 62
     7
 10
442.8693853768
 20
892.900776662
 30
0.0
  0
VERTEX
  5
22D
  8
52176796
  6
CONTINUOUS
 62
     7
 10
442.8500005935
 20
892.9692008943
 30
0.0
  0
VERTEX
  5
22E
  8
52176796
  6
CONTINUOUS
 62
     7
 10
442.8300914245
 20
893.037410706
 30
0.0
  0
VERTEX
  5
22F
  8
52176796
  6
CONTINUOUS
 62
     7
 10
442.809666832
 20
893.1054097617
 30
0.0
  0
VERTEX
  5
230
  8
52176796
  6
CONTINUOUS
 62
     7
 10
442.788735778
 20
893.1732017261
 30
0.0
  0
VERTEX
  5
231
  8
52176796
  6
CONTINUOUS
 62
     7
 10
442.7673072248
 20
893.2407902637
 30
0.0
  0
VERTEX
  5
232
  8
52176796
  6
CONTINUOUS
 62
     7
 10
442.7453901344
 20
893.3081790391
 30
0.0
  0
VERTEX
  5
233
  8
52176796
  6
CONTINUOUS
 62
     7
 10
442.722993469
 20
893.375371717
 30
0.0
  0
VERTEX
  5
234
  8
52176796
  6
CONTINUOUS
 62
     7
 10
442.7001316936
 20
893.442374212
 30
0.0
  0
VERTEX
  5
235
  8
52176796
  6
CONTINUOUS
 62
     7
 10
442.6768174018
 20
893.5091916738
 30
0.0
  0
VERTEX
  5
236
  8
52176796
  6
CONTINUOUS
 62
     7
 10
442.6530567494
 20
893.5758266193
 30
0.0
  0
VERTEX
  5
237
  8
52176796
  6
CONTINUOUS
 62
     7
 10
442.628855892
 20
893.6422815655
 30
0.0
  0
VERTEX
  5
238
  8
52176796
  6
CONTINUOUS
 62
     7
 10
442.6042209852
 20
893.7085590296
 30
0.0
  0
VERTEX
  5
239
  8
52176796
  6
CONTINUOUS
 62
     7
 10
442.5791581845
 20
893.7746615285
 30
0.0
  0
VERTEX
  5
23A
  8
52176796
  6
CONTINUOUS
 62
     7
 10
442.5536736456
 20
893.8405915792
 30
0.0
  0
VERTEX
  5
23B
  8
52176796
  6
CONTINUOUS
 62
     7
 10
442.5277735241
 20
893.9063516987
 30
0.0
  0
VERTEX
  5
23C
  8
52176796
  6
CONTINUOUS
 62
     7
 10
442.5014639756
 20
893.9719444042
 30
0.0
  0
VERTEX
  5
23D
  8
52176796
  6
CONTINUOUS
 62
     7
 10
442.4747511558
 20
894.0373722125
 30
0.0
  0
VERTEX
  5
23E
  8
52176796
  6
CONTINUOUS
 62
     7
 10
442.4476412201
 20
894.1026376407
 30
0.0
  0
VERTEX
  5
23F
  8
52176796
  6
CONTINUOUS
 62
     7
 10
442.4201403242
 20
894.1677432058
 30
0.0
  0
VERTEX
  5
240
  8
52176796
  6
CONTINUOUS
 62
     7
 10
442.3922546238
 20
894.2326914249
 30
0.0
  0
VERTEX
  5
241
  8
52176796
  6
CONTINUOUS
 62
     7
 10
442.3639902744
 20
894.297484815
 30
0.0
  0
VERTEX
  5
242
  8
52176796
  6
CONTINUOUS
 62
     7
 10
442.3353534317
 20
894.362125893
 30
0.0
  0
VERTEX
  5
243
  8
52176796
  6
CONTINUOUS
 62
     7
 10
442.3063502512
 20
894.4266171761
 30
0.0
  0
VERTEX
  5
244
  8
52176796
  6
CONTINUOUS
 62
     7
 10
442.2769868885
 20
894.4909611812
 30
0.0
  0
VERTEX
  5
245
  8
52176796
  6
CONTINUOUS
 62
     7
 10
442.2472694994
 20
894.5551604253
 30
0.0
  0
VERTEX
  5
246
  8
52176796
  6
CONTINUOUS
 62
     7
 10
442.2172042393
 20
894.6192174255
 30
0.0
  0
VERTEX
  5
247
  8
52176796
  6
CONTINUOUS
 62
     7
 10
442.1867972639
 20
894.6831346987
 30
0.0
  0
VERTEX
  5
248
  8
52176796
  6
CONTINUOUS
 62
     7
 10
442.1560547287
 20
894.7469147621
 30
0.0
  0
VERTEX
  5
249
  8
52176796
  6
CONTINUOUS
 62
     7
 10
442.1249827895
 20
894.8105601326
 30
0.0
  0
VERTEX
  5
24A
  8
52176796
  6
CONTINUOUS
 62
     7
 10
442.0935876018
 20
894.8740733272
 30
0.0
  0
VERTEX
  5
24B
  8
52176796
  6
CONTINUOUS
 62
     7
 10
442.0618753212
 20
894.937456863
 30
0.0
  0
VERTEX
  5
24C
  8
52176796
  6
CONTINUOUS
 62
     7
 10
442.0298521033
 20
895.0007132569
 30
0.0
  0
VERTEX
  5
24D
  8
52176796
  6
CONTINUOUS
 62
     7
 10
441.9975241037
 20
895.0638450261
 30
0.0
  0
VERTEX
  5
24E
  8
52176796
  6
CONTINUOUS
 62
     7
 10
441.964897478
 20
895.1268546874
 30
0.0
  0
VERTEX
  5
24F
  8
52176796
  6
CONTINUOUS
 62
     7
 10
441.9319783819
 20
895.1897447581
 30
0.0
  0
VERTEX
  5
250
  8
52176796
  6
CONTINUOUS
 62
     7
 10
441.898772971
 20
895.2525177549
 30
0.0
  0
VERTEX
  5
251
  8
52176796
  6
CONTINUOUS
 62
     7
 10
441.8652874008
 20
895.3151761951
 30
0.0
  0
VERTEX
  5
252
  8
52176796
  6
CONTINUOUS
 62
     7
 10
441.831527827
 20
895.3777225955
 30
0.0
  0
VERTEX
  5
253
  8
52176796
  6
CONTINUOUS
 62
     7
 10
441.7975004051
 20
895.4401594732
 30
0.0
  0
VERTEX
  5
254
  8
52176796
  6
CONTINUOUS
 62
     7
 10
441.7632112908
 20
895.5024893453
 30
0.0
  0
VERTEX
  5
255
  8
52176796
  6
CONTINUOUS
 62
     7
 10
441.7286666397
 20
895.5647147287
 30
0.0
  0
VERTEX
  5
256
  8
52176796
  6
CONTINUOUS
 62
     7
 10
441.6938726074
 20
895.6268381405
 30
0.0
  0
VERTEX
  5
257
  8
52176796
  6
CONTINUOUS
 62
     7
 10
441.6588353497
 20
895.6888620973
 30
0.0
  0
SEQEND
  5
258
  8
52176796
  6
CONTINUOUS
 62
     7
  0
POLYLINE
  5
114
  8
52176796
  6
CONTINUOUS
 62
     7
 66
     1
 10
0.0
 20
0.0
 30
0.0
  0
VERTEX
  5
259
  8
52176796
  6
CONTINUOUS
 62
     7
 10
441.6588353495
 20
886.0452113367
 30
0.0
  0
VERTEX
  5
25A
  8
52176796
  6
CONTINUOUS
 62
     7
 10
441.6938726074
 20
886.1072352939
 30
0.0
  0
VERTEX
  5
25B
  8
52176796
  6
CONTINUOUS
 62
     7
 10
441.7286666397
 20
886.1693587057
 30
0.0
  0
VERTEX
  5
25C
  8
52176796
  6
CONTINUOUS
 62
     7
 10
441.7632112908
 20
886.2315840892
 30
0.0
  0
VERTEX
  5
25D
  8
52176796
  6
CONTINUOUS
 62
     7
 10
441.7975004051
 20
886.2939139612
 30
0.0
  0
VERTEX
  5
25E
  8
52176796
  6
CONTINUOUS
 62
     7
 10
441.831527827
 20
886.356350839
 30
0.0
  0
VERTEX
  5
25F
  8
52176796
  6
CONTINUOUS
 62
     7
 10
441.8652874008
 20
886.4188972394
 30
0.0
  0
VERTEX
  5
260
  8
52176796
  6
CONTINUOUS
 62
     7
 10
441.898772971
 20
886.4815556796
 30
0.0
  0
VERTEX
  5
261
  8
52176796
  6
CONTINUOUS
 62
     7
 10
441.9319783819
 20
886.5443286764
 30
0.0
  0
VERTEX
  5
262
  8
52176796
  6
CONTINUOUS
 62
     7
 10
441.964897478
 20
886.607218747
 30
0.0
  0
VERTEX
  5
263
  8
52176796
  6
CONTINUOUS
 62
     7
 10
441.9975241037
 20
886.6702284084
 30
0.0
  0
VERTEX
  5
264
  8
52176796
  6
CONTINUOUS
 62
     7
 10
442.0298521033
 20
886.7333601776
 30
0.0
  0
VERTEX
  5
265
  8
52176796
  6
CONTINUOUS
 62
     7
 10
442.0618753212
 20
886.7966165715
 30
0.0
  0
VERTEX
  5
266
  8
52176796
  6
CONTINUOUS
 62
     7
 10
442.0935876018
 20
886.8600001073
 30
0.0
  0
VERTEX
  5
267
  8
52176796
  6
CONTINUOUS
 62
     7
 10
442.1249827895
 20
886.9235133019
 30
0.0
  0
VERTEX
  5
268
  8
52176796
  6
CONTINUOUS
 62
     7
 10
442.1560547287
 20
886.9871586724
 30
0.0
  0
VERTEX
  5
269
  8
52176796
  6
CONTINUOUS
 62
     7
 10
442.1867972639
 20
887.0509387357
 30
0.0
  0
VERTEX
  5
26A
  8
52176796
  6
CONTINUOUS
 62
     7
 10
442.2172042393
 20
887.114856009
 30
0.0
  0
VERTEX
  5
26B
  8
52176796
  6
CONTINUOUS
 62
     7
 10
442.2472694994
 20
887.1789130092
 30
0.0
  0
VERTEX
  5
26C
  8
52176796
  6
CONTINUOUS
 62
     7
 10
442.2769868885
 20
887.2431122533
 30
0.0
  0
VERTEX
  5
26D
  8
52176796
  6
CONTINUOUS
 62
     7
 10
442.3063502512
 20
887.3074562584
 30
0.0
  0
VERTEX
  5
26E
  8
52176796
  6
CONTINUOUS
 62
     7
 10
442.3353534317
 20
887.3719475414
 30
0.0
  0
VERTEX
  5
26F
  8
52176796
  6
CONTINUOUS
 62
     7
 10
442.3639902744
 20
887.4365886195
 30
0.0
  0
VERTEX
  5
270
  8
52176796
  6
CONTINUOUS
 62
     7
 10
442.3922546238
 20
887.5013820095
 30
0.0
  0
VERTEX
  5
271
  8
52176796
  6
CONTINUOUS
 62
     7
 10
442.4201403242
 20
887.5663302286
 30
0.0
  0
VERTEX
  5
272
  8
52176796
  6
CONTINUOUS
 62
     7
 10
442.4476412201
 20
887.6314357938
 30
0.0
  0
VERTEX
  5
273
  8
52176796
  6
CONTINUOUS
 62
     7
 10
442.4747511558
 20
887.696701222
 30
0.0
  0
VERTEX
  5
274
  8
52176796
  6
CONTINUOUS
 62
     7
 10
442.5014639756
 20
887.7621290303
 30
0.0
  0
VERTEX
  5
275
  8
52176796
  6
CONTINUOUS
 62
     7
 10
442.5277735241
 20
887.8277217357
 30
0.0
  0
VERTEX
  5
276
  8
52176796
  6
CONTINUOUS
 62
     7
 10
442.5536736456
 20
887.8934818553
 30
0.0
  0
VERTEX
  5
277
  8
52176796
  6
CONTINUOUS
 62
     7
 10
442.5791581845
 20
887.959411906
 30
0.0
  0
VERTEX
  5
278
  8
52176796
  6
CONTINUOUS
 62
     7
 10
442.6042209852
 20
888.0255144049
 30
0.0
  0
VERTEX
  5
279
  8
52176796
  6
CONTINUOUS
 62
     7
 10
442.628855892
 20
888.0917918689
 30
0.0
  0
VERTEX
  5
27A
  8
52176796
  6
CONTINUOUS
 62
     7
 10
442.6530567494
 20
888.1582468152
 30
0.0
  0
VERTEX
  5
27B
  8
52176796
  6
CONTINUOUS
 62
     7
 10
442.6768174018
 20
888.2248817607
 30
0.0
  0
VERTEX
  5
27C
  8
52176796
  6
CONTINUOUS
 62
     7
 10
442.7001316936
 20
888.2916992225
 30
0.0
  0
VERTEX
  5
27D
  8
52176796
  6
CONTINUOUS
 62
     7
 10
442.722993469
 20
888.3587017175
 30
0.0
  0
VERTEX
  5
27E
  8
52176796
  6
CONTINUOUS
 62
     7
 10
442.7453901344
 20
888.4258943954
 30
0.0
  0
VERTEX
  5
27F
  8
52176796
  6
CONTINUOUS
 62
     7
 10
442.7673072248
 20
888.4932831708
 30
0.0
  0
VERTEX
  5
280
  8
52176796
  6
CONTINUOUS
 62
     7
 10
442.788735778
 20
888.5608717084
 30
0.0
  0
VERTEX
  5
281
  8
52176796
  6
CONTINUOUS
 62
     7
 10
442.809666832
 20
888.6286636727
 30
0.0
  0
VERTEX
  5
282
  8
52176796
  6
CONTINUOUS
 62
     7
 10
442.8300914245
 20
888.6966627285
 30
0.0
  0
VERTEX
  5
283
  8
52176796
  6
CONTINUOUS
 62
     7
 10
442.8500005935
 20
888.7648725402
 30
0.0
  0
VERTEX
  5
284
  8
52176796
  6
CONTINUOUS
 62
     7
 10
442.8693853768
 20
888.8332967725
 30
0.0
  0
VERTEX
  5
285
  8
52176796
  6
CONTINUOUS
 62
     7
 10
442.8882368122
 20
888.9019390899
 30
0.0
  0
VERTEX
  5
286
  8
52176796
  6
CONTINUOUS
 62
     7
 10
442.9065459376
 20
888.9708031572
 30
0.0
  0
VERTEX
  5
287
  8
52176796
  6
CONTINUOUS
 62
     7
 10
442.9243052446
 20
889.0399144289
 30
0.0
  0
VERTEX
  5
288
  8
52176796
  6
CONTINUOUS
 62
     7
 10
442.9415031198
 20
889.1092736598
 30
0.0
  0
VERTEX
  5
289
  8
52176796
  6
CONTINUOUS
 62
     7
 10
442.958124444
 20
889.1788474647
 30
0.0
  0
VERTEX
  5
28A
  8
52176796
  6
CONTINUOUS
 62
     7
 10
442.9741540976
 20
889.2486024586
 30
0.0
  0
VERTEX
  5
28B
  8
52176796
  6
CONTINUOUS
 62
     7
 10
442.9895769612
 20
889.3185052564
 30
0.0
  0
VERTEX
  5
28C
  8
52176796
  6
CONTINUOUS
 62
     7
 10
443.0043779154
 20
889.388522473
 30
0.0
  0
VERTEX
  5
28D
  8
52176796
  6
CONTINUOUS
 62
     7
 10
443.0185418407
 20
889.4586207232
 30
0.0
  0
VERTEX
  5
28E
  8
52176796
  6
CONTINUOUS
 62
     7
 10
443.0320536178
 20
889.528766622
 30
0.0
  0
VERTEX
  5
28F
  8
52176796
  6
CONTINUOUS
 62
     7
 10
443.0448981272
 20
889.5989267842
 30
0.0
  0
VERTEX
  5
290
  8
52176796
  6
CONTINUOUS
 62
     7
 10
443.0570689251
 20
889.6690989198
 30
0.0
  0
VERTEX
  5
291
  8
52176796
  6
CONTINUOUS
 62
     7
 10
443.0685677477
 20
889.7393030859
 30
0.0
  0
VERTEX
  5
292
  8
52176796
  6
CONTINUOUS
 62
     7
 10
443.079391746
 20
889.8095394184
 30
0.0
  0
VERTEX
  5
293
  8
52176796
  6
CONTINUOUS
 62
     7
 10
443.0895380706
 20
889.879808053
 30
0.0
  0
VERTEX
  5
294
  8
52176796
  6
CONTINUOUS
 62
     7
 10
443.0990038725
 20
889.9501091256
 30
0.0
  0
VERTEX
  5
295
  8
52176796
  6
CONTINUOUS
 62
     7
 10
443.1077863024
 20
890.020442772
 30
0.0
  0
VERTEX
  5
296
  8
52176796
  6
CONTINUOUS
 62
     7
 10
443.1158825112
 20
890.0908091279
 30
0.0
  0
VERTEX
  5
297
  8
52176796
  6
CONTINUOUS
 62
     7
 10
443.1232896498
 20
890.1612083293
 30
0.0
  0
VERTEX
  5
298
  8
52176796
  6
CONTINUOUS
 62
     7
 10
443.1300048688
 20
890.2316405118
 30
0.0
  0
VERTEX
  5
299
  8
52176796
  6
CONTINUOUS
 62
     7
 10
443.1360253192
 20
890.3021058113
 30
0.0
  0
VERTEX
  5
29A
  8
52176796
  6
CONTINUOUS
 62
     7
 10
443.1413481518
 20
890.3726043637
 30
0.0
  0
VERTEX
  5
29B
  8
52176796
  6
CONTINUOUS
 62
     7
 10
443.1459705173
 20
890.4431363047
 30
0.0
  0
VERTEX
  5
29C
  8
52176796
  6
CONTINUOUS
 62
     7
 10
443.1498895667
 20
890.5137017701
 30
0.0
  0
VERTEX
  5
29D
  8
52176796
  6
CONTINUOUS
 62
     7
 10
443.1531024507
 20
890.5843008958
 30
0.0
  0
VERTEX
  5
29E
  8
52176796
  6
CONTINUOUS
 62
     7
 10
443.1556063201
 20
890.6549338176
 30
0.0
  0
VERTEX
  5
29F
  8
52176796
  6
CONTINUOUS
 62
     7
 10
443.1573983259
 20
890.7256006712
 30
0.0
  0
VERTEX
  5
2A0
  8
52176796
  6
CONTINUOUS
 62
     7
 10
443.1584756187
 20
890.7963015925
 30
0.0
  0
VERTEX
  5
2A1
  8
52176796
  6
CONTINUOUS
 62
     7
 10
443.1588353495
 20
890.8670367167
 30
0.0
  0
SEQEND
  5
2A2
  8
52176796
  6
CONTINUOUS
 62
     7
  0
POLYLINE
  5
115
  8
52176796
  6
CONTINUOUS
 62
     7
 66
     1
 10
0.0
 20
0.0
 30
0.0
  0
VERTEX
  5
2A4
  8
52176796
  6
CONTINUOUS
 62
     7
 10
433.1588353495
 20
895.6888620977
 30
0.0
  0
VERTEX
  5
2A5
  8
52176796
  6
CONTINUOUS
 62
     7
 10
432.9698621854
 20
895.1752279535
 30
0.0
  0
VERTEX
  5
2A6
  8
52176796
  6
CONTINUOUS
 62
     7
 10
432.7995093215
 20
894.6286136871
 30
0.0
  0
VERTEX
  5
2A7
  8
52176796
  6
CONTINUOUS
 62
     7
 10
432.6503240755
 20
894.0519238068
 30
0.0
  0
VERTEX
  5
2A8
  8
52176796
  6
CONTINUOUS
 62
     7
 10
432.5246592664
 20
893.4488014879
 30
0.0
  0
VERTEX
  5
2A9
  8
52176796
  6
CONTINUOUS
 62
     7
 10
432.4245870584
 20
892.8235804818
 30
0.0
  0
VERTEX
  5
2AA
  8
52176796
  6
CONTINUOUS
 62
     7
 10
432.3518176886
 20
892.1812015504
 30
0.0
  0
VERTEX
  5
2AB
  8
52176796
  6
CONTINUOUS
 62
     7
 10
432.3076286995
 20
891.5270953501
 30
0.0
  0
VERTEX
  5
2AC
  8
52176796
  6
CONTINUOUS
 62
     7
 10
432.2928099457
 20
890.8670367172
 30
0.0
  0
VERTEX
  5
2AD
  8
52176796
  6
CONTINUOUS
 62
     7
 10
432.3076286995
 20
890.2069780844
 30
0.0
  0
VERTEX
  5
2AE
  8
52176796
  6
CONTINUOUS
 62
     7
 10
432.3518176886
 20
889.5528718841
 30
0.0
  0
VERTEX
  5
2AF
  8
52176796
  6
CONTINUOUS
 62
     7
 10
432.4245870584
 20
888.9104929527
 30
0.0
  0
VERTEX
  5
2B0
  8
52176796
  6
CONTINUOUS
 62
     7
 10
432.5246592664
 20
888.2852719466
 30
0.0
  0
VERTEX
  5
2B1
  8
52176796
  6
CONTINUOUS
 62
     7
 10
432.6503240755
 20
887.6821496276
 30
0.0
  0
VERTEX
  5
2B2
  8
52176796
  6
CONTINUOUS
 62
     7
 10
432.7995093215
 20
887.1054597474
 30
0.0
  0
VERTEX
  5
2B3
  8
52176796
  6
CONTINUOUS
 62
     7
 10
432.9698621854
 20
886.558845481
 30
0.0
  0
VERTEX
  5
2B4
  8
52176796
  6
CONTINUOUS
 62
     7
 10
433.1588353495
 20
886.0452113367
 30
0.0
  0
SEQEND
  5
2A3
  8
52176796
  6
CONTINUOUS
 62
     7
  0
LINE
  5
116
  8
52176796
  6
CONTINUOUS
 62
     7
 10
433.1588353495
 20
895.6888620977
 30
0.0
 11
433.1588353495
 21
886.0452113367
 31
0.0
  0
LINE
  5
117
  8
52176796
  6
CONTINUOUS
 62
     7
 10
441.6588353495
 20
895.6888620977
 30
0.0
 11
433.1588353495
 21
895.6888620977
 31
0.0
  0
LINE
  5
118
  8
52176796
  6
CONTINUOUS
 62
     7
 10
433.1588353495
 20
886.0452113367
 30
0.0
 11
441.6588353495
 21
886.0452113367
 31
0.0
  0
LINE
  5
119
  8
52176796
  6
CONTINUOUS
 62
     7
 10
727.1588353495
 20
1190.8670367172
 30
0.0
 11
710.1588353495
 21
1190.8670367172
 31
0.0
  0
LINE
  5
11A
  8
52176796
  6
CONTINUOUS
 62
     7
 10
718.6588353495
 20
1166.3670367172
 30
0.0
 11
725.6588353495
 21
1166.3670367172
 31
0.0
  0
LINE
  5
11B
  8
52176796
  6
CONTINUOUS
 62
     7
 10
727.1588353495
 20
1167.8670367172
 30
0.0
 11
723.48066073
 21
1167.8670367172
 31
0.0
  0
LINE
  5
11C
  8
52176796
  6
CONTINUOUS
 62
     7
 10
713.837009969
 20
1167.8670367172
 30
0.0
 11
710.1588353495
 21
1167.8670367172
 31
0.0
  0
LINE
  5
11D
  8
52176796
  6
CONTINUOUS
 62
     7
 10
711.6588353495
 20
1166.3670367172
 30
0.0
 11
718.6588353495
 21
1166.3670367172
 31
0.0
  0
POLYLINE
  5
11E
  8
52176796
  6
CONTINUOUS
 62
     7
 66
     1
 10
0.0
 20
0.0
 30
0.0
  0
VERTEX
  5
2B5
  8
52176796
  6
CONTINUOUS
 62
     7
 10
718.6588353495
 20
1166.3670367172
 30
0.0
  0
VERTEX
  5
2B6
  8
52176796
  6
CONTINUOUS
 62
     7
 10
718.7295704743
 20
1166.367396448
 30
0.0
  0
VERTEX
  5
2B7
  8
52176796
  6
CONTINUOUS
 62
     7
 10
718.8002713955
 20
1166.3684737408
 30
0.0
  0
VERTEX
  5
2B8
  8
52176796
  6
CONTINUOUS
 62
     7
 10
718.8709382492
 20
1166.3702657466
 30
0.0
  0
VERTEX
  5
2B9
  8
52176796
  6
CONTINUOUS
 62
     7
 10
718.9415711709
 20
1166.372769616
 30
0.0
  0
VERTEX
  5
2BA
  8
52176796
  6
CONTINUOUS
 62
     7
 10
719.0121702966
 20
1166.3759825
 30
0.0
  0
VERTEX
  5
2BB
  8
52176796
  6
CONTINUOUS
 62
     7
 10
719.082735762
 20
1166.3799015494
 30
0.0
  0
VERTEX
  5
2BC
  8
52176796
  6
CONTINUOUS
 62
     7
 10
719.153267703
 20
1166.384523915
 30
0.0
  0
VERTEX
  5
2BD
  8
52176796
  6
CONTINUOUS
 62
     7
 10
719.2237662554
 20
1166.3898467475
 30
0.0
  0
VERTEX
  5
2BE
  8
52176796
  6
CONTINUOUS
 62
     7
 10
719.2942315549
 20
1166.3958671979
 30
0.0
  0
VERTEX
  5
2BF
  8
52176796
  6
CONTINUOUS
 62
     7
 10
719.3646637375
 20
1166.402582417
 30
0.0
  0
VERTEX
  5
2C0
  8
52176796
  6
CONTINUOUS
 62
     7
 10
719.4350629388
 20
1166.4099895555
 30
0.0
  0
VERTEX
  5
2C1
  8
52176796
  6
CONTINUOUS
 62
     7
 10
719.5054292947
 20
1166.4180857643
 30
0.0
  0
VERTEX
  5
2C2
  8
52176796
  6
CONTINUOUS
 62
     7
 10
719.5757629411
 20
1166.4268681942
 30
0.0
  0
VERTEX
  5
2C3
  8
52176796
  6
CONTINUOUS
 62
     7
 10
719.6460640137
 20
1166.4363339961
 30
0.0
  0
VERTEX
  5
2C4
  8
52176796
  6
CONTINUOUS
 62
     7
 10
719.7163326483
 20
1166.4464803208
 30
0.0
  0
VERTEX
  5
2C5
  8
52176796
  6
CONTINUOUS
 62
     7
 10
719.7865689808
 20
1166.457304319
 30
0.0
  0
VERTEX
  5
2C6
  8
52176796
  6
CONTINUOUS
 62
     7
 10
719.8567731469
 20
1166.4688031416
 30
0.0
  0
VERTEX
  5
2C7
  8
52176796
  6
CONTINUOUS
 62
     7
 10
719.9269452825
 20
1166.4809739395
 30
0.0
  0
VERTEX
  5
2C8
  8
52176796
  6
CONTINUOUS
 62
     7
 10
719.9971054448
 20
1166.4938184489
 30
0.0
  0
VERTEX
  5
2C9
  8
52176796
  6
CONTINUOUS
 62
     7
 10
720.0672513435
 20
1166.507330226
 30
0.0
  0
VERTEX
  5
2CA
  8
52176796
  6
CONTINUOUS
 62
     7
 10
720.1373495938
 20
1166.5214941514
 30
0.0
  0
VERTEX
  5
2CB
  8
52176796
  6
CONTINUOUS
 62
     7
 10
720.2073668103
 20
1166.5362951055
 30
0.0
  0
VERTEX
  5
2CC
  8
52176796
  6
CONTINUOUS
 62
     7
 10
720.2772696081
 20
1166.5517179691
 30
0.0
  0
VERTEX
  5
2CD
  8
52176796
  6
CONTINUOUS
 62
     7
 10
720.347024602
 20
1166.5677476227
 30
0.0
  0
VERTEX
  5
2CE
  8
52176796
  6
CONTINUOUS
 62
     7
 10
720.4165984069
 20
1166.5843689469
 30
0.0
  0
VERTEX
  5
2CF
  8
52176796
  6
CONTINUOUS
 62
     7
 10
720.4859576378
 20
1166.6015668222
 30
0.0
  0
VERTEX
  5
2D0
  8
52176796
  6
CONTINUOUS
 62
     7
 10
720.5550689095
 20
1166.6193261291
 30
0.0
  0
VERTEX
  5
2D1
  8
52176796
  6
CONTINUOUS
 62
     7
 10
720.6239329768
 20
1166.6376352546
 30
0.0
  0
VERTEX
  5
2D2
  8
52176796
  6
CONTINUOUS
 62
     7
 10
720.6925752943
 20
1166.65648669
 30
0.0
  0
VERTEX
  5
2D3
  8
52176796
  6
CONTINUOUS
 62
     7
 10
720.7609995266
 20
1166.6758714732
 30
0.0
  0
VERTEX
  5
2D4
  8
52176796
  6
CONTINUOUS
 62
     7
 10
720.8292093383
 20
1166.6957806422
 30
0.0
  0
VERTEX
  5
2D5
  8
52176796
  6
CONTINUOUS
 62
     7
 10
720.897208394
 20
1166.7162052347
 30
0.0
  0
VERTEX
  5
2D6
  8
52176796
  6
CONTINUOUS
 62
     7
 10
720.9650003583
 20
1166.7371362887
 30
0.0
  0
VERTEX
  5
2D7
  8
52176796
  6
CONTINUOUS
 62
     7
 10
721.0325888959
 20
1166.7585648419
 30
0.0
  0
VERTEX
  5
2D8
  8
52176796
  6
CONTINUOUS
 62
     7
 10
721.0999776714
 20
1166.7804819323
 30
0.0
  0
VERTEX
  5
2D9
  8
52176796
  6
CONTINUOUS
 62
     7
 10
721.1671703493
 20
1166.8028785977
 30
0.0
  0
VERTEX
  5
2DA
  8
52176796
  6
CONTINUOUS
 62
     7
 10
721.2341728443
 20
1166.8257403732
 30
0.0
  0
VERTEX
  5
2DB
  8
52176796
  6
CONTINUOUS
 62
     7
 10
721.300990306
 20
1166.8490546649
 30
0.0
  0
VERTEX
  5
2DC
  8
52176796
  6
CONTINUOUS
 62
     7
 10
721.3676252515
 20
1166.8728153173
 30
0.0
  0
VERTEX
  5
2DD
  8
52176796
  6
CONTINUOUS
 62
     7
 10
721.4340801978
 20
1166.8970161747
 30
0.0
  0
VERTEX
  5
2DE
  8
52176796
  6
CONTINUOUS
 62
     7
 10
721.5003576619
 20
1166.9216510815
 30
0.0
  0
VERTEX
  5
2DF
  8
52176796
  6
CONTINUOUS
 62
     7
 10
721.5664601607
 20
1166.9467138822
 30
0.0
  0
VERTEX
  5
2E0
  8
52176796
  6
CONTINUOUS
 62
     7
 10
721.6323902114
 20
1166.9721984211
 30
0.0
  0
VERTEX
  5
2E1
  8
52176796
  6
CONTINUOUS
 62
     7
 10
721.698150331
 20
1166.9980985426
 30
0.0
  0
VERTEX
  5
2E2
  8
52176796
  6
CONTINUOUS
 62
     7
 10
721.7637430364
 20
1167.0244080911
 30
0.0
  0
VERTEX
  5
2E3
  8
52176796
  6
CONTINUOUS
 62
     7
 10
721.8291708447
 20
1167.051120911
 30
0.0
  0
VERTEX
  5
2E4
  8
52176796
  6
CONTINUOUS
 62
     7
 10
721.8944362729
 20
1167.0782308466
 30
0.0
  0
VERTEX
  5
2E5
  8
52176796
  6
CONTINUOUS
 62
     7
 10
721.9595418381
 20
1167.1057317425
 30
0.0
  0
VERTEX
  5
2E6
  8
52176796
  6
CONTINUOUS
 62
     7
 10
722.0244900572
 20
1167.1336174429
 30
0.0
  0
VERTEX
  5
2E7
  8
52176796
  6
CONTINUOUS
 62
     7
 10
722.0892834473
 20
1167.1618817923
 30
0.0
  0
VERTEX
  5
2E8
  8
52176796
  6
CONTINUOUS
 62
     7
 10
722.1539245253
 20
1167.190518635
 30
0.0
  0
VERTEX
  5
2E9
  8
52176796
  6
CONTINUOUS
 62
     7
 10
722.2184158083
 20
1167.2195218155
 30
0.0
  0
VERTEX
  5
2EA
  8
52176796
  6
CONTINUOUS
 62
     7
 10
722.2827598134
 20
1167.2488851782
 30
0.0
  0
VERTEX
  5
2EB
  8
52176796
  6
CONTINUOUS
 62
     7
 10
722.3469590575
 20
1167.2786025673
 30
0.0
  0
VERTEX
  5
2EC
  8
52176796
  6
CONTINUOUS
 62
     7
 10
722.4110160577
 20
1167.3086678274
 30
0.0
  0
VERTEX
  5
2ED
  8
52176796
  6
CONTINUOUS
 62
     7
 10
722.474933331
 20
1167.3390748029
 30
0.0
  0
VERTEX
  5
2EE
  8
52176796
  6
CONTINUOUS
 62
     7
 10
722.5387133943
 20
1167.369817338
 30
0.0
  0
VERTEX
  5
2EF
  8
52176796
  6
CONTINUOUS
 62
     7
 10
722.6023587648
 20
1167.4008892772
 30
0.0
  0
VERTEX
  5
2F0
  8
52176796
  6
CONTINUOUS
 62
     7
 10
722.6658719594
 20
1167.4322844649
 30
0.0
  0
VERTEX
  5
2F1
  8
52176796
  6
CONTINUOUS
 62
     7
 10
722.7292554952
 20
1167.4639967456
 30
0.0
  0
VERTEX
  5
2F2
  8
52176796
  6
CONTINUOUS
 62
     7
 10
722.7925118892
 20
1167.4960199635
 30
0.0
  0
VERTEX
  5
2F3
  8
52176796
  6
CONTINUOUS
 62
     7
 10
722.8556436583
 20
1167.528347963
 30
0.0
  0
VERTEX
  5
2F4
  8
52176796
  6
CONTINUOUS
 62
     7
 10
722.9186533197
 20
1167.5609745887
 30
0.0
  0
VERTEX
  5
2F5
  8
52176796
  6
CONTINUOUS
 62
     7
 10
722.9815433903
 20
1167.5938936848
 30
0.0
  0
VERTEX
  5
2F6
  8
52176796
  6
CONTINUOUS
 62
     7
 10
723.0443163872
 20
1167.6270990957
 30
0.0
  0
VERTEX
  5
2F7
  8
52176796
  6
CONTINUOUS
 62
     7
 10
723.1069748273
 20
1167.6605846659
 30
0.0
  0
VERTEX
  5
2F8
  8
52176796
  6
CONTINUOUS
 62
     7
 10
723.1695212277
 20
1167.6943442398
 30
0.0
  0
VERTEX
  5
2F9
  8
52176796
  6
CONTINUOUS
 62
     7
 10
723.2319581055
 20
1167.7283716616
 30
0.0
  0
VERTEX
  5
2FA
  8
52176796
  6
CONTINUOUS
 62
     7
 10
723.2942879776
 20
1167.7626607759
 30
0.0
  0
VERTEX
  5
2FB
  8
52176796
  6
CONTINUOUS
 62
     7
 10
723.356513361
 20
1167.797205427
 30
0.0
  0
VERTEX
  5
2FC
  8
52176796
  6
CONTINUOUS
 62
     7
 10
723.4186367728
 20
1167.8319994593
 30
0.0
  0
VERTEX
  5
2FD
  8
52176796
  6
CONTINUOUS
 62
     7
 10
723.4806607295
 20
1167.867036717
 30
0.0
  0
SEQEND
  5
2FE
  8
52176796
  6
CONTINUOUS
 62
     7
  0
POLYLINE
  5
11F
  8
52176796
  6
CONTINUOUS
 62
     7
 66
     1
 10
0.0
 20
0.0
 30
0.0
  0
VERTEX
  5
2FF
  8
52176796
  6
CONTINUOUS
 62
     7
 10
713.837009969
 20
1167.8670367172
 30
0.0
  0
VERTEX
  5
300
  8
52176796
  6
CONTINUOUS
 62
     7
 10
713.8990339262
 20
1167.8319994593
 30
0.0
  0
VERTEX
  5
301
  8
52176796
  6
CONTINUOUS
 62
     7
 10
713.961157338
 20
1167.797205427
 30
0.0
  0
VERTEX
  5
302
  8
52176796
  6
CONTINUOUS
 62
     7
 10
714.0233827214
 20
1167.7626607759
 30
0.0
  0
VERTEX
  5
303
  8
52176796
  6
CONTINUOUS
 62
     7
 10
714.0857125935
 20
1167.7283716616
 30
0.0
  0
VERTEX
  5
304
  8
52176796
  6
CONTINUOUS
 62
     7
 10
714.1481494712
 20
1167.6943442398
 30
0.0
  0
VERTEX
  5
305
  8
52176796
  6
CONTINUOUS
 62
     7
 10
714.2106958717
 20
1167.6605846659
 30
0.0
  0
VERTEX
  5
306
  8
52176796
  6
CONTINUOUS
 62
     7
 10
714.2733543118
 20
1167.6270990957
 30
0.0
  0
VERTEX
  5
307
  8
52176796
  6
CONTINUOUS
 62
     7
 10
714.3361273087
 20
1167.5938936848
 30
0.0
  0
VERTEX
  5
308
  8
52176796
  6
CONTINUOUS
 62
     7
 10
714.3990173793
 20
1167.5609745887
 30
0.0
  0
VERTEX
  5
309
  8
52176796
  6
CONTINUOUS
 62
     7
 10
714.4620270406
 20
1167.528347963
 30
0.0
  0
VERTEX
  5
30A
  8
52176796
  6
CONTINUOUS
 62
     7
 10
714.5251588098
 20
1167.4960199635
 30
0.0
  0
VERTEX
  5
30B
  8
52176796
  6
CONTINUOUS
 62
     7
 10
714.5884152038
 20
1167.4639967456
 30
0.0
  0
VERTEX
  5
30C
  8
52176796
  6
CONTINUOUS
 62
     7
 10
714.6517987395
 20
1167.4322844649
 30
0.0
  0
VERTEX
  5
30D
  8
52176796
  6
CONTINUOUS
 62
     7
 10
714.7153119342
 20
1167.4008892772
 30
0.0
  0
VERTEX
  5
30E
  8
52176796
  6
CONTINUOUS
 62
     7
 10
714.7789573046
 20
1167.369817338
 30
0.0
  0
VERTEX
  5
30F
  8
52176796
  6
CONTINUOUS
 62
     7
 10
714.842737368
 20
1167.3390748029
 30
0.0
  0
VERTEX
  5
310
  8
52176796
  6
CONTINUOUS
 62
     7
 10
714.9066546413
 20
1167.3086678274
 30
0.0
  0
VERTEX
  5
311
  8
52176796
  6
CONTINUOUS
 62
     7
 10
714.9707116414
 20
1167.2786025673
 30
0.0
  0
VERTEX
  5
312
  8
52176796
  6
CONTINUOUS
 62
     7
 10
715.0349108856
 20
1167.2488851782
 30
0.0
  0
VERTEX
  5
313
  8
52176796
  6
CONTINUOUS
 62
     7
 10
715.0992548906
 20
1167.2195218155
 30
0.0
  0
VERTEX
  5
314
  8
52176796
  6
CONTINUOUS
 62
     7
 10
715.1637461737
 20
1167.190518635
 30
0.0
  0
VERTEX
  5
315
  8
52176796
  6
CONTINUOUS
 62
     7
 10
715.2283872517
 20
1167.1618817923
 30
0.0
  0
VERTEX
  5
316
  8
52176796
  6
CONTINUOUS
 62
     7
 10
715.2931806418
 20
1167.1336174429
 30
0.0
  0
VERTEX
  5
317
  8
52176796
  6
CONTINUOUS
 62
     7
 10
715.3581288609
 20
1167.1057317425
 30
0.0
  0
VERTEX
  5
318
  8
52176796
  6
CONTINUOUS
 62
     7
 10
715.423234426
 20
1167.0782308466
 30
0.0
  0
VERTEX
  5
319
  8
52176796
  6
CONTINUOUS
 62
     7
 10
715.4884998542
 20
1167.051120911
 30
0.0
  0
VERTEX
  5
31A
  8
52176796
  6
CONTINUOUS
 62
     7
 10
715.5539276626
 20
1167.0244080911
 30
0.0
  0
VERTEX
  5
31B
  8
52176796
  6
CONTINUOUS
 62
     7
 10
715.619520368
 20
1166.9980985426
 30
0.0
  0
VERTEX
  5
31C
  8
52176796
  6
CONTINUOUS
 62
     7
 10
715.6852804875
 20
1166.9721984211
 30
0.0
  0
VERTEX
  5
31D
  8
52176796
  6
CONTINUOUS
 62
     7
 10
715.7512105382
 20
1166.9467138822
 30
0.0
  0
VERTEX
  5
31E
  8
52176796
  6
CONTINUOUS
 62
     7
 10
715.8173130371
 20
1166.9216510815
 30
0.0
  0
VERTEX
  5
31F
  8
52176796
  6
CONTINUOUS
 62
     7
 10
715.8835905012
 20
1166.8970161747
 30
0.0
  0
VERTEX
  5
320
  8
52176796
  6
CONTINUOUS
 62
     7
 10
715.9500454475
 20
1166.8728153173
 30
0.0
  0
VERTEX
  5
321
  8
52176796
  6
CONTINUOUS
 62
     7
 10
716.016680393
 20
1166.8490546649
 30
0.0
  0
VERTEX
  5
322
  8
52176796
  6
CONTINUOUS
 62
     7
 10
716.0834978547
 20
1166.8257403732
 30
0.0
  0
VERTEX
  5
323
  8
52176796
  6
CONTINUOUS
 62
     7
 10
716.1505003497
 20
1166.8028785977
 30
0.0
  0
VERTEX
  5
324
  8
52176796
  6
CONTINUOUS
 62
     7
 10
716.2176930276
 20
1166.7804819323
 30
0.0
  0
VERTEX
  5
325
  8
52176796
  6
CONTINUOUS
 62
     7
 10
716.285081803
 20
1166.7585648419
 30
0.0
  0
VERTEX
  5
326
  8
52176796
  6
CONTINUOUS
 62
     7
 10
716.3526703406
 20
1166.7371362887
 30
0.0
  0
VERTEX
  5
327
  8
52176796
  6
CONTINUOUS
 62
     7
 10
716.420462305
 20
1166.7162052347
 30
0.0
  0
VERTEX
  5
328
  8
52176796
  6
CONTINUOUS
 62
     7
 10
716.4884613607
 20
1166.6957806422
 30
0.0
  0
VERTEX
  5
329
  8
52176796
  6
CONTINUOUS
 62
     7
 10
716.5566711724
 20
1166.6758714732
 30
0.0
  0
VERTEX
  5
32A
  8
52176796
  6
CONTINUOUS
 62
     7
 10
716.6250954047
 20
1166.65648669
 30
0.0
  0
VERTEX
  5
32B
  8
52176796
  6
CONTINUOUS
 62
     7
 10
716.6937377222
 20
1166.6376352546
 30
0.0
  0
VERTEX
  5
32C
  8
52176796
  6
CONTINUOUS
 62
     7
 10
716.7626017895
 20
1166.6193261291
 30
0.0
  0
VERTEX
  5
32D
  8
52176796
  6
CONTINUOUS
 62
     7
 10
716.8317130612
 20
1166.6015668222
 30
0.0
  0
VERTEX
  5
32E
  8
52176796
  6
CONTINUOUS
 62
     7
 10
716.901072292
 20
1166.5843689469
 30
0.0
  0
VERTEX
  5
32F
  8
52176796
  6
CONTINUOUS
 62
     7
 10
716.970646097
 20
1166.5677476227
 30
0.0
  0
VERTEX
  5
330
  8
52176796
  6
CONTINUOUS
 62
     7
 10
717.0404010909
 20
1166.5517179691
 30
0.0
  0
VERTEX
  5
331
  8
52176796
  6
CONTINUOUS
 62
     7
 10
717.1103038887
 20
1166.5362951055
 30
0.0
  0
VERTEX
  5
332
  8
52176796
  6
CONTINUOUS
 62
     7
 10
717.1803211052
 20
1166.5214941514
 30
0.0
  0
VERTEX
  5
333
  8
52176796
  6
CONTINUOUS
 62
     7
 10
717.2504193554
 20
1166.507330226
 30
0.0
  0
VERTEX
  5
334
  8
52176796
  6
CONTINUOUS
 62
     7
 10
717.3205652542
 20
1166.4938184489
 30
0.0
  0
VERTEX
  5
335
  8
52176796
  6
CONTINUOUS
 62
     7
 10
717.3907254164
 20
1166.4809739395
 30
0.0
  0
VERTEX
  5
336
  8
52176796
  6
CONTINUOUS
 62
     7
 10
717.460897552
 20
1166.4688031416
 30
0.0
  0
VERTEX
  5
337
  8
52176796
  6
CONTINUOUS
 62
     7
 10
717.5311017182
 20
1166.457304319
 30
0.0
  0
VERTEX
  5
338
  8
52176796
  6
CONTINUOUS
 62
     7
 10
717.6013380506
 20
1166.4464803208
 30
0.0
  0
VERTEX
  5
339
  8
52176796
  6
CONTINUOUS
 62
     7
 10
717.6716066853
 20
1166.4363339961
 30
0.0
  0
VERTEX
  5
33A
  8
52176796
  6
CONTINUOUS
 62
     7
 10
717.7419077579
 20
1166.4268681942
 30
0.0
  0
VERTEX
  5
33B
  8
52176796
  6
CONTINUOUS
 62
     7
 10
717.8122414042
 20
1166.4180857643
 30
0.0
  0
VERTEX
  5
33C
  8
52176796
  6
CONTINUOUS
 62
     7
 10
717.8826077602
 20
1166.4099895555
 30
0.0
  0
VERTEX
  5
33D
  8
52176796
  6
CONTINUOUS
 62
     7
 10
717.9530069615
 20
1166.402582417
 30
0.0
  0
VERTEX
  5
33E
  8
52176796
  6
CONTINUOUS
 62
     7
 10
718.023439144
 20
1166.3958671979
 30
0.0
  0
VERTEX
  5
33F
  8
52176796
  6
CONTINUOUS
 62
     7
 10
718.0939044436
 20
1166.3898467475
 30
0.0
  0
VERTEX
  5
340
  8
52176796
  6
CONTINUOUS
 62
     7
 10
718.164402996
 20
1166.384523915
 30
0.0
  0
VERTEX
  5
341
  8
52176796
  6
CONTINUOUS
 62
     7
 10
718.2349349369
 20
1166.3799015494
 30
0.0
  0
VERTEX
  5
342
  8
52176796
  6
CONTINUOUS
 62
     7
 10
718.3055004024
 20
1166.3759825
 30
0.0
  0
VERTEX
  5
343
  8
52176796
  6
CONTINUOUS
 62
     7
 10
718.3760995281
 20
1166.372769616
 30
0.0
  0
VERTEX
  5
344
  8
52176796
  6
CONTINUOUS
 62
     7
 10
718.4467324498
 20
1166.3702657466
 30
0.0
  0
VERTEX
  5
345
  8
52176796
  6
CONTINUOUS
 62
     7
 10
718.5173993034
 20
1166.3684737408
 30
0.0
  0
VERTEX
  5
346
  8
52176796
  6
CONTINUOUS
 62
     7
 10
718.5881002247
 20
1166.367396448
 30
0.0
  0
VERTEX
  5
347
  8
52176796
  6
CONTINUOUS
 62
     7
 10
718.658835349
 20
1166.3670367172
 30
0.0
  0
SEQEND
  5
348
  8
52176796
  6
CONTINUOUS
 62
     7
  0
POLYLINE
  5
120
  8
52176796
  6
CONTINUOUS
 62
     7
 66
     1
 10
0.0
 20
0.0
 30
0.0
  0
VERTEX
  5
34A
  8
52176796
  6
CONTINUOUS
 62
     7
 10
723.48066073
 20
1176.3670367172
 30
0.0
  0
VERTEX
  5
34B
  8
52176796
  6
CONTINUOUS
 62
     7
 10
722.9670265857
 20
1176.5560098814
 30
0.0
  0
VERTEX
  5
34C
  8
52176796
  6
CONTINUOUS
 62
     7
 10
722.4204123194
 20
1176.7263627452
 30
0.0
  0
VERTEX
  5
34D
  8
52176796
  6
CONTINUOUS
 62
     7
 10
721.8437224391
 20
1176.8755479912
 30
0.0
  0
VERTEX
  5
34E
  8
52176796
  6
CONTINUOUS
 62
     7
 10
721.2406001201
 20
1177.0012128003
 30
0.0
  0
VERTEX
  5
34F
  8
52176796
  6
CONTINUOUS
 62
     7
 10
720.615379114
 20
1177.1012850084
 30
0.0
  0
VERTEX
  5
350
  8
52176796
  6
CONTINUOUS
 62
     7
 10
719.9730001826
 20
1177.1740543781
 30
0.0
  0
VERTEX
  5
351
  8
52176796
  6
CONTINUOUS
 62
     7
 10
719.3188939823
 20
1177.2182433673
 30
0.0
  0
VERTEX
  5
352
  8
52176796
  6
CONTINUOUS
 62
     7
 10
718.6588353495
 20
1177.233062121
 30
0.0
  0
VERTEX
  5
353
  8
52176796
  6
CONTINUOUS
 62
     7
 10
717.9987767166
 20
1177.2182433673
 30
0.0
  0
VERTEX
  5
354
  8
52176796
  6
CONTINUOUS
 62
     7
 10
717.3446705163
 20
1177.1740543781
 30
0.0
  0
VERTEX
  5
355
  8
52176796
  6
CONTINUOUS
 62
     7
 10
716.7022915849
 20
1177.1012850084
 30
0.0
  0
VERTEX
  5
356
  8
52176796
  6
CONTINUOUS
 62
     7
 10
716.0770705788
 20
1177.0012128003
 30
0.0
  0
VERTEX
  5
357
  8
52176796
  6
CONTINUOUS
 62
     7
 10
715.4739482599
 20
1176.8755479912
 30
0.0
  0
VERTEX
  5
358
  8
52176796
  6
CONTINUOUS
 62
     7
 10
714.8972583796
 20
1176.7263627452
 30
0.0
  0
VERTEX
  5
359
  8
52176796
  6
CONTINUOUS
 62
     7
 10
714.3506441132
 20
1176.5560098814
 30
0.0
  0
VERTEX
  5
35A
  8
52176796
  6
CONTINUOUS
 62
     7
 10
713.837009969
 20
1176.3670367172
 30
0.0
  0
SEQEND
  5
349
  8
52176796
  6
CONTINUOUS
 62
     7
  0
LINE
  5
121
  8
52176796
  6
CONTINUOUS
 62
     7
 10
723.48066073
 20
1176.3670367172
 30
0.0
 11
713.837009969
 21
1176.3670367172
 31
0.0
  0
LINE
  5
122
  8
52176796
  6
CONTINUOUS
 62
     7
 10
723.48066073
 20
1167.8670367172
 30
0.0
 11
723.48066073
 21
1176.3670367172
 31
0.0
  0
LINE
  5
123
  8
52176796
  6
CONTINUOUS
 62
     7
 10
713.837009969
 20
1176.3670367172
 30
0.0
 11
713.837009969
 21
1167.8670367172
 31
0.0
  0
ARC
  5
124
  8
52176796
  6
CONTINUOUS
 62
     7
 10
718.6588353495
 20
890.8670367172
 30
0.0
 40
237.2000000000402
 50
134.3729303681
 51
134.9836603063
  0
ARC
  5
125
  8
52176796
  6
CONTINUOUS
 62
     7
 10
718.658835349
 20
890.8670367177
 30
0.0
 40
237.1999999993477
 50
134.9836603063
 51
135.1800722354
  0
ARC
  5
126
  8
52176796
  6
CONTINUOUS
 62
     7
 10
718.6588353434
 20
890.8670367233
 30
0.0
 40
237.1999999914133
 50
135.1800722355
 51
135.3304514272
  0
ARC
  5
127
  8
52176796
  6
CONTINUOUS
 62
     7
 10
718.6588353495
 20
890.8670367172
 30
0.0
 40
237.2000000000402
 50
135.3304514272
 51
136.2890880339
  0
LINE
  5
128
  8
52176796
  6
CONTINUOUS
 62
     7
 10
552.9202075259
 20
1060.2769161433
 30
0.0
 11
552.7787776923
 21
1060.4183459769
 31
0.0
  0
LINE
  5
129
  8
52176796
  6
CONTINUOUS
 62
     7
 10
551.122367301
 20
1058.4991692987
 30
0.0
 11
550.980945939
 21
1058.6405906607
 31
0.0
  0
LINE
  5
12A
  8
52176796
  6
CONTINUOUS
 62
     7
 10
550.5482207561
 20
1057.9233782941
 30
0.0
 11
550.4067987008
 21
1058.0648003494
 31
0.0
  0
LINE
  5
12B
  8
52176796
  6
CONTINUOUS
 62
     7
 10
550.1099731635
 20
1057.4812049498
 30
0.0
 11
549.9685494531
 21
1057.6226286601
 31
0.0
  0
LINE
  5
12C
  8
52176796
  6
CONTINUOUS
 62
     7
 10
547.3436990272
 20
1054.6355442725
 30
0.0
 11
547.2022418396
 21
1054.7770014601
 31
0.0
  0
ARC
  5
12D
  8
52176796
  6
CONTINUOUS
 62
     7
 10
718.6588353495
 20
890.8670367172
 30
0.0
 40
237.2
 50
131.8756648863
 51
132.4830118363
  0
ARC
  5
12E
  8
52176796
  6
CONTINUOUS
 62
     7
 10
718.6588353495
 20
890.8670367172
 30
0.0
 40
237.2
 50
133.0011637675
 51
133.6075870491
  0
ARC
  5
12F
  8
52176796
  6
CONTINUOUS
 62
     7
 10
718.6588353495
 20
890.8670367172
 30
0.0
 40
237.2
 50
132.4830118363
 51
133.0011637675
  0
LINE
  5
130
  8
52176796
  6
CONTINUOUS
 62
     7
 10
555.1997980914
 20
1062.4774767803
 30
0.0
 11
555.0583349281
 21
1062.6189399436
 31
0.0
  0
LINE
  5
131
  8
52176796
  6
CONTINUOUS
 62
     7
 10
557.0268083142
 20
1064.1993413706
 30
0.0
 11
556.885300783
 21
1064.3408489018
 31
0.0
  0
LINE
  5
132
  8
52176796
  6
CONTINUOUS
 62
     7
 10
558.6022556478
 20
1065.6551693069
 30
0.0
 11
558.4606976073
 21
1065.7967273473
 31
0.0
  0
LINE
  5
133
  8
52176796
  6
CONTINUOUS
 62
     7
 10
560.4655855318
 20
1067.3433685925
 30
0.0
 11
560.3239534775
 21
1067.4850006467
 31
0.0
  0
ARC
  5
134
  8
52176796
  6
CONTINUOUS
 62
     7
 10
718.6588353495
 20
890.8670367172
 30
0.0
 40
237.2000000000402
 50
136.3474131767
 51
136.9235865164
  0
ARC
  5
135
  8
52176796
  6
CONTINUOUS
 62
     7
 10
718.6588353495
 20
890.8670367172
 30
0.0
 40
237.2000000000402
 50
136.2890880339
 51
136.3474131767
  0
ARC
  5
136
  8
52176796
  6
CONTINUOUS
 62
     7
 10
718.6588353495
 20
890.8670367172
 30
0.0
 40
237.2000000000402
 50
136.9235865164
 51
137.3484182344
  0
LINE
  5
137
  8
52176796
  6
CONTINUOUS
 62
     7
 10
547.176936474
 20
1054.4609191153
 30
0.0
 11
547.0354759699
 21
1054.6023796194
 31
0.0
  0
LINE
  5
138
  8
52176796
  6
CONTINUOUS
 62
     7
 10
544.3427604504
 20
1051.4376007438
 30
0.0
 11
544.2012201176
 21
1051.5791410766
 31
0.0
  0
LINE
  5
139
  8
52176796
  6
CONTINUOUS
 62
     7
 10
545.5391400084
 20
1052.7267632863
 30
0.0
 11
545.3976388465
 21
1052.8682644483
 31
0.0
  0
LINE
  5
13A
  8
52176796
  6
CONTINUOUS
 62
     7
 10
397.6588353495
 20
897.7156494269
 30
0.0
 11
397.6588353495
 21
897.7170367172
 31
0.0
  0
LINE
  5
13B
  8
52176796
  6
CONTINUOUS
 62
     7
 10
402.6588353495
 20
897.7156494269
 30
0.0
 11
402.6588353495
 21
894.410728853
 31
0.0
  0
LINE
  5
13C
  8
52176796
  6
CONTINUOUS
 62
     7
 10
397.6588353495
 20
894.410728853
 30
0.0
 11
397.6588353495
 21
894.1719572912
 31
0.0
  0
LINE
  5
13D
  8
52176796
  6
CONTINUOUS
 62
     7
 10
402.6588353495
 20
894.1719572912
 30
0.0
 11
402.6588353495
 21
887.5621161433
 31
0.0
  0
LINE
  5
13E
  8
52176796
  6
CONTINUOUS
 62
     7
 10
397.6588353495
 20
887.5621161433
 30
0.0
 11
397.6588353495
 21
887.3233445815
 31
0.0
  0
LINE
  5
13F
  8
52176796
  6
CONTINUOUS
 62
     7
 10
402.6588353495
 20
887.3233445815
 30
0.0
 11
402.6588353495
 21
884.0184240076
 31
0.0
  0
LINE
  5
140
  8
52176796
  6
CONTINUOUS
 62
     7
 10
397.6588353495
 20
884.0170367172
 30
0.0
 11
397.6588353495
 21
884.0184240076
 31
0.0
  0
LINE
  5
141
  8
52176796
  6
CONTINUOUS
 62
     7
 10
394.6588353495
 20
897.6170367172
 30
0.0
 11
394.6588353495
 21
884.1170367172
 31
0.0
  0
LINE
  5
142
  8
52176796
  6
CONTINUOUS
 62
     7
 10
393.6588353495
 20
897.6170367172
 30
0.0
 11
393.6588353495
 21
884.1170367172
 31
0.0
  0
LINE
  5
143
  8
52176796
  6
CONTINUOUS
 62
     7
 10
392.1588353495
 20
896.8670367172
 30
0.0
 11
392.1588353495
 21
884.8670367172
 31
0.0
  0
LINE
  5
144
  8
52176796
  6
CONTINUOUS
 62
     7
 10
391.2588353495
 20
897.7670367172
 30
0.0
 11
391.2588353495
 21
883.9670367172
 31
0.0
  0
LINE
  5
145
  8
52176796
  6
CONTINUOUS
 62
     7
 10
385.6588353495
 20
897.7670367172
 30
0.0
 11
385.6588353495
 21
883.9670367172
 31
0.0
  0
LINE
  5
146
  8
52176796
  6
CONTINUOUS
 62
     7
 10
402.6588353495
 20
894.1719572912
 30
0.0
 11
397.6588353495
 21
894.1719572912
 31
0.0
  0
LINE
  5
147
  8
52176796
  6
CONTINUOUS
 62
     7
 10
397.6588353495
 20
894.1719572912
 30
0.0
 11
397.6588353495
 21
887.5621161433
 31
0.0
  0
LINE
  5
148
  8
52176796
  6
CONTINUOUS
 62
     7
 10
397.6588353495
 20
887.5621161433
 30
0.0
 11
402.6588353495
 21
887.5621161433
 31
0.0
  0
LINE
  5
149
  8
52176796
  6
CONTINUOUS
 62
     7
 10
402.6588353495
 20
897.7156494269
 30
0.0
 11
397.6588353495
 21
897.7156494269
 31
0.0
  0
LINE
  5
14A
  8
52176796
  6
CONTINUOUS
 62
     7
 10
397.6588353495
 20
897.7156494269
 30
0.0
 11
397.6588353495
 21
894.410728853
 31
0.0
  0
LINE
  5
14B
  8
52176796
  6
CONTINUOUS
 62
     7
 10
397.6588353495
 20
894.410728853
 30
0.0
 11
402.6588353495
 21
894.410728853
 31
0.0
  0
LINE
  5
14C
  8
52176796
  6
CONTINUOUS
 62
     7
 10
402.6588353495
 20
887.3233445815
 30
0.0
 11
397.6588353495
 21
887.3233445815
 31
0.0
  0
LINE
  5
14D
  8
52176796
  6
CONTINUOUS
 62
     7
 10
397.6588353495
 20
887.3233445815
 30
0.0
 11
397.6588353495
 21
884.0184240076
 31
0.0
  0
LINE
  5
14E
  8
52176796
  6
CONTINUOUS
 62
     7
 10
397.6588353495
 20
884.0184240076
 30
0.0
 11
402.6588353495
 21
884.0184240076
 31
0.0
  0
LINE
  5
14F
  8
52176796
  6
CONTINUOUS
 62
     7
 10
725.5074480592
 20
1211.8670367172
 30
0.0
 11
725.5088353495
 21
1211.8670367172
 31
0.0
  0
LINE
  5
150
  8
52176796
  6
CONTINUOUS
 62
     7
 10
725.5074480592
 20
1206.8670367172
 30
0.0
 11
722.2025274852
 21
1206.8670367172
 31
0.0
  0
LINE
  5
151
  8
52176796
  6
CONTINUOUS
 62
     7
 10
722.2025274852
 20
1211.8670367172
 30
0.0
 11
721.9637559234
 21
1211.8670367172
 31
0.0
  0
LINE
  5
152
  8
52176796
  6
CONTINUOUS
 62
     7
 10
721.9637559234
 20
1206.8670367172
 30
0.0
 11
715.3539147756
 21
1206.8670367172
 31
0.0
  0
LINE
  5
153
  8
52176796
  6
CONTINUOUS
 62
     7
 10
715.3539147756
 20
1211.8670367172
 30
0.0
 11
715.1151432137
 21
1211.8670367172
 31
0.0
  0
LINE
  5
154
  8
52176796
  6
CONTINUOUS
 62
     7
 10
715.1151432137
 20
1206.8670367172
 30
0.0
 11
711.8102226398
 21
1206.8670367172
 31
0.0
  0
LINE
  5
155
  8
52176796
  6
CONTINUOUS
 62
     7
 10
711.8088353495
 20
1211.8670367172
 30
0.0
 11
711.8102226398
 21
1211.8670367172
 31
0.0
  0
LINE
  5
156
  8
52176796
  6
CONTINUOUS
 62
     7
 10
711.9088353495
 20
1214.8670367172
 30
0.0
 11
725.4088353495
 21
1214.8670367172
 31
0.0
  0
LINE
  5
157
  8
52176796
  6
CONTINUOUS
 62
     7
 10
711.9088353495
 20
1215.8670367172
 30
0.0
 11
725.4088353495
 21
1215.8670367172
 31
0.0
  0
LINE
  5
158
  8
52176796
  6
CONTINUOUS
 62
     7
 10
712.6588353495
 20
1217.3670367172
 30
0.0
 11
724.6588353495
 21
1217.3670367172
 31
0.0
  0
LINE
  5
159
  8
52176796
  6
CONTINUOUS
 62
     7
 10
711.7588353495
 20
1218.2670367172
 30
0.0
 11
725.5588353495
 21
1218.2670367172
 31
0.0
  0
LINE
  5
15A
  8
52176796
  6
CONTINUOUS
 62
     7
 10
711.7588353495
 20
1223.8670367172
 30
0.0
 11
725.5588353495
 21
1223.8670367172
 31
0.0
  0
LINE
  5
15B
  8
52176796
  6
CONTINUOUS
 62
     7
 10
721.9637559234
 20
1206.8670367172
 30
0.0
 11
721.9637559234
 21
1211.8670367172
 31
0.0
  0
LINE
  5
15C
  8
52176796
  6
CONTINUOUS
 62
     7
 10
721.9637559234
 20
1211.8670367172
 30
0.0
 11
715.3539147756
 21
1211.8670367172
 31
0.0
  0
LINE
  5
15D
  8
52176796
  6
CONTINUOUS
 62
     7
 10
715.3539147756
 20
1211.8670367172
 30
0.0
 11
715.3539147756
 21
1206.8670367172
 31
0.0
  0
LINE
  5
15E
  8
52176796
  6
CONTINUOUS
 62
     7
 10
725.5074480592
 20
1206.8670367172
 30
0.0
 11
725.5074480592
 21
1211.8670367172
 31
0.0
  0
LINE
  5
15F
  8
52176796
  6
CONTINUOUS
 62
     7
 10
725.5074480592
 20
1211.8670367172
 30
0.0
 11
722.2025274852
 21
1211.8670367172
 31
0.0
  0
LINE
  5
160
  8
52176796
  6
CONTINUOUS
 62
     7
 10
722.2025274852
 20
1211.8670367172
 30
0.0
 11
722.2025274852
 21
1206.8670367172
 31
0.0
  0
LINE
  5
161
  8
52176796
  6
CONTINUOUS
 62
     7
 10
715.1151432137
 20
1206.8670367172
 30
0.0
 11
715.1151432137
 21
1211.8670367172
 31
0.0
  0
LINE
  5
162
  8
52176796
  6
CONTINUOUS
 62
     7
 10
715.1151432137
 20
1211.8670367172
 30
0.0
 11
711.8102226398
 21
1211.8670367172
 31
0.0
  0
LINE
  5
163
  8
52176796
  6
CONTINUOUS
 62
     7
 10
711.8102226398
 20
1211.8670367172
 30
0.0
 11
711.8102226398
 21
1206.8670367172
 31
0.0
  0
LINE
  5
164
  8
52176796
  6
CONTINUOUS
 62
     7
 10
481.7619284263
 20
897.8670367172
 30
0.0
 11
443.1588353495
 21
897.8670367172
 31
0.0
  0
LINE
  5
165
  8
52176796
  6
CONTINUOUS
 62
     7
 10
443.1588353495
 20
883.8670367172
 30
0.0
 11
481.7622083041
 21
883.8670367172
 31
0.0
  0
LINE
  5
166
  8
52176796
  6
CONTINUOUS
 62
     7
 10
441.6588353495
 20
899.3670367172
 30
0.0
 11
418.6588353495
 21
899.3670367172
 31
0.0
  0
LINE
  5
167
  8
52176796
  6
CONTINUOUS
 62
     7
 10
418.6588353495
 20
882.3670367172
 30
0.0
 11
441.6588353495
 21
882.3670367172
 31
0.0
  0
LINE
  5
168
  8
52176796
  6
CONTINUOUS
 62
     7
 10
443.1588353495
 20
897.8670367172
 30
0.0
 11
441.6588353495
 21
899.3670367172
 31
0.0
  0
LINE
  5
169
  8
52176796
  6
CONTINUOUS
 62
     7
 10
441.6588353495
 20
882.3670367172
 30
0.0
 11
443.1588353495
 21
883.8670367172
 31
0.0
  0
LINE
  5
16A
  8
52176796
  6
CONTINUOUS
 62
     7
 10
725.6588353495
 20
1127.7643109561
 30
0.0
 11
725.6588353495
 21
1166.3670367172
 31
0.0
  0
LINE
  5
16B
  8
52176796
  6
CONTINUOUS
 62
     7
 10
711.6588353495
 20
1166.3670367172
 30
0.0
 11
711.6588353495
 21
1127.7636891435
 31
0.0
  0
LINE
  5
16C
  8
52176796
  6
CONTINUOUS
 62
     7
 10
727.1588353495
 20
1167.8670367172
 30
0.0
 11
727.1588353495
 21
1190.8670367172
 31
0.0
  0
LINE
  5
16D
  8
52176796
  6
CONTINUOUS
 62
     7
 10
710.1588353495
 20
1190.8670367172
 30
0.0
 11
710.1588353495
 21
1167.8670367172
 31
0.0
  0
LINE
  5
16E
  8
52176796
  6
CONTINUOUS
 62
     7
 10
725.6588353495
 20
1166.3670367172
 30
0.0
 11
727.1588353495
 21
1167.8670367172
 31
0.0
  0
LINE
  5
16F
  8
52176796
  6
CONTINUOUS
 62
     7
 10
710.1588353495
 20
1167.8670367172
 30
0.0
 11
711.6588353495
 21
1166.3670367172
 31
0.0
  0
LINE
  5
170
  8
52176796
  6
CONTINUOUS
 62
     7
 10
418.6588353495
 20
897.7170367172
 30
0.0
 11
397.6588353495
 21
897.7170367172
 31
0.0
  0
LINE
  5
171
  8
52176796
  6
CONTINUOUS
 62
     7
 10
397.6588353495
 20
884.0170367172
 30
0.0
 11
418.6588353495
 21
884.0170367172
 31
0.0
  0
LINE
  5
172
  8
52176796
  6
CONTINUOUS
 62
     7
 10
397.6588353495
 20
894.8670367172
 30
0.0
 11
394.6588353495
 21
894.8670367172
 31
0.0
  0
LINE
  5
173
  8
52176796
  6
CONTINUOUS
 62
     7
 10
394.6588353495
 20
886.8670367172
 30
0.0
 11
397.6588353495
 21
886.8670367172
 31
0.0
  0
LINE
  5
174
  8
52176796
  6
CONTINUOUS
 62
     7
 10
394.6588353495
 20
897.6170367172
 30
0.0
 11
393.6588353495
 21
897.6170367172
 31
0.0
  0
LINE
  5
175
  8
52176796
  6
CONTINUOUS
 62
     7
 10
393.6588353495
 20
884.1170367172
 30
0.0
 11
394.6588353495
 21
884.1170367172
 31
0.0
  0
LINE
  5
176
  8
52176796
  6
CONTINUOUS
 62
     7
 10
393.6588353495
 20
896.8670367172
 30
0.0
 11
392.1588353495
 21
896.8670367172
 31
0.0
  0
LINE
  5
177
  8
52176796
  6
CONTINUOUS
 62
     7
 10
392.1588353495
 20
884.8670367172
 30
0.0
 11
393.6588353495
 21
884.8670367172
 31
0.0
  0
LINE
  5
178
  8
52176796
  6
CONTINUOUS
 62
     7
 10
391.2588353495
 20
883.9670367172
 30
0.0
 11
392.1588353495
 21
884.8670367172
 31
0.0
  0
LINE
  5
179
  8
52176796
  6
CONTINUOUS
 62
     7
 10
392.1588353495
 20
896.8670367172
 30
0.0
 11
391.2588353495
 21
897.7670367172
 31
0.0
  0
LINE
  5
17A
  8
52176796
  6
CONTINUOUS
 62
     7
 10
391.2588353495
 20
897.7670367172
 30
0.0
 11
385.6588353495
 21
897.7670367172
 31
0.0
  0
LINE
  5
17B
  8
52176796
  6
CONTINUOUS
 62
     7
 10
385.6588353495
 20
883.9670367172
 30
0.0
 11
391.2588353495
 21
883.9670367172
 31
0.0
  0
LINE
  5
17C
  8
52176796
  6
CONTINUOUS
 62
     7
 10
725.5088353495
 20
1190.8670367172
 30
0.0
 11
725.5088353495
 21
1211.8670367172
 31
0.0
  0
LINE
  5
17D
  8
52176796
  6
CONTINUOUS
 62
     7
 10
711.8088353495
 20
1211.8670367172
 30
0.0
 11
711.8088353495
 21
1190.8670367172
 31
0.0
  0
LINE
  5
17E
  8
52176796
  6
CONTINUOUS
 62
     7
 10
722.6588353495
 20
1211.8670367172
 30
0.0
 11
722.6588353495
 21
1214.8670367172
 31
0.0
  0
LINE
  5
17F
  8
52176796
  6
CONTINUOUS
 62
     7
 10
714.6588353495
 20
1214.8670367172
 30
0.0
 11
714.6588353495
 21
1211.8670367172
 31
0.0
  0
LINE
  5
180
  8
52176796
  6
CONTINUOUS
 62
     7
 10
725.4088353495
 20
1214.8670367172
 30
0.0
 11
725.4088353495
 21
1215.8670367172
 31
0.0
  0
LINE
  5
181
  8
52176796
  6
CONTINUOUS
 62
     7
 10
711.9088353495
 20
1215.8670367172
 30
0.0
 11
711.9088353495
 21
1214.8670367172
 31
0.0
  0
LINE
  5
182
  8
52176796
  6
CONTINUOUS
 62
     7
 10
724.6588353495
 20
1215.8670367172
 30
0.0
 11
724.6588353495
 21
1217.3670367172
 31
0.0
  0
LINE
  5
183
  8
52176796
  6
CONTINUOUS
 62
     7
 10
712.6588353495
 20
1217.3670367172
 30
0.0
 11
712.6588353495
 21
1215.8670367172
 31
0.0
  0
LINE
  5
184
  8
52176796
  6
CONTINUOUS
 62
     7
 10
711.7588353495
 20
1218.2670367172
 30
0.0
 11
712.6588353495
 21
1217.3670367172
 31
0.0
  0
LINE
  5
185
  8
52176796
  6
CONTINUOUS
 62
     7
 10
724.6588353495
 20
1217.3670367172
 30
0.0
 11
725.5588353495
 21
1218.2670367172
 31
0.0
  0
LINE
  5
186
  8
52176796
  6
CONTINUOUS
 62
     7
 10
725.5588353495
 20
1218.2670367172
 30
0.0
 11
725.5588353495
 21
1223.8670367172
 31
0.0
  0
LINE
  5
187
  8
52176796
  6
CONTINUOUS
 62
     7
 10
711.7588353495
 20
1223.8670367172
 30
0.0
 11
711.7588353495
 21
1218.2670367172
 31
0.0
  0
ENDBLK
  5
18C
  8
0
  0
ENDSEC
  0
SECTION
  2
ENTITIES
  0
INSERT
  5
2C
  8
DEFAULT
  2
SE
 10
0.0
 20
0.0
 30
0.0
  0
INSERT
  5
96
  8
DEFAULT
  2
SE1
 10
0.0
 20
0.0
 30
0.0
  0
INSERT
  5
D0
  8
DEFAULT
  2
SE2
 10
0.0
 20
0.0
 30
0.0
  0
INSERT
  5
10A
  8
DEFAULT
  2
SE3
 10
0.0
 20
0.0
 30
0.0
  0
ENDSEC
  0
EOF
