  0
SECTION
  2
HEADER
  9
$ACADVER
  1
AC1015
  9
$ACADMAINTVER
 70
         6
  9
$DWGCODEPAGE
  3
ANSI_1252
  9
$INSBASE
 10
0.0
 20
0.0
 30
0.0
  9
$EXTMIN
 10
0.0
 20
0.0
 30
0.0
  9
$EXTMAX
 10
841.0
 20
594.0
 30
0.0
  9
$LIMMIN
 10
0.0
 20
0.0
  9
$LIMMAX
 10
841.0
 20
594.0
  9
$ORTHOMODE
 70
         0
  9
$REGENMODE
 70
         1
  9
$FILLMODE
 70
         1
  9
$QTEXTMODE
 70
         0
  9
$MIRRTEXT
 70
         1
  9
$LTSCALE
 40
25.4
  9
$ATTMODE
 70
         1
  9
$TEXTSIZE
 40
0.2
  9
$TRACEWID
 40
0.05
  9
$TEXTSTYLE
  7
Standard
  9
$CLAYER
  8
0
  9
$CELTYPE
  6
CONTINUOUS
  9
$CECOLOR
 62
       256
  9
$CELTSCALE
 40
1.0
  9
$DISPSILH
 70
         0
  9
$DIMSCALE
 40
1.0
  9
$DIMASZ
 40
0.18
  9
$DIMEXO
 40
0.0625
  9
$DIMDLI
 40
0.38
  9
$DIMRND
 40
0.0
  9
$DIMDLE
 40
0.0
  9
$DIMEXE
 40
0.18
  9
$DIMTP
 40
0.0
  9
$DIMTM
 40
0.0
  9
$DIMTXT
 40
0.18
  9
$DIMCEN
 40
0.09
  9
$DIMTSZ
 40
0.0
  9
$DIMTOL
 70
         0
  9
$DIMLIM
 70
         0
  9
$DIMTIH
 70
         1
  9
$DIMTOH
 70
         1
  9
$DIMSE1
 70
         0
  9
$DIMSE2
 70
         0
  9
$DIMTAD
 70
         0
  9
$DIMZIN
 70
         0
  9
$DIMBLK
  1

  9
$DIMASO
 70
         1
  9
$DIMSHO
 70
         1
  9
$DIMPOST
  1

  9
$DIMAPOST
  1

  9
$DIMALT
 70
         0
  9
$DIMALTD
 70
         2
  9
$DIMALTF
 40
25.4
  9
$DIMLFAC
 40
1.0
  9
$DIMTOFL
 70
         0
  9
$DIMTVP
 40
0.0
  9
$DIMTIX
 70
         0
  9
$DIMSOXD
 70
         0
  9
$DIMSAH
 70
         0
  9
$DIMBLK1
  1

  9
$DIMBLK2
  1

  9
$DIMSTYLE
  2
Standard
  9
$DIMCLRD
 70
         0
  9
$DIMCLRE
 70
         0
  9
$DIMCLRT
 70
         0
  9
$DIMTFAC
 40
1.0
  9
$DIMGAP
 40
0.09
  9
$DIMJUST
 70
         0
  9
$DIMSD1
 70
         0
  9
$DIMSD2
 70
         0
  9
$DIMTOLJ
 70
         1
  9
$DIMTZIN
 70
         0
  9
$DIMALTZ
 70
         0
  9
$DIMALTTZ
 70
         0
  9
$DIMUPT
 70
         0
  9
$DIMDEC
 70
         4
  9
$DIMTDEC
 70
         4
  9
$DIMALTU
 70
         2
  9
$DIMALTTD
 70
         2
  9
$DIMTXSTY
  7
Standard
  9
$DIMAUNIT
 70
         0
  9
$DIMADEC
 70
         0
  9
$DIMALTRND
 40
0.0
  9
$DIMAZIN
 70
         0
  9
$DIMDSEP
 70
         0
  9
$DIMATFIT
 70
         3
  9
$DIMFRAC
 70
         0
  9
$DIMLDRBLK
  1

  9
$DIMLUNIT
 70
         2
  9
$DIMLWD
 70
         0
  9
$DIMLWE
 70
         0
  9
$DIMTMOVE
 70
         0
  9
$LUNITS
 70
         2
  9
$LUPREC
 70
         4
  9
$SKETCHINC
 40
0.1
  9
$FILLETRAD
 40
0.0
  9
$AUNITS
 70
         0
  9
$AUPREC
 70
         0
  9
$MENU
  1
acad
  9
$ELEVATION
 40
0.0
  9
$PELEVATION
 40
0.0
  9
$THICKNESS
 40
0.0
  9
$LIMCHECK
 70
         0
  9
$CHAMFERA
 40
0.0
  9
$CHAMFERB
 40
0.0
  9
$CHAMFERC
 40
0.0
  9
$CHAMFERD
 40
0.0
  9
$SKPOLY
 70
         0
  9
$TDCREATE
 40
0.000000000
  9
$TDUCREATE
 40
0.000000000
  9
$TDUPDATE
 40
0.000000000
  9
$TDUUPDATE
 40
0.000000000
  9
$TDINDWG
 40
0.0000000000
  9
$TDUSRTIMER
 40
0.0000000000
  9
$USRTIMER
 70
         1
  9
$ANGBASE
 50
0.0
  9
$ANGDIR
 70
         0
  9
$PDMODE
 70
         0
  9
$PDSIZE
 40
0.0
  9
$PLINEWID
 40
0.0
  9
$SPLFRAME
 70
         0
  9
$SPLINETYPE
 70
         6
  9
$SPLINESEGS
 70
         8
  9
$HANDSEED
  5
1B8
  9
$SURFTAB1
 70
         6
  9
$SURFTAB2
 70
         6
  9
$SURFTYPE
 70
         6
  9
$SURFU
 70
         6
  9
$SURFV
 70
         6
  9
$UCSBASE
  2

  9
$UCSNAME
  2

  9
$UCSORG
 10
0.0
 20
0.0
 30
0.0
  9
$UCSXDIR
 10
1.0
 20
0.0
 30
0.0
  9
$UCSYDIR
 10
0.0
 20
1.0
 30
0.0
  9
$UCSORTHOREF
  2

  9
$UCSORTHOVIEW
 70
         0
  9
$UCSORGTOP
 10
0.0
 20
0.0
 30
0.0
  9
$UCSORGBOTTOM
 10
0.0
 20
0.0
 30
0.0
  9
$UCSORGLEFT
 10
0.0
 20
0.0
 30
0.0
  9
$UCSORGRIGHT
 10
0.0
 20
0.0
 30
0.0
  9
$UCSORGFRONT
 10
0.0
 20
0.0
 30
0.0
  9
$UCSORGBACK
 10
0.0
 20
0.0
 30
0.0
  9
$PUCSBASE
  2

  9
$PUCSNAME
  2

  9
$PUCSORG
 10
0.0
 20
0.0
 30
0.0
  9
$PUCSXDIR
 10
1.0
 20
0.0
 30
0.0
  9
$PUCSYDIR
 10
0.0
 20
1.0
 30
0.0
  9
$PUCSORTHOREF
  2

  9
$PUCSORTHOVIEW
 70
         0
  9
$PUCSORGTOP
 10
0.0
 20
0.0
 30
0.0
  9
$PUCSORGBOTTOM
 10
0.0
 20
0.0
 30
0.0
  9
$PUCSORGLEFT
 10
0.0
 20
0.0
 30
0.0
  9
$PUCSORGRIGHT
 10
0.0
 20
0.0
 30
0.0
  9
$PUCSORGFRONT
 10
0.0
 20
0.0
 30
0.0
  9
$PUCSORGBACK
 10
0.0
 20
0.0
 30
0.0
  9
$USERI1
 70
         0
  9
$USERI2
 70
         0
  9
$USERI3
 70
         0
  9
$USERI4
 70
         0
  9
$USERI5
 70
         0
  9
$USERR1
 40
0.0
  9
$USERR2
 40
0.0
  9
$USERR3
 40
0.0
  9
$USERR4
 40
0.0
  9
$USERR5
 40
0.0
  9
$WORLDVIEW
 70
         1
  9
$SHADEDGE
 70
         3
  9
$SHADEDIF
 70
        70
  9
$TILEMODE
 70
         1
  9
$MAXACTVP
 70
        16
  9
$PINSBASE
 10
0.0
 20
0.0
 30
0.0
  9
$PLIMCHECK
 70
         0
  9
$PEXTMIN
 10
1.0000000000E+20
 20
1.0000000000E+20
 30
1.0000000000E+20
  9
$PEXTMAX
 10
-1.0000000000E+20
 20
-1.0000000000E+20
 30
-1.0000000000E+20
  9
$PLIMMIN
 10
0.0
 20
0.0
  9
$PLIMMAX
 10
12.0
 20
9.0
  9
$UNITMODE
 70
         0
  9
$VISRETAIN
 70
         0
  9
$PLINEGEN
 70
         1
  9
$PSLTSCALE
 70
         0
  9
$TREEDEPTH
 70
      3020
  9
$CMLSTYLE
  2
Standard
  9
$CMLJUST
 70
         0
  9
$CMLSCALE
 40
1.0
  9
$PROXYGRAPHICS
 70
         0
  9
$MEASUREMENT
 70
         0
  9
$CELWEIGHT
370
         0
  9
$ENDCAPS
280
         0
  9
$JOINSTYLE
280
         0
  9
$LWDISPLAY
290
         0
  9
$INSUNITS
 70
         0
  9
$HYPERLINKBASE
  1

  9
$STYLESHEET
  1

  9
$XEDIT
290
         1
  9
$CEPSNTYPE
380
         0
  9
$PSTYLEMODE
290
         1
  9
$FINGERPRINTGUID
  2

  9
$VERSIONGUID
  2

  9
$EXTNAMES
290
         1
  9
$PSVPSCALE
 40
0.0
  0
ENDSEC
  0
SECTION
  2
CLASSES
  0
CLASS
  1
LWPOLYLINE
  2
AcDbPolyline
  3
AutoCAD 2000
 90
        0
280
         0
281
         1
  0
CLASS
  1
IMAGE
  2
AcDbRasterImage
  3
ISM
 90
      127
280
         0
281
         1
  0
CLASS
  1
OLE2FRAME
  2
AcDbOle2Frame
  3
AutoCAD 2000
 90
        0
280
         0
281
         1
  0
CLASS
  1
HATCH
  2
AcDbHatch
  3
AutoCAD 2000
 90
        0
280
         0
281
         1
  0
CLASS
  1
DICTIONARYVAR
  2
AcDbDictionaryVar
  3
AutoCAD 2000
 90
        0
280
         0
281
         0
  0
CLASS
  1
RASTERVARIABLES
  2
AcDbRasterVariables
  3
ISM
 90
        0
280
         0
281
         0
  0
CLASS
  1
IMAGEDEF
  2
AcDbRasterImageDef
  3
ISM
 90
        0
280
         0
281
         0
  0
CLASS
  1
IMAGEDEF_REACTOR
  2
AcDbRasterImageDefReactor
  3
ISM
 90
        1
280
         0
281
         0
  0
CLASS
  1
IDBUFFER
  2
AcDbIdBuffer
  3
AutoCAD 2000
 90
        0
280
         0
281
         0
  0
CLASS
  1
SPATIAL_FILTER
  2
AcDbSpatialFilter
  3
AutoCAD 2000
 90
        0
280
         0
281
         0
  0
CLASS
  1
XRECORD
  2
AcDbXrecord
  3
AutoCAD 2000
 90
        0
280
         0
281
         0
  0
CLASS
  1
SORTENTSTABLE
  2
AcDbSortentsTable
  3
AutoCAD 2000
 90
        0
280
         0
281
         0
  0
CLASS
  1
LAYER_INDEX
  2
AcDbLayerIndex
  3
AutoCAD 2000
 90
        0
280
         0
281
         0
  0
CLASS
  1
SPATIAL_INDEX
  2
AcDbSpatialIndex
  3
AutoCAD 2000
 90
        0
280
         0
281
         0
  0
CLASS
  1
OBJECT_PTR
  2
CAseDLPNTableRecord
  3
"ASE-LPNTableRecord"
 90
        1
280
         0
281
         0
  0
CLASS
  1
LAYOUT
  2
AcDbLayout
  3
AutoCAD 2000
 90
        0
280
         0
281
         0
  0
CLASS
  1
PLOTSETTINGS
  2
AcDbPlotSettings
  3
AutoCAD 2000
 90
        0
280
         0
281
         0
  0
CLASS
  1
ACDBDICTIONARYWDFLT
  2
AcDbDictionaryWithDefault
  3
AutoCAD 2000
 90
        0
280
         0
281
         0
  0
CLASS
  1
ACDBPLACEHOLDER
  2
AcDbPlaceHolder
  3
AutoCAD 2000
 90
        0
280
         0
281
         0
  0
CLASS
  1
VBA_PROJECT
  2
AcDbVbaProject
  3
acadvba
 90
        0
280
         0
281
         0
  0
CLASS
  1
WIPEOUT
  2
AcDbWipeout
  3
WipeOut|AutoCAD Express Tool|expresstools@autodesk.com
 90
      127
280
         0
281
         1
  0
CLASS
  1
WIPEOUTVARIABLES
  2
AcDbWipeoutVariables
  3
WipeOut|AutoCAD Express Tool|expresstools@autodesk.com
 90
        0
280
         0
281
         0
  0
CLASS
  1
RTEXT
  2
RText
  3
RText|AutoCAD Express Tool|expresstools@autodesk.com
 90
        0
280
         0
281
         1
  0
CLASS
  1
ARCALIGNEDTEXT
  2
AcDbArcAlignedText
  3
ATEXT|AutoCAD Express Tool|expresstools@autodesk.com
 90
        0
280
         0
281
         1
  0
ENDSEC
  0
SECTION
  2
TABLES
  0
TABLE
  2
VPORT
  5
7
100
AcDbSymbolTable
 70
         1
  0
VPORT
  5
15
100
AcDbSymbolTableRecord
100
AcDbViewportTableRecord
  2
*ACTIVE
 70
         0
 10
0.0
 20
0.0
 11
1.0
 21
1.0
 12
420.5
 22
297.0
 13
0.0
 23
0.0
 14
1.0
 24
1.0
 15
0.0
 25
0.0
 16
0.0
 26
0.0
 36
1.0
 17
0.0
 27
0.0
 37
0.0
 40
594.0
 41
1.604229
 42
50.0
 43
0.0
 44
0.0
 50
0.0
 51
0.0
 71
         0
 72
       100
 73
         1
 74
         1
 75
         0
 76
         0
 77
         0
 78
         0
281
         0
 65
         0
110
0.0
120
0.0
130
0.0
111
1.0
121
0.0
131
0.0
112
0.0
122
1.0
132
0.0
345
0
346
0
 79
         0
146
0.0
  0
ENDTAB
  0
TABLE
  2
LTYPE
  5
4
100
AcDbSymbolTable
 70
         7
  0
LTYPE
  5
11
100
AcDbSymbolTableRecord
100
AcDbLinetypeTableRecord
  2
ByBlock
 70
        64
  3

 72
        65
 73
         0
 40
0.0
  0
LTYPE
  5
12
100
AcDbSymbolTableRecord
100
AcDbLinetypeTableRecord
  2
ByLayer
 70
        64
  3

 72
        65
 73
         0
 40
0.0
  0
LTYPE
  5
13
100
AcDbSymbolTableRecord
100
AcDbLinetypeTableRecord
  2
CONTINUOUS
 70
         0
  3
Solid line
 72
        65
 73
         0
 40
0.0
  0
LTYPE
  5
28
100
AcDbSymbolTableRecord
100
AcDbLinetypeTableRecord
  2
HIDDEN2
 70
        64
  3
_ _ _ _ _ _ _ _ _ _ _ _ _ _ _ _ _ _ _ _ _ _ _ _
 72
        65
 73
         2
 40
0.1875
 49
0.125
 74
         0
 49
-0.0625
 74
         0
  0
LTYPE
  5
29
100
AcDbSymbolTableRecord
100
AcDbLinetypeTableRecord
  2
CENTER2
 70
        64
  3
___ _ ___ _ ___ _ ___ _ ___ _ ___ _ ___ _ ___ _
 72
        65
 73
         4
 40
1.125
 49
0.75
 74
         0
 49
-0.125
 74
         0
 49
0.125
 74
         0
 49
-0.125
 74
         0
  0
LTYPE
  5
2A
100
AcDbSymbolTableRecord
100
AcDbLinetypeTableRecord
  2
PHANTOM2
 70
        64
  3
___ _ _ ___ _ _ ___ _ _ ___ _ _ ___ _ _ ___ _ _
 72
        65
 73
         6
 40
1.25
 49
0.625
 74
         0
 49
-0.125
 74
         0
 49
0.125
 74
         0
 49
-0.125
 74
         0
 49
0.125
 74
         0
 49
-0.125
 74
         0
  0
LTYPE
  5
2B
100
AcDbSymbolTableRecord
100
AcDbLinetypeTableRecord
  2
DOT2
 70
        64
  3
...............................................
 72
        65
 73
         2
 40
0.125
 49
0.0
 74
         0
 49
-0.125
 74
         0
  0
ENDTAB
  0
TABLE
  2
LAYER
  5
2
100
AcDbSymbolTable
 70
         5
  0
LAYER
  5
14
100
AcDbSymbolTableRecord
100
AcDbLayerTableRecord
  2
0
 70
         0
 62
         7
  6
CONTINUOUS
290
         1
370
        -3
390
1D
  0
LAYER
  5
2D
100
AcDbSymbolTableRecord
100
AcDbLayerTableRecord
  2
DEFAULT
 70
         0
 62
         7
  6
CONTINUOUS
290
         1
370
        -3
390
0
  0
LAYER
  5
2F
100
AcDbSymbolTableRecord
100
AcDbLayerTableRecord
  2
04
 70
         0
 62
         7
  6
CONTINUOUS
290
         1
370
        -3
390
0
  0
LAYER
  5
31
100
AcDbSymbolTableRecord
100
AcDbLayerTableRecord
  2
20
 70
         0
 62
         7
  6
CONTINUOUS
290
         1
370
        -3
390
0
  0
LAYER
  5
44
100
AcDbSymbolTableRecord
100
AcDbLayerTableRecord
  2
52176995
 70
         0
 62
         7
  6
CONTINUOUS
290
         1
370
        -3
390
0
  0
ENDTAB
  0
TABLE
  2
STYLE
  5
3
100
AcDbSymbolTable
 70
         1
  0
STYLE
  5
17
100
AcDbSymbolTableRecord
100
AcDbTextStyleTableRecord
  2
Standard
 70
         0
 40
0.0
 41
1.0
 50
0.0
 71
         0
 42
0.2
  3
txt
  4

  0
ENDTAB
  0
TABLE
  2
VIEW
  5
5
100
AcDbSymbolTable
 70
         0
  0
ENDTAB
  0
TABLE
  2
UCS
  5
6
100
AcDbSymbolTable
 70
         0
  0
ENDTAB
  0
TABLE
  2
APPID
  5
8
100
AcDbSymbolTable
 70
         1
  0
APPID
  5
16
100
AcDbSymbolTableRecord
100
AcDbRegAppTableRecord
  2
ACAD
 70
         0
  0
ENDTAB
  0
TABLE
  2
DIMSTYLE
  5
9
100
AcDbSymbolTable
 70
         1
100
AcDbDimStyleTable
 71
         0
  0
DIMSTYLE
105
18
100
AcDbSymbolTableRecord
100
AcDbDimStyleTableRecord
  2
Standard
 70
         0
  3

  4

 40
1.0
 41
0.18
 42
0.0625
 43
0.38
 44
0.18
 45
0.0
 46
0.0
 47
0.0
 48
0.0
 71
         0
 72
         0
 73
         1
 74
         1
 75
         0
 76
         0
 77
         0
 78
         0
 79
         0
140
0.18
141
0.09
142
0.0
143
25.4
144
1.0
145
0.0
146
1.0
147
0.09
148
0.0
170
         0
171
         2
172
         0
173
         0
174
         0
175
         0
176
         0
177
         0
178
         0
179
         0
271
         4
272
         4
273
         2
274
         2
275
         0
276
         0
277
         2
278
        46
279
         0
280
         0
281
         0
282
         0
283
         1
284
         0
285
         0
286
         0
288
         0
289
         0
340
17
341
0
342
0
343
0
344
0
371
        -2
372
        -2
  0
ENDTAB
  0
TABLE
  2
BLOCK_RECORD
  5
1
100
AcDbSymbolTable
 70
         8
  0
BLOCK_RECORD
  5
A
100
AcDbSymbolTableRecord
100
AcDbBlockTableRecord
  2
*MODEL_SPACE
340
20
  0
BLOCK_RECORD
  5
B
100
AcDbSymbolTableRecord
100
AcDbBlockTableRecord
  2
*PAPER_SPACE
340
21
  0
BLOCK_RECORD
  5
45
100
AcDbSymbolTableRecord
100
AcDbBlockTableRecord
  2
SE0
340
0
102
{BLKREFS
331
4B
102
}
  0
BLOCK_RECORD
  5
46
100
AcDbSymbolTableRecord
100
AcDbBlockTableRecord
  2
SE1
340
0
102
{BLKREFS
331
47
102
}
  0
BLOCK_RECORD
  5
4C
100
AcDbSymbolTableRecord
100
AcDbBlockTableRecord
  2
SE2
340
0
102
{BLKREFS
331
52
102
}
  0
BLOCK_RECORD
  5
4D
100
AcDbSymbolTableRecord
100
AcDbBlockTableRecord
  2
SE3
340
0
102
{BLKREFS
331
4E
102
}
  0
BLOCK_RECORD
  5
53
100
AcDbSymbolTableRecord
100
AcDbBlockTableRecord
  2
SE4
340
0
102
{BLKREFS
331
59
102
}
  0
BLOCK_RECORD
  5
54
100
AcDbSymbolTableRecord
100
AcDbBlockTableRecord
  2
SE5
340
0
102
{BLKREFS
331
55
102
}
  0
BLOCK_RECORD
  5
5A
100
AcDbSymbolTableRecord
100
AcDbBlockTableRecord
  2
SE6
340
0
102
{BLKREFS
331
60
102
}
  0
BLOCK_RECORD
  5
5B
100
AcDbSymbolTableRecord
100
AcDbBlockTableRecord
  2
SE7
340
0
102
{BLKREFS
331
5C
102
}
  0
ENDTAB
  0
ENDSEC
  0
SECTION
  2
BLOCKS
  0
BLOCK
  5
D
100
AcDbEntity
  8
0
390
0
100
AcDbBlockBegin
  2
*MODEL_SPACE
 70
         0
 10
0.0
 20
0.0
 30
0.0
  3
*MODEL_SPACE
  1

  0
ENDBLK
  5
E
100
AcDbEntity
  8
0
390
0
100
AcDbBlockEnd
  0
BLOCK
  5
F
100
AcDbEntity
 67
         1
  8
0
390
0
100
AcDbBlockBegin
  2
*PAPER_SPACE
 70
         0
 10
0.0
 20
0.0
 30
0.0
  3
*PAPER_SPACE
  1

  0
ENDBLK
  5
10
100
AcDbEntity
 67
         1
  8
0
390
0
100
AcDbBlockEnd
  0
BLOCK
  5
C6
100
AcDbEntity
  8
0
370
         0
390
0
 62
         1
 48
0.0
100
AcDbBlockBegin
  2
SE0
 70
         0
 10
0.0
 20
0.0
 30
0.0
  3
SE0
  1

  0
ENDBLK
  5
C7
100
AcDbEntity
  8
0
370
         0
390
0
 62
         1
 48
0.0
100
AcDbBlockEnd
  0
BLOCK
  5
61
100
AcDbEntity
  8
0
370
         0
390
0
 62
         1
 48
0.0
100
AcDbBlockBegin
  2
SE1
 70
         0
 10
0.0
 20
0.0
 30
0.0
  3
SE1
  1

  0
CIRCLE
  5
62
100
AcDbEntity
  8
52176995
370
         0
390
0
  6
CONTINUOUS
 62
         7
100
AcDbCircle
 10
25.0372236739
 20
202.6935545748
 30
0.0
 40
6.9
  0
ELLIPSE
  5
63
100
AcDbEntity
  8
52176995
370
         0
390
0
  6
CONTINUOUS
 62
         7
100
AcDbEllipse
 10
26.1010055984
 20
202.6935060303
 30
0.0
 11
646.55027694953992
 21
141.75046342322273
 31
0.0
210
0.0
220
0.0
230
1.0
 40
0.2007555539
 41
1.5238190266739899
 42
1.5330901174797282
  0
LINE
  5
64
100
AcDbEntity
  8
52176995
370
         0
390
0
  6
CONTINUOUS
 62
         7
100
AcDbLine
 10
25.3369814578
 20
332.8029216139
 30
0.0
 11
26.247354124
 21
332.8029216138
 31
0.0
  0
LINE
  5
65
100
AcDbEntity
  8
52176995
370
         0
390
0
  6
CONTINUOUS
 62
         7
100
AcDbLine
 10
22.0372236739
 20
337.7434110977
 30
0.0
 11
22.0372236739
 21
339.0860614004
 31
0.0
  0
LINE
  5
66
100
AcDbEntity
  8
52176995
370
         0
390
0
  6
CONTINUOUS
 62
         7
100
AcDbLine
 10
25.3369814578
 20
333.7250232604
 30
0.0
 11
25.3369814578
 21
332.8029216138
 31
0.0
  0
LINE
  5
67
100
AcDbEntity
  8
52176995
370
         0
390
0
  6
CONTINUOUS
 62
         7
100
AcDbLine
 10
22.0372236739
 20
343.2624110424
 30
0.0
 11
22.0372236739
 21
342.0362200365
 31
0.0
  0
LINE
  5
68
100
AcDbEntity
  8
52176995
370
         0
390
0
  6
CONTINUOUS
 62
         7
100
AcDbLine
 10
32.0372236739
 20
434.6935545748
 30
0.0
 11
32.0372236739
 21
433.1935545748
 31
0.0
  0
LINE
  5
69
100
AcDbEntity
  8
52176995
370
         0
390
0
  6
CONTINUOUS
 62
         7
100
AcDbLine
 10
18.0372236739
 20
443.1935545748
 30
0.0
 11
16.5372236739
 21
444.0595799785
 31
0.0
  0
LINE
  5
6A
100
AcDbEntity
  8
52176995
370
         0
390
0
  6
CONTINUOUS
 62
         7
100
AcDbLine
 10
26.3823798412
 20
341.2255725564
 30
0.0
 11
26.3823798412
 21
341.3670238885
 31
0.0
  0
ARC
  5
6B
100
AcDbEntity
  8
52176995
370
         0
390
0
  6
CONTINUOUS
 62
         7
100
AcDbCircle
 10
25.0372236738
 20
586.569338327
 30
0.0
 40
192.0034280698
100
AcDbArc
 50
267.9106656492
 51
272.0893342189
  0
LINE
  5
6C
100
AcDbEntity
  8
52176995
370
         0
390
0
  6
CONTINUOUS
 62
         7
100
AcDbLine
 10
16.0372236739
 20
10.6935545748
 30
0.0
 11
16.0372236739
 21
394.6935545748
 31
0.0
  0
ELLIPSE
  5
6D
100
AcDbEntity
  8
52176995
370
         0
390
0
  6
CONTINUOUS
 62
         7
100
AcDbEllipse
 10
19.147574384
 20
202.6937895455
 30
0.0
 11
805.32634293659544
 21
139.71360796666903
 31
0.0
210
0.0
220
0.0
230
1.0
 40
0.1638939006
 41
1.5331813865415189
 42
1.5387838032634742
  0
LINE
  5
6E
100
AcDbEntity
  8
52176995
370
         0
390
0
  6
CONTINUOUS
 62
         7
100
AcDbLine
 10
28.0372236739
 20
338.8640503812
 30
0.0
 11
28.0372236739
 21
339.0054723711
 31
0.0
  0
LINE
  5
6F
100
AcDbEntity
  8
52176995
370
         0
390
0
  6
CONTINUOUS
 62
         7
100
AcDbLine
 10
22.1185966152
 20
341.8947522108
 30
0.0
 11
26.3823798412
 21
341.8947522108
 31
0.0
  0
SPLINE
  5
70
100
AcDbEntity
  8
52176995
370
         0
390
0
  6
CONTINUOUS
 62
         7
100
AcDbSpline
210
0.0
220
0.0
230
1.0
 70
        12
 71
         2
 72
         6
 73
         3
 74
         0
 42
0.0
 43
0.0
 40
0.0
 40
0.0
 40
0.0
 40
1.0
 40
1.0
 40
1.0
 10
23.584073859174616
 20
339.51505711982645
 30
0.0
 41
1.0
 10
22.810641274555802
 20
339.67902172301433
 30
0.0
 41
1.0
 10
22.037223673876873
 20
339.84258208683337
 30
0.0
 41
1.0
  0
LINE
  5
71
100
AcDbEntity
  8
52176995
370
         0
390
0
  6
CONTINUOUS
 62
         7
100
AcDbLine
 10
23.5840738592
 20
340.3334740391
 30
0.0
 11
23.5840738592
 21
339.5150571196
 31
0.0
  0
LINE
  5
72
100
AcDbEntity
  8
52176995
370
         0
390
0
  6
CONTINUOUS
 62
         7
100
AcDbLine
 10
18.1372236739
 20
485.0935545748
 30
0.0
 11
19.0372236739
 21
484.1935545748
 31
0.0
  0
LINE
  5
73
100
AcDbEntity
  8
52176995
370
         0
390
0
  6
CONTINUOUS
 62
         7
100
AcDbLine
 10
31.9372236739
 20
485.0935545748
 30
0.0
 11
31.9372236739
 21
490.6935545748
 31
0.0
  0
LINE
  5
74
100
AcDbEntity
  8
52176995
370
         0
390
0
  6
CONTINUOUS
 62
         7
100
AcDbLine
 10
29.0372236739
 20
478.6935545748
 30
0.0
 11
29.0372236739
 21
481.6935545748
 31
0.0
  0
LINE
  5
75
100
AcDbEntity
  8
52176995
370
         0
390
0
  6
CONTINUOUS
 62
         7
100
AcDbLine
 10
31.7872236739
 20
481.6935545748
 30
0.0
 11
31.7872236739
 21
482.6935545748
 31
0.0
  0
LINE
  5
76
100
AcDbEntity
  8
52176995
370
         0
390
0
  6
CONTINUOUS
 62
         7
100
AcDbLine
 10
31.8872236739
 20
457.6935545748
 30
0.0
 11
31.8872236739
 21
478.6935545748
 31
0.0
  0
LINE
  5
77
100
AcDbEntity
  8
52176995
370
         0
390
0
  6
CONTINUOUS
 62
         7
100
AcDbLine
 10
33.5372236739
 20
444.0595799785
 30
0.0
 11
33.5372236739
 21
457.6935545748
 31
0.0
  0
LINE
  5
78
100
AcDbEntity
  8
52176995
370
         0
390
0
  6
CONTINUOUS
 62
         7
100
AcDbLine
 10
32.0372236739
 20
394.693377035
 30
0.0
 11
32.0372236739
 21
433.1935545748
 31
0.0
  0
LINE
  5
79
100
AcDbEntity
  8
52176995
370
         0
390
0
  6
CONTINUOUS
 62
         7
100
AcDbLine
 10
18.0372236739
 20
394.6935545748
 30
0.0
 11
16.0372236739
 21
394.6935545748
 31
0.0
  0
LINE
  5
7A
100
AcDbEntity
  8
52176995
370
         0
390
0
  6
CONTINUOUS
 62
         7
100
AcDbLine
 10
19.0372236739
 20
484.1935545748
 30
0.0
 11
19.0372236739
 21
482.6935545748
 31
0.0
  0
LINE
  5
7B
100
AcDbEntity
  8
52176995
370
         0
390
0
  6
CONTINUOUS
 62
         7
100
AcDbLine
 10
31.0372236739
 20
484.1935545748
 30
0.0
 11
31.9372236739
 21
485.0935545748
 31
0.0
  0
LINE
  5
7C
100
AcDbEntity
  8
52176995
370
         0
390
0
  6
CONTINUOUS
 62
         7
100
AcDbLine
 10
18.1372236739
 20
490.6935545748
 30
0.0
 11
18.1372236739
 21
485.0935545748
 31
0.0
  0
LINE
  5
7D
100
AcDbEntity
  8
52176995
370
         0
390
0
  6
CONTINUOUS
 62
         7
100
AcDbLine
 10
21.0372236739
 20
481.6935545748
 30
0.0
 11
21.0372236739
 21
478.6935545748
 31
0.0
  0
LINE
  5
7E
100
AcDbEntity
  8
52176995
370
         0
390
0
  6
CONTINUOUS
 62
         7
100
AcDbLine
 10
18.2872236739
 20
482.6935545748
 30
0.0
 11
18.2872236739
 21
481.6935545748
 31
0.0
  0
LINE
  5
7F
100
AcDbEntity
  8
52176995
370
         0
390
0
  6
CONTINUOUS
 62
         7
100
AcDbLine
 10
18.0372236739
 20
433.1935545748
 30
0.0
 11
18.0372236739
 21
394.6935545748
 31
0.0
  0
LINE
  5
80
100
AcDbEntity
  8
52176995
370
         0
390
0
  6
CONTINUOUS
 62
         7
100
AcDbLine
 10
16.5372236739
 20
457.6935545748
 30
0.0
 11
16.5372236739
 21
444.0595799785
 31
0.0
  0
LINE
  5
81
100
AcDbEntity
  8
52176995
370
         0
390
0
  6
CONTINUOUS
 62
         7
100
AcDbLine
 10
18.1872236739
 20
478.6935545748
 30
0.0
 11
18.1872236739
 21
457.6935545748
 31
0.0
  0
LINE
  5
82
100
AcDbEntity
  8
52176995
370
         0
390
0
  6
CONTINUOUS
 62
         7
100
AcDbLine
 10
31.8858363836
 20
473.6935545748
 30
0.0
 11
28.5809158096
 21
473.6935545748
 31
0.0
  0
LINE
  5
83
100
AcDbEntity
  8
52176995
370
         0
390
0
  6
CONTINUOUS
 62
         7
100
AcDbLine
 10
28.3421442478
 20
473.6935545748
 30
0.0
 11
21.7323031
 21
473.6935545748
 31
0.0
  0
LINE
  5
84
100
AcDbEntity
  8
52176995
370
         0
390
0
  6
CONTINUOUS
 62
         7
100
AcDbLine
 10
28.5809158096
 20
478.6935545748
 30
0.0
 11
28.3421442478
 21
478.6935545748
 31
0.0
  0
LINE
  5
85
100
AcDbEntity
  8
52176995
370
         0
390
0
  6
CONTINUOUS
 62
         7
100
AcDbLine
 10
21.7323031
 20
478.6935545748
 30
0.0
 11
21.4935315382
 21
478.6935545748
 31
0.0
  0
LINE
  5
86
100
AcDbEntity
  8
52176995
370
         0
390
0
  6
CONTINUOUS
 62
         7
100
AcDbLine
 10
18.1872236739
 20
478.6935545748
 30
0.0
 11
18.1886109642
 21
478.6935545748
 31
0.0
  0
LINE
  5
87
100
AcDbEntity
  8
52176995
370
         0
390
0
  6
CONTINUOUS
 62
         7
100
AcDbLine
 10
31.0372236739
 20
482.6935545748
 30
0.0
 11
31.0372236739
 21
484.1935545748
 31
0.0
  0
LINE
  5
88
100
AcDbEntity
  8
52176995
370
         0
390
0
  6
CONTINUOUS
 62
         7
100
AcDbLine
 10
16.0372236739
 20
10.6935545748
 30
0.0
 11
34.0372236739
 21
10.6935545748
 31
0.0
  0
SPLINE
  5
89
100
AcDbEntity
  8
52176995
370
         0
390
0
  6
CONTINUOUS
 62
         7
100
AcDbSpline
210
0.0
220
0.0
230
1.0
 70
        12
 71
         2
 72
         6
 73
         3
 74
         0
 42
0.0
 43
0.0
 40
0.0
 40
0.0
 40
0.0
 40
1.0
 40
1.0
 40
1.0
 10
26.55072287981838
 20
339.84258208682593
 30
0.0
 41
1.0
 10
25.067368528868922
 20
340.08848628913591
 30
0.0
 41
1.0
 10
23.584073859159954
 20
340.33347403933601
 30
0.0
 41
1.0
  0
LINE
  5
8A
100
AcDbEntity
  8
52176995
370
         0
390
0
  6
CONTINUOUS
 62
         7
100
AcDbLine
 10
18.0372236739
 20
433.1935545748
 30
0.0
 11
18.0372236739
 21
434.6935545748
 31
0.0
  0
ELLIPSE
  5
8B
100
AcDbEntity
  8
52176995
370
         0
390
0
  6
CONTINUOUS
 62
         7
100
AcDbEllipse
 10
34.271844797
 20
202.6935811368
 30
0.0
 11
177.24435398054337
 21
177.40894852696562
 31
0.0
210
0.0
220
0.0
230
1.0
 40
0.4142134043
 41
1.2102681341741592
 42
1.2196029737772704
  0
LINE
  5
8C
100
AcDbEntity
  8
52176995
370
         0
390
0
  6
CONTINUOUS
 62
         7
100
AcDbLine
 10
22.0372236739
 20
337.6019869504
 30
0.0
 11
22.0372236739
 21
337.7434110977
 31
0.0
  0
LINE
  5
8D
100
AcDbEntity
  8
52176995
370
         0
390
0
  6
CONTINUOUS
 62
         7
100
AcDbLine
 10
22.0372236739
 20
339.8425820867
 30
0.0
 11
22.0372236739
 21
341.9114197112
 31
0.0
  0
ELLIPSE
  5
8E
100
AcDbEntity
  8
52176995
370
         0
390
0
  6
CONTINUOUS
 62
         7
100
AcDbEllipse
 10
38.0055153237
 20
202.6936863698
 30
0.0
 11
-646.54985469634551
 21
141.75036008950966
 31
0.0
210
0.0
220
0.0
230
1.0
 40
0.2007554235
 41
4.7717778160469964
 42
4.7810507623323772
  0
LINE
  5
8F
100
AcDbEntity
  8
52176995
370
         0
390
0
  6
CONTINUOUS
 62
         7
100
AcDbLine
 10
23.5840738592
 20
339.373632529
 30
0.0
 11
23.5840738592
 21
339.5150571198
 31
0.0
  0
LINE
  5
90
100
AcDbEntity
  8
52176995
370
         0
390
0
  6
CONTINUOUS
 62
         7
100
AcDbLine
 10
22.0372236739
 20
339.7011547533
 30
0.0
 11
22.0372236739
 21
339.8425820867
 31
0.0
  0
ELLIPSE
  5
91
100
AcDbEntity
  8
52176995
370
         0
390
0
  6
CONTINUOUS
 62
         7
100
AcDbEllipse
 10
26.1010052062
 20
202.6935671171
 30
0.0
 11
645.87734282339341
 21
141.60292583972853
 31
0.0
210
0.0
220
0.0
230
1.0
 40
0.2007555089
 41
1.5238159196156018
 42
1.5330966699919375
  0
SPLINE
  5
92
100
AcDbEntity
  8
52176995
370
         0
390
0
  6
CONTINUOUS
 62
         7
100
AcDbSpline
210
0.0
220
0.0
230
1.0
 70
        12
 71
         2
 72
         6
 73
         3
 74
         0
 42
0.0
 43
0.0
 40
0.1431945544654953
 40
0.1431945544654953
 40
0.1431945544654953
 40
1.0
 40
1.0
 40
1.0
 10
26.12590755749391
 20
339.77155954987501
 30
0.0
 41
1.0
 10
24.85496875618113
 20
339.98213702483628
 30
0.0
 41
1.0
 10
23.584073859173738
 20
340.19204100947957
 30
0.0
 41
1.0
  0
LINE
  5
93
100
AcDbEntity
  8
52176995
370
         0
390
0
  6
CONTINUOUS
 62
         7
100
AcDbLine
 10
25.3369814578
 20
332.6613765475
 30
0.0
 11
26.247354124
 21
332.6613765474
 31
0.0
  0
SPLINE
  5
94
100
AcDbEntity
  8
52176995
370
         0
390
0
  6
CONTINUOUS
 62
         7
100
AcDbSpline
210
0.0
220
0.0
230
1.0
 70
        12
 71
         2
 72
         6
 73
         3
 74
         0
 42
0.0
 43
0.0
 40
0.0
 40
0.0
 40
0.0
 40
1.0
 40
1.0
 40
1.0
 10
26.382379841174394
 20
341.22557255642272
 30
0.0
 41
1.0
 10
27.209781260151743
 20
341.05509986752094
 30
0.0
 41
1.0
 10
28.037223673887699
 20
340.88417214133239
 30
0.0
 41
1.0
  0
LINE
  5
95
100
AcDbEntity
  8
52176995
370
         0
390
0
  6
CONTINUOUS
 62
         7
100
AcDbLine
 10
33.5372236739
 20
444.0595799785
 30
0.0
 11
32.0372236739
 21
443.1935545748
 31
0.0
  0
LINE
  5
96
100
AcDbEntity
  8
52176995
370
         0
390
0
  6
CONTINUOUS
 62
         7
100
AcDbLine
 10
22.0372236739
 20
333.5835138926
 30
0.0
 11
25.3369814578
 21
333.5835138926
 31
0.0
  0
LINE
  5
97
100
AcDbEntity
  8
52176995
370
         0
390
0
  6
CONTINUOUS
 62
         7
100
AcDbLine
 10
28.0372236739
 20
340.6766829372
 30
0.0
 11
28.0372236739
 21
339.0054723711
 31
0.0
  0
CIRCLE
  5
98
100
AcDbEntity
  8
52176995
370
         0
390
0
  6
CONTINUOUS
 62
         7
100
AcDbCircle
 10
25.0372236739
 20
202.6935545748
 30
0.0
 40
8.5
  0
SPLINE
  5
99
100
AcDbEntity
  8
52176995
370
         0
390
0
  6
CONTINUOUS
 62
         7
100
AcDbSpline
210
0.0
220
0.0
230
1.0
 70
        12
 71
         2
 72
         6
 73
         3
 74
         0
 42
0.0
 43
0.0
 40
0.0
 40
0.0
 40
0.0
 40
1.0
 40
1.0
 40
1.0
 10
23.58407385916777
 20
339.3736325290796
 30
0.0
 41
1.0
 10
22.810641258938823
 20
339.53759597310523
 30
0.0
 41
1.0
 10
22.037223673894889
 20
339.70115475331477
 30
0.0
 41
1.0
  0
LINE
  5
9A
100
AcDbEntity
  8
52176995
370
         0
390
0
  6
CONTINUOUS
 62
         7
100
AcDbLine
 10
21.4935315382
 20
473.6935545748
 30
0.0
 11
21.4935315382
 21
478.6935545748
 31
0.0
  0
LINE
  5
9B
100
AcDbEntity
  8
52176995
370
         0
390
0
  6
CONTINUOUS
 62
         7
100
AcDbLine
 10
18.1886109642
 20
478.6935545748
 30
0.0
 11
18.1886109642
 21
473.6935545748
 31
0.0
  0
LINE
  5
9C
100
AcDbEntity
  8
52176995
370
         0
390
0
  6
CONTINUOUS
 62
         7
100
AcDbLine
 10
31.7872236739
 20
482.6935545748
 30
0.0
 11
18.2872236739
 21
482.6935545748
 31
0.0
  0
LINE
  5
9D
100
AcDbEntity
  8
52176995
370
         0
390
0
  6
CONTINUOUS
 62
         7
100
AcDbLine
 10
31.7872236739
 20
481.6935545748
 30
0.0
 11
18.2872236739
 21
481.6935545748
 31
0.0
  0
LINE
  5
9E
100
AcDbEntity
  8
52176995
370
         0
390
0
  6
CONTINUOUS
 62
         7
100
AcDbLine
 10
31.8858363836
 20
473.6935545748
 30
0.0
 11
31.8858363836
 21
478.6935545748
 31
0.0
  0
LINE
  5
9F
100
AcDbEntity
  8
52176995
370
         0
390
0
  6
CONTINUOUS
 62
         7
100
AcDbLine
 10
28.5809158096
 20
478.6935545748
 30
0.0
 11
28.5809158096
 21
473.6935545748
 31
0.0
  0
LINE
  5
A0
100
AcDbEntity
  8
52176995
370
         0
390
0
  6
CONTINUOUS
 62
         7
100
AcDbLine
 10
28.3421442478
 20
473.6935545748
 30
0.0
 11
28.3421442478
 21
478.6935545748
 31
0.0
  0
LINE
  5
A1
100
AcDbEntity
  8
52176995
370
         0
390
0
  6
CONTINUOUS
 62
         7
100
AcDbLine
 10
21.7323031
 20
478.6935545748
 30
0.0
 11
21.7323031
 21
473.6935545748
 31
0.0
  0
LINE
  5
A2
100
AcDbEntity
  8
52176995
370
         0
390
0
  6
CONTINUOUS
 62
         7
100
AcDbLine
 10
28.3421442478
 20
478.6935545748
 30
0.0
 11
21.7323031
 21
478.6935545748
 31
0.0
  0
LINE
  5
A3
100
AcDbEntity
  8
52176995
370
         0
390
0
  6
CONTINUOUS
 62
         7
100
AcDbLine
 10
31.0372236739
 20
484.1935545748
 30
0.0
 11
19.0372236739
 21
484.1935545748
 31
0.0
  0
LINE
  5
A4
100
AcDbEntity
  8
52176995
370
         0
390
0
  6
CONTINUOUS
 62
         7
100
AcDbLine
 10
31.9372236739
 20
490.6935545748
 30
0.0
 11
18.1372236739
 21
490.6935545748
 31
0.0
  0
LINE
  5
A5
100
AcDbEntity
  8
52176995
370
         0
390
0
  6
CONTINUOUS
 62
         7
100
AcDbLine
 10
31.9372236739
 20
485.0935545748
 30
0.0
 11
18.1372236739
 21
485.0935545748
 31
0.0
  0
LINE
  5
A6
100
AcDbEntity
  8
52176995
370
         0
390
0
  6
CONTINUOUS
 62
         7
100
AcDbLine
 10
21.4935315382
 20
478.6935545748
 30
0.0
 11
18.1886109642
 21
478.6935545748
 31
0.0
  0
LINE
  5
A7
100
AcDbEntity
  8
52176995
370
         0
390
0
  6
CONTINUOUS
 62
         7
100
AcDbLine
 10
31.8872236739
 20
478.6935545748
 30
0.0
 11
31.8858363836
 21
478.6935545748
 31
0.0
  0
LINE
  5
A8
100
AcDbEntity
  8
52176995
370
         0
390
0
  6
CONTINUOUS
 62
         7
100
AcDbLine
 10
21.4935315382
 20
473.6935545748
 30
0.0
 11
18.1886109642
 21
473.6935545748
 31
0.0
  0
LINE
  5
A9
100
AcDbEntity
  8
52176995
370
         0
390
0
  6
CONTINUOUS
 62
         7
100
AcDbLine
 10
22.0372236739
 20
342.0362200365
 30
0.0
 11
26.3823798412
 21
342.0362200364
 31
0.0
  0
LINE
  5
AA
100
AcDbEntity
  8
52176995
370
         0
390
0
  6
CONTINUOUS
 62
         7
100
AcDbLine
 10
28.0372236739
 20
341.0256164726
 30
0.0
 11
28.0372236739
 21
343.8290182314
 31
0.0
  0
LINE
  5
AB
100
AcDbEntity
  8
52176995
370
         0
390
0
  6
CONTINUOUS
 62
         7
100
AcDbLine
 10
26.3823798412
 20
343.2624110424
 30
0.0
 11
22.0372236739
 21
343.2624110424
 31
0.0
  0
LINE
  5
AC
100
AcDbEntity
  8
52176995
370
         0
390
0
  6
CONTINUOUS
 62
         7
100
AcDbLine
 10
26.3823798412
 20
342.0362200364
 30
0.0
 11
26.3823798412
 21
341.3670238885
 31
0.0
  0
SPLINE
  5
AD
100
AcDbEntity
  8
52176995
370
         0
390
0
  6
CONTINUOUS
 62
         7
100
AcDbSpline
210
0.0
220
0.0
230
1.0
 70
        12
 71
         2
 72
         6
 73
         3
 74
         0
 42
0.0
 43
0.0
 40
0.0
 40
0.0
 40
0.0
 40
1.0
 40
1.0
 40
1.0
 10
26.382379841174686
 20
341.36702388847795
 30
0.0
 41
1.0
 10
27.209781302807713
 20
341.19654745787244
 30
0.0
 41
1.0
 10
28.037223673890662
 20
341.02561647263019
 30
0.0
 41
1.0
  0
SPLINE
  5
AE
100
AcDbEntity
  8
52176995
370
         0
390
0
  6
CONTINUOUS
 62
         7
100
AcDbSpline
210
0.0
220
0.0
230
1.0
 70
        12
 71
         2
 72
         6
 73
         3
 74
         0
 42
0.0
 43
0.0
 40
0.0
 40
0.0
 40
0.0
 40
1.0
 40
1.0
 40
1.0
 10
28.037223673887087
 20
343.82901823136615
 30
0.0
 41
1.0
 10
27.209759308023141
 20
343.99409458334276
 30
0.0
 41
1.0
 10
26.382379841169509
 20
344.15871851517954
 30
0.0
 41
1.0
  0
LINE
  5
AF
100
AcDbEntity
  8
52176995
370
         0
390
0
  6
CONTINUOUS
 62
         7
100
AcDbLine
 10
26.3823798412
 20
344.1587185151
 30
0.0
 11
26.3823798412
 21
343.2624110424
 31
0.0
  0
LINE
  5
B0
100
AcDbEntity
  8
52176995
370
         0
390
0
  6
CONTINUOUS
 62
         7
100
AcDbLine
 10
31.8858363836
 20
478.6935545748
 30
0.0
 11
28.5809158096
 21
478.6935545748
 31
0.0
  0
LINE
  5
B1
100
AcDbEntity
  8
52176995
370
         0
390
0
  6
CONTINUOUS
 62
         7
100
AcDbLine
 10
22.0372236739
 20
333.7250232604
 30
0.0
 11
25.3369814578
 21
333.7250232604
 31
0.0
  0
LINE
  5
B2
100
AcDbEntity
  8
52176995
370
         0
390
0
  6
CONTINUOUS
 62
         7
100
AcDbLine
 10
22.0372236739
 20
334.5074517109
 30
0.0
 11
22.0372236739
 21
333.7250232604
 31
0.0
  0
LINE
  5
B3
100
AcDbEntity
  8
52176995
370
         0
390
0
  6
CONTINUOUS
 62
         7
100
AcDbLine
 10
25.3369814578
 20
334.5074517109
 30
0.0
 11
22.0372236739
 21
334.5074517109
 31
0.0
  0
LINE
  5
B4
100
AcDbEntity
  8
52176995
370
         0
390
0
  6
CONTINUOUS
 62
         7
100
AcDbLine
 10
26.247354124
 20
335.4181056683
 30
0.0
 11
25.3369814578
 21
335.4181056685
 31
0.0
  0
LINE
  5
B5
100
AcDbEntity
  8
52176995
370
         0
390
0
  6
CONTINUOUS
 62
         7
100
AcDbLine
 10
25.3369814578
 20
335.4181056685
 30
0.0
 11
25.3369814578
 21
334.5074517109
 31
0.0
  0
LINE
  5
B6
100
AcDbEntity
  8
52176995
370
         0
390
0
  6
CONTINUOUS
 62
         7
100
AcDbLine
 10
28.0372236739
 20
340.8841721413
 30
0.0
 11
28.0372236739
 21
341.0256164726
 31
0.0
  0
ELLIPSE
  5
B7
100
AcDbEntity
  8
52176995
370
         0
390
0
  6
CONTINUOUS
 62
         7
100
AcDbEllipse
 10
21.8025995834
 20
202.6935133824
 30
0.0
 11
-177.42901974797704
 21
177.5938161016627
 31
0.0
210
0.0
220
0.0
230
1.0
 40
0.414213484
 41
5.0729511241865666
 42
5.0822734108991039
  0
ELLIPSE
  5
B8
100
AcDbEntity
  8
52176995
370
         0
390
0
  6
CONTINUOUS
 62
         7
100
AcDbEllipse
 10
34.2718490335
 20
202.6935031523
 30
0.0
 11
177.42902555779995
 21
177.59382620278251
 31
0.0
210
0.0
220
0.0
230
1.0
 40
0.4142134978
 41
1.2102341679026281
 42
1.2195592775715203
  0
LINE
  5
B9
100
AcDbEntity
  8
52176995
370
         0
390
0
  6
CONTINUOUS
 62
         7
100
AcDbLine
 10
22.0372236739
 20
341.9114197113
 30
0.0
 11
22.0372236739
 21
342.0362200365
 31
0.0
  0
LINE
  5
BA
100
AcDbEntity
  8
52176995
370
         0
390
0
  6
CONTINUOUS
 62
         7
100
AcDbLine
 10
22.0372236739
 20
333.5835138926
 30
0.0
 11
22.0372236739
 21
333.7250232604
 31
0.0
  0
LINE
  5
BB
100
AcDbEntity
  8
52176995
370
         0
390
0
  6
CONTINUOUS
 62
         7
100
AcDbLine
 10
34.0372236739
 20
394.6935545748
 30
0.0
 11
32.0323790319
 21
394.6935545748
 31
0.0
  0
LINE
  5
BC
100
AcDbEntity
  8
52176995
370
         0
390
0
  6
CONTINUOUS
 62
         7
100
AcDbLine
 10
18.0372236739
 20
434.6935545748
 30
0.0
 11
18.0372236739
 21
443.1935545748
 31
0.0
  0
LINE
  5
BD
100
AcDbEntity
  8
52176995
370
         0
390
0
  6
CONTINUOUS
 62
         7
100
AcDbLine
 10
32.0372236739
 20
443.1935545748
 30
0.0
 11
32.0372236739
 21
434.6935545748
 31
0.0
  0
LINE
  5
BE
100
AcDbEntity
  8
52176995
370
         0
390
0
  6
CONTINUOUS
 62
         7
100
AcDbLine
 10
32.0372236739
 20
434.6935545748
 30
0.0
 11
18.0372236739
 21
434.6935545748
 31
0.0
  0
LINE
  5
BF
100
AcDbEntity
  8
52176995
370
         0
390
0
  6
CONTINUOUS
 62
         7
100
AcDbLine
 10
33.5372236739
 20
457.6935545748
 30
0.0
 11
16.5372236739
 21
457.6935545748
 31
0.0
  0
LINE
  5
C0
100
AcDbEntity
  8
52176995
370
         0
390
0
  6
CONTINUOUS
 62
         7
100
AcDbLine
 10
32.0372236739
 20
433.1935545748
 30
0.0
 11
18.0372236739
 21
433.1935545748
 31
0.0
  0
LINE
  5
C1
100
AcDbEntity
  8
52176995
370
         0
390
0
  6
CONTINUOUS
 62
         7
100
AcDbLine
 10
34.0372236739
 20
10.6935545748
 30
0.0
 11
34.0372236739
 21
394.6935545748
 31
0.0
  0
LINE
  5
C2
100
AcDbEntity
  8
52176995
370
         0
390
0
  6
CONTINUOUS
 62
         7
100
AcDbLine
 10
25.3369814578
 20
332.6613765475
 30
0.0
 11
25.3369814578
 21
332.8029216139
 31
0.0
  0
LINE
  5
C3
100
AcDbEntity
  8
52176995
370
         0
390
0
  6
CONTINUOUS
 62
         7
100
AcDbLine
 10
26.247354124
 20
332.6613765474
 30
0.0
 11
26.247354124
 21
332.8029216138
 31
0.0
  0
LINE
  5
C4
100
AcDbEntity
  8
52176995
370
         0
390
0
  6
CONTINUOUS
 62
         7
100
AcDbLine
 10
28.0372236739
 20
333.9749279624
 30
0.0
 11
28.0372236739
 21
334.1164239574
 31
0.0
  0
ENDBLK
  5
C5
100
AcDbEntity
  8
52176995
370
         0
390
0
  6
CONTINUOUS
 62
         7
100
AcDbBlockEnd
  0
BLOCK
  5
FE
100
AcDbEntity
  8
0
370
         0
390
0
 62
         1
 48
0.0
100
AcDbBlockBegin
  2
SE2
 70
         0
 10
0.0
 20
0.0
 30
0.0
  3
SE2
  1

  0
ENDBLK
  5
FF
100
AcDbEntity
  8
0
370
         0
390
0
 62
         1
 48
0.0
100
AcDbBlockEnd
  0
BLOCK
  5
C8
100
AcDbEntity
  8
0
370
         0
390
0
 62
         1
 48
0.0
100
AcDbBlockBegin
  2
SE3
 70
         0
 10
0.0
 20
0.0
 30
0.0
  3
SE3
  1

  0
LINE
  5
C9
100
AcDbEntity
  8
52176995
370
         0
390
0
  6
CONTINUOUS
 62
         7
100
AcDbLine
 10
18.0372236739
 20
1017.6511095301
 30
0.0
 11
16.5372236739
 21
1018.5171349338
 31
0.0
  0
LINE
  5
CA
100
AcDbEntity
  8
52176995
370
         0
390
0
  6
CONTINUOUS
 62
         7
100
AcDbLine
 10
18.2872236739
 20
1057.1511095301
 30
0.0
 11
18.2872236739
 21
1056.1511095301
 31
0.0
  0
LINE
  5
CB
100
AcDbEntity
  8
52176995
370
         0
390
0
  6
CONTINUOUS
 62
         7
100
AcDbLine
 10
21.0372236739
 20
1056.1511095301
 30
0.0
 11
21.0372236739
 21
1053.1511095301
 31
0.0
  0
LINE
  5
CC
100
AcDbEntity
  8
52176995
370
         0
390
0
  6
CONTINUOUS
 62
         7
100
AcDbLine
 10
18.1872236739
 20
1053.1511095301
 30
0.0
 11
18.1872236739
 21
1032.1511095301
 31
0.0
  0
LINE
  5
CD
100
AcDbEntity
  8
52176995
370
         0
390
0
  6
CONTINUOUS
 62
         7
100
AcDbLine
 10
34.0372236739
 20
969.1511095301
 30
0.0
 11
32.0323790319
 21
969.1511095301
 31
0.0
  0
LINE
  5
CE
100
AcDbEntity
  8
52176995
370
         0
390
0
  6
CONTINUOUS
 62
         7
100
AcDbLine
 10
18.0372236739
 20
969.1511095301
 30
0.0
 11
16.0372236739
 21
969.1511095301
 31
0.0
  0
LINE
  5
CF
100
AcDbEntity
  8
52176995
370
         0
390
0
  6
CONTINUOUS
 62
         7
100
AcDbLine
 10
16.5372236739
 20
1032.1511095301
 30
0.0
 11
16.5372236739
 21
1018.5171349338
 31
0.0
  0
LINE
  5
D0
100
AcDbEntity
  8
52176995
370
         0
390
0
  6
CONTINUOUS
 62
         7
100
AcDbLine
 10
18.0372236739
 20
1007.6511095301
 30
0.0
 11
18.0372236739
 21
969.1511095301
 31
0.0
  0
LINE
  5
D1
100
AcDbEntity
  8
52176995
370
         0
390
0
  6
CONTINUOUS
 62
         7
100
AcDbLine
 10
31.0372236739
 20
1057.1511095301
 30
0.0
 11
31.0372236739
 21
1058.6511095301
 31
0.0
  0
LINE
  5
D2
100
AcDbEntity
  8
52176995
370
         0
390
0
  6
CONTINUOUS
 62
         7
100
AcDbLine
 10
31.7872236739
 20
1056.1511095301
 30
0.0
 11
31.7872236739
 21
1057.1511095301
 31
0.0
  0
LINE
  5
D3
100
AcDbEntity
  8
52176995
370
         0
390
0
  6
CONTINUOUS
 62
         7
100
AcDbLine
 10
29.0372236739
 20
1053.1511095301
 30
0.0
 11
29.0372236739
 21
1056.1511095301
 31
0.0
  0
LINE
  5
D4
100
AcDbEntity
  8
52176995
370
         0
390
0
  6
CONTINUOUS
 62
         7
100
AcDbLine
 10
31.8872236739
 20
1032.1511095301
 30
0.0
 11
31.8872236739
 21
1053.1511095301
 31
0.0
  0
LINE
  5
D5
100
AcDbEntity
  8
52176995
370
         0
390
0
  6
CONTINUOUS
 62
         7
100
AcDbLine
 10
31.8872236739
 20
1053.1511095301
 30
0.0
 11
31.8858363836
 21
1053.1511095301
 31
0.0
  0
LINE
  5
D6
100
AcDbEntity
  8
52176995
370
         0
390
0
  6
CONTINUOUS
 62
         7
100
AcDbLine
 10
18.1886109642
 20
1053.1511095301
 30
0.0
 11
18.1886109642
 21
1048.1511095301
 31
0.0
  0
LINE
  5
D7
100
AcDbEntity
  8
52176995
370
         0
390
0
  6
CONTINUOUS
 62
         7
100
AcDbLine
 10
21.4935315382
 20
1048.1511095301
 30
0.0
 11
21.4935315382
 21
1053.1511095301
 31
0.0
  0
LINE
  5
D8
100
AcDbEntity
  8
52176995
370
         0
390
0
  6
CONTINUOUS
 62
         7
100
AcDbLine
 10
19.0372236739
 20
1058.6511095301
 30
0.0
 11
19.0372236739
 21
1057.1511095301
 31
0.0
  0
LINE
  5
D9
100
AcDbEntity
  8
52176995
370
         0
390
0
  6
CONTINUOUS
 62
         7
100
AcDbLine
 10
18.1372236739
 20
1065.1511095301
 30
0.0
 11
18.1372236739
 21
1059.5511095301
 31
0.0
  0
LINE
  5
DA
100
AcDbEntity
  8
52176995
370
         0
390
0
  6
CONTINUOUS
 62
         7
100
AcDbLine
 10
31.0372236739
 20
1058.6511095301
 30
0.0
 11
31.9372236739
 21
1059.5511095301
 31
0.0
  0
LINE
  5
DB
100
AcDbEntity
  8
52176995
370
         0
390
0
  6
CONTINUOUS
 62
         7
100
AcDbLine
 10
18.1872236739
 20
1053.1511095301
 30
0.0
 11
18.1886109642
 21
1053.1511095301
 31
0.0
  0
LINE
  5
DC
100
AcDbEntity
  8
52176995
370
         0
390
0
  6
CONTINUOUS
 62
         7
100
AcDbLine
 10
28.3421442478
 20
1053.1511095301
 30
0.0
 11
21.7323031
 21
1053.1511095301
 31
0.0
  0
LINE
  5
DD
100
AcDbEntity
  8
52176995
370
         0
390
0
  6
CONTINUOUS
 62
         7
100
AcDbLine
 10
21.7323031
 20
1053.1511095301
 30
0.0
 11
21.7323031
 21
1048.1511095301
 31
0.0
  0
LINE
  5
DE
100
AcDbEntity
  8
52176995
370
         0
390
0
  6
CONTINUOUS
 62
         7
100
AcDbLine
 10
28.3421442478
 20
1048.1511095301
 30
0.0
 11
28.3421442478
 21
1053.1511095301
 31
0.0
  0
LINE
  5
DF
100
AcDbEntity
  8
52176995
370
         0
390
0
  6
CONTINUOUS
 62
         7
100
AcDbLine
 10
28.5809158096
 20
1053.1511095301
 30
0.0
 11
28.5809158096
 21
1048.1511095301
 31
0.0
  0
LINE
  5
E0
100
AcDbEntity
  8
52176995
370
         0
390
0
  6
CONTINUOUS
 62
         7
100
AcDbLine
 10
31.8858363836
 20
1048.1511095301
 30
0.0
 11
31.8858363836
 21
1053.1511095301
 31
0.0
  0
LINE
  5
E1
100
AcDbEntity
  8
52176995
370
         0
390
0
  6
CONTINUOUS
 62
         7
100
AcDbLine
 10
18.2872236739
 20
1056.1511095301
 30
0.0
 11
31.7872236739
 21
1056.1511095301
 31
0.0
  0
LINE
  5
E2
100
AcDbEntity
  8
52176995
370
         0
390
0
  6
CONTINUOUS
 62
         7
100
AcDbLine
 10
18.2872236739
 20
1057.1511095301
 30
0.0
 11
31.7872236739
 21
1057.1511095301
 31
0.0
  0
LINE
  5
E3
100
AcDbEntity
  8
52176995
370
         0
390
0
  6
CONTINUOUS
 62
         7
100
AcDbLine
 10
19.0372236739
 20
1058.6511095301
 30
0.0
 11
31.0372236739
 21
1058.6511095301
 31
0.0
  0
LINE
  5
E4
100
AcDbEntity
  8
52176995
370
         0
390
0
  6
CONTINUOUS
 62
         7
100
AcDbLine
 10
18.1372236739
 20
1059.5511095301
 30
0.0
 11
31.9372236739
 21
1059.5511095301
 31
0.0
  0
LINE
  5
E5
100
AcDbEntity
  8
52176995
370
         0
390
0
  6
CONTINUOUS
 62
         7
100
AcDbLine
 10
18.1372236739
 20
1065.1511095301
 30
0.0
 11
31.9372236739
 21
1065.1511095301
 31
0.0
  0
LINE
  5
E6
100
AcDbEntity
  8
52176995
370
         0
390
0
  6
CONTINUOUS
 62
         7
100
AcDbLine
 10
21.4935315382
 20
1053.1511095301
 30
0.0
 11
18.1886109642
 21
1053.1511095301
 31
0.0
  0
LINE
  5
E7
100
AcDbEntity
  8
52176995
370
         0
390
0
  6
CONTINUOUS
 62
         7
100
AcDbLine
 10
31.8858363836
 20
1053.1511095301
 30
0.0
 11
28.5809158096
 21
1053.1511095301
 31
0.0
  0
LINE
  5
E8
100
AcDbEntity
  8
52176995
370
         0
390
0
  6
CONTINUOUS
 62
         7
100
AcDbLine
 10
18.0372236739
 20
1009.1511095301
 30
0.0
 11
18.0372236739
 21
1017.6511095301
 31
0.0
  0
LINE
  5
E9
100
AcDbEntity
  8
52176995
370
         0
390
0
  6
CONTINUOUS
 62
         7
100
AcDbLine
 10
32.0372236739
 20
1017.6511095301
 30
0.0
 11
32.0372236739
 21
1009.1511095301
 31
0.0
  0
LINE
  5
EA
100
AcDbEntity
  8
52176995
370
         0
390
0
  6
CONTINUOUS
 62
         7
100
AcDbLine
 10
32.0372236739
 20
1007.6511095301
 30
0.0
 11
18.0372236739
 21
1007.6511095301
 31
0.0
  0
LINE
  5
EB
100
AcDbEntity
  8
52176995
370
         0
390
0
  6
CONTINUOUS
 62
         7
100
AcDbLine
 10
16.5372236739
 20
1032.1511095301
 30
0.0
 11
33.5372236739
 21
1032.1511095301
 31
0.0
  0
ARC
  5
EC
100
AcDbEntity
  8
52176995
370
         0
390
0
  6
CONTINUOUS
 62
         7
100
AcDbCircle
 10
25.0372236738
 20
1161.0268932823
 30
0.0
 40
192.0034280698
100
AcDbArc
 50
267.9106656492
 51
272.0893342189
  0
LINE
  5
ED
100
AcDbEntity
  8
52176995
370
         0
390
0
  6
CONTINUOUS
 62
         7
100
AcDbLine
 10
21.4935315382
 20
1048.1511095301
 30
0.0
 11
18.1886109642
 21
1048.1511095301
 31
0.0
  0
LINE
  5
EE
100
AcDbEntity
  8
52176995
370
         0
390
0
  6
CONTINUOUS
 62
         7
100
AcDbLine
 10
16.0372236739
 20
585.1511095301
 30
0.0
 11
34.0372236739
 21
585.1511095301
 31
0.0
  0
LINE
  5
EF
100
AcDbEntity
  8
52176995
370
         0
390
0
  6
CONTINUOUS
 62
         7
100
AcDbLine
 10
33.5372236739
 20
1018.5171349338
 30
0.0
 11
33.5372236739
 21
1032.1511095301
 31
0.0
  0
LINE
  5
F0
100
AcDbEntity
  8
52176995
370
         0
390
0
  6
CONTINUOUS
 62
         7
100
AcDbLine
 10
32.0372236739
 20
969.1509319903
 30
0.0
 11
32.0372236739
 21
1007.6511095301
 31
0.0
  0
LINE
  5
F1
100
AcDbEntity
  8
52176995
370
         0
390
0
  6
CONTINUOUS
 62
         7
100
AcDbLine
 10
21.7323031
 20
1053.1511095301
 30
0.0
 11
21.4935315382
 21
1053.1511095301
 31
0.0
  0
LINE
  5
F2
100
AcDbEntity
  8
52176995
370
         0
390
0
  6
CONTINUOUS
 62
         7
100
AcDbLine
 10
28.5809158096
 20
1053.1511095301
 30
0.0
 11
28.3421442478
 21
1053.1511095301
 31
0.0
  0
LINE
  5
F3
100
AcDbEntity
  8
52176995
370
         0
390
0
  6
CONTINUOUS
 62
         7
100
AcDbLine
 10
31.8858363836
 20
1048.1511095301
 30
0.0
 11
28.5809158096
 21
1048.1511095301
 31
0.0
  0
LINE
  5
F4
100
AcDbEntity
  8
52176995
370
         0
390
0
  6
CONTINUOUS
 62
         7
100
AcDbLine
 10
28.3421442478
 20
1048.1511095301
 30
0.0
 11
21.7323031
 21
1048.1511095301
 31
0.0
  0
LINE
  5
F5
100
AcDbEntity
  8
52176995
370
         0
390
0
  6
CONTINUOUS
 62
         7
100
AcDbLine
 10
34.0372236739
 20
969.1511095301
 30
0.0
 11
34.0372236739
 21
585.1511095301
 31
0.0
  0
LINE
  5
F6
100
AcDbEntity
  8
52176995
370
         0
390
0
  6
CONTINUOUS
 62
         7
100
AcDbLine
 10
16.0372236739
 20
969.1511095301
 30
0.0
 11
16.0372236739
 21
585.1511095301
 31
0.0
  0
LINE
  5
F7
100
AcDbEntity
  8
52176995
370
         0
390
0
  6
CONTINUOUS
 62
         7
100
AcDbLine
 10
32.0372236739
 20
1009.1511095301
 30
0.0
 11
18.0372236739
 21
1009.1511095301
 31
0.0
  0
LINE
  5
F8
100
AcDbEntity
  8
52176995
370
         0
390
0
  6
CONTINUOUS
 62
         7
100
AcDbLine
 10
32.0372236739
 20
1009.1511095301
 30
0.0
 11
32.0372236739
 21
1007.6511095301
 31
0.0
  0
LINE
  5
F9
100
AcDbEntity
  8
52176995
370
         0
390
0
  6
CONTINUOUS
 62
         7
100
AcDbLine
 10
18.0372236739
 20
1007.6511095301
 30
0.0
 11
18.0372236739
 21
1009.1511095301
 31
0.0
  0
LINE
  5
FA
100
AcDbEntity
  8
52176995
370
         0
390
0
  6
CONTINUOUS
 62
         7
100
AcDbLine
 10
33.5372236739
 20
1018.5171349338
 30
0.0
 11
32.0372236739
 21
1017.6511095301
 31
0.0
  0
LINE
  5
FB
100
AcDbEntity
  8
52176995
370
         0
390
0
  6
CONTINUOUS
 62
         7
100
AcDbLine
 10
31.9372236739
 20
1059.5511095301
 30
0.0
 11
31.9372236739
 21
1065.1511095301
 31
0.0
  0
LINE
  5
FC
100
AcDbEntity
  8
52176995
370
         0
390
0
  6
CONTINUOUS
 62
         7
100
AcDbLine
 10
18.1372236739
 20
1059.5511095301
 30
0.0
 11
19.0372236739
 21
1058.6511095301
 31
0.0
  0
ENDBLK
  5
FD
100
AcDbEntity
  8
52176995
370
         0
390
0
  6
CONTINUOUS
 62
         7
100
AcDbBlockEnd
  0
BLOCK
  5
17C
100
AcDbEntity
  8
0
370
         0
390
0
 62
         1
 48
0.0
100
AcDbBlockBegin
  2
SE4
 70
         0
 10
0.0
 20
0.0
 30
0.0
  3
SE4
  1

  0
ENDBLK
  5
17D
100
AcDbEntity
  8
0
370
         0
390
0
 62
         1
 48
0.0
100
AcDbBlockEnd
  0
BLOCK
  5
100
100
AcDbEntity
  8
0
370
         0
390
0
 62
         1
 48
0.0
100
AcDbBlockBegin
  2
SE5
 70
         0
 10
0.0
 20
0.0
 30
0.0
  3
SE5
  1

  0
ARC
  5
101
100
AcDbEntity
  8
52176995
370
         0
390
0
  6
CONTINUOUS
 62
         7
100
AcDbCircle
 10
397.5752905939
 20
777.1511095301
 30
0.0
 40
192.2
100
AcDbArc
 50
133.2998401298
 51
133.6740085766
  0
ELLIPSE
  5
102
100
AcDbEntity
  8
52176995
370
         0
390
0
  6
CONTINUOUS
 62
         7
100
AcDbEllipse
 10
397.5752905939
 20
1013.6096576457
 30
0.0
 11
8.5000000000000142
 21
-0.0000000000000005
 31
0.0
210
0.0
220
0.0
230
1.0
 40
0.5773502692
 41
0.9676049211852281
 42
2.1739877324045569
  0
ARC
  5
103
100
AcDbEntity
  8
52176995
370
         0
390
0
  6
CONTINUOUS
 62
         7
100
AcDbCircle
 10
397.9640760215
 20
1017.4008798249
 30
0.0
 40
9.7575188911
100
AcDbArc
 50
237.723215948
 51
267.716462272
  0
LINE
  5
104
100
AcDbEntity
  8
52176995
370
         0
390
0
  6
CONTINUOUS
 62
         7
100
AcDbLine
 10
165.5752905939
 20
768.6511095301
 30
0.0
 11
165.5752905939
 21
772.3292841496
 31
0.0
  0
LINE
  5
105
100
AcDbEntity
  8
52176995
370
         0
390
0
  6
CONTINUOUS
 62
         7
100
AcDbLine
 10
157.0752905939
 20
772.3292841496
 30
0.0
 11
165.5752905939
 21
772.3292841496
 31
0.0
  0
LINE
  5
106
100
AcDbEntity
  8
52176995
370
         0
390
0
  6
CONTINUOUS
 62
         7
100
AcDbLine
 10
258.3740929579
 20
909.389631061
 30
0.0
 11
258.2326251322
 21
909.5310988866
 31
0.0
  0
ARC
  5
107
100
AcDbEntity
  8
52176995
370
         0
390
0
  6
CONTINUOUS
 62
         7
100
AcDbCircle
 10
397.5752905939
 20
777.1511095301
 30
0.0
 40
192.2
100
AcDbArc
 50
136.4678374047
 51
137.0011692763
  0
LINE
  5
108
100
AcDbEntity
  8
52176995
370
         0
390
0
  6
CONTINUOUS
 62
         7
100
AcDbLine
 10
165.5752905939
 20
781.9729349105
 30
0.0
 11
157.0752905939
 21
781.9729349105
 31
0.0
  0
LINE
  5
109
100
AcDbEntity
  8
52176995
370
         0
390
0
  6
CONTINUOUS
 62
         7
100
AcDbLine
 10
157.0752905939
 20
781.9729349105
 30
0.0
 11
157.0752905939
 21
772.3292841496
 31
0.0
  0
ELLIPSE
  5
10A
100
AcDbEntity
  8
52176995
370
         0
390
0
  6
CONTINUOUS
 62
         7
100
AcDbEllipse
 10
161.1167424783
 20
777.1511095301
 30
0.0
 11
0.0000000000000005
 21
8.5000000000000053
 31
0.0
210
0.0
220
0.0
230
1.0
 40
0.5773502692
 41
0.9676049211852192
 42
2.1739877324045742
  0
LINE
  5
10B
100
AcDbEntity
  8
52176995
370
         0
390
0
  6
CONTINUOUS
 62
         7
100
AcDbLine
 10
397.5752905939
 20
1007.6511095301
 30
0.0
 11
390.5752905939
 21
1007.6511095301
 31
0.0
  0
ARC
  5
10C
100
AcDbEntity
  8
52176995
370
         0
390
0
  6
CONTINUOUS
 62
         7
100
AcDbCircle
 10
157.5028067545
 20
776.8174753496
 30
0.0
 40
9.5782962275
100
AcDbArc
 50
1.9961481256
 51
32.5641736544
  0
LINE
  5
10D
100
AcDbEntity
  8
52176995
370
         0
390
0
  6
CONTINUOUS
 62
         7
100
AcDbLine
 10
402.3971159744
 20
1009.1511095301
 30
0.0
 11
406.0752905939
 21
1009.1511095301
 31
0.0
  0
ARC
  5
10E
100
AcDbEntity
  8
52176995
370
         0
390
0
  6
CONTINUOUS
 62
         7
100
AcDbCircle
 10
397.2416564135
 20
1017.2235933695
 30
0.0
 40
9.5782962275
100
AcDbArc
 50
271.9961481256
 51
302.5641736544
  0
CIRCLE
  5
10F
100
AcDbEntity
  8
52176995
370
         0
390
0
  6
CONTINUOUS
 62
         7
100
AcDbCircle
 10
397.5752905939
 20
777.1511095301
 30
0.0
 40
121.5
  0
LINE
  5
110
100
AcDbEntity
  8
52176995
370
         0
390
0
  6
CONTINUOUS
 62
         7
100
AcDbLine
 10
165.5752905939
 20
781.9729349105
 30
0.0
 11
165.5752905939
 21
785.6511095301
 31
0.0
  0
CIRCLE
  5
111
100
AcDbEntity
  8
52176995
370
         0
390
0
  6
CONTINUOUS
 62
         7
100
AcDbCircle
 10
397.5752905939
 20
777.1511095301
 30
0.0
 40
192.0
  0
LINE
  5
112
100
AcDbEntity
  8
52176995
370
         0
390
0
  6
CONTINUOUS
 62
         7
100
AcDbLine
 10
167.0752905939
 20
777.1511095301
 30
0.0
 11
167.0752905939
 21
770.1511095301
 31
0.0
  0
CIRCLE
  5
113
100
AcDbEntity
  8
52176995
370
         0
390
0
  6
CONTINUOUS
 62
         7
100
AcDbCircle
 10
397.5752905939
 20
777.1511095301
 30
0.0
 40
152.5
  0
LINE
  5
114
100
AcDbEntity
  8
52176995
370
         0
390
0
  6
CONTINUOUS
 62
         7
100
AcDbLine
 10
167.0752905939
 20
777.1511095301
 30
0.0
 11
167.0752905939
 21
784.1511095301
 31
0.0
  0
LINE
  5
115
100
AcDbEntity
  8
52176995
370
         0
390
0
  6
CONTINUOUS
 62
         7
100
AcDbLine
 10
142.5752905939
 20
785.6511095301
 30
0.0
 11
142.5752905939
 21
768.6511095301
 31
0.0
  0
LINE
  5
116
100
AcDbEntity
  8
52176995
370
         0
390
0
  6
CONTINUOUS
 62
         7
100
AcDbLine
 10
404.4752905939
 20
1065.1511095301
 30
0.0
 11
390.6752905939
 21
1065.1511095301
 31
0.0
  0
LINE
  5
117
100
AcDbEntity
  8
52176995
370
         0
390
0
  6
CONTINUOUS
 62
         7
100
AcDbLine
 10
404.4752905939
 20
1059.5511095301
 30
0.0
 11
390.6752905939
 21
1059.5511095301
 31
0.0
  0
LINE
  5
118
100
AcDbEntity
  8
52176995
370
         0
390
0
  6
CONTINUOUS
 62
         7
100
AcDbLine
 10
404.3252905939
 20
1056.1511095301
 30
0.0
 11
390.8252905939
 21
1056.1511095301
 31
0.0
  0
LINE
  5
119
100
AcDbEntity
  8
52176995
370
         0
390
0
  6
CONTINUOUS
 62
         7
100
AcDbLine
 10
404.3252905939
 20
1057.1511095301
 30
0.0
 11
390.8252905939
 21
1057.1511095301
 31
0.0
  0
LINE
  5
11A
100
AcDbEntity
  8
52176995
370
         0
390
0
  6
CONTINUOUS
 62
         7
100
AcDbLine
 10
404.4752905939
 20
1059.5511095301
 30
0.0
 11
404.4752905939
 21
1065.1511095301
 31
0.0
  0
LINE
  5
11B
100
AcDbEntity
  8
52176995
370
         0
390
0
  6
CONTINUOUS
 62
         7
100
AcDbLine
 10
142.5752905939
 20
784.0011095301
 30
0.0
 11
126.5752905939
 21
784.0011095301
 31
0.0
  0
LINE
  5
11C
100
AcDbEntity
  8
52176995
370
         0
390
0
  6
CONTINUOUS
 62
         7
100
AcDbLine
 10
390.6752905939
 20
1059.5511095301
 30
0.0
 11
391.5752905939
 21
1058.6511095301
 31
0.0
  0
LINE
  5
11D
100
AcDbEntity
  8
52176995
370
         0
390
0
  6
CONTINUOUS
 62
         7
100
AcDbLine
 10
403.5752905939
 20
1057.1511095301
 30
0.0
 11
403.5752905939
 21
1058.6511095301
 31
0.0
  0
LINE
  5
11E
100
AcDbEntity
  8
52176995
370
         0
390
0
  6
CONTINUOUS
 62
         7
100
AcDbLine
 10
404.3252905939
 20
1056.1511095301
 30
0.0
 11
404.3252905939
 21
1057.1511095301
 31
0.0
  0
LINE
  5
11F
100
AcDbEntity
  8
52176995
370
         0
390
0
  6
CONTINUOUS
 62
         7
100
AcDbLine
 10
391.5752905939
 20
1058.6511095301
 30
0.0
 11
391.5752905939
 21
1057.1511095301
 31
0.0
  0
LINE
  5
120
100
AcDbEntity
  8
52176995
370
         0
390
0
  6
CONTINUOUS
 62
         7
100
AcDbLine
 10
390.8252905939
 20
1057.1511095301
 30
0.0
 11
390.8252905939
 21
1056.1511095301
 31
0.0
  0
LINE
  5
121
100
AcDbEntity
  8
52176995
370
         0
390
0
  6
CONTINUOUS
 62
         7
100
AcDbLine
 10
393.5752905939
 20
1056.1511095301
 30
0.0
 11
393.5752905939
 21
1053.1511095301
 31
0.0
  0
LINE
  5
122
100
AcDbEntity
  8
52176995
370
         0
390
0
  6
CONTINUOUS
 62
         7
100
AcDbLine
 10
142.5752905939
 20
768.6511095301
 30
0.0
 11
165.5752905939
 21
768.6511095301
 31
0.0
  0
LINE
  5
123
100
AcDbEntity
  8
52176995
370
         0
390
0
  6
CONTINUOUS
 62
         7
100
AcDbLine
 10
205.6997057631
 20
784.1511095301
 30
0.0
 11
167.0752905939
 21
784.1511095301
 31
0.0
  0
LINE
  5
124
100
AcDbEntity
  8
52176995
370
         0
390
0
  6
CONTINUOUS
 62
         7
100
AcDbLine
 10
390.5752905939
 20
1007.6511095301
 30
0.0
 11
390.5752905939
 21
969.0238526396
 31
0.0
  0
LINE
  5
125
100
AcDbEntity
  8
52176995
370
         0
390
0
  6
CONTINUOUS
 62
         7
100
AcDbLine
 10
389.0752905939
 20
1032.1511095301
 30
0.0
 11
389.0752905939
 21
1009.1511095301
 31
0.0
  0
LINE
  5
126
100
AcDbEntity
  8
52176995
370
         0
390
0
  6
CONTINUOUS
 62
         7
100
AcDbLine
 10
126.5752905939
 20
770.3011095301
 30
0.0
 11
142.5752905939
 21
770.3011095301
 31
0.0
  0
LINE
  5
127
100
AcDbEntity
  8
52176995
370
         0
390
0
  6
CONTINUOUS
 62
         7
100
AcDbLine
 10
115.1752905939
 20
784.0511095301
 30
0.0
 11
109.5752905939
 21
784.0511095301
 31
0.0
  0
LINE
  5
128
100
AcDbEntity
  8
52176995
370
         0
390
0
  6
CONTINUOUS
 62
         7
100
AcDbLine
 10
115.1752905939
 20
770.2511095301
 30
0.0
 11
116.0752905939
 21
771.1511095301
 31
0.0
  0
LINE
  5
129
100
AcDbEntity
  8
52176995
370
         0
390
0
  6
CONTINUOUS
 62
         7
100
AcDbLine
 10
121.5752905939
 20
781.1511095301
 30
0.0
 11
118.5752905939
 21
781.1511095301
 31
0.0
  0
LINE
  5
12A
100
AcDbEntity
  8
52176995
370
         0
390
0
  6
CONTINUOUS
 62
         7
100
AcDbLine
 10
121.5752905939
 20
783.1511095301
 30
0.0
 11
126.5752905939
 21
783.1511095301
 31
0.0
  0
LINE
  5
12B
100
AcDbEntity
  8
52176995
370
         0
390
0
  6
CONTINUOUS
 62
         7
100
AcDbLine
 10
126.5752905939
 20
777.0132547046
 30
0.0
 11
121.5752905939
 21
777.0132547046
 31
0.0
  0
LINE
  5
12C
100
AcDbEntity
  8
52176995
370
         0
390
0
  6
CONTINUOUS
 62
         7
100
AcDbLine
 10
121.5752905939
 20
771.2889643555
 30
0.0
 11
126.5752905939
 21
771.2889643555
 31
0.0
  0
LINE
  5
12D
100
AcDbEntity
  8
52176995
370
         0
390
0
  6
CONTINUOUS
 62
         7
100
AcDbLine
 10
126.5752905939
 20
771.1511095301
 30
0.0
 11
121.5752905939
 21
771.1511095301
 31
0.0
  0
LINE
  5
12E
100
AcDbEntity
  8
52176995
370
         0
390
0
  6
CONTINUOUS
 62
         7
100
AcDbLine
 10
126.5752905939
 20
783.0132547046
 30
0.0
 11
121.5752905939
 21
783.0132547046
 31
0.0
  0
LINE
  5
12F
100
AcDbEntity
  8
52176995
370
         0
390
0
  6
CONTINUOUS
 62
         7
100
AcDbLine
 10
109.5752905939
 20
784.0511095301
 30
0.0
 11
109.5752905939
 21
770.2511095301
 31
0.0
  0
LINE
  5
130
100
AcDbEntity
  8
52176995
370
         0
390
0
  6
CONTINUOUS
 62
         7
100
AcDbLine
 10
118.5752905939
 20
783.9011095301
 30
0.0
 11
118.5752905939
 21
770.4011095301
 31
0.0
  0
LINE
  5
131
100
AcDbEntity
  8
52176995
370
         0
390
0
  6
CONTINUOUS
 62
         7
100
AcDbLine
 10
121.5752905939
 20
777.2889643555
 30
0.0
 11
126.5752905939
 21
777.2889643555
 31
0.0
  0
LINE
  5
132
100
AcDbEntity
  8
52176995
370
         0
390
0
  6
CONTINUOUS
 62
         7
100
AcDbLine
 10
116.0752905939
 20
771.1511095301
 30
0.0
 11
117.5752905939
 21
771.1511095301
 31
0.0
  0
LINE
  5
133
100
AcDbEntity
  8
52176995
370
         0
390
0
  6
CONTINUOUS
 62
         7
100
AcDbLine
 10
116.0752905939
 20
783.1511095301
 30
0.0
 11
115.1752905939
 21
784.0511095301
 31
0.0
  0
LINE
  5
134
100
AcDbEntity
  8
52176995
370
         0
390
0
  6
CONTINUOUS
 62
         7
100
AcDbLine
 10
109.5752905939
 20
770.2511095301
 30
0.0
 11
115.1752905939
 21
770.2511095301
 31
0.0
  0
LINE
  5
135
100
AcDbEntity
  8
52176995
370
         0
390
0
  6
CONTINUOUS
 62
         7
100
AcDbLine
 10
117.5752905939
 20
770.4011095301
 30
0.0
 11
118.5752905939
 21
770.4011095301
 31
0.0
  0
LINE
  5
136
100
AcDbEntity
  8
52176995
370
         0
390
0
  6
CONTINUOUS
 62
         7
100
AcDbLine
 10
118.5752905939
 20
773.1511095301
 30
0.0
 11
121.5752905939
 21
773.1511095301
 31
0.0
  0
LINE
  5
137
100
AcDbEntity
  8
52176995
370
         0
390
0
  6
CONTINUOUS
 62
         7
100
AcDbLine
 10
260.8952126397
 20
911.9938189747
 30
0.0
 11
260.7537880489
 21
912.1352435655
 31
0.0
  0
LINE
  5
138
100
AcDbEntity
  8
52176995
370
         0
390
0
  6
CONTINUOUS
 62
         7
100
AcDbLine
 10
258.4988899267
 20
909.5208748747
 30
0.0
 11
258.3574254574
 21
909.6623393441
 31
0.0
  0
LINE
  5
139
100
AcDbEntity
  8
52176995
370
         0
390
0
  6
CONTINUOUS
 62
         7
100
AcDbLine
 10
261.3242060352
 20
912.4272787416
 30
0.0
 11
261.1827837683
 21
912.5687010085
 31
0.0
  0
LINE
  5
13A
100
AcDbEntity
  8
52176995
370
         0
390
0
  6
CONTINUOUS
 62
         7
100
AcDbLine
 10
262.6668582183
 20
913.7663168605
 30
0.0
 11
262.525434071
 21
913.9077410078
 31
0.0
  0
ARC
  5
13B
100
AcDbEntity
  8
52176995
370
         0
390
0
  6
CONTINUOUS
 62
         7
100
AcDbCircle
 10
397.5752905939
 20
777.1511095301
 30
0.0
 40
192.1999999998
100
AcDbArc
 50
135.5264994137
 51
136.4138489682
  0
ARC
  5
13C
100
AcDbEntity
  8
52176995
370
         0
390
0
  6
CONTINUOUS
 62
         7
100
AcDbCircle
 10
397.5752905929
 20
777.1511095311
 30
0.0
 40
192.1999999985
100
AcDbArc
 50
135.2055048565
 51
135.3873056455
  0
ARC
  5
13D
100
AcDbEntity
  8
52176995
370
         0
390
0
  6
CONTINUOUS
 62
         7
100
AcDbCircle
 10
397.5752905939
 20
777.1511095301
 30
0.0
 40
192.2000000001
100
AcDbArc
 50
134.6402230244
 51
135.2055048565
  0
LINE
  5
13E
100
AcDbEntity
  8
52176995
370
         0
390
0
  6
CONTINUOUS
 62
         7
100
AcDbLine
 10
260.5676904154
 20
911.6610254965
 30
0.0
 11
260.426263082
 21
911.8024528299
 31
0.0
  0
ARC
  5
13F
100
AcDbEntity
  8
52176995
370
         0
390
0
  6
CONTINUOUS
 62
         7
100
AcDbCircle
 10
397.5752906091
 20
777.1511095151
 30
0.0
 40
192.2000000213
100
AcDbArc
 50
135.3873056455
 51
135.5264994137
  0
LINE
  5
140
100
AcDbEntity
  8
52176995
370
         0
390
0
  6
CONTINUOUS
 62
         7
100
AcDbLine
 10
266.6853312761
 20
917.6211011645
 30
0.0
 11
266.5438219083
 21
917.7626105322
 31
0.0
  0
LINE
  5
141
100
AcDbEntity
  8
52176995
370
         0
390
0
  6
CONTINUOUS
 62
         7
100
AcDbLine
 10
265.9028771633
 20
916.8879176421
 30
0.0
 11
265.7613934578
 21
917.0294013476
 31
0.0
  0
LINE
  5
142
100
AcDbEntity
  8
52176995
370
         0
390
0
  6
CONTINUOUS
 62
         7
100
AcDbLine
 10
267.6074686212
 20
918.4747284041
 30
0.0
 11
267.4659235548
 21
918.6162734705
 31
0.0
  0
LINE
  5
143
100
AcDbEntity
  8
52176995
370
         0
390
0
  6
CONTINUOUS
 62
         7
100
AcDbLine
 10
390.7252905939
 20
1048.1511095301
 30
0.0
 11
390.7252905939
 21
1032.1511095301
 31
0.0
  0
LINE
  5
144
100
AcDbEntity
  8
52176995
370
         0
390
0
  6
CONTINUOUS
 62
         7
100
AcDbLine
 10
264.9921987767
 20
916.0241586223
 30
0.0
 11
264.8507395002
 21
916.1656178987
 31
0.0
  0
LINE
  5
145
100
AcDbEntity
  8
52176995
370
         0
390
0
  6
CONTINUOUS
 62
         7
100
AcDbLine
 10
117.5752905939
 20
783.1511095301
 30
0.0
 11
116.0752905939
 21
783.1511095301
 31
0.0
  0
ARC
  5
146
100
AcDbEntity
  8
52176995
370
         0
390
0
  6
CONTINUOUS
 62
         7
100
AcDbCircle
 10
397.5752905939
 20
777.1511095301
 30
0.0
 40
192.2
100
AcDbArc
 50
132.9801869171
 51
133.2998401298
  0
LINE
  5
147
100
AcDbEntity
  8
52176995
370
         0
390
0
  6
CONTINUOUS
 62
         7
100
AcDbLine
 10
257.147941876
 20
908.0868179217
 30
0.0
 11
257.0064341263
 21
908.2283256714
 31
0.0
  0
ARC
  5
148
100
AcDbEntity
  8
52176995
370
         0
390
0
  6
CONTINUOUS
 62
         7
100
AcDbCircle
 10
397.5752905939
 20
777.1511095301
 30
0.0
 40
192.1999999999
100
AcDbArc
 50
137.0011692763
 51
137.3944087231
  0
LINE
  5
149
100
AcDbEntity
  8
52176995
370
         0
390
0
  6
CONTINUOUS
 62
         7
100
AcDbLine
 10
126.5752905939
 20
783.0132547046
 30
0.0
 11
126.5752905939
 21
777.2889643555
 31
0.0
  0
LINE
  5
14A
100
AcDbEntity
  8
52176995
370
         0
390
0
  6
CONTINUOUS
 62
         7
100
AcDbLine
 10
121.5752905939
 20
783.0132547046
 30
0.0
 11
121.5752905939
 21
777.2889643555
 31
0.0
  0
LINE
  5
14B
100
AcDbEntity
  8
52176995
370
         0
390
0
  6
CONTINUOUS
 62
         7
100
AcDbLine
 10
121.5752905939
 20
777.0132547046
 30
0.0
 11
121.5752905939
 21
771.2889643555
 31
0.0
  0
LINE
  5
14C
100
AcDbEntity
  8
52176995
370
         0
390
0
  6
CONTINUOUS
 62
         7
100
AcDbLine
 10
116.0752905939
 20
783.1511095301
 30
0.0
 11
116.0752905939
 21
771.1511095301
 31
0.0
  0
LINE
  5
14D
100
AcDbEntity
  8
52176995
370
         0
390
0
  6
CONTINUOUS
 62
         7
100
AcDbLine
 10
115.1752905939
 20
784.0511095301
 30
0.0
 11
115.1752905939
 21
770.2511095301
 31
0.0
  0
LINE
  5
14E
100
AcDbEntity
  8
52176995
370
         0
390
0
  6
CONTINUOUS
 62
         7
100
AcDbLine
 10
256.2516717199
 20
907.1189315028
 30
0.0
 11
256.1101266536
 21
907.2604765691
 31
0.0
  0
ARC
  5
14F
100
AcDbEntity
  8
52176995
370
         0
390
0
  6
CONTINUOUS
 62
         7
100
AcDbCircle
 10
397.5752905939
 20
777.1511095301
 30
0.0
 40
192.2
100
AcDbArc
 50
132.6055912769
 51
132.980186917
  0
LINE
  5
150
100
AcDbEntity
  8
52176995
370
         0
390
0
  6
CONTINUOUS
 62
         7
100
AcDbLine
 10
397.7131454194
 20
1053.1511095301
 30
0.0
 11
397.4374357685
 21
1053.1511095301
 31
0.0
  0
LINE
  5
151
100
AcDbEntity
  8
52176995
370
         0
390
0
  6
CONTINUOUS
 62
         7
100
AcDbLine
 10
397.4374357685
 20
1053.1511095301
 30
0.0
 11
391.7131454194
 21
1053.1511095301
 31
0.0
  0
LINE
  5
152
100
AcDbEntity
  8
52176995
370
         0
390
0
  6
CONTINUOUS
 62
         7
100
AcDbLine
 10
118.5752905939
 20
783.9011095301
 30
0.0
 11
117.5752905939
 21
783.9011095301
 31
0.0
  0
LINE
  5
153
100
AcDbEntity
  8
52176995
370
         0
390
0
  6
CONTINUOUS
 62
         7
100
AcDbLine
 10
121.5752905939
 20
771.2889643555
 30
0.0
 11
121.5752905939
 21
771.1511095301
 31
0.0
  0
LINE
  5
154
100
AcDbEntity
  8
52176995
370
         0
390
0
  6
CONTINUOUS
 62
         7
100
AcDbLine
 10
121.5752905939
 20
777.2889643555
 30
0.0
 11
121.5752905939
 21
777.0132547046
 31
0.0
  0
ARC
  5
155
100
AcDbEntity
  8
52176995
370
         0
390
0
  6
CONTINUOUS
 62
         7
100
AcDbCircle
 10
157.3255202991
 20
777.5398949576
 30
0.0
 40
9.7575188911
100
AcDbArc
 50
327.723215948
 51
357.716462272
  0
LINE
  5
156
100
AcDbEntity
  8
52176995
370
         0
390
0
  6
CONTINUOUS
 62
         7
100
AcDbLine
 10
404.5752905939
 20
969.0266943609
 30
0.0
 11
404.5752905939
 21
1007.6511095301
 31
0.0
  0
LINE
  5
157
100
AcDbEntity
  8
52176995
370
         0
390
0
  6
CONTINUOUS
 62
         7
100
AcDbLine
 10
402.3971159744
 20
1017.6511095301
 30
0.0
 11
392.7534652134
 21
1017.6511095301
 31
0.0
  0
LINE
  5
158
100
AcDbEntity
  8
52176995
370
         0
390
0
  6
CONTINUOUS
 62
         7
100
AcDbLine
 10
397.5752905939
 20
1007.6511095301
 30
0.0
 11
404.5752905939
 21
1007.6511095301
 31
0.0
  0
LINE
  5
159
100
AcDbEntity
  8
52176995
370
         0
390
0
  6
CONTINUOUS
 62
         7
100
AcDbLine
 10
402.3971159744
 20
1009.1511095301
 30
0.0
 11
402.3971159744
 21
1017.6511095301
 31
0.0
  0
LINE
  5
15A
100
AcDbEntity
  8
52176995
370
         0
390
0
  6
CONTINUOUS
 62
         7
100
AcDbLine
 10
389.0752905939
 20
1009.1511095301
 30
0.0
 11
392.7534652134
 21
1009.1511095301
 31
0.0
  0
LINE
  5
15B
100
AcDbEntity
  8
52176995
370
         0
390
0
  6
CONTINUOUS
 62
         7
100
AcDbLine
 10
392.7534652134
 20
1017.6511095301
 30
0.0
 11
392.7534652134
 21
1009.1511095301
 31
0.0
  0
LINE
  5
15C
100
AcDbEntity
  8
52176995
370
         0
390
0
  6
CONTINUOUS
 62
         7
100
AcDbLine
 10
406.0752905939
 20
1032.1511095301
 30
0.0
 11
389.0752905939
 21
1032.1511095301
 31
0.0
  0
LINE
  5
15D
100
AcDbEntity
  8
52176995
370
         0
390
0
  6
CONTINUOUS
 62
         7
100
AcDbLine
 10
117.5752905939
 20
783.9011095301
 30
0.0
 11
117.5752905939
 21
770.4011095301
 31
0.0
  0
LINE
  5
15E
100
AcDbEntity
  8
52176995
370
         0
390
0
  6
CONTINUOUS
 62
         7
100
AcDbLine
 10
389.0752905939
 20
1009.1511095301
 30
0.0
 11
390.5752905939
 21
1007.6511095301
 31
0.0
  0
LINE
  5
15F
100
AcDbEntity
  8
52176995
370
         0
390
0
  6
CONTINUOUS
 62
         7
100
AcDbLine
 10
406.0752905939
 20
1009.1511095301
 30
0.0
 11
406.0752905939
 21
1032.1511095301
 31
0.0
  0
LINE
  5
160
100
AcDbEntity
  8
52176995
370
         0
390
0
  6
CONTINUOUS
 62
         7
100
AcDbLine
 10
404.5752905939
 20
1007.6511095301
 30
0.0
 11
406.0752905939
 21
1009.1511095301
 31
0.0
  0
LINE
  5
161
100
AcDbEntity
  8
52176995
370
         0
390
0
  6
CONTINUOUS
 62
         7
100
AcDbLine
 10
404.4252905939
 20
1032.1511095301
 30
0.0
 11
404.4252905939
 21
1048.1511095301
 31
0.0
  0
LINE
  5
162
100
AcDbEntity
  8
52176995
370
         0
390
0
  6
CONTINUOUS
 62
         7
100
AcDbLine
 10
403.5752905939
 20
1053.1511095301
 30
0.0
 11
403.5752905939
 21
1048.1511095301
 31
0.0
  0
LINE
  5
163
100
AcDbEntity
  8
52176995
370
         0
390
0
  6
CONTINUOUS
 62
         7
100
AcDbLine
 10
403.4374357685
 20
1048.1511095301
 30
0.0
 11
403.4374357685
 21
1053.1511095301
 31
0.0
  0
LINE
  5
164
100
AcDbEntity
  8
52176995
370
         0
390
0
  6
CONTINUOUS
 62
         7
100
AcDbLine
 10
397.7131454194
 20
1053.1511095301
 30
0.0
 11
397.7131454194
 21
1048.1511095301
 31
0.0
  0
LINE
  5
165
100
AcDbEntity
  8
52176995
370
         0
390
0
  6
CONTINUOUS
 62
         7
100
AcDbLine
 10
397.4374357685
 20
1048.1511095301
 30
0.0
 11
397.4374357685
 21
1053.1511095301
 31
0.0
  0
LINE
  5
166
100
AcDbEntity
  8
52176995
370
         0
390
0
  6
CONTINUOUS
 62
         7
100
AcDbLine
 10
391.7131454194
 20
1053.1511095301
 30
0.0
 11
391.7131454194
 21
1048.1511095301
 31
0.0
  0
LINE
  5
167
100
AcDbEntity
  8
52176995
370
         0
390
0
  6
CONTINUOUS
 62
         7
100
AcDbLine
 10
391.5752905939
 20
1048.1511095301
 30
0.0
 11
391.5752905939
 21
1053.1511095301
 31
0.0
  0
LINE
  5
168
100
AcDbEntity
  8
52176995
370
         0
390
0
  6
CONTINUOUS
 62
         7
100
AcDbLine
 10
391.5752905939
 20
1048.1511095301
 30
0.0
 11
390.7252905939
 21
1048.1511095301
 31
0.0
  0
LINE
  5
169
100
AcDbEntity
  8
52176995
370
         0
390
0
  6
CONTINUOUS
 62
         7
100
AcDbLine
 10
126.5752905939
 20
777.0132547046
 30
0.0
 11
126.5752905939
 21
771.2889643555
 31
0.0
  0
LINE
  5
16A
100
AcDbEntity
  8
52176995
370
         0
390
0
  6
CONTINUOUS
 62
         7
100
AcDbLine
 10
126.5752905939
 20
770.3011095301
 30
0.0
 11
126.5752905939
 21
771.1511095301
 31
0.0
  0
LINE
  5
16B
100
AcDbEntity
  8
52176995
370
         0
390
0
  6
CONTINUOUS
 62
         7
100
AcDbLine
 10
126.5752905939
 20
784.0011095301
 30
0.0
 11
126.5752905939
 21
783.1511095301
 31
0.0
  0
LINE
  5
16C
100
AcDbEntity
  8
52176995
370
         0
390
0
  6
CONTINUOUS
 62
         7
100
AcDbLine
 10
121.5752905939
 20
783.1511095301
 30
0.0
 11
121.5752905939
 21
783.0132547046
 31
0.0
  0
LINE
  5
16D
100
AcDbEntity
  8
52176995
370
         0
390
0
  6
CONTINUOUS
 62
         7
100
AcDbLine
 10
390.6752905939
 20
1065.1511095301
 30
0.0
 11
390.6752905939
 21
1059.5511095301
 31
0.0
  0
LINE
  5
16E
100
AcDbEntity
  8
52176995
370
         0
390
0
  6
CONTINUOUS
 62
         7
100
AcDbLine
 10
403.4374357685
 20
1053.1511095301
 30
0.0
 11
397.7131454194
 21
1053.1511095301
 31
0.0
  0
LINE
  5
16F
100
AcDbEntity
  8
52176995
370
         0
390
0
  6
CONTINUOUS
 62
         7
100
AcDbLine
 10
167.0752905939
 20
770.1511095301
 30
0.0
 11
205.7025474844
 21
770.1511095301
 31
0.0
  0
LINE
  5
170
100
AcDbEntity
  8
52176995
370
         0
390
0
  6
CONTINUOUS
 62
         7
100
AcDbLine
 10
391.7131454194
 20
1053.1511095301
 30
0.0
 11
391.5752905939
 21
1053.1511095301
 31
0.0
  0
LINE
  5
171
100
AcDbEntity
  8
52176995
370
         0
390
0
  6
CONTINUOUS
 62
         7
100
AcDbLine
 10
165.5752905939
 20
768.6511095301
 30
0.0
 11
167.0752905939
 21
770.1511095301
 31
0.0
  0
LINE
  5
172
100
AcDbEntity
  8
52176995
370
         0
390
0
  6
CONTINUOUS
 62
         7
100
AcDbLine
 10
403.5752905939
 20
1058.6511095301
 30
0.0
 11
391.5752905939
 21
1058.6511095301
 31
0.0
  0
LINE
  5
173
100
AcDbEntity
  8
52176995
370
         0
390
0
  6
CONTINUOUS
 62
         7
100
AcDbLine
 10
401.5752905939
 20
1053.1511095301
 30
0.0
 11
401.5752905939
 21
1056.1511095301
 31
0.0
  0
LINE
  5
174
100
AcDbEntity
  8
52176995
370
         0
390
0
  6
CONTINUOUS
 62
         7
100
AcDbLine
 10
403.5752905939
 20
1058.6511095301
 30
0.0
 11
404.4752905939
 21
1059.5511095301
 31
0.0
  0
LINE
  5
175
100
AcDbEntity
  8
52176995
370
         0
390
0
  6
CONTINUOUS
 62
         7
100
AcDbLine
 10
167.0752905939
 20
784.1511095301
 30
0.0
 11
165.5752905939
 21
785.6511095301
 31
0.0
  0
LINE
  5
176
100
AcDbEntity
  8
52176995
370
         0
390
0
  6
CONTINUOUS
 62
         7
100
AcDbLine
 10
165.5752905939
 20
785.6511095301
 30
0.0
 11
142.5752905939
 21
785.6511095301
 31
0.0
  0
LINE
  5
177
100
AcDbEntity
  8
52176995
370
         0
390
0
  6
CONTINUOUS
 62
         7
100
AcDbLine
 10
403.5752905939
 20
1053.1511095301
 30
0.0
 11
403.4374357685
 21
1053.1511095301
 31
0.0
  0
LINE
  5
178
100
AcDbEntity
  8
52176995
370
         0
390
0
  6
CONTINUOUS
 62
         7
100
AcDbLine
 10
397.4374357685
 20
1048.1511095301
 30
0.0
 11
391.7131454194
 21
1048.1511095301
 31
0.0
  0
LINE
  5
179
100
AcDbEntity
  8
52176995
370
         0
390
0
  6
CONTINUOUS
 62
         7
100
AcDbLine
 10
403.4374357685
 20
1048.1511095301
 30
0.0
 11
397.7131454194
 21
1048.1511095301
 31
0.0
  0
LINE
  5
17A
100
AcDbEntity
  8
52176995
370
         0
390
0
  6
CONTINUOUS
 62
         7
100
AcDbLine
 10
403.5752905939
 20
1048.1511095301
 30
0.0
 11
404.4252905939
 21
1048.1511095301
 31
0.0
  0
ENDBLK
  5
17B
100
AcDbEntity
  8
52176995
370
         0
390
0
  6
CONTINUOUS
 62
         7
100
AcDbBlockEnd
  0
BLOCK
  5
1B4
100
AcDbEntity
  8
0
370
         0
390
0
 62
         1
 48
0.0
100
AcDbBlockBegin
  2
SE6
 70
         0
 10
0.0
 20
0.0
 30
0.0
  3
SE6
  1

  0
ENDBLK
  5
1B5
100
AcDbEntity
  8
0
370
         0
390
0
 62
         1
 48
0.0
100
AcDbBlockEnd
  0
BLOCK
  5
17E
100
AcDbEntity
  8
0
370
         0
390
0
 62
         1
 48
0.0
100
AcDbBlockBegin
  2
SE7
 70
         0
 10
0.0
 20
0.0
 30
0.0
  3
SE7
  1

  0
LINE
  5
17F
100
AcDbEntity
  8
52176995
370
         0
390
0
  6
CONTINUOUS
 62
         7
100
AcDbLine
 10
405.142640558
 20
434.6935545748
 30
0.0
 11
405.142640558
 21
433.1935545748
 31
0.0
  0
LINE
  5
180
100
AcDbEntity
  8
52176995
370
         0
390
0
  6
CONTINUOUS
 62
         7
100
AcDbLine
 10
404.992640558
 20
478.6935545748
 30
0.0
 11
404.9912532677
 21
478.6935545748
 31
0.0
  0
LINE
  5
181
100
AcDbEntity
  8
52176995
370
         0
390
0
  6
CONTINUOUS
 62
         7
100
AcDbLine
 10
404.142640558
 20
482.6935545748
 30
0.0
 11
404.142640558
 21
484.1935545748
 31
0.0
  0
LINE
  5
182
100
AcDbEntity
  8
52176995
370
         0
390
0
  6
CONTINUOUS
 62
         7
100
AcDbLine
 10
394.8377199841
 20
478.6935545748
 30
0.0
 11
394.5989484223
 21
478.6935545748
 31
0.0
  0
LINE
  5
183
100
AcDbEntity
  8
52176995
370
         0
390
0
  6
CONTINUOUS
 62
         7
100
AcDbLine
 10
404.142640558
 20
484.1935545748
 30
0.0
 11
405.042640558
 21
485.0935545748
 31
0.0
  0
LINE
  5
184
100
AcDbEntity
  8
52176995
370
         0
390
0
  6
CONTINUOUS
 62
         7
100
AcDbLine
 10
394.142640558
 20
481.6935545748
 30
0.0
 11
394.142640558
 21
478.6935545748
 31
0.0
  0
LINE
  5
185
100
AcDbEntity
  8
52176995
370
         0
390
0
  6
CONTINUOUS
 62
         7
100
AcDbLine
 10
391.392640558
 20
482.6935545748
 30
0.0
 11
391.392640558
 21
481.6935545748
 31
0.0
  0
LINE
  5
186
100
AcDbEntity
  8
52176995
370
         0
390
0
  6
CONTINUOUS
 62
         7
100
AcDbLine
 10
391.292640558
 20
478.6935545748
 30
0.0
 11
391.292640558
 21
457.6935545748
 31
0.0
  0
LINE
  5
187
100
AcDbEntity
  8
52176995
370
         0
390
0
  6
CONTINUOUS
 62
         7
100
AcDbLine
 10
389.642640558
 20
457.6935545748
 30
0.0
 11
389.642640558
 21
444.0595799785
 31
0.0
  0
LINE
  5
188
100
AcDbEntity
  8
52176995
370
         0
390
0
  6
CONTINUOUS
 62
         7
100
AcDbLine
 10
391.242640558
 20
490.6935545748
 30
0.0
 11
391.242640558
 21
485.0935545748
 31
0.0
  0
LINE
  5
189
100
AcDbEntity
  8
52176995
370
         0
390
0
  6
CONTINUOUS
 62
         7
100
AcDbLine
 10
392.142640558
 20
484.1935545748
 30
0.0
 11
392.142640558
 21
482.6935545748
 31
0.0
  0
LINE
  5
18A
100
AcDbEntity
  8
52176995
370
         0
390
0
  6
CONTINUOUS
 62
         7
100
AcDbLine
 10
391.142640558
 20
433.1935545748
 30
0.0
 11
391.142640558
 21
394.6935545748
 31
0.0
  0
LINE
  5
18B
100
AcDbEntity
  8
52176995
370
         0
390
0
  6
CONTINUOUS
 62
         7
100
AcDbLine
 10
405.042640558
 20
485.0935545748
 30
0.0
 11
405.042640558
 21
490.6935545748
 31
0.0
  0
LINE
  5
18C
100
AcDbEntity
  8
52176995
370
         0
390
0
  6
CONTINUOUS
 62
         7
100
AcDbLine
 10
391.242640558
 20
485.0935545748
 30
0.0
 11
392.142640558
 21
484.1935545748
 31
0.0
  0
LINE
  5
18D
100
AcDbEntity
  8
52176995
370
         0
390
0
  6
CONTINUOUS
 62
         7
100
AcDbLine
 10
402.142640558
 20
478.6935545748
 30
0.0
 11
402.142640558
 21
481.6935545748
 31
0.0
  0
LINE
  5
18E
100
AcDbEntity
  8
52176995
370
         0
390
0
  6
CONTINUOUS
 62
         7
100
AcDbLine
 10
391.1474852
 20
394.6935545748
 30
0.0
 11
389.142640558
 21
394.6935545748
 31
0.0
  0
LINE
  5
18F
100
AcDbEntity
  8
52176995
370
         0
390
0
  6
CONTINUOUS
 62
         7
100
AcDbLine
 10
404.892640558
 20
481.6935545748
 30
0.0
 11
404.892640558
 21
482.6935545748
 31
0.0
  0
LINE
  5
190
100
AcDbEntity
  8
52176995
370
         0
390
0
  6
CONTINUOUS
 62
         7
100
AcDbLine
 10
405.142640558
 20
394.6935545748
 30
0.0
 11
405.142640558
 21
433.1935545748
 31
0.0
  0
LINE
  5
191
100
AcDbEntity
  8
52176995
370
         0
390
0
  6
CONTINUOUS
 62
         7
100
AcDbLine
 10
404.992640558
 20
457.6935545748
 30
0.0
 11
404.992640558
 21
478.6935545748
 31
0.0
  0
LINE
  5
192
100
AcDbEntity
  8
52176995
370
         0
390
0
  6
CONTINUOUS
 62
         7
100
AcDbLine
 10
406.642640558
 20
444.0595799785
 30
0.0
 11
406.642640558
 21
457.6935545748
 31
0.0
  0
LINE
  5
193
100
AcDbEntity
  8
52176995
370
         0
390
0
  6
CONTINUOUS
 62
         7
100
AcDbLine
 10
407.142640558
 20
394.6935545748
 30
0.0
 11
405.142640558
 21
394.6935545748
 31
0.0
  0
LINE
  5
194
100
AcDbEntity
  8
52176995
370
         0
390
0
  6
CONTINUOUS
 62
         7
100
AcDbLine
 10
404.9912532677
 20
473.6935545748
 30
0.0
 11
401.6863326938
 21
473.6935545748
 31
0.0
  0
LINE
  5
195
100
AcDbEntity
  8
52176995
370
         0
390
0
  6
CONTINUOUS
 62
         7
100
AcDbLine
 10
401.4475611319
 20
473.6935545748
 30
0.0
 11
394.8377199841
 21
473.6935545748
 31
0.0
  0
LINE
  5
196
100
AcDbEntity
  8
52176995
370
         0
390
0
  6
CONTINUOUS
 62
         7
100
AcDbLine
 10
394.5989484223
 20
473.6935545748
 30
0.0
 11
391.2940278483
 21
473.6935545748
 31
0.0
  0
LINE
  5
197
100
AcDbEntity
  8
52176995
370
         0
390
0
  6
CONTINUOUS
 62
         7
100
AcDbLine
 10
389.142640558
 20
10.6935545748
 30
0.0
 11
407.142640558
 21
10.6935545748
 31
0.0
  0
LINE
  5
198
100
AcDbEntity
  8
52176995
370
         0
390
0
  6
CONTINUOUS
 62
         7
100
AcDbLine
 10
391.292640558
 20
478.6935545748
 30
0.0
 11
391.2940278483
 21
478.6935545748
 31
0.0
  0
LINE
  5
199
100
AcDbEntity
  8
52176995
370
         0
390
0
  6
CONTINUOUS
 62
         7
100
AcDbLine
 10
401.4475611319
 20
478.6935545748
 30
0.0
 11
394.8377199841
 21
478.6935545748
 31
0.0
  0
LINE
  5
19A
100
AcDbEntity
  8
52176995
370
         0
390
0
  6
CONTINUOUS
 62
         7
100
AcDbLine
 10
404.9912532677
 20
478.6935545748
 30
0.0
 11
401.6863326938
 21
478.6935545748
 31
0.0
  0
LINE
  5
19B
100
AcDbEntity
  8
52176995
370
         0
390
0
  6
CONTINUOUS
 62
         7
100
AcDbLine
 10
394.5989484223
 20
478.6935545748
 30
0.0
 11
391.2940278483
 21
478.6935545748
 31
0.0
  0
LINE
  5
19C
100
AcDbEntity
  8
52176995
370
         0
390
0
  6
CONTINUOUS
 62
         7
100
AcDbLine
 10
392.142640558
 20
484.1935545748
 30
0.0
 11
404.142640558
 21
484.1935545748
 31
0.0
  0
LINE
  5
19D
100
AcDbEntity
  8
52176995
370
         0
390
0
  6
CONTINUOUS
 62
         7
100
AcDbLine
 10
391.242640558
 20
485.0935545748
 30
0.0
 11
405.042640558
 21
485.0935545748
 31
0.0
  0
LINE
  5
19E
100
AcDbEntity
  8
52176995
370
         0
390
0
  6
CONTINUOUS
 62
         7
100
AcDbLine
 10
394.8377199841
 20
478.6935545748
 30
0.0
 11
394.8377199841
 21
473.6935545748
 31
0.0
  0
LINE
  5
19F
100
AcDbEntity
  8
52176995
370
         0
390
0
  6
CONTINUOUS
 62
         7
100
AcDbLine
 10
401.4475611319
 20
473.6935545748
 30
0.0
 11
401.4475611319
 21
478.6935545748
 31
0.0
  0
LINE
  5
1A0
100
AcDbEntity
  8
52176995
370
         0
390
0
  6
CONTINUOUS
 62
         7
100
AcDbLine
 10
394.5989484223
 20
473.6935545748
 30
0.0
 11
394.5989484223
 21
478.6935545748
 31
0.0
  0
LINE
  5
1A1
100
AcDbEntity
  8
52176995
370
         0
390
0
  6
CONTINUOUS
 62
         7
100
AcDbLine
 10
391.392640558
 20
481.6935545748
 30
0.0
 11
404.892640558
 21
481.6935545748
 31
0.0
  0
LINE
  5
1A2
100
AcDbEntity
  8
52176995
370
         0
390
0
  6
CONTINUOUS
 62
         7
100
AcDbLine
 10
391.2940278483
 20
478.6935545748
 30
0.0
 11
391.2940278483
 21
473.6935545748
 31
0.0
  0
LINE
  5
1A3
100
AcDbEntity
  8
52176995
370
         0
390
0
  6
CONTINUOUS
 62
         7
100
AcDbLine
 10
401.6863326938
 20
478.6935545748
 30
0.0
 11
401.6863326938
 21
473.6935545748
 31
0.0
  0
LINE
  5
1A4
100
AcDbEntity
  8
52176995
370
         0
390
0
  6
CONTINUOUS
 62
         7
100
AcDbLine
 10
404.9912532677
 20
473.6935545748
 30
0.0
 11
404.9912532677
 21
478.6935545748
 31
0.0
  0
LINE
  5
1A5
100
AcDbEntity
  8
52176995
370
         0
390
0
  6
CONTINUOUS
 62
         7
100
AcDbLine
 10
401.6863326938
 20
478.6935545748
 30
0.0
 11
401.4475611319
 21
478.6935545748
 31
0.0
  0
LINE
  5
1A6
100
AcDbEntity
  8
52176995
370
         0
390
0
  6
CONTINUOUS
 62
         7
100
AcDbLine
 10
391.242640558
 20
490.6935545748
 30
0.0
 11
405.042640558
 21
490.6935545748
 31
0.0
  0
LINE
  5
1A7
100
AcDbEntity
  8
52176995
370
         0
390
0
  6
CONTINUOUS
 62
         7
100
AcDbLine
 10
391.392640558
 20
482.6935545748
 30
0.0
 11
404.892640558
 21
482.6935545748
 31
0.0
  0
LINE
  5
1A8
100
AcDbEntity
  8
52176995
370
         0
390
0
  6
CONTINUOUS
 62
         7
100
AcDbLine
 10
389.642640558
 20
444.0595799785
 30
0.0
 11
391.142640558
 21
443.1935545748
 31
0.0
  0
LINE
  5
1A9
100
AcDbEntity
  8
52176995
370
         0
390
0
  6
CONTINUOUS
 62
         7
100
AcDbLine
 10
405.142640558
 20
443.1935545748
 30
0.0
 11
406.642640558
 21
444.0595799785
 31
0.0
  0
LINE
  5
1AA
100
AcDbEntity
  8
52176995
370
         0
390
0
  6
CONTINUOUS
 62
         7
100
AcDbLine
 10
405.142640558
 20
433.1935545748
 30
0.0
 11
391.142640558
 21
433.1935545748
 31
0.0
  0
LINE
  5
1AB
100
AcDbEntity
  8
52176995
370
         0
390
0
  6
CONTINUOUS
 62
         7
100
AcDbLine
 10
389.642640558
 20
457.6935545748
 30
0.0
 11
406.642640558
 21
457.6935545748
 31
0.0
  0
LINE
  5
1AC
100
AcDbEntity
  8
52176995
370
         0
390
0
  6
CONTINUOUS
 62
         7
100
AcDbLine
 10
391.142640558
 20
434.6935545748
 30
0.0
 11
391.142640558
 21
443.1935545748
 31
0.0
  0
LINE
  5
1AD
100
AcDbEntity
  8
52176995
370
         0
390
0
  6
CONTINUOUS
 62
         7
100
AcDbLine
 10
405.142640558
 20
434.6935545748
 30
0.0
 11
391.142640558
 21
434.6935545748
 31
0.0
  0
LINE
  5
1AE
100
AcDbEntity
  8
52176995
370
         0
390
0
  6
CONTINUOUS
 62
         7
100
AcDbLine
 10
405.142640558
 20
443.1935545748
 30
0.0
 11
405.142640558
 21
434.6935545748
 31
0.0
  0
SPLINE
  5
1AF
100
AcDbEntity
  8
52176995
370
         0
390
0
  6
CONTINUOUS
 62
         7
100
AcDbSpline
210
0.0
220
0.0
230
1.0
 70
         8
 71
         3
 72
        16
 73
        12
 74
         0
 42
0.0
 43
0.0
 40
0.5000567172685688
 40
0.5000567172685688
 40
0.5000567172685688
 40
0.5000567172685688
 40
0.6250000000000003
 40
0.6250000000000003
 40
0.6875000000000003
 40
0.6875000000000003
 40
0.7500000000000003
 40
0.7500000000000003
 40
0.8750000000000002
 40
0.8750000000000002
 40
1.0
 40
1.0
 40
1.0
 40
1.0
 10
391.1426405837276
 20
394.69355457206746
 30
0.0
 10
391.1426783222941
 20
394.69355062219734
 30
0.0
 10
391.89912878358587
 20
394.66313839258316
 30
0.0
 10
393.83287139822011
 20
394.6132217567723
 30
0.0
 10
394.60989677628447
 20
394.5965613831591
 30
0.0
 10
396.30270145727229
 20
394.57286330650305
 30
0.0
 10
397.2122003897162
 20
394.56594221873206
 30
0.0
 10
399.98225605305015
 20
394.56583988542957
 30
0.0
 10
401.79506310315799
 20
394.59631244504925
 30
0.0
 10
404.38181624774484
 20
394.66296776618969
 30
0.0
 10
405.14264055801669
 20
394.69355457475842
 30
0.0
 10
405.14264055801669
 20
394.69355457475842
 30
0.0
  0
LINE
  5
1B0
100
AcDbEntity
  8
52176995
370
         0
390
0
  6
CONTINUOUS
 62
         7
100
AcDbLine
 10
391.142640558
 20
433.1935545748
 30
0.0
 11
391.142640558
 21
434.6935545748
 31
0.0
  0
LINE
  5
1B1
100
AcDbEntity
  8
52176995
370
         0
390
0
  6
CONTINUOUS
 62
         7
100
AcDbLine
 10
389.142640558
 20
10.6935545748
 30
0.0
 11
389.142640558
 21
394.6935545748
 31
0.0
  0
LINE
  5
1B2
100
AcDbEntity
  8
52176995
370
         0
390
0
  6
CONTINUOUS
 62
         7
100
AcDbLine
 10
407.142640558
 20
10.6935545748
 30
0.0
 11
407.142640558
 21
394.6935545748
 31
0.0
  0
ENDBLK
  5
1B3
100
AcDbEntity
  8
52176995
370
         0
390
0
  6
CONTINUOUS
 62
         7
100
AcDbBlockEnd
  0
ENDSEC
  0
SECTION
  2
ENTITIES
  0
INSERT
  5
47
102
{ACAD_XDICTIONARY
360
48
102
}
100
AcDbEntity
  8
0
370
         0
390
0
 62
         0
 48
0.0
100
AcDbBlockReference
  2
SE1
 10
0.0
 20
0.0
 30
0.0
  0
INSERT
  5
4B
100
AcDbEntity
  8
0
370
         0
390
0
 62
         0
 48
0.0
100
AcDbBlockReference
  2
SE0
 10
0.0
 20
0.0
 30
0.0
  0
INSERT
  5
4E
102
{ACAD_XDICTIONARY
360
4F
102
}
100
AcDbEntity
  8
0
370
         0
390
0
 62
         0
 48
0.0
100
AcDbBlockReference
  2
SE3
 10
0.0
 20
0.0
 30
0.0
  0
INSERT
  5
52
100
AcDbEntity
  8
0
370
         0
390
0
 62
         0
 48
0.0
100
AcDbBlockReference
  2
SE2
 10
0.0
 20
0.0
 30
0.0
  0
INSERT
  5
55
102
{ACAD_XDICTIONARY
360
56
102
}
100
AcDbEntity
  8
0
370
         0
390
0
 62
         0
 48
0.0
100
AcDbBlockReference
  2
SE5
 10
0.0
 20
0.0
 30
0.0
  0
INSERT
  5
59
100
AcDbEntity
  8
0
370
         0
390
0
 62
         0
 48
0.0
100
AcDbBlockReference
  2
SE4
 10
0.0
 20
0.0
 30
0.0
  0
INSERT
  5
5C
102
{ACAD_XDICTIONARY
360
5D
102
}
100
AcDbEntity
  8
0
370
         0
390
0
 62
         0
 48
0.0
100
AcDbBlockReference
  2
SE7
 10
0.0
 20
0.0
 30
0.0
  0
INSERT
  5
60
100
AcDbEntity
  8
0
370
         0
390
0
 62
         0
 48
0.0
100
AcDbBlockReference
  2
SE6
 10
0.0
 20
0.0
 30
0.0
  0
ENDSEC
  0
SECTION
  2
OBJECTS
  0
DICTIONARY
  5
19
100
AcDbDictionary
280
         0
281
         1
  3
ACAD_GROUP
350
1A
  3
ACAD_MLINESTYLE
350
1B
  3
ACAD_LAYOUT
350
1E
  3
ACAD_PLOTSETTINGS
350
22
  3
ACAD_PLOTSTYLENAME
350
1F
  3
ACAD_WIPEOUT_VARS
350
23
  3
AcDbVariableDictionary
350
1B6
  0
DICTIONARY
  5
1A
102
{ACAD_REACTORS
330
19
102
}
100
AcDbDictionary
280
         0
281
         1
  0
DICTIONARY
  5
1B
102
{ACAD_REACTORS
330
19
102
}
100
AcDbDictionary
280
         0
281
         1
  3
Standard
350
1C
  0
MLINESTYLE
  5
1C
102
{ACAD_REACTORS
330
1B
102
}
100
AcDbMlineStyle
  2
Standard
 70
         0
  3

 62
         0
 51
90.0
 52
90.0
 71
         2
 49
0.5
 62
       256
  6
ByLayer
 49
-0.5
 62
       256
  6
ByLayer
  0
ACDBDICTIONARYWDFLT
  5
1F
102
{ACAD_REACTORS
330
19
102
}
100
AcDbDictionary
281
         1
  3
Normal
350
1D
100
AcDbDictionaryWithDefault
340
1D
  0
ACDBPLACEHOLDER
  5
1D
102
{ACAD_REACTORS
330
1F
102
}
  0
LAYOUT
  5
20
102
{ACAD_REACTORS
330
1E
102
}
100
AcDbPlotSettings
  1

  2

  4

  6

 40
0.0
 41
0.0
 42
0.0
 43
0.0
 44
0.0
 45
0.0
 46
0.0
 47
0.0
 48
0.0
 49
0.0
140
0.0
141
0.0
142
1.0
143
1.0
 70
      1024
 72
         0
 73
         0
 74
         0
  7

 75
         0
147
1.0
148
0.0
149
0.0
100
AcDbLayout
  1
Model
 70
         0
 71
         0
 10
0.0
 20
0.0
 11
0.0
 21
0.0
 12
0.0
 22
0.0
 32
0.0
 14
0.0
 24
0.0
 34
0.0
 15
0.0
 25
0.0
 35
0.0
146
0.0
 13
0.0
 23
0.0
 33
0.0
 16
0.0
 26
0.0
 36
0.0
 17
0.0
 27
0.0
 37
0.0
 76
         0
330
A
331
0
345
0
346
0
  0
LAYOUT
  5
21
102
{ACAD_REACTORS
330
1E
102
}
100
AcDbPlotSettings
  1

  2

  4

  6

 40
0.0
 41
0.0
 42
0.0
 43
0.0
 44
0.0
 45
0.0
 46
0.0
 47
0.0
 48
0.0
 49
0.0
140
0.0
141
0.0
142
1.0
143
1.0
 70
         0
 72
         0
 73
         0
 74
         0
  7

 75
         0
147
1.0
148
0.0
149
0.0
100
AcDbLayout
  1
Layout1
 70
         0
 71
         0
 10
0.0
 20
0.0
 11
0.0
 21
0.0
 12
0.0
 22
0.0
 32
0.0
 14
0.0
 24
0.0
 34
0.0
 15
0.0
 25
0.0
 35
0.0
146
0.0
 13
0.0
 23
0.0
 33
0.0
 16
0.0
 26
0.0
 36
0.0
 17
0.0
 27
0.0
 37
0.0
 76
         0
330
B
331
0
345
0
346
0
  0
DICTIONARY
  5
1E
102
{ACAD_REACTORS
330
19
102
}
100
AcDbDictionary
280
         0
281
         1
  3
Layout1
350
21
  3
Model
350
20
  0
DICTIONARY
  5
22
102
{ACAD_REACTORS
330
19
102
}
100
AcDbDictionary
280
         0
281
         1
  0
WIPEOUTVARIABLES
  5
23
100
AcDbWipeoutVariables
 70
         1
  0
DICTIONARY
  5
48
100
AcDbDictionary
280
         0
281
         0
  3
ACAD_FILTER
350
49
  0
DICTIONARY
  5
49
100
AcDbDictionary
280
         0
281
         0
  3
SPATIAL
350
4A
  0
SPATIAL_FILTER
  5
4A
100
AcDbFilter
100
AcDbSpatialFilter
 70
         2
 10
9.6872240613
 20
4.3435599392
 10
40.3872232865
 20
497.0435492103
210
0.0
220
0.0
230
1.0
 11
0.0
 21
0.0
 31
0.0
 71
         1
 72
         0
 73
         0
 40
1.0
 40
0.0
 40
0.0
 40
0.0
 40
0.0
 40
1.0
 40
0.0
 40
0.0
 40
0.0
 40
0.0
 40
1.0
 40
0.0
 40
1.0
 40
0.0
 40
0.0
 40
0.0
 40
0.0
 40
1.0
 40
0.0
 40
0.0
 40
0.0
 40
0.0
 40
1.0
 40
0.0
  0
DICTIONARY
  5
4F
100
AcDbDictionary
280
         0
281
         0
  3
ACAD_FILTER
350
50
  0
DICTIONARY
  5
50
100
AcDbDictionary
280
         0
281
         0
  3
SPATIAL
350
51
  0
SPATIAL_FILTER
  5
51
100
AcDbFilter
100
AcDbSpatialFilter
 70
         2
 10
9.6872240613
 20
578.8011148945
 10
40.3872232865
 20
1071.5011041656
210
0.0
220
0.0
230
1.0
 11
0.0
 21
0.0
 31
0.0
 71
         1
 72
         0
 73
         0
 40
1.0
 40
0.0
 40
0.0
 40
0.0
 40
0.0
 40
1.0
 40
0.0
 40
0.0
 40
0.0
 40
0.0
 40
1.0
 40
0.0
 40
1.0
 40
0.0
 40
0.0
 40
0.0
 40
0.0
 40
1.0
 40
0.0
 40
0.0
 40
0.0
 40
0.0
 40
1.0
 40
0.0
  0
DICTIONARY
  5
56
100
AcDbDictionary
280
         0
281
         0
  3
ACAD_FILTER
350
57
  0
DICTIONARY
  5
57
100
AcDbDictionary
280
         0
281
         0
  3
SPATIAL
350
58
  0
SPATIAL_FILTER
  5
58
100
AcDbFilter
100
AcDbSpatialFilter
 70
         2
 10
103.2252959584
 20
578.8011148945
 10
595.9252852295
 20
1071.5011041656
210
0.0
220
0.0
230
1.0
 11
0.0
 21
0.0
 31
0.0
 71
         1
 72
         0
 73
         0
 40
1.0
 40
0.0
 40
0.0
 40
0.0
 40
0.0
 40
1.0
 40
0.0
 40
0.0
 40
0.0
 40
0.0
 40
1.0
 40
0.0
 40
1.0
 40
0.0
 40
0.0
 40
0.0
 40
0.0
 40
1.0
 40
0.0
 40
0.0
 40
0.0
 40
0.0
 40
1.0
 40
0.0
  0
DICTIONARY
  5
5D
100
AcDbDictionary
280
         0
281
         0
  3
ACAD_FILTER
350
5E
  0
DICTIONARY
  5
5E
100
AcDbDictionary
280
         0
281
         0
  3
SPATIAL
350
5F
  0
SPATIAL_FILTER
  5
5F
100
AcDbFilter
100
AcDbSpatialFilter
 70
         2
 10
382.7926409454
 20
4.3435599392
 10
413.4926401706
 20
497.0435492103
210
0.0
220
0.0
230
1.0
 11
0.0
 21
0.0
 31
0.0
 71
         1
 72
         0
 73
         0
 40
1.0
 40
0.0
 40
0.0
 40
0.0
 40
0.0
 40
1.0
 40
0.0
 40
0.0
 40
0.0
 40
0.0
 40
1.0
 40
0.0
 40
1.0
 40
0.0
 40
0.0
 40
0.0
 40
0.0
 40
1.0
 40
0.0
 40
0.0
 40
0.0
 40
0.0
 40
1.0
 40
0.0
  0
DICTIONARY
  5
1B6
100
AcDbDictionary
280
         0
281
         0
  3
DIMASSOC
350
1B7
  0
DICTIONARYVAR
  5
1B7
100
DictionaryVariables
280
         0
  1
2
  0
ENDSEC
  0
EOF
