  0
SECTION
  2
HEADER
  9
$ACADVER
  1
AC1015
  9
$ACADMAINTVER
 70
         6
  9
$DWGCODEPAGE
  3
ANSI_1252
  9
$INSBASE
 10
0.0
 20
0.0
 30
0.0
  9
$EXTMIN
 10
0.0
 20
0.0
 30
0.0
  9
$EXTMAX
 10
841.0
 20
594.0
 30
0.0
  9
$LIMMIN
 10
0.0
 20
0.0
  9
$LIMMAX
 10
841.0
 20
594.0
  9
$ORTHOMODE
 70
         0
  9
$REGENMODE
 70
         1
  9
$FILLMODE
 70
         1
  9
$QTEXTMODE
 70
         0
  9
$MIRRTEXT
 70
         1
  9
$LTSCALE
 40
25.4
  9
$ATTMODE
 70
         1
  9
$TEXTSIZE
 40
0.2
  9
$TRACEWID
 40
0.05
  9
$TEXTSTYLE
  7
Standard
  9
$CLAYER
  8
0
  9
$CELTYPE
  6
CONTINUOUS
  9
$CECOLOR
 62
       256
  9
$CELTSCALE
 40
1.0
  9
$DISPSILH
 70
         0
  9
$DIMSCALE
 40
1.0
  9
$DIMASZ
 40
0.18
  9
$DIMEXO
 40
0.0625
  9
$DIMDLI
 40
0.38
  9
$DIMRND
 40
0.0
  9
$DIMDLE
 40
0.0
  9
$DIMEXE
 40
0.18
  9
$DIMTP
 40
0.0
  9
$DIMTM
 40
0.0
  9
$DIMTXT
 40
0.18
  9
$DIMCEN
 40
0.09
  9
$DIMTSZ
 40
0.0
  9
$DIMTOL
 70
         0
  9
$DIMLIM
 70
         0
  9
$DIMTIH
 70
         1
  9
$DIMTOH
 70
         1
  9
$DIMSE1
 70
         0
  9
$DIMSE2
 70
         0
  9
$DIMTAD
 70
         0
  9
$DIMZIN
 70
         0
  9
$DIMBLK
  1

  9
$DIMASO
 70
         1
  9
$DIMSHO
 70
         1
  9
$DIMPOST
  1

  9
$DIMAPOST
  1

  9
$DIMALT
 70
         0
  9
$DIMALTD
 70
         2
  9
$DIMALTF
 40
25.4
  9
$DIMLFAC
 40
1.0
  9
$DIMTOFL
 70
         0
  9
$DIMTVP
 40
0.0
  9
$DIMTIX
 70
         0
  9
$DIMSOXD
 70
         0
  9
$DIMSAH
 70
         0
  9
$DIMBLK1
  1

  9
$DIMBLK2
  1

  9
$DIMSTYLE
  2
Standard
  9
$DIMCLRD
 70
         0
  9
$DIMCLRE
 70
         0
  9
$DIMCLRT
 70
         0
  9
$DIMTFAC
 40
1.0
  9
$DIMGAP
 40
0.09
  9
$DIMJUST
 70
         0
  9
$DIMSD1
 70
         0
  9
$DIMSD2
 70
         0
  9
$DIMTOLJ
 70
         1
  9
$DIMTZIN
 70
         0
  9
$DIMALTZ
 70
         0
  9
$DIMALTTZ
 70
         0
  9
$DIMUPT
 70
         0
  9
$DIMDEC
 70
         4
  9
$DIMTDEC
 70
         4
  9
$DIMALTU
 70
         2
  9
$DIMALTTD
 70
         2
  9
$DIMTXSTY
  7
Standard
  9
$DIMAUNIT
 70
         0
  9
$DIMADEC
 70
         0
  9
$DIMALTRND
 40
0.0
  9
$DIMAZIN
 70
         0
  9
$DIMDSEP
 70
         0
  9
$DIMATFIT
 70
         3
  9
$DIMFRAC
 70
         0
  9
$DIMLDRBLK
  1

  9
$DIMLUNIT
 70
         2
  9
$DIMLWD
 70
         0
  9
$DIMLWE
 70
         0
  9
$DIMTMOVE
 70
         0
  9
$LUNITS
 70
         2
  9
$LUPREC
 70
         4
  9
$SKETCHINC
 40
0.1
  9
$FILLETRAD
 40
0.0
  9
$AUNITS
 70
         0
  9
$AUPREC
 70
         0
  9
$MENU
  1
acad
  9
$ELEVATION
 40
0.0
  9
$PELEVATION
 40
0.0
  9
$THICKNESS
 40
0.0
  9
$LIMCHECK
 70
         0
  9
$CHAMFERA
 40
0.0
  9
$CHAMFERB
 40
0.0
  9
$CHAMFERC
 40
0.0
  9
$CHAMFERD
 40
0.0
  9
$SKPOLY
 70
         0
  9
$TDCREATE
 40
0.000000000
  9
$TDUCREATE
 40
0.000000000
  9
$TDUPDATE
 40
0.000000000
  9
$TDUUPDATE
 40
0.000000000
  9
$TDINDWG
 40
0.0000000000
  9
$TDUSRTIMER
 40
0.0000000000
  9
$USRTIMER
 70
         1
  9
$ANGBASE
 50
0.0
  9
$ANGDIR
 70
         0
  9
$PDMODE
 70
         0
  9
$PDSIZE
 40
0.0
  9
$PLINEWID
 40
0.0
  9
$SPLFRAME
 70
         0
  9
$SPLINETYPE
 70
         6
  9
$SPLINESEGS
 70
         8
  9
$HANDSEED
  5
1B9
  9
$SURFTAB1
 70
         6
  9
$SURFTAB2
 70
         6
  9
$SURFTYPE
 70
         6
  9
$SURFU
 70
         6
  9
$SURFV
 70
         6
  9
$UCSBASE
  2

  9
$UCSNAME
  2

  9
$UCSORG
 10
0.0
 20
0.0
 30
0.0
  9
$UCSXDIR
 10
1.0
 20
0.0
 30
0.0
  9
$UCSYDIR
 10
0.0
 20
1.0
 30
0.0
  9
$UCSORTHOREF
  2

  9
$UCSORTHOVIEW
 70
         0
  9
$UCSORGTOP
 10
0.0
 20
0.0
 30
0.0
  9
$UCSORGBOTTOM
 10
0.0
 20
0.0
 30
0.0
  9
$UCSORGLEFT
 10
0.0
 20
0.0
 30
0.0
  9
$UCSORGRIGHT
 10
0.0
 20
0.0
 30
0.0
  9
$UCSORGFRONT
 10
0.0
 20
0.0
 30
0.0
  9
$UCSORGBACK
 10
0.0
 20
0.0
 30
0.0
  9
$PUCSBASE
  2

  9
$PUCSNAME
  2

  9
$PUCSORG
 10
0.0
 20
0.0
 30
0.0
  9
$PUCSXDIR
 10
1.0
 20
0.0
 30
0.0
  9
$PUCSYDIR
 10
0.0
 20
1.0
 30
0.0
  9
$PUCSORTHOREF
  2

  9
$PUCSORTHOVIEW
 70
         0
  9
$PUCSORGTOP
 10
0.0
 20
0.0
 30
0.0
  9
$PUCSORGBOTTOM
 10
0.0
 20
0.0
 30
0.0
  9
$PUCSORGLEFT
 10
0.0
 20
0.0
 30
0.0
  9
$PUCSORGRIGHT
 10
0.0
 20
0.0
 30
0.0
  9
$PUCSORGFRONT
 10
0.0
 20
0.0
 30
0.0
  9
$PUCSORGBACK
 10
0.0
 20
0.0
 30
0.0
  9
$USERI1
 70
         0
  9
$USERI2
 70
         0
  9
$USERI3
 70
         0
  9
$USERI4
 70
         0
  9
$USERI5
 70
         0
  9
$USERR1
 40
0.0
  9
$USERR2
 40
0.0
  9
$USERR3
 40
0.0
  9
$USERR4
 40
0.0
  9
$USERR5
 40
0.0
  9
$WORLDVIEW
 70
         1
  9
$SHADEDGE
 70
         3
  9
$SHADEDIF
 70
        70
  9
$TILEMODE
 70
         1
  9
$MAXACTVP
 70
        16
  9
$PINSBASE
 10
0.0
 20
0.0
 30
0.0
  9
$PLIMCHECK
 70
         0
  9
$PEXTMIN
 10
1.0000000000E+20
 20
1.0000000000E+20
 30
1.0000000000E+20
  9
$PEXTMAX
 10
-1.0000000000E+20
 20
-1.0000000000E+20
 30
-1.0000000000E+20
  9
$PLIMMIN
 10
0.0
 20
0.0
  9
$PLIMMAX
 10
12.0
 20
9.0
  9
$UNITMODE
 70
         0
  9
$VISRETAIN
 70
         0
  9
$PLINEGEN
 70
         1
  9
$PSLTSCALE
 70
         0
  9
$TREEDEPTH
 70
      3020
  9
$CMLSTYLE
  2
Standard
  9
$CMLJUST
 70
         0
  9
$CMLSCALE
 40
1.0
  9
$PROXYGRAPHICS
 70
         0
  9
$MEASUREMENT
 70
         0
  9
$CELWEIGHT
370
         0
  9
$ENDCAPS
280
         0
  9
$JOINSTYLE
280
         0
  9
$LWDISPLAY
290
         0
  9
$INSUNITS
 70
         0
  9
$HYPERLINKBASE
  1

  9
$STYLESHEET
  1

  9
$XEDIT
290
         1
  9
$CEPSNTYPE
380
         0
  9
$PSTYLEMODE
290
         1
  9
$FINGERPRINTGUID
  2

  9
$VERSIONGUID
  2

  9
$EXTNAMES
290
         1
  9
$PSVPSCALE
 40
0.0
  0
ENDSEC
  0
SECTION
  2
CLASSES
  0
CLASS
  1
LWPOLYLINE
  2
AcDbPolyline
  3
AutoCAD 2000
 90
        0
280
         0
281
         1
  0
CLASS
  1
IMAGE
  2
AcDbRasterImage
  3
ISM
 90
      127
280
         0
281
         1
  0
CLASS
  1
OLE2FRAME
  2
AcDbOle2Frame
  3
AutoCAD 2000
 90
        0
280
         0
281
         1
  0
CLASS
  1
HATCH
  2
AcDbHatch
  3
AutoCAD 2000
 90
        0
280
         0
281
         1
  0
CLASS
  1
DICTIONARYVAR
  2
AcDbDictionaryVar
  3
AutoCAD 2000
 90
        0
280
         0
281
         0
  0
CLASS
  1
RASTERVARIABLES
  2
AcDbRasterVariables
  3
ISM
 90
        0
280
         0
281
         0
  0
CLASS
  1
IMAGEDEF
  2
AcDbRasterImageDef
  3
ISM
 90
        0
280
         0
281
         0
  0
CLASS
  1
IMAGEDEF_REACTOR
  2
AcDbRasterImageDefReactor
  3
ISM
 90
        1
280
         0
281
         0
  0
CLASS
  1
IDBUFFER
  2
AcDbIdBuffer
  3
AutoCAD 2000
 90
        0
280
         0
281
         0
  0
CLASS
  1
SPATIAL_FILTER
  2
AcDbSpatialFilter
  3
AutoCAD 2000
 90
        0
280
         0
281
         0
  0
CLASS
  1
XRECORD
  2
AcDbXrecord
  3
AutoCAD 2000
 90
        0
280
         0
281
         0
  0
CLASS
  1
SORTENTSTABLE
  2
AcDbSortentsTable
  3
AutoCAD 2000
 90
        0
280
         0
281
         0
  0
CLASS
  1
LAYER_INDEX
  2
AcDbLayerIndex
  3
AutoCAD 2000
 90
        0
280
         0
281
         0
  0
CLASS
  1
SPATIAL_INDEX
  2
AcDbSpatialIndex
  3
AutoCAD 2000
 90
        0
280
         0
281
         0
  0
CLASS
  1
OBJECT_PTR
  2
CAseDLPNTableRecord
  3
"ASE-LPNTableRecord"
 90
        1
280
         0
281
         0
  0
CLASS
  1
LAYOUT
  2
AcDbLayout
  3
AutoCAD 2000
 90
        0
280
         0
281
         0
  0
CLASS
  1
PLOTSETTINGS
  2
AcDbPlotSettings
  3
AutoCAD 2000
 90
        0
280
         0
281
         0
  0
CLASS
  1
ACDBDICTIONARYWDFLT
  2
AcDbDictionaryWithDefault
  3
AutoCAD 2000
 90
        0
280
         0
281
         0
  0
CLASS
  1
ACDBPLACEHOLDER
  2
AcDbPlaceHolder
  3
AutoCAD 2000
 90
        0
280
         0
281
         0
  0
CLASS
  1
VBA_PROJECT
  2
AcDbVbaProject
  3
acadvba
 90
        0
280
         0
281
         0
  0
CLASS
  1
WIPEOUT
  2
AcDbWipeout
  3
WipeOut|AutoCAD Express Tool|expresstools@autodesk.com
 90
      127
280
         0
281
         1
  0
CLASS
  1
WIPEOUTVARIABLES
  2
AcDbWipeoutVariables
  3
WipeOut|AutoCAD Express Tool|expresstools@autodesk.com
 90
        0
280
         0
281
         0
  0
CLASS
  1
RTEXT
  2
RText
  3
RText|AutoCAD Express Tool|expresstools@autodesk.com
 90
        0
280
         0
281
         1
  0
CLASS
  1
ARCALIGNEDTEXT
  2
AcDbArcAlignedText
  3
ATEXT|AutoCAD Express Tool|expresstools@autodesk.com
 90
        0
280
         0
281
         1
  0
ENDSEC
  0
SECTION
  2
TABLES
  0
TABLE
  2
VPORT
  5
7
100
AcDbSymbolTable
 70
         1
  0
VPORT
  5
15
100
AcDbSymbolTableRecord
100
AcDbViewportTableRecord
  2
*ACTIVE
 70
         0
 10
0.0
 20
0.0
 11
1.0
 21
1.0
 12
420.5
 22
297.0
 13
0.0
 23
0.0
 14
1.0
 24
1.0
 15
0.0
 25
0.0
 16
0.0
 26
0.0
 36
1.0
 17
0.0
 27
0.0
 37
0.0
 40
594.0
 41
1.604229
 42
50.0
 43
0.0
 44
0.0
 50
0.0
 51
0.0
 71
         0
 72
       100
 73
         1
 74
         1
 75
         0
 76
         0
 77
         0
 78
         0
281
         0
 65
         0
110
0.0
120
0.0
130
0.0
111
1.0
121
0.0
131
0.0
112
0.0
122
1.0
132
0.0
345
0
346
0
 79
         0
146
0.0
  0
ENDTAB
  0
TABLE
  2
LTYPE
  5
4
100
AcDbSymbolTable
 70
         7
  0
LTYPE
  5
11
100
AcDbSymbolTableRecord
100
AcDbLinetypeTableRecord
  2
ByBlock
 70
        64
  3

 72
        65
 73
         0
 40
0.0
  0
LTYPE
  5
12
100
AcDbSymbolTableRecord
100
AcDbLinetypeTableRecord
  2
ByLayer
 70
        64
  3

 72
        65
 73
         0
 40
0.0
  0
LTYPE
  5
13
100
AcDbSymbolTableRecord
100
AcDbLinetypeTableRecord
  2
CONTINUOUS
 70
         0
  3
Solid line
 72
        65
 73
         0
 40
0.0
  0
LTYPE
  5
28
100
AcDbSymbolTableRecord
100
AcDbLinetypeTableRecord
  2
HIDDEN2
 70
        64
  3
_ _ _ _ _ _ _ _ _ _ _ _ _ _ _ _ _ _ _ _ _ _ _ _
 72
        65
 73
         2
 40
0.1875
 49
0.125
 74
         0
 49
-0.0625
 74
         0
  0
LTYPE
  5
29
100
AcDbSymbolTableRecord
100
AcDbLinetypeTableRecord
  2
CENTER2
 70
        64
  3
___ _ ___ _ ___ _ ___ _ ___ _ ___ _ ___ _ ___ _
 72
        65
 73
         4
 40
1.125
 49
0.75
 74
         0
 49
-0.125
 74
         0
 49
0.125
 74
         0
 49
-0.125
 74
         0
  0
LTYPE
  5
2A
100
AcDbSymbolTableRecord
100
AcDbLinetypeTableRecord
  2
PHANTOM2
 70
        64
  3
___ _ _ ___ _ _ ___ _ _ ___ _ _ ___ _ _ ___ _ _
 72
        65
 73
         6
 40
1.25
 49
0.625
 74
         0
 49
-0.125
 74
         0
 49
0.125
 74
         0
 49
-0.125
 74
         0
 49
0.125
 74
         0
 49
-0.125
 74
         0
  0
LTYPE
  5
2B
100
AcDbSymbolTableRecord
100
AcDbLinetypeTableRecord
  2
DOT2
 70
        64
  3
...............................................
 72
        65
 73
         2
 40
0.125
 49
0.0
 74
         0
 49
-0.125
 74
         0
  0
ENDTAB
  0
TABLE
  2
LAYER
  5
2
100
AcDbSymbolTable
 70
         5
  0
LAYER
  5
14
100
AcDbSymbolTableRecord
100
AcDbLayerTableRecord
  2
0
 70
         0
 62
         7
  6
CONTINUOUS
290
         1
370
        -3
390
1D
  0
LAYER
  5
2D
100
AcDbSymbolTableRecord
100
AcDbLayerTableRecord
  2
DEFAULT
 70
         0
 62
         7
  6
CONTINUOUS
290
         1
370
        -3
390
0
  0
LAYER
  5
2F
100
AcDbSymbolTableRecord
100
AcDbLayerTableRecord
  2
04
 70
         0
 62
         7
  6
CONTINUOUS
290
         1
370
        -3
390
0
  0
LAYER
  5
31
100
AcDbSymbolTableRecord
100
AcDbLayerTableRecord
  2
20
 70
         0
 62
         7
  6
CONTINUOUS
290
         1
370
        -3
390
0
  0
LAYER
  5
44
100
AcDbSymbolTableRecord
100
AcDbLayerTableRecord
  2
52176994
 70
         0
 62
         7
  6
CONTINUOUS
290
         1
370
        -3
390
0
  0
ENDTAB
  0
TABLE
  2
STYLE
  5
3
100
AcDbSymbolTable
 70
         1
  0
STYLE
  5
17
100
AcDbSymbolTableRecord
100
AcDbTextStyleTableRecord
  2
Standard
 70
         0
 40
0.0
 41
1.0
 50
0.0
 71
         0
 42
0.2
  3
txt
  4

  0
ENDTAB
  0
TABLE
  2
VIEW
  5
5
100
AcDbSymbolTable
 70
         0
  0
ENDTAB
  0
TABLE
  2
UCS
  5
6
100
AcDbSymbolTable
 70
         0
  0
ENDTAB
  0
TABLE
  2
APPID
  5
8
100
AcDbSymbolTable
 70
         1
  0
APPID
  5
16
100
AcDbSymbolTableRecord
100
AcDbRegAppTableRecord
  2
ACAD
 70
         0
  0
ENDTAB
  0
TABLE
  2
DIMSTYLE
  5
9
100
AcDbSymbolTable
 70
         1
100
AcDbDimStyleTable
 71
         0
  0
DIMSTYLE
105
18
100
AcDbSymbolTableRecord
100
AcDbDimStyleTableRecord
  2
Standard
 70
         0
  3

  4

 40
1.0
 41
0.18
 42
0.0625
 43
0.38
 44
0.18
 45
0.0
 46
0.0
 47
0.0
 48
0.0
 71
         0
 72
         0
 73
         1
 74
         1
 75
         0
 76
         0
 77
         0
 78
         0
 79
         0
140
0.18
141
0.09
142
0.0
143
25.4
144
1.0
145
0.0
146
1.0
147
0.09
148
0.0
170
         0
171
         2
172
         0
173
         0
174
         0
175
         0
176
         0
177
         0
178
         0
179
         0
271
         4
272
         4
273
         2
274
         2
275
         0
276
         0
277
         2
278
        46
279
         0
280
         0
281
         0
282
         0
283
         1
284
         0
285
         0
286
         0
288
         0
289
         0
340
17
341
0
342
0
343
0
344
0
371
        -2
372
        -2
  0
ENDTAB
  0
TABLE
  2
BLOCK_RECORD
  5
1
100
AcDbSymbolTable
 70
         8
  0
BLOCK_RECORD
  5
A
100
AcDbSymbolTableRecord
100
AcDbBlockTableRecord
  2
*MODEL_SPACE
340
20
  0
BLOCK_RECORD
  5
B
100
AcDbSymbolTableRecord
100
AcDbBlockTableRecord
  2
*PAPER_SPACE
340
21
  0
BLOCK_RECORD
  5
45
100
AcDbSymbolTableRecord
100
AcDbBlockTableRecord
  2
SE0
340
0
102
{BLKREFS
331
4B
102
}
  0
BLOCK_RECORD
  5
46
100
AcDbSymbolTableRecord
100
AcDbBlockTableRecord
  2
SE1
340
0
102
{BLKREFS
331
47
102
}
  0
BLOCK_RECORD
  5
4C
100
AcDbSymbolTableRecord
100
AcDbBlockTableRecord
  2
SE2
340
0
102
{BLKREFS
331
52
102
}
  0
BLOCK_RECORD
  5
4D
100
AcDbSymbolTableRecord
100
AcDbBlockTableRecord
  2
SE3
340
0
102
{BLKREFS
331
4E
102
}
  0
BLOCK_RECORD
  5
53
100
AcDbSymbolTableRecord
100
AcDbBlockTableRecord
  2
SE4
340
0
102
{BLKREFS
331
59
102
}
  0
BLOCK_RECORD
  5
54
100
AcDbSymbolTableRecord
100
AcDbBlockTableRecord
  2
SE5
340
0
102
{BLKREFS
331
55
102
}
  0
BLOCK_RECORD
  5
5A
100
AcDbSymbolTableRecord
100
AcDbBlockTableRecord
  2
SE6
340
0
102
{BLKREFS
331
60
102
}
  0
BLOCK_RECORD
  5
5B
100
AcDbSymbolTableRecord
100
AcDbBlockTableRecord
  2
SE7
340
0
102
{BLKREFS
331
5C
102
}
  0
ENDTAB
  0
ENDSEC
  0
SECTION
  2
BLOCKS
  0
BLOCK
  5
D
100
AcDbEntity
  8
0
390
0
100
AcDbBlockBegin
  2
*MODEL_SPACE
 70
         0
 10
0.0
 20
0.0
 30
0.0
  3
*MODEL_SPACE
  1

  0
ENDBLK
  5
E
100
AcDbEntity
  8
0
390
0
100
AcDbBlockEnd
  0
BLOCK
  5
F
100
AcDbEntity
 67
         1
  8
0
390
0
100
AcDbBlockBegin
  2
*PAPER_SPACE
 70
         0
 10
0.0
 20
0.0
 30
0.0
  3
*PAPER_SPACE
  1

  0
ENDBLK
  5
10
100
AcDbEntity
 67
         1
  8
0
390
0
100
AcDbBlockEnd
  0
BLOCK
  5
C6
100
AcDbEntity
  8
0
370
         0
390
0
 62
         1
 48
0.0
100
AcDbBlockBegin
  2
SE0
 70
         0
 10
0.0
 20
0.0
 30
0.0
  3
SE0
  1

  0
ENDBLK
  5
C7
100
AcDbEntity
  8
0
370
         0
390
0
 62
         1
 48
0.0
100
AcDbBlockEnd
  0
BLOCK
  5
61
100
AcDbEntity
  8
0
370
         0
390
0
 62
         1
 48
0.0
100
AcDbBlockBegin
  2
SE1
 70
         0
 10
0.0
 20
0.0
 30
0.0
  3
SE1
  1

  0
LINE
  5
62
100
AcDbEntity
  8
52176994
370
         0
390
0
  6
CONTINUOUS
 62
         7
100
AcDbLine
 10
33.1911797434
 20
433.8201422914
 30
0.0
 11
19.3911797434
 21
433.8201422914
 31
0.0
  0
LINE
  5
63
100
AcDbEntity
  8
52176994
370
         0
390
0
  6
CONTINUOUS
 62
         7
100
AcDbLine
 10
19.4425670338
 20
421.8201422914
 30
0.0
 11
19.4425670338
 21
416.8201422914
 31
0.0
  0
LINE
  5
64
100
AcDbEntity
  8
52176994
370
         0
390
0
  6
CONTINUOUS
 62
         7
100
AcDbLine
 10
32.2911797434
 20
427.3201422914
 30
0.0
 11
20.2911797434
 21
427.3201422914
 31
0.0
  0
LINE
  5
65
100
AcDbEntity
  8
52176994
370
         0
390
0
  6
CONTINUOUS
 62
         7
100
AcDbLine
 10
22.7474876077
 20
416.8201422914
 30
0.0
 11
22.7474876077
 21
421.8201422914
 31
0.0
  0
LINE
  5
66
100
AcDbEntity
  8
52176994
370
         0
390
0
  6
CONTINUOUS
 62
         7
100
AcDbLine
 10
33.1397924531
 20
421.8201422914
 30
0.0
 11
29.8348718792
 21
421.8201422914
 31
0.0
  0
LINE
  5
67
100
AcDbEntity
  8
52176994
370
         0
390
0
  6
CONTINUOUS
 62
         7
100
AcDbLine
 10
33.0411797434
 20
425.8201422914
 30
0.0
 11
19.5411797434
 21
425.8201422914
 31
0.0
  0
LINE
  5
68
100
AcDbEntity
  8
52176994
370
         0
390
0
  6
CONTINUOUS
 62
         7
100
AcDbLine
 10
29.5961003174
 20
421.8201422914
 30
0.0
 11
22.9862591695
 21
421.8201422914
 31
0.0
  0
LINE
  5
69
100
AcDbEntity
  8
52176994
370
         0
390
0
  6
CONTINUOUS
 62
         7
100
AcDbLine
 10
19.4425670338
 20
421.8201422914
 30
0.0
 11
19.4411797434
 21
421.8201422914
 31
0.0
  0
LINE
  5
6A
100
AcDbEntity
  8
52176994
370
         0
390
0
  6
CONTINUOUS
 62
         7
100
AcDbLine
 10
17.2911797434
 20
8.8201422914
 30
0.0
 11
35.2911797434
 21
8.8201422914
 31
0.0
  0
LINE
  5
6B
100
AcDbEntity
  8
52176994
370
         0
390
0
  6
CONTINUOUS
 62
         7
100
AcDbLine
 10
22.9862591695
 20
421.8201422914
 30
0.0
 11
22.7474876077
 21
421.8201422914
 31
0.0
  0
LINE
  5
6C
100
AcDbEntity
  8
52176994
370
         0
390
0
  6
CONTINUOUS
 62
         7
100
AcDbLine
 10
34.7911797434
 20
400.8201422914
 30
0.0
 11
17.7911797434
 21
400.8201422914
 31
0.0
  0
LINE
  5
6D
100
AcDbEntity
  8
52176994
370
         0
390
0
  6
CONTINUOUS
 62
         7
100
AcDbLine
 10
33.2911797434
 20
376.3201422914
 30
0.0
 11
19.2911797434
 21
376.3201422914
 31
0.0
  0
LINE
  5
6E
100
AcDbEntity
  8
52176994
370
         0
390
0
  6
CONTINUOUS
 62
         7
100
AcDbLine
 10
22.9862591695
 20
421.8201422914
 30
0.0
 11
22.9862591695
 21
416.8201422914
 31
0.0
  0
LINE
  5
6F
100
AcDbEntity
  8
52176994
370
         0
390
0
  6
CONTINUOUS
 62
         7
100
AcDbLine
 10
29.8348718792
 20
421.8201422914
 30
0.0
 11
29.5961003174
 21
421.8201422914
 31
0.0
  0
LINE
  5
70
100
AcDbEntity
  8
52176994
370
         0
390
0
  6
CONTINUOUS
 62
         7
100
AcDbLine
 10
33.1397924531
 20
416.8201422914
 30
0.0
 11
29.8348718792
 21
416.8201422914
 31
0.0
  0
LINE
  5
71
100
AcDbEntity
  8
52176994
370
         0
390
0
  6
CONTINUOUS
 62
         7
100
AcDbLine
 10
27.6363359107
 20
294.4297119257
 30
0.0
 11
23.2911797434
 21
294.4297119257
 31
0.0
  0
LINE
  5
72
100
AcDbEntity
  8
52176994
370
         0
390
0
  6
CONTINUOUS
 62
         7
100
AcDbLine
 10
27.6363359107
 20
295.3200355203
 30
0.0
 11
27.6363359107
 21
294.4297119257
 31
0.0
  0
LINE
  5
73
100
AcDbEntity
  8
52176994
370
         0
390
0
  6
CONTINUOUS
 62
         7
100
AcDbLine
 10
23.2911797434
 20
294.4297119257
 30
0.0
 11
23.2911797434
 21
293.2099219853
 31
0.0
  0
ELLIPSE
  5
74
100
AcDbEntity
  8
52176994
370
         0
390
0
  6
CONTINUOUS
 62
         7
100
AcDbEllipse
 10
23.0565583033
 20
173.3201668493
 30
0.0
 11
-152.04242153145682
 21
152.18361192892505
 31
0.0
210
0.0
220
0.0
230
1.0
 40
0.4142134023
 41
5.0675278649963564
 42
5.0784082359996887
  0
LINE
  5
75
100
AcDbEntity
  8
52176994
370
         0
390
0
  6
CONTINUOUS
 62
         7
100
AcDbLine
 10
27.5013101936
 20
286.5931781936
 30
0.0
 11
26.5909375274
 21
286.5931781937
 31
0.0
  0
LINE
  5
76
100
AcDbEntity
  8
52176994
370
         0
390
0
  6
CONTINUOUS
 62
         7
100
AcDbLine
 10
26.5909375274
 20
286.5931781937
 30
0.0
 11
26.5909375274
 21
285.6786077403
 31
0.0
  0
LINE
  5
77
100
AcDbEntity
  8
52176994
370
         0
390
0
  6
CONTINUOUS
 62
         7
100
AcDbLine
 10
26.5909375274
 20
285.6786077403
 30
0.0
 11
23.2911797434
 21
285.6786077403
 31
0.0
  0
ELLIPSE
  5
78
100
AcDbEntity
  8
52176994
370
         0
390
0
  6
CONTINUOUS
 62
         7
100
AcDbEllipse
 10
35.5258063082
 20
173.3200799423
 30
0.0
 11
152.04246854231565
 21
152.18369738906537
 31
0.0
210
0.0
220
0.0
230
1.0
 40
0.414213525
 41
1.2156572645650658
 42
1.2265421208698153
  0
LINE
  5
79
100
AcDbEntity
  8
52176994
370
         0
390
0
  6
CONTINUOUS
 62
         7
100
AcDbLine
 10
26.5909375274
 20
284.8920646921
 30
0.0
 11
26.5909375274
 21
283.964238619
 31
0.0
  0
LINE
  5
7A
100
AcDbEntity
  8
52176994
370
         0
390
0
  6
CONTINUOUS
 62
         7
100
AcDbLine
 10
23.2911797434
 20
285.6786077403
 30
0.0
 11
23.2911797434
 21
284.8920646921
 31
0.0
  0
LINE
  5
7B
100
AcDbEntity
  8
52176994
370
         0
390
0
  6
CONTINUOUS
 62
         7
100
AcDbLine
 10
23.2911797434
 20
284.8920646921
 30
0.0
 11
26.5909375274
 21
284.8920646921
 31
0.0
  0
LINE
  5
7C
100
AcDbEntity
  8
52176994
370
         0
390
0
  6
CONTINUOUS
 62
         7
100
AcDbLine
 10
29.2911797434
 20
285.1440865271
 30
0.0
 11
29.2911797434
 21
285.2856095747
 31
0.0
  0
LINE
  5
7D
100
AcDbEntity
  8
52176994
370
         0
390
0
  6
CONTINUOUS
 62
         7
100
AcDbLine
 10
26.5909375274
 20
283.8226486824
 30
0.0
 11
26.5909375274
 21
283.9642386189
 31
0.0
  0
LINE
  5
7E
100
AcDbEntity
  8
52176994
370
         0
390
0
  6
CONTINUOUS
 62
         7
100
AcDbLine
 10
27.5013101936
 20
283.8226486824
 30
0.0
 11
27.5013101936
 21
283.964238619
 31
0.0
  0
LINE
  5
7F
100
AcDbEntity
  8
52176994
370
         0
390
0
  6
CONTINUOUS
 62
         7
100
AcDbLine
 10
23.2911797434
 20
284.7505234186
 30
0.0
 11
23.2911797434
 21
284.8920646921
 31
0.0
  0
LINE
  5
80
100
AcDbEntity
  8
52176994
370
         0
390
0
  6
CONTINUOUS
 62
         7
100
AcDbLine
 10
29.2911797434
 20
290.0450998278
 30
0.0
 11
29.2911797434
 21
290.186522047
 31
0.0
  0
LINE
  5
81
100
AcDbEntity
  8
52176994
370
         0
390
0
  6
CONTINUOUS
 62
         7
100
AcDbLine
 10
23.2911797434
 20
288.782689792
 30
0.0
 11
23.2911797434
 21
288.9241149499
 31
0.0
  0
LINE
  5
82
100
AcDbEntity
  8
52176994
370
         0
390
0
  6
CONTINUOUS
 62
         7
100
AcDbLine
 10
26.5909375274
 20
283.9642386189
 30
0.0
 11
27.5013101936
 21
283.964238619
 31
0.0
  0
ELLIPSE
  5
83
100
AcDbEntity
  8
52176994
370
         0
390
0
  6
CONTINUOUS
 62
         7
100
AcDbEllipse
 10
27.3549601899
 20
173.3202420203
 30
0.0
 11
554.04144640907475
 21
121.46870954771943
 31
0.0
210
0.0
220
0.0
230
1.0
 40
0.2007554323
 41
1.5233195074844734
 42
1.534138620517012
  0
LINE
  5
84
100
AcDbEntity
  8
52176994
370
         0
390
0
  6
CONTINUOUS
 62
         7
100
AcDbLine
 10
23.2911797434
 20
288.9241149499
 30
0.0
 11
23.2911797434
 21
290.2670666692
 31
0.0
  0
ELLIPSE
  5
85
100
AcDbEntity
  8
52176994
370
         0
390
0
  6
CONTINUOUS
 62
         7
100
AcDbEllipse
 10
20.4015364922
 20
173.3204715175
 30
0.0
 11
690.09977420991436
 21
119.72329753553998
 31
0.0
210
0.0
220
0.0
230
1.0
 40
0.1638938117
 41
1.5316470373158719
 42
1.5381849458675607
  0
LINE
  5
86
100
AcDbEntity
  8
52176994
370
         0
390
0
  6
CONTINUOUS
 62
         7
100
AcDbLine
 10
35.2911797434
 20
337.8201422914
 30
0.0
 11
33.2863040895
 21
337.8201422914
 31
0.0
  0
LINE
  5
87
100
AcDbEntity
  8
52176994
370
         0
390
0
  6
CONTINUOUS
 62
         7
100
AcDbLine
 10
33.1911797434
 20
428.2201422914
 30
0.0
 11
19.3911797434
 21
428.2201422914
 31
0.0
  0
LINE
  5
88
100
AcDbEntity
  8
52176994
370
         0
390
0
  6
CONTINUOUS
 62
         7
100
AcDbLine
 10
33.0411797434
 20
424.8201422914
 30
0.0
 11
19.5411797434
 21
424.8201422914
 31
0.0
  0
LINE
  5
89
100
AcDbEntity
  8
52176994
370
         0
390
0
  6
CONTINUOUS
 62
         7
100
AcDbLine
 10
33.1411797434
 20
421.8201422914
 30
0.0
 11
33.1397924531
 21
421.8201422914
 31
0.0
  0
LINE
  5
8A
100
AcDbEntity
  8
52176994
370
         0
390
0
  6
CONTINUOUS
 62
         7
100
AcDbLine
 10
22.7474876077
 20
421.8201422914
 30
0.0
 11
19.4425670338
 21
421.8201422914
 31
0.0
  0
LINE
  5
8B
100
AcDbEntity
  8
52176994
370
         0
390
0
  6
CONTINUOUS
 62
         7
100
AcDbLine
 10
22.7474876077
 20
416.8201422914
 30
0.0
 11
19.4425670338
 21
416.8201422914
 31
0.0
  0
LINE
  5
8C
100
AcDbEntity
  8
52176994
370
         0
390
0
  6
CONTINUOUS
 62
         7
100
AcDbLine
 10
29.2911797434
 20
292.2030848428
 30
0.0
 11
29.2911797434
 21
294.9926665425
 31
0.0
  0
LINE
  5
8D
100
AcDbEntity
  8
52176994
370
         0
390
0
  6
CONTINUOUS
 62
         7
100
AcDbLine
 10
23.2911797434
 20
293.2099219853
 30
0.0
 11
27.6363359107
 21
293.2099219853
 31
0.0
  0
LINE
  5
8E
100
AcDbEntity
  8
52176994
370
         0
390
0
  6
CONTINUOUS
 62
         7
100
AcDbLine
 10
27.6363359107
 20
293.2099219853
 30
0.0
 11
27.6363359107
 21
292.5433699869
 31
0.0
  0
LINE
  5
8F
100
AcDbEntity
  8
52176994
370
         0
390
0
  6
CONTINUOUS
 62
         7
100
AcDbLine
 10
27.6363359107
 20
292.4019077972
 30
0.0
 11
27.6363359107
 21
292.5433699869
 31
0.0
  0
LINE
  5
90
100
AcDbEntity
  8
52176994
370
         0
390
0
  6
CONTINUOUS
 62
         7
100
AcDbLine
 10
29.2911797434
 20
292.0616321904
 30
0.0
 11
29.2911797434
 21
292.2030848428
 31
0.0
  0
LINE
  5
91
100
AcDbEntity
  8
52176994
370
         0
390
0
  6
CONTINUOUS
 62
         7
100
AcDbLine
 10
23.2911797434
 20
293.0856597458
 30
0.0
 11
23.2911797434
 21
293.2099219853
 31
0.0
  0
SPLINE
  5
92
100
AcDbEntity
  8
52176994
370
         0
390
0
  6
CONTINUOUS
 62
         7
100
AcDbSpline
210
0.0
220
0.0
230
1.0
 70
        12
 71
         2
 72
         6
 73
         3
 74
         0
 42
0.0
 43
0.0
 40
0.0
 40
0.0
 40
0.0
 40
1.0
 40
1.0
 40
1.0
 10
29.291179743436434
 20
294.99266654249215
 30
0.0
 41
1.0
 10
28.463699984081156
 20
295.15661681208258
 30
0.0
 41
1.0
 10
27.636335910733298
 20
295.3200355202938
 30
0.0
 41
1.0
  0
SPLINE
  5
93
100
AcDbEntity
  8
52176994
370
         0
390
0
  6
CONTINUOUS
 62
         7
100
AcDbSpline
210
0.0
220
0.0
230
1.0
 70
        12
 71
         2
 72
         6
 73
         3
 74
         0
 42
0.0
 43
0.0
 40
0.0
 40
0.0
 40
0.0
 40
1.0
 40
1.0
 40
1.0
 10
27.636335910723762
 20
292.54336998687614
 30
0.0
 41
1.0
 10
28.463729967647595
 20
292.37349349753259
 30
0.0
 41
1.0
 10
29.291179743439791
 20
292.20308484275859
 30
0.0
 41
1.0
  0
LINE
  5
94
100
AcDbEntity
  8
52176994
370
         0
390
0
  6
CONTINUOUS
 62
         7
100
AcDbLine
 10
29.5961003174
 20
416.8201422914
 30
0.0
 11
22.9862591695
 21
416.8201422914
 31
0.0
  0
LINE
  5
95
100
AcDbEntity
  8
52176994
370
         0
390
0
  6
CONTINUOUS
 62
         7
100
AcDbLine
 10
19.2911797434
 20
376.3201422914
 30
0.0
 11
19.2911797434
 21
337.8201422914
 31
0.0
  0
LINE
  5
96
100
AcDbEntity
  8
52176994
370
         0
390
0
  6
CONTINUOUS
 62
         7
100
AcDbLine
 10
30.2911797434
 20
421.8201422914
 30
0.0
 11
30.2911797434
 21
424.8201422914
 31
0.0
  0
LINE
  5
97
100
AcDbEntity
  8
52176994
370
         0
390
0
  6
CONTINUOUS
 62
         7
100
AcDbLine
 10
32.2911797434
 20
425.8201422914
 30
0.0
 11
32.2911797434
 21
427.3201422914
 31
0.0
  0
LINE
  5
98
100
AcDbEntity
  8
52176994
370
         0
390
0
  6
CONTINUOUS
 62
         7
100
AcDbLine
 10
33.0411797434
 20
424.8201422914
 30
0.0
 11
33.0411797434
 21
425.8201422914
 31
0.0
  0
LINE
  5
99
100
AcDbEntity
  8
52176994
370
         0
390
0
  6
CONTINUOUS
 62
         7
100
AcDbLine
 10
19.3911797434
 20
428.2201422914
 30
0.0
 11
20.2911797434
 21
427.3201422914
 31
0.0
  0
LINE
  5
9A
100
AcDbEntity
  8
52176994
370
         0
390
0
  6
CONTINUOUS
 62
         7
100
AcDbLine
 10
22.2911797434
 20
424.8201422914
 30
0.0
 11
22.2911797434
 21
421.8201422914
 31
0.0
  0
LINE
  5
9B
100
AcDbEntity
  8
52176994
370
         0
390
0
  6
CONTINUOUS
 62
         7
100
AcDbLine
 10
20.2911797434
 20
427.3201422914
 30
0.0
 11
20.2911797434
 21
425.8201422914
 31
0.0
  0
LINE
  5
9C
100
AcDbEntity
  8
52176994
370
         0
390
0
  6
CONTINUOUS
 62
         7
100
AcDbLine
 10
19.5411797434
 20
425.8201422914
 30
0.0
 11
19.5411797434
 21
424.8201422914
 31
0.0
  0
LINE
  5
9D
100
AcDbEntity
  8
52176994
370
         0
390
0
  6
CONTINUOUS
 62
         7
100
AcDbLine
 10
32.2911797434
 20
427.3201422914
 30
0.0
 11
33.1911797434
 21
428.2201422914
 31
0.0
  0
LINE
  5
9E
100
AcDbEntity
  8
52176994
370
         0
390
0
  6
CONTINUOUS
 62
         7
100
AcDbLine
 10
19.3911797434
 20
433.8201422914
 30
0.0
 11
19.3911797434
 21
428.2201422914
 31
0.0
  0
LINE
  5
9F
100
AcDbEntity
  8
52176994
370
         0
390
0
  6
CONTINUOUS
 62
         7
100
AcDbLine
 10
19.4411797434
 20
421.8201422914
 30
0.0
 11
19.4411797434
 21
400.8201422914
 31
0.0
  0
LINE
  5
A0
100
AcDbEntity
  8
52176994
370
         0
390
0
  6
CONTINUOUS
 62
         7
100
AcDbLine
 10
17.7911797434
 20
400.8201422914
 30
0.0
 11
17.7911797434
 21
387.1861676952
 31
0.0
  0
LINE
  5
A1
100
AcDbEntity
  8
52176994
370
         0
390
0
  6
CONTINUOUS
 62
         7
100
AcDbLine
 10
33.1911797434
 20
428.2201422914
 30
0.0
 11
33.1911797434
 21
433.8201422914
 31
0.0
  0
LINE
  5
A2
100
AcDbEntity
  8
52176994
370
         0
390
0
  6
CONTINUOUS
 62
         7
100
AcDbLine
 10
33.1411797434
 20
400.8201422914
 30
0.0
 11
33.1411797434
 21
421.8201422914
 31
0.0
  0
LINE
  5
A3
100
AcDbEntity
  8
52176994
370
         0
390
0
  6
CONTINUOUS
 62
         7
100
AcDbLine
 10
34.7911797434
 20
387.1861676952
 30
0.0
 11
34.7911797434
 21
400.8201422914
 31
0.0
  0
LINE
  5
A4
100
AcDbEntity
  8
52176994
370
         0
390
0
  6
CONTINUOUS
 62
         7
100
AcDbLine
 10
33.2911797434
 20
337.8199337566
 30
0.0
 11
33.2911797434
 21
376.3201422914
 31
0.0
  0
LINE
  5
A5
100
AcDbEntity
  8
52176994
370
         0
390
0
  6
CONTINUOUS
 62
         7
100
AcDbLine
 10
19.2911797434
 20
337.8201422914
 30
0.0
 11
17.2911797434
 21
337.8201422914
 31
0.0
  0
CIRCLE
  5
A6
100
AcDbEntity
  8
52176994
370
         0
390
0
  6
CONTINUOUS
 62
         7
100
AcDbCircle
 10
26.2911797434
 20
173.3201422914
 30
0.0
 40
8.5
  0
ELLIPSE
  5
A7
100
AcDbEntity
  8
52176994
370
         0
390
0
  6
CONTINUOUS
 62
         7
100
AcDbEllipse
 10
27.3549606502
 20
173.3202304176
 30
0.0
 11
553.36868525096179
 21
121.32121300446377
 31
0.0
210
0.0
220
0.0
230
1.0
 40
0.2007554423
 41
1.5233152613424348
 42
1.5341475279494374
  0
SPLINE
  5
A8
100
AcDbEntity
  8
52176994
370
         0
390
0
  6
CONTINUOUS
 62
         7
100
AcDbSpline
210
0.0
220
0.0
230
1.0
 70
        12
 71
         2
 72
         6
 73
         3
 74
         0
 42
0.0
 43
0.0
 40
0.1434182065100962
 40
0.1434182065100962
 40
0.1434182065100962
 40
1.0
 40
1.0
 40
1.0
 10
27.379197458117989
 20
290.95174826977677
 30
0.0
 41
1.0
 10
26.108583802395788
 20
291.16192609227807
 30
0.0
 41
1.0
 10
24.838029928722907
 20
291.37131679461726
 30
0.0
 41
1.0
  0
SPLINE
  5
A9
100
AcDbEntity
  8
52176994
370
         0
390
0
  6
CONTINUOUS
 62
         7
100
AcDbSpline
210
0.0
220
0.0
230
1.0
 70
        12
 71
         2
 72
         6
 73
         3
 74
         0
 42
0.0
 43
0.0
 40
0.0
 40
0.0
 40
0.0
 40
1.0
 40
1.0
 40
1.0
 10
24.838029928709471
 20
290.55426412537145
 30
0.0
 41
1.0
 10
24.064594608291198
 20
290.71804138802338
 30
0.0
 41
1.0
 10
23.291179743435919
 20
290.88134570693109
 30
0.0
 41
1.0
  0
LINE
  5
AA
100
AcDbEntity
  8
52176994
370
         0
390
0
  6
CONTINUOUS
 62
         7
100
AcDbLine
 10
23.2911797434
 20
284.7505234186
 30
0.0
 11
26.5909375274
 21
284.7505234186
 31
0.0
  0
LINE
  5
AB
100
AcDbEntity
  8
52176994
370
         0
390
0
  6
CONTINUOUS
 62
         7
100
AcDbLine
 10
23.2911797434
 20
291.0227752047
 30
0.0
 11
23.2911797434
 21
293.0856597457
 31
0.0
  0
SPLINE
  5
AC
100
AcDbEntity
  8
52176994
370
         0
390
0
  6
CONTINUOUS
 62
         7
100
AcDbSpline
210
0.0
220
0.0
230
1.0
 70
        12
 71
         2
 72
         6
 73
         3
 74
         0
 42
0.0
 43
0.0
 40
0.0
 40
0.0
 40
0.0
 40
1.0
 40
1.0
 40
1.0
 10
24.83802992871566
 20
290.6956898872466
 30
0.0
 41
1.0
 10
24.064594633142036
 20
290.85946872803424
 30
0.0
 41
1.0
 10
23.291179743431513
 20
291.02277520474348
 30
0.0
 41
1.0
  0
LINE
  5
AD
100
AcDbEntity
  8
52176994
370
         0
390
0
  6
CONTINUOUS
 62
         7
100
AcDbLine
 10
24.8380299287
 20
291.5127540515
 30
0.0
 11
24.8380299287
 21
290.6956898871
 31
0.0
  0
SPLINE
  5
AE
100
AcDbEntity
  8
52176994
370
         0
390
0
  6
CONTINUOUS
 62
         7
100
AcDbSpline
210
0.0
220
0.0
230
1.0
 70
        12
 71
         2
 72
         6
 73
         3
 74
         0
 42
0.0
 43
0.0
 40
0.0
 40
0.0
 40
0.0
 40
1.0
 40
1.0
 40
1.0
 10
27.804678949369926
 20
291.02277520475764
 30
0.0
 41
1.0
 10
26.321313799637007
 20
291.26830034947267
 30
0.0
 41
1.0
 10
24.838029928706234
 20
291.51275405169605
 30
0.0
 41
1.0
  0
ELLIPSE
  5
AF
100
AcDbEntity
  8
52176994
370
         0
390
0
  6
CONTINUOUS
 62
         7
100
AcDbEllipse
 10
39.2594825256
 20
173.3201521205
 30
0.0
 11
-554.04166094551408
 21
121.46876020170988
 31
0.0
210
0.0
220
0.0
230
1.0
 40
0.20075551
 41
4.7743500107336976
 42
4.7851720590157321
  0
LINE
  5
B0
100
AcDbEntity
  8
52176994
370
         0
390
0
  6
CONTINUOUS
 62
         7
100
AcDbLine
 10
24.8380299287
 20
290.5542641253
 30
0.0
 11
24.8380299287
 21
290.6956898873
 31
0.0
  0
LINE
  5
B1
100
AcDbEntity
  8
52176994
370
         0
390
0
  6
CONTINUOUS
 62
         7
100
AcDbLine
 10
23.2911797434
 20
290.8813457069
 30
0.0
 11
23.2911797434
 21
291.0227752047
 31
0.0
  0
LINE
  5
B2
100
AcDbEntity
  8
52176994
370
         0
390
0
  6
CONTINUOUS
 62
         7
100
AcDbLine
 10
29.2911797434
 20
291.8551417936
 30
0.0
 11
29.2911797434
 21
290.186522047
 31
0.0
  0
LINE
  5
B3
100
AcDbEntity
  8
52176994
370
         0
390
0
  6
CONTINUOUS
 62
         7
100
AcDbLine
 10
26.5909375274
 20
283.8226486824
 30
0.0
 11
27.5013101936
 21
283.8226486824
 31
0.0
  0
SPLINE
  5
B4
100
AcDbEntity
  8
52176994
370
         0
390
0
  6
CONTINUOUS
 62
         7
100
AcDbSpline
210
0.0
220
0.0
230
1.0
 70
        12
 71
         2
 72
         6
 73
         3
 74
         0
 42
0.0
 43
0.0
 40
0.0
 40
0.0
 40
0.0
 40
1.0
 40
1.0
 40
1.0
 10
27.636335910728064
 20
292.4019077971779
 30
0.0
 41
1.0
 10
28.463729899848566
 20
292.23203640732163
 30
0.0
 41
1.0
 10
29.291179743444697
 20
292.06163219042583
 30
0.0
 41
1.0
  0
LINE
  5
B5
100
AcDbEntity
  8
52176994
370
         0
390
0
  6
CONTINUOUS
 62
         7
100
AcDbLine
 10
19.2911797434
 20
376.3201422914
 30
0.0
 11
19.2911797434
 21
377.8201422914
 31
0.0
  0
LINE
  5
B6
100
AcDbEntity
  8
52176994
370
         0
390
0
  6
CONTINUOUS
 62
         7
100
AcDbLine
 10
23.3756177639
 20
293.0684373239
 30
0.0
 11
27.6363359107
 21
293.0684373239
 31
0.0
  0
LINE
  5
B7
100
AcDbEntity
  8
52176994
370
         0
390
0
  6
CONTINUOUS
 62
         7
100
AcDbLine
 10
34.7911797434
 20
387.1861676952
 30
0.0
 11
33.2911797434
 21
386.3201422914
 31
0.0
  0
LINE
  5
B8
100
AcDbEntity
  8
52176994
370
         0
390
0
  6
CONTINUOUS
 62
         7
100
AcDbLine
 10
19.2911797434
 20
386.3201422914
 30
0.0
 11
17.7911797434
 21
387.1861676952
 31
0.0
  0
LINE
  5
B9
100
AcDbEntity
  8
52176994
370
         0
390
0
  6
CONTINUOUS
 62
         7
100
AcDbLine
 10
17.2911797434
 20
8.8201422914
 30
0.0
 11
17.2911797434
 21
337.8201422914
 31
0.0
  0
ELLIPSE
  5
BA
100
AcDbEntity
  8
52176994
370
         0
390
0
  6
CONTINUOUS
 62
         7
100
AcDbEllipse
 10
35.5257998439
 20
173.320179357
 30
0.0
 11
151.85778495673918
 21
151.99879857278697
 31
0.0
210
0.0
220
0.0
230
1.0
 40
0.4142133831
 41
1.2157035520157564
 42
1.2266016721166944
  0
CIRCLE
  5
BB
100
AcDbEntity
  8
52176994
370
         0
390
0
  6
CONTINUOUS
 62
         7
100
AcDbCircle
 10
26.2911797434
 20
173.3201422914
 30
0.0
 40
6.9
  0
LINE
  5
BC
100
AcDbEntity
  8
52176994
370
         0
390
0
  6
CONTINUOUS
 62
         7
100
AcDbLine
 10
19.2911797434
 20
377.8201422914
 30
0.0
 11
19.2911797434
 21
386.3201422914
 31
0.0
  0
LINE
  5
BD
100
AcDbEntity
  8
52176994
370
         0
390
0
  6
CONTINUOUS
 62
         7
100
AcDbLine
 10
33.2911797434
 20
386.3201422914
 30
0.0
 11
33.2911797434
 21
377.8201422914
 31
0.0
  0
LINE
  5
BE
100
AcDbEntity
  8
52176994
370
         0
390
0
  6
CONTINUOUS
 62
         7
100
AcDbLine
 10
33.2911797434
 20
377.8201422914
 30
0.0
 11
33.2911797434
 21
376.3201422914
 31
0.0
  0
LINE
  5
BF
100
AcDbEntity
  8
52176994
370
         0
390
0
  6
CONTINUOUS
 62
         7
100
AcDbLine
 10
33.2911797434
 20
377.8201422914
 30
0.0
 11
19.2911797434
 21
377.8201422914
 31
0.0
  0
ARC
  5
C0
100
AcDbEntity
  8
52176994
370
         0
390
0
  6
CONTINUOUS
 62
         7
100
AcDbCircle
 10
26.2911797432
 20
502.1751390612
 30
0.0
 40
164.5039968
100
AcDbArc
 50
267.5612045995
 51
272.438795246
  0
LINE
  5
C1
100
AcDbEntity
  8
52176994
370
         0
390
0
  6
CONTINUOUS
 62
         7
100
AcDbLine
 10
35.2911797434
 20
8.8201422914
 30
0.0
 11
35.2911797434
 21
337.8201422914
 31
0.0
  0
LINE
  5
C2
100
AcDbEntity
  8
52176994
370
         0
390
0
  6
CONTINUOUS
 62
         7
100
AcDbLine
 10
29.5961003174
 20
416.8201422914
 30
0.0
 11
29.5961003174
 21
421.8201422914
 31
0.0
  0
LINE
  5
C3
100
AcDbEntity
  8
52176994
370
         0
390
0
  6
CONTINUOUS
 62
         7
100
AcDbLine
 10
29.8348718792
 20
421.8201422914
 30
0.0
 11
29.8348718792
 21
416.8201422914
 31
0.0
  0
LINE
  5
C4
100
AcDbEntity
  8
52176994
370
         0
390
0
  6
CONTINUOUS
 62
         7
100
AcDbLine
 10
33.1397924531
 20
416.8201422914
 30
0.0
 11
33.1397924531
 21
421.8201422914
 31
0.0
  0
ENDBLK
  5
C5
100
AcDbEntity
  8
52176994
370
         0
390
0
  6
CONTINUOUS
 62
         7
100
AcDbBlockEnd
  0
BLOCK
  5
FE
100
AcDbEntity
  8
0
370
         0
390
0
 62
         1
 48
0.0
100
AcDbBlockBegin
  2
SE2
 70
         0
 10
0.0
 20
0.0
 30
0.0
  3
SE2
  1

  0
ENDBLK
  5
FF
100
AcDbEntity
  8
0
370
         0
390
0
 62
         1
 48
0.0
100
AcDbBlockEnd
  0
BLOCK
  5
C8
100
AcDbEntity
  8
0
370
         0
390
0
 62
         1
 48
0.0
100
AcDbBlockBegin
  2
SE3
 70
         0
 10
0.0
 20
0.0
 30
0.0
  3
SE3
  1

  0
LINE
  5
C9
100
AcDbEntity
  8
52176994
370
         0
390
0
  6
CONTINUOUS
 62
         7
100
AcDbLine
 10
20.2911797434
 20
945.3265674624
 30
0.0
 11
20.2911797434
 21
943.8265674624
 31
0.0
  0
LINE
  5
CA
100
AcDbEntity
  8
52176994
370
         0
390
0
  6
CONTINUOUS
 62
         7
100
AcDbLine
 10
22.2911797434
 20
942.8265674624
 30
0.0
 11
22.2911797434
 21
939.8265674624
 31
0.0
  0
LINE
  5
CB
100
AcDbEntity
  8
52176994
370
         0
390
0
  6
CONTINUOUS
 62
         7
100
AcDbLine
 10
19.4411797434
 20
939.8265674624
 30
0.0
 11
19.4411797434
 21
918.8265674624
 31
0.0
  0
LINE
  5
CC
100
AcDbEntity
  8
52176994
370
         0
390
0
  6
CONTINUOUS
 62
         7
100
AcDbLine
 10
19.2911797434
 20
855.8265674624
 30
0.0
 11
17.2911797434
 21
855.8265674624
 31
0.0
  0
LINE
  5
CD
100
AcDbEntity
  8
52176994
370
         0
390
0
  6
CONTINUOUS
 62
         7
100
AcDbLine
 10
17.7911797434
 20
918.8265674624
 30
0.0
 11
17.7911797434
 21
905.1925928662
 31
0.0
  0
LINE
  5
CE
100
AcDbEntity
  8
52176994
370
         0
390
0
  6
CONTINUOUS
 62
         7
100
AcDbLine
 10
19.2911797434
 20
894.3265674624
 30
0.0
 11
19.2911797434
 21
855.8265674624
 31
0.0
  0
ARC
  5
CF
100
AcDbEntity
  8
52176994
370
         0
390
0
  6
CONTINUOUS
 62
         7
100
AcDbCircle
 10
26.2911797432
 20
1020.1815642321
 30
0.0
 40
164.5039968
100
AcDbArc
 50
267.5612045995
 51
272.438795246
  0
LINE
  5
D0
100
AcDbEntity
  8
52176994
370
         0
390
0
  6
CONTINUOUS
 62
         7
100
AcDbLine
 10
33.2911797434
 20
904.3265674624
 30
0.0
 11
33.2911797434
 21
895.8265674624
 31
0.0
  0
LINE
  5
D1
100
AcDbEntity
  8
52176994
370
         0
390
0
  6
CONTINUOUS
 62
         7
100
AcDbLine
 10
19.2911797434
 20
895.8265674624
 30
0.0
 11
19.2911797434
 21
904.3265674624
 31
0.0
  0
LINE
  5
D2
100
AcDbEntity
  8
52176994
370
         0
390
0
  6
CONTINUOUS
 62
         7
100
AcDbLine
 10
17.7911797434
 20
918.8265674624
 30
0.0
 11
34.7911797434
 21
918.8265674624
 31
0.0
  0
LINE
  5
D3
100
AcDbEntity
  8
52176994
370
         0
390
0
  6
CONTINUOUS
 62
         7
100
AcDbLine
 10
33.2911797434
 20
894.3265674624
 30
0.0
 11
19.2911797434
 21
894.3265674624
 31
0.0
  0
LINE
  5
D4
100
AcDbEntity
  8
52176994
370
         0
390
0
  6
CONTINUOUS
 62
         7
100
AcDbLine
 10
33.2911797434
 20
895.8265674624
 30
0.0
 11
33.2911797434
 21
894.3265674624
 31
0.0
  0
LINE
  5
D5
100
AcDbEntity
  8
52176994
370
         0
390
0
  6
CONTINUOUS
 62
         7
100
AcDbLine
 10
34.7911797434
 20
905.1925928662
 30
0.0
 11
33.2911797434
 21
904.3265674624
 31
0.0
  0
LINE
  5
D6
100
AcDbEntity
  8
52176994
370
         0
390
0
  6
CONTINUOUS
 62
         7
100
AcDbLine
 10
33.2911797434
 20
895.8265674624
 30
0.0
 11
19.2911797434
 21
895.8265674624
 31
0.0
  0
LINE
  5
D7
100
AcDbEntity
  8
52176994
370
         0
390
0
  6
CONTINUOUS
 62
         7
100
AcDbLine
 10
22.9862591695
 20
939.8265674624
 30
0.0
 11
22.7474876077
 21
939.8265674624
 31
0.0
  0
LINE
  5
D8
100
AcDbEntity
  8
52176994
370
         0
390
0
  6
CONTINUOUS
 62
         7
100
AcDbLine
 10
19.2911797434
 20
894.3265674624
 30
0.0
 11
19.2911797434
 21
895.8265674624
 31
0.0
  0
LINE
  5
D9
100
AcDbEntity
  8
52176994
370
         0
390
0
  6
CONTINUOUS
 62
         7
100
AcDbLine
 10
19.2911797434
 20
904.3265674624
 30
0.0
 11
17.7911797434
 21
905.1925928662
 31
0.0
  0
LINE
  5
DA
100
AcDbEntity
  8
52176994
370
         0
390
0
  6
CONTINUOUS
 62
         7
100
AcDbLine
 10
17.2911797434
 20
526.8265674624
 30
0.0
 11
35.2911797434
 21
526.8265674624
 31
0.0
  0
LINE
  5
DB
100
AcDbEntity
  8
52176994
370
         0
390
0
  6
CONTINUOUS
 62
         7
100
AcDbLine
 10
34.7911797434
 20
905.1925928662
 30
0.0
 11
34.7911797434
 21
918.8265674624
 31
0.0
  0
LINE
  5
DC
100
AcDbEntity
  8
52176994
370
         0
390
0
  6
CONTINUOUS
 62
         7
100
AcDbLine
 10
33.2911797434
 20
855.8263589276
 30
0.0
 11
33.2911797434
 21
894.3265674624
 31
0.0
  0
LINE
  5
DD
100
AcDbEntity
  8
52176994
370
         0
390
0
  6
CONTINUOUS
 62
         7
100
AcDbLine
 10
33.1397924531
 20
934.8265674624
 30
0.0
 11
29.8348718792
 21
934.8265674624
 31
0.0
  0
LINE
  5
DE
100
AcDbEntity
  8
52176994
370
         0
390
0
  6
CONTINUOUS
 62
         7
100
AcDbLine
 10
35.2911797434
 20
855.8265674624
 30
0.0
 11
35.2911797434
 21
526.8265674624
 31
0.0
  0
LINE
  5
DF
100
AcDbEntity
  8
52176994
370
         0
390
0
  6
CONTINUOUS
 62
         7
100
AcDbLine
 10
17.2911797434
 20
855.8265674624
 30
0.0
 11
17.2911797434
 21
526.8265674624
 31
0.0
  0
LINE
  5
E0
100
AcDbEntity
  8
52176994
370
         0
390
0
  6
CONTINUOUS
 62
         7
100
AcDbLine
 10
19.3911797434
 20
951.8265674624
 30
0.0
 11
33.1911797434
 21
951.8265674624
 31
0.0
  0
LINE
  5
E1
100
AcDbEntity
  8
52176994
370
         0
390
0
  6
CONTINUOUS
 62
         7
100
AcDbLine
 10
19.5411797434
 20
942.8265674624
 30
0.0
 11
33.0411797434
 21
942.8265674624
 31
0.0
  0
LINE
  5
E2
100
AcDbEntity
  8
52176994
370
         0
390
0
  6
CONTINUOUS
 62
         7
100
AcDbLine
 10
19.5411797434
 20
943.8265674624
 30
0.0
 11
33.0411797434
 21
943.8265674624
 31
0.0
  0
LINE
  5
E3
100
AcDbEntity
  8
52176994
370
         0
390
0
  6
CONTINUOUS
 62
         7
100
AcDbLine
 10
20.2911797434
 20
945.3265674624
 30
0.0
 11
32.2911797434
 21
945.3265674624
 31
0.0
  0
LINE
  5
E4
100
AcDbEntity
  8
52176994
370
         0
390
0
  6
CONTINUOUS
 62
         7
100
AcDbLine
 10
19.3911797434
 20
946.2265674624
 30
0.0
 11
33.1911797434
 21
946.2265674624
 31
0.0
  0
LINE
  5
E5
100
AcDbEntity
  8
52176994
370
         0
390
0
  6
CONTINUOUS
 62
         7
100
AcDbLine
 10
33.1397924531
 20
934.8265674624
 30
0.0
 11
33.1397924531
 21
939.8265674624
 31
0.0
  0
LINE
  5
E6
100
AcDbEntity
  8
52176994
370
         0
390
0
  6
CONTINUOUS
 62
         7
100
AcDbLine
 10
29.8348718792
 20
939.8265674624
 30
0.0
 11
29.8348718792
 21
934.8265674624
 31
0.0
  0
LINE
  5
E7
100
AcDbEntity
  8
52176994
370
         0
390
0
  6
CONTINUOUS
 62
         7
100
AcDbLine
 10
29.5961003174
 20
934.8265674624
 30
0.0
 11
29.5961003174
 21
939.8265674624
 31
0.0
  0
LINE
  5
E8
100
AcDbEntity
  8
52176994
370
         0
390
0
  6
CONTINUOUS
 62
         7
100
AcDbLine
 10
22.9862591695
 20
939.8265674624
 30
0.0
 11
22.9862591695
 21
934.8265674624
 31
0.0
  0
LINE
  5
E9
100
AcDbEntity
  8
52176994
370
         0
390
0
  6
CONTINUOUS
 62
         7
100
AcDbLine
 10
22.7474876077
 20
934.8265674624
 30
0.0
 11
22.7474876077
 21
939.8265674624
 31
0.0
  0
LINE
  5
EA
100
AcDbEntity
  8
52176994
370
         0
390
0
  6
CONTINUOUS
 62
         7
100
AcDbLine
 10
19.4425670338
 20
939.8265674624
 30
0.0
 11
19.4425670338
 21
934.8265674624
 31
0.0
  0
LINE
  5
EB
100
AcDbEntity
  8
52176994
370
         0
390
0
  6
CONTINUOUS
 62
         7
100
AcDbLine
 10
29.5961003174
 20
934.8265674624
 30
0.0
 11
22.9862591695
 21
934.8265674624
 31
0.0
  0
LINE
  5
EC
100
AcDbEntity
  8
52176994
370
         0
390
0
  6
CONTINUOUS
 62
         7
100
AcDbLine
 10
22.7474876077
 20
934.8265674624
 30
0.0
 11
19.4425670338
 21
934.8265674624
 31
0.0
  0
LINE
  5
ED
100
AcDbEntity
  8
52176994
370
         0
390
0
  6
CONTINUOUS
 62
         7
100
AcDbLine
 10
29.8348718792
 20
939.8265674624
 30
0.0
 11
29.5961003174
 21
939.8265674624
 31
0.0
  0
LINE
  5
EE
100
AcDbEntity
  8
52176994
370
         0
390
0
  6
CONTINUOUS
 62
         7
100
AcDbLine
 10
35.2911797434
 20
855.8265674624
 30
0.0
 11
33.2863040895
 21
855.8265674624
 31
0.0
  0
LINE
  5
EF
100
AcDbEntity
  8
52176994
370
         0
390
0
  6
CONTINUOUS
 62
         7
100
AcDbLine
 10
33.0411797434
 20
942.8265674624
 30
0.0
 11
33.0411797434
 21
943.8265674624
 31
0.0
  0
LINE
  5
F0
100
AcDbEntity
  8
52176994
370
         0
390
0
  6
CONTINUOUS
 62
         7
100
AcDbLine
 10
19.3911797434
 20
946.2265674624
 30
0.0
 11
20.2911797434
 21
945.3265674624
 31
0.0
  0
LINE
  5
F1
100
AcDbEntity
  8
52176994
370
         0
390
0
  6
CONTINUOUS
 62
         7
100
AcDbLine
 10
32.2911797434
 20
943.8265674624
 30
0.0
 11
32.2911797434
 21
945.3265674624
 31
0.0
  0
LINE
  5
F2
100
AcDbEntity
  8
52176994
370
         0
390
0
  6
CONTINUOUS
 62
         7
100
AcDbLine
 10
33.1411797434
 20
939.8265674624
 30
0.0
 11
33.1397924531
 21
939.8265674624
 31
0.0
  0
LINE
  5
F3
100
AcDbEntity
  8
52176994
370
         0
390
0
  6
CONTINUOUS
 62
         7
100
AcDbLine
 10
33.1911797434
 20
946.2265674624
 30
0.0
 11
33.1911797434
 21
951.8265674624
 31
0.0
  0
LINE
  5
F4
100
AcDbEntity
  8
52176994
370
         0
390
0
  6
CONTINUOUS
 62
         7
100
AcDbLine
 10
30.2911797434
 20
939.8265674624
 30
0.0
 11
30.2911797434
 21
942.8265674624
 31
0.0
  0
LINE
  5
F5
100
AcDbEntity
  8
52176994
370
         0
390
0
  6
CONTINUOUS
 62
         7
100
AcDbLine
 10
33.1411797434
 20
918.8265674624
 30
0.0
 11
33.1411797434
 21
939.8265674624
 31
0.0
  0
LINE
  5
F6
100
AcDbEntity
  8
52176994
370
         0
390
0
  6
CONTINUOUS
 62
         7
100
AcDbLine
 10
33.1397924531
 20
939.8265674624
 30
0.0
 11
29.8348718792
 21
939.8265674624
 31
0.0
  0
LINE
  5
F7
100
AcDbEntity
  8
52176994
370
         0
390
0
  6
CONTINUOUS
 62
         7
100
AcDbLine
 10
22.7474876077
 20
939.8265674624
 30
0.0
 11
19.4425670338
 21
939.8265674624
 31
0.0
  0
LINE
  5
F8
100
AcDbEntity
  8
52176994
370
         0
390
0
  6
CONTINUOUS
 62
         7
100
AcDbLine
 10
29.5961003174
 20
939.8265674624
 30
0.0
 11
22.9862591695
 21
939.8265674624
 31
0.0
  0
LINE
  5
F9
100
AcDbEntity
  8
52176994
370
         0
390
0
  6
CONTINUOUS
 62
         7
100
AcDbLine
 10
19.4425670338
 20
939.8265674624
 30
0.0
 11
19.4411797434
 21
939.8265674624
 31
0.0
  0
LINE
  5
FA
100
AcDbEntity
  8
52176994
370
         0
390
0
  6
CONTINUOUS
 62
         7
100
AcDbLine
 10
19.3911797434
 20
951.8265674624
 30
0.0
 11
19.3911797434
 21
946.2265674624
 31
0.0
  0
LINE
  5
FB
100
AcDbEntity
  8
52176994
370
         0
390
0
  6
CONTINUOUS
 62
         7
100
AcDbLine
 10
32.2911797434
 20
945.3265674624
 30
0.0
 11
33.1911797434
 21
946.2265674624
 31
0.0
  0
LINE
  5
FC
100
AcDbEntity
  8
52176994
370
         0
390
0
  6
CONTINUOUS
 62
         7
100
AcDbLine
 10
19.5411797434
 20
943.8265674624
 30
0.0
 11
19.5411797434
 21
942.8265674624
 31
0.0
  0
ENDBLK
  5
FD
100
AcDbEntity
  8
52176994
370
         0
390
0
  6
CONTINUOUS
 62
         7
100
AcDbBlockEnd
  0
BLOCK
  5
17D
100
AcDbEntity
  8
0
370
         0
390
0
 62
         1
 48
0.0
100
AcDbBlockBegin
  2
SE4
 70
         0
 10
0.0
 20
0.0
 30
0.0
  3
SE4
  1

  0
ENDBLK
  5
17E
100
AcDbEntity
  8
0
370
         0
390
0
 62
         1
 48
0.0
100
AcDbBlockEnd
  0
BLOCK
  5
100
100
AcDbEntity
  8
0
370
         0
390
0
 62
         1
 48
0.0
100
AcDbBlockBegin
  2
SE5
 70
         0
 10
0.0
 20
0.0
 30
0.0
  3
SE5
  1

  0
LINE
  5
101
100
AcDbEntity
  8
52176994
370
         0
390
0
  6
CONTINUOUS
 62
         7
100
AcDbLine
 10
373.6859394314
 20
934.8265674624
 30
0.0
 11
373.6859394314
 21
918.8265674624
 31
0.0
  0
LINE
  5
102
100
AcDbEntity
  8
52176994
370
         0
390
0
  6
CONTINUOUS
 62
         7
100
AcDbLine
 10
372.0359394314
 20
918.8265674624
 30
0.0
 11
372.0359394314
 21
895.8265674624
 31
0.0
  0
LINE
  5
103
100
AcDbEntity
  8
52176994
370
         0
390
0
  6
CONTINUOUS
 62
         7
100
AcDbLine
 10
372.0359394314
 20
895.8265674624
 30
0.0
 11
373.5359394314
 21
894.3265674624
 31
0.0
  0
LINE
  5
104
100
AcDbEntity
  8
52176994
370
         0
390
0
  6
CONTINUOUS
 62
         7
100
AcDbLine
 10
389.0359394314
 20
895.8265674624
 30
0.0
 11
389.0359394314
 21
918.8265674624
 31
0.0
  0
LINE
  5
105
100
AcDbEntity
  8
52176994
370
         0
390
0
  6
CONTINUOUS
 62
         7
100
AcDbLine
 10
387.3859394314
 20
918.8265674624
 30
0.0
 11
387.3859394314
 21
934.8265674624
 31
0.0
  0
LINE
  5
106
100
AcDbEntity
  8
52176994
370
         0
390
0
  6
CONTINUOUS
 62
         7
100
AcDbLine
 10
387.5359394314
 20
894.3265674624
 30
0.0
 11
389.0359394314
 21
895.8265674624
 31
0.0
  0
LINE
  5
107
100
AcDbEntity
  8
52176994
370
         0
390
0
  6
CONTINUOUS
 62
         7
100
AcDbLine
 10
129.0359394314
 20
687.3265674624
 30
0.0
 11
132.0359394314
 21
687.3265674624
 31
0.0
  0
LINE
  5
108
100
AcDbEntity
  8
52176994
370
         0
390
0
  6
CONTINUOUS
 62
         7
100
AcDbLine
 10
126.5359394314
 20
685.3265674624
 30
0.0
 11
128.0359394314
 21
685.3265674624
 31
0.0
  0
LINE
  5
109
100
AcDbEntity
  8
52176994
370
         0
390
0
  6
CONTINUOUS
 62
         7
100
AcDbLine
 10
167.5359394314
 20
686.5047420819
 30
0.0
 11
176.0359394314
 21
686.5047420819
 31
0.0
  0
LINE
  5
10A
100
AcDbEntity
  8
52176994
370
         0
390
0
  6
CONTINUOUS
 62
         7
100
AcDbLine
 10
153.0359394314
 20
698.1765674624
 30
0.0
 11
137.0359394314
 21
698.1765674624
 31
0.0
  0
LINE
  5
10B
100
AcDbEntity
  8
52176994
370
         0
390
0
  6
CONTINUOUS
 62
         7
100
AcDbLine
 10
132.0359394314
 20
697.3265674624
 30
0.0
 11
137.0359394314
 21
697.3265674624
 31
0.0
  0
LINE
  5
10C
100
AcDbEntity
  8
52176994
370
         0
390
0
  6
CONTINUOUS
 62
         7
100
AcDbLine
 10
380.6737942568
 20
939.8265674624
 30
0.0
 11
380.3980846059
 21
939.8265674624
 31
0.0
  0
LINE
  5
10D
100
AcDbEntity
  8
52176994
370
         0
390
0
  6
CONTINUOUS
 62
         7
100
AcDbLine
 10
374.6737942568
 20
939.8265674624
 30
0.0
 11
374.5359394314
 21
939.8265674624
 31
0.0
  0
LINE
  5
10E
100
AcDbEntity
  8
52176994
370
         0
390
0
  6
CONTINUOUS
 62
         7
100
AcDbLine
 10
386.3980846059
 20
939.8265674624
 30
0.0
 11
380.6737942568
 21
939.8265674624
 31
0.0
  0
LINE
  5
10F
100
AcDbEntity
  8
52176994
370
         0
390
0
  6
CONTINUOUS
 62
         7
100
AcDbLine
 10
380.3980846059
 20
939.8265674624
 30
0.0
 11
374.6737942568
 21
939.8265674624
 31
0.0
  0
LINE
  5
110
100
AcDbEntity
  8
52176994
370
         0
390
0
  6
CONTINUOUS
 62
         7
100
AcDbLine
 10
126.5359394314
 20
697.3265674624
 30
0.0
 11
125.6359394314
 21
698.2265674624
 31
0.0
  0
LINE
  5
111
100
AcDbEntity
  8
52176994
370
         0
390
0
  6
CONTINUOUS
 62
         7
100
AcDbLine
 10
120.0359394314
 20
684.4265674624
 30
0.0
 11
125.6359394314
 21
684.4265674624
 31
0.0
  0
LINE
  5
112
100
AcDbEntity
  8
52176994
370
         0
390
0
  6
CONTINUOUS
 62
         7
100
AcDbLine
 10
128.0359394314
 20
684.5765674624
 30
0.0
 11
129.0359394314
 21
684.5765674624
 31
0.0
  0
LINE
  5
113
100
AcDbEntity
  8
52176994
370
         0
390
0
  6
CONTINUOUS
 62
         7
100
AcDbLine
 10
176.0359394314
 20
696.1483928429
 30
0.0
 11
167.5359394314
 21
696.1483928429
 31
0.0
  0
LINE
  5
114
100
AcDbEntity
  8
52176994
370
         0
390
0
  6
CONTINUOUS
 62
         7
100
AcDbLine
 10
132.0359394314
 20
685.4644222879
 30
0.0
 11
137.0359394314
 21
685.4644222879
 31
0.0
  0
LINE
  5
115
100
AcDbEntity
  8
52176994
370
         0
390
0
  6
CONTINUOUS
 62
         7
100
AcDbLine
 10
153.0359394314
 20
682.8265674624
 30
0.0
 11
176.0359394314
 21
682.8265674624
 31
0.0
  0
LINE
  5
116
100
AcDbEntity
  8
52176994
370
         0
390
0
  6
CONTINUOUS
 62
         7
100
AcDbLine
 10
374.5359394314
 20
945.3265674624
 30
0.0
 11
374.5359394314
 21
943.8265674624
 31
0.0
  0
LINE
  5
117
100
AcDbEntity
  8
52176994
370
         0
390
0
  6
CONTINUOUS
 62
         7
100
AcDbLine
 10
373.7859394314
 20
943.8265674624
 30
0.0
 11
373.7859394314
 21
942.8265674624
 31
0.0
  0
LINE
  5
118
100
AcDbEntity
  8
52176994
370
         0
390
0
  6
CONTINUOUS
 62
         7
100
AcDbLine
 10
137.0359394314
 20
684.4765674624
 30
0.0
 11
153.0359394314
 21
684.4765674624
 31
0.0
  0
LINE
  5
119
100
AcDbEntity
  8
52176994
370
         0
390
0
  6
CONTINUOUS
 62
         7
100
AcDbLine
 10
137.0359394314
 20
685.3265674624
 30
0.0
 11
132.0359394314
 21
685.3265674624
 31
0.0
  0
LINE
  5
11A
100
AcDbEntity
  8
52176994
370
         0
390
0
  6
CONTINUOUS
 62
         7
100
AcDbLine
 10
386.5359394314
 20
945.3265674624
 30
0.0
 11
387.4359394314
 21
946.2265674624
 31
0.0
  0
LINE
  5
11B
100
AcDbEntity
  8
52176994
370
         0
390
0
  6
CONTINUOUS
 62
         7
100
AcDbLine
 10
376.5359394314
 20
942.8265674624
 30
0.0
 11
376.5359394314
 21
939.8265674624
 31
0.0
  0
LINE
  5
11C
100
AcDbEntity
  8
52176994
370
         0
390
0
  6
CONTINUOUS
 62
         7
100
AcDbLine
 10
177.5359394314
 20
698.3265674624
 30
0.0
 11
176.0359394314
 21
699.8265674624
 31
0.0
  0
LINE
  5
11D
100
AcDbEntity
  8
52176994
370
         0
390
0
  6
CONTINUOUS
 62
         7
100
AcDbLine
 10
125.6359394314
 20
698.2265674624
 30
0.0
 11
120.0359394314
 21
698.2265674624
 31
0.0
  0
LINE
  5
11E
100
AcDbEntity
  8
52176994
370
         0
390
0
  6
CONTINUOUS
 62
         7
100
AcDbLine
 10
125.6359394314
 20
684.4265674624
 30
0.0
 11
126.5359394314
 21
685.3265674624
 31
0.0
  0
LINE
  5
11F
100
AcDbEntity
  8
52176994
370
         0
390
0
  6
CONTINUOUS
 62
         7
100
AcDbLine
 10
129.0359394314
 20
698.0765674624
 30
0.0
 11
128.0359394314
 21
698.0765674624
 31
0.0
  0
LINE
  5
120
100
AcDbEntity
  8
52176994
370
         0
390
0
  6
CONTINUOUS
 62
         7
100
AcDbLine
 10
128.0359394314
 20
697.3265674624
 30
0.0
 11
126.5359394314
 21
697.3265674624
 31
0.0
  0
LINE
  5
121
100
AcDbEntity
  8
52176994
370
         0
390
0
  6
CONTINUOUS
 62
         7
100
AcDbLine
 10
132.0359394314
 20
695.3265674624
 30
0.0
 11
129.0359394314
 21
695.3265674624
 31
0.0
  0
LINE
  5
122
100
AcDbEntity
  8
52176994
370
         0
390
0
  6
CONTINUOUS
 62
         7
100
AcDbLine
 10
176.0359394314
 20
699.8265674624
 30
0.0
 11
153.0359394314
 21
699.8265674624
 31
0.0
  0
LINE
  5
123
100
AcDbEntity
  8
52176994
370
         0
390
0
  6
CONTINUOUS
 62
         7
100
AcDbLine
 10
384.5359394314
 20
939.8265674624
 30
0.0
 11
384.5359394314
 21
942.8265674624
 31
0.0
  0
LINE
  5
124
100
AcDbEntity
  8
52176994
370
         0
390
0
  6
CONTINUOUS
 62
         7
100
AcDbLine
 10
373.5359394314
 20
894.3265674624
 30
0.0
 11
373.5359394314
 21
855.6780014307
 31
0.0
  0
LINE
  5
125
100
AcDbEntity
  8
52176994
370
         0
390
0
  6
CONTINUOUS
 62
         7
100
AcDbLine
 10
387.2859394314
 20
942.8265674624
 30
0.0
 11
387.2859394314
 21
943.8265674624
 31
0.0
  0
LINE
  5
126
100
AcDbEntity
  8
52176994
370
         0
390
0
  6
CONTINUOUS
 62
         7
100
AcDbLine
 10
387.4359394314
 20
946.2265674624
 30
0.0
 11
387.4359394314
 21
951.8265674624
 31
0.0
  0
LINE
  5
127
100
AcDbEntity
  8
52176994
370
         0
390
0
  6
CONTINUOUS
 62
         7
100
AcDbLine
 10
373.6359394314
 20
946.2265674624
 30
0.0
 11
374.5359394314
 21
945.3265674624
 31
0.0
  0
LINE
  5
128
100
AcDbEntity
  8
52176994
370
         0
390
0
  6
CONTINUOUS
 62
         7
100
AcDbLine
 10
176.0359394314
 20
682.8265674624
 30
0.0
 11
177.5359394314
 21
684.3265674624
 31
0.0
  0
LINE
  5
129
100
AcDbEntity
  8
52176994
370
         0
390
0
  6
CONTINUOUS
 62
         7
100
AcDbLine
 10
216.1811727403
 20
698.3265674624
 30
0.0
 11
177.5359394314
 21
698.3265674624
 31
0.0
  0
LINE
  5
12A
100
AcDbEntity
  8
52176994
370
         0
390
0
  6
CONTINUOUS
 62
         7
100
AcDbLine
 10
177.5359394314
 20
684.3265674624
 30
0.0
 11
216.184505463
 21
684.3265674624
 31
0.0
  0
LINE
  5
12B
100
AcDbEntity
  8
52176994
370
         0
390
0
  6
CONTINUOUS
 62
         7
100
AcDbLine
 10
373.6359394314
 20
951.8265674624
 30
0.0
 11
373.6359394314
 21
946.2265674624
 31
0.0
  0
ARC
  5
12C
100
AcDbEntity
  8
52176994
370
         0
390
0
  6
CONTINUOUS
 62
         7
100
AcDbCircle
 10
380.5359394314
 20
691.3265674624
 30
0.0
 40
164.7
100
AcDbArc
 50
132.6427614602
 51
133.0158586132
  0
LINE
  5
12D
100
AcDbEntity
  8
52176994
370
         0
390
0
  6
CONTINUOUS
 62
         7
100
AcDbLine
 10
258.677636139
 20
801.8290738534
 30
0.0
 11
258.5360462024
 21
801.97066379
 31
0.0
  0
LINE
  5
12E
100
AcDbEntity
  8
52176994
370
         0
390
0
  6
CONTINUOUS
 62
         7
100
AcDbLine
 10
270.0334330403
 20
813.1848707548
 30
0.0
 11
269.8918431038
 21
813.3264606912
 31
0.0
  0
ARC
  5
12F
100
AcDbEntity
  8
52176994
370
         0
390
0
  6
CONTINUOUS
 62
         7
100
AcDbCircle
 10
380.5359394314
 20
691.3265674624
 30
0.0
 40
164.7
100
AcDbArc
 50
132.205501694
 51
132.6427614602
  0
LINE
  5
130
100
AcDbEntity
  8
52176994
370
         0
390
0
  6
CONTINUOUS
 62
         7
100
AcDbLine
 10
267.4043765423
 20
810.7480876264
 30
0.0
 11
267.2629035291
 21
810.8895606396
 31
0.0
  0
LINE
  5
131
100
AcDbEntity
  8
52176994
370
         0
390
0
  6
CONTINUOUS
 62
         7
100
AcDbLine
 10
385.3577648118
 20
904.3265674624
 30
0.0
 11
375.7141140509
 21
904.3265674624
 31
0.0
  0
LINE
  5
132
100
AcDbEntity
  8
52176994
370
         0
390
0
  6
CONTINUOUS
 62
         7
100
AcDbLine
 10
263.7304376502
 20
807.1571538964
 30
0.0
 11
263.5890150536
 21
807.2985764929
 31
0.0
  0
LINE
  5
133
100
AcDbEntity
  8
52176994
370
         0
390
0
  6
CONTINUOUS
 62
         7
100
AcDbLine
 10
262.9747360158
 20
806.3900866659
 30
0.0
 11
262.8333065181
 21
806.5315161636
 31
0.0
  0
LINE
  5
134
100
AcDbEntity
  8
52176994
370
         0
390
0
  6
CONTINUOUS
 62
         7
100
AcDbLine
 10
263.3018175974
 20
806.7233207867
 30
0.0
 11
263.1603918355
 21
806.8647465487
 31
0.0
  0
ARC
  5
135
100
AcDbEntity
  8
52176994
370
         0
390
0
  6
CONTINUOUS
 62
         7
100
AcDbCircle
 10
380.5359394312
 20
691.3265674625
 30
0.0
 40
164.6999999999
100
AcDbArc
 50
135.2398182396
 51
135.451975411
  0
LINE
  5
136
100
AcDbEntity
  8
52176994
370
         0
390
0
  6
CONTINUOUS
 62
         7
100
AcDbLine
 10
268.3189802822
 20
811.607921293
 30
0.0
 11
268.1774739824
 21
811.7494275927
 31
0.0
  0
LINE
  5
137
100
AcDbEntity
  8
52176994
370
         0
390
0
  6
CONTINUOUS
 62
         7
100
AcDbLine
 10
269.1055583041
 20
812.3369809062
 30
0.0
 11
268.9640170307
 21
812.4785221796
 31
0.0
  0
LINE
  5
138
100
AcDbEntity
  8
52176994
370
         0
390
0
  6
CONTINUOUS
 62
         7
100
AcDbLine
 10
260.9119020653
 20
804.2439695058
 30
0.0
 11
260.770421977
 21
804.3854495942
 31
0.0
  0
LINE
  5
139
100
AcDbEntity
  8
52176994
370
         0
390
0
  6
CONTINUOUS
 62
         7
100
AcDbLine
 10
259.5679088651
 20
802.8029577023
 30
0.0
 11
259.4263697971
 21
802.9444967703
 31
0.0
  0
ELLIPSE
  5
13A
100
AcDbEntity
  8
52176994
370
         0
390
0
  6
CONTINUOUS
 62
         7
100
AcDbEllipse
 10
380.5359394314
 20
900.2851155781
 30
0.0
 11
8.5000000000000089
 21
-0.0000000000000005
 31
0.0
210
0.0
220
0.0
230
1.0
 40
0.5773502692
 41
0.9676049211852278
 42
2.1739877324045653
  0
ARC
  5
13B
100
AcDbEntity
  8
52176994
370
         0
390
0
  6
CONTINUOUS
 62
         7
100
AcDbCircle
 10
380.9247248589
 20
904.0763377572
 30
0.0
 40
9.7575188911
100
AcDbArc
 50
237.723215948
 51
267.716462272
  0
ARC
  5
13C
100
AcDbEntity
  8
52176994
370
         0
390
0
  6
CONTINUOUS
 62
         7
100
AcDbCircle
 10
380.2023052509
 20
903.8990513018
 30
0.0
 40
9.5782962275
100
AcDbArc
 50
271.9961481256
 51
302.5641736544
  0
LINE
  5
13D
100
AcDbEntity
  8
52176994
370
         0
390
0
  6
CONTINUOUS
 62
         7
100
AcDbLine
 10
385.3577648118
 20
895.8265674624
 30
0.0
 11
389.0359394314
 21
895.8265674624
 31
0.0
  0
LINE
  5
13E
100
AcDbEntity
  8
52176994
370
         0
390
0
  6
CONTINUOUS
 62
         7
100
AcDbLine
 10
380.5359394314
 20
894.3265674624
 30
0.0
 11
373.5359394314
 21
894.3265674624
 31
0.0
  0
ARC
  5
13F
100
AcDbEntity
  8
52176994
370
         0
390
0
  6
CONTINUOUS
 62
         7
100
AcDbCircle
 10
167.9634555919
 20
690.9929332819
 30
0.0
 40
9.5782962275
100
AcDbArc
 50
1.9961481256
 51
32.5641736544
  0
CIRCLE
  5
140
100
AcDbEntity
  8
52176994
370
         0
390
0
  6
CONTINUOUS
 62
         7
100
AcDbCircle
 10
380.5359394314
 20
691.3265674624
 30
0.0
 40
164.5
  0
CIRCLE
  5
141
100
AcDbEntity
  8
52176994
370
         0
390
0
  6
CONTINUOUS
 62
         7
100
AcDbCircle
 10
380.5359394314
 20
691.3265674624
 30
0.0
 40
101.295
  0
ARC
  5
142
100
AcDbEntity
  8
52176994
370
         0
390
0
  6
CONTINUOUS
 62
         7
100
AcDbCircle
 10
380.5359394349
 20
691.3265674589
 30
0.0
 40
164.700000005
100
AcDbArc
 50
135.451975411
 51
135.6144122806
  0
ARC
  5
143
100
AcDbEntity
  8
52176994
370
         0
390
0
  6
CONTINUOUS
 62
         7
100
AcDbCircle
 10
380.5359394314
 20
691.3265674624
 30
0.0
 40
164.6999999999
100
AcDbArc
 50
135.6144122807
 51
136.6499802881
  0
LINE
  5
144
100
AcDbEntity
  8
52176994
370
         0
390
0
  6
CONTINUOUS
 62
         7
100
AcDbLine
 10
265.0733919307
 20
808.4958899178
 30
0.0
 11
264.9319667729
 21
808.6373150756
 31
0.0
  0
LINE
  5
145
100
AcDbEntity
  8
52176994
370
         0
390
0
  6
CONTINUOUS
 62
         7
100
AcDbLine
 10
386.5359394314
 20
943.8265674624
 30
0.0
 11
386.5359394314
 21
945.3265674624
 31
0.0
  0
LINE
  5
146
100
AcDbEntity
  8
52176994
370
         0
390
0
  6
CONTINUOUS
 62
         7
100
AcDbLine
 10
373.6859394314
 20
934.8265674624
 30
0.0
 11
374.5359394314
 21
934.8265674624
 31
0.0
  0
LINE
  5
147
100
AcDbEntity
  8
52176994
370
         0
390
0
  6
CONTINUOUS
 62
         7
100
AcDbLine
 10
380.3980846059
 20
934.8265674624
 30
0.0
 11
374.6737942568
 21
934.8265674624
 31
0.0
  0
LINE
  5
148
100
AcDbEntity
  8
52176994
370
         0
390
0
  6
CONTINUOUS
 62
         7
100
AcDbLine
 10
386.3980846059
 20
934.8265674624
 30
0.0
 11
380.6737942568
 21
934.8265674624
 31
0.0
  0
LINE
  5
149
100
AcDbEntity
  8
52176994
370
         0
390
0
  6
CONTINUOUS
 62
         7
100
AcDbLine
 10
386.5359394314
 20
934.8265674624
 30
0.0
 11
387.3859394314
 21
934.8265674624
 31
0.0
  0
LINE
  5
14A
100
AcDbEntity
  8
52176994
370
         0
390
0
  6
CONTINUOUS
 62
         7
100
AcDbLine
 10
374.5359394314
 20
934.8265674624
 30
0.0
 11
374.5359394314
 21
939.8265674624
 31
0.0
  0
LINE
  5
14B
100
AcDbEntity
  8
52176994
370
         0
390
0
  6
CONTINUOUS
 62
         7
100
AcDbLine
 10
374.6737942568
 20
939.8265674624
 30
0.0
 11
374.6737942568
 21
934.8265674624
 31
0.0
  0
LINE
  5
14C
100
AcDbEntity
  8
52176994
370
         0
390
0
  6
CONTINUOUS
 62
         7
100
AcDbLine
 10
380.3980846059
 20
934.8265674624
 30
0.0
 11
380.3980846059
 21
939.8265674624
 31
0.0
  0
LINE
  5
14D
100
AcDbEntity
  8
52176994
370
         0
390
0
  6
CONTINUOUS
 62
         7
100
AcDbLine
 10
380.6737942568
 20
939.8265674624
 30
0.0
 11
380.6737942568
 21
934.8265674624
 31
0.0
  0
LINE
  5
14E
100
AcDbEntity
  8
52176994
370
         0
390
0
  6
CONTINUOUS
 62
         7
100
AcDbLine
 10
386.3980846059
 20
934.8265674624
 30
0.0
 11
386.3980846059
 21
939.8265674624
 31
0.0
  0
LINE
  5
14F
100
AcDbEntity
  8
52176994
370
         0
390
0
  6
CONTINUOUS
 62
         7
100
AcDbLine
 10
386.5359394314
 20
939.8265674624
 30
0.0
 11
386.5359394314
 21
934.8265674624
 31
0.0
  0
LINE
  5
150
100
AcDbEntity
  8
52176994
370
         0
390
0
  6
CONTINUOUS
 62
         7
100
AcDbLine
 10
386.5359394314
 20
939.8265674624
 30
0.0
 11
386.3980846059
 21
939.8265674624
 31
0.0
  0
LINE
  5
151
100
AcDbEntity
  8
52176994
370
         0
390
0
  6
CONTINUOUS
 62
         7
100
AcDbLine
 10
387.4359394314
 20
946.2265674624
 30
0.0
 11
373.6359394314
 21
946.2265674624
 31
0.0
  0
LINE
  5
152
100
AcDbEntity
  8
52176994
370
         0
390
0
  6
CONTINUOUS
 62
         7
100
AcDbLine
 10
386.5359394314
 20
945.3265674624
 30
0.0
 11
374.5359394314
 21
945.3265674624
 31
0.0
  0
LINE
  5
153
100
AcDbEntity
  8
52176994
370
         0
390
0
  6
CONTINUOUS
 62
         7
100
AcDbLine
 10
387.2859394314
 20
943.8265674624
 30
0.0
 11
373.7859394314
 21
943.8265674624
 31
0.0
  0
ARC
  5
154
100
AcDbEntity
  8
52176994
370
         0
390
0
  6
CONTINUOUS
 62
         7
100
AcDbCircle
 10
380.5359394314
 20
691.3265674624
 30
0.0
 40
164.7
100
AcDbArc
 50
137.33547692
 51
137.794498306
  0
LINE
  5
155
100
AcDbEntity
  8
52176994
370
         0
390
0
  6
CONTINUOUS
 62
         7
100
AcDbLine
 10
387.2859394314
 20
942.8265674624
 30
0.0
 11
373.7859394314
 21
942.8265674624
 31
0.0
  0
LINE
  5
156
100
AcDbEntity
  8
52176994
370
         0
390
0
  6
CONTINUOUS
 62
         7
100
AcDbLine
 10
387.4359394314
 20
951.8265674624
 30
0.0
 11
373.6359394314
 21
951.8265674624
 31
0.0
  0
LINE
  5
157
100
AcDbEntity
  8
52176994
370
         0
390
0
  6
CONTINUOUS
 62
         7
100
AcDbLine
 10
176.0359394314
 20
686.5047420819
 30
0.0
 11
176.0359394314
 21
682.8265674624
 31
0.0
  0
LINE
  5
158
100
AcDbEntity
  8
52176994
370
         0
390
0
  6
CONTINUOUS
 62
         7
100
AcDbLine
 10
176.0359394314
 20
696.1483928429
 30
0.0
 11
176.0359394314
 21
699.8265674624
 31
0.0
  0
LINE
  5
159
100
AcDbEntity
  8
52176994
370
         0
390
0
  6
CONTINUOUS
 62
         7
100
AcDbLine
 10
153.0359394314
 20
699.8265674624
 30
0.0
 11
153.0359394314
 21
682.8265674624
 31
0.0
  0
LINE
  5
15A
100
AcDbEntity
  8
52176994
370
         0
390
0
  6
CONTINUOUS
 62
         7
100
AcDbLine
 10
177.5359394314
 20
691.3265674624
 30
0.0
 11
177.5359394314
 21
698.3265674624
 31
0.0
  0
LINE
  5
15B
100
AcDbEntity
  8
52176994
370
         0
390
0
  6
CONTINUOUS
 62
         7
100
AcDbLine
 10
177.5359394314
 20
691.3265674624
 30
0.0
 11
177.5359394314
 21
684.3265674624
 31
0.0
  0
CIRCLE
  5
15C
100
AcDbEntity
  8
52176994
370
         0
390
0
  6
CONTINUOUS
 62
         7
100
AcDbCircle
 10
380.5359394314
 20
691.3265674624
 30
0.0
 40
127.0
  0
LINE
  5
15D
100
AcDbEntity
  8
52176994
370
         0
390
0
  6
CONTINUOUS
 62
         7
100
AcDbLine
 10
167.5359394314
 20
696.1483928429
 30
0.0
 11
167.5359394314
 21
686.5047420819
 31
0.0
  0
LINE
  5
15E
100
AcDbEntity
  8
52176994
370
         0
390
0
  6
CONTINUOUS
 62
         7
100
AcDbLine
 10
372.0359394314
 20
895.8265674624
 30
0.0
 11
375.7141140509
 21
895.8265674624
 31
0.0
  0
LINE
  5
15F
100
AcDbEntity
  8
52176994
370
         0
390
0
  6
CONTINUOUS
 62
         7
100
AcDbLine
 10
375.7141140509
 20
904.3265674624
 30
0.0
 11
375.7141140509
 21
895.8265674624
 31
0.0
  0
LINE
  5
160
100
AcDbEntity
  8
52176994
370
         0
390
0
  6
CONTINUOUS
 62
         7
100
AcDbLine
 10
260.7876443989
 20
804.1121863897
 30
0.0
 11
260.6461597374
 21
804.2536710511
 31
0.0
  0
LINE
  5
161
100
AcDbEntity
  8
52176994
370
         0
390
0
  6
CONTINUOUS
 62
         7
100
AcDbLine
 10
125.6359394314
 20
698.2265674624
 30
0.0
 11
125.6359394314
 21
684.4265674624
 31
0.0
  0
LINE
  5
162
100
AcDbEntity
  8
52176994
370
         0
390
0
  6
CONTINUOUS
 62
         7
100
AcDbLine
 10
126.5359394314
 20
697.3265674624
 30
0.0
 11
126.5359394314
 21
685.3265674624
 31
0.0
  0
LINE
  5
163
100
AcDbEntity
  8
52176994
370
         0
390
0
  6
CONTINUOUS
 62
         7
100
AcDbLine
 10
129.0359394314
 20
698.0765674624
 30
0.0
 11
129.0359394314
 21
684.5765674624
 31
0.0
  0
ARC
  5
164
100
AcDbEntity
  8
52176994
370
         0
390
0
  6
CONTINUOUS
 62
         7
100
AcDbCircle
 10
380.5359394314
 20
691.3265674624
 30
0.0
 40
164.7
100
AcDbArc
 50
136.6499802881
 51
136.7129904003
  0
LINE
  5
165
100
AcDbEntity
  8
52176994
370
         0
390
0
  6
CONTINUOUS
 62
         7
100
AcDbLine
 10
137.0359394314
 20
691.1887126369
 30
0.0
 11
137.0359394314
 21
685.4644222879
 31
0.0
  0
LINE
  5
166
100
AcDbEntity
  8
52176994
370
         0
390
0
  6
CONTINUOUS
 62
         7
100
AcDbLine
 10
137.0359394314
 20
684.4765674624
 30
0.0
 11
137.0359394314
 21
685.3265674624
 31
0.0
  0
LINE
  5
167
100
AcDbEntity
  8
52176994
370
         0
390
0
  6
CONTINUOUS
 62
         7
100
AcDbLine
 10
137.0359394314
 20
698.1765674624
 30
0.0
 11
137.0359394314
 21
697.3265674624
 31
0.0
  0
LINE
  5
168
100
AcDbEntity
  8
52176994
370
         0
390
0
  6
CONTINUOUS
 62
         7
100
AcDbLine
 10
132.0359394314
 20
697.3265674624
 30
0.0
 11
132.0359394314
 21
697.1887126369
 31
0.0
  0
LINE
  5
169
100
AcDbEntity
  8
52176994
370
         0
390
0
  6
CONTINUOUS
 62
         7
100
AcDbLine
 10
132.0359394314
 20
685.4644222879
 30
0.0
 11
132.0359394314
 21
685.3265674624
 31
0.0
  0
LINE
  5
16A
100
AcDbEntity
  8
52176994
370
         0
390
0
  6
CONTINUOUS
 62
         7
100
AcDbLine
 10
132.0359394314
 20
691.4644222879
 30
0.0
 11
132.0359394314
 21
691.1887126369
 31
0.0
  0
ARC
  5
16B
100
AcDbEntity
  8
52176994
370
         0
390
0
  6
CONTINUOUS
 62
         7
100
AcDbCircle
 10
167.7861691365
 20
691.71535289
 30
0.0
 40
9.7575188911
100
AcDbArc
 50
327.723215948
 51
357.716462272
  0
LINE
  5
16C
100
AcDbEntity
  8
52176994
370
         0
390
0
  6
CONTINUOUS
 62
         7
100
AcDbLine
 10
387.5359394314
 20
855.6813341534
 30
0.0
 11
387.5359394314
 21
894.3265674624
 31
0.0
  0
ELLIPSE
  5
16D
100
AcDbEntity
  8
52176994
370
         0
390
0
  6
CONTINUOUS
 62
         7
100
AcDbEllipse
 10
171.5773913157
 20
691.3265674624
 30
0.0
 11
0.0000000000000005
 21
8.5000000000000107
 31
0.0
210
0.0
220
0.0
230
1.0
 40
0.5773502692
 41
0.967604921185236
 42
2.1739877324045573
  0
LINE
  5
16E
100
AcDbEntity
  8
52176994
370
         0
390
0
  6
CONTINUOUS
 62
         7
100
AcDbLine
 10
132.0359394314
 20
691.1887126369
 30
0.0
 11
132.0359394314
 21
685.4644222879
 31
0.0
  0
LINE
  5
16F
100
AcDbEntity
  8
52176994
370
         0
390
0
  6
CONTINUOUS
 62
         7
100
AcDbLine
 10
132.0359394314
 20
697.1887126369
 30
0.0
 11
132.0359394314
 21
691.4644222879
 31
0.0
  0
LINE
  5
170
100
AcDbEntity
  8
52176994
370
         0
390
0
  6
CONTINUOUS
 62
         7
100
AcDbLine
 10
137.0359394314
 20
697.1887126369
 30
0.0
 11
137.0359394314
 21
691.4644222879
 31
0.0
  0
LINE
  5
171
100
AcDbEntity
  8
52176994
370
         0
390
0
  6
CONTINUOUS
 62
         7
100
AcDbLine
 10
137.0359394314
 20
691.1887126369
 30
0.0
 11
132.0359394314
 21
691.1887126369
 31
0.0
  0
LINE
  5
172
100
AcDbEntity
  8
52176994
370
         0
390
0
  6
CONTINUOUS
 62
         7
100
AcDbLine
 10
137.0359394314
 20
697.1887126369
 30
0.0
 11
132.0359394314
 21
697.1887126369
 31
0.0
  0
LINE
  5
173
100
AcDbEntity
  8
52176994
370
         0
390
0
  6
CONTINUOUS
 62
         7
100
AcDbLine
 10
132.0359394314
 20
691.4644222879
 30
0.0
 11
137.0359394314
 21
691.4644222879
 31
0.0
  0
LINE
  5
174
100
AcDbEntity
  8
52176994
370
         0
390
0
  6
CONTINUOUS
 62
         7
100
AcDbLine
 10
120.0359394314
 20
698.2265674624
 30
0.0
 11
120.0359394314
 21
684.4265674624
 31
0.0
  0
LINE
  5
175
100
AcDbEntity
  8
52176994
370
         0
390
0
  6
CONTINUOUS
 62
         7
100
AcDbLine
 10
385.3577648118
 20
895.8265674624
 30
0.0
 11
385.3577648118
 21
904.3265674624
 31
0.0
  0
LINE
  5
176
100
AcDbEntity
  8
52176994
370
         0
390
0
  6
CONTINUOUS
 62
         7
100
AcDbLine
 10
389.0359394314
 20
918.8265674624
 30
0.0
 11
372.0359394314
 21
918.8265674624
 31
0.0
  0
ARC
  5
177
100
AcDbEntity
  8
52176994
370
         0
390
0
  6
CONTINUOUS
 62
         7
100
AcDbCircle
 10
380.5359394314
 20
691.3265674624
 30
0.0
 40
164.7
100
AcDbArc
 50
134.5801499749
 51
135.2398182396
  0
LINE
  5
178
100
AcDbEntity
  8
52176994
370
         0
390
0
  6
CONTINUOUS
 62
         7
100
AcDbLine
 10
380.5359394314
 20
894.3265674624
 30
0.0
 11
387.5359394314
 21
894.3265674624
 31
0.0
  0
ARC
  5
179
100
AcDbEntity
  8
52176994
370
         0
390
0
  6
CONTINUOUS
 62
         7
100
AcDbCircle
 10
380.5359394314
 20
691.3265674624
 30
0.0
 40
164.7
100
AcDbArc
 50
133.0158586132
 51
133.4525574656
  0
ARC
  5
17A
100
AcDbEntity
  8
52176994
370
         0
390
0
  6
CONTINUOUS
 62
         7
100
AcDbCircle
 10
380.5359394314
 20
691.3265674624
 30
0.0
 40
164.7
100
AcDbArc
 50
136.7129904003
 51
137.33547692
  0
LINE
  5
17B
100
AcDbEntity
  8
52176994
370
         0
390
0
  6
CONTINUOUS
 62
         7
100
AcDbLine
 10
128.0359394314
 20
698.0765674624
 30
0.0
 11
128.0359394314
 21
684.5765674624
 31
0.0
  0
ENDBLK
  5
17C
100
AcDbEntity
  8
52176994
370
         0
390
0
  6
CONTINUOUS
 62
         7
100
AcDbBlockEnd
  0
BLOCK
  5
1B5
100
AcDbEntity
  8
0
370
         0
390
0
 62
         1
 48
0.0
100
AcDbBlockBegin
  2
SE6
 70
         0
 10
0.0
 20
0.0
 30
0.0
  3
SE6
  1

  0
ENDBLK
  5
1B6
100
AcDbEntity
  8
0
370
         0
390
0
 62
         1
 48
0.0
100
AcDbBlockEnd
  0
BLOCK
  5
17F
100
AcDbEntity
  8
0
370
         0
390
0
 62
         1
 48
0.0
100
AcDbBlockBegin
  2
SE7
 70
         0
 10
0.0
 20
0.0
 30
0.0
  3
SE7
  1

  0
LINE
  5
180
100
AcDbEntity
  8
52176994
370
         0
390
0
  6
CONTINUOUS
 62
         7
100
AcDbLine
 10
388.6768169209
 20
416.8201422914
 30
0.0
 11
382.0669757731
 21
416.8201422914
 31
0.0
  0
LINE
  5
181
100
AcDbEntity
  8
52176994
370
         0
390
0
  6
CONTINUOUS
 62
         7
100
AcDbLine
 10
392.2205090567
 20
416.8201422914
 30
0.0
 11
388.9155884827
 21
416.8201422914
 31
0.0
  0
LINE
  5
182
100
AcDbEntity
  8
52176994
370
         0
390
0
  6
CONTINUOUS
 62
         7
100
AcDbLine
 10
378.621896347
 20
425.8201422914
 30
0.0
 11
392.121896347
 21
425.8201422914
 31
0.0
  0
LINE
  5
183
100
AcDbEntity
  8
52176994
370
         0
390
0
  6
CONTINUOUS
 62
         7
100
AcDbLine
 10
378.471896347
 20
428.2201422914
 30
0.0
 11
392.271896347
 21
428.2201422914
 31
0.0
  0
LINE
  5
184
100
AcDbEntity
  8
52176994
370
         0
390
0
  6
CONTINUOUS
 62
         7
100
AcDbLine
 10
379.371896347
 20
427.3201422914
 30
0.0
 11
391.371896347
 21
427.3201422914
 31
0.0
  0
LINE
  5
185
100
AcDbEntity
  8
52176994
370
         0
390
0
  6
CONTINUOUS
 62
         7
100
AcDbLine
 10
381.8282042113
 20
421.8201422914
 30
0.0
 11
378.5232836373
 21
421.8201422914
 31
0.0
  0
LINE
  5
186
100
AcDbEntity
  8
52176994
370
         0
390
0
  6
CONTINUOUS
 62
         7
100
AcDbLine
 10
388.6768169209
 20
421.8201422914
 30
0.0
 11
382.0669757731
 21
421.8201422914
 31
0.0
  0
LINE
  5
187
100
AcDbEntity
  8
52176994
370
         0
390
0
  6
CONTINUOUS
 62
         7
100
AcDbLine
 10
378.471896347
 20
433.8201422914
 30
0.0
 11
392.271896347
 21
433.8201422914
 31
0.0
  0
LINE
  5
188
100
AcDbEntity
  8
52176994
370
         0
390
0
  6
CONTINUOUS
 62
         7
100
AcDbLine
 10
378.621896347
 20
424.8201422914
 30
0.0
 11
392.121896347
 21
424.8201422914
 31
0.0
  0
LINE
  5
189
100
AcDbEntity
  8
52176994
370
         0
390
0
  6
CONTINUOUS
 62
         7
100
AcDbLine
 10
378.521896347
 20
421.8201422914
 30
0.0
 11
378.5232836373
 21
421.8201422914
 31
0.0
  0
LINE
  5
18A
100
AcDbEntity
  8
52176994
370
         0
390
0
  6
CONTINUOUS
 62
         7
100
AcDbLine
 10
392.2205090567
 20
421.8201422914
 30
0.0
 11
388.9155884827
 21
421.8201422914
 31
0.0
  0
LINE
  5
18B
100
AcDbEntity
  8
52176994
370
         0
390
0
  6
CONTINUOUS
 62
         7
100
AcDbLine
 10
392.2205090567
 20
416.8201422914
 30
0.0
 11
392.2205090567
 21
421.8201422914
 31
0.0
  0
LINE
  5
18C
100
AcDbEntity
  8
52176994
370
         0
390
0
  6
CONTINUOUS
 62
         7
100
AcDbLine
 10
378.371896347
 20
376.3201422914
 30
0.0
 11
378.371896347
 21
377.8201422914
 31
0.0
  0
ARC
  5
18D
100
AcDbEntity
  8
52176994
370
         0
390
0
  6
CONTINUOUS
 62
         7
100
AcDbCircle
 10
385.3718963472
 20
502.1751390612
 30
0.0
 40
164.5039968
100
AcDbArc
 50
267.561204754
 51
272.4387954005
  0
LINE
  5
18E
100
AcDbEntity
  8
52176994
370
         0
390
0
  6
CONTINUOUS
 62
         7
100
AcDbLine
 10
376.371896347
 20
8.8201422914
 30
0.0
 11
376.371896347
 21
337.8201422914
 31
0.0
  0
LINE
  5
18F
100
AcDbEntity
  8
52176994
370
         0
390
0
  6
CONTINUOUS
 62
         7
100
AcDbLine
 10
394.371896347
 20
8.8201422914
 30
0.0
 11
394.371896347
 21
337.8201422914
 31
0.0
  0
LINE
  5
190
100
AcDbEntity
  8
52176994
370
         0
390
0
  6
CONTINUOUS
 62
         7
100
AcDbLine
 10
392.371896347
 20
386.3201422914
 30
0.0
 11
393.871896347
 21
387.1861676952
 31
0.0
  0
LINE
  5
191
100
AcDbEntity
  8
52176994
370
         0
390
0
  6
CONTINUOUS
 62
         7
100
AcDbLine
 10
376.871896347
 20
387.1861676952
 30
0.0
 11
378.371896347
 21
386.3201422914
 31
0.0
  0
LINE
  5
192
100
AcDbEntity
  8
52176994
370
         0
390
0
  6
CONTINUOUS
 62
         7
100
AcDbLine
 10
392.371896347
 20
386.3201422914
 30
0.0
 11
392.371896347
 21
377.8201422914
 31
0.0
  0
LINE
  5
193
100
AcDbEntity
  8
52176994
370
         0
390
0
  6
CONTINUOUS
 62
         7
100
AcDbLine
 10
378.371896347
 20
377.8201422914
 30
0.0
 11
378.371896347
 21
386.3201422914
 31
0.0
  0
LINE
  5
194
100
AcDbEntity
  8
52176994
370
         0
390
0
  6
CONTINUOUS
 62
         7
100
AcDbLine
 10
392.371896347
 20
377.8201422914
 30
0.0
 11
378.371896347
 21
377.8201422914
 31
0.0
  0
LINE
  5
195
100
AcDbEntity
  8
52176994
370
         0
390
0
  6
CONTINUOUS
 62
         7
100
AcDbLine
 10
376.871896347
 20
400.8201422914
 30
0.0
 11
393.871896347
 21
400.8201422914
 31
0.0
  0
LINE
  5
196
100
AcDbEntity
  8
52176994
370
         0
390
0
  6
CONTINUOUS
 62
         7
100
AcDbLine
 10
392.371896347
 20
376.3201422914
 30
0.0
 11
378.371896347
 21
376.3201422914
 31
0.0
  0
LINE
  5
197
100
AcDbEntity
  8
52176994
370
         0
390
0
  6
CONTINUOUS
 62
         7
100
AcDbLine
 10
376.371896347
 20
8.8201422914
 30
0.0
 11
394.371896347
 21
8.8201422914
 31
0.0
  0
LINE
  5
198
100
AcDbEntity
  8
52176994
370
         0
390
0
  6
CONTINUOUS
 62
         7
100
AcDbLine
 10
381.8282042113
 20
416.8201422914
 30
0.0
 11
378.5232836373
 21
416.8201422914
 31
0.0
  0
LINE
  5
199
100
AcDbEntity
  8
52176994
370
         0
390
0
  6
CONTINUOUS
 62
         7
100
AcDbLine
 10
388.9155884827
 20
421.8201422914
 30
0.0
 11
388.6768169209
 21
421.8201422914
 31
0.0
  0
LINE
  5
19A
100
AcDbEntity
  8
52176994
370
         0
390
0
  6
CONTINUOUS
 62
         7
100
AcDbLine
 10
382.0669757731
 20
421.8201422914
 30
0.0
 11
381.8282042113
 21
421.8201422914
 31
0.0
  0
LINE
  5
19B
100
AcDbEntity
  8
52176994
370
         0
390
0
  6
CONTINUOUS
 62
         7
100
AcDbLine
 10
392.2205090567
 20
421.8201422914
 30
0.0
 11
392.221896347
 21
421.8201422914
 31
0.0
  0
LINE
  5
19C
100
AcDbEntity
  8
52176994
370
         0
390
0
  6
CONTINUOUS
 62
         7
100
AcDbLine
 10
392.371896347
 20
377.8201422914
 30
0.0
 11
392.371896347
 21
376.3201422914
 31
0.0
  0
LINE
  5
19D
100
AcDbEntity
  8
52176994
370
         0
390
0
  6
CONTINUOUS
 62
         7
100
AcDbLine
 10
378.376772001
 20
337.8201422914
 30
0.0
 11
376.371896347
 21
337.8201422914
 31
0.0
  0
LINE
  5
19E
100
AcDbEntity
  8
52176994
370
         0
390
0
  6
CONTINUOUS
 62
         7
100
AcDbLine
 10
389.371896347
 20
421.8201422914
 30
0.0
 11
389.371896347
 21
424.8201422914
 31
0.0
  0
LINE
  5
19F
100
AcDbEntity
  8
52176994
370
         0
390
0
  6
CONTINUOUS
 62
         7
100
AcDbLine
 10
382.0669757731
 20
421.8201422914
 30
0.0
 11
382.0669757731
 21
416.8201422914
 31
0.0
  0
LINE
  5
1A0
100
AcDbEntity
  8
52176994
370
         0
390
0
  6
CONTINUOUS
 62
         7
100
AcDbLine
 10
388.6768169209
 20
416.8201422914
 30
0.0
 11
388.6768169209
 21
421.8201422914
 31
0.0
  0
LINE
  5
1A1
100
AcDbEntity
  8
52176994
370
         0
390
0
  6
CONTINUOUS
 62
         7
100
AcDbLine
 10
378.5232836373
 20
421.8201422914
 30
0.0
 11
378.5232836373
 21
416.8201422914
 31
0.0
  0
LINE
  5
1A2
100
AcDbEntity
  8
52176994
370
         0
390
0
  6
CONTINUOUS
 62
         7
100
AcDbLine
 10
381.8282042113
 20
416.8201422914
 30
0.0
 11
381.8282042113
 21
421.8201422914
 31
0.0
  0
LINE
  5
1A3
100
AcDbEntity
  8
52176994
370
         0
390
0
  6
CONTINUOUS
 62
         7
100
AcDbLine
 10
378.521896347
 20
421.8201422914
 30
0.0
 11
378.521896347
 21
400.8201422914
 31
0.0
  0
LINE
  5
1A4
100
AcDbEntity
  8
52176994
370
         0
390
0
  6
CONTINUOUS
 62
         7
100
AcDbLine
 10
388.9155884827
 20
421.8201422914
 30
0.0
 11
388.9155884827
 21
416.8201422914
 31
0.0
  0
LINE
  5
1A5
100
AcDbEntity
  8
52176994
370
         0
390
0
  6
CONTINUOUS
 62
         7
100
AcDbLine
 10
376.871896347
 20
400.8201422914
 30
0.0
 11
376.871896347
 21
387.1861676952
 31
0.0
  0
LINE
  5
1A6
100
AcDbEntity
  8
52176994
370
         0
390
0
  6
CONTINUOUS
 62
         7
100
AcDbLine
 10
378.371896347
 20
376.3201422914
 30
0.0
 11
378.371896347
 21
337.8201422914
 31
0.0
  0
LINE
  5
1A7
100
AcDbEntity
  8
52176994
370
         0
390
0
  6
CONTINUOUS
 62
         7
100
AcDbLine
 10
378.471896347
 20
433.8201422914
 30
0.0
 11
378.471896347
 21
428.2201422914
 31
0.0
  0
LINE
  5
1A8
100
AcDbEntity
  8
52176994
370
         0
390
0
  6
CONTINUOUS
 62
         7
100
AcDbLine
 10
392.371896347
 20
337.8201422914
 30
0.0
 11
392.371896347
 21
376.3201422914
 31
0.0
  0
LINE
  5
1A9
100
AcDbEntity
  8
52176994
370
         0
390
0
  6
CONTINUOUS
 62
         7
100
AcDbLine
 10
394.371896347
 20
337.8201422914
 30
0.0
 11
392.371896347
 21
337.8201422914
 31
0.0
  0
LINE
  5
1AA
100
AcDbEntity
  8
52176994
370
         0
390
0
  6
CONTINUOUS
 62
         7
100
AcDbLine
 10
381.371896347
 20
424.8201422914
 30
0.0
 11
381.371896347
 21
421.8201422914
 31
0.0
  0
LINE
  5
1AB
100
AcDbEntity
  8
52176994
370
         0
390
0
  6
CONTINUOUS
 62
         7
100
AcDbLine
 10
379.371896347
 20
427.3201422914
 30
0.0
 11
379.371896347
 21
425.8201422914
 31
0.0
  0
LINE
  5
1AC
100
AcDbEntity
  8
52176994
370
         0
390
0
  6
CONTINUOUS
 62
         7
100
AcDbLine
 10
378.621896347
 20
425.8201422914
 30
0.0
 11
378.621896347
 21
424.8201422914
 31
0.0
  0
LINE
  5
1AD
100
AcDbEntity
  8
52176994
370
         0
390
0
  6
CONTINUOUS
 62
         7
100
AcDbLine
 10
391.371896347
 20
427.3201422914
 30
0.0
 11
392.271896347
 21
428.2201422914
 31
0.0
  0
LINE
  5
1AE
100
AcDbEntity
  8
52176994
370
         0
390
0
  6
CONTINUOUS
 62
         7
100
AcDbLine
 10
391.371896347
 20
425.8201422914
 30
0.0
 11
391.371896347
 21
427.3201422914
 31
0.0
  0
LINE
  5
1AF
100
AcDbEntity
  8
52176994
370
         0
390
0
  6
CONTINUOUS
 62
         7
100
AcDbLine
 10
392.121896347
 20
424.8201422914
 30
0.0
 11
392.121896347
 21
425.8201422914
 31
0.0
  0
LINE
  5
1B0
100
AcDbEntity
  8
52176994
370
         0
390
0
  6
CONTINUOUS
 62
         7
100
AcDbLine
 10
392.271896347
 20
428.2201422914
 30
0.0
 11
392.271896347
 21
433.8201422914
 31
0.0
  0
LINE
  5
1B1
100
AcDbEntity
  8
52176994
370
         0
390
0
  6
CONTINUOUS
 62
         7
100
AcDbLine
 10
378.471896347
 20
428.2201422914
 30
0.0
 11
379.371896347
 21
427.3201422914
 31
0.0
  0
LINE
  5
1B2
100
AcDbEntity
  8
52176994
370
         0
390
0
  6
CONTINUOUS
 62
         7
100
AcDbLine
 10
393.871896347
 20
387.1861676952
 30
0.0
 11
393.871896347
 21
400.8201422914
 31
0.0
  0
LINE
  5
1B3
100
AcDbEntity
  8
52176994
370
         0
390
0
  6
CONTINUOUS
 62
         7
100
AcDbLine
 10
392.221896347
 20
400.8201422914
 30
0.0
 11
392.221896347
 21
421.8201422914
 31
0.0
  0
ENDBLK
  5
1B4
100
AcDbEntity
  8
52176994
370
         0
390
0
  6
CONTINUOUS
 62
         7
100
AcDbBlockEnd
  0
ENDSEC
  0
SECTION
  2
ENTITIES
  0
INSERT
  5
47
102
{ACAD_XDICTIONARY
360
48
102
}
100
AcDbEntity
  8
0
370
         0
390
0
 62
         0
 48
0.0
100
AcDbBlockReference
  2
SE1
 10
0.0
 20
0.0
 30
0.0
  0
INSERT
  5
4B
100
AcDbEntity
  8
0
370
         0
390
0
 62
         0
 48
0.0
100
AcDbBlockReference
  2
SE0
 10
0.0
 20
0.0
 30
0.0
  0
INSERT
  5
4E
102
{ACAD_XDICTIONARY
360
4F
102
}
100
AcDbEntity
  8
0
370
         0
390
0
 62
         0
 48
0.0
100
AcDbBlockReference
  2
SE3
 10
0.0
 20
0.0
 30
0.0
  0
INSERT
  5
52
100
AcDbEntity
  8
0
370
         0
390
0
 62
         0
 48
0.0
100
AcDbBlockReference
  2
SE2
 10
0.0
 20
0.0
 30
0.0
  0
INSERT
  5
55
102
{ACAD_XDICTIONARY
360
56
102
}
100
AcDbEntity
  8
0
370
         0
390
0
 62
         0
 48
0.0
100
AcDbBlockReference
  2
SE5
 10
0.0
 20
0.0
 30
0.0
  0
INSERT
  5
59
100
AcDbEntity
  8
0
370
         0
390
0
 62
         0
 48
0.0
100
AcDbBlockReference
  2
SE4
 10
0.0
 20
0.0
 30
0.0
  0
INSERT
  5
5C
102
{ACAD_XDICTIONARY
360
5D
102
}
100
AcDbEntity
  8
0
370
         0
390
0
 62
         0
 48
0.0
100
AcDbBlockReference
  2
SE7
 10
0.0
 20
0.0
 30
0.0
  0
INSERT
  5
60
100
AcDbEntity
  8
0
370
         0
390
0
 62
         0
 48
0.0
100
AcDbBlockReference
  2
SE6
 10
0.0
 20
0.0
 30
0.0
  0
ENDSEC
  0
SECTION
  2
OBJECTS
  0
DICTIONARY
  5
19
100
AcDbDictionary
280
         0
281
         1
  3
ACAD_GROUP
350
1A
  3
ACAD_MLINESTYLE
350
1B
  3
ACAD_LAYOUT
350
1E
  3
ACAD_PLOTSETTINGS
350
22
  3
ACAD_PLOTSTYLENAME
350
1F
  3
ACAD_WIPEOUT_VARS
350
23
  3
AcDbVariableDictionary
350
1B7
  0
DICTIONARY
  5
1A
102
{ACAD_REACTORS
330
19
102
}
100
AcDbDictionary
280
         0
281
         1
  0
DICTIONARY
  5
1B
102
{ACAD_REACTORS
330
19
102
}
100
AcDbDictionary
280
         0
281
         1
  3
Standard
350
1C
  0
MLINESTYLE
  5
1C
102
{ACAD_REACTORS
330
1B
102
}
100
AcDbMlineStyle
  2
Standard
 70
         0
  3

 62
         0
 51
90.0
 52
90.0
 71
         2
 49
0.5
 62
       256
  6
ByLayer
 49
-0.5
 62
       256
  6
ByLayer
  0
ACDBDICTIONARYWDFLT
  5
1F
102
{ACAD_REACTORS
330
19
102
}
100
AcDbDictionary
281
         1
  3
Normal
350
1D
100
AcDbDictionaryWithDefault
340
1D
  0
ACDBPLACEHOLDER
  5
1D
102
{ACAD_REACTORS
330
1F
102
}
  0
LAYOUT
  5
20
102
{ACAD_REACTORS
330
1E
102
}
100
AcDbPlotSettings
  1

  2

  4

  6

 40
0.0
 41
0.0
 42
0.0
 43
0.0
 44
0.0
 45
0.0
 46
0.0
 47
0.0
 48
0.0
 49
0.0
140
0.0
141
0.0
142
1.0
143
1.0
 70
      1024
 72
         0
 73
         0
 74
         0
  7

 75
         0
147
1.0
148
0.0
149
0.0
100
AcDbLayout
  1
Model
 70
         0
 71
         0
 10
0.0
 20
0.0
 11
0.0
 21
0.0
 12
0.0
 22
0.0
 32
0.0
 14
0.0
 24
0.0
 34
0.0
 15
0.0
 25
0.0
 35
0.0
146
0.0
 13
0.0
 23
0.0
 33
0.0
 16
0.0
 26
0.0
 36
0.0
 17
0.0
 27
0.0
 37
0.0
 76
         0
330
A
331
0
345
0
346
0
  0
LAYOUT
  5
21
102
{ACAD_REACTORS
330
1E
102
}
100
AcDbPlotSettings
  1

  2

  4

  6

 40
0.0
 41
0.0
 42
0.0
 43
0.0
 44
0.0
 45
0.0
 46
0.0
 47
0.0
 48
0.0
 49
0.0
140
0.0
141
0.0
142
1.0
143
1.0
 70
         0
 72
         0
 73
         0
 74
         0
  7

 75
         0
147
1.0
148
0.0
149
0.0
100
AcDbLayout
  1
Layout1
 70
         0
 71
         0
 10
0.0
 20
0.0
 11
0.0
 21
0.0
 12
0.0
 22
0.0
 32
0.0
 14
0.0
 24
0.0
 34
0.0
 15
0.0
 25
0.0
 35
0.0
146
0.0
 13
0.0
 23
0.0
 33
0.0
 16
0.0
 26
0.0
 36
0.0
 17
0.0
 27
0.0
 37
0.0
 76
         0
330
B
331
0
345
0
346
0
  0
DICTIONARY
  5
1E
102
{ACAD_REACTORS
330
19
102
}
100
AcDbDictionary
280
         0
281
         1
  3
Layout1
350
21
  3
Model
350
20
  0
DICTIONARY
  5
22
102
{ACAD_REACTORS
330
19
102
}
100
AcDbDictionary
280
         0
281
         1
  0
WIPEOUTVARIABLES
  5
23
100
AcDbWipeoutVariables
 70
         1
  0
DICTIONARY
  5
48
100
AcDbDictionary
280
         0
281
         0
  3
ACAD_FILTER
350
49
  0
DICTIONARY
  5
49
100
AcDbDictionary
280
         0
281
         0
  3
SPATIAL
350
4A
  0
SPATIAL_FILTER
  5
4A
100
AcDbFilter
100
AcDbSpatialFilter
 70
         2
 10
10.9411801309
 20
2.4701363309
 10
41.641179356
 20
440.1701482519
210
0.0
220
0.0
230
1.0
 11
0.0
 21
0.0
 31
0.0
 71
         1
 72
         0
 73
         0
 40
1.0
 40
0.0
 40
0.0
 40
0.0
 40
0.0
 40
1.0
 40
0.0
 40
0.0
 40
0.0
 40
0.0
 40
1.0
 40
0.0
 40
1.0
 40
0.0
 40
0.0
 40
0.0
 40
0.0
 40
1.0
 40
0.0
 40
0.0
 40
0.0
 40
0.0
 40
1.0
 40
0.0
  0
DICTIONARY
  5
4F
100
AcDbDictionary
280
         0
281
         0
  3
ACAD_FILTER
350
50
  0
DICTIONARY
  5
50
100
AcDbDictionary
280
         0
281
         0
  3
SPATIAL
350
51
  0
SPATIAL_FILTER
  5
51
100
AcDbFilter
100
AcDbSpatialFilter
 70
         2
 10
10.9411801309
 20
520.4765615019
 10
41.641179356
 20
958.1765734228
210
0.0
220
0.0
230
1.0
 11
0.0
 21
0.0
 31
0.0
 71
         1
 72
         0
 73
         0
 40
1.0
 40
0.0
 40
0.0
 40
0.0
 40
0.0
 40
1.0
 40
0.0
 40
0.0
 40
0.0
 40
0.0
 40
1.0
 40
0.0
 40
1.0
 40
0.0
 40
0.0
 40
0.0
 40
0.0
 40
1.0
 40
0.0
 40
0.0
 40
0.0
 40
0.0
 40
1.0
 40
0.0
  0
DICTIONARY
  5
56
100
AcDbDictionary
280
         0
281
         0
  3
ACAD_FILTER
350
57
  0
DICTIONARY
  5
57
100
AcDbDictionary
280
         0
281
         0
  3
SPATIAL
350
58
  0
SPATIAL_FILTER
  5
58
100
AcDbFilter
100
AcDbSpatialFilter
 70
         2
 10
113.6859334709
 20
520.4765615019
 10
551.3859453918
 20
958.1765734228
210
0.0
220
0.0
230
1.0
 11
0.0
 21
0.0
 31
0.0
 71
         1
 72
         0
 73
         0
 40
1.0
 40
0.0
 40
0.0
 40
0.0
 40
0.0
 40
1.0
 40
0.0
 40
0.0
 40
0.0
 40
0.0
 40
1.0
 40
0.0
 40
1.0
 40
0.0
 40
0.0
 40
0.0
 40
0.0
 40
1.0
 40
0.0
 40
0.0
 40
0.0
 40
0.0
 40
1.0
 40
0.0
  0
DICTIONARY
  5
5D
100
AcDbDictionary
280
         0
281
         0
  3
ACAD_FILTER
350
5E
  0
DICTIONARY
  5
5E
100
AcDbDictionary
280
         0
281
         0
  3
SPATIAL
350
5F
  0
SPATIAL_FILTER
  5
5F
100
AcDbFilter
100
AcDbSpatialFilter
 70
         2
 10
370.0218967344
 20
2.4701363309
 10
400.7218959596
 20
440.1701482519
210
0.0
220
0.0
230
1.0
 11
0.0
 21
0.0
 31
0.0
 71
         1
 72
         0
 73
         0
 40
1.0
 40
0.0
 40
0.0
 40
0.0
 40
0.0
 40
1.0
 40
0.0
 40
0.0
 40
0.0
 40
0.0
 40
1.0
 40
0.0
 40
1.0
 40
0.0
 40
0.0
 40
0.0
 40
0.0
 40
1.0
 40
0.0
 40
0.0
 40
0.0
 40
0.0
 40
1.0
 40
0.0
  0
DICTIONARY
  5
1B7
100
AcDbDictionary
280
         0
281
         0
  3
DIMASSOC
350
1B8
  0
DICTIONARYVAR
  5
1B8
100
DictionaryVariables
280
         0
  1
2
  0
ENDSEC
  0
EOF
