  0
SECTION
  2
HEADER
  9
$ACADVER
  1
AC1015
  9
$ACADMAINTVER
 70
         6
  9
$DWGCODEPAGE
  3
ANSI_1252
  9
$INSBASE
 10
0.0
 20
0.0
 30
0.0
  9
$EXTMIN
 10
0.0
 20
0.0
 30
0.0
  9
$EXTMAX
 10
841.0
 20
594.0
 30
0.0
  9
$LIMMIN
 10
0.0
 20
0.0
  9
$LIMMAX
 10
841.0
 20
594.0
  9
$ORTHOMODE
 70
         0
  9
$REGENMODE
 70
         1
  9
$FILLMODE
 70
         1
  9
$QTEXTMODE
 70
         0
  9
$MIRRTEXT
 70
         1
  9
$LTSCALE
 40
25.4
  9
$ATTMODE
 70
         1
  9
$TEXTSIZE
 40
0.2
  9
$TRACEWID
 40
0.05
  9
$TEXTSTYLE
  7
Standard
  9
$CLAYER
  8
0
  9
$CELTYPE
  6
CONTINUOUS
  9
$CECOLOR
 62
       256
  9
$CELTSCALE
 40
1.0
  9
$DISPSILH
 70
         0
  9
$DIMSCALE
 40
1.0
  9
$DIMASZ
 40
0.18
  9
$DIMEXO
 40
0.0625
  9
$DIMDLI
 40
0.38
  9
$DIMRND
 40
0.0
  9
$DIMDLE
 40
0.0
  9
$DIMEXE
 40
0.18
  9
$DIMTP
 40
0.0
  9
$DIMTM
 40
0.0
  9
$DIMTXT
 40
0.18
  9
$DIMCEN
 40
0.09
  9
$DIMTSZ
 40
0.0
  9
$DIMTOL
 70
         0
  9
$DIMLIM
 70
         0
  9
$DIMTIH
 70
         1
  9
$DIMTOH
 70
         1
  9
$DIMSE1
 70
         0
  9
$DIMSE2
 70
         0
  9
$DIMTAD
 70
         0
  9
$DIMZIN
 70
         0
  9
$DIMBLK
  1

  9
$DIMASO
 70
         1
  9
$DIMSHO
 70
         1
  9
$DIMPOST
  1

  9
$DIMAPOST
  1

  9
$DIMALT
 70
         0
  9
$DIMALTD
 70
         2
  9
$DIMALTF
 40
25.4
  9
$DIMLFAC
 40
1.0
  9
$DIMTOFL
 70
         0
  9
$DIMTVP
 40
0.0
  9
$DIMTIX
 70
         0
  9
$DIMSOXD
 70
         0
  9
$DIMSAH
 70
         0
  9
$DIMBLK1
  1

  9
$DIMBLK2
  1

  9
$DIMSTYLE
  2
Standard
  9
$DIMCLRD
 70
         0
  9
$DIMCLRE
 70
         0
  9
$DIMCLRT
 70
         0
  9
$DIMTFAC
 40
1.0
  9
$DIMGAP
 40
0.09
  9
$DIMJUST
 70
         0
  9
$DIMSD1
 70
         0
  9
$DIMSD2
 70
         0
  9
$DIMTOLJ
 70
         1
  9
$DIMTZIN
 70
         0
  9
$DIMALTZ
 70
         0
  9
$DIMALTTZ
 70
         0
  9
$DIMUPT
 70
         0
  9
$DIMDEC
 70
         4
  9
$DIMTDEC
 70
         4
  9
$DIMALTU
 70
         2
  9
$DIMALTTD
 70
         2
  9
$DIMTXSTY
  7
Standard
  9
$DIMAUNIT
 70
         0
  9
$DIMADEC
 70
         0
  9
$DIMALTRND
 40
0.0
  9
$DIMAZIN
 70
         0
  9
$DIMDSEP
 70
         0
  9
$DIMATFIT
 70
         3
  9
$DIMFRAC
 70
         0
  9
$DIMLDRBLK
  1

  9
$DIMLUNIT
 70
         2
  9
$DIMLWD
 70
         0
  9
$DIMLWE
 70
         0
  9
$DIMTMOVE
 70
         0
  9
$LUNITS
 70
         2
  9
$LUPREC
 70
         4
  9
$SKETCHINC
 40
0.1
  9
$FILLETRAD
 40
0.0
  9
$AUNITS
 70
         0
  9
$AUPREC
 70
         0
  9
$MENU
  1
acad
  9
$ELEVATION
 40
0.0
  9
$PELEVATION
 40
0.0
  9
$THICKNESS
 40
0.0
  9
$LIMCHECK
 70
         0
  9
$CHAMFERA
 40
0.0
  9
$CHAMFERB
 40
0.0
  9
$CHAMFERC
 40
0.0
  9
$CHAMFERD
 40
0.0
  9
$SKPOLY
 70
         0
  9
$TDCREATE
 40
0.000000000
  9
$TDUCREATE
 40
0.000000000
  9
$TDUPDATE
 40
0.000000000
  9
$TDUUPDATE
 40
0.000000000
  9
$TDINDWG
 40
0.0000000000
  9
$TDUSRTIMER
 40
0.0000000000
  9
$USRTIMER
 70
         1
  9
$ANGBASE
 50
0.0
  9
$ANGDIR
 70
         0
  9
$PDMODE
 70
         0
  9
$PDSIZE
 40
0.0
  9
$PLINEWID
 40
0.0
  9
$SPLFRAME
 70
         0
  9
$SPLINETYPE
 70
         6
  9
$SPLINESEGS
 70
         8
  9
$HANDSEED
  5
1B9
  9
$SURFTAB1
 70
         6
  9
$SURFTAB2
 70
         6
  9
$SURFTYPE
 70
         6
  9
$SURFU
 70
         6
  9
$SURFV
 70
         6
  9
$UCSBASE
  2

  9
$UCSNAME
  2

  9
$UCSORG
 10
0.0
 20
0.0
 30
0.0
  9
$UCSXDIR
 10
1.0
 20
0.0
 30
0.0
  9
$UCSYDIR
 10
0.0
 20
1.0
 30
0.0
  9
$UCSORTHOREF
  2

  9
$UCSORTHOVIEW
 70
         0
  9
$UCSORGTOP
 10
0.0
 20
0.0
 30
0.0
  9
$UCSORGBOTTOM
 10
0.0
 20
0.0
 30
0.0
  9
$UCSORGLEFT
 10
0.0
 20
0.0
 30
0.0
  9
$UCSORGRIGHT
 10
0.0
 20
0.0
 30
0.0
  9
$UCSORGFRONT
 10
0.0
 20
0.0
 30
0.0
  9
$UCSORGBACK
 10
0.0
 20
0.0
 30
0.0
  9
$PUCSBASE
  2

  9
$PUCSNAME
  2

  9
$PUCSORG
 10
0.0
 20
0.0
 30
0.0
  9
$PUCSXDIR
 10
1.0
 20
0.0
 30
0.0
  9
$PUCSYDIR
 10
0.0
 20
1.0
 30
0.0
  9
$PUCSORTHOREF
  2

  9
$PUCSORTHOVIEW
 70
         0
  9
$PUCSORGTOP
 10
0.0
 20
0.0
 30
0.0
  9
$PUCSORGBOTTOM
 10
0.0
 20
0.0
 30
0.0
  9
$PUCSORGLEFT
 10
0.0
 20
0.0
 30
0.0
  9
$PUCSORGRIGHT
 10
0.0
 20
0.0
 30
0.0
  9
$PUCSORGFRONT
 10
0.0
 20
0.0
 30
0.0
  9
$PUCSORGBACK
 10
0.0
 20
0.0
 30
0.0
  9
$USERI1
 70
         0
  9
$USERI2
 70
         0
  9
$USERI3
 70
         0
  9
$USERI4
 70
         0
  9
$USERI5
 70
         0
  9
$USERR1
 40
0.0
  9
$USERR2
 40
0.0
  9
$USERR3
 40
0.0
  9
$USERR4
 40
0.0
  9
$USERR5
 40
0.0
  9
$WORLDVIEW
 70
         1
  9
$SHADEDGE
 70
         3
  9
$SHADEDIF
 70
        70
  9
$TILEMODE
 70
         1
  9
$MAXACTVP
 70
        16
  9
$PINSBASE
 10
0.0
 20
0.0
 30
0.0
  9
$PLIMCHECK
 70
         0
  9
$PEXTMIN
 10
1.0000000000E+20
 20
1.0000000000E+20
 30
1.0000000000E+20
  9
$PEXTMAX
 10
-1.0000000000E+20
 20
-1.0000000000E+20
 30
-1.0000000000E+20
  9
$PLIMMIN
 10
0.0
 20
0.0
  9
$PLIMMAX
 10
12.0
 20
9.0
  9
$UNITMODE
 70
         0
  9
$VISRETAIN
 70
         0
  9
$PLINEGEN
 70
         1
  9
$PSLTSCALE
 70
         0
  9
$TREEDEPTH
 70
      3020
  9
$CMLSTYLE
  2
Standard
  9
$CMLJUST
 70
         0
  9
$CMLSCALE
 40
1.0
  9
$PROXYGRAPHICS
 70
         0
  9
$MEASUREMENT
 70
         0
  9
$CELWEIGHT
370
         0
  9
$ENDCAPS
280
         0
  9
$JOINSTYLE
280
         0
  9
$LWDISPLAY
290
         0
  9
$INSUNITS
 70
         0
  9
$HYPERLINKBASE
  1

  9
$STYLESHEET
  1

  9
$XEDIT
290
         1
  9
$CEPSNTYPE
380
         0
  9
$PSTYLEMODE
290
         1
  9
$FINGERPRINTGUID
  2

  9
$VERSIONGUID
  2

  9
$EXTNAMES
290
         1
  9
$PSVPSCALE
 40
0.0
  0
ENDSEC
  0
SECTION
  2
CLASSES
  0
CLASS
  1
LWPOLYLINE
  2
AcDbPolyline
  3
AutoCAD 2000
 90
        0
280
         0
281
         1
  0
CLASS
  1
IMAGE
  2
AcDbRasterImage
  3
ISM
 90
      127
280
         0
281
         1
  0
CLASS
  1
OLE2FRAME
  2
AcDbOle2Frame
  3
AutoCAD 2000
 90
        0
280
         0
281
         1
  0
CLASS
  1
HATCH
  2
AcDbHatch
  3
AutoCAD 2000
 90
        0
280
         0
281
         1
  0
CLASS
  1
DICTIONARYVAR
  2
AcDbDictionaryVar
  3
AutoCAD 2000
 90
        0
280
         0
281
         0
  0
CLASS
  1
RASTERVARIABLES
  2
AcDbRasterVariables
  3
ISM
 90
        0
280
         0
281
         0
  0
CLASS
  1
IMAGEDEF
  2
AcDbRasterImageDef
  3
ISM
 90
        0
280
         0
281
         0
  0
CLASS
  1
IMAGEDEF_REACTOR
  2
AcDbRasterImageDefReactor
  3
ISM
 90
        1
280
         0
281
         0
  0
CLASS
  1
IDBUFFER
  2
AcDbIdBuffer
  3
AutoCAD 2000
 90
        0
280
         0
281
         0
  0
CLASS
  1
SPATIAL_FILTER
  2
AcDbSpatialFilter
  3
AutoCAD 2000
 90
        0
280
         0
281
         0
  0
CLASS
  1
XRECORD
  2
AcDbXrecord
  3
AutoCAD 2000
 90
        0
280
         0
281
         0
  0
CLASS
  1
SORTENTSTABLE
  2
AcDbSortentsTable
  3
AutoCAD 2000
 90
        0
280
         0
281
         0
  0
CLASS
  1
LAYER_INDEX
  2
AcDbLayerIndex
  3
AutoCAD 2000
 90
        0
280
         0
281
         0
  0
CLASS
  1
SPATIAL_INDEX
  2
AcDbSpatialIndex
  3
AutoCAD 2000
 90
        0
280
         0
281
         0
  0
CLASS
  1
OBJECT_PTR
  2
CAseDLPNTableRecord
  3
"ASE-LPNTableRecord"
 90
        1
280
         0
281
         0
  0
CLASS
  1
LAYOUT
  2
AcDbLayout
  3
AutoCAD 2000
 90
        0
280
         0
281
         0
  0
CLASS
  1
PLOTSETTINGS
  2
AcDbPlotSettings
  3
AutoCAD 2000
 90
        0
280
         0
281
         0
  0
CLASS
  1
ACDBDICTIONARYWDFLT
  2
AcDbDictionaryWithDefault
  3
AutoCAD 2000
 90
        0
280
         0
281
         0
  0
CLASS
  1
ACDBPLACEHOLDER
  2
AcDbPlaceHolder
  3
AutoCAD 2000
 90
        0
280
         0
281
         0
  0
CLASS
  1
VBA_PROJECT
  2
AcDbVbaProject
  3
acadvba
 90
        0
280
         0
281
         0
  0
CLASS
  1
WIPEOUT
  2
AcDbWipeout
  3
WipeOut|AutoCAD Express Tool|expresstools@autodesk.com
 90
      127
280
         0
281
         1
  0
CLASS
  1
WIPEOUTVARIABLES
  2
AcDbWipeoutVariables
  3
WipeOut|AutoCAD Express Tool|expresstools@autodesk.com
 90
        0
280
         0
281
         0
  0
CLASS
  1
RTEXT
  2
RText
  3
RText|AutoCAD Express Tool|expresstools@autodesk.com
 90
        0
280
         0
281
         1
  0
CLASS
  1
ARCALIGNEDTEXT
  2
AcDbArcAlignedText
  3
ATEXT|AutoCAD Express Tool|expresstools@autodesk.com
 90
        0
280
         0
281
         1
  0
ENDSEC
  0
SECTION
  2
TABLES
  0
TABLE
  2
VPORT
  5
7
100
AcDbSymbolTable
 70
         1
  0
VPORT
  5
15
100
AcDbSymbolTableRecord
100
AcDbViewportTableRecord
  2
*ACTIVE
 70
         0
 10
0.0
 20
0.0
 11
1.0
 21
1.0
 12
420.5
 22
297.0
 13
0.0
 23
0.0
 14
1.0
 24
1.0
 15
0.0
 25
0.0
 16
0.0
 26
0.0
 36
1.0
 17
0.0
 27
0.0
 37
0.0
 40
594.0
 41
1.604229
 42
50.0
 43
0.0
 44
0.0
 50
0.0
 51
0.0
 71
         0
 72
       100
 73
         1
 74
         1
 75
         0
 76
         0
 77
         0
 78
         0
281
         0
 65
         0
110
0.0
120
0.0
130
0.0
111
1.0
121
0.0
131
0.0
112
0.0
122
1.0
132
0.0
345
0
346
0
 79
         0
146
0.0
  0
ENDTAB
  0
TABLE
  2
LTYPE
  5
4
100
AcDbSymbolTable
 70
         7
  0
LTYPE
  5
11
100
AcDbSymbolTableRecord
100
AcDbLinetypeTableRecord
  2
ByBlock
 70
        64
  3

 72
        65
 73
         0
 40
0.0
  0
LTYPE
  5
12
100
AcDbSymbolTableRecord
100
AcDbLinetypeTableRecord
  2
ByLayer
 70
        64
  3

 72
        65
 73
         0
 40
0.0
  0
LTYPE
  5
13
100
AcDbSymbolTableRecord
100
AcDbLinetypeTableRecord
  2
CONTINUOUS
 70
         0
  3
Solid line
 72
        65
 73
         0
 40
0.0
  0
LTYPE
  5
28
100
AcDbSymbolTableRecord
100
AcDbLinetypeTableRecord
  2
HIDDEN2
 70
        64
  3
_ _ _ _ _ _ _ _ _ _ _ _ _ _ _ _ _ _ _ _ _ _ _ _
 72
        65
 73
         2
 40
0.1875
 49
0.125
 74
         0
 49
-0.0625
 74
         0
  0
LTYPE
  5
29
100
AcDbSymbolTableRecord
100
AcDbLinetypeTableRecord
  2
CENTER2
 70
        64
  3
___ _ ___ _ ___ _ ___ _ ___ _ ___ _ ___ _ ___ _
 72
        65
 73
         4
 40
1.125
 49
0.75
 74
         0
 49
-0.125
 74
         0
 49
0.125
 74
         0
 49
-0.125
 74
         0
  0
LTYPE
  5
2A
100
AcDbSymbolTableRecord
100
AcDbLinetypeTableRecord
  2
PHANTOM2
 70
        64
  3
___ _ _ ___ _ _ ___ _ _ ___ _ _ ___ _ _ ___ _ _
 72
        65
 73
         6
 40
1.25
 49
0.625
 74
         0
 49
-0.125
 74
         0
 49
0.125
 74
         0
 49
-0.125
 74
         0
 49
0.125
 74
         0
 49
-0.125
 74
         0
  0
LTYPE
  5
2B
100
AcDbSymbolTableRecord
100
AcDbLinetypeTableRecord
  2
DOT2
 70
        64
  3
...............................................
 72
        65
 73
         2
 40
0.125
 49
0.0
 74
         0
 49
-0.125
 74
         0
  0
ENDTAB
  0
TABLE
  2
LAYER
  5
2
100
AcDbSymbolTable
 70
         5
  0
LAYER
  5
14
100
AcDbSymbolTableRecord
100
AcDbLayerTableRecord
  2
0
 70
         0
 62
         7
  6
CONTINUOUS
290
         1
370
        -3
390
1D
  0
LAYER
  5
2D
100
AcDbSymbolTableRecord
100
AcDbLayerTableRecord
  2
DEFAULT
 70
         0
 62
         7
  6
CONTINUOUS
290
         1
370
        -3
390
0
  0
LAYER
  5
2F
100
AcDbSymbolTableRecord
100
AcDbLayerTableRecord
  2
04
 70
         0
 62
         7
  6
CONTINUOUS
290
         1
370
        -3
390
0
  0
LAYER
  5
31
100
AcDbSymbolTableRecord
100
AcDbLayerTableRecord
  2
20
 70
         0
 62
         7
  6
CONTINUOUS
290
         1
370
        -3
390
0
  0
LAYER
  5
44
100
AcDbSymbolTableRecord
100
AcDbLayerTableRecord
  2
52176992
 70
         0
 62
         7
  6
CONTINUOUS
290
         1
370
        -3
390
0
  0
ENDTAB
  0
TABLE
  2
STYLE
  5
3
100
AcDbSymbolTable
 70
         1
  0
STYLE
  5
17
100
AcDbSymbolTableRecord
100
AcDbTextStyleTableRecord
  2
Standard
 70
         0
 40
0.0
 41
1.0
 50
0.0
 71
         0
 42
0.2
  3
txt
  4

  0
ENDTAB
  0
TABLE
  2
VIEW
  5
5
100
AcDbSymbolTable
 70
         0
  0
ENDTAB
  0
TABLE
  2
UCS
  5
6
100
AcDbSymbolTable
 70
         0
  0
ENDTAB
  0
TABLE
  2
APPID
  5
8
100
AcDbSymbolTable
 70
         1
  0
APPID
  5
16
100
AcDbSymbolTableRecord
100
AcDbRegAppTableRecord
  2
ACAD
 70
         0
  0
ENDTAB
  0
TABLE
  2
DIMSTYLE
  5
9
100
AcDbSymbolTable
 70
         1
100
AcDbDimStyleTable
 71
         0
  0
DIMSTYLE
105
18
100
AcDbSymbolTableRecord
100
AcDbDimStyleTableRecord
  2
Standard
 70
         0
  3

  4

 40
1.0
 41
0.18
 42
0.0625
 43
0.38
 44
0.18
 45
0.0
 46
0.0
 47
0.0
 48
0.0
 71
         0
 72
         0
 73
         1
 74
         1
 75
         0
 76
         0
 77
         0
 78
         0
 79
         0
140
0.18
141
0.09
142
0.0
143
25.4
144
1.0
145
0.0
146
1.0
147
0.09
148
0.0
170
         0
171
         2
172
         0
173
         0
174
         0
175
         0
176
         0
177
         0
178
         0
179
         0
271
         4
272
         4
273
         2
274
         2
275
         0
276
         0
277
         2
278
        46
279
         0
280
         0
281
         0
282
         0
283
         1
284
         0
285
         0
286
         0
288
         0
289
         0
340
17
341
0
342
0
343
0
344
0
371
        -2
372
        -2
  0
ENDTAB
  0
TABLE
  2
BLOCK_RECORD
  5
1
100
AcDbSymbolTable
 70
         8
  0
BLOCK_RECORD
  5
A
100
AcDbSymbolTableRecord
100
AcDbBlockTableRecord
  2
*MODEL_SPACE
340
20
  0
BLOCK_RECORD
  5
B
100
AcDbSymbolTableRecord
100
AcDbBlockTableRecord
  2
*PAPER_SPACE
340
21
  0
BLOCK_RECORD
  5
45
100
AcDbSymbolTableRecord
100
AcDbBlockTableRecord
  2
SE0
340
0
102
{BLKREFS
331
4B
102
}
  0
BLOCK_RECORD
  5
46
100
AcDbSymbolTableRecord
100
AcDbBlockTableRecord
  2
SE1
340
0
102
{BLKREFS
331
47
102
}
  0
BLOCK_RECORD
  5
4C
100
AcDbSymbolTableRecord
100
AcDbBlockTableRecord
  2
SE2
340
0
102
{BLKREFS
331
52
102
}
  0
BLOCK_RECORD
  5
4D
100
AcDbSymbolTableRecord
100
AcDbBlockTableRecord
  2
SE3
340
0
102
{BLKREFS
331
4E
102
}
  0
BLOCK_RECORD
  5
53
100
AcDbSymbolTableRecord
100
AcDbBlockTableRecord
  2
SE4
340
0
102
{BLKREFS
331
59
102
}
  0
BLOCK_RECORD
  5
54
100
AcDbSymbolTableRecord
100
AcDbBlockTableRecord
  2
SE5
340
0
102
{BLKREFS
331
55
102
}
  0
BLOCK_RECORD
  5
5A
100
AcDbSymbolTableRecord
100
AcDbBlockTableRecord
  2
SE6
340
0
102
{BLKREFS
331
60
102
}
  0
BLOCK_RECORD
  5
5B
100
AcDbSymbolTableRecord
100
AcDbBlockTableRecord
  2
SE7
340
0
102
{BLKREFS
331
5C
102
}
  0
ENDTAB
  0
ENDSEC
  0
SECTION
  2
BLOCKS
  0
BLOCK
  5
D
100
AcDbEntity
  8
0
390
0
100
AcDbBlockBegin
  2
*MODEL_SPACE
 70
         0
 10
0.0
 20
0.0
 30
0.0
  3
*MODEL_SPACE
  1

  0
ENDBLK
  5
E
100
AcDbEntity
  8
0
390
0
100
AcDbBlockEnd
  0
BLOCK
  5
F
100
AcDbEntity
 67
         1
  8
0
390
0
100
AcDbBlockBegin
  2
*PAPER_SPACE
 70
         0
 10
0.0
 20
0.0
 30
0.0
  3
*PAPER_SPACE
  1

  0
ENDBLK
  5
10
100
AcDbEntity
 67
         1
  8
0
390
0
100
AcDbBlockEnd
  0
BLOCK
  5
C6
100
AcDbEntity
  8
0
370
         0
390
0
 62
         1
 48
0.0
100
AcDbBlockBegin
  2
SE0
 70
         0
 10
0.0
 20
0.0
 30
0.0
  3
SE0
  1

  0
ENDBLK
  5
C7
100
AcDbEntity
  8
0
370
         0
390
0
 62
         1
 48
0.0
100
AcDbBlockEnd
  0
BLOCK
  5
61
100
AcDbEntity
  8
0
370
         0
390
0
 62
         1
 48
0.0
100
AcDbBlockBegin
  2
SE1
 70
         0
 10
0.0
 20
0.0
 30
0.0
  3
SE1
  1

  0
LINE
  5
62
100
AcDbEntity
  8
52176992
370
         0
390
0
  6
CONTINUOUS
 62
         7
100
AcDbLine
 10
21.6700351067
 20
332.197269273
 30
0.0
 11
21.6700351067
 21
326.597269273
 31
0.0
  0
LINE
  5
63
100
AcDbEntity
  8
52176992
370
         0
390
0
  6
CONTINUOUS
 62
         7
100
AcDbLine
 10
34.5700351067
 20
325.697269273
 30
0.0
 11
35.4700351067
 21
326.597269273
 31
0.0
  0
LINE
  5
64
100
AcDbEntity
  8
52176992
370
         0
390
0
  6
CONTINUOUS
 62
         7
100
AcDbLine
 10
22.5700351067
 20
325.697269273
 30
0.0
 11
22.5700351067
 21
324.197269273
 31
0.0
  0
LINE
  5
65
100
AcDbEntity
  8
52176992
370
         0
390
0
  6
CONTINUOUS
 62
         7
100
AcDbLine
 10
21.5700351067
 20
236.197269273
 30
0.0
 11
19.5700351067
 21
236.197269273
 31
0.0
  0
LINE
  5
66
100
AcDbEntity
  8
52176992
370
         0
390
0
  6
CONTINUOUS
 62
         7
100
AcDbLine
 10
21.8200351067
 20
324.197269273
 30
0.0
 11
21.8200351067
 21
323.197269273
 31
0.0
  0
LINE
  5
67
100
AcDbEntity
  8
52176992
370
         0
390
0
  6
CONTINUOUS
 62
         7
100
AcDbLine
 10
35.5700351067
 20
284.697269273
 30
0.0
 11
37.0700351067
 21
285.5632946768
 31
0.0
  0
LINE
  5
68
100
AcDbEntity
  8
52176992
370
         0
390
0
  6
CONTINUOUS
 62
         7
100
AcDbLine
 10
25.6656884266
 20
207.6745830995
 30
0.0
 11
29.915191274
 21
207.6745830995
 31
0.0
  0
SPLINE
  5
69
100
AcDbEntity
  8
52176992
370
         0
390
0
  6
CONTINUOUS
 62
         7
100
AcDbSpline
210
0.0
220
0.0
230
1.0
 70
        12
 71
         2
 72
         6
 73
         3
 74
         0
 42
0.0
 43
0.0
 40
0.0
 40
0.0
 40
0.0
 40
1.0
 40
1.0
 40
1.0
 10
29.915191273988722
 20
207.01748231082908
 30
0.0
 41
1.0
 10
30.742549541578434
 20
206.8497516709275
 30
0.0
 41
1.0
 10
31.57003510669707
 20
206.68120759893586
 30
0.0
 41
1.0
  0
LINE
  5
6A
100
AcDbEntity
  8
52176992
370
         0
390
0
  6
CONTINUOUS
 62
         7
100
AcDbLine
 10
25.5700351067
 20
205.5106323559
 30
0.0
 11
25.5700351067
 21
205.652072246
 31
0.0
  0
LINE
  5
6B
100
AcDbEntity
  8
52176992
370
         0
390
0
  6
CONTINUOUS
 62
         7
100
AcDbLine
 10
27.116885292
 20
205.1851173953
 30
0.0
 11
27.116885292
 21
205.3265487803
 31
0.0
  0
LINE
  5
6C
100
AcDbEntity
  8
52176992
370
         0
390
0
  6
CONTINUOUS
 62
         7
100
AcDbLine
 10
21.721422397
 20
320.197269273
 30
0.0
 11
21.7200351067
 21
320.197269273
 31
0.0
  0
LINE
  5
6D
100
AcDbEntity
  8
52176992
370
         0
390
0
  6
CONTINUOUS
 62
         7
100
AcDbLine
 10
19.5700351067
 20
18.197269273
 30
0.0
 11
37.5700351067
 21
18.197269273
 31
0.0
  0
LINE
  5
6E
100
AcDbEntity
  8
52176992
370
         0
390
0
  6
CONTINUOUS
 62
         7
100
AcDbLine
 10
21.6700351067
 20
326.597269273
 30
0.0
 11
22.5700351067
 21
325.697269273
 31
0.0
  0
LINE
  5
6F
100
AcDbEntity
  8
52176992
370
         0
390
0
  6
CONTINUOUS
 62
         7
100
AcDbLine
 10
21.5700351067
 20
274.697269273
 30
0.0
 11
21.5700351067
 21
276.197269273
 31
0.0
  0
LINE
  5
70
100
AcDbEntity
  8
52176992
370
         0
390
0
  6
CONTINUOUS
 62
         7
100
AcDbLine
 10
35.4186478164
 20
315.197269273
 30
0.0
 11
32.1137272424
 21
315.197269273
 31
0.0
  0
ELLIPSE
  5
71
100
AcDbEntity
  8
52176992
370
         0
390
0
  6
CONTINUOUS
 62
         7
100
AcDbEllipse
 10
37.8046579194
 20
127.1972668699
 30
0.0
 11
100.62310626374509
 21
100.71655568000858
 31
0.0
210
0.0
220
0.0
230
1.0
 40
0.4142134417
 41
1.2350362715849266
 42
1.2515033726145008
  0
LINE
  5
72
100
AcDbEntity
  8
52176992
370
         0
390
0
  6
CONTINUOUS
 62
         7
100
AcDbLine
 10
28.8697928906
 20
198.3845870725
 30
0.0
 11
29.7801655568
 21
198.3845870724
 31
0.0
  0
LINE
  5
73
100
AcDbEntity
  8
52176992
370
         0
390
0
  6
CONTINUOUS
 62
         7
100
AcDbLine
 10
31.8749556806
 20
315.197269273
 30
0.0
 11
31.8749556806
 21
320.197269273
 31
0.0
  0
LINE
  5
74
100
AcDbEntity
  8
52176992
370
         0
390
0
  6
CONTINUOUS
 62
         7
100
AcDbLine
 10
25.2651145328
 20
320.197269273
 30
0.0
 11
25.2651145328
 21
315.197269273
 31
0.0
  0
ELLIPSE
  5
75
100
AcDbEntity
  8
52176992
370
         0
390
0
  6
CONTINUOUS
 62
         7
100
AcDbEllipse
 10
37.8046569863
 20
127.1972762973
 30
0.0
 11
100.80773054412775
 21
100.90134739575051
 31
0.0
210
0.0
220
0.0
230
1.0
 40
0.4142134202
 41
1.2349312997513915
 42
1.2513681122322495
  0
LINE
  5
76
100
AcDbEntity
  8
52176992
370
         0
390
0
  6
CONTINUOUS
 62
         7
100
AcDbLine
 10
35.4186478164
 20
315.197269273
 30
0.0
 11
35.4186478164
 21
320.197269273
 31
0.0
  0
LINE
  5
77
100
AcDbEntity
  8
52176992
370
         0
390
0
  6
CONTINUOUS
 62
         7
100
AcDbLine
 10
32.1137272424
 20
320.197269273
 30
0.0
 11
32.1137272424
 21
315.197269273
 31
0.0
  0
LINE
  5
78
100
AcDbEntity
  8
52176992
370
         0
390
0
  6
CONTINUOUS
 62
         7
100
AcDbLine
 10
35.3200351067
 20
324.197269273
 30
0.0
 11
21.8200351067
 21
324.197269273
 31
0.0
  0
LINE
  5
79
100
AcDbEntity
  8
52176992
370
         0
390
0
  6
CONTINUOUS
 62
         7
100
AcDbLine
 10
35.3200351067
 20
323.197269273
 30
0.0
 11
21.8200351067
 21
323.197269273
 31
0.0
  0
LINE
  5
7A
100
AcDbEntity
  8
52176992
370
         0
390
0
  6
CONTINUOUS
 62
         7
100
AcDbLine
 10
25.026342971
 20
315.197269273
 30
0.0
 11
25.026342971
 21
320.197269273
 31
0.0
  0
LINE
  5
7B
100
AcDbEntity
  8
52176992
370
         0
390
0
  6
CONTINUOUS
 62
         7
100
AcDbLine
 10
21.721422397
 20
320.197269273
 30
0.0
 11
21.721422397
 21
315.197269273
 31
0.0
  0
LINE
  5
7C
100
AcDbEntity
  8
52176992
370
         0
390
0
  6
CONTINUOUS
 62
         7
100
AcDbLine
 10
35.4200351067
 20
320.197269273
 30
0.0
 11
35.4186478164
 21
320.197269273
 31
0.0
  0
LINE
  5
7D
100
AcDbEntity
  8
52176992
370
         0
390
0
  6
CONTINUOUS
 62
         7
100
AcDbLine
 10
31.5700351067
 20
206.8227002215
 30
0.0
 11
31.5700351067
 21
209.5631224934
 31
0.0
  0
LINE
  5
7E
100
AcDbEntity
  8
52176992
370
         0
390
0
  6
CONTINUOUS
 62
         7
100
AcDbLine
 10
25.026342971
 20
315.197269273
 30
0.0
 11
21.721422397
 21
315.197269273
 31
0.0
  0
LINE
  5
7F
100
AcDbEntity
  8
52176992
370
         0
390
0
  6
CONTINUOUS
 62
         7
100
AcDbLine
 10
25.026342971
 20
320.197269273
 30
0.0
 11
21.721422397
 21
320.197269273
 31
0.0
  0
LINE
  5
80
100
AcDbEntity
  8
52176992
370
         0
390
0
  6
CONTINUOUS
 62
         7
100
AcDbLine
 10
31.8749556806
 20
320.197269273
 30
0.0
 11
25.2651145328
 21
320.197269273
 31
0.0
  0
LINE
  5
81
100
AcDbEntity
  8
52176992
370
         0
390
0
  6
CONTINUOUS
 62
         7
100
AcDbLine
 10
35.4186478164
 20
320.197269273
 30
0.0
 11
32.1137272424
 21
320.197269273
 31
0.0
  0
LINE
  5
82
100
AcDbEntity
  8
52176992
370
         0
390
0
  6
CONTINUOUS
 62
         7
100
AcDbLine
 10
35.4700351067
 20
326.597269273
 30
0.0
 11
21.6700351067
 21
326.597269273
 31
0.0
  0
LINE
  5
83
100
AcDbEntity
  8
52176992
370
         0
390
0
  6
CONTINUOUS
 62
         7
100
AcDbLine
 10
35.4700351067
 20
332.197269273
 30
0.0
 11
21.6700351067
 21
332.197269273
 31
0.0
  0
LINE
  5
84
100
AcDbEntity
  8
52176992
370
         0
390
0
  6
CONTINUOUS
 62
         7
100
AcDbLine
 10
34.5700351067
 20
325.697269273
 30
0.0
 11
22.5700351067
 21
325.697269273
 31
0.0
  0
LINE
  5
85
100
AcDbEntity
  8
52176992
370
         0
390
0
  6
CONTINUOUS
 62
         7
100
AcDbLine
 10
24.5700351067
 20
323.197269273
 30
0.0
 11
24.5700351067
 21
320.197269273
 31
0.0
  0
LINE
  5
86
100
AcDbEntity
  8
52176992
370
         0
390
0
  6
CONTINUOUS
 62
         7
100
AcDbLine
 10
21.7200351067
 20
320.197269273
 30
0.0
 11
21.7200351067
 21
299.197269273
 31
0.0
  0
LINE
  5
87
100
AcDbEntity
  8
52176992
370
         0
390
0
  6
CONTINUOUS
 62
         7
100
AcDbLine
 10
20.0700351067
 20
299.197269273
 30
0.0
 11
20.0700351067
 21
285.5632946768
 31
0.0
  0
LINE
  5
88
100
AcDbEntity
  8
52176992
370
         0
390
0
  6
CONTINUOUS
 62
         7
100
AcDbLine
 10
21.5700351067
 20
274.697269273
 30
0.0
 11
21.5700351067
 21
236.197269273
 31
0.0
  0
LINE
  5
89
100
AcDbEntity
  8
52176992
370
         0
390
0
  6
CONTINUOUS
 62
         7
100
AcDbLine
 10
31.8749556806
 20
315.197269273
 30
0.0
 11
25.2651145328
 21
315.197269273
 31
0.0
  0
LINE
  5
8A
100
AcDbEntity
  8
52176992
370
         0
390
0
  6
CONTINUOUS
 62
         7
100
AcDbLine
 10
32.1137272424
 20
320.197269273
 30
0.0
 11
31.8749556806
 21
320.197269273
 31
0.0
  0
LINE
  5
8B
100
AcDbEntity
  8
52176992
370
         0
390
0
  6
CONTINUOUS
 62
         7
100
AcDbLine
 10
21.5700351067
 20
284.697269273
 30
0.0
 11
20.0700351067
 21
285.5632946768
 31
0.0
  0
ARC
  5
8C
100
AcDbEntity
  8
52176992
370
         0
390
0
  6
CONTINUOUS
 62
         7
100
AcDbCircle
 10
28.5700351062
 20
344.9782790791
 30
0.0
 40
109.0060002679
100
AcDbArc
 50
266.3181235655
 51
273.681876197
  0
LINE
  5
8D
100
AcDbEntity
  8
52176992
370
         0
390
0
  6
CONTINUOUS
 62
         7
100
AcDbLine
 10
19.5700351067
 20
18.197269273
 30
0.0
 11
19.5700351067
 21
236.197269273
 31
0.0
  0
CIRCLE
  5
8E
100
AcDbEntity
  8
52176992
370
         0
390
0
  6
CONTINUOUS
 62
         7
100
AcDbCircle
 10
28.5700351067
 20
127.197269273
 30
0.0
 40
6.9
  0
LINE
  5
8F
100
AcDbEntity
  8
52176992
370
         0
390
0
  6
CONTINUOUS
 62
         7
100
AcDbLine
 10
25.2651145328
 20
320.197269273
 30
0.0
 11
25.026342971
 21
320.197269273
 31
0.0
  0
LINE
  5
90
100
AcDbEntity
  8
52176992
370
         0
390
0
  6
CONTINUOUS
 62
         7
100
AcDbLine
 10
21.5700351067
 20
276.197269273
 30
0.0
 11
21.5700351067
 21
284.697269273
 31
0.0
  0
LINE
  5
91
100
AcDbEntity
  8
52176992
370
         0
390
0
  6
CONTINUOUS
 62
         7
100
AcDbLine
 10
37.5700351067
 20
18.197269273
 30
0.0
 11
37.5700351067
 21
236.197269273
 31
0.0
  0
LINE
  5
92
100
AcDbEntity
  8
52176992
370
         0
390
0
  6
CONTINUOUS
 62
         7
100
AcDbLine
 10
35.5700351067
 20
276.197269273
 30
0.0
 11
35.5700351067
 21
274.697269273
 31
0.0
  0
LINE
  5
93
100
AcDbEntity
  8
52176992
370
         0
390
0
  6
CONTINUOUS
 62
         7
100
AcDbLine
 10
35.5700351067
 20
274.697269273
 30
0.0
 11
21.5700351067
 21
274.697269273
 31
0.0
  0
LINE
  5
94
100
AcDbEntity
  8
52176992
370
         0
390
0
  6
CONTINUOUS
 62
         7
100
AcDbLine
 10
37.0700351067
 20
299.197269273
 30
0.0
 11
20.0700351067
 21
299.197269273
 31
0.0
  0
LINE
  5
95
100
AcDbEntity
  8
52176992
370
         0
390
0
  6
CONTINUOUS
 62
         7
100
AcDbLine
 10
35.5700351067
 20
276.197269273
 30
0.0
 11
21.5700351067
 21
276.197269273
 31
0.0
  0
LINE
  5
96
100
AcDbEntity
  8
52176992
370
         0
390
0
  6
CONTINUOUS
 62
         7
100
AcDbLine
 10
35.5700351067
 20
284.697269273
 30
0.0
 11
35.5700351067
 21
276.197269273
 31
0.0
  0
ELLIPSE
  5
97
100
AcDbEntity
  8
52176992
370
         0
390
0
  6
CONTINUOUS
 62
         7
100
AcDbEllipse
 10
25.3354124999
 20
127.1972687435
 30
0.0
 11
-100.80773475731525
 21
100.90135484609704
 31
0.0
210
0.0
220
0.0
230
1.0
 40
0.4142134373
 41
5.0482540297439371
 42
5.0646753938589519
  0
LINE
  5
98
100
AcDbEntity
  8
52176992
370
         0
390
0
  6
CONTINUOUS
 62
         7
100
AcDbLine
 10
29.7801655568
 20
201.2042777088
 30
0.0
 11
28.8697928906
 21
201.204277709
 31
0.0
  0
LINE
  5
99
100
AcDbEntity
  8
52176992
370
         0
390
0
  6
CONTINUOUS
 62
         7
100
AcDbLine
 10
28.8697928906
 20
201.204277709
 30
0.0
 11
28.8697928906
 21
200.2757805571
 31
0.0
  0
LINE
  5
9A
100
AcDbEntity
  8
52176992
370
         0
390
0
  6
CONTINUOUS
 62
         7
100
AcDbLine
 10
28.8697928906
 20
200.2757805571
 30
0.0
 11
25.5700351067
 21
200.2757805571
 31
0.0
  0
LINE
  5
9B
100
AcDbEntity
  8
52176992
370
         0
390
0
  6
CONTINUOUS
 62
         7
100
AcDbLine
 10
25.5700351067
 20
200.2757805571
 30
0.0
 11
25.5700351067
 21
199.4745986328
 31
0.0
  0
LINE
  5
9C
100
AcDbEntity
  8
52176992
370
         0
390
0
  6
CONTINUOUS
 62
         7
100
AcDbLine
 10
25.5700351067
 20
207.8161486746
 30
0.0
 11
29.915191274
 21
207.8161486746
 31
0.0
  0
LINE
  5
9D
100
AcDbEntity
  8
52176992
370
         0
390
0
  6
CONTINUOUS
 62
         7
100
AcDbLine
 10
29.915191274
 20
207.8161486746
 30
0.0
 11
29.915191274
 21
207.1589966636
 31
0.0
  0
SPLINE
  5
9E
100
AcDbEntity
  8
52176992
370
         0
390
0
  6
CONTINUOUS
 62
         7
100
AcDbSpline
210
0.0
220
0.0
230
1.0
 70
        12
 71
         2
 72
         6
 73
         3
 74
         0
 42
0.0
 43
0.0
 40
0.0
 40
0.0
 40
0.0
 40
1.0
 40
1.0
 40
1.0
 10
29.915191273976234
 20
207.15899666359863
 30
0.0
 41
1.0
 10
30.742549774765777
 20
206.99125438834278
 30
0.0
 41
1.0
 10
31.57003510669043
 20
206.82270022153955
 30
0.0
 41
1.0
  0
SPLINE
  5
9F
100
AcDbEntity
  8
52176992
370
         0
390
0
  6
CONTINUOUS
 62
         7
100
AcDbSpline
210
0.0
220
0.0
230
1.0
 70
        12
 71
         2
 72
         6
 73
         3
 74
         0
 42
0.0
 43
0.0
 40
0.0
 40
0.0
 40
0.0
 40
1.0
 40
1.0
 40
1.0
 10
31.570035106688543
 20
209.56312249338617
 30
0.0
 41
1.0
 10
30.742481232192016
 20
209.72306690741837
 30
0.0
 41
1.0
 10
29.915191273973065
 20
209.8821899306605
 30
0.0
 41
1.0
  0
LINE
  5
A0
100
AcDbEntity
  8
52176992
370
         0
390
0
  6
CONTINUOUS
 62
         7
100
AcDbLine
 10
29.915191274
 20
209.8821899307
 30
0.0
 11
29.915191274
 21
209.0131691752
 31
0.0
  0
LINE
  5
A1
100
AcDbEntity
  8
52176992
370
         0
390
0
  6
CONTINUOUS
 62
         7
100
AcDbLine
 10
25.5700351067
 20
207.6937996018
 30
0.0
 11
25.5700351067
 21
207.8161486746
 31
0.0
  0
LINE
  5
A2
100
AcDbEntity
  8
52176992
370
         0
390
0
  6
CONTINUOUS
 62
         7
100
AcDbLine
 10
31.5700351067
 20
206.6812075989
 30
0.0
 11
31.5700351067
 21
206.8227002215
 31
0.0
  0
LINE
  5
A3
100
AcDbEntity
  8
52176992
370
         0
390
0
  6
CONTINUOUS
 62
         7
100
AcDbLine
 10
29.915191274
 20
207.0174823109
 30
0.0
 11
29.915191274
 21
207.1589966636
 31
0.0
  0
LINE
  5
A4
100
AcDbEntity
  8
52176992
370
         0
390
0
  6
CONTINUOUS
 62
         7
100
AcDbLine
 10
29.915191274
 20
209.0131691752
 30
0.0
 11
25.5700351067
 21
209.0131691752
 31
0.0
  0
LINE
  5
A5
100
AcDbEntity
  8
52176992
370
         0
390
0
  6
CONTINUOUS
 62
         7
100
AcDbLine
 10
25.5700351067
 20
209.0131691752
 30
0.0
 11
25.5700351067
 21
207.8161486746
 31
0.0
  0
LINE
  5
A6
100
AcDbEntity
  8
52176992
370
         0
390
0
  6
CONTINUOUS
 62
         7
100
AcDbLine
 10
37.5700351067
 20
236.197269273
 30
0.0
 11
35.5650166694
 21
236.197269273
 31
0.0
  0
LINE
  5
A7
100
AcDbEntity
  8
52176992
370
         0
390
0
  6
CONTINUOUS
 62
         7
100
AcDbLine
 10
31.5700351067
 20
199.7341199234
 30
0.0
 11
31.5700351067
 21
199.8757730688
 31
0.0
  0
LINE
  5
A8
100
AcDbEntity
  8
52176992
370
         0
390
0
  6
CONTINUOUS
 62
         7
100
AcDbLine
 10
28.8697928906
 20
198.3845870725
 30
0.0
 11
28.8697928906
 21
198.5263930293
 31
0.0
  0
LINE
  5
A9
100
AcDbEntity
  8
52176992
370
         0
390
0
  6
CONTINUOUS
 62
         7
100
AcDbLine
 10
29.7801655568
 20
198.3845870724
 30
0.0
 11
29.7801655568
 21
198.5263930293
 31
0.0
  0
LINE
  5
AA
100
AcDbEntity
  8
52176992
370
         0
390
0
  6
CONTINUOUS
 62
         7
100
AcDbLine
 10
28.8697928906
 20
199.4745986329
 30
0.0
 11
28.8697928906
 21
198.5263930293
 31
0.0
  0
ELLIPSE
  5
AB
100
AcDbEntity
  8
52176992
370
         0
390
0
  6
CONTINUOUS
 62
         7
100
AcDbEllipse
 10
37.5476886336
 20
127.1967373118
 30
0.0
 11
-461.32700052484535
 21
79.34519369312379
 31
0.0
210
0.0
220
0.0
230
1.0
 40
0.1626337638
 41
4.75652774697926
 42
4.7629571380635927
  0
ELLIPSE
  5
AC
100
AcDbEntity
  8
52176992
370
         0
390
0
  6
CONTINUOUS
 62
         7
100
AcDbEllipse
 10
22.6803830589
 20
127.1973401948
 30
0.0
 11
457.55292561230254
 21
79.379461592417272
 31
0.0
210
0.0
220
0.0
230
1.0
 40
0.163893967
 41
1.5261964727056869
 42
1.5360575817347704
  0
LINE
  5
AD
100
AcDbEntity
  8
52176992
370
         0
390
0
  6
CONTINUOUS
 62
         7
100
AcDbLine
 10
25.5700351067
 20
199.3329038771
 30
0.0
 11
25.5700351067
 21
199.4745986328
 31
0.0
  0
LINE
  5
AE
100
AcDbEntity
  8
52176992
370
         0
390
0
  6
CONTINUOUS
 62
         7
100
AcDbLine
 10
25.5700351067
 20
203.5552263624
 30
0.0
 11
25.5700351067
 21
204.8992487998
 31
0.0
  0
ELLIPSE
  5
AF
100
AcDbEntity
  8
52176992
370
         0
390
0
  6
CONTINUOUS
 62
         7
100
AcDbEllipse
 10
29.6338167021
 20
127.1972680115
 30
0.0
 11
367.34275867496075
 21
80.536668811839007
 31
0.0
210
0.0
220
0.0
230
1.0
 40
0.2007555198
 41
1.5215450303597724
 42
1.5378630010182133
  0
LINE
  5
B0
100
AcDbEntity
  8
52176992
370
         0
390
0
  6
CONTINUOUS
 62
         7
100
AcDbLine
 10
28.8697928906
 20
198.5263930293
 30
0.0
 11
29.7801655568
 21
198.5263930293
 31
0.0
  0
LINE
  5
B1
100
AcDbEntity
  8
52176992
370
         0
390
0
  6
CONTINUOUS
 62
         7
100
AcDbLine
 10
25.5700351067
 20
203.4137963526
 30
0.0
 11
25.5700351067
 21
203.5552263624
 31
0.0
  0
LINE
  5
B2
100
AcDbEntity
  8
52176992
370
         0
390
0
  6
CONTINUOUS
 62
         7
100
AcDbLine
 10
31.5700351067
 20
204.6774386003
 30
0.0
 11
31.5700351067
 21
204.8188619209
 31
0.0
  0
LINE
  5
B3
100
AcDbEntity
  8
52176992
370
         0
390
0
  6
CONTINUOUS
 62
         7
100
AcDbLine
 10
25.5700351067
 20
205.652072246
 30
0.0
 11
25.5700351067
 21
207.6937996017
 31
0.0
  0
LINE
  5
B4
100
AcDbEntity
  8
52176992
370
         0
390
0
  6
CONTINUOUS
 62
         7
100
AcDbLine
 10
25.5700351067
 20
199.4745986328
 30
0.0
 11
28.8697928906
 21
199.4745986329
 31
0.0
  0
ELLIPSE
  5
B5
100
AcDbEntity
  8
52176992
370
         0
390
0
  6
CONTINUOUS
 62
         7
100
AcDbEllipse
 10
29.6338167937
 20
127.1972623022
 30
0.0
 11
366.669983342058
 21
80.389168982763962
 31
0.0
210
0.0
220
0.0
230
1.0
 40
0.2007555272
 41
1.5215353669309999
 42
1.5378832791295716
  0
CIRCLE
  5
B6
100
AcDbEntity
  8
52176992
370
         0
390
0
  6
CONTINUOUS
 62
         7
100
AcDbCircle
 10
28.5700351067
 20
127.197269273
 30
0.0
 40
8.5
  0
ELLIPSE
  5
B7
100
AcDbEntity
  8
52176992
370
         0
390
0
  6
CONTINUOUS
 62
         7
100
AcDbEllipse
 10
41.5383387427
 20
127.1972714826
 30
0.0
 11
-367.34275059344282
 21
80.536666812396106
 31
0.0
210
0.0
220
0.0
230
1.0
 40
0.2007555154
 41
4.783487795259763
 42
4.7998158572222334
  0
LINE
  5
B8
100
AcDbEntity
  8
52176992
370
         0
390
0
  6
CONTINUOUS
 62
         7
100
AcDbLine
 10
31.5700351067
 20
206.4782770019
 30
0.0
 11
31.5700351067
 21
204.8188619209
 31
0.0
  0
LINE
  5
B9
100
AcDbEntity
  8
52176992
370
         0
390
0
  6
CONTINUOUS
 62
         7
100
AcDbLine
 10
27.116885292
 20
206.1388070031
 30
0.0
 11
27.116885292
 21
205.3265487801
 31
0.0
  0
SPLINE
  5
BA
100
AcDbEntity
  8
52176992
370
         0
390
0
  6
CONTINUOUS
 62
         7
100
AcDbSpline
210
0.0
220
0.0
230
1.0
 70
        12
 71
         2
 72
         6
 73
         3
 74
         0
 42
0.0
 43
0.0
 40
0.0
 40
0.0
 40
0.0
 40
1.0
 40
1.0
 40
1.0
 10
27.116885291976494
 20
205.32654878030147
 30
0.0
 41
1.0
 10
26.343436987113872
 20
205.48966842262354
 30
0.0
 41
1.0
 10
25.570035106690273
 20
205.65207224606792
 30
0.0
 41
1.0
  0
SPLINE
  5
BB
100
AcDbEntity
  8
52176992
370
         0
390
0
  6
CONTINUOUS
 62
         7
100
AcDbSpline
210
0.0
220
0.0
230
1.0
 70
        12
 71
         2
 72
         6
 73
         3
 74
         0
 42
0.0
 43
0.0
 40
0.0
 40
0.0
 40
0.0
 40
1.0
 40
1.0
 40
1.0
 10
27.116885291968085
 20
205.18511739536081
 30
0.0
 41
1.0
 10
26.343436901846573
 20
205.34823345104601
 30
0.0
 41
1.0
 10
25.570035106696679
 20
205.51063235594546
 30
0.0
 41
1.0
  0
ELLIPSE
  5
BC
100
AcDbEntity
  8
52176992
370
         0
390
0
  6
CONTINUOUS
 62
         7
100
AcDbEllipse
 10
37.5475954813
 20
127.1975598891
 30
0.0
 11
-460.47967217444165
 21
79.199419698921162
 31
0.0
210
0.0
220
0.0
230
1.0
 40
0.1626329171
 41
4.7574861061741158
 42
4.7629983763982082
  0
LINE
  5
BD
100
AcDbEntity
  8
52176992
370
         0
390
0
  6
CONTINUOUS
 62
         7
100
AcDbLine
 10
35.5700351067
 20
236.1969454202
 30
0.0
 11
35.5700351067
 21
274.697269273
 31
0.0
  0
LINE
  5
BE
100
AcDbEntity
  8
52176992
370
         0
390
0
  6
CONTINUOUS
 62
         7
100
AcDbLine
 10
37.0700351067
 20
285.5632946768
 30
0.0
 11
37.0700351067
 21
299.197269273
 31
0.0
  0
LINE
  5
BF
100
AcDbEntity
  8
52176992
370
         0
390
0
  6
CONTINUOUS
 62
         7
100
AcDbLine
 10
35.4200351067
 20
299.197269273
 30
0.0
 11
35.4200351067
 21
320.197269273
 31
0.0
  0
LINE
  5
C0
100
AcDbEntity
  8
52176992
370
         0
390
0
  6
CONTINUOUS
 62
         7
100
AcDbLine
 10
35.3200351067
 20
323.197269273
 30
0.0
 11
35.3200351067
 21
324.197269273
 31
0.0
  0
LINE
  5
C1
100
AcDbEntity
  8
52176992
370
         0
390
0
  6
CONTINUOUS
 62
         7
100
AcDbLine
 10
34.5700351067
 20
324.197269273
 30
0.0
 11
34.5700351067
 21
325.697269273
 31
0.0
  0
LINE
  5
C2
100
AcDbEntity
  8
52176992
370
         0
390
0
  6
CONTINUOUS
 62
         7
100
AcDbLine
 10
32.5700351067
 20
320.197269273
 30
0.0
 11
32.5700351067
 21
323.197269273
 31
0.0
  0
LINE
  5
C3
100
AcDbEntity
  8
52176992
370
         0
390
0
  6
CONTINUOUS
 62
         7
100
AcDbLine
 10
35.4700351067
 20
326.597269273
 30
0.0
 11
35.4700351067
 21
332.197269273
 31
0.0
  0
LINE
  5
C4
100
AcDbEntity
  8
52176992
370
         0
390
0
  6
CONTINUOUS
 62
         7
100
AcDbLine
 10
25.5700351067
 20
199.3329038771
 30
0.0
 11
28.8697928906
 21
199.3329038771
 31
0.0
  0
ENDBLK
  5
C5
100
AcDbEntity
  8
52176992
370
         0
390
0
  6
CONTINUOUS
 62
         7
100
AcDbBlockEnd
  0
BLOCK
  5
FE
100
AcDbEntity
  8
0
370
         0
390
0
 62
         1
 48
0.0
100
AcDbBlockBegin
  2
SE2
 70
         0
 10
0.0
 20
0.0
 30
0.0
  3
SE2
  1

  0
ENDBLK
  5
FF
100
AcDbEntity
  8
0
370
         0
390
0
 62
         1
 48
0.0
100
AcDbBlockEnd
  0
BLOCK
  5
C8
100
AcDbEntity
  8
0
370
         0
390
0
 62
         1
 48
0.0
100
AcDbBlockBegin
  2
SE3
 70
         0
 10
0.0
 20
0.0
 30
0.0
  3
SE3
  1

  0
LINE
  5
C9
100
AcDbEntity
  8
52176992
370
         0
390
0
  6
CONTINUOUS
 62
         7
100
AcDbLine
 10
35.4700351067
 20
731.7005052923
 30
0.0
 11
35.4700351067
 21
737.3005052923
 31
0.0
  0
LINE
  5
CA
100
AcDbEntity
  8
52176992
370
         0
390
0
  6
CONTINUOUS
 62
         7
100
AcDbLine
 10
25.026342971
 20
720.3005052923
 30
0.0
 11
21.721422397
 21
720.3005052923
 31
0.0
  0
LINE
  5
CB
100
AcDbEntity
  8
52176992
370
         0
390
0
  6
CONTINUOUS
 62
         7
100
AcDbLine
 10
31.8749556806
 20
720.3005052923
 30
0.0
 11
25.2651145328
 21
720.3005052923
 31
0.0
  0
LINE
  5
CC
100
AcDbEntity
  8
52176992
370
         0
390
0
  6
CONTINUOUS
 62
         7
100
AcDbLine
 10
21.721422397
 20
725.3005052923
 30
0.0
 11
21.721422397
 21
720.3005052923
 31
0.0
  0
LINE
  5
CD
100
AcDbEntity
  8
52176992
370
         0
390
0
  6
CONTINUOUS
 62
         7
100
AcDbLine
 10
25.026342971
 20
720.3005052923
 30
0.0
 11
25.026342971
 21
725.3005052923
 31
0.0
  0
LINE
  5
CE
100
AcDbEntity
  8
52176992
370
         0
390
0
  6
CONTINUOUS
 62
         7
100
AcDbLine
 10
25.2651145328
 20
725.3005052923
 30
0.0
 11
25.2651145328
 21
720.3005052923
 31
0.0
  0
LINE
  5
CF
100
AcDbEntity
  8
52176992
370
         0
390
0
  6
CONTINUOUS
 62
         7
100
AcDbLine
 10
31.8749556806
 20
720.3005052923
 30
0.0
 11
31.8749556806
 21
725.3005052923
 31
0.0
  0
LINE
  5
D0
100
AcDbEntity
  8
52176992
370
         0
390
0
  6
CONTINUOUS
 62
         7
100
AcDbLine
 10
20.0700351067
 20
704.3005052923
 30
0.0
 11
37.0700351067
 21
704.3005052923
 31
0.0
  0
LINE
  5
D1
100
AcDbEntity
  8
52176992
370
         0
390
0
  6
CONTINUOUS
 62
         7
100
AcDbLine
 10
35.5700351067
 20
679.8005052923
 30
0.0
 11
21.5700351067
 21
679.8005052923
 31
0.0
  0
LINE
  5
D2
100
AcDbEntity
  8
52176992
370
         0
390
0
  6
CONTINUOUS
 62
         7
100
AcDbLine
 10
35.5700351067
 20
689.8005052923
 30
0.0
 11
35.5700351067
 21
681.3005052923
 31
0.0
  0
LINE
  5
D3
100
AcDbEntity
  8
52176992
370
         0
390
0
  6
CONTINUOUS
 62
         7
100
AcDbLine
 10
21.5700351067
 20
681.3005052923
 30
0.0
 11
21.5700351067
 21
689.8005052923
 31
0.0
  0
ARC
  5
D4
100
AcDbEntity
  8
52176992
370
         0
390
0
  6
CONTINUOUS
 62
         7
100
AcDbCircle
 10
28.5700351062
 20
750.0815150983
 30
0.0
 40
109.0060002679
100
AcDbArc
 50
266.3181235655
 51
273.681876197
  0
LINE
  5
D5
100
AcDbEntity
  8
52176992
370
         0
390
0
  6
CONTINUOUS
 62
         7
100
AcDbLine
 10
21.6700351067
 20
737.3005052923
 30
0.0
 11
21.6700351067
 21
731.7005052923
 31
0.0
  0
LINE
  5
D6
100
AcDbEntity
  8
52176992
370
         0
390
0
  6
CONTINUOUS
 62
         7
100
AcDbLine
 10
37.5700351067
 20
641.3005052923
 30
0.0
 11
35.5650166694
 21
641.3005052923
 31
0.0
  0
LINE
  5
D7
100
AcDbEntity
  8
52176992
370
         0
390
0
  6
CONTINUOUS
 62
         7
100
AcDbLine
 10
37.5700351067
 20
641.3005052923
 30
0.0
 11
37.5700351067
 21
423.3005052923
 31
0.0
  0
LINE
  5
D8
100
AcDbEntity
  8
52176992
370
         0
390
0
  6
CONTINUOUS
 62
         7
100
AcDbLine
 10
34.5700351067
 20
730.8005052923
 30
0.0
 11
35.4700351067
 21
731.7005052923
 31
0.0
  0
LINE
  5
D9
100
AcDbEntity
  8
52176992
370
         0
390
0
  6
CONTINUOUS
 62
         7
100
AcDbLine
 10
22.5700351067
 20
730.8005052923
 30
0.0
 11
22.5700351067
 21
729.3005052923
 31
0.0
  0
LINE
  5
DA
100
AcDbEntity
  8
52176992
370
         0
390
0
  6
CONTINUOUS
 62
         7
100
AcDbLine
 10
21.8200351067
 20
729.3005052923
 30
0.0
 11
21.8200351067
 21
728.3005052923
 31
0.0
  0
LINE
  5
DB
100
AcDbEntity
  8
52176992
370
         0
390
0
  6
CONTINUOUS
 62
         7
100
AcDbLine
 10
24.5700351067
 20
728.3005052923
 30
0.0
 11
24.5700351067
 21
725.3005052923
 31
0.0
  0
LINE
  5
DC
100
AcDbEntity
  8
52176992
370
         0
390
0
  6
CONTINUOUS
 62
         7
100
AcDbLine
 10
21.7200351067
 20
725.3005052923
 30
0.0
 11
21.7200351067
 21
704.3005052923
 31
0.0
  0
LINE
  5
DD
100
AcDbEntity
  8
52176992
370
         0
390
0
  6
CONTINUOUS
 62
         7
100
AcDbLine
 10
21.5700351067
 20
641.3005052923
 30
0.0
 11
19.5700351067
 21
641.3005052923
 31
0.0
  0
LINE
  5
DE
100
AcDbEntity
  8
52176992
370
         0
390
0
  6
CONTINUOUS
 62
         7
100
AcDbLine
 10
20.0700351067
 20
704.3005052923
 30
0.0
 11
20.0700351067
 21
690.6665306961
 31
0.0
  0
LINE
  5
DF
100
AcDbEntity
  8
52176992
370
         0
390
0
  6
CONTINUOUS
 62
         7
100
AcDbLine
 10
21.5700351067
 20
679.8005052923
 30
0.0
 11
21.5700351067
 21
641.3005052923
 31
0.0
  0
LINE
  5
E0
100
AcDbEntity
  8
52176992
370
         0
390
0
  6
CONTINUOUS
 62
         7
100
AcDbLine
 10
21.5700351067
 20
689.8005052923
 30
0.0
 11
20.0700351067
 21
690.6665306961
 31
0.0
  0
LINE
  5
E1
100
AcDbEntity
  8
52176992
370
         0
390
0
  6
CONTINUOUS
 62
         7
100
AcDbLine
 10
21.5700351067
 20
679.8005052923
 30
0.0
 11
21.5700351067
 21
681.3005052923
 31
0.0
  0
LINE
  5
E2
100
AcDbEntity
  8
52176992
370
         0
390
0
  6
CONTINUOUS
 62
         7
100
AcDbLine
 10
35.5700351067
 20
681.3005052923
 30
0.0
 11
35.5700351067
 21
679.8005052923
 31
0.0
  0
LINE
  5
E3
100
AcDbEntity
  8
52176992
370
         0
390
0
  6
CONTINUOUS
 62
         7
100
AcDbLine
 10
35.5700351067
 20
689.8005052923
 30
0.0
 11
37.0700351067
 21
690.6665306961
 31
0.0
  0
LINE
  5
E4
100
AcDbEntity
  8
52176992
370
         0
390
0
  6
CONTINUOUS
 62
         7
100
AcDbLine
 10
35.5700351067
 20
681.3005052923
 30
0.0
 11
21.5700351067
 21
681.3005052923
 31
0.0
  0
LINE
  5
E5
100
AcDbEntity
  8
52176992
370
         0
390
0
  6
CONTINUOUS
 62
         7
100
AcDbLine
 10
19.5700351067
 20
641.3005052923
 30
0.0
 11
19.5700351067
 21
423.3005052923
 31
0.0
  0
LINE
  5
E6
100
AcDbEntity
  8
52176992
370
         0
390
0
  6
CONTINUOUS
 62
         7
100
AcDbLine
 10
31.8749556806
 20
725.3005052923
 30
0.0
 11
25.2651145328
 21
725.3005052923
 31
0.0
  0
LINE
  5
E7
100
AcDbEntity
  8
52176992
370
         0
390
0
  6
CONTINUOUS
 62
         7
100
AcDbLine
 10
35.4200351067
 20
725.3005052923
 30
0.0
 11
35.4186478164
 21
725.3005052923
 31
0.0
  0
LINE
  5
E8
100
AcDbEntity
  8
52176992
370
         0
390
0
  6
CONTINUOUS
 62
         7
100
AcDbLine
 10
21.721422397
 20
725.3005052923
 30
0.0
 11
21.7200351067
 21
725.3005052923
 31
0.0
  0
LINE
  5
E9
100
AcDbEntity
  8
52176992
370
         0
390
0
  6
CONTINUOUS
 62
         7
100
AcDbLine
 10
35.4186478164
 20
725.3005052923
 30
0.0
 11
32.1137272424
 21
725.3005052923
 31
0.0
  0
LINE
  5
EA
100
AcDbEntity
  8
52176992
370
         0
390
0
  6
CONTINUOUS
 62
         7
100
AcDbLine
 10
25.026342971
 20
725.3005052923
 30
0.0
 11
21.721422397
 21
725.3005052923
 31
0.0
  0
LINE
  5
EB
100
AcDbEntity
  8
52176992
370
         0
390
0
  6
CONTINUOUS
 62
         7
100
AcDbLine
 10
22.5700351067
 20
730.8005052923
 30
0.0
 11
34.5700351067
 21
730.8005052923
 31
0.0
  0
LINE
  5
EC
100
AcDbEntity
  8
52176992
370
         0
390
0
  6
CONTINUOUS
 62
         7
100
AcDbLine
 10
34.5700351067
 20
729.3005052923
 30
0.0
 11
34.5700351067
 21
730.8005052923
 31
0.0
  0
LINE
  5
ED
100
AcDbEntity
  8
52176992
370
         0
390
0
  6
CONTINUOUS
 62
         7
100
AcDbLine
 10
35.3200351067
 20
728.3005052923
 30
0.0
 11
35.3200351067
 21
729.3005052923
 31
0.0
  0
LINE
  5
EE
100
AcDbEntity
  8
52176992
370
         0
390
0
  6
CONTINUOUS
 62
         7
100
AcDbLine
 10
32.5700351067
 20
725.3005052923
 30
0.0
 11
32.5700351067
 21
728.3005052923
 31
0.0
  0
LINE
  5
EF
100
AcDbEntity
  8
52176992
370
         0
390
0
  6
CONTINUOUS
 62
         7
100
AcDbLine
 10
21.6700351067
 20
737.3005052923
 30
0.0
 11
35.4700351067
 21
737.3005052923
 31
0.0
  0
LINE
  5
F0
100
AcDbEntity
  8
52176992
370
         0
390
0
  6
CONTINUOUS
 62
         7
100
AcDbLine
 10
21.6700351067
 20
731.7005052923
 30
0.0
 11
22.5700351067
 21
730.8005052923
 31
0.0
  0
LINE
  5
F1
100
AcDbEntity
  8
52176992
370
         0
390
0
  6
CONTINUOUS
 62
         7
100
AcDbLine
 10
35.4186478164
 20
720.3005052923
 30
0.0
 11
35.4186478164
 21
725.3005052923
 31
0.0
  0
LINE
  5
F2
100
AcDbEntity
  8
52176992
370
         0
390
0
  6
CONTINUOUS
 62
         7
100
AcDbLine
 10
21.8200351067
 20
728.3005052923
 30
0.0
 11
35.3200351067
 21
728.3005052923
 31
0.0
  0
LINE
  5
F3
100
AcDbEntity
  8
52176992
370
         0
390
0
  6
CONTINUOUS
 62
         7
100
AcDbLine
 10
35.4200351067
 20
704.3005052923
 30
0.0
 11
35.4200351067
 21
725.3005052923
 31
0.0
  0
LINE
  5
F4
100
AcDbEntity
  8
52176992
370
         0
390
0
  6
CONTINUOUS
 62
         7
100
AcDbLine
 10
32.1137272424
 20
725.3005052923
 30
0.0
 11
32.1137272424
 21
720.3005052923
 31
0.0
  0
LINE
  5
F5
100
AcDbEntity
  8
52176992
370
         0
390
0
  6
CONTINUOUS
 62
         7
100
AcDbLine
 10
21.8200351067
 20
729.3005052923
 30
0.0
 11
35.3200351067
 21
729.3005052923
 31
0.0
  0
LINE
  5
F6
100
AcDbEntity
  8
52176992
370
         0
390
0
  6
CONTINUOUS
 62
         7
100
AcDbLine
 10
21.6700351067
 20
731.7005052923
 30
0.0
 11
35.4700351067
 21
731.7005052923
 31
0.0
  0
LINE
  5
F7
100
AcDbEntity
  8
52176992
370
         0
390
0
  6
CONTINUOUS
 62
         7
100
AcDbLine
 10
37.0700351067
 20
690.6665306961
 30
0.0
 11
37.0700351067
 21
704.3005052923
 31
0.0
  0
LINE
  5
F8
100
AcDbEntity
  8
52176992
370
         0
390
0
  6
CONTINUOUS
 62
         7
100
AcDbLine
 10
19.5700351067
 20
423.3005052923
 30
0.0
 11
37.5700351067
 21
423.3005052923
 31
0.0
  0
LINE
  5
F9
100
AcDbEntity
  8
52176992
370
         0
390
0
  6
CONTINUOUS
 62
         7
100
AcDbLine
 10
35.5700351067
 20
641.3001814395
 30
0.0
 11
35.5700351067
 21
679.8005052923
 31
0.0
  0
LINE
  5
FA
100
AcDbEntity
  8
52176992
370
         0
390
0
  6
CONTINUOUS
 62
         7
100
AcDbLine
 10
25.2651145328
 20
725.3005052923
 30
0.0
 11
25.026342971
 21
725.3005052923
 31
0.0
  0
LINE
  5
FB
100
AcDbEntity
  8
52176992
370
         0
390
0
  6
CONTINUOUS
 62
         7
100
AcDbLine
 10
32.1137272424
 20
725.3005052923
 30
0.0
 11
31.8749556806
 21
725.3005052923
 31
0.0
  0
LINE
  5
FC
100
AcDbEntity
  8
52176992
370
         0
390
0
  6
CONTINUOUS
 62
         7
100
AcDbLine
 10
35.4186478164
 20
720.3005052923
 30
0.0
 11
32.1137272424
 21
720.3005052923
 31
0.0
  0
ENDBLK
  5
FD
100
AcDbEntity
  8
52176992
370
         0
390
0
  6
CONTINUOUS
 62
         7
100
AcDbBlockEnd
  0
BLOCK
  5
17D
100
AcDbEntity
  8
0
370
         0
390
0
 62
         1
 48
0.0
100
AcDbBlockBegin
  2
SE4
 70
         0
 10
0.0
 20
0.0
 30
0.0
  3
SE4
  1

  0
ENDBLK
  5
17E
100
AcDbEntity
  8
0
370
         0
390
0
 62
         1
 48
0.0
100
AcDbBlockEnd
  0
BLOCK
  5
100
100
AcDbEntity
  8
0
370
         0
390
0
 62
         1
 48
0.0
100
AcDbBlockBegin
  2
SE5
 70
         0
 10
0.0
 20
0.0
 30
0.0
  3
SE5
  1

  0
LINE
  5
101
100
AcDbEntity
  8
52176992
370
         0
390
0
  6
CONTINUOUS
 62
         7
100
AcDbLine
 10
343.2526100202
 20
737.3005052923
 30
0.0
 11
329.4526100202
 21
737.3005052923
 31
0.0
  0
LINE
  5
102
100
AcDbEntity
  8
52176992
370
         0
390
0
  6
CONTINUOUS
 62
         7
100
AcDbLine
 10
343.2026100202
 20
704.3005052923
 30
0.0
 11
343.2026100202
 21
720.3005052923
 31
0.0
  0
LINE
  5
103
100
AcDbEntity
  8
52176992
370
         0
390
0
  6
CONTINUOUS
 62
         7
100
AcDbLine
 10
343.3526100202
 20
679.8005052923
 30
0.0
 11
344.8526100202
 21
681.3005052923
 31
0.0
  0
LINE
  5
104
100
AcDbEntity
  8
52176992
370
         0
390
0
  6
CONTINUOUS
 62
         7
100
AcDbLine
 10
136.9526100202
 20
525.4005052923
 30
0.0
 11
137.8526100202
 21
526.3005052923
 31
0.0
  0
LINE
  5
105
100
AcDbEntity
  8
52176992
370
         0
390
0
  6
CONTINUOUS
 62
         7
100
AcDbLine
 10
136.9526100202
 20
539.2005052923
 30
0.0
 11
131.3526100202
 21
539.2005052923
 31
0.0
  0
LINE
  5
106
100
AcDbEntity
  8
52176992
370
         0
390
0
  6
CONTINUOUS
 62
         7
100
AcDbLine
 10
178.8526100202
 20
527.4786799118
 30
0.0
 11
187.3526100202
 21
527.4786799118
 31
0.0
  0
LINE
  5
107
100
AcDbEntity
  8
52176992
370
         0
390
0
  6
CONTINUOUS
 62
         7
100
AcDbLine
 10
187.3526100202
 20
540.8005052923
 30
0.0
 11
164.3526100202
 21
540.8005052923
 31
0.0
  0
LINE
  5
108
100
AcDbEntity
  8
52176992
370
         0
390
0
  6
CONTINUOUS
 62
         7
100
AcDbLine
 10
340.3526100202
 20
725.3005052923
 30
0.0
 11
340.3526100202
 21
728.3005052923
 31
0.0
  0
LINE
  5
109
100
AcDbEntity
  8
52176992
370
         0
390
0
  6
CONTINUOUS
 62
         7
100
AcDbLine
 10
164.3526100202
 20
539.1505052923
 30
0.0
 11
148.3526100202
 21
539.1505052923
 31
0.0
  0
LINE
  5
10A
100
AcDbEntity
  8
52176992
370
         0
390
0
  6
CONTINUOUS
 62
         7
100
AcDbLine
 10
188.8526100202
 20
539.3005052923
 30
0.0
 11
187.3526100202
 21
540.8005052923
 31
0.0
  0
LINE
  5
10B
100
AcDbEntity
  8
52176992
370
         0
390
0
  6
CONTINUOUS
 62
         7
100
AcDbLine
 10
140.3526100202
 20
539.0505052923
 30
0.0
 11
139.3526100202
 21
539.0505052923
 31
0.0
  0
LINE
  5
10C
100
AcDbEntity
  8
52176992
370
         0
390
0
  6
CONTINUOUS
 62
         7
100
AcDbLine
 10
139.3526100202
 20
538.3005052923
 30
0.0
 11
137.8526100202
 21
538.3005052923
 31
0.0
  0
LINE
  5
10D
100
AcDbEntity
  8
52176992
370
         0
390
0
  6
CONTINUOUS
 62
         7
100
AcDbLine
 10
143.3526100202
 20
536.3005052923
 30
0.0
 11
140.3526100202
 21
536.3005052923
 31
0.0
  0
LINE
  5
10E
100
AcDbEntity
  8
52176992
370
         0
390
0
  6
CONTINUOUS
 62
         7
100
AcDbLine
 10
343.1026100202
 20
728.3005052923
 30
0.0
 11
343.1026100202
 21
729.3005052923
 31
0.0
  0
LINE
  5
10F
100
AcDbEntity
  8
52176992
370
         0
390
0
  6
CONTINUOUS
 62
         7
100
AcDbLine
 10
342.3526100202
 20
729.3005052923
 30
0.0
 11
342.3526100202
 21
730.8005052923
 31
0.0
  0
LINE
  5
110
100
AcDbEntity
  8
52176992
370
         0
390
0
  6
CONTINUOUS
 62
         7
100
AcDbLine
 10
343.2526100202
 20
731.7005052923
 30
0.0
 11
343.2526100202
 21
737.3005052923
 31
0.0
  0
LINE
  5
111
100
AcDbEntity
  8
52176992
370
         0
390
0
  6
CONTINUOUS
 62
         7
100
AcDbLine
 10
227.5719321908
 20
539.3005052923
 30
0.0
 11
188.8526100202
 21
539.3005052923
 31
0.0
  0
LINE
  5
112
100
AcDbEntity
  8
52176992
370
         0
390
0
  6
CONTINUOUS
 62
         7
100
AcDbLine
 10
187.3526100202
 20
523.8005052923
 30
0.0
 11
188.8526100202
 21
525.3005052923
 31
0.0
  0
LINE
  5
113
100
AcDbEntity
  8
52176992
370
         0
390
0
  6
CONTINUOUS
 62
         7
100
AcDbLine
 10
342.3526100202
 20
730.8005052923
 30
0.0
 11
343.2526100202
 21
731.7005052923
 31
0.0
  0
LINE
  5
114
100
AcDbEntity
  8
52176992
370
         0
390
0
  6
CONTINUOUS
 62
         7
100
AcDbLine
 10
329.4526100202
 20
737.3005052923
 30
0.0
 11
329.4526100202
 21
731.7005052923
 31
0.0
  0
LINE
  5
115
100
AcDbEntity
  8
52176992
370
         0
390
0
  6
CONTINUOUS
 62
         7
100
AcDbLine
 10
188.8526100202
 20
525.3005052923
 30
0.0
 11
227.5770781777
 21
525.3005052923
 31
0.0
  0
LINE
  5
116
100
AcDbEntity
  8
52176992
370
         0
390
0
  6
CONTINUOUS
 62
         7
100
AcDbLine
 10
330.4904648457
 20
725.3005052923
 30
0.0
 11
330.3526100202
 21
725.3005052923
 31
0.0
  0
LINE
  5
117
100
AcDbEntity
  8
52176992
370
         0
390
0
  6
CONTINUOUS
 62
         7
100
AcDbLine
 10
336.2147551947
 20
725.3005052923
 30
0.0
 11
330.4904648457
 21
725.3005052923
 31
0.0
  0
ARC
  5
118
100
AcDbEntity
  8
52176992
370
         0
390
0
  6
CONTINUOUS
 62
         7
100
AcDbCircle
 10
336.3526100201
 20
532.3005052923
 30
0.0
 40
109.1999999999
100
AcDbArc
 50
135.3617052297
 51
135.681697202
  0
ARC
  5
119
100
AcDbEntity
  8
52176992
370
         0
390
0
  6
CONTINUOUS
 62
         7
100
AcDbCircle
 10
336.3526100202
 20
532.3005052923
 30
0.0
 40
109.2
100
AcDbArc
 50
137.5840947388
 51
138.5237093179
  0
ARC
  5
11A
100
AcDbEntity
  8
52176992
370
         0
390
0
  6
CONTINUOUS
 62
         7
100
AcDbCircle
 10
336.3526100202
 20
532.3005052923
 30
0.0
 40
109.2
100
AcDbArc
 50
134.3667574353
 51
135.3617052297
  0
LINE
  5
11B
100
AcDbEntity
  8
52176992
370
         0
390
0
  6
CONTINUOUS
 62
         7
100
AcDbLine
 10
265.1652922207
 20
614.8436199931
 30
0.0
 11
265.023486264
 21
614.9854259499
 31
0.0
  0
ARC
  5
11C
100
AcDbEntity
  8
52176992
370
         0
390
0
  6
CONTINUOUS
 62
         7
100
AcDbCircle
 10
336.3526100202
 20
532.3005052923
 30
0.0
 40
109.2
100
AcDbArc
 50
130.7830857874
 51
131.4434337181
  0
LINE
  5
11D
100
AcDbEntity
  8
52176992
370
         0
390
0
  6
CONTINUOUS
 62
         7
100
AcDbLine
 10
341.1744354007
 20
681.3005052923
 30
0.0
 11
341.1744354007
 21
689.8005052923
 31
0.0
  0
LINE
  5
11E
100
AcDbEntity
  8
52176992
370
         0
390
0
  6
CONTINUOUS
 62
         7
100
AcDbLine
 10
336.3526100202
 20
679.8005052923
 30
0.0
 11
343.3526100202
 21
679.8005052923
 31
0.0
  0
LINE
  5
11F
100
AcDbEntity
  8
52176992
370
         0
390
0
  6
CONTINUOUS
 62
         7
100
AcDbLine
 10
341.1744354007
 20
689.8005052923
 30
0.0
 11
331.5307846397
 21
689.8005052923
 31
0.0
  0
LINE
  5
120
100
AcDbEntity
  8
52176992
370
         0
390
0
  6
CONTINUOUS
 62
         7
100
AcDbLine
 10
258.0392469373
 20
608.1161841631
 30
0.0
 11
257.8978070473
 21
608.2576240531
 31
0.0
  0
LINE
  5
121
100
AcDbEntity
  8
52176992
370
         0
390
0
  6
CONTINUOUS
 62
         7
100
AcDbLine
 10
264.2169754162
 20
614.0161722128
 30
0.0
 11
264.0752806604
 21
614.1578669686
 31
0.0
  0
LINE
  5
122
100
AcDbEntity
  8
52176992
370
         0
390
0
  6
CONTINUOUS
 62
         7
100
AcDbLine
 10
258.364761898
 20
608.4509849049
 30
0.0
 11
258.2233305129
 21
608.5924162899
 31
0.0
  0
LINE
  5
123
100
AcDbEntity
  8
52176992
370
         0
390
0
  6
CONTINUOUS
 62
         7
100
AcDbLine
 10
254.6783998377
 20
604.4830751486
 30
0.0
 11
254.5367101181
 21
604.6247648682
 31
0.0
  0
LINE
  5
124
100
AcDbEntity
  8
52176992
370
         0
390
0
  6
CONTINUOUS
 62
         7
100
AcDbLine
 10
255.8752961938
 20
605.8151430135
 30
0.0
 11
255.7337306186
 21
605.9567085886
 31
0.0
  0
ARC
  5
125
100
AcDbEntity
  8
52176992
370
         0
390
0
  6
CONTINUOUS
 62
         7
100
AcDbCircle
 10
336.7413954478
 20
689.5502755871
 30
0.0
 40
9.7575188911
100
AcDbArc
 50
237.723215948
 51
267.716462272
  0
ARC
  5
126
100
AcDbEntity
  8
52176992
370
         0
390
0
  6
CONTINUOUS
 62
         7
100
AcDbCircle
 10
336.0189758397
 20
689.3729891317
 30
0.0
 40
9.5782962275
100
AcDbArc
 50
271.9961481256
 51
302.5641736544
  0
LINE
  5
127
100
AcDbEntity
  8
52176992
370
         0
390
0
  6
CONTINUOUS
 62
         7
100
AcDbLine
 10
336.3526100202
 20
679.8005052923
 30
0.0
 11
329.3526100202
 21
679.8005052923
 31
0.0
  0
LINE
  5
128
100
AcDbEntity
  8
52176992
370
         0
390
0
  6
CONTINUOUS
 62
         7
100
AcDbLine
 10
344.8526100202
 20
681.3005052923
 30
0.0
 11
341.1744354007
 21
681.3005052923
 31
0.0
  0
ELLIPSE
  5
129
100
AcDbEntity
  8
52176992
370
         0
390
0
  6
CONTINUOUS
 62
         7
100
AcDbEllipse
 10
182.8940619045
 20
532.3005052923
 30
0.0
 11
0.0000000000000283
 21
8.4999999999999893
 31
0.0
210
0.0
220
0.0
230
1.0
 40
0.5773502692
 41
0.9676049211852199
 42
2.1739877324045609
  0
ARC
  5
12A
100
AcDbEntity
  8
52176992
370
         0
390
0
  6
CONTINUOUS
 62
         7
100
AcDbCircle
 10
179.2801261808
 20
531.9668711118
 30
0.0
 40
9.5782962275
100
AcDbArc
 50
1.9961481256
 51
32.5641736544
  0
CIRCLE
  5
12B
100
AcDbEntity
  8
52176992
370
         0
390
0
  6
CONTINUOUS
 62
         7
100
AcDbCircle
 10
336.3526100202
 20
532.3005052923
 30
0.0
 40
77.75
  0
CIRCLE
  5
12C
100
AcDbEntity
  8
52176992
370
         0
390
0
  6
CONTINUOUS
 62
         7
100
AcDbCircle
 10
336.3526100202
 20
532.3005052923
 30
0.0
 40
61.54
  0
ARC
  5
12D
100
AcDbEntity
  8
52176992
370
         0
390
0
  6
CONTINUOUS
 62
         7
100
AcDbCircle
 10
336.3526100227
 20
532.3005052898
 30
0.0
 40
109.2000000035
100
AcDbArc
 50
135.681697202
 51
135.9267049019
  0
LINE
  5
12E
100
AcDbEntity
  8
52176992
370
         0
390
0
  6
CONTINUOUS
 62
         7
100
AcDbLine
 10
258.792054673
 20
608.8861452923
 30
0.0
 11
258.6506304934
 21
609.0275694719
 31
0.0
  0
LINE
  5
12F
100
AcDbEntity
  8
52176992
370
         0
390
0
  6
CONTINUOUS
 62
         7
100
AcDbLine
 10
260.1360829407
 20
610.2238073266
 30
0.0
 11
259.9946529308
 21
610.3652373365
 31
0.0
  0
LINE
  5
130
100
AcDbEntity
  8
52176992
370
         0
390
0
  6
CONTINUOUS
 62
         7
100
AcDbLine
 10
255.9976348401
 20
605.9488451499
 30
0.0
 11
255.8560796914
 21
606.0904002985
 31
0.0
  0
LINE
  5
131
100
AcDbEntity
  8
52176992
370
         0
390
0
  6
CONTINUOUS
 62
         7
100
AcDbLine
 10
329.4526100202
 20
731.7005052923
 30
0.0
 11
330.3526100202
 21
730.8005052923
 31
0.0
  0
LINE
  5
132
100
AcDbEntity
  8
52176992
370
         0
390
0
  6
CONTINUOUS
 62
         7
100
AcDbLine
 10
148.3526100202
 20
532.1626504668
 30
0.0
 11
148.3526100202
 21
526.4383601178
 31
0.0
  0
LINE
  5
133
100
AcDbEntity
  8
52176992
370
         0
390
0
  6
CONTINUOUS
 62
         7
100
AcDbLine
 10
342.3526100202
 20
725.3005052923
 30
0.0
 11
342.2147551947
 21
725.3005052923
 31
0.0
  0
LINE
  5
134
100
AcDbEntity
  8
52176992
370
         0
390
0
  6
CONTINUOUS
 62
         7
100
AcDbLine
 10
329.5026100202
 20
720.3005052923
 30
0.0
 11
330.3526100202
 21
720.3005052923
 31
0.0
  0
LINE
  5
135
100
AcDbEntity
  8
52176992
370
         0
390
0
  6
CONTINUOUS
 62
         7
100
AcDbLine
 10
336.2147551947
 20
720.3005052923
 30
0.0
 11
330.4904648457
 21
720.3005052923
 31
0.0
  0
LINE
  5
136
100
AcDbEntity
  8
52176992
370
         0
390
0
  6
CONTINUOUS
 62
         7
100
AcDbLine
 10
342.2147551947
 20
720.3005052923
 30
0.0
 11
336.4904648457
 21
720.3005052923
 31
0.0
  0
LINE
  5
137
100
AcDbEntity
  8
52176992
370
         0
390
0
  6
CONTINUOUS
 62
         7
100
AcDbLine
 10
342.3526100202
 20
720.3005052923
 30
0.0
 11
343.2026100202
 21
720.3005052923
 31
0.0
  0
LINE
  5
138
100
AcDbEntity
  8
52176992
370
         0
390
0
  6
CONTINUOUS
 62
         7
100
AcDbLine
 10
330.3526100202
 20
720.3005052923
 30
0.0
 11
330.3526100202
 21
725.3005052923
 31
0.0
  0
LINE
  5
139
100
AcDbEntity
  8
52176992
370
         0
390
0
  6
CONTINUOUS
 62
         7
100
AcDbLine
 10
330.4904648457
 20
725.3005052923
 30
0.0
 11
330.4904648457
 21
720.3005052923
 31
0.0
  0
LINE
  5
13A
100
AcDbEntity
  8
52176992
370
         0
390
0
  6
CONTINUOUS
 62
         7
100
AcDbLine
 10
336.2147551947
 20
720.3005052923
 30
0.0
 11
336.2147551947
 21
725.3005052923
 31
0.0
  0
LINE
  5
13B
100
AcDbEntity
  8
52176992
370
         0
390
0
  6
CONTINUOUS
 62
         7
100
AcDbLine
 10
336.4904648457
 20
725.3005052923
 30
0.0
 11
336.4904648457
 21
720.3005052923
 31
0.0
  0
LINE
  5
13C
100
AcDbEntity
  8
52176992
370
         0
390
0
  6
CONTINUOUS
 62
         7
100
AcDbLine
 10
148.3526100202
 20
525.4505052923
 30
0.0
 11
148.3526100202
 21
526.3005052923
 31
0.0
  0
LINE
  5
13D
100
AcDbEntity
  8
52176992
370
         0
390
0
  6
CONTINUOUS
 62
         7
100
AcDbLine
 10
342.2147551947
 20
720.3005052923
 30
0.0
 11
342.2147551947
 21
725.3005052923
 31
0.0
  0
LINE
  5
13E
100
AcDbEntity
  8
52176992
370
         0
390
0
  6
CONTINUOUS
 62
         7
100
AcDbLine
 10
342.3526100202
 20
725.3005052923
 30
0.0
 11
342.3526100202
 21
720.3005052923
 31
0.0
  0
ARC
  5
13F
100
AcDbEntity
  8
52176992
370
         0
390
0
  6
CONTINUOUS
 62
         7
100
AcDbCircle
 10
336.3526100202
 20
532.3005052923
 30
0.0
 40
109.1999999999
100
AcDbArc
 50
135.9267049019
 51
137.4890080058
  0
LINE
  5
140
100
AcDbEntity
  8
52176992
370
         0
390
0
  6
CONTINUOUS
 62
         7
100
AcDbLine
 10
342.3526100202
 20
730.8005052923
 30
0.0
 11
330.3526100202
 21
730.8005052923
 31
0.0
  0
LINE
  5
141
100
AcDbEntity
  8
52176992
370
         0
390
0
  6
CONTINUOUS
 62
         7
100
AcDbLine
 10
343.1026100202
 20
729.3005052923
 30
0.0
 11
329.6026100202
 21
729.3005052923
 31
0.0
  0
LINE
  5
142
100
AcDbEntity
  8
52176992
370
         0
390
0
  6
CONTINUOUS
 62
         7
100
AcDbLine
 10
343.1026100202
 20
728.3005052923
 30
0.0
 11
329.6026100202
 21
728.3005052923
 31
0.0
  0
LINE
  5
143
100
AcDbEntity
  8
52176992
370
         0
390
0
  6
CONTINUOUS
 62
         7
100
AcDbLine
 10
178.8526100202
 20
537.1223306728
 30
0.0
 11
178.8526100202
 21
527.4786799118
 31
0.0
  0
LINE
  5
144
100
AcDbEntity
  8
52176992
370
         0
390
0
  6
CONTINUOUS
 62
         7
100
AcDbLine
 10
187.3526100202
 20
527.4786799118
 30
0.0
 11
187.3526100202
 21
523.8005052923
 31
0.0
  0
LINE
  5
145
100
AcDbEntity
  8
52176992
370
         0
390
0
  6
CONTINUOUS
 62
         7
100
AcDbLine
 10
187.3526100202
 20
540.8005052923
 30
0.0
 11
187.3526100202
 21
537.1223306728
 31
0.0
  0
LINE
  5
146
100
AcDbEntity
  8
52176992
370
         0
390
0
  6
CONTINUOUS
 62
         7
100
AcDbLine
 10
164.3526100202
 20
540.8005052923
 30
0.0
 11
164.3526100202
 21
523.8005052923
 31
0.0
  0
LINE
  5
147
100
AcDbEntity
  8
52176992
370
         0
390
0
  6
CONTINUOUS
 62
         7
100
AcDbLine
 10
188.8526100202
 20
532.3005052923
 30
0.0
 11
188.8526100202
 21
539.3005052923
 31
0.0
  0
LINE
  5
148
100
AcDbEntity
  8
52176992
370
         0
390
0
  6
CONTINUOUS
 62
         7
100
AcDbLine
 10
188.8526100202
 20
532.3005052923
 30
0.0
 11
188.8526100202
 21
525.3005052923
 31
0.0
  0
LINE
  5
149
100
AcDbEntity
  8
52176992
370
         0
390
0
  6
CONTINUOUS
 62
         7
100
AcDbLine
 10
187.3526100202
 20
537.1223306728
 30
0.0
 11
178.8526100202
 21
537.1223306728
 31
0.0
  0
LINE
  5
14A
100
AcDbEntity
  8
52176992
370
         0
390
0
  6
CONTINUOUS
 62
         7
100
AcDbLine
 10
343.2526100202
 20
731.7005052923
 30
0.0
 11
329.4526100202
 21
731.7005052923
 31
0.0
  0
LINE
  5
14B
100
AcDbEntity
  8
52176992
370
         0
390
0
  6
CONTINUOUS
 62
         7
100
AcDbLine
 10
344.8526100202
 20
704.3005052923
 30
0.0
 11
327.8526100202
 21
704.3005052923
 31
0.0
  0
ARC
  5
14C
100
AcDbEntity
  8
52176992
370
         0
390
0
  6
CONTINUOUS
 62
         7
100
AcDbCircle
 10
336.3526100202
 20
532.3005052923
 30
0.0
 40
109.2
100
AcDbArc
 50
132.0066717283
 51
132.6657205864
  0
LINE
  5
14D
100
AcDbEntity
  8
52176992
370
         0
390
0
  6
CONTINUOUS
 62
         7
100
AcDbLine
 10
137.8526100202
 20
538.3005052923
 30
0.0
 11
137.8526100202
 21
526.3005052923
 31
0.0
  0
LINE
  5
14E
100
AcDbEntity
  8
52176992
370
         0
390
0
  6
CONTINUOUS
 62
         7
100
AcDbLine
 10
143.3526100202
 20
532.1626504668
 30
0.0
 11
143.3526100202
 21
526.4383601178
 31
0.0
  0
ARC
  5
14F
100
AcDbEntity
  8
52176992
370
         0
390
0
  6
CONTINUOUS
 62
         7
100
AcDbCircle
 10
336.3526100202
 20
532.3005052923
 30
0.0
 40
109.2
100
AcDbArc
 50
138.5237093179
 51
139.2169142125
  0
ARC
  5
150
100
AcDbEntity
  8
52176992
370
         0
390
0
  6
CONTINUOUS
 62
         7
100
AcDbCircle
 10
336.3526100202
 20
532.3005052923
 30
0.0
 40
109.2
100
AcDbArc
 50
137.4890080058
 51
137.5840947388
  0
LINE
  5
151
100
AcDbEntity
  8
52176992
370
         0
390
0
  6
CONTINUOUS
 62
         7
100
AcDbLine
 10
148.3526100202
 20
539.1505052923
 30
0.0
 11
148.3526100202
 21
538.3005052923
 31
0.0
  0
LINE
  5
152
100
AcDbEntity
  8
52176992
370
         0
390
0
  6
CONTINUOUS
 62
         7
100
AcDbLine
 10
143.3526100202
 20
538.3005052923
 30
0.0
 11
143.3526100202
 21
538.1626504668
 31
0.0
  0
LINE
  5
153
100
AcDbEntity
  8
52176992
370
         0
390
0
  6
CONTINUOUS
 62
         7
100
AcDbLine
 10
143.3526100202
 20
526.4383601178
 30
0.0
 11
143.3526100202
 21
526.3005052923
 31
0.0
  0
LINE
  5
154
100
AcDbEntity
  8
52176992
370
         0
390
0
  6
CONTINUOUS
 62
         7
100
AcDbLine
 10
143.3526100202
 20
532.4383601178
 30
0.0
 11
143.3526100202
 21
532.1626504668
 31
0.0
  0
ARC
  5
155
100
AcDbEntity
  8
52176992
370
         0
390
0
  6
CONTINUOUS
 62
         7
100
AcDbCircle
 10
179.1028397254
 20
532.6892907198
 30
0.0
 40
9.7575188911
100
AcDbArc
 50
327.723215948
 51
357.716462272
  0
LINE
  5
156
100
AcDbEntity
  8
52176992
370
         0
390
0
  6
CONTINUOUS
 62
         7
100
AcDbLine
 10
343.3526100202
 20
641.0811831217
 30
0.0
 11
343.3526100202
 21
679.8005052923
 31
0.0
  0
LINE
  5
157
100
AcDbEntity
  8
52176992
370
         0
390
0
  6
CONTINUOUS
 62
         7
100
AcDbLine
 10
327.8526100202
 20
681.3005052923
 30
0.0
 11
329.3526100202
 21
679.8005052923
 31
0.0
  0
LINE
  5
158
100
AcDbEntity
  8
52176992
370
         0
390
0
  6
CONTINUOUS
 62
         7
100
AcDbLine
 10
344.8526100202
 20
681.3005052923
 30
0.0
 11
344.8526100202
 21
704.3005052923
 31
0.0
  0
CIRCLE
  5
159
100
AcDbEntity
  8
52176992
370
         0
390
0
  6
CONTINUOUS
 62
         7
100
AcDbCircle
 10
336.3526100202
 20
532.3005052923
 30
0.0
 40
109.0
  0
LINE
  5
15A
100
AcDbEntity
  8
52176992
370
         0
390
0
  6
CONTINUOUS
 62
         7
100
AcDbLine
 10
143.3526100202
 20
538.1626504668
 30
0.0
 11
143.3526100202
 21
532.4383601178
 31
0.0
  0
LINE
  5
15B
100
AcDbEntity
  8
52176992
370
         0
390
0
  6
CONTINUOUS
 62
         7
100
AcDbLine
 10
148.3526100202
 20
538.1626504668
 30
0.0
 11
148.3526100202
 21
532.4383601178
 31
0.0
  0
LINE
  5
15C
100
AcDbEntity
  8
52176992
370
         0
390
0
  6
CONTINUOUS
 62
         7
100
AcDbLine
 10
253.8094953194
 20
603.4878230917
 30
0.0
 11
253.6676893626
 21
603.6296290486
 31
0.0
  0
LINE
  5
15D
100
AcDbEntity
  8
52176992
370
         0
390
0
  6
CONTINUOUS
 62
         7
100
AcDbLine
 10
336.4904648457
 20
725.3005052923
 30
0.0
 11
336.2147551947
 21
725.3005052923
 31
0.0
  0
LINE
  5
15E
100
AcDbEntity
  8
52176992
370
         0
390
0
  6
CONTINUOUS
 62
         7
100
AcDbLine
 10
143.3526100202
 20
538.3005052923
 30
0.0
 11
148.3526100202
 21
538.3005052923
 31
0.0
  0
LINE
  5
15F
100
AcDbEntity
  8
52176992
370
         0
390
0
  6
CONTINUOUS
 62
         7
100
AcDbLine
 10
148.3526100202
 20
532.1626504668
 30
0.0
 11
143.3526100202
 21
532.1626504668
 31
0.0
  0
LINE
  5
160
100
AcDbEntity
  8
52176992
370
         0
390
0
  6
CONTINUOUS
 62
         7
100
AcDbLine
 10
143.3526100202
 20
526.4383601178
 30
0.0
 11
148.3526100202
 21
526.4383601178
 31
0.0
  0
LINE
  5
161
100
AcDbEntity
  8
52176992
370
         0
390
0
  6
CONTINUOUS
 62
         7
100
AcDbLine
 10
148.3526100202
 20
526.3005052923
 30
0.0
 11
143.3526100202
 21
526.3005052923
 31
0.0
  0
LINE
  5
162
100
AcDbEntity
  8
52176992
370
         0
390
0
  6
CONTINUOUS
 62
         7
100
AcDbLine
 10
139.3526100202
 20
539.0505052923
 30
0.0
 11
139.3526100202
 21
525.5505052923
 31
0.0
  0
LINE
  5
163
100
AcDbEntity
  8
52176992
370
         0
390
0
  6
CONTINUOUS
 62
         7
100
AcDbLine
 10
148.3526100202
 20
538.1626504668
 30
0.0
 11
143.3526100202
 21
538.1626504668
 31
0.0
  0
LINE
  5
164
100
AcDbEntity
  8
52176992
370
         0
390
0
  6
CONTINUOUS
 62
         7
100
AcDbLine
 10
143.3526100202
 20
532.4383601178
 30
0.0
 11
148.3526100202
 21
532.4383601178
 31
0.0
  0
LINE
  5
165
100
AcDbEntity
  8
52176992
370
         0
390
0
  6
CONTINUOUS
 62
         7
100
AcDbLine
 10
131.3526100202
 20
539.2005052923
 30
0.0
 11
131.3526100202
 21
525.4005052923
 31
0.0
  0
LINE
  5
166
100
AcDbEntity
  8
52176992
370
         0
390
0
  6
CONTINUOUS
 62
         7
100
AcDbLine
 10
136.9526100202
 20
539.2005052923
 30
0.0
 11
136.9526100202
 21
525.4005052923
 31
0.0
  0
LINE
  5
167
100
AcDbEntity
  8
52176992
370
         0
390
0
  6
CONTINUOUS
 62
         7
100
AcDbLine
 10
342.2147551947
 20
725.3005052923
 30
0.0
 11
336.4904648457
 21
725.3005052923
 31
0.0
  0
LINE
  5
168
100
AcDbEntity
  8
52176992
370
         0
390
0
  6
CONTINUOUS
 62
         7
100
AcDbLine
 10
131.3526100202
 20
525.4005052923
 30
0.0
 11
136.9526100202
 21
525.4005052923
 31
0.0
  0
LINE
  5
169
100
AcDbEntity
  8
52176992
370
         0
390
0
  6
CONTINUOUS
 62
         7
100
AcDbLine
 10
329.3526100202
 20
679.8005052923
 30
0.0
 11
329.3526100202
 21
641.0760371348
 31
0.0
  0
ELLIPSE
  5
16A
100
AcDbEntity
  8
52176992
370
         0
390
0
  6
CONTINUOUS
 62
         7
100
AcDbEllipse
 10
336.3526100202
 20
685.7590534079
 30
0.0
 11
8.5000000000000018
 21
-0.0000000000000005
 31
0.0
210
0.0
220
0.0
230
1.0
 40
0.5773502692
 41
0.9676049211852352
 42
2.1739877324045662
  0
LINE
  5
16B
100
AcDbEntity
  8
52176992
370
         0
390
0
  6
CONTINUOUS
 62
         7
100
AcDbLine
 10
331.5307846397
 20
681.3005052923
 30
0.0
 11
327.8526100202
 21
681.3005052923
 31
0.0
  0
LINE
  5
16C
100
AcDbEntity
  8
52176992
370
         0
390
0
  6
CONTINUOUS
 62
         7
100
AcDbLine
 10
331.5307846397
 20
689.8005052923
 30
0.0
 11
331.5307846397
 21
681.3005052923
 31
0.0
  0
LINE
  5
16D
100
AcDbEntity
  8
52176992
370
         0
390
0
  6
CONTINUOUS
 62
         7
100
AcDbLine
 10
139.3526100202
 20
525.5505052923
 30
0.0
 11
140.3526100202
 21
525.5505052923
 31
0.0
  0
LINE
  5
16E
100
AcDbEntity
  8
52176992
370
         0
390
0
  6
CONTINUOUS
 62
         7
100
AcDbLine
 10
148.3526100202
 20
525.4505052923
 30
0.0
 11
164.3526100202
 21
525.4505052923
 31
0.0
  0
LINE
  5
16F
100
AcDbEntity
  8
52176992
370
         0
390
0
  6
CONTINUOUS
 62
         7
100
AcDbLine
 10
263.4157136635
 20
613.3017963304
 30
0.0
 11
263.2740987362
 21
613.4434112577
 31
0.0
  0
LINE
  5
170
100
AcDbEntity
  8
52176992
370
         0
390
0
  6
CONTINUOUS
 62
         7
100
AcDbLine
 10
164.3526100202
 20
523.8005052923
 30
0.0
 11
187.3526100202
 21
523.8005052923
 31
0.0
  0
LINE
  5
171
100
AcDbEntity
  8
52176992
370
         0
390
0
  6
CONTINUOUS
 62
         7
100
AcDbLine
 10
332.3526100202
 20
728.3005052923
 30
0.0
 11
332.3526100202
 21
725.3005052923
 31
0.0
  0
LINE
  5
172
100
AcDbEntity
  8
52176992
370
         0
390
0
  6
CONTINUOUS
 62
         7
100
AcDbLine
 10
329.6026100202
 20
729.3005052923
 30
0.0
 11
329.6026100202
 21
728.3005052923
 31
0.0
  0
LINE
  5
173
100
AcDbEntity
  8
52176992
370
         0
390
0
  6
CONTINUOUS
 62
         7
100
AcDbLine
 10
330.3526100202
 20
730.8005052923
 30
0.0
 11
330.3526100202
 21
729.3005052923
 31
0.0
  0
LINE
  5
174
100
AcDbEntity
  8
52176992
370
         0
390
0
  6
CONTINUOUS
 62
         7
100
AcDbLine
 10
327.8526100202
 20
704.3005052923
 30
0.0
 11
327.8526100202
 21
681.3005052923
 31
0.0
  0
LINE
  5
175
100
AcDbEntity
  8
52176992
370
         0
390
0
  6
CONTINUOUS
 62
         7
100
AcDbLine
 10
137.8526100202
 20
538.3005052923
 30
0.0
 11
136.9526100202
 21
539.2005052923
 31
0.0
  0
LINE
  5
176
100
AcDbEntity
  8
52176992
370
         0
390
0
  6
CONTINUOUS
 62
         7
100
AcDbLine
 10
329.5026100202
 20
720.3005052923
 30
0.0
 11
329.5026100202
 21
704.3005052923
 31
0.0
  0
LINE
  5
177
100
AcDbEntity
  8
52176992
370
         0
390
0
  6
CONTINUOUS
 62
         7
100
AcDbLine
 10
140.3526100202
 20
528.3005052923
 30
0.0
 11
143.3526100202
 21
528.3005052923
 31
0.0
  0
LINE
  5
178
100
AcDbEntity
  8
52176992
370
         0
390
0
  6
CONTINUOUS
 62
         7
100
AcDbLine
 10
137.8526100202
 20
526.3005052923
 30
0.0
 11
139.3526100202
 21
526.3005052923
 31
0.0
  0
LINE
  5
179
100
AcDbEntity
  8
52176992
370
         0
390
0
  6
CONTINUOUS
 62
         7
100
AcDbLine
 10
262.4871406044
 20
612.455931983
 30
0.0
 11
262.3456015843
 21
612.5974710031
 31
0.0
  0
ARC
  5
17A
100
AcDbEntity
  8
52176992
370
         0
390
0
  6
CONTINUOUS
 62
         7
100
AcDbCircle
 10
336.3526100202
 20
532.3005052923
 30
0.0
 40
109.2
100
AcDbArc
 50
131.443433718
 51
132.0066717283
  0
LINE
  5
17B
100
AcDbEntity
  8
52176992
370
         0
390
0
  6
CONTINUOUS
 62
         7
100
AcDbLine
 10
140.3526100202
 20
539.0505052923
 30
0.0
 11
140.3526100202
 21
525.5505052923
 31
0.0
  0
ENDBLK
  5
17C
100
AcDbEntity
  8
52176992
370
         0
390
0
  6
CONTINUOUS
 62
         7
100
AcDbBlockEnd
  0
BLOCK
  5
1B5
100
AcDbEntity
  8
0
370
         0
390
0
 62
         1
 48
0.0
100
AcDbBlockBegin
  2
SE6
 70
         0
 10
0.0
 20
0.0
 30
0.0
  3
SE6
  1

  0
ENDBLK
  5
1B6
100
AcDbEntity
  8
0
370
         0
390
0
 62
         1
 48
0.0
100
AcDbBlockEnd
  0
BLOCK
  5
17F
100
AcDbEntity
  8
0
370
         0
390
0
 62
         1
 48
0.0
100
AcDbBlockBegin
  2
SE7
 70
         0
 10
0.0
 20
0.0
 30
0.0
  3
SE7
  1

  0
LINE
  5
180
100
AcDbEntity
  8
52176992
370
         0
390
0
  6
CONTINUOUS
 62
         7
100
AcDbLine
 10
344.1156411053
 20
320.197269273
 30
0.0
 11
344.1156411053
 21
323.197269273
 31
0.0
  0
LINE
  5
181
100
AcDbEntity
  8
52176992
370
         0
390
0
  6
CONTINUOUS
 62
         7
100
AcDbLine
 10
333.2156411053
 20
326.597269273
 30
0.0
 11
334.1156411053
 21
325.697269273
 31
0.0
  0
LINE
  5
182
100
AcDbEntity
  8
52176992
370
         0
390
0
  6
CONTINUOUS
 62
         7
100
AcDbLine
 10
347.0156411053
 20
326.597269273
 30
0.0
 11
347.0156411053
 21
332.197269273
 31
0.0
  0
LINE
  5
183
100
AcDbEntity
  8
52176992
370
         0
390
0
  6
CONTINUOUS
 62
         7
100
AcDbLine
 10
333.1206595426
 20
236.197269273
 30
0.0
 11
331.1156411053
 21
236.197269273
 31
0.0
  0
LINE
  5
184
100
AcDbEntity
  8
52176992
370
         0
390
0
  6
CONTINUOUS
 62
         7
100
AcDbLine
 10
331.6156411053
 20
299.197269273
 30
0.0
 11
331.6156411053
 21
285.5632946768
 31
0.0
  0
LINE
  5
185
100
AcDbEntity
  8
52176992
370
         0
390
0
  6
CONTINUOUS
 62
         7
100
AcDbLine
 10
333.2656411053
 20
320.197269273
 30
0.0
 11
333.2656411053
 21
299.197269273
 31
0.0
  0
LINE
  5
186
100
AcDbEntity
  8
52176992
370
         0
390
0
  6
CONTINUOUS
 62
         7
100
AcDbLine
 10
333.3656411053
 20
324.197269273
 30
0.0
 11
333.3656411053
 21
323.197269273
 31
0.0
  0
LINE
  5
187
100
AcDbEntity
  8
52176992
370
         0
390
0
  6
CONTINUOUS
 62
         7
100
AcDbLine
 10
334.1156411053
 20
325.697269273
 30
0.0
 11
334.1156411053
 21
324.197269273
 31
0.0
  0
LINE
  5
188
100
AcDbEntity
  8
52176992
370
         0
390
0
  6
CONTINUOUS
 62
         7
100
AcDbLine
 10
336.1156411053
 20
323.197269273
 30
0.0
 11
336.1156411053
 21
320.197269273
 31
0.0
  0
LINE
  5
189
100
AcDbEntity
  8
52176992
370
         0
390
0
  6
CONTINUOUS
 62
         7
100
AcDbLine
 10
333.2656411053
 20
320.197269273
 30
0.0
 11
333.2670283956
 21
320.197269273
 31
0.0
  0
LINE
  5
18A
100
AcDbEntity
  8
52176992
370
         0
390
0
  6
CONTINUOUS
 62
         7
100
AcDbLine
 10
343.4205616792
 20
320.197269273
 30
0.0
 11
336.8107205313
 21
320.197269273
 31
0.0
  0
LINE
  5
18B
100
AcDbEntity
  8
52176992
370
         0
390
0
  6
CONTINUOUS
 62
         7
100
AcDbLine
 10
333.1156411053
 20
274.697269273
 30
0.0
 11
333.1156411053
 21
236.197269273
 31
0.0
  0
LINE
  5
18C
100
AcDbEntity
  8
52176992
370
         0
390
0
  6
CONTINUOUS
 62
         7
100
AcDbLine
 10
336.5719489695
 20
315.197269273
 30
0.0
 11
336.5719489695
 21
320.197269273
 31
0.0
  0
LINE
  5
18D
100
AcDbEntity
  8
52176992
370
         0
390
0
  6
CONTINUOUS
 62
         7
100
AcDbLine
 10
343.4205616792
 20
315.197269273
 30
0.0
 11
343.4205616792
 21
320.197269273
 31
0.0
  0
LINE
  5
18E
100
AcDbEntity
  8
52176992
370
         0
390
0
  6
CONTINUOUS
 62
         7
100
AcDbLine
 10
331.1156411053
 20
18.197269273
 30
0.0
 11
349.1156411053
 21
18.197269273
 31
0.0
  0
LINE
  5
18F
100
AcDbEntity
  8
52176992
370
         0
390
0
  6
CONTINUOUS
 62
         7
100
AcDbLine
 10
333.2156411053
 20
332.197269273
 30
0.0
 11
347.0156411053
 21
332.197269273
 31
0.0
  0
LINE
  5
190
100
AcDbEntity
  8
52176992
370
         0
390
0
  6
CONTINUOUS
 62
         7
100
AcDbLine
 10
333.2156411053
 20
326.597269273
 30
0.0
 11
347.0156411053
 21
326.597269273
 31
0.0
  0
LINE
  5
191
100
AcDbEntity
  8
52176992
370
         0
390
0
  6
CONTINUOUS
 62
         7
100
AcDbLine
 10
334.1156411053
 20
325.697269273
 30
0.0
 11
346.1156411053
 21
325.697269273
 31
0.0
  0
LINE
  5
192
100
AcDbEntity
  8
52176992
370
         0
390
0
  6
CONTINUOUS
 62
         7
100
AcDbLine
 10
336.5719489695
 20
320.197269273
 30
0.0
 11
333.2670283956
 21
320.197269273
 31
0.0
  0
LINE
  5
193
100
AcDbEntity
  8
52176992
370
         0
390
0
  6
CONTINUOUS
 62
         7
100
AcDbLine
 10
346.9642538149
 20
315.197269273
 30
0.0
 11
346.9642538149
 21
320.197269273
 31
0.0
  0
LINE
  5
194
100
AcDbEntity
  8
52176992
370
         0
390
0
  6
CONTINUOUS
 62
         7
100
AcDbLine
 10
343.659333241
 20
320.197269273
 30
0.0
 11
343.659333241
 21
315.197269273
 31
0.0
  0
LINE
  5
195
100
AcDbEntity
  8
52176992
370
         0
390
0
  6
CONTINUOUS
 62
         7
100
AcDbLine
 10
333.2670283956
 20
320.197269273
 30
0.0
 11
333.2670283956
 21
315.197269273
 31
0.0
  0
LINE
  5
196
100
AcDbEntity
  8
52176992
370
         0
390
0
  6
CONTINUOUS
 62
         7
100
AcDbLine
 10
346.9642538149
 20
320.197269273
 30
0.0
 11
346.9656411053
 21
320.197269273
 31
0.0
  0
LINE
  5
197
100
AcDbEntity
  8
52176992
370
         0
390
0
  6
CONTINUOUS
 62
         7
100
AcDbLine
 10
347.1156411053
 20
284.697269273
 30
0.0
 11
347.1156411053
 21
276.197269273
 31
0.0
  0
LINE
  5
198
100
AcDbEntity
  8
52176992
370
         0
390
0
  6
CONTINUOUS
 62
         7
100
AcDbLine
 10
333.1156411053
 20
276.197269273
 30
0.0
 11
333.1156411053
 21
284.697269273
 31
0.0
  0
LINE
  5
199
100
AcDbEntity
  8
52176992
370
         0
390
0
  6
CONTINUOUS
 62
         7
100
AcDbLine
 10
347.1156411053
 20
276.197269273
 30
0.0
 11
333.1156411053
 21
276.197269273
 31
0.0
  0
LINE
  5
19A
100
AcDbEntity
  8
52176992
370
         0
390
0
  6
CONTINUOUS
 62
         7
100
AcDbLine
 10
331.6156411053
 20
299.197269273
 30
0.0
 11
348.6156411053
 21
299.197269273
 31
0.0
  0
LINE
  5
19B
100
AcDbEntity
  8
52176992
370
         0
390
0
  6
CONTINUOUS
 62
         7
100
AcDbLine
 10
347.1156411053
 20
274.697269273
 30
0.0
 11
333.1156411053
 21
274.697269273
 31
0.0
  0
LINE
  5
19C
100
AcDbEntity
  8
52176992
370
         0
390
0
  6
CONTINUOUS
 62
         7
100
AcDbLine
 10
333.1156411053
 20
274.697269273
 30
0.0
 11
333.1156411053
 21
276.197269273
 31
0.0
  0
LINE
  5
19D
100
AcDbEntity
  8
52176992
370
         0
390
0
  6
CONTINUOUS
 62
         7
100
AcDbLine
 10
331.1156411053
 20
18.197269273
 30
0.0
 11
331.1156411053
 21
236.197269273
 31
0.0
  0
LINE
  5
19E
100
AcDbEntity
  8
52176992
370
         0
390
0
  6
CONTINUOUS
 62
         7
100
AcDbLine
 10
349.1156411053
 20
18.197269273
 30
0.0
 11
349.1156411053
 21
236.197269273
 31
0.0
  0
ARC
  5
19F
100
AcDbEntity
  8
52176992
370
         0
390
0
  6
CONTINUOUS
 62
         7
100
AcDbCircle
 10
340.1156411057
 20
344.9782790791
 30
0.0
 40
109.0060002679
100
AcDbArc
 50
266.318123803
 51
273.6818764345
  0
LINE
  5
1A0
100
AcDbEntity
  8
52176992
370
         0
390
0
  6
CONTINUOUS
 62
         7
100
AcDbLine
 10
347.1156411053
 20
284.697269273
 30
0.0
 11
348.6156411053
 21
285.5632946768
 31
0.0
  0
LINE
  5
1A1
100
AcDbEntity
  8
52176992
370
         0
390
0
  6
CONTINUOUS
 62
         7
100
AcDbLine
 10
333.1156411053
 20
284.697269273
 30
0.0
 11
331.6156411053
 21
285.5632946768
 31
0.0
  0
LINE
  5
1A2
100
AcDbEntity
  8
52176992
370
         0
390
0
  6
CONTINUOUS
 62
         7
100
AcDbLine
 10
347.1156411053
 20
276.197269273
 30
0.0
 11
347.1156411053
 21
274.697269273
 31
0.0
  0
LINE
  5
1A3
100
AcDbEntity
  8
52176992
370
         0
390
0
  6
CONTINUOUS
 62
         7
100
AcDbLine
 10
336.8107205313
 20
320.197269273
 30
0.0
 11
336.5719489695
 21
320.197269273
 31
0.0
  0
LINE
  5
1A4
100
AcDbEntity
  8
52176992
370
         0
390
0
  6
CONTINUOUS
 62
         7
100
AcDbLine
 10
343.659333241
 20
320.197269273
 30
0.0
 11
343.4205616792
 21
320.197269273
 31
0.0
  0
LINE
  5
1A5
100
AcDbEntity
  8
52176992
370
         0
390
0
  6
CONTINUOUS
 62
         7
100
AcDbLine
 10
336.5719489695
 20
315.197269273
 30
0.0
 11
333.2670283956
 21
315.197269273
 31
0.0
  0
LINE
  5
1A6
100
AcDbEntity
  8
52176992
370
         0
390
0
  6
CONTINUOUS
 62
         7
100
AcDbLine
 10
343.4205616792
 20
315.197269273
 30
0.0
 11
336.8107205313
 21
315.197269273
 31
0.0
  0
LINE
  5
1A7
100
AcDbEntity
  8
52176992
370
         0
390
0
  6
CONTINUOUS
 62
         7
100
AcDbLine
 10
346.9642538149
 20
315.197269273
 30
0.0
 11
343.659333241
 21
315.197269273
 31
0.0
  0
LINE
  5
1A8
100
AcDbEntity
  8
52176992
370
         0
390
0
  6
CONTINUOUS
 62
         7
100
AcDbLine
 10
333.3656411053
 20
323.197269273
 30
0.0
 11
346.8656411053
 21
323.197269273
 31
0.0
  0
LINE
  5
1A9
100
AcDbEntity
  8
52176992
370
         0
390
0
  6
CONTINUOUS
 62
         7
100
AcDbLine
 10
346.9642538149
 20
320.197269273
 30
0.0
 11
343.659333241
 21
320.197269273
 31
0.0
  0
LINE
  5
1AA
100
AcDbEntity
  8
52176992
370
         0
390
0
  6
CONTINUOUS
 62
         7
100
AcDbLine
 10
333.3656411053
 20
324.197269273
 30
0.0
 11
346.8656411053
 21
324.197269273
 31
0.0
  0
LINE
  5
1AB
100
AcDbEntity
  8
52176992
370
         0
390
0
  6
CONTINUOUS
 62
         7
100
AcDbLine
 10
349.1156411053
 20
236.197269273
 30
0.0
 11
347.1156411053
 21
236.197269273
 31
0.0
  0
LINE
  5
1AC
100
AcDbEntity
  8
52176992
370
         0
390
0
  6
CONTINUOUS
 62
         7
100
AcDbLine
 10
346.1156411053
 20
325.697269273
 30
0.0
 11
347.0156411053
 21
326.597269273
 31
0.0
  0
LINE
  5
1AD
100
AcDbEntity
  8
52176992
370
         0
390
0
  6
CONTINUOUS
 62
         7
100
AcDbLine
 10
336.8107205313
 20
320.197269273
 30
0.0
 11
336.8107205313
 21
315.197269273
 31
0.0
  0
LINE
  5
1AE
100
AcDbEntity
  8
52176992
370
         0
390
0
  6
CONTINUOUS
 62
         7
100
AcDbLine
 10
333.2156411053
 20
332.197269273
 30
0.0
 11
333.2156411053
 21
326.597269273
 31
0.0
  0
LINE
  5
1AF
100
AcDbEntity
  8
52176992
370
         0
390
0
  6
CONTINUOUS
 62
         7
100
AcDbLine
 10
346.1156411053
 20
324.197269273
 30
0.0
 11
346.1156411053
 21
325.697269273
 31
0.0
  0
LINE
  5
1B0
100
AcDbEntity
  8
52176992
370
         0
390
0
  6
CONTINUOUS
 62
         7
100
AcDbLine
 10
346.8656411053
 20
323.197269273
 30
0.0
 11
346.8656411053
 21
324.197269273
 31
0.0
  0
LINE
  5
1B1
100
AcDbEntity
  8
52176992
370
         0
390
0
  6
CONTINUOUS
 62
         7
100
AcDbLine
 10
346.9656411053
 20
299.197269273
 30
0.0
 11
346.9656411053
 21
320.197269273
 31
0.0
  0
LINE
  5
1B2
100
AcDbEntity
  8
52176992
370
         0
390
0
  6
CONTINUOUS
 62
         7
100
AcDbLine
 10
348.6156411053
 20
285.5632946768
 30
0.0
 11
348.6156411053
 21
299.197269273
 31
0.0
  0
LINE
  5
1B3
100
AcDbEntity
  8
52176992
370
         0
390
0
  6
CONTINUOUS
 62
         7
100
AcDbLine
 10
347.1156411053
 20
236.197269273
 30
0.0
 11
347.1156411053
 21
274.697269273
 31
0.0
  0
ENDBLK
  5
1B4
100
AcDbEntity
  8
52176992
370
         0
390
0
  6
CONTINUOUS
 62
         7
100
AcDbBlockEnd
  0
ENDSEC
  0
SECTION
  2
ENTITIES
  0
INSERT
  5
47
102
{ACAD_XDICTIONARY
360
48
102
}
100
AcDbEntity
  8
0
370
         0
390
0
 62
         0
 48
0.0
100
AcDbBlockReference
  2
SE1
 10
0.0
 20
0.0
 30
0.0
  0
INSERT
  5
4B
100
AcDbEntity
  8
0
370
         0
390
0
 62
         0
 48
0.0
100
AcDbBlockReference
  2
SE0
 10
0.0
 20
0.0
 30
0.0
  0
INSERT
  5
4E
102
{ACAD_XDICTIONARY
360
4F
102
}
100
AcDbEntity
  8
0
370
         0
390
0
 62
         0
 48
0.0
100
AcDbBlockReference
  2
SE3
 10
0.0
 20
0.0
 30
0.0
  0
INSERT
  5
52
100
AcDbEntity
  8
0
370
         0
390
0
 62
         0
 48
0.0
100
AcDbBlockReference
  2
SE2
 10
0.0
 20
0.0
 30
0.0
  0
INSERT
  5
55
102
{ACAD_XDICTIONARY
360
56
102
}
100
AcDbEntity
  8
0
370
         0
390
0
 62
         0
 48
0.0
100
AcDbBlockReference
  2
SE5
 10
0.0
 20
0.0
 30
0.0
  0
INSERT
  5
59
100
AcDbEntity
  8
0
370
         0
390
0
 62
         0
 48
0.0
100
AcDbBlockReference
  2
SE4
 10
0.0
 20
0.0
 30
0.0
  0
INSERT
  5
5C
102
{ACAD_XDICTIONARY
360
5D
102
}
100
AcDbEntity
  8
0
370
         0
390
0
 62
         0
 48
0.0
100
AcDbBlockReference
  2
SE7
 10
0.0
 20
0.0
 30
0.0
  0
INSERT
  5
60
100
AcDbEntity
  8
0
370
         0
390
0
 62
         0
 48
0.0
100
AcDbBlockReference
  2
SE6
 10
0.0
 20
0.0
 30
0.0
  0
ENDSEC
  0
SECTION
  2
OBJECTS
  0
DICTIONARY
  5
19
100
AcDbDictionary
280
         0
281
         1
  3
ACAD_GROUP
350
1A
  3
ACAD_MLINESTYLE
350
1B
  3
ACAD_LAYOUT
350
1E
  3
ACAD_PLOTSETTINGS
350
22
  3
ACAD_PLOTSTYLENAME
350
1F
  3
ACAD_WIPEOUT_VARS
350
23
  3
AcDbVariableDictionary
350
1B7
  0
DICTIONARY
  5
1A
102
{ACAD_REACTORS
330
19
102
}
100
AcDbDictionary
280
         0
281
         1
  0
DICTIONARY
  5
1B
102
{ACAD_REACTORS
330
19
102
}
100
AcDbDictionary
280
         0
281
         1
  3
Standard
350
1C
  0
MLINESTYLE
  5
1C
102
{ACAD_REACTORS
330
1B
102
}
100
AcDbMlineStyle
  2
Standard
 70
         0
  3

 62
         0
 51
90.0
 52
90.0
 71
         2
 49
0.5
 62
       256
  6
ByLayer
 49
-0.5
 62
       256
  6
ByLayer
  0
ACDBDICTIONARYWDFLT
  5
1F
102
{ACAD_REACTORS
330
19
102
}
100
AcDbDictionary
281
         1
  3
Normal
350
1D
100
AcDbDictionaryWithDefault
340
1D
  0
ACDBPLACEHOLDER
  5
1D
102
{ACAD_REACTORS
330
1F
102
}
  0
LAYOUT
  5
20
102
{ACAD_REACTORS
330
1E
102
}
100
AcDbPlotSettings
  1

  2

  4

  6

 40
0.0
 41
0.0
 42
0.0
 43
0.0
 44
0.0
 45
0.0
 46
0.0
 47
0.0
 48
0.0
 49
0.0
140
0.0
141
0.0
142
1.0
143
1.0
 70
      1024
 72
         0
 73
         0
 74
         0
  7

 75
         0
147
1.0
148
0.0
149
0.0
100
AcDbLayout
  1
Model
 70
         0
 71
         0
 10
0.0
 20
0.0
 11
0.0
 21
0.0
 12
0.0
 22
0.0
 32
0.0
 14
0.0
 24
0.0
 34
0.0
 15
0.0
 25
0.0
 35
0.0
146
0.0
 13
0.0
 23
0.0
 33
0.0
 16
0.0
 26
0.0
 36
0.0
 17
0.0
 27
0.0
 37
0.0
 76
         0
330
A
331
0
345
0
346
0
  0
LAYOUT
  5
21
102
{ACAD_REACTORS
330
1E
102
}
100
AcDbPlotSettings
  1

  2

  4

  6

 40
0.0
 41
0.0
 42
0.0
 43
0.0
 44
0.0
 45
0.0
 46
0.0
 47
0.0
 48
0.0
 49
0.0
140
0.0
141
0.0
142
1.0
143
1.0
 70
         0
 72
         0
 73
         0
 74
         0
  7

 75
         0
147
1.0
148
0.0
149
0.0
100
AcDbLayout
  1
Layout1
 70
         0
 71
         0
 10
0.0
 20
0.0
 11
0.0
 21
0.0
 12
0.0
 22
0.0
 32
0.0
 14
0.0
 24
0.0
 34
0.0
 15
0.0
 25
0.0
 35
0.0
146
0.0
 13
0.0
 23
0.0
 33
0.0
 16
0.0
 26
0.0
 36
0.0
 17
0.0
 27
0.0
 37
0.0
 76
         0
330
B
331
0
345
0
346
0
  0
DICTIONARY
  5
1E
102
{ACAD_REACTORS
330
19
102
}
100
AcDbDictionary
280
         0
281
         1
  3
Layout1
350
21
  3
Model
350
20
  0
DICTIONARY
  5
22
102
{ACAD_REACTORS
330
19
102
}
100
AcDbDictionary
280
         0
281
         1
  0
WIPEOUTVARIABLES
  5
23
100
AcDbWipeoutVariables
 70
         1
  0
DICTIONARY
  5
48
100
AcDbDictionary
280
         0
281
         0
  3
ACAD_FILTER
350
49
  0
DICTIONARY
  5
49
100
AcDbDictionary
280
         0
281
         0
  3
SPATIAL
350
4A
  0
SPATIAL_FILTER
  5
4A
100
AcDbFilter
100
AcDbSpatialFilter
 70
         2
 10
13.2200354941
 20
11.8472640278
 10
43.9200347193
 20
338.5472745183
210
0.0
220
0.0
230
1.0
 11
0.0
 21
0.0
 31
0.0
 71
         1
 72
         0
 73
         0
 40
1.0
 40
0.0
 40
0.0
 40
0.0
 40
0.0
 40
1.0
 40
0.0
 40
0.0
 40
0.0
 40
0.0
 40
1.0
 40
0.0
 40
1.0
 40
0.0
 40
0.0
 40
0.0
 40
0.0
 40
1.0
 40
0.0
 40
0.0
 40
0.0
 40
0.0
 40
1.0
 40
0.0
  0
DICTIONARY
  5
4F
100
AcDbDictionary
280
         0
281
         0
  3
ACAD_FILTER
350
50
  0
DICTIONARY
  5
50
100
AcDbDictionary
280
         0
281
         0
  3
SPATIAL
350
51
  0
SPATIAL_FILTER
  5
51
100
AcDbFilter
100
AcDbSpatialFilter
 70
         2
 10
13.2200354941
 20
416.9505000471
 10
43.9200347193
 20
743.6505105375
210
0.0
220
0.0
230
1.0
 11
0.0
 21
0.0
 31
0.0
 71
         1
 72
         0
 73
         0
 40
1.0
 40
0.0
 40
0.0
 40
0.0
 40
0.0
 40
1.0
 40
0.0
 40
0.0
 40
0.0
 40
0.0
 40
1.0
 40
0.0
 40
1.0
 40
0.0
 40
0.0
 40
0.0
 40
0.0
 40
1.0
 40
0.0
 40
0.0
 40
0.0
 40
0.0
 40
1.0
 40
0.0
  0
DICTIONARY
  5
56
100
AcDbDictionary
280
         0
281
         0
  3
ACAD_FILTER
350
57
  0
DICTIONARY
  5
57
100
AcDbDictionary
280
         0
281
         0
  3
SPATIAL
350
58
  0
SPATIAL_FILTER
  5
58
100
AcDbFilter
100
AcDbSpatialFilter
 70
         2
 10
125.002604775
 20
416.9505000471
 10
451.7026152654
 20
743.6505105375
210
0.0
220
0.0
230
1.0
 11
0.0
 21
0.0
 31
0.0
 71
         1
 72
         0
 73
         0
 40
1.0
 40
0.0
 40
0.0
 40
0.0
 40
0.0
 40
1.0
 40
0.0
 40
0.0
 40
0.0
 40
0.0
 40
1.0
 40
0.0
 40
1.0
 40
0.0
 40
0.0
 40
0.0
 40
0.0
 40
1.0
 40
0.0
 40
0.0
 40
0.0
 40
0.0
 40
1.0
 40
0.0
  0
DICTIONARY
  5
5D
100
AcDbDictionary
280
         0
281
         0
  3
ACAD_FILTER
350
5E
  0
DICTIONARY
  5
5E
100
AcDbDictionary
280
         0
281
         0
  3
SPATIAL
350
5F
  0
SPATIAL_FILTER
  5
5F
100
AcDbFilter
100
AcDbSpatialFilter
 70
         2
 10
324.7656414927
 20
11.8472640278
 10
355.4656407178
 20
338.5472745183
210
0.0
220
0.0
230
1.0
 11
0.0
 21
0.0
 31
0.0
 71
         1
 72
         0
 73
         0
 40
1.0
 40
0.0
 40
0.0
 40
0.0
 40
0.0
 40
1.0
 40
0.0
 40
0.0
 40
0.0
 40
0.0
 40
1.0
 40
0.0
 40
1.0
 40
0.0
 40
0.0
 40
0.0
 40
0.0
 40
1.0
 40
0.0
 40
0.0
 40
0.0
 40
0.0
 40
1.0
 40
0.0
  0
DICTIONARY
  5
1B7
100
AcDbDictionary
280
         0
281
         0
  3
DIMASSOC
350
1B8
  0
DICTIONARYVAR
  5
1B8
100
DictionaryVariables
280
         0
  1
2
  0
ENDSEC
  0
EOF
