  0
SECTION
  2
HEADER
  9
$ACADVER
  1
AC1015
  9
$ACADMAINTVER
 70
         6
  9
$DWGCODEPAGE
  3
ANSI_1252
  9
$INSBASE
 10
0.0
 20
0.0
 30
0.0
  9
$EXTMIN
 10
0.0
 20
0.0
 30
0.0
  9
$EXTMAX
 10
841.0
 20
594.0
 30
0.0
  9
$LIMMIN
 10
0.0
 20
0.0
  9
$LIMMAX
 10
841.0
 20
594.0
  9
$ORTHOMODE
 70
         0
  9
$REGENMODE
 70
         1
  9
$FILLMODE
 70
         1
  9
$QTEXTMODE
 70
         0
  9
$MIRRTEXT
 70
         1
  9
$LTSCALE
 40
25.4
  9
$ATTMODE
 70
         1
  9
$TEXTSIZE
 40
0.2
  9
$TRACEWID
 40
0.05
  9
$TEXTSTYLE
  7
Standard
  9
$CLAYER
  8
0
  9
$CELTYPE
  6
CONTINUOUS
  9
$CECOLOR
 62
       256
  9
$CELTSCALE
 40
1.0
  9
$DISPSILH
 70
         0
  9
$DIMSCALE
 40
1.0
  9
$DIMASZ
 40
0.18
  9
$DIMEXO
 40
0.0625
  9
$DIMDLI
 40
0.38
  9
$DIMRND
 40
0.0
  9
$DIMDLE
 40
0.0
  9
$DIMEXE
 40
0.18
  9
$DIMTP
 40
0.0
  9
$DIMTM
 40
0.0
  9
$DIMTXT
 40
0.18
  9
$DIMCEN
 40
0.09
  9
$DIMTSZ
 40
0.0
  9
$DIMTOL
 70
         0
  9
$DIMLIM
 70
         0
  9
$DIMTIH
 70
         1
  9
$DIMTOH
 70
         1
  9
$DIMSE1
 70
         0
  9
$DIMSE2
 70
         0
  9
$DIMTAD
 70
         0
  9
$DIMZIN
 70
         0
  9
$DIMBLK
  1

  9
$DIMASO
 70
         1
  9
$DIMSHO
 70
         1
  9
$DIMPOST
  1

  9
$DIMAPOST
  1

  9
$DIMALT
 70
         0
  9
$DIMALTD
 70
         2
  9
$DIMALTF
 40
25.4
  9
$DIMLFAC
 40
1.0
  9
$DIMTOFL
 70
         0
  9
$DIMTVP
 40
0.0
  9
$DIMTIX
 70
         0
  9
$DIMSOXD
 70
         0
  9
$DIMSAH
 70
         0
  9
$DIMBLK1
  1

  9
$DIMBLK2
  1

  9
$DIMSTYLE
  2
Standard
  9
$DIMCLRD
 70
         0
  9
$DIMCLRE
 70
         0
  9
$DIMCLRT
 70
         0
  9
$DIMTFAC
 40
1.0
  9
$DIMGAP
 40
0.09
  9
$DIMJUST
 70
         0
  9
$DIMSD1
 70
         0
  9
$DIMSD2
 70
         0
  9
$DIMTOLJ
 70
         1
  9
$DIMTZIN
 70
         0
  9
$DIMALTZ
 70
         0
  9
$DIMALTTZ
 70
         0
  9
$DIMUPT
 70
         0
  9
$DIMDEC
 70
         4
  9
$DIMTDEC
 70
         4
  9
$DIMALTU
 70
         2
  9
$DIMALTTD
 70
         2
  9
$DIMTXSTY
  7
Standard
  9
$DIMAUNIT
 70
         0
  9
$DIMADEC
 70
         0
  9
$DIMALTRND
 40
0.0
  9
$DIMAZIN
 70
         0
  9
$DIMDSEP
 70
         0
  9
$DIMATFIT
 70
         3
  9
$DIMFRAC
 70
         0
  9
$DIMLDRBLK
  1

  9
$DIMLUNIT
 70
         2
  9
$DIMLWD
 70
         0
  9
$DIMLWE
 70
         0
  9
$DIMTMOVE
 70
         0
  9
$LUNITS
 70
         2
  9
$LUPREC
 70
         4
  9
$SKETCHINC
 40
0.1
  9
$FILLETRAD
 40
0.0
  9
$AUNITS
 70
         0
  9
$AUPREC
 70
         0
  9
$MENU
  1
acad
  9
$ELEVATION
 40
0.0
  9
$PELEVATION
 40
0.0
  9
$THICKNESS
 40
0.0
  9
$LIMCHECK
 70
         0
  9
$CHAMFERA
 40
0.0
  9
$CHAMFERB
 40
0.0
  9
$CHAMFERC
 40
0.0
  9
$CHAMFERD
 40
0.0
  9
$SKPOLY
 70
         0
  9
$TDCREATE
 40
0.000000000
  9
$TDUCREATE
 40
0.000000000
  9
$TDUPDATE
 40
0.000000000
  9
$TDUUPDATE
 40
0.000000000
  9
$TDINDWG
 40
0.0000000000
  9
$TDUSRTIMER
 40
0.0000000000
  9
$USRTIMER
 70
         1
  9
$ANGBASE
 50
0.0
  9
$ANGDIR
 70
         0
  9
$PDMODE
 70
         0
  9
$PDSIZE
 40
0.0
  9
$PLINEWID
 40
0.0
  9
$SPLFRAME
 70
         0
  9
$SPLINETYPE
 70
         6
  9
$SPLINESEGS
 70
         8
  9
$HANDSEED
  5
1B9
  9
$SURFTAB1
 70
         6
  9
$SURFTAB2
 70
         6
  9
$SURFTYPE
 70
         6
  9
$SURFU
 70
         6
  9
$SURFV
 70
         6
  9
$UCSBASE
  2

  9
$UCSNAME
  2

  9
$UCSORG
 10
0.0
 20
0.0
 30
0.0
  9
$UCSXDIR
 10
1.0
 20
0.0
 30
0.0
  9
$UCSYDIR
 10
0.0
 20
1.0
 30
0.0
  9
$UCSORTHOREF
  2

  9
$UCSORTHOVIEW
 70
         0
  9
$UCSORGTOP
 10
0.0
 20
0.0
 30
0.0
  9
$UCSORGBOTTOM
 10
0.0
 20
0.0
 30
0.0
  9
$UCSORGLEFT
 10
0.0
 20
0.0
 30
0.0
  9
$UCSORGRIGHT
 10
0.0
 20
0.0
 30
0.0
  9
$UCSORGFRONT
 10
0.0
 20
0.0
 30
0.0
  9
$UCSORGBACK
 10
0.0
 20
0.0
 30
0.0
  9
$PUCSBASE
  2

  9
$PUCSNAME
  2

  9
$PUCSORG
 10
0.0
 20
0.0
 30
0.0
  9
$PUCSXDIR
 10
1.0
 20
0.0
 30
0.0
  9
$PUCSYDIR
 10
0.0
 20
1.0
 30
0.0
  9
$PUCSORTHOREF
  2

  9
$PUCSORTHOVIEW
 70
         0
  9
$PUCSORGTOP
 10
0.0
 20
0.0
 30
0.0
  9
$PUCSORGBOTTOM
 10
0.0
 20
0.0
 30
0.0
  9
$PUCSORGLEFT
 10
0.0
 20
0.0
 30
0.0
  9
$PUCSORGRIGHT
 10
0.0
 20
0.0
 30
0.0
  9
$PUCSORGFRONT
 10
0.0
 20
0.0
 30
0.0
  9
$PUCSORGBACK
 10
0.0
 20
0.0
 30
0.0
  9
$USERI1
 70
         0
  9
$USERI2
 70
         0
  9
$USERI3
 70
         0
  9
$USERI4
 70
         0
  9
$USERI5
 70
         0
  9
$USERR1
 40
0.0
  9
$USERR2
 40
0.0
  9
$USERR3
 40
0.0
  9
$USERR4
 40
0.0
  9
$USERR5
 40
0.0
  9
$WORLDVIEW
 70
         1
  9
$SHADEDGE
 70
         3
  9
$SHADEDIF
 70
        70
  9
$TILEMODE
 70
         1
  9
$MAXACTVP
 70
        16
  9
$PINSBASE
 10
0.0
 20
0.0
 30
0.0
  9
$PLIMCHECK
 70
         0
  9
$PEXTMIN
 10
1.0000000000E+20
 20
1.0000000000E+20
 30
1.0000000000E+20
  9
$PEXTMAX
 10
-1.0000000000E+20
 20
-1.0000000000E+20
 30
-1.0000000000E+20
  9
$PLIMMIN
 10
0.0
 20
0.0
  9
$PLIMMAX
 10
12.0
 20
9.0
  9
$UNITMODE
 70
         0
  9
$VISRETAIN
 70
         0
  9
$PLINEGEN
 70
         1
  9
$PSLTSCALE
 70
         0
  9
$TREEDEPTH
 70
      3020
  9
$CMLSTYLE
  2
Standard
  9
$CMLJUST
 70
         0
  9
$CMLSCALE
 40
1.0
  9
$PROXYGRAPHICS
 70
         0
  9
$MEASUREMENT
 70
         0
  9
$CELWEIGHT
370
         0
  9
$ENDCAPS
280
         0
  9
$JOINSTYLE
280
         0
  9
$LWDISPLAY
290
         0
  9
$INSUNITS
 70
         0
  9
$HYPERLINKBASE
  1

  9
$STYLESHEET
  1

  9
$XEDIT
290
         1
  9
$CEPSNTYPE
380
         0
  9
$PSTYLEMODE
290
         1
  9
$FINGERPRINTGUID
  2

  9
$VERSIONGUID
  2

  9
$EXTNAMES
290
         1
  9
$PSVPSCALE
 40
0.0
  0
ENDSEC
  0
SECTION
  2
CLASSES
  0
CLASS
  1
LWPOLYLINE
  2
AcDbPolyline
  3
AutoCAD 2000
 90
        0
280
         0
281
         1
  0
CLASS
  1
IMAGE
  2
AcDbRasterImage
  3
ISM
 90
      127
280
         0
281
         1
  0
CLASS
  1
OLE2FRAME
  2
AcDbOle2Frame
  3
AutoCAD 2000
 90
        0
280
         0
281
         1
  0
CLASS
  1
HATCH
  2
AcDbHatch
  3
AutoCAD 2000
 90
        0
280
         0
281
         1
  0
CLASS
  1
DICTIONARYVAR
  2
AcDbDictionaryVar
  3
AutoCAD 2000
 90
        0
280
         0
281
         0
  0
CLASS
  1
RASTERVARIABLES
  2
AcDbRasterVariables
  3
ISM
 90
        0
280
         0
281
         0
  0
CLASS
  1
IMAGEDEF
  2
AcDbRasterImageDef
  3
ISM
 90
        0
280
         0
281
         0
  0
CLASS
  1
IMAGEDEF_REACTOR
  2
AcDbRasterImageDefReactor
  3
ISM
 90
        1
280
         0
281
         0
  0
CLASS
  1
IDBUFFER
  2
AcDbIdBuffer
  3
AutoCAD 2000
 90
        0
280
         0
281
         0
  0
CLASS
  1
SPATIAL_FILTER
  2
AcDbSpatialFilter
  3
AutoCAD 2000
 90
        0
280
         0
281
         0
  0
CLASS
  1
XRECORD
  2
AcDbXrecord
  3
AutoCAD 2000
 90
        0
280
         0
281
         0
  0
CLASS
  1
SORTENTSTABLE
  2
AcDbSortentsTable
  3
AutoCAD 2000
 90
        0
280
         0
281
         0
  0
CLASS
  1
LAYER_INDEX
  2
AcDbLayerIndex
  3
AutoCAD 2000
 90
        0
280
         0
281
         0
  0
CLASS
  1
SPATIAL_INDEX
  2
AcDbSpatialIndex
  3
AutoCAD 2000
 90
        0
280
         0
281
         0
  0
CLASS
  1
OBJECT_PTR
  2
CAseDLPNTableRecord
  3
"ASE-LPNTableRecord"
 90
        1
280
         0
281
         0
  0
CLASS
  1
LAYOUT
  2
AcDbLayout
  3
AutoCAD 2000
 90
        0
280
         0
281
         0
  0
CLASS
  1
PLOTSETTINGS
  2
AcDbPlotSettings
  3
AutoCAD 2000
 90
        0
280
         0
281
         0
  0
CLASS
  1
ACDBDICTIONARYWDFLT
  2
AcDbDictionaryWithDefault
  3
AutoCAD 2000
 90
        0
280
         0
281
         0
  0
CLASS
  1
ACDBPLACEHOLDER
  2
AcDbPlaceHolder
  3
AutoCAD 2000
 90
        0
280
         0
281
         0
  0
CLASS
  1
VBA_PROJECT
  2
AcDbVbaProject
  3
acadvba
 90
        0
280
         0
281
         0
  0
CLASS
  1
WIPEOUT
  2
AcDbWipeout
  3
WipeOut|AutoCAD Express Tool|expresstools@autodesk.com
 90
      127
280
         0
281
         1
  0
CLASS
  1
WIPEOUTVARIABLES
  2
AcDbWipeoutVariables
  3
WipeOut|AutoCAD Express Tool|expresstools@autodesk.com
 90
        0
280
         0
281
         0
  0
CLASS
  1
RTEXT
  2
RText
  3
RText|AutoCAD Express Tool|expresstools@autodesk.com
 90
        0
280
         0
281
         1
  0
CLASS
  1
ARCALIGNEDTEXT
  2
AcDbArcAlignedText
  3
ATEXT|AutoCAD Express Tool|expresstools@autodesk.com
 90
        0
280
         0
281
         1
  0
ENDSEC
  0
SECTION
  2
TABLES
  0
TABLE
  2
VPORT
  5
7
100
AcDbSymbolTable
 70
         1
  0
VPORT
  5
15
100
AcDbSymbolTableRecord
100
AcDbViewportTableRecord
  2
*ACTIVE
 70
         0
 10
0.0
 20
0.0
 11
1.0
 21
1.0
 12
420.5
 22
297.0
 13
0.0
 23
0.0
 14
1.0
 24
1.0
 15
0.0
 25
0.0
 16
0.0
 26
0.0
 36
1.0
 17
0.0
 27
0.0
 37
0.0
 40
594.0
 41
1.604229
 42
50.0
 43
0.0
 44
0.0
 50
0.0
 51
0.0
 71
         0
 72
       100
 73
         1
 74
         1
 75
         0
 76
         0
 77
         0
 78
         0
281
         0
 65
         0
110
0.0
120
0.0
130
0.0
111
1.0
121
0.0
131
0.0
112
0.0
122
1.0
132
0.0
345
0
346
0
 79
         0
146
0.0
  0
ENDTAB
  0
TABLE
  2
LTYPE
  5
4
100
AcDbSymbolTable
 70
         7
  0
LTYPE
  5
11
100
AcDbSymbolTableRecord
100
AcDbLinetypeTableRecord
  2
ByBlock
 70
        64
  3

 72
        65
 73
         0
 40
0.0
  0
LTYPE
  5
12
100
AcDbSymbolTableRecord
100
AcDbLinetypeTableRecord
  2
ByLayer
 70
        64
  3

 72
        65
 73
         0
 40
0.0
  0
LTYPE
  5
13
100
AcDbSymbolTableRecord
100
AcDbLinetypeTableRecord
  2
CONTINUOUS
 70
         0
  3
Solid line
 72
        65
 73
         0
 40
0.0
  0
LTYPE
  5
28
100
AcDbSymbolTableRecord
100
AcDbLinetypeTableRecord
  2
HIDDEN2
 70
        64
  3
_ _ _ _ _ _ _ _ _ _ _ _ _ _ _ _ _ _ _ _ _ _ _ _
 72
        65
 73
         2
 40
0.1875
 49
0.125
 74
         0
 49
-0.0625
 74
         0
  0
LTYPE
  5
29
100
AcDbSymbolTableRecord
100
AcDbLinetypeTableRecord
  2
CENTER2
 70
        64
  3
___ _ ___ _ ___ _ ___ _ ___ _ ___ _ ___ _ ___ _
 72
        65
 73
         4
 40
1.125
 49
0.75
 74
         0
 49
-0.125
 74
         0
 49
0.125
 74
         0
 49
-0.125
 74
         0
  0
LTYPE
  5
2A
100
AcDbSymbolTableRecord
100
AcDbLinetypeTableRecord
  2
PHANTOM2
 70
        64
  3
___ _ _ ___ _ _ ___ _ _ ___ _ _ ___ _ _ ___ _ _
 72
        65
 73
         6
 40
1.25
 49
0.625
 74
         0
 49
-0.125
 74
         0
 49
0.125
 74
         0
 49
-0.125
 74
         0
 49
0.125
 74
         0
 49
-0.125
 74
         0
  0
LTYPE
  5
2B
100
AcDbSymbolTableRecord
100
AcDbLinetypeTableRecord
  2
DOT2
 70
        64
  3
...............................................
 72
        65
 73
         2
 40
0.125
 49
0.0
 74
         0
 49
-0.125
 74
         0
  0
ENDTAB
  0
TABLE
  2
LAYER
  5
2
100
AcDbSymbolTable
 70
         5
  0
LAYER
  5
14
100
AcDbSymbolTableRecord
100
AcDbLayerTableRecord
  2
0
 70
         0
 62
         7
  6
CONTINUOUS
290
         1
370
        -3
390
1D
  0
LAYER
  5
2D
100
AcDbSymbolTableRecord
100
AcDbLayerTableRecord
  2
DEFAULT
 70
         0
 62
         7
  6
CONTINUOUS
290
         1
370
        -3
390
0
  0
LAYER
  5
2F
100
AcDbSymbolTableRecord
100
AcDbLayerTableRecord
  2
04
 70
         0
 62
         7
  6
CONTINUOUS
290
         1
370
        -3
390
0
  0
LAYER
  5
31
100
AcDbSymbolTableRecord
100
AcDbLayerTableRecord
  2
20
 70
         0
 62
         7
  6
CONTINUOUS
290
         1
370
        -3
390
0
  0
LAYER
  5
44
100
AcDbSymbolTableRecord
100
AcDbLayerTableRecord
  2
52176991
 70
         0
 62
         7
  6
CONTINUOUS
290
         1
370
        -3
390
0
  0
ENDTAB
  0
TABLE
  2
STYLE
  5
3
100
AcDbSymbolTable
 70
         1
  0
STYLE
  5
17
100
AcDbSymbolTableRecord
100
AcDbTextStyleTableRecord
  2
Standard
 70
         0
 40
0.0
 41
1.0
 50
0.0
 71
         0
 42
0.2
  3
txt
  4

  0
ENDTAB
  0
TABLE
  2
VIEW
  5
5
100
AcDbSymbolTable
 70
         0
  0
ENDTAB
  0
TABLE
  2
UCS
  5
6
100
AcDbSymbolTable
 70
         0
  0
ENDTAB
  0
TABLE
  2
APPID
  5
8
100
AcDbSymbolTable
 70
         1
  0
APPID
  5
16
100
AcDbSymbolTableRecord
100
AcDbRegAppTableRecord
  2
ACAD
 70
         0
  0
ENDTAB
  0
TABLE
  2
DIMSTYLE
  5
9
100
AcDbSymbolTable
 70
         1
100
AcDbDimStyleTable
 71
         0
  0
DIMSTYLE
105
18
100
AcDbSymbolTableRecord
100
AcDbDimStyleTableRecord
  2
Standard
 70
         0
  3

  4

 40
1.0
 41
0.18
 42
0.0625
 43
0.38
 44
0.18
 45
0.0
 46
0.0
 47
0.0
 48
0.0
 71
         0
 72
         0
 73
         1
 74
         1
 75
         0
 76
         0
 77
         0
 78
         0
 79
         0
140
0.18
141
0.09
142
0.0
143
25.4
144
1.0
145
0.0
146
1.0
147
0.09
148
0.0
170
         0
171
         2
172
         0
173
         0
174
         0
175
         0
176
         0
177
         0
178
         0
179
         0
271
         4
272
         4
273
         2
274
         2
275
         0
276
         0
277
         2
278
        46
279
         0
280
         0
281
         0
282
         0
283
         1
284
         0
285
         0
286
         0
288
         0
289
         0
340
17
341
0
342
0
343
0
344
0
371
        -2
372
        -2
  0
ENDTAB
  0
TABLE
  2
BLOCK_RECORD
  5
1
100
AcDbSymbolTable
 70
         8
  0
BLOCK_RECORD
  5
A
100
AcDbSymbolTableRecord
100
AcDbBlockTableRecord
  2
*MODEL_SPACE
340
20
  0
BLOCK_RECORD
  5
B
100
AcDbSymbolTableRecord
100
AcDbBlockTableRecord
  2
*PAPER_SPACE
340
21
  0
BLOCK_RECORD
  5
45
100
AcDbSymbolTableRecord
100
AcDbBlockTableRecord
  2
SE0
340
0
102
{BLKREFS
331
4B
102
}
  0
BLOCK_RECORD
  5
46
100
AcDbSymbolTableRecord
100
AcDbBlockTableRecord
  2
SE1
340
0
102
{BLKREFS
331
47
102
}
  0
BLOCK_RECORD
  5
4C
100
AcDbSymbolTableRecord
100
AcDbBlockTableRecord
  2
SE2
340
0
102
{BLKREFS
331
52
102
}
  0
BLOCK_RECORD
  5
4D
100
AcDbSymbolTableRecord
100
AcDbBlockTableRecord
  2
SE3
340
0
102
{BLKREFS
331
4E
102
}
  0
BLOCK_RECORD
  5
53
100
AcDbSymbolTableRecord
100
AcDbBlockTableRecord
  2
SE4
340
0
102
{BLKREFS
331
59
102
}
  0
BLOCK_RECORD
  5
54
100
AcDbSymbolTableRecord
100
AcDbBlockTableRecord
  2
SE5
340
0
102
{BLKREFS
331
55
102
}
  0
BLOCK_RECORD
  5
5A
100
AcDbSymbolTableRecord
100
AcDbBlockTableRecord
  2
SE6
340
0
102
{BLKREFS
331
60
102
}
  0
BLOCK_RECORD
  5
5B
100
AcDbSymbolTableRecord
100
AcDbBlockTableRecord
  2
SE7
340
0
102
{BLKREFS
331
5C
102
}
  0
ENDTAB
  0
ENDSEC
  0
SECTION
  2
BLOCKS
  0
BLOCK
  5
D
100
AcDbEntity
  8
0
390
0
100
AcDbBlockBegin
  2
*MODEL_SPACE
 70
         0
 10
0.0
 20
0.0
 30
0.0
  3
*MODEL_SPACE
  1

  0
ENDBLK
  5
E
100
AcDbEntity
  8
0
390
0
100
AcDbBlockEnd
  0
BLOCK
  5
F
100
AcDbEntity
 67
         1
  8
0
390
0
100
AcDbBlockBegin
  2
*PAPER_SPACE
 70
         0
 10
0.0
 20
0.0
 30
0.0
  3
*PAPER_SPACE
  1

  0
ENDBLK
  5
10
100
AcDbEntity
 67
         1
  8
0
390
0
100
AcDbBlockEnd
  0
BLOCK
  5
C6
100
AcDbEntity
  8
0
370
         0
390
0
 62
         1
 48
0.0
100
AcDbBlockBegin
  2
SE0
 70
         0
 10
0.0
 20
0.0
 30
0.0
  3
SE0
  1

  0
ENDBLK
  5
C7
100
AcDbEntity
  8
0
370
         0
390
0
 62
         1
 48
0.0
100
AcDbBlockEnd
  0
BLOCK
  5
61
100
AcDbEntity
  8
0
370
         0
390
0
 62
         1
 48
0.0
100
AcDbBlockBegin
  2
SE1
 70
         0
 10
0.0
 20
0.0
 30
0.0
  3
SE1
  1

  0
LINE
  5
62
100
AcDbEntity
  8
52176991
370
         0
390
0
  6
CONTINUOUS
 62
         7
100
AcDbLine
 10
33.9888995898
 20
205.5765119228
 30
0.0
 11
33.9888995898
 21
244.0768846875
 31
0.0
  0
LINE
  5
63
100
AcDbEntity
  8
52176991
370
         0
390
0
  6
CONTINUOUS
 62
         7
100
AcDbLine
 10
19.9888995898
 20
205.5768846875
 30
0.0
 11
17.9888995898
 21
205.5768846875
 31
0.0
  0
LINE
  5
64
100
AcDbEntity
  8
52176991
370
         0
390
0
  6
CONTINUOUS
 62
         7
100
AcDbLine
 10
20.2388995898
 20
293.5768846875
 30
0.0
 11
20.2388995898
 21
292.5768846875
 31
0.0
  0
LINE
  5
65
100
AcDbEntity
  8
52176991
370
         0
390
0
  6
CONTINUOUS
 62
         7
100
AcDbLine
 10
20.0888995898
 20
301.5768846875
 30
0.0
 11
20.0888995898
 21
295.9768846875
 31
0.0
  0
LINE
  5
66
100
AcDbEntity
  8
52176991
370
         0
390
0
  6
CONTINUOUS
 62
         7
100
AcDbLine
 10
24.0891992739
 20
180.8511448291
 30
0.0
 11
28.3340557571
 21
180.8511448291
 31
0.0
  0
SPLINE
  5
67
100
AcDbEntity
  8
52176991
370
         0
390
0
  6
CONTINUOUS
 62
         7
100
AcDbSpline
210
0.0
220
0.0
230
1.0
 70
        12
 71
         2
 72
         6
 73
         3
 74
         0
 42
0.0
 43
0.0
 40
0.0
 40
0.0
 40
0.0
 40
1.0
 40
1.0
 40
1.0
 10
28.334055757058117
 20
180.19783266392398
 30
0.0
 41
1.0
 10
29.161395591643359
 20
180.03096277801549
 30
0.0
 41
1.0
 10
29.988899589779933
 20
179.86316502834188
 30
0.0
 41
1.0
  0
LINE
  5
68
100
AcDbEntity
  8
52176991
370
         0
390
0
  6
CONTINUOUS
 62
         7
100
AcDbLine
 10
23.9888995898
 20
178.6964892277
 30
0.0
 11
23.9888995898
 21
178.8379344727
 31
0.0
  0
LINE
  5
69
100
AcDbEntity
  8
52176991
370
         0
390
0
  6
CONTINUOUS
 62
         7
100
AcDbLine
 10
25.5357497751
 20
178.3716031461
 30
0.0
 11
25.5357497751
 21
178.5130374283
 31
0.0
  0
LINE
  5
6A
100
AcDbEntity
  8
52176991
370
         0
390
0
  6
CONTINUOUS
 62
         7
100
AcDbLine
 10
20.1388995898
 20
289.5768846875
 30
0.0
 11
20.1402868801
 21
289.5768846875
 31
0.0
  0
LINE
  5
6B
100
AcDbEntity
  8
52176991
370
         0
390
0
  6
CONTINUOUS
 62
         7
100
AcDbLine
 10
30.5325917255
 20
289.5768846875
 30
0.0
 11
30.2938201637
 21
289.5768846875
 31
0.0
  0
LINE
  5
6C
100
AcDbEntity
  8
52176991
370
         0
390
0
  6
CONTINUOUS
 62
         7
100
AcDbLine
 10
23.6839790158
 20
289.5768846875
 30
0.0
 11
23.445207454
 21
289.5768846875
 31
0.0
  0
ELLIPSE
  5
6D
100
AcDbEntity
  8
52176991
370
         0
390
0
  6
CONTINUOUS
 62
         7
100
AcDbEllipse
 10
36.2235217206
 20
109.5768885503
 30
0.0
 11
88.622181961289868
 21
88.704483502810689
 31
0.0
210
0.0
220
0.0
230
1.0
 40
0.4142134259
 41
1.2428015231952201
 42
1.2615102498422124
  0
LINE
  5
6E
100
AcDbEntity
  8
52176991
370
         0
390
0
  6
CONTINUOUS
 62
         7
100
AcDbLine
 10
19.9888995898
 20
244.0768846875
 30
0.0
 11
19.9888995898
 21
245.5768846875
 31
0.0
  0
LINE
  5
6F
100
AcDbEntity
  8
52176991
370
         0
390
0
  6
CONTINUOUS
 62
         7
100
AcDbLine
 10
27.2886573737
 20
171.5433612372
 30
0.0
 11
28.1990300399
 21
171.5433612371
 31
0.0
  0
LINE
  5
70
100
AcDbEntity
  8
52176991
370
         0
390
0
  6
CONTINUOUS
 62
         7
100
AcDbLine
 10
33.8375122995
 20
284.5768846875
 30
0.0
 11
33.8375122995
 21
289.5768846875
 31
0.0
  0
LINE
  5
71
100
AcDbEntity
  8
52176991
370
         0
390
0
  6
CONTINUOUS
 62
         7
100
AcDbLine
 10
30.5325917255
 20
289.5768846875
 30
0.0
 11
30.5325917255
 21
284.5768846875
 31
0.0
  0
LINE
  5
72
100
AcDbEntity
  8
52176991
370
         0
390
0
  6
CONTINUOUS
 62
         7
100
AcDbLine
 10
30.2938201637
 20
284.5768846875
 30
0.0
 11
30.2938201637
 21
289.5768846875
 31
0.0
  0
LINE
  5
73
100
AcDbEntity
  8
52176991
370
         0
390
0
  6
CONTINUOUS
 62
         7
100
AcDbLine
 10
29.9888995898
 20
179.8631650283
 30
0.0
 11
29.9888995898
 21
180.0046782564
 31
0.0
  0
LINE
  5
74
100
AcDbEntity
  8
52176991
370
         0
390
0
  6
CONTINUOUS
 62
         7
100
AcDbLine
 10
23.6839790158
 20
289.5768846875
 30
0.0
 11
23.6839790158
 21
284.5768846875
 31
0.0
  0
LINE
  5
75
100
AcDbEntity
  8
52176991
370
         0
390
0
  6
CONTINUOUS
 62
         7
100
AcDbLine
 10
23.445207454
 20
284.5768846875
 30
0.0
 11
23.445207454
 21
289.5768846875
 31
0.0
  0
LINE
  5
76
100
AcDbEntity
  8
52176991
370
         0
390
0
  6
CONTINUOUS
 62
         7
100
AcDbLine
 10
20.1402868801
 20
289.5768846875
 30
0.0
 11
20.1402868801
 21
284.5768846875
 31
0.0
  0
LINE
  5
77
100
AcDbEntity
  8
52176991
370
         0
390
0
  6
CONTINUOUS
 62
         7
100
AcDbLine
 10
33.7388995898
 20
293.5768846875
 30
0.0
 11
20.2388995898
 21
293.5768846875
 31
0.0
  0
LINE
  5
78
100
AcDbEntity
  8
52176991
370
         0
390
0
  6
CONTINUOUS
 62
         7
100
AcDbLine
 10
23.445207454
 20
289.5768846875
 30
0.0
 11
20.1402868801
 21
289.5768846875
 31
0.0
  0
LINE
  5
79
100
AcDbEntity
  8
52176991
370
         0
390
0
  6
CONTINUOUS
 62
         7
100
AcDbLine
 10
33.8388995898
 20
289.5768846875
 30
0.0
 11
33.8375122995
 21
289.5768846875
 31
0.0
  0
LINE
  5
7A
100
AcDbEntity
  8
52176991
370
         0
390
0
  6
CONTINUOUS
 62
         7
100
AcDbLine
 10
33.7388995898
 20
292.5768846875
 30
0.0
 11
20.2388995898
 21
292.5768846875
 31
0.0
  0
LINE
  5
7B
100
AcDbEntity
  8
52176991
370
         0
390
0
  6
CONTINUOUS
 62
         7
100
AcDbLine
 10
30.2938201637
 20
289.5768846875
 30
0.0
 11
23.6839790158
 21
289.5768846875
 31
0.0
  0
LINE
  5
7C
100
AcDbEntity
  8
52176991
370
         0
390
0
  6
CONTINUOUS
 62
         7
100
AcDbLine
 10
33.8375122995
 20
289.5768846875
 30
0.0
 11
30.5325917255
 21
289.5768846875
 31
0.0
  0
LINE
  5
7D
100
AcDbEntity
  8
52176991
370
         0
390
0
  6
CONTINUOUS
 62
         7
100
AcDbLine
 10
32.9888995898
 20
295.0768846875
 30
0.0
 11
20.9888995898
 21
295.0768846875
 31
0.0
  0
LINE
  5
7E
100
AcDbEntity
  8
52176991
370
         0
390
0
  6
CONTINUOUS
 62
         7
100
AcDbLine
 10
33.8888995898
 20
295.9768846875
 30
0.0
 11
20.0888995898
 21
295.9768846875
 31
0.0
  0
LINE
  5
7F
100
AcDbEntity
  8
52176991
370
         0
390
0
  6
CONTINUOUS
 62
         7
100
AcDbLine
 10
33.8888995898
 20
301.5768846875
 30
0.0
 11
20.0888995898
 21
301.5768846875
 31
0.0
  0
LINE
  5
80
100
AcDbEntity
  8
52176991
370
         0
390
0
  6
CONTINUOUS
 62
         7
100
AcDbLine
 10
20.9888995898
 20
295.0768846875
 30
0.0
 11
20.9888995898
 21
293.5768846875
 31
0.0
  0
LINE
  5
81
100
AcDbEntity
  8
52176991
370
         0
390
0
  6
CONTINUOUS
 62
         7
100
AcDbLine
 10
32.9888995898
 20
295.0768846875
 30
0.0
 11
33.8888995898
 21
295.9768846875
 31
0.0
  0
LINE
  5
82
100
AcDbEntity
  8
52176991
370
         0
390
0
  6
CONTINUOUS
 62
         7
100
AcDbLine
 10
22.9888995898
 20
292.5768846875
 30
0.0
 11
22.9888995898
 21
289.5768846875
 31
0.0
  0
LINE
  5
83
100
AcDbEntity
  8
52176991
370
         0
390
0
  6
CONTINUOUS
 62
         7
100
AcDbLine
 10
20.1388995898
 20
289.5768846875
 30
0.0
 11
20.1388995898
 21
268.5768846875
 31
0.0
  0
LINE
  5
84
100
AcDbEntity
  8
52176991
370
         0
390
0
  6
CONTINUOUS
 62
         7
100
AcDbLine
 10
18.4888995898
 20
268.5768846875
 30
0.0
 11
18.4888995898
 21
254.9429100913
 31
0.0
  0
LINE
  5
85
100
AcDbEntity
  8
52176991
370
         0
390
0
  6
CONTINUOUS
 62
         7
100
AcDbLine
 10
19.9888995898
 20
244.0768846875
 30
0.0
 11
19.9888995898
 21
205.5768846875
 31
0.0
  0
LINE
  5
86
100
AcDbEntity
  8
52176991
370
         0
390
0
  6
CONTINUOUS
 62
         7
100
AcDbLine
 10
33.8375122995
 20
284.5768846875
 30
0.0
 11
30.5325917255
 21
284.5768846875
 31
0.0
  0
LINE
  5
87
100
AcDbEntity
  8
52176991
370
         0
390
0
  6
CONTINUOUS
 62
         7
100
AcDbLine
 10
35.4888995898
 20
254.9429100913
 30
0.0
 11
33.9888995898
 21
254.0768846875
 31
0.0
  0
LINE
  5
88
100
AcDbEntity
  8
52176991
370
         0
390
0
  6
CONTINUOUS
 62
         7
100
AcDbLine
 10
19.9888995898
 20
254.0768846875
 30
0.0
 11
18.4888995898
 21
254.9429100913
 31
0.0
  0
ARC
  5
89
100
AcDbEntity
  8
52176991
370
         0
390
0
  6
CONTINUOUS
 62
         7
100
AcDbCircle
 10
26.9888995892
 20
301.3283784285
 30
0.0
 40
96.0070234598
100
AcDbArc
 50
265.818778174
 51
274.1812215538
  0
LINE
  5
8A
100
AcDbEntity
  8
52176991
370
         0
390
0
  6
CONTINUOUS
 62
         7
100
AcDbLine
 10
19.9888995898
 20
245.5768846875
 30
0.0
 11
19.9888995898
 21
254.0768846875
 31
0.0
  0
LINE
  5
8B
100
AcDbEntity
  8
52176991
370
         0
390
0
  6
CONTINUOUS
 62
         7
100
AcDbLine
 10
33.9888995898
 20
254.0768846875
 30
0.0
 11
33.9888995898
 21
245.5768846875
 31
0.0
  0
CIRCLE
  5
8C
100
AcDbEntity
  8
52176991
370
         0
390
0
  6
CONTINUOUS
 62
         7
100
AcDbCircle
 10
26.9888995898
 20
109.5768846875
 30
0.0
 40
6.9
  0
LINE
  5
8D
100
AcDbEntity
  8
52176991
370
         0
390
0
  6
CONTINUOUS
 62
         7
100
AcDbLine
 10
30.2938201637
 20
284.5768846875
 30
0.0
 11
23.6839790158
 21
284.5768846875
 31
0.0
  0
LINE
  5
8E
100
AcDbEntity
  8
52176991
370
         0
390
0
  6
CONTINUOUS
 62
         7
100
AcDbLine
 10
35.4888995898
 20
268.5768846875
 30
0.0
 11
18.4888995898
 21
268.5768846875
 31
0.0
  0
LINE
  5
8F
100
AcDbEntity
  8
52176991
370
         0
390
0
  6
CONTINUOUS
 62
         7
100
AcDbLine
 10
33.9888995898
 20
245.5768846875
 30
0.0
 11
33.9888995898
 21
244.0768846875
 31
0.0
  0
LINE
  5
90
100
AcDbEntity
  8
52176991
370
         0
390
0
  6
CONTINUOUS
 62
         7
100
AcDbLine
 10
17.9888995898
 20
13.5768846875
 30
0.0
 11
17.9888995898
 21
205.5768846875
 31
0.0
  0
LINE
  5
91
100
AcDbEntity
  8
52176991
370
         0
390
0
  6
CONTINUOUS
 62
         7
100
AcDbLine
 10
35.9888995898
 20
13.5768846875
 30
0.0
 11
35.9888995898
 21
205.5768846875
 31
0.0
  0
LINE
  5
92
100
AcDbEntity
  8
52176991
370
         0
390
0
  6
CONTINUOUS
 62
         7
100
AcDbLine
 10
33.9888995898
 20
244.0768846875
 30
0.0
 11
19.9888995898
 21
244.0768846875
 31
0.0
  0
LINE
  5
93
100
AcDbEntity
  8
52176991
370
         0
390
0
  6
CONTINUOUS
 62
         7
100
AcDbLine
 10
33.9888995898
 20
245.5768846875
 30
0.0
 11
19.9888995898
 21
245.5768846875
 31
0.0
  0
LINE
  5
94
100
AcDbEntity
  8
52176991
370
         0
390
0
  6
CONTINUOUS
 62
         7
100
AcDbLine
 10
23.9888995898
 20
182.1806239978
 30
0.0
 11
23.9888995898
 21
180.9927521443
 31
0.0
  0
ELLIPSE
  5
95
100
AcDbEntity
  8
52176991
370
         0
390
0
  6
CONTINUOUS
 62
         7
100
AcDbEllipse
 10
36.2235228891
 20
109.5768783002
 30
0.0
 11
88.806817314702798
 21
88.88929464363413
 31
0.0
210
0.0
220
0.0
230
1.0
 40
0.4142134531
 41
1.2426660966669607
 42
1.261335709806801
  0
ELLIPSE
  5
96
100
AcDbEntity
  8
52176991
370
         0
390
0
  6
CONTINUOUS
 62
         7
100
AcDbEllipse
 10
23.7542772085
 20
109.5768869408
 30
0.0
 11
-88.806812454667792
 21
88.889286113726655
 31
0.0
210
0.0
220
0.0
230
1.0
 40
0.4142134305
 41
5.0405191816940578
 42
5.0591661682948867
  0
LINE
  5
97
100
AcDbEntity
  8
52176991
370
         0
390
0
  6
CONTINUOUS
 62
         7
100
AcDbLine
 10
28.1990300399
 20
174.3828376799
 30
0.0
 11
27.2886573737
 21
174.3828376799
 31
0.0
  0
LINE
  5
98
100
AcDbEntity
  8
52176991
370
         0
390
0
  6
CONTINUOUS
 62
         7
100
AcDbLine
 10
29.9888995898
 20
172.9042032177
 30
0.0
 11
29.9888995898
 21
173.0459235281
 31
0.0
  0
LINE
  5
99
100
AcDbEntity
  8
52176991
370
         0
390
0
  6
CONTINUOUS
 62
         7
100
AcDbLine
 10
27.2886573737
 20
171.5433612372
 30
0.0
 11
27.2886573737
 21
171.6852788718
 31
0.0
  0
LINE
  5
9A
100
AcDbEntity
  8
52176991
370
         0
390
0
  6
CONTINUOUS
 62
         7
100
AcDbLine
 10
28.1990300399
 20
171.5433612371
 30
0.0
 11
28.1990300399
 21
171.6852788718
 31
0.0
  0
LINE
  5
9B
100
AcDbEntity
  8
52176991
370
         0
390
0
  6
CONTINUOUS
 62
         7
100
AcDbLine
 10
23.445207454
 20
284.5768846875
 30
0.0
 11
20.1402868801
 21
284.5768846875
 31
0.0
  0
LINE
  5
9C
100
AcDbEntity
  8
52176991
370
         0
390
0
  6
CONTINUOUS
 62
         7
100
AcDbLine
 10
23.9888995898
 20
180.9927521443
 30
0.0
 11
28.3340557571
 21
180.9927521442
 31
0.0
  0
LINE
  5
9D
100
AcDbEntity
  8
52176991
370
         0
390
0
  6
CONTINUOUS
 62
         7
100
AcDbLine
 10
28.3340557571
 20
180.9927521442
 30
0.0
 11
28.3340557571
 21
180.339373913
 31
0.0
  0
SPLINE
  5
9E
100
AcDbEntity
  8
52176991
370
         0
390
0
  6
CONTINUOUS
 62
         7
100
AcDbSpline
210
0.0
220
0.0
230
1.0
 70
        12
 71
         2
 72
         6
 73
         3
 74
         0
 42
0.0
 43
0.0
 40
0.0
 40
0.0
 40
0.0
 40
1.0
 40
1.0
 40
1.0
 10
28.334055757059225
 20
180.33937391303428
 30
0.0
 41
1.0
 10
29.161395933100778
 20
180.17248901475998
 30
0.0
 41
1.0
 10
29.988899589775354
 20
180.00467825639646
 30
0.0
 41
1.0
  0
LINE
  5
9F
100
AcDbEntity
  8
52176991
370
         0
390
0
  6
CONTINUOUS
 62
         7
100
AcDbLine
 10
23.9888995898
 20
180.87117129
 30
0.0
 11
23.9888995898
 21
180.9927521443
 31
0.0
  0
LINE
  5
A0
100
AcDbEntity
  8
52176991
370
         0
390
0
  6
CONTINUOUS
 62
         7
100
AcDbLine
 10
28.3340557571
 20
180.1978326639
 30
0.0
 11
28.3340557571
 21
180.339373913
 31
0.0
  0
LINE
  5
A1
100
AcDbEntity
  8
52176991
370
         0
390
0
  6
CONTINUOUS
 62
         7
100
AcDbLine
 10
29.9888995898
 20
180.0046782564
 30
0.0
 11
29.9888995898
 21
182.7253487023
 31
0.0
  0
LINE
  5
A2
100
AcDbEntity
  8
52176991
370
         0
390
0
  6
CONTINUOUS
 62
         7
100
AcDbLine
 10
28.3340557571
 20
182.1806239978
 30
0.0
 11
23.9888995898
 21
182.1806239978
 31
0.0
  0
SPLINE
  5
A3
100
AcDbEntity
  8
52176991
370
         0
390
0
  6
CONTINUOUS
 62
         7
100
AcDbSpline
210
0.0
220
0.0
230
1.0
 70
        12
 71
         2
 72
         6
 73
         3
 74
         0
 42
0.0
 43
0.0
 40
0.0
 40
0.0
 40
0.0
 40
1.0
 40
1.0
 40
1.0
 10
29.988899589779894
 20
182.72534870228188
 30
0.0
 41
1.0
 10
29.161307389805639
 20
182.88368300942366
 30
0.0
 41
1.0
 10
28.334055757043284
 20
183.04107577308909
 30
0.0
 41
1.0
  0
LINE
  5
A4
100
AcDbEntity
  8
52176991
370
         0
390
0
  6
CONTINUOUS
 62
         7
100
AcDbLine
 10
28.3340557571
 20
183.041075773
 30
0.0
 11
28.3340557571
 21
182.1806239977
 31
0.0
  0
ELLIPSE
  5
A5
100
AcDbEntity
  8
52176991
370
         0
390
0
  6
CONTINUOUS
 62
         7
100
AcDbEllipse
 10
28.0526811773
 20
109.5768844821
 30
0.0
 11
323.61147572533764
 21
70.948969630042669
 31
0.0
210
0.0
220
0.0
230
1.0
 40
0.2007555185
 41
1.5208334276352811
 42
1.5393566112566022
  0
LINE
  5
A6
100
AcDbEntity
  8
52176991
370
         0
390
0
  6
CONTINUOUS
 62
         7
100
AcDbLine
 10
27.2886573737
 20
172.6416822509
 30
0.0
 11
27.2886573737
 21
171.6852788717
 31
0.0
  0
LINE
  5
A7
100
AcDbEntity
  8
52176991
370
         0
390
0
  6
CONTINUOUS
 62
         7
100
AcDbLine
 10
27.2886573737
 20
174.3828376799
 30
0.0
 11
27.2886573737
 21
173.448747495
 31
0.0
  0
LINE
  5
A8
100
AcDbEntity
  8
52176991
370
         0
390
0
  6
CONTINUOUS
 62
         7
100
AcDbLine
 10
27.2886573737
 20
173.448747495
 30
0.0
 11
23.9888995898
 21
173.448747495
 31
0.0
  0
LINE
  5
A9
100
AcDbEntity
  8
52176991
370
         0
390
0
  6
CONTINUOUS
 62
         7
100
AcDbLine
 10
23.9888995898
 20
173.448747495
 30
0.0
 11
23.9888995898
 21
172.6416822509
 31
0.0
  0
LINE
  5
AA
100
AcDbEntity
  8
52176991
370
         0
390
0
  6
CONTINUOUS
 62
         7
100
AcDbLine
 10
35.9888995898
 20
205.5768846875
 30
0.0
 11
33.9838115477
 21
205.5768846875
 31
0.0
  0
LINE
  5
AB
100
AcDbEntity
  8
52176991
370
         0
390
0
  6
CONTINUOUS
 62
         7
100
AcDbLine
 10
23.9888995898
 20
172.4999082277
 30
0.0
 11
23.9888995898
 21
172.6416822509
 31
0.0
  0
LINE
  5
AC
100
AcDbEntity
  8
52176991
370
         0
390
0
  6
CONTINUOUS
 62
         7
100
AcDbLine
 10
27.2886573737
 20
171.6852788718
 30
0.0
 11
28.1990300399
 21
171.6852788718
 31
0.0
  0
LINE
  5
AD
100
AcDbEntity
  8
52176991
370
         0
390
0
  6
CONTINUOUS
 62
         7
100
AcDbLine
 10
23.9888995898
 20
178.8379344727
 30
0.0
 11
23.9888995898
 21
180.8711712899
 31
0.0
  0
SPLINE
  5
AE
100
AcDbEntity
  8
52176991
370
         0
390
0
  6
CONTINUOUS
 62
         7
100
AcDbSpline
210
0.0
220
0.0
230
1.0
 70
        12
 71
         2
 72
         6
 73
         3
 74
         0
 42
0.0
 43
0.0
 40
0.0
 40
0.0
 40
0.0
 40
1.0
 40
1.0
 40
1.0
 10
25.535749775067657
 20
178.5130374282999
 30
0.0
 41
1.0
 10
24.762294770995116
 20
178.67589299811442
 30
0.0
 41
1.0
 10
23.988899589760837
 20
178.837934472749
 30
0.0
 41
1.0
  0
LINE
  5
AF
100
AcDbEntity
  8
52176991
370
         0
390
0
  6
CONTINUOUS
 62
         7
100
AcDbLine
 10
25.5357497751
 20
179.3233679443
 30
0.0
 11
25.5357497751
 21
178.5130374281
 31
0.0
  0
ELLIPSE
  5
B0
100
AcDbEntity
  8
52176991
370
         0
390
0
  6
CONTINUOUS
 62
         7
100
AcDbEllipse
 10
35.9665027502
 20
109.5768084424
 30
0.0
 11
-406.40596935497393
 21
69.899121007421783
 31
0.0
210
0.0
220
0.0
230
1.0
 40
0.1626333053
 41
4.7587135126794093
 42
4.7660121606337515
  0
LINE
  5
B1
100
AcDbEntity
  8
52176991
370
         0
390
0
  6
CONTINUOUS
 62
         7
100
AcDbLine
 10
23.9888995898
 20
172.6416822509
 30
0.0
 11
27.2886573737
 21
172.6416822509
 31
0.0
  0
CIRCLE
  5
B2
100
AcDbEntity
  8
52176991
370
         0
390
0
  6
CONTINUOUS
 62
         7
100
AcDbCircle
 10
26.9888995898
 20
109.5768846875
 30
0.0
 40
8.5
  0
LINE
  5
B3
100
AcDbEntity
  8
52176991
370
         0
390
0
  6
CONTINUOUS
 62
         7
100
AcDbLine
 10
29.9888995898
 20
179.6616673802
 30
0.0
 11
29.9888995898
 21
178.005944509
 31
0.0
  0
ELLIPSE
  5
B4
100
AcDbEntity
  8
52176991
370
         0
390
0
  6
CONTINUOUS
 62
         7
100
AcDbEllipse
 10
39.9572032747
 20
109.5768861008
 30
0.0
 11
-323.61147201922131
 21
70.948968684865619
 31
0.0
210
0.0
220
0.0
230
1.0
 40
0.2007555162
 41
4.7871528464362392
 42
4.8056907942998102
  0
LINE
  5
B5
100
AcDbEntity
  8
52176991
370
         0
390
0
  6
CONTINUOUS
 62
         7
100
AcDbLine
 10
29.9888995898
 20
177.864520621
 30
0.0
 11
29.9888995898
 21
178.005944509
 31
0.0
  0
LINE
  5
B6
100
AcDbEntity
  8
52176991
370
         0
390
0
  6
CONTINUOUS
 62
         7
100
AcDbLine
 10
23.9888995898
 20
176.6003837755
 30
0.0
 11
23.9888995898
 21
176.7418162853
 31
0.0
  0
LINE
  5
B7
100
AcDbEntity
  8
52176991
370
         0
390
0
  6
CONTINUOUS
 62
         7
100
AcDbLine
 10
23.9888995898
 20
176.7418162853
 30
0.0
 11
23.9888995898
 21
178.0862681278
 31
0.0
  0
ELLIPSE
  5
B8
100
AcDbEntity
  8
52176991
370
         0
390
0
  6
CONTINUOUS
 62
         7
100
AcDbEllipse
 10
21.0992386023
 20
109.5768299303
 30
0.0
 11
403.08268217374177
 21
69.929590021539383
 31
0.0
210
0.0
220
0.0
230
1.0
 40
0.1638941061
 41
1.5240105268864348
 42
1.5352044259495854
  0
ELLIPSE
  5
B9
100
AcDbEntity
  8
52176991
370
         0
390
0
  6
CONTINUOUS
 62
         7
100
AcDbEllipse
 10
35.9664822024
 20
109.5769712045
 30
0.0
 11
-405.5605750971568
 21
69.753710727904007
 31
0.0
210
0.0
220
0.0
230
1.0
 40
0.1626331155
 41
4.7598088891069716
 42
4.7660655715181299
  0
ELLIPSE
  5
BA
100
AcDbEntity
  8
52176991
370
         0
390
0
  6
CONTINUOUS
 62
         7
100
AcDbEllipse
 10
28.0526812756
 20
109.5768810352
 30
0.0
 11
322.9386950264838
 21
70.801468518299004
 31
0.0
210
0.0
220
0.0
230
1.0
 40
0.2007555236
 41
1.5208209738087877
 42
1.5393827484463931
  0
LINE
  5
BB
100
AcDbEntity
  8
52176991
370
         0
390
0
  6
CONTINUOUS
 62
         7
100
AcDbLine
 10
35.4888995898
 20
254.9429100913
 30
0.0
 11
35.4888995898
 21
268.5768846875
 31
0.0
  0
LINE
  5
BC
100
AcDbEntity
  8
52176991
370
         0
390
0
  6
CONTINUOUS
 62
         7
100
AcDbLine
 10
33.8388995898
 20
268.5768846875
 30
0.0
 11
33.8388995898
 21
289.5768846875
 31
0.0
  0
LINE
  5
BD
100
AcDbEntity
  8
52176991
370
         0
390
0
  6
CONTINUOUS
 62
         7
100
AcDbLine
 10
30.9888995898
 20
289.5768846875
 30
0.0
 11
30.9888995898
 21
292.5768846875
 31
0.0
  0
LINE
  5
BE
100
AcDbEntity
  8
52176991
370
         0
390
0
  6
CONTINUOUS
 62
         7
100
AcDbLine
 10
20.0888995898
 20
295.9768846875
 30
0.0
 11
20.9888995898
 21
295.0768846875
 31
0.0
  0
LINE
  5
BF
100
AcDbEntity
  8
52176991
370
         0
390
0
  6
CONTINUOUS
 62
         7
100
AcDbLine
 10
33.8888995898
 20
295.9768846875
 30
0.0
 11
33.8888995898
 21
301.5768846875
 31
0.0
  0
LINE
  5
C0
100
AcDbEntity
  8
52176991
370
         0
390
0
  6
CONTINUOUS
 62
         7
100
AcDbLine
 10
33.7388995898
 20
292.5768846875
 30
0.0
 11
33.7388995898
 21
293.5768846875
 31
0.0
  0
LINE
  5
C1
100
AcDbEntity
  8
52176991
370
         0
390
0
  6
CONTINUOUS
 62
         7
100
AcDbLine
 10
32.9888995898
 20
293.5768846875
 30
0.0
 11
32.9888995898
 21
295.0768846875
 31
0.0
  0
LINE
  5
C2
100
AcDbEntity
  8
52176991
370
         0
390
0
  6
CONTINUOUS
 62
         7
100
AcDbLine
 10
17.9888995898
 20
13.5768846875
 30
0.0
 11
35.9888995898
 21
13.5768846875
 31
0.0
  0
LINE
  5
C3
100
AcDbEntity
  8
52176991
370
         0
390
0
  6
CONTINUOUS
 62
         7
100
AcDbLine
 10
23.9888995898
 20
172.4999082277
 30
0.0
 11
27.2886573737
 21
172.4999082277
 31
0.0
  0
SPLINE
  5
C4
100
AcDbEntity
  8
52176991
370
         0
390
0
  6
CONTINUOUS
 62
         7
100
AcDbSpline
210
0.0
220
0.0
230
1.0
 70
        12
 71
         2
 72
         6
 73
         3
 74
         0
 42
0.0
 43
0.0
 40
0.0
 40
0.0
 40
0.0
 40
1.0
 40
1.0
 40
1.0
 10
25.535749775058957
 20
178.37160314615886
 30
0.0
 41
1.0
 10
24.762294646198765
 20
178.53445409610555
 30
0.0
 41
1.0
 10
23.988899589772156
 20
178.69648922773339
 30
0.0
 41
1.0
  0
ENDBLK
  5
C5
100
AcDbEntity
  8
52176991
370
         0
390
0
  6
CONTINUOUS
 62
         7
100
AcDbBlockEnd
  0
BLOCK
  5
FE
100
AcDbEntity
  8
0
370
         0
390
0
 62
         1
 48
0.0
100
AcDbBlockBegin
  2
SE2
 70
         0
 10
0.0
 20
0.0
 30
0.0
  3
SE2
  1

  0
ENDBLK
  5
FF
100
AcDbEntity
  8
0
370
         0
390
0
 62
         1
 48
0.0
100
AcDbBlockEnd
  0
BLOCK
  5
C8
100
AcDbEntity
  8
0
370
         0
390
0
 62
         1
 48
0.0
100
AcDbBlockBegin
  2
SE3
 70
         0
 10
0.0
 20
0.0
 30
0.0
  3
SE3
  1

  0
LINE
  5
C9
100
AcDbEntity
  8
52176991
370
         0
390
0
  6
CONTINUOUS
 62
         7
100
AcDbLine
 10
20.0888995898
 20
674.3510639309
 30
0.0
 11
20.9888995898
 21
673.4510639309
 31
0.0
  0
LINE
  5
CA
100
AcDbEntity
  8
52176991
370
         0
390
0
  6
CONTINUOUS
 62
         7
100
AcDbLine
 10
33.8375122995
 20
662.9510639309
 30
0.0
 11
30.5325917255
 21
662.9510639309
 31
0.0
  0
LINE
  5
CB
100
AcDbEntity
  8
52176991
370
         0
390
0
  6
CONTINUOUS
 62
         7
100
AcDbLine
 10
20.1402868801
 20
667.9510639309
 30
0.0
 11
20.1402868801
 21
662.9510639309
 31
0.0
  0
LINE
  5
CC
100
AcDbEntity
  8
52176991
370
         0
390
0
  6
CONTINUOUS
 62
         7
100
AcDbLine
 10
23.445207454
 20
662.9510639309
 30
0.0
 11
23.445207454
 21
667.9510639309
 31
0.0
  0
LINE
  5
CD
100
AcDbEntity
  8
52176991
370
         0
390
0
  6
CONTINUOUS
 62
         7
100
AcDbLine
 10
23.6839790158
 20
667.9510639309
 30
0.0
 11
23.6839790158
 21
662.9510639309
 31
0.0
  0
LINE
  5
CE
100
AcDbEntity
  8
52176991
370
         0
390
0
  6
CONTINUOUS
 62
         7
100
AcDbLine
 10
30.2938201637
 20
662.9510639309
 30
0.0
 11
30.2938201637
 21
667.9510639309
 31
0.0
  0
LINE
  5
CF
100
AcDbEntity
  8
52176991
370
         0
390
0
  6
CONTINUOUS
 62
         7
100
AcDbLine
 10
30.5325917255
 20
667.9510639309
 30
0.0
 11
30.5325917255
 21
662.9510639309
 31
0.0
  0
LINE
  5
D0
100
AcDbEntity
  8
52176991
370
         0
390
0
  6
CONTINUOUS
 62
         7
100
AcDbLine
 10
33.8888995898
 20
674.3510639309
 30
0.0
 11
33.8888995898
 21
679.9510639309
 31
0.0
  0
LINE
  5
D1
100
AcDbEntity
  8
52176991
370
         0
390
0
  6
CONTINUOUS
 62
         7
100
AcDbLine
 10
33.9888995898
 20
622.4510639309
 30
0.0
 11
19.9888995898
 21
622.4510639309
 31
0.0
  0
LINE
  5
D2
100
AcDbEntity
  8
52176991
370
         0
390
0
  6
CONTINUOUS
 62
         7
100
AcDbLine
 10
33.9888995898
 20
632.4510639309
 30
0.0
 11
33.9888995898
 21
623.9510639309
 31
0.0
  0
LINE
  5
D3
100
AcDbEntity
  8
52176991
370
         0
390
0
  6
CONTINUOUS
 62
         7
100
AcDbLine
 10
19.9888995898
 20
623.9510639309
 30
0.0
 11
19.9888995898
 21
632.4510639309
 31
0.0
  0
LINE
  5
D4
100
AcDbEntity
  8
52176991
370
         0
390
0
  6
CONTINUOUS
 62
         7
100
AcDbLine
 10
20.0888995898
 20
679.9510639309
 30
0.0
 11
20.0888995898
 21
674.3510639309
 31
0.0
  0
LINE
  5
D5
100
AcDbEntity
  8
52176991
370
         0
390
0
  6
CONTINUOUS
 62
         7
100
AcDbLine
 10
32.9888995898
 20
673.4510639309
 30
0.0
 11
33.8888995898
 21
674.3510639309
 31
0.0
  0
LINE
  5
D6
100
AcDbEntity
  8
52176991
370
         0
390
0
  6
CONTINUOUS
 62
         7
100
AcDbLine
 10
18.4888995898
 20
646.9510639309
 30
0.0
 11
35.4888995898
 21
646.9510639309
 31
0.0
  0
LINE
  5
D7
100
AcDbEntity
  8
52176991
370
         0
390
0
  6
CONTINUOUS
 62
         7
100
AcDbLine
 10
20.2388995898
 20
671.9510639309
 30
0.0
 11
20.2388995898
 21
670.9510639309
 31
0.0
  0
LINE
  5
D8
100
AcDbEntity
  8
52176991
370
         0
390
0
  6
CONTINUOUS
 62
         7
100
AcDbLine
 10
20.9888995898
 20
673.4510639309
 30
0.0
 11
20.9888995898
 21
671.9510639309
 31
0.0
  0
LINE
  5
D9
100
AcDbEntity
  8
52176991
370
         0
390
0
  6
CONTINUOUS
 62
         7
100
AcDbLine
 10
22.9888995898
 20
670.9510639309
 30
0.0
 11
22.9888995898
 21
667.9510639309
 31
0.0
  0
LINE
  5
DA
100
AcDbEntity
  8
52176991
370
         0
390
0
  6
CONTINUOUS
 62
         7
100
AcDbLine
 10
20.1388995898
 20
667.9510639309
 30
0.0
 11
20.1388995898
 21
646.9510639309
 31
0.0
  0
LINE
  5
DB
100
AcDbEntity
  8
52176991
370
         0
390
0
  6
CONTINUOUS
 62
         7
100
AcDbLine
 10
19.9888995898
 20
583.9510639309
 30
0.0
 11
17.9888995898
 21
583.9510639309
 31
0.0
  0
LINE
  5
DC
100
AcDbEntity
  8
52176991
370
         0
390
0
  6
CONTINUOUS
 62
         7
100
AcDbLine
 10
18.4888995898
 20
646.9510639309
 30
0.0
 11
18.4888995898
 21
633.3170893347
 31
0.0
  0
LINE
  5
DD
100
AcDbEntity
  8
52176991
370
         0
390
0
  6
CONTINUOUS
 62
         7
100
AcDbLine
 10
19.9888995898
 20
622.4510639309
 30
0.0
 11
19.9888995898
 21
583.9510639309
 31
0.0
  0
LINE
  5
DE
100
AcDbEntity
  8
52176991
370
         0
390
0
  6
CONTINUOUS
 62
         7
100
AcDbLine
 10
35.9888995898
 20
583.9510639309
 30
0.0
 11
35.9888995898
 21
391.9510639309
 31
0.0
  0
LINE
  5
DF
100
AcDbEntity
  8
52176991
370
         0
390
0
  6
CONTINUOUS
 62
         7
100
AcDbLine
 10
17.9888995898
 20
583.9510639309
 30
0.0
 11
17.9888995898
 21
391.9510639309
 31
0.0
  0
LINE
  5
E0
100
AcDbEntity
  8
52176991
370
         0
390
0
  6
CONTINUOUS
 62
         7
100
AcDbLine
 10
35.9888995898
 20
583.9510639309
 30
0.0
 11
33.9838115477
 21
583.9510639309
 31
0.0
  0
LINE
  5
E1
100
AcDbEntity
  8
52176991
370
         0
390
0
  6
CONTINUOUS
 62
         7
100
AcDbLine
 10
33.9888995898
 20
623.9510639309
 30
0.0
 11
19.9888995898
 21
623.9510639309
 31
0.0
  0
LINE
  5
E2
100
AcDbEntity
  8
52176991
370
         0
390
0
  6
CONTINUOUS
 62
         7
100
AcDbLine
 10
19.9888995898
 20
632.4510639309
 30
0.0
 11
18.4888995898
 21
633.3170893347
 31
0.0
  0
LINE
  5
E3
100
AcDbEntity
  8
52176991
370
         0
390
0
  6
CONTINUOUS
 62
         7
100
AcDbLine
 10
19.9888995898
 20
622.4510639309
 30
0.0
 11
19.9888995898
 21
623.9510639309
 31
0.0
  0
LINE
  5
E4
100
AcDbEntity
  8
52176991
370
         0
390
0
  6
CONTINUOUS
 62
         7
100
AcDbLine
 10
33.9888995898
 20
623.9510639309
 30
0.0
 11
33.9888995898
 21
622.4510639309
 31
0.0
  0
LINE
  5
E5
100
AcDbEntity
  8
52176991
370
         0
390
0
  6
CONTINUOUS
 62
         7
100
AcDbLine
 10
35.4888995898
 20
633.3170893347
 30
0.0
 11
33.9888995898
 21
632.4510639309
 31
0.0
  0
LINE
  5
E6
100
AcDbEntity
  8
52176991
370
         0
390
0
  6
CONTINUOUS
 62
         7
100
AcDbLine
 10
20.1402868801
 20
667.9510639309
 30
0.0
 11
20.1388995898
 21
667.9510639309
 31
0.0
  0
LINE
  5
E7
100
AcDbEntity
  8
52176991
370
         0
390
0
  6
CONTINUOUS
 62
         7
100
AcDbLine
 10
33.8375122995
 20
667.9510639309
 30
0.0
 11
30.5325917255
 21
667.9510639309
 31
0.0
  0
LINE
  5
E8
100
AcDbEntity
  8
52176991
370
         0
390
0
  6
CONTINUOUS
 62
         7
100
AcDbLine
 10
33.8388995898
 20
667.9510639309
 30
0.0
 11
33.8375122995
 21
667.9510639309
 31
0.0
  0
LINE
  5
E9
100
AcDbEntity
  8
52176991
370
         0
390
0
  6
CONTINUOUS
 62
         7
100
AcDbLine
 10
23.445207454
 20
667.9510639309
 30
0.0
 11
20.1402868801
 21
667.9510639309
 31
0.0
  0
LINE
  5
EA
100
AcDbEntity
  8
52176991
370
         0
390
0
  6
CONTINUOUS
 62
         7
100
AcDbLine
 10
30.2938201637
 20
667.9510639309
 30
0.0
 11
23.6839790158
 21
667.9510639309
 31
0.0
  0
LINE
  5
EB
100
AcDbEntity
  8
52176991
370
         0
390
0
  6
CONTINUOUS
 62
         7
100
AcDbLine
 10
20.9888995898
 20
673.4510639309
 30
0.0
 11
32.9888995898
 21
673.4510639309
 31
0.0
  0
ARC
  5
EC
100
AcDbEntity
  8
52176991
370
         0
390
0
  6
CONTINUOUS
 62
         7
100
AcDbCircle
 10
26.9888995892
 20
679.7025576719
 30
0.0
 40
96.0070234598
100
AcDbArc
 50
265.818778174
 51
274.1812215538
  0
LINE
  5
ED
100
AcDbEntity
  8
52176991
370
         0
390
0
  6
CONTINUOUS
 62
         7
100
AcDbLine
 10
32.9888995898
 20
671.9510639309
 30
0.0
 11
32.9888995898
 21
673.4510639309
 31
0.0
  0
LINE
  5
EE
100
AcDbEntity
  8
52176991
370
         0
390
0
  6
CONTINUOUS
 62
         7
100
AcDbLine
 10
30.9888995898
 20
667.9510639309
 30
0.0
 11
30.9888995898
 21
670.9510639309
 31
0.0
  0
LINE
  5
EF
100
AcDbEntity
  8
52176991
370
         0
390
0
  6
CONTINUOUS
 62
         7
100
AcDbLine
 10
33.8388995898
 20
646.9510639309
 30
0.0
 11
33.8388995898
 21
667.9510639309
 31
0.0
  0
LINE
  5
F0
100
AcDbEntity
  8
52176991
370
         0
390
0
  6
CONTINUOUS
 62
         7
100
AcDbLine
 10
20.0888995898
 20
679.9510639309
 30
0.0
 11
33.8888995898
 21
679.9510639309
 31
0.0
  0
LINE
  5
F1
100
AcDbEntity
  8
52176991
370
         0
390
0
  6
CONTINUOUS
 62
         7
100
AcDbLine
 10
33.7388995898
 20
670.9510639309
 30
0.0
 11
33.7388995898
 21
671.9510639309
 31
0.0
  0
LINE
  5
F2
100
AcDbEntity
  8
52176991
370
         0
390
0
  6
CONTINUOUS
 62
         7
100
AcDbLine
 10
20.0888995898
 20
674.3510639309
 30
0.0
 11
33.8888995898
 21
674.3510639309
 31
0.0
  0
LINE
  5
F3
100
AcDbEntity
  8
52176991
370
         0
390
0
  6
CONTINUOUS
 62
         7
100
AcDbLine
 10
17.9888995898
 20
391.9510639309
 30
0.0
 11
35.9888995898
 21
391.9510639309
 31
0.0
  0
LINE
  5
F4
100
AcDbEntity
  8
52176991
370
         0
390
0
  6
CONTINUOUS
 62
         7
100
AcDbLine
 10
33.8375122995
 20
662.9510639309
 30
0.0
 11
33.8375122995
 21
667.9510639309
 31
0.0
  0
LINE
  5
F5
100
AcDbEntity
  8
52176991
370
         0
390
0
  6
CONTINUOUS
 62
         7
100
AcDbLine
 10
20.2388995898
 20
670.9510639309
 30
0.0
 11
33.7388995898
 21
670.9510639309
 31
0.0
  0
LINE
  5
F6
100
AcDbEntity
  8
52176991
370
         0
390
0
  6
CONTINUOUS
 62
         7
100
AcDbLine
 10
20.2388995898
 20
671.9510639309
 30
0.0
 11
33.7388995898
 21
671.9510639309
 31
0.0
  0
LINE
  5
F7
100
AcDbEntity
  8
52176991
370
         0
390
0
  6
CONTINUOUS
 62
         7
100
AcDbLine
 10
33.9888995898
 20
583.9506911662
 30
0.0
 11
33.9888995898
 21
622.4510639309
 31
0.0
  0
LINE
  5
F8
100
AcDbEntity
  8
52176991
370
         0
390
0
  6
CONTINUOUS
 62
         7
100
AcDbLine
 10
35.4888995898
 20
633.3170893347
 30
0.0
 11
35.4888995898
 21
646.9510639309
 31
0.0
  0
LINE
  5
F9
100
AcDbEntity
  8
52176991
370
         0
390
0
  6
CONTINUOUS
 62
         7
100
AcDbLine
 10
23.6839790158
 20
667.9510639309
 30
0.0
 11
23.445207454
 21
667.9510639309
 31
0.0
  0
LINE
  5
FA
100
AcDbEntity
  8
52176991
370
         0
390
0
  6
CONTINUOUS
 62
         7
100
AcDbLine
 10
30.5325917255
 20
667.9510639309
 30
0.0
 11
30.2938201637
 21
667.9510639309
 31
0.0
  0
LINE
  5
FB
100
AcDbEntity
  8
52176991
370
         0
390
0
  6
CONTINUOUS
 62
         7
100
AcDbLine
 10
23.445207454
 20
662.9510639309
 30
0.0
 11
20.1402868801
 21
662.9510639309
 31
0.0
  0
LINE
  5
FC
100
AcDbEntity
  8
52176991
370
         0
390
0
  6
CONTINUOUS
 62
         7
100
AcDbLine
 10
30.2938201637
 20
662.9510639309
 30
0.0
 11
23.6839790158
 21
662.9510639309
 31
0.0
  0
ENDBLK
  5
FD
100
AcDbEntity
  8
52176991
370
         0
390
0
  6
CONTINUOUS
 62
         7
100
AcDbBlockEnd
  0
BLOCK
  5
17D
100
AcDbEntity
  8
0
370
         0
390
0
 62
         1
 48
0.0
100
AcDbBlockBegin
  2
SE4
 70
         0
 10
0.0
 20
0.0
 30
0.0
  3
SE4
  1

  0
ENDBLK
  5
17E
100
AcDbEntity
  8
0
370
         0
390
0
 62
         1
 48
0.0
100
AcDbBlockEnd
  0
BLOCK
  5
100
100
AcDbEntity
  8
0
370
         0
390
0
 62
         1
 48
0.0
100
AcDbBlockBegin
  2
SE5
 70
         0
 10
0.0
 20
0.0
 30
0.0
  3
SE5
  1

  0
LINE
  5
101
100
AcDbEntity
  8
52176991
370
         0
390
0
  6
CONTINUOUS
 62
         7
100
AcDbLine
 10
321.9390202965
 20
667.9510639309
 30
0.0
 11
321.9390202965
 21
662.9510639309
 31
0.0
  0
LINE
  5
102
100
AcDbEntity
  8
52176991
370
         0
390
0
  6
CONTINUOUS
 62
         7
100
AcDbLine
 10
181.4390202965
 20
494.9510639309
 30
0.0
 11
179.9390202965
 21
496.4510639309
 31
0.0
  0
LINE
  5
103
100
AcDbEntity
  8
52176991
370
         0
390
0
  6
CONTINUOUS
 62
         7
100
AcDbLine
 10
156.9390202965
 20
494.8010639309
 30
0.0
 11
140.9390202965
 21
494.8010639309
 31
0.0
  0
LINE
  5
104
100
AcDbEntity
  8
52176991
370
         0
390
0
  6
CONTINUOUS
 62
         7
100
AcDbLine
 10
319.9390202965
 20
667.9510639309
 30
0.0
 11
319.9390202965
 21
670.9510639309
 31
0.0
  0
LINE
  5
105
100
AcDbEntity
  8
52176991
370
         0
390
0
  6
CONTINUOUS
 62
         7
100
AcDbLine
 10
179.9390202965
 20
496.4510639309
 30
0.0
 11
156.9390202965
 21
496.4510639309
 31
0.0
  0
LINE
  5
106
100
AcDbEntity
  8
52176991
370
         0
390
0
  6
CONTINUOUS
 62
         7
100
AcDbLine
 10
322.8390202965
 20
674.3510639309
 30
0.0
 11
309.0390202965
 21
674.3510639309
 31
0.0
  0
LINE
  5
107
100
AcDbEntity
  8
52176991
370
         0
390
0
  6
CONTINUOUS
 62
         7
100
AcDbLine
 10
321.9390202965
 20
673.4510639309
 30
0.0
 11
309.9390202965
 21
673.4510639309
 31
0.0
  0
LINE
  5
108
100
AcDbEntity
  8
52176991
370
         0
390
0
  6
CONTINUOUS
 62
         7
100
AcDbLine
 10
322.8390202965
 20
674.3510639309
 30
0.0
 11
322.8390202965
 21
679.9510639309
 31
0.0
  0
LINE
  5
109
100
AcDbEntity
  8
52176991
370
         0
390
0
  6
CONTINUOUS
 62
         7
100
AcDbLine
 10
309.0390202965
 20
674.3510639309
 30
0.0
 11
309.9390202965
 21
673.4510639309
 31
0.0
  0
LINE
  5
10A
100
AcDbEntity
  8
52176991
370
         0
390
0
  6
CONTINUOUS
 62
         7
100
AcDbLine
 10
322.6890202965
 20
670.9510639309
 30
0.0
 11
322.6890202965
 21
671.9510639309
 31
0.0
  0
LINE
  5
10B
100
AcDbEntity
  8
52176991
370
         0
390
0
  6
CONTINUOUS
 62
         7
100
AcDbLine
 10
321.9390202965
 20
671.9510639309
 30
0.0
 11
321.9390202965
 21
673.4510639309
 31
0.0
  0
LINE
  5
10C
100
AcDbEntity
  8
52176991
370
         0
390
0
  6
CONTINUOUS
 62
         7
100
AcDbLine
 10
135.9390202965
 20
493.9510639309
 30
0.0
 11
140.9390202965
 21
493.9510639309
 31
0.0
  0
LINE
  5
10D
100
AcDbEntity
  8
52176991
370
         0
390
0
  6
CONTINUOUS
 62
         7
100
AcDbLine
 10
253.0159967563
 20
560.4541197876
 30
0.0
 11
252.8742227331
 21
560.5958938109
 31
0.0
  0
ARC
  5
10E
100
AcDbEntity
  8
52176991
370
         0
390
0
  6
CONTINUOUS
 62
         7
100
AcDbCircle
 10
315.9390202965
 20
487.9510639309
 30
0.0
 40
96.2
100
AcDbArc
 50
135.4105851017
 51
135.7738237135
  0
ARC
  5
10F
100
AcDbEntity
  8
52176991
370
         0
390
0
  6
CONTINUOUS
 62
         7
100
AcDbCircle
 10
315.9390202965
 20
487.9510639309
 30
0.0
 40
96.2
100
AcDbArc
 50
134.2811798931
 51
135.4105851017
  0
ELLIPSE
  5
110
100
AcDbEntity
  8
52176991
370
         0
390
0
  6
CONTINUOUS
 62
         7
100
AcDbEllipse
 10
315.9390202965
 20
628.4096120466
 30
0.0
 11
8.5000000000000124
 21
-0.0000000000000005
 31
0.0
210
0.0
220
0.0
230
1.0
 40
0.5773502692
 41
0.9676049211852281
 42
2.1739877324045653
  0
LINE
  5
111
100
AcDbEntity
  8
52176991
370
         0
390
0
  6
CONTINUOUS
 62
         7
100
AcDbLine
 10
324.4390202965
 20
646.9510639309
 30
0.0
 11
307.4390202965
 21
646.9510639309
 31
0.0
  0
LINE
  5
112
100
AcDbEntity
  8
52176991
370
         0
390
0
  6
CONTINUOUS
 62
         7
100
AcDbLine
 10
307.4390202965
 20
623.9510639309
 30
0.0
 11
311.117194916
 21
623.9510639309
 31
0.0
  0
LINE
  5
113
100
AcDbEntity
  8
52176991
370
         0
390
0
  6
CONTINUOUS
 62
         7
100
AcDbLine
 10
247.144301838
 20
554.9084138799
 30
0.0
 11
247.0028675558
 21
555.0498481621
 31
0.0
  0
LINE
  5
114
100
AcDbEntity
  8
52176991
370
         0
390
0
  6
CONTINUOUS
 62
         7
100
AcDbLine
 10
246.8194157563
 20
554.572984259
 30
0.0
 11
246.6779705113
 21
554.7144295039
 31
0.0
  0
LINE
  5
115
100
AcDbEntity
  8
52176991
370
         0
390
0
  6
CONTINUOUS
 62
         7
100
AcDbLine
 10
248.9155212085
 20
556.6813379737
 30
0.0
 11
248.7740886988
 21
556.8227704835
 31
0.0
  0
LINE
  5
116
100
AcDbEntity
  8
52176991
370
         0
390
0
  6
CONTINUOUS
 62
         7
100
AcDbLine
 10
311.117194916
 20
632.4510639309
 30
0.0
 11
311.117194916
 21
623.9510639309
 31
0.0
  0
LINE
  5
117
100
AcDbEntity
  8
52176991
370
         0
390
0
  6
CONTINUOUS
 62
         7
100
AcDbLine
 10
253.9725437469
 20
561.2733373819
 30
0.0
 11
253.8306261123
 21
561.4152550165
 31
0.0
  0
ARC
  5
118
100
AcDbEntity
  8
52176991
370
         0
390
0
  6
CONTINUOUS
 62
         7
100
AcDbCircle
 10
315.9390202965
 20
487.9510639309
 30
0.0
 40
96.2
100
AcDbArc
 50
130.9620670606
 51
131.6017212897
  0
LINE
  5
119
100
AcDbEntity
  8
52176991
370
         0
390
0
  6
CONTINUOUS
 62
         7
100
AcDbLine
 10
251.2746403662
 20
558.9054011361
 30
0.0
 11
251.1330673041
 21
559.0469741983
 31
0.0
  0
ELLIPSE
  5
11A
100
AcDbEntity
  8
52176991
370
         0
390
0
  6
CONTINUOUS
 62
         7
100
AcDbEllipse
 10
175.4804721809
 20
487.9510639309
 30
0.0
 11
0.0000000000000005
 21
8.5000000000000124
 31
0.0
210
0.0
220
0.0
230
1.0
 40
0.5773502692
 41
0.9676049211852281
 42
2.1739877324045653
  0
CIRCLE
  5
11B
100
AcDbEntity
  8
52176991
370
         0
390
0
  6
CONTINUOUS
 62
         7
100
AcDbCircle
 10
315.9390202965
 20
487.9510639309
 30
0.0
 40
52.35
  0
CIRCLE
  5
11C
100
AcDbEntity
  8
52176991
370
         0
390
0
  6
CONTINUOUS
 62
         7
100
AcDbCircle
 10
315.9390202965
 20
487.9510639309
 30
0.0
 40
65.0
  0
CIRCLE
  5
11D
100
AcDbEntity
  8
52176991
370
         0
390
0
  6
CONTINUOUS
 62
         7
100
AcDbCircle
 10
315.9390202965
 20
487.9510639309
 30
0.0
 40
96.0
  0
LINE
  5
11E
100
AcDbEntity
  8
52176991
370
         0
390
0
  6
CONTINUOUS
 62
         7
100
AcDbLine
 10
181.4390202965
 20
487.9510639309
 30
0.0
 11
181.4390202965
 21
480.9510639309
 31
0.0
  0
LINE
  5
11F
100
AcDbEntity
  8
52176991
370
         0
390
0
  6
CONTINUOUS
 62
         7
100
AcDbLine
 10
181.4390202965
 20
487.9510639309
 30
0.0
 11
181.4390202965
 21
494.9510639309
 31
0.0
  0
LINE
  5
120
100
AcDbEntity
  8
52176991
370
         0
390
0
  6
CONTINUOUS
 62
         7
100
AcDbLine
 10
156.9390202965
 20
496.4510639309
 30
0.0
 11
156.9390202965
 21
479.4510639309
 31
0.0
  0
LINE
  5
121
100
AcDbEntity
  8
52176991
370
         0
390
0
  6
CONTINUOUS
 62
         7
100
AcDbLine
 10
171.4390202965
 20
492.7728893114
 30
0.0
 11
171.4390202965
 21
483.1292385504
 31
0.0
  0
LINE
  5
122
100
AcDbEntity
  8
52176991
370
         0
390
0
  6
CONTINUOUS
 62
         7
100
AcDbLine
 10
179.9390202965
 20
492.7728893114
 30
0.0
 11
179.9390202965
 21
496.4510639309
 31
0.0
  0
LINE
  5
123
100
AcDbEntity
  8
52176991
370
         0
390
0
  6
CONTINUOUS
 62
         7
100
AcDbLine
 10
315.9390202965
 20
622.4510639309
 30
0.0
 11
322.9390202965
 21
622.4510639309
 31
0.0
  0
LINE
  5
124
100
AcDbEntity
  8
52176991
370
         0
390
0
  6
CONTINUOUS
 62
         7
100
AcDbLine
 10
320.760845677
 20
623.9510639309
 30
0.0
 11
320.760845677
 21
632.4510639309
 31
0.0
  0
LINE
  5
125
100
AcDbEntity
  8
52176991
370
         0
390
0
  6
CONTINUOUS
 62
         7
100
AcDbLine
 10
320.760845677
 20
632.4510639309
 30
0.0
 11
311.117194916
 21
632.4510639309
 31
0.0
  0
LINE
  5
126
100
AcDbEntity
  8
52176991
370
         0
390
0
  6
CONTINUOUS
 62
         7
100
AcDbLine
 10
322.9390202965
 20
583.7019599015
 30
0.0
 11
322.9390202965
 21
622.4510639309
 31
0.0
  0
ARC
  5
127
100
AcDbEntity
  8
52176991
370
         0
390
0
  6
CONTINUOUS
 62
         7
100
AcDbCircle
 10
171.6892500017
 20
488.3398493585
 30
0.0
 40
9.7575188911
100
AcDbArc
 50
327.723215948
 51
357.716462272
  0
LINE
  5
128
100
AcDbEntity
  8
52176991
370
         0
390
0
  6
CONTINUOUS
 62
         7
100
AcDbLine
 10
135.9390202965
 20
488.0889187564
 30
0.0
 11
135.9390202965
 21
487.8132091054
 31
0.0
  0
LINE
  5
129
100
AcDbEntity
  8
52176991
370
         0
390
0
  6
CONTINUOUS
 62
         7
100
AcDbLine
 10
135.9390202965
 20
482.0889187564
 30
0.0
 11
135.9390202965
 21
481.9510639309
 31
0.0
  0
LINE
  5
12A
100
AcDbEntity
  8
52176991
370
         0
390
0
  6
CONTINUOUS
 62
         7
100
AcDbLine
 10
135.9390202965
 20
493.9510639309
 30
0.0
 11
135.9390202965
 21
493.8132091054
 31
0.0
  0
LINE
  5
12B
100
AcDbEntity
  8
52176991
370
         0
390
0
  6
CONTINUOUS
 62
         7
100
AcDbLine
 10
140.9390202965
 20
494.8010639309
 30
0.0
 11
140.9390202965
 21
493.9510639309
 31
0.0
  0
LINE
  5
12C
100
AcDbEntity
  8
52176991
370
         0
390
0
  6
CONTINUOUS
 62
         7
100
AcDbLine
 10
140.9390202965
 20
481.1010639309
 30
0.0
 11
140.9390202965
 21
481.9510639309
 31
0.0
  0
LINE
  5
12D
100
AcDbEntity
  8
52176991
370
         0
390
0
  6
CONTINUOUS
 62
         7
100
AcDbLine
 10
140.9390202965
 20
487.8132091054
 30
0.0
 11
140.9390202965
 21
482.0889187564
 31
0.0
  0
LINE
  5
12E
100
AcDbEntity
  8
52176991
370
         0
390
0
  6
CONTINUOUS
 62
         7
100
AcDbLine
 10
321.9390202965
 20
667.9510639309
 30
0.0
 11
321.801165471
 21
667.9510639309
 31
0.0
  0
LINE
  5
12F
100
AcDbEntity
  8
52176991
370
         0
390
0
  6
CONTINUOUS
 62
         7
100
AcDbLine
 10
309.0890202965
 20
662.9510639309
 30
0.0
 11
309.9390202965
 21
662.9510639309
 31
0.0
  0
LINE
  5
130
100
AcDbEntity
  8
52176991
370
         0
390
0
  6
CONTINUOUS
 62
         7
100
AcDbLine
 10
324.4390202965
 20
623.9510639309
 30
0.0
 11
324.4390202965
 21
646.9510639309
 31
0.0
  0
LINE
  5
131
100
AcDbEntity
  8
52176991
370
         0
390
0
  6
CONTINUOUS
 62
         7
100
AcDbLine
 10
315.801165471
 20
662.9510639309
 30
0.0
 11
310.076875122
 21
662.9510639309
 31
0.0
  0
LINE
  5
132
100
AcDbEntity
  8
52176991
370
         0
390
0
  6
CONTINUOUS
 62
         7
100
AcDbLine
 10
321.801165471
 20
662.9510639309
 30
0.0
 11
316.076875122
 21
662.9510639309
 31
0.0
  0
LINE
  5
133
100
AcDbEntity
  8
52176991
370
         0
390
0
  6
CONTINUOUS
 62
         7
100
AcDbLine
 10
321.9390202965
 20
662.9510639309
 30
0.0
 11
322.7890202965
 21
662.9510639309
 31
0.0
  0
LINE
  5
134
100
AcDbEntity
  8
52176991
370
         0
390
0
  6
CONTINUOUS
 62
         7
100
AcDbLine
 10
309.9390202965
 20
662.9510639309
 30
0.0
 11
309.9390202965
 21
667.9510639309
 31
0.0
  0
LINE
  5
135
100
AcDbEntity
  8
52176991
370
         0
390
0
  6
CONTINUOUS
 62
         7
100
AcDbLine
 10
247.5710618513
 20
555.344107029
 30
0.0
 11
247.4296368562
 21
555.4855320241
 31
0.0
  0
LINE
  5
136
100
AcDbEntity
  8
52176991
370
         0
390
0
  6
CONTINUOUS
 62
         7
100
AcDbLine
 10
310.076875122
 20
667.9510639309
 30
0.0
 11
310.076875122
 21
662.9510639309
 31
0.0
  0
ARC
  5
137
100
AcDbEntity
  8
52176991
370
         0
390
0
  6
CONTINUOUS
 62
         7
100
AcDbCircle
 10
315.9390202965
 20
487.9510639309
 30
0.0
 40
96.2
100
AcDbArc
 50
130.2119820331
 51
130.9620670606
  0
LINE
  5
138
100
AcDbEntity
  8
52176991
370
         0
390
0
  6
CONTINUOUS
 62
         7
100
AcDbLine
 10
315.801165471
 20
662.9510639309
 30
0.0
 11
315.801165471
 21
667.9510639309
 31
0.0
  0
LINE
  5
139
100
AcDbEntity
  8
52176991
370
         0
390
0
  6
CONTINUOUS
 62
         7
100
AcDbLine
 10
316.076875122
 20
667.9510639309
 30
0.0
 11
316.076875122
 21
662.9510639309
 31
0.0
  0
LINE
  5
13A
100
AcDbEntity
  8
52176991
370
         0
390
0
  6
CONTINUOUS
 62
         7
100
AcDbLine
 10
322.6890202965
 20
671.9510639309
 30
0.0
 11
309.1890202965
 21
671.9510639309
 31
0.0
  0
LINE
  5
13B
100
AcDbEntity
  8
52176991
370
         0
390
0
  6
CONTINUOUS
 62
         7
100
AcDbLine
 10
322.6890202965
 20
670.9510639309
 30
0.0
 11
309.1890202965
 21
670.9510639309
 31
0.0
  0
LINE
  5
13C
100
AcDbEntity
  8
52176991
370
         0
390
0
  6
CONTINUOUS
 62
         7
100
AcDbLine
 10
322.8390202965
 20
679.9510639309
 30
0.0
 11
309.0390202965
 21
679.9510639309
 31
0.0
  0
LINE
  5
13D
100
AcDbEntity
  8
52176991
370
         0
390
0
  6
CONTINUOUS
 62
         7
100
AcDbLine
 10
171.4390202965
 20
483.1292385504
 30
0.0
 11
179.9390202965
 21
483.1292385504
 31
0.0
  0
LINE
  5
13E
100
AcDbEntity
  8
52176991
370
         0
390
0
  6
CONTINUOUS
 62
         7
100
AcDbLine
 10
179.9390202965
 20
492.7728893114
 30
0.0
 11
171.4390202965
 21
492.7728893114
 31
0.0
  0
LINE
  5
13F
100
AcDbEntity
  8
52176991
370
         0
390
0
  6
CONTINUOUS
 62
         7
100
AcDbLine
 10
321.801165471
 20
662.9510639309
 30
0.0
 11
321.801165471
 21
667.9510639309
 31
0.0
  0
LINE
  5
140
100
AcDbEntity
  8
52176991
370
         0
390
0
  6
CONTINUOUS
 62
         7
100
AcDbLine
 10
320.760845677
 20
623.9510639309
 30
0.0
 11
324.4390202965
 21
623.9510639309
 31
0.0
  0
LINE
  5
141
100
AcDbEntity
  8
52176991
370
         0
390
0
  6
CONTINUOUS
 62
         7
100
AcDbLine
 10
315.9390202965
 20
622.4510639309
 30
0.0
 11
308.9390202965
 21
622.4510639309
 31
0.0
  0
LINE
  5
142
100
AcDbEntity
  8
52176991
370
         0
390
0
  6
CONTINUOUS
 62
         7
100
AcDbLine
 10
252.2088284777
 20
559.7456504311
 30
0.0
 11
252.0671574891
 21
559.8873214198
 31
0.0
  0
LINE
  5
143
100
AcDbEntity
  8
52176991
370
         0
390
0
  6
CONTINUOUS
 62
         7
100
AcDbLine
 10
243.4770485078
 20
550.9213953934
 30
0.0
 11
243.3352809863
 21
551.0631629149
 31
0.0
  0
LINE
  5
144
100
AcDbEntity
  8
52176991
370
         0
390
0
  6
CONTINUOUS
 62
         7
100
AcDbLine
 10
244.664760155
 20
552.2626479673
 30
0.0
 11
244.5231528398
 21
552.4042552825
 31
0.0
  0
LINE
  5
145
100
AcDbEntity
  8
52176991
370
         0
390
0
  6
CONTINUOUS
 62
         7
100
AcDbLine
 10
242.6167468455
 20
549.9175404805
 30
0.0
 11
242.474829211
 21
550.0594581151
 31
0.0
  0
LINE
  5
146
100
AcDbEntity
  8
52176991
370
         0
390
0
  6
CONTINUOUS
 62
         7
100
AcDbLine
 10
307.4390202965
 20
623.9510639309
 30
0.0
 11
308.9390202965
 21
622.4510639309
 31
0.0
  0
LINE
  5
147
100
AcDbEntity
  8
52176991
370
         0
390
0
  6
CONTINUOUS
 62
         7
100
AcDbLine
 10
322.9390202965
 20
622.4510639309
 30
0.0
 11
324.4390202965
 21
623.9510639309
 31
0.0
  0
LINE
  5
148
100
AcDbEntity
  8
52176991
370
         0
390
0
  6
CONTINUOUS
 62
         7
100
AcDbLine
 10
322.7890202965
 20
646.9510639309
 30
0.0
 11
322.7890202965
 21
662.9510639309
 31
0.0
  0
LINE
  5
149
100
AcDbEntity
  8
52176991
370
         0
390
0
  6
CONTINUOUS
 62
         7
100
AcDbLine
 10
131.9390202965
 20
493.9510639309
 30
0.0
 11
130.4390202965
 21
493.9510639309
 31
0.0
  0
LINE
  5
14A
100
AcDbEntity
  8
52176991
370
         0
390
0
  6
CONTINUOUS
 62
         7
100
AcDbLine
 10
132.9390202965
 20
494.7010639309
 30
0.0
 11
131.9390202965
 21
494.7010639309
 31
0.0
  0
LINE
  5
14B
100
AcDbEntity
  8
52176991
370
         0
390
0
  6
CONTINUOUS
 62
         7
100
AcDbLine
 10
129.5390202965
 20
494.8510639309
 30
0.0
 11
123.9390202965
 21
494.8510639309
 31
0.0
  0
LINE
  5
14C
100
AcDbEntity
  8
52176991
370
         0
390
0
  6
CONTINUOUS
 62
         7
100
AcDbLine
 10
129.5390202965
 20
481.0510639309
 30
0.0
 11
130.4390202965
 21
481.9510639309
 31
0.0
  0
LINE
  5
14D
100
AcDbEntity
  8
52176991
370
         0
390
0
  6
CONTINUOUS
 62
         7
100
AcDbLine
 10
135.9390202965
 20
491.9510639309
 30
0.0
 11
132.9390202965
 21
491.9510639309
 31
0.0
  0
LINE
  5
14E
100
AcDbEntity
  8
52176991
370
         0
390
0
  6
CONTINUOUS
 62
         7
100
AcDbLine
 10
179.9390202965
 20
479.4510639309
 30
0.0
 11
179.9390202965
 21
483.1292385504
 31
0.0
  0
ARC
  5
14F
100
AcDbEntity
  8
52176991
370
         0
390
0
  6
CONTINUOUS
 62
         7
100
AcDbCircle
 10
315.9390202965
 20
487.9510639309
 30
0.0
 40
96.2
100
AcDbArc
 50
137.9335839662
 51
139.0006152338
  0
ARC
  5
150
100
AcDbEntity
  8
52176991
370
         0
390
0
  6
CONTINUOUS
 62
         7
100
AcDbCircle
 10
315.9390202965
 20
487.9510639309
 30
0.0
 40
96.2
100
AcDbArc
 50
131.6017212897
 51
132.3500657396
  0
LINE
  5
151
100
AcDbEntity
  8
52176991
370
         0
390
0
  6
CONTINUOUS
 62
         7
100
AcDbLine
 10
135.9390202965
 20
482.0889187564
 30
0.0
 11
140.9390202965
 21
482.0889187564
 31
0.0
  0
LINE
  5
152
100
AcDbEntity
  8
52176991
370
         0
390
0
  6
CONTINUOUS
 62
         7
100
AcDbLine
 10
140.9390202965
 20
481.9510639309
 30
0.0
 11
135.9390202965
 21
481.9510639309
 31
0.0
  0
LINE
  5
153
100
AcDbEntity
  8
52176991
370
         0
390
0
  6
CONTINUOUS
 62
         7
100
AcDbLine
 10
140.9390202965
 20
493.8132091054
 30
0.0
 11
135.9390202965
 21
493.8132091054
 31
0.0
  0
LINE
  5
154
100
AcDbEntity
  8
52176991
370
         0
390
0
  6
CONTINUOUS
 62
         7
100
AcDbLine
 10
135.9390202965
 20
488.0889187564
 30
0.0
 11
140.9390202965
 21
488.0889187564
 31
0.0
  0
LINE
  5
155
100
AcDbEntity
  8
52176991
370
         0
390
0
  6
CONTINUOUS
 62
         7
100
AcDbLine
 10
123.9390202965
 20
494.8510639309
 30
0.0
 11
123.9390202965
 21
481.0510639309
 31
0.0
  0
LINE
  5
156
100
AcDbEntity
  8
52176991
370
         0
390
0
  6
CONTINUOUS
 62
         7
100
AcDbLine
 10
129.5390202965
 20
494.8510639309
 30
0.0
 11
129.5390202965
 21
481.0510639309
 31
0.0
  0
ARC
  5
157
100
AcDbEntity
  8
52176991
370
         0
390
0
  6
CONTINUOUS
 62
         7
100
AcDbCircle
 10
315.9390202965
 20
487.9510639309
 30
0.0
 40
96.2
100
AcDbArc
 50
137.825617099
 51
137.9335839662
  0
LINE
  5
158
100
AcDbEntity
  8
52176991
370
         0
390
0
  6
CONTINUOUS
 62
         7
100
AcDbLine
 10
135.9390202965
 20
493.8132091054
 30
0.0
 11
135.9390202965
 21
488.0889187564
 31
0.0
  0
LINE
  5
159
100
AcDbEntity
  8
52176991
370
         0
390
0
  6
CONTINUOUS
 62
         7
100
AcDbLine
 10
140.9390202965
 20
493.8132091054
 30
0.0
 11
140.9390202965
 21
488.0889187564
 31
0.0
  0
ARC
  5
15A
100
AcDbEntity
  8
52176991
370
         0
390
0
  6
CONTINUOUS
 62
         7
100
AcDbCircle
 10
315.9390202965
 20
487.9510639309
 30
0.0
 40
96.1999999999
100
AcDbArc
 50
139.0006152338
 51
139.7880179669
  0
LINE
  5
15B
100
AcDbEntity
  8
52176991
370
         0
390
0
  6
CONTINUOUS
 62
         7
100
AcDbLine
 10
140.9390202965
 20
487.8132091054
 30
0.0
 11
135.9390202965
 21
487.8132091054
 31
0.0
  0
LINE
  5
15C
100
AcDbEntity
  8
52176991
370
         0
390
0
  6
CONTINUOUS
 62
         7
100
AcDbLine
 10
311.9390202965
 20
670.9510639309
 30
0.0
 11
311.9390202965
 21
667.9510639309
 31
0.0
  0
LINE
  5
15D
100
AcDbEntity
  8
52176991
370
         0
390
0
  6
CONTINUOUS
 62
         7
100
AcDbLine
 10
132.9390202965
 20
483.9510639309
 30
0.0
 11
135.9390202965
 21
483.9510639309
 31
0.0
  0
ARC
  5
15E
100
AcDbEntity
  8
52176991
370
         0
390
0
  6
CONTINUOUS
 62
         7
100
AcDbCircle
 10
316.3278057241
 20
632.2008342257
 30
0.0
 40
9.7575188911
100
AcDbArc
 50
237.723215948
 51
267.716462272
  0
ARC
  5
15F
100
AcDbEntity
  8
52176991
370
         0
390
0
  6
CONTINUOUS
 62
         7
100
AcDbCircle
 10
171.8665364571
 20
487.6174297504
 30
0.0
 40
9.5782962275
100
AcDbArc
 50
1.9961481256
 51
32.5641736544
  0
ARC
  5
160
100
AcDbEntity
  8
52176991
370
         0
390
0
  6
CONTINUOUS
 62
         7
100
AcDbCircle
 10
315.6053861161
 20
632.0235477703
 30
0.0
 40
9.5782962275
100
AcDbArc
 50
271.9961481256
 51
302.5641736544
  0
LINE
  5
161
100
AcDbEntity
  8
52176991
370
         0
390
0
  6
CONTINUOUS
 62
         7
100
AcDbLine
 10
309.0390202965
 20
679.9510639309
 30
0.0
 11
309.0390202965
 21
674.3510639309
 31
0.0
  0
LINE
  5
162
100
AcDbEntity
  8
52176991
370
         0
390
0
  6
CONTINUOUS
 62
         7
100
AcDbLine
 10
181.4390202965
 20
480.9510639309
 30
0.0
 11
220.1940358026
 21
480.9510639309
 31
0.0
  0
LINE
  5
163
100
AcDbEntity
  8
52176991
370
         0
390
0
  6
CONTINUOUS
 62
         7
100
AcDbLine
 10
244.7863275596
 20
552.3971213453
 30
0.0
 11
244.6447336941
 21
552.5387152108
 31
0.0
  0
LINE
  5
164
100
AcDbEntity
  8
52176991
370
         0
390
0
  6
CONTINUOUS
 62
         7
100
AcDbLine
 10
315.801165471
 20
667.9510639309
 30
0.0
 11
310.076875122
 21
667.9510639309
 31
0.0
  0
LINE
  5
165
100
AcDbEntity
  8
52176991
370
         0
390
0
  6
CONTINUOUS
 62
         7
100
AcDbLine
 10
321.801165471
 20
667.9510639309
 30
0.0
 11
316.076875122
 21
667.9510639309
 31
0.0
  0
LINE
  5
166
100
AcDbEntity
  8
52176991
370
         0
390
0
  6
CONTINUOUS
 62
         7
100
AcDbLine
 10
310.076875122
 20
667.9510639309
 30
0.0
 11
309.9390202965
 21
667.9510639309
 31
0.0
  0
LINE
  5
167
100
AcDbEntity
  8
52176991
370
         0
390
0
  6
CONTINUOUS
 62
         7
100
AcDbLine
 10
316.076875122
 20
667.9510639309
 30
0.0
 11
315.801165471
 21
667.9510639309
 31
0.0
  0
LINE
  5
168
100
AcDbEntity
  8
52176991
370
         0
390
0
  6
CONTINUOUS
 62
         7
100
AcDbLine
 10
140.9390202965
 20
481.1010639309
 30
0.0
 11
156.9390202965
 21
481.1010639309
 31
0.0
  0
LINE
  5
169
100
AcDbEntity
  8
52176991
370
         0
390
0
  6
CONTINUOUS
 62
         7
100
AcDbLine
 10
179.9390202965
 20
479.4510639309
 30
0.0
 11
181.4390202965
 21
480.9510639309
 31
0.0
  0
LINE
  5
16A
100
AcDbEntity
  8
52176991
370
         0
390
0
  6
CONTINUOUS
 62
         7
100
AcDbLine
 10
220.1881243259
 20
494.9510639309
 30
0.0
 11
181.4390202965
 21
494.9510639309
 31
0.0
  0
LINE
  5
16B
100
AcDbEntity
  8
52176991
370
         0
390
0
  6
CONTINUOUS
 62
         7
100
AcDbLine
 10
308.9390202965
 20
622.4510639309
 30
0.0
 11
308.9390202965
 21
583.6960484249
 31
0.0
  0
LINE
  5
16C
100
AcDbEntity
  8
52176991
370
         0
390
0
  6
CONTINUOUS
 62
         7
100
AcDbLine
 10
307.4390202965
 20
646.9510639309
 30
0.0
 11
307.4390202965
 21
623.9510639309
 31
0.0
  0
LINE
  5
16D
100
AcDbEntity
  8
52176991
370
         0
390
0
  6
CONTINUOUS
 62
         7
100
AcDbLine
 10
309.0890202965
 20
662.9510639309
 30
0.0
 11
309.0890202965
 21
646.9510639309
 31
0.0
  0
LINE
  5
16E
100
AcDbEntity
  8
52176991
370
         0
390
0
  6
CONTINUOUS
 62
         7
100
AcDbLine
 10
130.4390202965
 20
481.9510639309
 30
0.0
 11
131.9390202965
 21
481.9510639309
 31
0.0
  0
LINE
  5
16F
100
AcDbEntity
  8
52176991
370
         0
390
0
  6
CONTINUOUS
 62
         7
100
AcDbLine
 10
131.9390202965
 20
481.2010639309
 30
0.0
 11
132.9390202965
 21
481.2010639309
 31
0.0
  0
LINE
  5
170
100
AcDbEntity
  8
52176991
370
         0
390
0
  6
CONTINUOUS
 62
         7
100
AcDbLine
 10
123.9390202965
 20
481.0510639309
 30
0.0
 11
129.5390202965
 21
481.0510639309
 31
0.0
  0
LINE
  5
171
100
AcDbEntity
  8
52176991
370
         0
390
0
  6
CONTINUOUS
 62
         7
100
AcDbLine
 10
130.4390202965
 20
493.9510639309
 30
0.0
 11
129.5390202965
 21
494.8510639309
 31
0.0
  0
LINE
  5
172
100
AcDbEntity
  8
52176991
370
         0
390
0
  6
CONTINUOUS
 62
         7
100
AcDbLine
 10
309.9390202965
 20
673.4510639309
 30
0.0
 11
309.9390202965
 21
671.9510639309
 31
0.0
  0
LINE
  5
173
100
AcDbEntity
  8
52176991
370
         0
390
0
  6
CONTINUOUS
 62
         7
100
AcDbLine
 10
156.9390202965
 20
479.4510639309
 30
0.0
 11
179.9390202965
 21
479.4510639309
 31
0.0
  0
LINE
  5
174
100
AcDbEntity
  8
52176991
370
         0
390
0
  6
CONTINUOUS
 62
         7
100
AcDbLine
 10
309.1890202965
 20
671.9510639309
 30
0.0
 11
309.1890202965
 21
670.9510639309
 31
0.0
  0
LINE
  5
175
100
AcDbEntity
  8
52176991
370
         0
390
0
  6
CONTINUOUS
 62
         7
100
AcDbLine
 10
321.9390202965
 20
673.4510639309
 30
0.0
 11
322.8390202965
 21
674.3510639309
 31
0.0
  0
ARC
  5
176
100
AcDbEntity
  8
52176991
370
         0
390
0
  6
CONTINUOUS
 62
         7
100
AcDbCircle
 10
315.9390202972
 20
487.9510639302
 30
0.0
 40
96.200000001
100
AcDbArc
 50
135.7738237136
 51
136.0519485292
  0
ARC
  5
177
100
AcDbEntity
  8
52176991
370
         0
390
0
  6
CONTINUOUS
 62
         7
100
AcDbCircle
 10
315.9390202965
 20
487.9510639309
 30
0.0
 40
96.1999999999
100
AcDbArc
 50
136.0519485293
 51
137.825617099
  0
LINE
  5
178
100
AcDbEntity
  8
52176991
370
         0
390
0
  6
CONTINUOUS
 62
         7
100
AcDbLine
 10
135.9390202965
 20
487.8132091054
 30
0.0
 11
135.9390202965
 21
482.0889187564
 31
0.0
  0
LINE
  5
179
100
AcDbEntity
  8
52176991
370
         0
390
0
  6
CONTINUOUS
 62
         7
100
AcDbLine
 10
132.9390202965
 20
494.7010639309
 30
0.0
 11
132.9390202965
 21
481.2010639309
 31
0.0
  0
LINE
  5
17A
100
AcDbEntity
  8
52176991
370
         0
390
0
  6
CONTINUOUS
 62
         7
100
AcDbLine
 10
131.9390202965
 20
494.7010639309
 30
0.0
 11
131.9390202965
 21
481.2010639309
 31
0.0
  0
LINE
  5
17B
100
AcDbEntity
  8
52176991
370
         0
390
0
  6
CONTINUOUS
 62
         7
100
AcDbLine
 10
130.4390202965
 20
493.9510639309
 30
0.0
 11
130.4390202965
 21
481.9510639309
 31
0.0
  0
ENDBLK
  5
17C
100
AcDbEntity
  8
52176991
370
         0
390
0
  6
CONTINUOUS
 62
         7
100
AcDbBlockEnd
  0
BLOCK
  5
1B5
100
AcDbEntity
  8
0
370
         0
390
0
 62
         1
 48
0.0
100
AcDbBlockBegin
  2
SE6
 70
         0
 10
0.0
 20
0.0
 30
0.0
  3
SE6
  1

  0
ENDBLK
  5
1B6
100
AcDbEntity
  8
0
370
         0
390
0
 62
         1
 48
0.0
100
AcDbBlockEnd
  0
BLOCK
  5
17F
100
AcDbEntity
  8
0
370
         0
390
0
 62
         1
 48
0.0
100
AcDbBlockBegin
  2
SE7
 70
         0
 10
0.0
 20
0.0
 30
0.0
  3
SE7
  1

  0
LINE
  5
180
100
AcDbEntity
  8
52176991
370
         0
390
0
  6
CONTINUOUS
 62
         7
100
AcDbLine
 10
323.0567675024
 20
205.5768846875
 30
0.0
 11
323.0567675024
 21
244.0768846875
 31
0.0
  0
LINE
  5
181
100
AcDbEntity
  8
52176991
370
         0
390
0
  6
CONTINUOUS
 62
         7
100
AcDbLine
 10
324.5567675024
 20
254.9429100913
 30
0.0
 11
324.5567675024
 21
268.5768846875
 31
0.0
  0
LINE
  5
182
100
AcDbEntity
  8
52176991
370
         0
390
0
  6
CONTINUOUS
 62
         7
100
AcDbLine
 10
322.9067675024
 20
268.5768846875
 30
0.0
 11
322.9067675024
 21
289.5768846875
 31
0.0
  0
LINE
  5
183
100
AcDbEntity
  8
52176991
370
         0
390
0
  6
CONTINUOUS
 62
         7
100
AcDbLine
 10
325.0567675024
 20
205.5768846875
 30
0.0
 11
323.0567675024
 21
205.5768846875
 31
0.0
  0
LINE
  5
184
100
AcDbEntity
  8
52176991
370
         0
390
0
  6
CONTINUOUS
 62
         7
100
AcDbLine
 10
322.905380212
 20
284.5768846875
 30
0.0
 11
322.905380212
 21
289.5768846875
 31
0.0
  0
LINE
  5
185
100
AcDbEntity
  8
52176991
370
         0
390
0
  6
CONTINUOUS
 62
         7
100
AcDbLine
 10
309.2081547927
 20
289.5768846875
 30
0.0
 11
309.2081547927
 21
284.5768846875
 31
0.0
  0
LINE
  5
186
100
AcDbEntity
  8
52176991
370
         0
390
0
  6
CONTINUOUS
 62
         7
100
AcDbLine
 10
309.3067675024
 20
293.5768846875
 30
0.0
 11
309.3067675024
 21
292.5768846875
 31
0.0
  0
LINE
  5
187
100
AcDbEntity
  8
52176991
370
         0
390
0
  6
CONTINUOUS
 62
         7
100
AcDbLine
 10
310.0567675024
 20
295.0768846875
 30
0.0
 11
310.0567675024
 21
293.5768846875
 31
0.0
  0
LINE
  5
188
100
AcDbEntity
  8
52176991
370
         0
390
0
  6
CONTINUOUS
 62
         7
100
AcDbLine
 10
319.6004596381
 20
289.5768846875
 30
0.0
 11
319.6004596381
 21
284.5768846875
 31
0.0
  0
LINE
  5
189
100
AcDbEntity
  8
52176991
370
         0
390
0
  6
CONTINUOUS
 62
         7
100
AcDbLine
 10
312.0567675024
 20
292.5768846875
 30
0.0
 11
312.0567675024
 21
289.5768846875
 31
0.0
  0
LINE
  5
18A
100
AcDbEntity
  8
52176991
370
         0
390
0
  6
CONTINUOUS
 62
         7
100
AcDbLine
 10
309.2067675024
 20
289.5768846875
 30
0.0
 11
309.2067675024
 21
268.5768846875
 31
0.0
  0
LINE
  5
18B
100
AcDbEntity
  8
52176991
370
         0
390
0
  6
CONTINUOUS
 62
         7
100
AcDbLine
 10
307.5567675024
 20
268.5768846875
 30
0.0
 11
307.5567675024
 21
254.9429100913
 31
0.0
  0
LINE
  5
18C
100
AcDbEntity
  8
52176991
370
         0
390
0
  6
CONTINUOUS
 62
         7
100
AcDbLine
 10
309.0567675024
 20
244.0768846875
 30
0.0
 11
309.0567675024
 21
205.5768846875
 31
0.0
  0
LINE
  5
18D
100
AcDbEntity
  8
52176991
370
         0
390
0
  6
CONTINUOUS
 62
         7
100
AcDbLine
 10
322.0567675024
 20
293.5768846875
 30
0.0
 11
322.0567675024
 21
295.0768846875
 31
0.0
  0
LINE
  5
18E
100
AcDbEntity
  8
52176991
370
         0
390
0
  6
CONTINUOUS
 62
         7
100
AcDbLine
 10
309.1567675024
 20
295.9768846875
 30
0.0
 11
322.9567675024
 21
295.9768846875
 31
0.0
  0
LINE
  5
18F
100
AcDbEntity
  8
52176991
370
         0
390
0
  6
CONTINUOUS
 62
         7
100
AcDbLine
 10
310.0567675024
 20
295.0768846875
 30
0.0
 11
322.0567675024
 21
295.0768846875
 31
0.0
  0
LINE
  5
190
100
AcDbEntity
  8
52176991
370
         0
390
0
  6
CONTINUOUS
 62
         7
100
AcDbLine
 10
309.2067675024
 20
289.5768846875
 30
0.0
 11
309.2081547927
 21
289.5768846875
 31
0.0
  0
LINE
  5
191
100
AcDbEntity
  8
52176991
370
         0
390
0
  6
CONTINUOUS
 62
         7
100
AcDbLine
 10
309.3067675024
 20
292.5768846875
 30
0.0
 11
322.8067675024
 21
292.5768846875
 31
0.0
  0
LINE
  5
192
100
AcDbEntity
  8
52176991
370
         0
390
0
  6
CONTINUOUS
 62
         7
100
AcDbLine
 10
309.1567675024
 20
301.5768846875
 30
0.0
 11
309.1567675024
 21
295.9768846875
 31
0.0
  0
LINE
  5
193
100
AcDbEntity
  8
52176991
370
         0
390
0
  6
CONTINUOUS
 62
         7
100
AcDbLine
 10
322.0567675024
 20
295.0768846875
 30
0.0
 11
322.9567675024
 21
295.9768846875
 31
0.0
  0
LINE
  5
194
100
AcDbEntity
  8
52176991
370
         0
390
0
  6
CONTINUOUS
 62
         7
100
AcDbLine
 10
307.0567675024
 20
13.5768846875
 30
0.0
 11
307.0567675024
 21
205.5768846875
 31
0.0
  0
LINE
  5
195
100
AcDbEntity
  8
52176991
370
         0
390
0
  6
CONTINUOUS
 62
         7
100
AcDbLine
 10
307.0567675024
 20
13.5768846875
 30
0.0
 11
325.0567675024
 21
13.5768846875
 31
0.0
  0
LINE
  5
196
100
AcDbEntity
  8
52176991
370
         0
390
0
  6
CONTINUOUS
 62
         7
100
AcDbLine
 10
319.3616880763
 20
284.5768846875
 30
0.0
 11
319.3616880763
 21
289.5768846875
 31
0.0
  0
LINE
  5
197
100
AcDbEntity
  8
52176991
370
         0
390
0
  6
CONTINUOUS
 62
         7
100
AcDbLine
 10
309.3067675024
 20
293.5768846875
 30
0.0
 11
322.8067675024
 21
293.5768846875
 31
0.0
  0
LINE
  5
198
100
AcDbEntity
  8
52176991
370
         0
390
0
  6
CONTINUOUS
 62
         7
100
AcDbLine
 10
319.3616880763
 20
284.5768846875
 30
0.0
 11
312.7518469284
 21
284.5768846875
 31
0.0
  0
LINE
  5
199
100
AcDbEntity
  8
52176991
370
         0
390
0
  6
CONTINUOUS
 62
         7
100
AcDbLine
 10
322.905380212
 20
284.5768846875
 30
0.0
 11
319.6004596381
 21
284.5768846875
 31
0.0
  0
LINE
  5
19A
100
AcDbEntity
  8
52176991
370
         0
390
0
  6
CONTINUOUS
 62
         7
100
AcDbLine
 10
323.0567675024
 20
254.0768846875
 30
0.0
 11
323.0567675024
 21
245.5768846875
 31
0.0
  0
LINE
  5
19B
100
AcDbEntity
  8
52176991
370
         0
390
0
  6
CONTINUOUS
 62
         7
100
AcDbLine
 10
309.0567675024
 20
245.5768846875
 30
0.0
 11
309.0567675024
 21
254.0768846875
 31
0.0
  0
LINE
  5
19C
100
AcDbEntity
  8
52176991
370
         0
390
0
  6
CONTINUOUS
 62
         7
100
AcDbLine
 10
307.5567675024
 20
268.5768846875
 30
0.0
 11
324.5567675024
 21
268.5768846875
 31
0.0
  0
LINE
  5
19D
100
AcDbEntity
  8
52176991
370
         0
390
0
  6
CONTINUOUS
 62
         7
100
AcDbLine
 10
323.0567675024
 20
245.5768846875
 30
0.0
 11
309.0567675024
 21
245.5768846875
 31
0.0
  0
LINE
  5
19E
100
AcDbEntity
  8
52176991
370
         0
390
0
  6
CONTINUOUS
 62
         7
100
AcDbLine
 10
323.0567675024
 20
244.0768846875
 30
0.0
 11
309.0567675024
 21
244.0768846875
 31
0.0
  0
LINE
  5
19F
100
AcDbEntity
  8
52176991
370
         0
390
0
  6
CONTINUOUS
 62
         7
100
AcDbLine
 10
319.6004596381
 20
289.5768846875
 30
0.0
 11
319.3616880763
 21
289.5768846875
 31
0.0
  0
LINE
  5
1A0
100
AcDbEntity
  8
52176991
370
         0
390
0
  6
CONTINUOUS
 62
         7
100
AcDbLine
 10
312.5130753666
 20
284.5768846875
 30
0.0
 11
309.2081547927
 21
284.5768846875
 31
0.0
  0
LINE
  5
1A1
100
AcDbEntity
  8
52176991
370
         0
390
0
  6
CONTINUOUS
 62
         7
100
AcDbLine
 10
320.0567675024
 20
289.5768846875
 30
0.0
 11
320.0567675024
 21
292.5768846875
 31
0.0
  0
LINE
  5
1A2
100
AcDbEntity
  8
52176991
370
         0
390
0
  6
CONTINUOUS
 62
         7
100
AcDbLine
 10
322.9567675024
 20
295.9768846875
 30
0.0
 11
322.9567675024
 21
301.5768846875
 31
0.0
  0
LINE
  5
1A3
100
AcDbEntity
  8
52176991
370
         0
390
0
  6
CONTINUOUS
 62
         7
100
AcDbLine
 10
309.1567675024
 20
295.9768846875
 30
0.0
 11
310.0567675024
 21
295.0768846875
 31
0.0
  0
LINE
  5
1A4
100
AcDbEntity
  8
52176991
370
         0
390
0
  6
CONTINUOUS
 62
         7
100
AcDbLine
 10
322.8067675024
 20
292.5768846875
 30
0.0
 11
322.8067675024
 21
293.5768846875
 31
0.0
  0
LINE
  5
1A5
100
AcDbEntity
  8
52176991
370
         0
390
0
  6
CONTINUOUS
 62
         7
100
AcDbLine
 10
309.0618555444
 20
205.5768846875
 30
0.0
 11
307.0567675024
 21
205.5768846875
 31
0.0
  0
LINE
  5
1A6
100
AcDbEntity
  8
52176991
370
         0
390
0
  6
CONTINUOUS
 62
         7
100
AcDbLine
 10
323.0567675024
 20
245.5768846875
 30
0.0
 11
323.0567675024
 21
244.0768846875
 31
0.0
  0
LINE
  5
1A7
100
AcDbEntity
  8
52176991
370
         0
390
0
  6
CONTINUOUS
 62
         7
100
AcDbLine
 10
312.7518469284
 20
289.5768846875
 30
0.0
 11
312.5130753666
 21
289.5768846875
 31
0.0
  0
LINE
  5
1A8
100
AcDbEntity
  8
52176991
370
         0
390
0
  6
CONTINUOUS
 62
         7
100
AcDbLine
 10
322.9067675024
 20
289.5768846875
 30
0.0
 11
322.905380212
 21
289.5768846875
 31
0.0
  0
LINE
  5
1A9
100
AcDbEntity
  8
52176991
370
         0
390
0
  6
CONTINUOUS
 62
         7
100
AcDbLine
 10
325.0567675024
 20
13.5768846875
 30
0.0
 11
325.0567675024
 21
205.5768846875
 31
0.0
  0
LINE
  5
1AA
100
AcDbEntity
  8
52176991
370
         0
390
0
  6
CONTINUOUS
 62
         7
100
AcDbLine
 10
309.0567675024
 20
244.0768846875
 30
0.0
 11
309.0567675024
 21
245.5768846875
 31
0.0
  0
ARC
  5
1AB
100
AcDbEntity
  8
52176991
370
         0
390
0
  6
CONTINUOUS
 62
         7
100
AcDbCircle
 10
316.0567675029
 20
301.3283784285
 30
0.0
 40
96.0070234598
100
AcDbArc
 50
265.8187784462
 51
274.181221826
  0
LINE
  5
1AC
100
AcDbEntity
  8
52176991
370
         0
390
0
  6
CONTINUOUS
 62
         7
100
AcDbLine
 10
323.0567675024
 20
254.0768846875
 30
0.0
 11
324.5567675024
 21
254.9429100913
 31
0.0
  0
LINE
  5
1AD
100
AcDbEntity
  8
52176991
370
         0
390
0
  6
CONTINUOUS
 62
         7
100
AcDbLine
 10
307.5567675024
 20
254.9429100913
 30
0.0
 11
309.0567675024
 21
254.0768846875
 31
0.0
  0
LINE
  5
1AE
100
AcDbEntity
  8
52176991
370
         0
390
0
  6
CONTINUOUS
 62
         7
100
AcDbLine
 10
312.5130753666
 20
289.5768846875
 30
0.0
 11
309.2081547927
 21
289.5768846875
 31
0.0
  0
LINE
  5
1AF
100
AcDbEntity
  8
52176991
370
         0
390
0
  6
CONTINUOUS
 62
         7
100
AcDbLine
 10
322.905380212
 20
289.5768846875
 30
0.0
 11
319.6004596381
 21
289.5768846875
 31
0.0
  0
LINE
  5
1B0
100
AcDbEntity
  8
52176991
370
         0
390
0
  6
CONTINUOUS
 62
         7
100
AcDbLine
 10
319.3616880763
 20
289.5768846875
 30
0.0
 11
312.7518469284
 21
289.5768846875
 31
0.0
  0
LINE
  5
1B1
100
AcDbEntity
  8
52176991
370
         0
390
0
  6
CONTINUOUS
 62
         7
100
AcDbLine
 10
309.1567675024
 20
301.5768846875
 30
0.0
 11
322.9567675024
 21
301.5768846875
 31
0.0
  0
LINE
  5
1B2
100
AcDbEntity
  8
52176991
370
         0
390
0
  6
CONTINUOUS
 62
         7
100
AcDbLine
 10
312.5130753666
 20
284.5768846875
 30
0.0
 11
312.5130753666
 21
289.5768846875
 31
0.0
  0
LINE
  5
1B3
100
AcDbEntity
  8
52176991
370
         0
390
0
  6
CONTINUOUS
 62
         7
100
AcDbLine
 10
312.7518469284
 20
289.5768846875
 30
0.0
 11
312.7518469284
 21
284.5768846875
 31
0.0
  0
ENDBLK
  5
1B4
100
AcDbEntity
  8
52176991
370
         0
390
0
  6
CONTINUOUS
 62
         7
100
AcDbBlockEnd
  0
ENDSEC
  0
SECTION
  2
ENTITIES
  0
INSERT
  5
47
102
{ACAD_XDICTIONARY
360
48
102
}
100
AcDbEntity
  8
0
370
         0
390
0
 62
         0
 48
0.0
100
AcDbBlockReference
  2
SE1
 10
0.0
 20
0.0
 30
0.0
  0
INSERT
  5
4B
100
AcDbEntity
  8
0
370
         0
390
0
 62
         0
 48
0.0
100
AcDbBlockReference
  2
SE0
 10
0.0
 20
0.0
 30
0.0
  0
INSERT
  5
4E
102
{ACAD_XDICTIONARY
360
4F
102
}
100
AcDbEntity
  8
0
370
         0
390
0
 62
         0
 48
0.0
100
AcDbBlockReference
  2
SE3
 10
0.0
 20
0.0
 30
0.0
  0
INSERT
  5
52
100
AcDbEntity
  8
0
370
         0
390
0
 62
         0
 48
0.0
100
AcDbBlockReference
  2
SE2
 10
0.0
 20
0.0
 30
0.0
  0
INSERT
  5
55
102
{ACAD_XDICTIONARY
360
56
102
}
100
AcDbEntity
  8
0
370
         0
390
0
 62
         0
 48
0.0
100
AcDbBlockReference
  2
SE5
 10
0.0
 20
0.0
 30
0.0
  0
INSERT
  5
59
100
AcDbEntity
  8
0
370
         0
390
0
 62
         0
 48
0.0
100
AcDbBlockReference
  2
SE4
 10
0.0
 20
0.0
 30
0.0
  0
INSERT
  5
5C
102
{ACAD_XDICTIONARY
360
5D
102
}
100
AcDbEntity
  8
0
370
         0
390
0
 62
         0
 48
0.0
100
AcDbBlockReference
  2
SE7
 10
0.0
 20
0.0
 30
0.0
  0
INSERT
  5
60
100
AcDbEntity
  8
0
370
         0
390
0
 62
         0
 48
0.0
100
AcDbBlockReference
  2
SE6
 10
0.0
 20
0.0
 30
0.0
  0
ENDSEC
  0
SECTION
  2
OBJECTS
  0
DICTIONARY
  5
19
100
AcDbDictionary
280
         0
281
         1
  3
ACAD_GROUP
350
1A
  3
ACAD_MLINESTYLE
350
1B
  3
ACAD_LAYOUT
350
1E
  3
ACAD_PLOTSETTINGS
350
22
  3
ACAD_PLOTSTYLENAME
350
1F
  3
ACAD_WIPEOUT_VARS
350
23
  3
AcDbVariableDictionary
350
1B7
  0
DICTIONARY
  5
1A
102
{ACAD_REACTORS
330
19
102
}
100
AcDbDictionary
280
         0
281
         1
  0
DICTIONARY
  5
1B
102
{ACAD_REACTORS
330
19
102
}
100
AcDbDictionary
280
         0
281
         1
  3
Standard
350
1C
  0
MLINESTYLE
  5
1C
102
{ACAD_REACTORS
330
1B
102
}
100
AcDbMlineStyle
  2
Standard
 70
         0
  3

 62
         0
 51
90.0
 52
90.0
 71
         2
 49
0.5
 62
       256
  6
ByLayer
 49
-0.5
 62
       256
  6
ByLayer
  0
ACDBDICTIONARYWDFLT
  5
1F
102
{ACAD_REACTORS
330
19
102
}
100
AcDbDictionary
281
         1
  3
Normal
350
1D
100
AcDbDictionaryWithDefault
340
1D
  0
ACDBPLACEHOLDER
  5
1D
102
{ACAD_REACTORS
330
1F
102
}
  0
LAYOUT
  5
20
102
{ACAD_REACTORS
330
1E
102
}
100
AcDbPlotSettings
  1

  2

  4

  6

 40
0.0
 41
0.0
 42
0.0
 43
0.0
 44
0.0
 45
0.0
 46
0.0
 47
0.0
 48
0.0
 49
0.0
140
0.0
141
0.0
142
1.0
143
1.0
 70
      1024
 72
         0
 73
         0
 74
         0
  7

 75
         0
147
1.0
148
0.0
149
0.0
100
AcDbLayout
  1
Model
 70
         0
 71
         0
 10
0.0
 20
0.0
 11
0.0
 21
0.0
 12
0.0
 22
0.0
 32
0.0
 14
0.0
 24
0.0
 34
0.0
 15
0.0
 25
0.0
 35
0.0
146
0.0
 13
0.0
 23
0.0
 33
0.0
 16
0.0
 26
0.0
 36
0.0
 17
0.0
 27
0.0
 37
0.0
 76
         0
330
A
331
0
345
0
346
0
  0
LAYOUT
  5
21
102
{ACAD_REACTORS
330
1E
102
}
100
AcDbPlotSettings
  1

  2

  4

  6

 40
0.0
 41
0.0
 42
0.0
 43
0.0
 44
0.0
 45
0.0
 46
0.0
 47
0.0
 48
0.0
 49
0.0
140
0.0
141
0.0
142
1.0
143
1.0
 70
         0
 72
         0
 73
         0
 74
         0
  7

 75
         0
147
1.0
148
0.0
149
0.0
100
AcDbLayout
  1
Layout1
 70
         0
 71
         0
 10
0.0
 20
0.0
 11
0.0
 21
0.0
 12
0.0
 22
0.0
 32
0.0
 14
0.0
 24
0.0
 34
0.0
 15
0.0
 25
0.0
 35
0.0
146
0.0
 13
0.0
 23
0.0
 33
0.0
 16
0.0
 26
0.0
 36
0.0
 17
0.0
 27
0.0
 37
0.0
 76
         0
330
B
331
0
345
0
346
0
  0
DICTIONARY
  5
1E
102
{ACAD_REACTORS
330
19
102
}
100
AcDbDictionary
280
         0
281
         1
  3
Layout1
350
21
  3
Model
350
20
  0
DICTIONARY
  5
22
102
{ACAD_REACTORS
330
19
102
}
100
AcDbDictionary
280
         0
281
         1
  0
WIPEOUTVARIABLES
  5
23
100
AcDbWipeoutVariables
 70
         1
  0
DICTIONARY
  5
48
100
AcDbDictionary
280
         0
281
         0
  3
ACAD_FILTER
350
49
  0
DICTIONARY
  5
49
100
AcDbDictionary
280
         0
281
         0
  3
SPATIAL
350
4A
  0
SPATIAL_FILTER
  5
4A
100
AcDbFilter
100
AcDbSpatialFilter
 70
         2
 10
11.6388999772
 20
7.2268908864
 10
42.3388992023
 20
307.9268784886
210
0.0
220
0.0
230
1.0
 11
0.0
 21
0.0
 31
0.0
 71
         1
 72
         0
 73
         0
 40
1.0
 40
0.0
 40
0.0
 40
0.0
 40
0.0
 40
1.0
 40
0.0
 40
0.0
 40
0.0
 40
0.0
 40
1.0
 40
0.0
 40
1.0
 40
0.0
 40
0.0
 40
0.0
 40
0.0
 40
1.0
 40
0.0
 40
0.0
 40
0.0
 40
0.0
 40
1.0
 40
0.0
  0
DICTIONARY
  5
4F
100
AcDbDictionary
280
         0
281
         0
  3
ACAD_FILTER
350
50
  0
DICTIONARY
  5
50
100
AcDbDictionary
280
         0
281
         0
  3
SPATIAL
350
51
  0
SPATIAL_FILTER
  5
51
100
AcDbFilter
100
AcDbSpatialFilter
 70
         2
 10
11.6388999772
 20
385.6010701298
 10
42.3388992023
 20
686.301057732
210
0.0
220
0.0
230
1.0
 11
0.0
 21
0.0
 31
0.0
 71
         1
 72
         0
 73
         0
 40
1.0
 40
0.0
 40
0.0
 40
0.0
 40
0.0
 40
1.0
 40
0.0
 40
0.0
 40
0.0
 40
0.0
 40
1.0
 40
0.0
 40
1.0
 40
0.0
 40
0.0
 40
0.0
 40
0.0
 40
1.0
 40
0.0
 40
0.0
 40
0.0
 40
0.0
 40
1.0
 40
0.0
  0
DICTIONARY
  5
56
100
AcDbDictionary
280
         0
281
         0
  3
ACAD_FILTER
350
57
  0
DICTIONARY
  5
57
100
AcDbDictionary
280
         0
281
         0
  3
SPATIAL
350
58
  0
SPATIAL_FILTER
  5
58
100
AcDbFilter
100
AcDbSpatialFilter
 70
         2
 10
117.5890264954
 20
385.6010701298
 10
418.2890140976
 20
686.301057732
210
0.0
220
0.0
230
1.0
 11
0.0
 21
0.0
 31
0.0
 71
         1
 72
         0
 73
         0
 40
1.0
 40
0.0
 40
0.0
 40
0.0
 40
0.0
 40
1.0
 40
0.0
 40
0.0
 40
0.0
 40
0.0
 40
1.0
 40
0.0
 40
1.0
 40
0.0
 40
0.0
 40
0.0
 40
0.0
 40
1.0
 40
0.0
 40
0.0
 40
0.0
 40
0.0
 40
1.0
 40
0.0
  0
DICTIONARY
  5
5D
100
AcDbDictionary
280
         0
281
         0
  3
ACAD_FILTER
350
5E
  0
DICTIONARY
  5
5E
100
AcDbDictionary
280
         0
281
         0
  3
SPATIAL
350
5F
  0
SPATIAL_FILTER
  5
5F
100
AcDbFilter
100
AcDbSpatialFilter
 70
         2
 10
300.7067678898
 20
7.2268908864
 10
331.4067671149
 20
307.9268784886
210
0.0
220
0.0
230
1.0
 11
0.0
 21
0.0
 31
0.0
 71
         1
 72
         0
 73
         0
 40
1.0
 40
0.0
 40
0.0
 40
0.0
 40
0.0
 40
1.0
 40
0.0
 40
0.0
 40
0.0
 40
0.0
 40
1.0
 40
0.0
 40
1.0
 40
0.0
 40
0.0
 40
0.0
 40
0.0
 40
1.0
 40
0.0
 40
0.0
 40
0.0
 40
0.0
 40
1.0
 40
0.0
  0
DICTIONARY
  5
1B7
100
AcDbDictionary
280
         0
281
         0
  3
DIMASSOC
350
1B8
  0
DICTIONARYVAR
  5
1B8
100
DictionaryVariables
280
         0
  1
2
  0
ENDSEC
  0
EOF
