  0
SECTION
  2
HEADER
  9
$ACADVER
  1
AC1015
  9
$ACADMAINTVER
 70
         6
  9
$DWGCODEPAGE
  3
ANSI_1252
  9
$INSBASE
 10
0.0
 20
0.0
 30
0.0
  9
$EXTMIN
 10
0.0
 20
0.0
 30
0.0
  9
$EXTMAX
 10
841.0
 20
594.0
 30
0.0
  9
$LIMMIN
 10
0.0
 20
0.0
  9
$LIMMAX
 10
841.0
 20
594.0
  9
$ORTHOMODE
 70
         0
  9
$REGENMODE
 70
         1
  9
$FILLMODE
 70
         1
  9
$QTEXTMODE
 70
         0
  9
$MIRRTEXT
 70
         1
  9
$LTSCALE
 40
25.4
  9
$ATTMODE
 70
         1
  9
$TEXTSIZE
 40
0.2
  9
$TRACEWID
 40
0.05
  9
$TEXTSTYLE
  7
Standard
  9
$CLAYER
  8
0
  9
$CELTYPE
  6
CONTINUOUS
  9
$CECOLOR
 62
       256
  9
$CELTSCALE
 40
1.0
  9
$DISPSILH
 70
         0
  9
$DIMSCALE
 40
1.0
  9
$DIMASZ
 40
0.18
  9
$DIMEXO
 40
0.0625
  9
$DIMDLI
 40
0.38
  9
$DIMRND
 40
0.0
  9
$DIMDLE
 40
0.0
  9
$DIMEXE
 40
0.18
  9
$DIMTP
 40
0.0
  9
$DIMTM
 40
0.0
  9
$DIMTXT
 40
0.18
  9
$DIMCEN
 40
0.09
  9
$DIMTSZ
 40
0.0
  9
$DIMTOL
 70
         0
  9
$DIMLIM
 70
         0
  9
$DIMTIH
 70
         1
  9
$DIMTOH
 70
         1
  9
$DIMSE1
 70
         0
  9
$DIMSE2
 70
         0
  9
$DIMTAD
 70
         0
  9
$DIMZIN
 70
         0
  9
$DIMBLK
  1

  9
$DIMASO
 70
         1
  9
$DIMSHO
 70
         1
  9
$DIMPOST
  1

  9
$DIMAPOST
  1

  9
$DIMALT
 70
         0
  9
$DIMALTD
 70
         2
  9
$DIMALTF
 40
25.4
  9
$DIMLFAC
 40
1.0
  9
$DIMTOFL
 70
         0
  9
$DIMTVP
 40
0.0
  9
$DIMTIX
 70
         0
  9
$DIMSOXD
 70
         0
  9
$DIMSAH
 70
         0
  9
$DIMBLK1
  1

  9
$DIMBLK2
  1

  9
$DIMSTYLE
  2
Standard
  9
$DIMCLRD
 70
         0
  9
$DIMCLRE
 70
         0
  9
$DIMCLRT
 70
         0
  9
$DIMTFAC
 40
1.0
  9
$DIMGAP
 40
0.09
  9
$DIMJUST
 70
         0
  9
$DIMSD1
 70
         0
  9
$DIMSD2
 70
         0
  9
$DIMTOLJ
 70
         1
  9
$DIMTZIN
 70
         0
  9
$DIMALTZ
 70
         0
  9
$DIMALTTZ
 70
         0
  9
$DIMUPT
 70
         0
  9
$DIMDEC
 70
         4
  9
$DIMTDEC
 70
         4
  9
$DIMALTU
 70
         2
  9
$DIMALTTD
 70
         2
  9
$DIMTXSTY
  7
Standard
  9
$DIMAUNIT
 70
         0
  9
$DIMADEC
 70
         0
  9
$DIMALTRND
 40
0.0
  9
$DIMAZIN
 70
         0
  9
$DIMDSEP
 70
         0
  9
$DIMATFIT
 70
         3
  9
$DIMFRAC
 70
         0
  9
$DIMLDRBLK
  1

  9
$DIMLUNIT
 70
         2
  9
$DIMLWD
 70
         0
  9
$DIMLWE
 70
         0
  9
$DIMTMOVE
 70
         0
  9
$LUNITS
 70
         2
  9
$LUPREC
 70
         4
  9
$SKETCHINC
 40
0.1
  9
$FILLETRAD
 40
0.0
  9
$AUNITS
 70
         0
  9
$AUPREC
 70
         0
  9
$MENU
  1
acad
  9
$ELEVATION
 40
0.0
  9
$PELEVATION
 40
0.0
  9
$THICKNESS
 40
0.0
  9
$LIMCHECK
 70
         0
  9
$CHAMFERA
 40
0.0
  9
$CHAMFERB
 40
0.0
  9
$CHAMFERC
 40
0.0
  9
$CHAMFERD
 40
0.0
  9
$SKPOLY
 70
         0
  9
$TDCREATE
 40
0.000000000
  9
$TDUCREATE
 40
0.000000000
  9
$TDUPDATE
 40
0.000000000
  9
$TDUUPDATE
 40
0.000000000
  9
$TDINDWG
 40
0.0000000000
  9
$TDUSRTIMER
 40
0.0000000000
  9
$USRTIMER
 70
         1
  9
$ANGBASE
 50
0.0
  9
$ANGDIR
 70
         0
  9
$PDMODE
 70
         0
  9
$PDSIZE
 40
0.0
  9
$PLINEWID
 40
0.0
  9
$SPLFRAME
 70
         0
  9
$SPLINETYPE
 70
         6
  9
$SPLINESEGS
 70
         8
  9
$HANDSEED
  5
1B9
  9
$SURFTAB1
 70
         6
  9
$SURFTAB2
 70
         6
  9
$SURFTYPE
 70
         6
  9
$SURFU
 70
         6
  9
$SURFV
 70
         6
  9
$UCSBASE
  2

  9
$UCSNAME
  2

  9
$UCSORG
 10
0.0
 20
0.0
 30
0.0
  9
$UCSXDIR
 10
1.0
 20
0.0
 30
0.0
  9
$UCSYDIR
 10
0.0
 20
1.0
 30
0.0
  9
$UCSORTHOREF
  2

  9
$UCSORTHOVIEW
 70
         0
  9
$UCSORGTOP
 10
0.0
 20
0.0
 30
0.0
  9
$UCSORGBOTTOM
 10
0.0
 20
0.0
 30
0.0
  9
$UCSORGLEFT
 10
0.0
 20
0.0
 30
0.0
  9
$UCSORGRIGHT
 10
0.0
 20
0.0
 30
0.0
  9
$UCSORGFRONT
 10
0.0
 20
0.0
 30
0.0
  9
$UCSORGBACK
 10
0.0
 20
0.0
 30
0.0
  9
$PUCSBASE
  2

  9
$PUCSNAME
  2

  9
$PUCSORG
 10
0.0
 20
0.0
 30
0.0
  9
$PUCSXDIR
 10
1.0
 20
0.0
 30
0.0
  9
$PUCSYDIR
 10
0.0
 20
1.0
 30
0.0
  9
$PUCSORTHOREF
  2

  9
$PUCSORTHOVIEW
 70
         0
  9
$PUCSORGTOP
 10
0.0
 20
0.0
 30
0.0
  9
$PUCSORGBOTTOM
 10
0.0
 20
0.0
 30
0.0
  9
$PUCSORGLEFT
 10
0.0
 20
0.0
 30
0.0
  9
$PUCSORGRIGHT
 10
0.0
 20
0.0
 30
0.0
  9
$PUCSORGFRONT
 10
0.0
 20
0.0
 30
0.0
  9
$PUCSORGBACK
 10
0.0
 20
0.0
 30
0.0
  9
$USERI1
 70
         0
  9
$USERI2
 70
         0
  9
$USERI3
 70
         0
  9
$USERI4
 70
         0
  9
$USERI5
 70
         0
  9
$USERR1
 40
0.0
  9
$USERR2
 40
0.0
  9
$USERR3
 40
0.0
  9
$USERR4
 40
0.0
  9
$USERR5
 40
0.0
  9
$WORLDVIEW
 70
         1
  9
$SHADEDGE
 70
         3
  9
$SHADEDIF
 70
        70
  9
$TILEMODE
 70
         1
  9
$MAXACTVP
 70
        16
  9
$PINSBASE
 10
0.0
 20
0.0
 30
0.0
  9
$PLIMCHECK
 70
         0
  9
$PEXTMIN
 10
1.0000000000E+20
 20
1.0000000000E+20
 30
1.0000000000E+20
  9
$PEXTMAX
 10
-1.0000000000E+20
 20
-1.0000000000E+20
 30
-1.0000000000E+20
  9
$PLIMMIN
 10
0.0
 20
0.0
  9
$PLIMMAX
 10
12.0
 20
9.0
  9
$UNITMODE
 70
         0
  9
$VISRETAIN
 70
         0
  9
$PLINEGEN
 70
         1
  9
$PSLTSCALE
 70
         0
  9
$TREEDEPTH
 70
      3020
  9
$CMLSTYLE
  2
Standard
  9
$CMLJUST
 70
         0
  9
$CMLSCALE
 40
1.0
  9
$PROXYGRAPHICS
 70
         0
  9
$MEASUREMENT
 70
         0
  9
$CELWEIGHT
370
         0
  9
$ENDCAPS
280
         0
  9
$JOINSTYLE
280
         0
  9
$LWDISPLAY
290
         0
  9
$INSUNITS
 70
         0
  9
$HYPERLINKBASE
  1

  9
$STYLESHEET
  1

  9
$XEDIT
290
         1
  9
$CEPSNTYPE
380
         0
  9
$PSTYLEMODE
290
         1
  9
$FINGERPRINTGUID
  2

  9
$VERSIONGUID
  2

  9
$EXTNAMES
290
         1
  9
$PSVPSCALE
 40
0.0
  0
ENDSEC
  0
SECTION
  2
CLASSES
  0
CLASS
  1
LWPOLYLINE
  2
AcDbPolyline
  3
AutoCAD 2000
 90
        0
280
         0
281
         1
  0
CLASS
  1
IMAGE
  2
AcDbRasterImage
  3
ISM
 90
      127
280
         0
281
         1
  0
CLASS
  1
OLE2FRAME
  2
AcDbOle2Frame
  3
AutoCAD 2000
 90
        0
280
         0
281
         1
  0
CLASS
  1
HATCH
  2
AcDbHatch
  3
AutoCAD 2000
 90
        0
280
         0
281
         1
  0
CLASS
  1
DICTIONARYVAR
  2
AcDbDictionaryVar
  3
AutoCAD 2000
 90
        0
280
         0
281
         0
  0
CLASS
  1
RASTERVARIABLES
  2
AcDbRasterVariables
  3
ISM
 90
        0
280
         0
281
         0
  0
CLASS
  1
IMAGEDEF
  2
AcDbRasterImageDef
  3
ISM
 90
        0
280
         0
281
         0
  0
CLASS
  1
IMAGEDEF_REACTOR
  2
AcDbRasterImageDefReactor
  3
ISM
 90
        1
280
         0
281
         0
  0
CLASS
  1
IDBUFFER
  2
AcDbIdBuffer
  3
AutoCAD 2000
 90
        0
280
         0
281
         0
  0
CLASS
  1
SPATIAL_FILTER
  2
AcDbSpatialFilter
  3
AutoCAD 2000
 90
        0
280
         0
281
         0
  0
CLASS
  1
XRECORD
  2
AcDbXrecord
  3
AutoCAD 2000
 90
        0
280
         0
281
         0
  0
CLASS
  1
SORTENTSTABLE
  2
AcDbSortentsTable
  3
AutoCAD 2000
 90
        0
280
         0
281
         0
  0
CLASS
  1
LAYER_INDEX
  2
AcDbLayerIndex
  3
AutoCAD 2000
 90
        0
280
         0
281
         0
  0
CLASS
  1
SPATIAL_INDEX
  2
AcDbSpatialIndex
  3
AutoCAD 2000
 90
        0
280
         0
281
         0
  0
CLASS
  1
OBJECT_PTR
  2
CAseDLPNTableRecord
  3
"ASE-LPNTableRecord"
 90
        1
280
         0
281
         0
  0
CLASS
  1
LAYOUT
  2
AcDbLayout
  3
AutoCAD 2000
 90
        0
280
         0
281
         0
  0
CLASS
  1
PLOTSETTINGS
  2
AcDbPlotSettings
  3
AutoCAD 2000
 90
        0
280
         0
281
         0
  0
CLASS
  1
ACDBDICTIONARYWDFLT
  2
AcDbDictionaryWithDefault
  3
AutoCAD 2000
 90
        0
280
         0
281
         0
  0
CLASS
  1
ACDBPLACEHOLDER
  2
AcDbPlaceHolder
  3
AutoCAD 2000
 90
        0
280
         0
281
         0
  0
CLASS
  1
VBA_PROJECT
  2
AcDbVbaProject
  3
acadvba
 90
        0
280
         0
281
         0
  0
CLASS
  1
WIPEOUT
  2
AcDbWipeout
  3
WipeOut|AutoCAD Express Tool|expresstools@autodesk.com
 90
      127
280
         0
281
         1
  0
CLASS
  1
WIPEOUTVARIABLES
  2
AcDbWipeoutVariables
  3
WipeOut|AutoCAD Express Tool|expresstools@autodesk.com
 90
        0
280
         0
281
         0
  0
CLASS
  1
RTEXT
  2
RText
  3
RText|AutoCAD Express Tool|expresstools@autodesk.com
 90
        0
280
         0
281
         1
  0
CLASS
  1
ARCALIGNEDTEXT
  2
AcDbArcAlignedText
  3
ATEXT|AutoCAD Express Tool|expresstools@autodesk.com
 90
        0
280
         0
281
         1
  0
ENDSEC
  0
SECTION
  2
TABLES
  0
TABLE
  2
VPORT
  5
7
100
AcDbSymbolTable
 70
         1
  0
VPORT
  5
15
100
AcDbSymbolTableRecord
100
AcDbViewportTableRecord
  2
*ACTIVE
 70
         0
 10
0.0
 20
0.0
 11
1.0
 21
1.0
 12
420.5
 22
297.0
 13
0.0
 23
0.0
 14
1.0
 24
1.0
 15
0.0
 25
0.0
 16
0.0
 26
0.0
 36
1.0
 17
0.0
 27
0.0
 37
0.0
 40
594.0
 41
1.604229
 42
50.0
 43
0.0
 44
0.0
 50
0.0
 51
0.0
 71
         0
 72
       100
 73
         1
 74
         1
 75
         0
 76
         0
 77
         0
 78
         0
281
         0
 65
         0
110
0.0
120
0.0
130
0.0
111
1.0
121
0.0
131
0.0
112
0.0
122
1.0
132
0.0
345
0
346
0
 79
         0
146
0.0
  0
ENDTAB
  0
TABLE
  2
LTYPE
  5
4
100
AcDbSymbolTable
 70
         7
  0
LTYPE
  5
11
100
AcDbSymbolTableRecord
100
AcDbLinetypeTableRecord
  2
ByBlock
 70
        64
  3

 72
        65
 73
         0
 40
0.0
  0
LTYPE
  5
12
100
AcDbSymbolTableRecord
100
AcDbLinetypeTableRecord
  2
ByLayer
 70
        64
  3

 72
        65
 73
         0
 40
0.0
  0
LTYPE
  5
13
100
AcDbSymbolTableRecord
100
AcDbLinetypeTableRecord
  2
CONTINUOUS
 70
         0
  3
Solid line
 72
        65
 73
         0
 40
0.0
  0
LTYPE
  5
28
100
AcDbSymbolTableRecord
100
AcDbLinetypeTableRecord
  2
HIDDEN2
 70
        64
  3
_ _ _ _ _ _ _ _ _ _ _ _ _ _ _ _ _ _ _ _ _ _ _ _
 72
        65
 73
         2
 40
0.1875
 49
0.125
 74
         0
 49
-0.0625
 74
         0
  0
LTYPE
  5
29
100
AcDbSymbolTableRecord
100
AcDbLinetypeTableRecord
  2
CENTER2
 70
        64
  3
___ _ ___ _ ___ _ ___ _ ___ _ ___ _ ___ _ ___ _
 72
        65
 73
         4
 40
1.125
 49
0.75
 74
         0
 49
-0.125
 74
         0
 49
0.125
 74
         0
 49
-0.125
 74
         0
  0
LTYPE
  5
2A
100
AcDbSymbolTableRecord
100
AcDbLinetypeTableRecord
  2
PHANTOM2
 70
        64
  3
___ _ _ ___ _ _ ___ _ _ ___ _ _ ___ _ _ ___ _ _
 72
        65
 73
         6
 40
1.25
 49
0.625
 74
         0
 49
-0.125
 74
         0
 49
0.125
 74
         0
 49
-0.125
 74
         0
 49
0.125
 74
         0
 49
-0.125
 74
         0
  0
LTYPE
  5
2B
100
AcDbSymbolTableRecord
100
AcDbLinetypeTableRecord
  2
DOT2
 70
        64
  3
...............................................
 72
        65
 73
         2
 40
0.125
 49
0.0
 74
         0
 49
-0.125
 74
         0
  0
ENDTAB
  0
TABLE
  2
LAYER
  5
2
100
AcDbSymbolTable
 70
         5
  0
LAYER
  5
14
100
AcDbSymbolTableRecord
100
AcDbLayerTableRecord
  2
0
 70
         0
 62
         7
  6
CONTINUOUS
290
         1
370
        -3
390
1D
  0
LAYER
  5
2D
100
AcDbSymbolTableRecord
100
AcDbLayerTableRecord
  2
DEFAULT
 70
         0
 62
         7
  6
CONTINUOUS
290
         1
370
        -3
390
0
  0
LAYER
  5
2F
100
AcDbSymbolTableRecord
100
AcDbLayerTableRecord
  2
04
 70
         0
 62
         7
  6
CONTINUOUS
290
         1
370
        -3
390
0
  0
LAYER
  5
31
100
AcDbSymbolTableRecord
100
AcDbLayerTableRecord
  2
20
 70
         0
 62
         7
  6
CONTINUOUS
290
         1
370
        -3
390
0
  0
LAYER
  5
44
100
AcDbSymbolTableRecord
100
AcDbLayerTableRecord
  2
52176990
 70
         0
 62
         7
  6
CONTINUOUS
290
         1
370
        -3
390
0
  0
ENDTAB
  0
TABLE
  2
STYLE
  5
3
100
AcDbSymbolTable
 70
         1
  0
STYLE
  5
17
100
AcDbSymbolTableRecord
100
AcDbTextStyleTableRecord
  2
Standard
 70
         0
 40
0.0
 41
1.0
 50
0.0
 71
         0
 42
0.2
  3
txt
  4

  0
ENDTAB
  0
TABLE
  2
VIEW
  5
5
100
AcDbSymbolTable
 70
         0
  0
ENDTAB
  0
TABLE
  2
UCS
  5
6
100
AcDbSymbolTable
 70
         0
  0
ENDTAB
  0
TABLE
  2
APPID
  5
8
100
AcDbSymbolTable
 70
         1
  0
APPID
  5
16
100
AcDbSymbolTableRecord
100
AcDbRegAppTableRecord
  2
ACAD
 70
         0
  0
ENDTAB
  0
TABLE
  2
DIMSTYLE
  5
9
100
AcDbSymbolTable
 70
         1
100
AcDbDimStyleTable
 71
         0
  0
DIMSTYLE
105
18
100
AcDbSymbolTableRecord
100
AcDbDimStyleTableRecord
  2
Standard
 70
         0
  3

  4

 40
1.0
 41
0.18
 42
0.0625
 43
0.38
 44
0.18
 45
0.0
 46
0.0
 47
0.0
 48
0.0
 71
         0
 72
         0
 73
         1
 74
         1
 75
         0
 76
         0
 77
         0
 78
         0
 79
         0
140
0.18
141
0.09
142
0.0
143
25.4
144
1.0
145
0.0
146
1.0
147
0.09
148
0.0
170
         0
171
         2
172
         0
173
         0
174
         0
175
         0
176
         0
177
         0
178
         0
179
         0
271
         4
272
         4
273
         2
274
         2
275
         0
276
         0
277
         2
278
        46
279
         0
280
         0
281
         0
282
         0
283
         1
284
         0
285
         0
286
         0
288
         0
289
         0
340
17
341
0
342
0
343
0
344
0
371
        -2
372
        -2
  0
ENDTAB
  0
TABLE
  2
BLOCK_RECORD
  5
1
100
AcDbSymbolTable
 70
         8
  0
BLOCK_RECORD
  5
A
100
AcDbSymbolTableRecord
100
AcDbBlockTableRecord
  2
*MODEL_SPACE
340
20
  0
BLOCK_RECORD
  5
B
100
AcDbSymbolTableRecord
100
AcDbBlockTableRecord
  2
*PAPER_SPACE
340
21
  0
BLOCK_RECORD
  5
45
100
AcDbSymbolTableRecord
100
AcDbBlockTableRecord
  2
SE0
340
0
102
{BLKREFS
331
4B
102
}
  0
BLOCK_RECORD
  5
46
100
AcDbSymbolTableRecord
100
AcDbBlockTableRecord
  2
SE1
340
0
102
{BLKREFS
331
47
102
}
  0
BLOCK_RECORD
  5
4C
100
AcDbSymbolTableRecord
100
AcDbBlockTableRecord
  2
SE2
340
0
102
{BLKREFS
331
52
102
}
  0
BLOCK_RECORD
  5
4D
100
AcDbSymbolTableRecord
100
AcDbBlockTableRecord
  2
SE3
340
0
102
{BLKREFS
331
4E
102
}
  0
BLOCK_RECORD
  5
53
100
AcDbSymbolTableRecord
100
AcDbBlockTableRecord
  2
SE4
340
0
102
{BLKREFS
331
59
102
}
  0
BLOCK_RECORD
  5
54
100
AcDbSymbolTableRecord
100
AcDbBlockTableRecord
  2
SE5
340
0
102
{BLKREFS
331
55
102
}
  0
BLOCK_RECORD
  5
5A
100
AcDbSymbolTableRecord
100
AcDbBlockTableRecord
  2
SE6
340
0
102
{BLKREFS
331
60
102
}
  0
BLOCK_RECORD
  5
5B
100
AcDbSymbolTableRecord
100
AcDbBlockTableRecord
  2
SE7
340
0
102
{BLKREFS
331
5C
102
}
  0
ENDTAB
  0
ENDSEC
  0
SECTION
  2
BLOCKS
  0
BLOCK
  5
D
100
AcDbEntity
  8
0
390
0
100
AcDbBlockBegin
  2
*MODEL_SPACE
 70
         0
 10
0.0
 20
0.0
 30
0.0
  3
*MODEL_SPACE
  1

  0
ENDBLK
  5
E
100
AcDbEntity
  8
0
390
0
100
AcDbBlockEnd
  0
BLOCK
  5
F
100
AcDbEntity
 67
         1
  8
0
390
0
100
AcDbBlockBegin
  2
*PAPER_SPACE
 70
         0
 10
0.0
 20
0.0
 30
0.0
  3
*PAPER_SPACE
  1

  0
ENDBLK
  5
10
100
AcDbEntity
 67
         1
  8
0
390
0
100
AcDbBlockEnd
  0
BLOCK
  5
C6
100
AcDbEntity
  8
0
370
         0
390
0
 62
         1
 48
0.0
100
AcDbBlockBegin
  2
SE0
 70
         0
 10
0.0
 20
0.0
 30
0.0
  3
SE0
  1

  0
ENDBLK
  5
C7
100
AcDbEntity
  8
0
370
         0
390
0
 62
         1
 48
0.0
100
AcDbBlockEnd
  0
BLOCK
  5
61
100
AcDbEntity
  8
0
370
         0
390
0
 62
         1
 48
0.0
100
AcDbBlockBegin
  2
SE1
 70
         0
 10
0.0
 20
0.0
 30
0.0
  3
SE1
  1

  0
LINE
  5
62
100
AcDbEntity
  8
52176990
370
         0
390
0
  6
CONTINUOUS
 62
         7
100
AcDbLine
 10
31.7619659905
 20
209.8489639271
 30
0.0
 11
17.7619659905
 21
209.8489639271
 31
0.0
  0
CIRCLE
  5
63
100
AcDbEntity
  8
52176990
370
         0
390
0
  6
CONTINUOUS
 62
         7
100
AcDbCircle
 10
24.7619659905
 20
88.8489639271
 30
0.0
 40
6.9
  0
LINE
  5
64
100
AcDbEntity
  8
52176990
370
         0
390
0
  6
CONTINUOUS
 62
         7
100
AcDbLine
 10
17.7619659905
 20
209.8489639271
 30
0.0
 11
17.7619659905
 21
218.3489639271
 31
0.0
  0
LINE
  5
65
100
AcDbEntity
  8
52176990
370
         0
390
0
  6
CONTINUOUS
 62
         7
100
AcDbLine
 10
31.7619659905
 20
218.3489639271
 30
0.0
 11
31.7619659905
 21
209.8489639271
 31
0.0
  0
LINE
  5
66
100
AcDbEntity
  8
52176990
370
         0
390
0
  6
CONTINUOUS
 62
         7
100
AcDbLine
 10
33.2619659905
 20
232.8489639271
 30
0.0
 11
16.2619659905
 21
232.8489639271
 31
0.0
  0
LINE
  5
67
100
AcDbEntity
  8
52176990
370
         0
390
0
  6
CONTINUOUS
 62
         7
100
AcDbLine
 10
31.7619659905
 20
208.3489639271
 30
0.0
 11
17.7619659905
 21
208.3489639271
 31
0.0
  0
LINE
  5
68
100
AcDbEntity
  8
52176990
370
         0
390
0
  6
CONTINUOUS
 62
         7
100
AcDbLine
 10
21.7619659905
 20
141.1339488219
 30
0.0
 11
21.7619659905
 21
141.2758661165
 31
0.0
  0
ELLIPSE
  5
69
100
AcDbEntity
  8
52176990
370
         0
390
0
  6
CONTINUOUS
 62
         7
100
AcDbEllipse
 10
25.8257476142
 20
88.8489632709
 30
0.0
 11
273.15230707616439
 21
59.886240749751032
 31
0.0
210
0.0
220
0.0
230
1.0
 40
0.2007555193
 41
1.5197292099435979
 42
1.5416743382383808
  0
LINE
  5
6A
100
AcDbEntity
  8
52176990
370
         0
390
0
  6
CONTINUOUS
 62
         7
100
AcDbLine
 10
21.7619659905
 20
145.406304801
 30
0.0
 11
21.7619659905
 21
146.7514229943
 31
0.0
  0
LINE
  5
6B
100
AcDbEntity
  8
52176990
370
         0
390
0
  6
CONTINUOUS
 62
         7
100
AcDbLine
 10
26.1071221578
 20
148.8526281327
 30
0.0
 11
26.1071221578
 21
148.9942179199
 31
0.0
  0
LINE
  5
6C
100
AcDbEntity
  8
52176990
370
         0
390
0
  6
CONTINUOUS
 62
         7
100
AcDbLine
 10
27.7619659905
 20
148.520457564
 30
0.0
 11
27.7619659905
 21
148.6620079704
 31
0.0
  0
LINE
  5
6D
100
AcDbEntity
  8
52176990
370
         0
390
0
  6
CONTINUOUS
 62
         7
100
AcDbLine
 10
33.2619659905
 20
219.2149893309
 30
0.0
 11
31.7619659905
 21
218.3489639271
 31
0.0
  0
LINE
  5
6E
100
AcDbEntity
  8
52176990
370
         0
390
0
  6
CONTINUOUS
 62
         7
100
AcDbLine
 10
17.7619659905
 20
208.3489639271
 30
0.0
 11
17.7619659905
 21
209.8489639271
 31
0.0
  0
SPLINE
  5
6F
100
AcDbEntity
  8
52176990
370
         0
390
0
  6
CONTINUOUS
 62
         7
100
AcDbSpline
210
0.0
220
0.0
230
1.0
 70
        12
 71
         2
 72
         6
 73
         3
 74
         0
 42
0.0
 43
0.0
 40
0.0
 40
0.0
 40
0.0
 40
1.0
 40
1.0
 40
1.0
 10
26.1071221577978
 20
148.85262813269205
 30
0.0
 41
1.0
 10
26.934428706784011
 20
148.68709665896003
 30
0.0
 41
1.0
 10
27.7619659905228
 20
148.52045756401679
 30
0.0
 41
1.0
  0
LINE
  5
70
100
AcDbEntity
  8
52176990
370
         0
390
0
  6
CONTINUOUS
 62
         7
100
AcDbLine
 10
21.7619659905
 20
149.5213470088
 30
0.0
 11
21.7619659905
 21
149.6417343939
 31
0.0
  0
LINE
  5
71
100
AcDbEntity
  8
52176990
370
         0
390
0
  6
CONTINUOUS
 62
         7
100
AcDbLine
 10
21.8696514927
 20
149.50005172
 30
0.0
 11
26.1071221578
 21
149.50005172
 31
0.0
  0
LINE
  5
72
100
AcDbEntity
  8
52176990
370
         0
390
0
  6
CONTINUOUS
 62
         7
100
AcDbLine
 10
17.7619659905
 20
218.3489639271
 30
0.0
 11
16.2619659905
 21
219.2149893309
 31
0.0
  0
ELLIPSE
  5
73
100
AcDbEntity
  8
52176990
370
         0
390
0
  6
CONTINUOUS
 62
         7
100
AcDbEllipse
 10
18.8723118434
 20
88.8489952096
 30
0.0
 11
340.23172572450869
 21
59.025765202176395
 31
0.0
210
0.0
220
0.0
230
1.0
 40
0.1638939974
 41
1.5206184399359135
 42
1.5338806502887439
  0
LINE
  5
74
100
AcDbEntity
  8
52176990
370
         0
390
0
  6
CONTINUOUS
 62
         7
100
AcDbLine
 10
21.7619659905
 20
145.264867783
 30
0.0
 11
21.7619659905
 21
145.406304801
 31
0.0
  0
LINE
  5
75
100
AcDbEntity
  8
52176990
370
         0
390
0
  6
CONTINUOUS
 62
         7
100
AcDbLine
 10
25.0617237745
 20
140.1645867678
 30
0.0
 11
25.9720964406
 21
140.1645867676
 31
0.0
  0
LINE
  5
76
100
AcDbEntity
  8
52176990
370
         0
390
0
  6
CONTINUOUS
 62
         7
100
AcDbLine
 10
21.7619659905
 20
142.0920787602
 30
0.0
 11
21.7619659905
 21
141.2758661165
 31
0.0
  0
LINE
  5
77
100
AcDbEntity
  8
52176990
370
         0
390
0
  6
CONTINUOUS
 62
         7
100
AcDbLine
 10
21.7619659905
 20
141.2758661165
 30
0.0
 11
25.0617237745
 21
141.2758661165
 31
0.0
  0
LINE
  5
78
100
AcDbEntity
  8
52176990
370
         0
390
0
  6
CONTINUOUS
 62
         7
100
AcDbLine
 10
15.7619659905
 20
7.8489639271
 30
0.0
 11
33.7619659905
 21
7.8489639271
 31
0.0
  0
LINE
  5
79
100
AcDbEntity
  8
52176990
370
         0
390
0
  6
CONTINUOUS
 62
         7
100
AcDbLine
 10
28.7619659905
 20
253.8489639271
 30
0.0
 11
28.7619659905
 21
256.8489639271
 31
0.0
  0
LINE
  5
7A
100
AcDbEntity
  8
52176990
370
         0
390
0
  6
CONTINUOUS
 62
         7
100
AcDbLine
 10
30.7619659905
 20
257.8489639271
 30
0.0
 11
30.7619659905
 21
259.3489639271
 31
0.0
  0
LINE
  5
7B
100
AcDbEntity
  8
52176990
370
         0
390
0
  6
CONTINUOUS
 62
         7
100
AcDbLine
 10
31.5119659905
 20
256.8489639271
 30
0.0
 11
31.5119659905
 21
257.8489639271
 31
0.0
  0
LINE
  5
7C
100
AcDbEntity
  8
52176990
370
         0
390
0
  6
CONTINUOUS
 62
         7
100
AcDbLine
 10
17.8619659905
 20
260.2489639271
 30
0.0
 11
18.7619659905
 21
259.3489639271
 31
0.0
  0
LINE
  5
7D
100
AcDbEntity
  8
52176990
370
         0
390
0
  6
CONTINUOUS
 62
         7
100
AcDbLine
 10
31.6619659905
 20
260.2489639271
 30
0.0
 11
31.6619659905
 21
265.8489639271
 31
0.0
  0
LINE
  5
7E
100
AcDbEntity
  8
52176990
370
         0
390
0
  6
CONTINUOUS
 62
         7
100
AcDbLine
 10
31.6119659905
 20
232.8489639271
 30
0.0
 11
31.6119659905
 21
253.8489639271
 31
0.0
  0
LINE
  5
7F
100
AcDbEntity
  8
52176990
370
         0
390
0
  6
CONTINUOUS
 62
         7
100
AcDbLine
 10
33.2619659905
 20
219.2149893309
 30
0.0
 11
33.2619659905
 21
232.8489639271
 31
0.0
  0
LINE
  5
80
100
AcDbEntity
  8
52176990
370
         0
390
0
  6
CONTINUOUS
 62
         7
100
AcDbLine
 10
31.7619659905
 20
169.8485119126
 30
0.0
 11
31.7619659905
 21
208.3489639271
 31
0.0
  0
LINE
  5
81
100
AcDbEntity
  8
52176990
370
         0
390
0
  6
CONTINUOUS
 62
         7
100
AcDbLine
 10
17.7619659905
 20
169.8489639271
 30
0.0
 11
15.7619659905
 21
169.8489639271
 31
0.0
  0
LINE
  5
82
100
AcDbEntity
  8
52176990
370
         0
390
0
  6
CONTINUOUS
 62
         7
100
AcDbLine
 10
17.9119659905
 20
253.8489639271
 30
0.0
 11
17.9119659905
 21
232.8489639271
 31
0.0
  0
LINE
  5
83
100
AcDbEntity
  8
52176990
370
         0
390
0
  6
CONTINUOUS
 62
         7
100
AcDbLine
 10
17.7619659905
 20
208.3489639271
 30
0.0
 11
17.7619659905
 21
169.8489639271
 31
0.0
  0
LINE
  5
84
100
AcDbEntity
  8
52176990
370
         0
390
0
  6
CONTINUOUS
 62
         7
100
AcDbLine
 10
16.2619659905
 20
232.8489639271
 30
0.0
 11
16.2619659905
 21
219.2149893309
 31
0.0
  0
LINE
  5
85
100
AcDbEntity
  8
52176990
370
         0
390
0
  6
CONTINUOUS
 62
         7
100
AcDbLine
 10
17.8619659905
 20
265.8489639271
 30
0.0
 11
17.8619659905
 21
260.2489639271
 31
0.0
  0
LINE
  5
86
100
AcDbEntity
  8
52176990
370
         0
390
0
  6
CONTINUOUS
 62
         7
100
AcDbLine
 10
30.7619659905
 20
259.3489639271
 30
0.0
 11
31.6619659905
 21
260.2489639271
 31
0.0
  0
LINE
  5
87
100
AcDbEntity
  8
52176990
370
         0
390
0
  6
CONTINUOUS
 62
         7
100
AcDbLine
 10
18.0119659905
 20
257.8489639271
 30
0.0
 11
18.0119659905
 21
256.8489639271
 31
0.0
  0
LINE
  5
88
100
AcDbEntity
  8
52176990
370
         0
390
0
  6
CONTINUOUS
 62
         7
100
AcDbLine
 10
18.7619659905
 20
259.3489639271
 30
0.0
 11
18.7619659905
 21
257.8489639271
 31
0.0
  0
LINE
  5
89
100
AcDbEntity
  8
52176990
370
         0
390
0
  6
CONTINUOUS
 62
         7
100
AcDbLine
 10
20.7619659905
 20
256.8489639271
 30
0.0
 11
20.7619659905
 21
253.8489639271
 31
0.0
  0
LINE
  5
8A
100
AcDbEntity
  8
52176990
370
         0
390
0
  6
CONTINUOUS
 62
         7
100
AcDbLine
 10
17.9119659905
 20
253.8489639271
 30
0.0
 11
17.9133532808
 21
253.8489639271
 31
0.0
  0
LINE
  5
8B
100
AcDbEntity
  8
52176990
370
         0
390
0
  6
CONTINUOUS
 62
         7
100
AcDbLine
 10
21.4570454166
 20
253.8489639271
 30
0.0
 11
21.2182738548
 21
253.8489639271
 31
0.0
  0
LINE
  5
8C
100
AcDbEntity
  8
52176990
370
         0
390
0
  6
CONTINUOUS
 62
         7
100
AcDbLine
 10
28.3056581263
 20
253.8489639271
 30
0.0
 11
28.0668865645
 21
253.8489639271
 31
0.0
  0
LINE
  5
8D
100
AcDbEntity
  8
52176990
370
         0
390
0
  6
CONTINUOUS
 62
         7
100
AcDbLine
 10
28.0668865645
 20
248.8489639271
 30
0.0
 11
21.4570454166
 21
248.8489639271
 31
0.0
  0
LINE
  5
8E
100
AcDbEntity
  8
52176990
370
         0
390
0
  6
CONTINUOUS
 62
         7
100
AcDbLine
 10
31.6105787002
 20
248.8489639271
 30
0.0
 11
28.3056581263
 21
248.8489639271
 31
0.0
  0
LINE
  5
8F
100
AcDbEntity
  8
52176990
370
         0
390
0
  6
CONTINUOUS
 62
         7
100
AcDbLine
 10
33.7619659905
 20
169.8489639271
 30
0.0
 11
31.7567592437
 21
169.8489639271
 31
0.0
  0
ELLIPSE
  5
90
100
AcDbEntity
  8
52176990
370
         0
390
0
  6
CONTINUOUS
 62
         7
100
AcDbEllipse
 10
33.9965885814
 20
88.8489637557
 30
0.0
 11
74.774967972198851
 21
74.844411344246751
 31
0.0
210
0.0
220
0.0
230
1.0
 40
0.4142134367
 41
1.2548665963689047
 42
1.2770649952487658
  0
LINE
  5
91
100
AcDbEntity
  8
52176990
370
         0
390
0
  6
CONTINUOUS
 62
         7
100
AcDbLine
 10
21.7619659905
 20
141.1339488219
 30
0.0
 11
25.0617237745
 21
141.1339488219
 31
0.0
  0
LINE
  5
92
100
AcDbEntity
  8
52176990
370
         0
390
0
  6
CONTINUOUS
 62
         7
100
AcDbLine
 10
25.0617237745
 20
140.3067064476
 30
0.0
 11
25.9720964406
 21
140.3067064476
 31
0.0
  0
LINE
  5
93
100
AcDbEntity
  8
52176990
370
         0
390
0
  6
CONTINUOUS
 62
         7
100
AcDbLine
 10
27.7619659905
 20
146.5297726283
 30
0.0
 11
27.7619659905
 21
146.6711975394
 31
0.0
  0
LINE
  5
94
100
AcDbEntity
  8
52176990
370
         0
390
0
  6
CONTINUOUS
 62
         7
100
AcDbLine
 10
21.7619659905
 20
147.5012936744
 30
0.0
 11
21.7619659905
 21
149.5213470087
 31
0.0
  0
SPLINE
  5
95
100
AcDbEntity
  8
52176990
370
         0
390
0
  6
CONTINUOUS
 62
         7
100
AcDbSpline
210
0.0
220
0.0
230
1.0
 70
        12
 71
         2
 72
         6
 73
         3
 74
         0
 42
0.0
 43
0.0
 40
0.0
 40
0.0
 40
0.0
 40
1.0
 40
1.0
 40
1.0
 10
23.308816175801915
 20
147.17736878080103
 30
0.0
 41
1.0
 10
22.535349095595752
 20
147.33981489183859
 30
0.0
 41
1.0
 10
21.761965990509935
 20
147.50129367456421
 30
0.0
 41
1.0
  0
LINE
  5
96
100
AcDbEntity
  8
52176990
370
         0
390
0
  6
CONTINUOUS
 62
         7
100
AcDbLine
 10
23.3088161758
 20
147.984707442
 30
0.0
 11
23.3088161758
 21
147.1773687807
 31
0.0
  0
CIRCLE
  5
97
100
AcDbEntity
  8
52176990
370
         0
390
0
  6
CONTINUOUS
 62
         7
100
AcDbCircle
 10
24.7619659905
 20
88.8489639271
 30
0.0
 40
8.5
  0
ELLIPSE
  5
98
100
AcDbEntity
  8
52176990
370
         0
390
0
  6
CONTINUOUS
 62
         7
100
AcDbEllipse
 10
25.8257475688
 20
88.8489655716
 30
0.0
 11
272.47951266259503
 21
59.738736396550252
 31
0.0
210
0.0
220
0.0
230
1.0
 40
0.2007555153
 41
1.5197117248034995
 42
1.5417110420498583
  0
ELLIPSE
  5
99
100
AcDbEntity
  8
52176990
370
         0
390
0
  6
CONTINUOUS
 62
         7
100
AcDbEllipse
 10
33.7395790619
 20
88.8488360519
 30
0.0
 11
-342.19232096912691
 21
58.854804717433659
 31
0.0
210
0.0
220
0.0
230
1.0
 40
0.1626333925
 41
4.7634168719930301
 42
4.7708285152105558
  0
SPLINE
  5
9A
100
AcDbEntity
  8
52176990
370
         0
390
0
  6
CONTINUOUS
 62
         7
100
AcDbSpline
210
0.0
220
0.0
230
1.0
 70
        12
 71
         2
 72
         6
 73
         3
 74
         0
 42
0.0
 43
0.0
 40
0.0
 40
0.0
 40
0.0
 40
1.0
 40
1.0
 40
1.0
 10
23.308816175790021
 20
147.03592927399734
 30
0.0
 41
1.0
 10
22.535348887922535
 20
147.19836890406575
 30
0.0
 41
1.0
 10
21.761965990522146
 20
147.35983877210373
 30
0.0
 41
1.0
  0
ELLIPSE
  5
9B
100
AcDbEntity
  8
52176990
370
         0
390
0
  6
CONTINUOUS
 62
         7
100
AcDbEllipse
 10
33.7395657
 20
88.8489233274
 30
0.0
 11
-343.03698528460922
 21
59.000076623006102
 31
0.0
210
0.0
220
0.0
230
1.0
 40
0.1626332723
 41
4.7621056158029358
 42
4.7707533913230353
  0
ELLIPSE
  5
9C
100
AcDbEntity
  8
52176990
370
         0
390
0
  6
CONTINUOUS
 62
         7
100
AcDbEllipse
 10
37.7302705757
 20
88.84896106
 30
0.0
 11
-273.15231202313203
 21
59.886242070050699
 31
0.0
210
0.0
220
0.0
230
1.0
 40
0.2007555229
 41
4.7928408351195344
 42
4.8148105269093051
  0
LINE
  5
9D
100
AcDbEntity
  8
52176990
370
         0
390
0
  6
CONTINUOUS
 62
         7
100
AcDbLine
 10
23.3088161758
 20
147.0359292739
 30
0.0
 11
23.3088161758
 21
147.1773687808
 31
0.0
  0
LINE
  5
9E
100
AcDbEntity
  8
52176990
370
         0
390
0
  6
CONTINUOUS
 62
         7
100
AcDbLine
 10
21.7619659905
 20
147.3598387721
 30
0.0
 11
21.7619659905
 21
147.5012936744
 31
0.0
  0
LINE
  5
9F
100
AcDbEntity
  8
52176990
370
         0
390
0
  6
CONTINUOUS
 62
         7
100
AcDbLine
 10
27.7619659905
 20
148.3211898075
 30
0.0
 11
27.7619659905
 21
146.6711975394
 31
0.0
  0
LINE
  5
A0
100
AcDbEntity
  8
52176990
370
         0
390
0
  6
CONTINUOUS
 62
         7
100
AcDbLine
 10
31.6105787002
 20
248.8489639271
 30
0.0
 11
31.6105787002
 21
253.8489639271
 31
0.0
  0
LINE
  5
A1
100
AcDbEntity
  8
52176990
370
         0
390
0
  6
CONTINUOUS
 62
         7
100
AcDbLine
 10
28.3056581263
 20
253.8489639271
 30
0.0
 11
28.3056581263
 21
248.8489639271
 31
0.0
  0
LINE
  5
A2
100
AcDbEntity
  8
52176990
370
         0
390
0
  6
CONTINUOUS
 62
         7
100
AcDbLine
 10
28.0668865645
 20
248.8489639271
 30
0.0
 11
28.0668865645
 21
253.8489639271
 31
0.0
  0
LINE
  5
A3
100
AcDbEntity
  8
52176990
370
         0
390
0
  6
CONTINUOUS
 62
         7
100
AcDbLine
 10
21.4570454166
 20
253.8489639271
 30
0.0
 11
21.4570454166
 21
248.8489639271
 31
0.0
  0
LINE
  5
A4
100
AcDbEntity
  8
52176990
370
         0
390
0
  6
CONTINUOUS
 62
         7
100
AcDbLine
 10
31.6619659905
 20
265.8489639271
 30
0.0
 11
17.8619659905
 21
265.8489639271
 31
0.0
  0
LINE
  5
A5
100
AcDbEntity
  8
52176990
370
         0
390
0
  6
CONTINUOUS
 62
         7
100
AcDbLine
 10
31.5119659905
 20
257.8489639271
 30
0.0
 11
18.0119659905
 21
257.8489639271
 31
0.0
  0
LINE
  5
A6
100
AcDbEntity
  8
52176990
370
         0
390
0
  6
CONTINUOUS
 62
         7
100
AcDbLine
 10
21.2182738548
 20
248.8489639271
 30
0.0
 11
21.2182738548
 21
253.8489639271
 31
0.0
  0
LINE
  5
A7
100
AcDbEntity
  8
52176990
370
         0
390
0
  6
CONTINUOUS
 62
         7
100
AcDbLine
 10
17.9133532808
 20
253.8489639271
 30
0.0
 11
17.9133532808
 21
248.8489639271
 31
0.0
  0
LINE
  5
A8
100
AcDbEntity
  8
52176990
370
         0
390
0
  6
CONTINUOUS
 62
         7
100
AcDbLine
 10
31.6619659905
 20
260.2489639271
 30
0.0
 11
17.8619659905
 21
260.2489639271
 31
0.0
  0
LINE
  5
A9
100
AcDbEntity
  8
52176990
370
         0
390
0
  6
CONTINUOUS
 62
         7
100
AcDbLine
 10
31.6105787002
 20
253.8489639271
 30
0.0
 11
28.3056581263
 21
253.8489639271
 31
0.0
  0
LINE
  5
AA
100
AcDbEntity
  8
52176990
370
         0
390
0
  6
CONTINUOUS
 62
         7
100
AcDbLine
 10
31.6119659905
 20
253.8489639271
 30
0.0
 11
31.6105787002
 21
253.8489639271
 31
0.0
  0
LINE
  5
AB
100
AcDbEntity
  8
52176990
370
         0
390
0
  6
CONTINUOUS
 62
         7
100
AcDbLine
 10
28.0668865645
 20
253.8489639271
 30
0.0
 11
21.4570454166
 21
253.8489639271
 31
0.0
  0
LINE
  5
AC
100
AcDbEntity
  8
52176990
370
         0
390
0
  6
CONTINUOUS
 62
         7
100
AcDbLine
 10
31.5119659905
 20
256.8489639271
 30
0.0
 11
18.0119659905
 21
256.8489639271
 31
0.0
  0
LINE
  5
AD
100
AcDbEntity
  8
52176990
370
         0
390
0
  6
CONTINUOUS
 62
         7
100
AcDbLine
 10
21.2182738548
 20
253.8489639271
 30
0.0
 11
17.9133532808
 21
253.8489639271
 31
0.0
  0
LINE
  5
AE
100
AcDbEntity
  8
52176990
370
         0
390
0
  6
CONTINUOUS
 62
         7
100
AcDbLine
 10
21.2182738548
 20
248.8489639271
 30
0.0
 11
17.9133532808
 21
248.8489639271
 31
0.0
  0
LINE
  5
AF
100
AcDbEntity
  8
52176990
370
         0
390
0
  6
CONTINUOUS
 62
         7
100
AcDbLine
 10
27.7619659905
 20
148.6620079704
 30
0.0
 11
27.7619659905
 21
151.3519755719
 31
0.0
  0
LINE
  5
B0
100
AcDbEntity
  8
52176990
370
         0
390
0
  6
CONTINUOUS
 62
         7
100
AcDbLine
 10
21.7619659905
 20
149.6417343939
 30
0.0
 11
26.1071221578
 21
149.6417343939
 31
0.0
  0
LINE
  5
B1
100
AcDbEntity
  8
52176990
370
         0
390
0
  6
CONTINUOUS
 62
         7
100
AcDbLine
 10
30.7619659905
 20
259.3489639271
 30
0.0
 11
18.7619659905
 21
259.3489639271
 31
0.0
  0
LINE
  5
B2
100
AcDbEntity
  8
52176990
370
         0
390
0
  6
CONTINUOUS
 62
         7
100
AcDbLine
 10
25.9720964406
 20
143.0348592526
 30
0.0
 11
25.0617237745
 21
143.0348592527
 31
0.0
  0
LINE
  5
B3
100
AcDbEntity
  8
52176990
370
         0
390
0
  6
CONTINUOUS
 62
         7
100
AcDbLine
 10
25.0617237745
 20
143.0348592527
 30
0.0
 11
25.0617237745
 21
142.0920787602
 31
0.0
  0
ELLIPSE
  5
B4
100
AcDbEntity
  8
52176990
370
         0
390
0
  6
CONTINUOUS
 62
         7
100
AcDbEllipse
 10
21.527343619
 20
88.8489659619
 30
0.0
 11
-74.959596289097959
 21
75.029210183055611
 31
0.0
210
0.0
220
0.0
230
1.0
 40
0.4142134299
 41
5.0285089728754029
 42
5.0506145406197476
  0
ELLIPSE
  5
B5
100
AcDbEntity
  8
52176990
370
         0
390
0
  6
CONTINUOUS
 62
         7
100
AcDbEllipse
 10
33.9965881461
 20
88.8489669998
 30
0.0
 11
74.959595653447863
 21
75.029209148324696
 31
0.0
210
0.0
220
0.0
230
1.0
 40
0.4142134262
 41
1.2546763375306844
 42
1.2768196330014963
  0
LINE
  5
B6
100
AcDbEntity
  8
52176990
370
         0
390
0
  6
CONTINUOUS
 62
         7
100
AcDbLine
 10
21.7619659905
 20
150.8153851967
 30
0.0
 11
21.7619659905
 21
149.6417343939
 31
0.0
  0
SPLINE
  5
B7
100
AcDbEntity
  8
52176990
370
         0
390
0
  6
CONTINUOUS
 62
         7
100
AcDbSpline
210
0.0
220
0.0
230
1.0
 70
        12
 71
         2
 72
         6
 73
         3
 74
         0
 42
0.0
 43
0.0
 40
0.0
 40
0.0
 40
0.0
 40
1.0
 40
1.0
 40
1.0
 10
27.76196599051401
 20
151.35197557194292
 30
0.0
 41
1.0
 10
26.934304428471815
 20
151.50780575722541
 30
0.0
 41
1.0
 10
26.107122157780875
 20
151.66250334896409
 30
0.0
 41
1.0
  0
LINE
  5
B8
100
AcDbEntity
  8
52176990
370
         0
390
0
  6
CONTINUOUS
 62
         7
100
AcDbLine
 10
26.1071221578
 20
151.6625033489
 30
0.0
 11
26.1071221578
 21
150.8153851967
 31
0.0
  0
LINE
  5
B9
100
AcDbEntity
  8
52176990
370
         0
390
0
  6
CONTINUOUS
 62
         7
100
AcDbLine
 10
26.1071221578
 20
150.8153851967
 30
0.0
 11
21.7619659905
 21
150.8153851967
 31
0.0
  0
SPLINE
  5
BA
100
AcDbEntity
  8
52176990
370
         0
390
0
  6
CONTINUOUS
 62
         7
100
AcDbSpline
210
0.0
220
0.0
230
1.0
 70
        12
 71
         2
 72
         6
 73
         3
 74
         0
 42
0.0
 43
0.0
 40
0.0
 40
0.0
 40
0.0
 40
1.0
 40
1.0
 40
1.0
 10
26.107122157801953
 20
148.99421791989991
 30
0.0
 41
1.0
 10
26.934429275580044
 20
148.82866532909537
 30
0.0
 41
1.0
 10
27.761965990508955
 20
148.66200797045408
 30
0.0
 41
1.0
  0
LINE
  5
BB
100
AcDbEntity
  8
52176990
370
         0
390
0
  6
CONTINUOUS
 62
         7
100
AcDbLine
 10
26.1071221578
 20
149.6417343939
 30
0.0
 11
26.1071221578
 21
148.9942179199
 31
0.0
  0
LINE
  5
BC
100
AcDbEntity
  8
52176990
370
         0
390
0
  6
CONTINUOUS
 62
         7
100
AcDbLine
 10
25.0617237745
 20
142.0920787602
 30
0.0
 11
21.7619659905
 21
142.0920787602
 31
0.0
  0
LINE
  5
BD
100
AcDbEntity
  8
52176990
370
         0
390
0
  6
CONTINUOUS
 62
         7
100
AcDbLine
 10
25.0617237745
 20
141.2758661165
 30
0.0
 11
25.0617237745
 21
140.3067064476
 31
0.0
  0
LINE
  5
BE
100
AcDbEntity
  8
52176990
370
         0
390
0
  6
CONTINUOUS
 62
         7
100
AcDbLine
 10
31.7619659905
 20
209.8489639271
 30
0.0
 11
31.7619659905
 21
208.3489639271
 31
0.0
  0
ARC
  5
BF
100
AcDbEntity
  8
52176990
370
         0
390
0
  6
CONTINUOUS
 62
         7
100
AcDbCircle
 10
24.7619659897
 20
250.5542479683
 30
0.0
 40
81.0082889102
100
AcDbArc
 50
265.0428373642
 51
274.9571623079
  0
LINE
  5
C0
100
AcDbEntity
  8
52176990
370
         0
390
0
  6
CONTINUOUS
 62
         7
100
AcDbLine
 10
33.7619659905
 20
7.8489639271
 30
0.0
 11
33.7619659905
 21
169.8489639271
 31
0.0
  0
LINE
  5
C1
100
AcDbEntity
  8
52176990
370
         0
390
0
  6
CONTINUOUS
 62
         7
100
AcDbLine
 10
15.7619659905
 20
7.8489639271
 30
0.0
 11
15.7619659905
 21
169.8489639271
 31
0.0
  0
LINE
  5
C2
100
AcDbEntity
  8
52176990
370
         0
390
0
  6
CONTINUOUS
 62
         7
100
AcDbLine
 10
25.0617237745
 20
140.1645867678
 30
0.0
 11
25.0617237745
 21
140.3067064476
 31
0.0
  0
LINE
  5
C3
100
AcDbEntity
  8
52176990
370
         0
390
0
  6
CONTINUOUS
 62
         7
100
AcDbLine
 10
25.9720964406
 20
140.1645867676
 30
0.0
 11
25.9720964406
 21
140.3067064476
 31
0.0
  0
LINE
  5
C4
100
AcDbEntity
  8
52176990
370
         0
390
0
  6
CONTINUOUS
 62
         7
100
AcDbLine
 10
27.7619659905
 20
141.5430348367
 30
0.0
 11
27.7619659905
 21
141.6848765005
 31
0.0
  0
ENDBLK
  5
C5
100
AcDbEntity
  8
52176990
370
         0
390
0
  6
CONTINUOUS
 62
         7
100
AcDbBlockEnd
  0
BLOCK
  5
FE
100
AcDbEntity
  8
0
370
         0
390
0
 62
         1
 48
0.0
100
AcDbBlockBegin
  2
SE2
 70
         0
 10
0.0
 20
0.0
 30
0.0
  3
SE2
  1

  0
ENDBLK
  5
FF
100
AcDbEntity
  8
0
370
         0
390
0
 62
         1
 48
0.0
100
AcDbBlockEnd
  0
BLOCK
  5
C8
100
AcDbEntity
  8
0
370
         0
390
0
 62
         1
 48
0.0
100
AcDbBlockBegin
  2
SE3
 70
         0
 10
0.0
 20
0.0
 30
0.0
  3
SE3
  1

  0
LINE
  5
C9
100
AcDbEntity
  8
52176990
370
         0
390
0
  6
CONTINUOUS
 62
         7
100
AcDbLine
 10
20.7619659905
 20
555.5489155952
 30
0.0
 11
20.7619659905
 21
552.5489155952
 31
0.0
  0
LINE
  5
CA
100
AcDbEntity
  8
52176990
370
         0
390
0
  6
CONTINUOUS
 62
         7
100
AcDbLine
 10
17.9119659905
 20
552.5489155952
 30
0.0
 11
17.9119659905
 21
531.5489155952
 31
0.0
  0
LINE
  5
CB
100
AcDbEntity
  8
52176990
370
         0
390
0
  6
CONTINUOUS
 62
         7
100
AcDbLine
 10
33.7619659905
 20
468.5489155952
 30
0.0
 11
31.7567592437
 21
468.5489155952
 31
0.0
  0
LINE
  5
CC
100
AcDbEntity
  8
52176990
370
         0
390
0
  6
CONTINUOUS
 62
         7
100
AcDbLine
 10
17.7619659905
 20
468.5489155952
 30
0.0
 11
15.7619659905
 21
468.5489155952
 31
0.0
  0
LINE
  5
CD
100
AcDbEntity
  8
52176990
370
         0
390
0
  6
CONTINUOUS
 62
         7
100
AcDbLine
 10
16.2619659905
 20
531.5489155952
 30
0.0
 11
16.2619659905
 21
517.914940999
 31
0.0
  0
LINE
  5
CE
100
AcDbEntity
  8
52176990
370
         0
390
0
  6
CONTINUOUS
 62
         7
100
AcDbLine
 10
17.7619659905
 20
507.0489155952
 30
0.0
 11
17.7619659905
 21
468.5489155952
 31
0.0
  0
LINE
  5
CF
100
AcDbEntity
  8
52176990
370
         0
390
0
  6
CONTINUOUS
 62
         7
100
AcDbLine
 10
31.6619659905
 20
558.9489155952
 30
0.0
 11
31.6619659905
 21
564.5489155952
 31
0.0
  0
LINE
  5
D0
100
AcDbEntity
  8
52176990
370
         0
390
0
  6
CONTINUOUS
 62
         7
100
AcDbLine
 10
30.7619659905
 20
556.5489155952
 30
0.0
 11
30.7619659905
 21
558.0489155952
 31
0.0
  0
LINE
  5
D1
100
AcDbEntity
  8
52176990
370
         0
390
0
  6
CONTINUOUS
 62
         7
100
AcDbLine
 10
28.7619659905
 20
552.5489155952
 30
0.0
 11
28.7619659905
 21
555.5489155952
 31
0.0
  0
LINE
  5
D2
100
AcDbEntity
  8
52176990
370
         0
390
0
  6
CONTINUOUS
 62
         7
100
AcDbLine
 10
31.6119659905
 20
531.5489155952
 30
0.0
 11
31.6119659905
 21
552.5489155952
 31
0.0
  0
LINE
  5
D3
100
AcDbEntity
  8
52176990
370
         0
390
0
  6
CONTINUOUS
 62
         7
100
AcDbLine
 10
31.6105787002
 20
552.5489155952
 30
0.0
 11
28.3056581263
 21
552.5489155952
 31
0.0
  0
LINE
  5
D4
100
AcDbEntity
  8
52176990
370
         0
390
0
  6
CONTINUOUS
 62
         7
100
AcDbLine
 10
17.9133532808
 20
552.5489155952
 30
0.0
 11
17.9133532808
 21
547.5489155952
 31
0.0
  0
LINE
  5
D5
100
AcDbEntity
  8
52176990
370
         0
390
0
  6
CONTINUOUS
 62
         7
100
AcDbLine
 10
21.2182738548
 20
547.5489155952
 30
0.0
 11
21.2182738548
 21
552.5489155952
 31
0.0
  0
LINE
  5
D6
100
AcDbEntity
  8
52176990
370
         0
390
0
  6
CONTINUOUS
 62
         7
100
AcDbLine
 10
21.4570454166
 20
552.5489155952
 30
0.0
 11
21.4570454166
 21
547.5489155952
 31
0.0
  0
LINE
  5
D7
100
AcDbEntity
  8
52176990
370
         0
390
0
  6
CONTINUOUS
 62
         7
100
AcDbLine
 10
18.7619659905
 20
558.0489155952
 30
0.0
 11
18.7619659905
 21
556.5489155952
 31
0.0
  0
LINE
  5
D8
100
AcDbEntity
  8
52176990
370
         0
390
0
  6
CONTINUOUS
 62
         7
100
AcDbLine
 10
18.0119659905
 20
556.5489155952
 30
0.0
 11
18.0119659905
 21
555.5489155952
 31
0.0
  0
LINE
  5
D9
100
AcDbEntity
  8
52176990
370
         0
390
0
  6
CONTINUOUS
 62
         7
100
AcDbLine
 10
30.7619659905
 20
558.0489155952
 30
0.0
 11
31.6619659905
 21
558.9489155952
 31
0.0
  0
LINE
  5
DA
100
AcDbEntity
  8
52176990
370
         0
390
0
  6
CONTINUOUS
 62
         7
100
AcDbLine
 10
17.8619659905
 20
564.5489155952
 30
0.0
 11
17.8619659905
 21
558.9489155952
 31
0.0
  0
LINE
  5
DB
100
AcDbEntity
  8
52176990
370
         0
390
0
  6
CONTINUOUS
 62
         7
100
AcDbLine
 10
28.0668865645
 20
547.5489155952
 30
0.0
 11
28.0668865645
 21
552.5489155952
 31
0.0
  0
LINE
  5
DC
100
AcDbEntity
  8
52176990
370
         0
390
0
  6
CONTINUOUS
 62
         7
100
AcDbLine
 10
28.3056581263
 20
552.5489155952
 30
0.0
 11
28.3056581263
 21
547.5489155952
 31
0.0
  0
LINE
  5
DD
100
AcDbEntity
  8
52176990
370
         0
390
0
  6
CONTINUOUS
 62
         7
100
AcDbLine
 10
31.6105787002
 20
547.5489155952
 30
0.0
 11
31.6105787002
 21
552.5489155952
 31
0.0
  0
LINE
  5
DE
100
AcDbEntity
  8
52176990
370
         0
390
0
  6
CONTINUOUS
 62
         7
100
AcDbLine
 10
17.8619659905
 20
558.9489155952
 30
0.0
 11
31.6619659905
 21
558.9489155952
 31
0.0
  0
LINE
  5
DF
100
AcDbEntity
  8
52176990
370
         0
390
0
  6
CONTINUOUS
 62
         7
100
AcDbLine
 10
18.7619659905
 20
558.0489155952
 30
0.0
 11
30.7619659905
 21
558.0489155952
 31
0.0
  0
LINE
  5
E0
100
AcDbEntity
  8
52176990
370
         0
390
0
  6
CONTINUOUS
 62
         7
100
AcDbLine
 10
18.0119659905
 20
555.5489155952
 30
0.0
 11
31.5119659905
 21
555.5489155952
 31
0.0
  0
LINE
  5
E1
100
AcDbEntity
  8
52176990
370
         0
390
0
  6
CONTINUOUS
 62
         7
100
AcDbLine
 10
18.0119659905
 20
556.5489155952
 30
0.0
 11
31.5119659905
 21
556.5489155952
 31
0.0
  0
LINE
  5
E2
100
AcDbEntity
  8
52176990
370
         0
390
0
  6
CONTINUOUS
 62
         7
100
AcDbLine
 10
17.8619659905
 20
564.5489155952
 30
0.0
 11
31.6619659905
 21
564.5489155952
 31
0.0
  0
LINE
  5
E3
100
AcDbEntity
  8
52176990
370
         0
390
0
  6
CONTINUOUS
 62
         7
100
AcDbLine
 10
17.9133532808
 20
552.5489155952
 30
0.0
 11
17.9119659905
 21
552.5489155952
 31
0.0
  0
LINE
  5
E4
100
AcDbEntity
  8
52176990
370
         0
390
0
  6
CONTINUOUS
 62
         7
100
AcDbLine
 10
31.6119659905
 20
552.5489155952
 30
0.0
 11
31.6105787002
 21
552.5489155952
 31
0.0
  0
LINE
  5
E5
100
AcDbEntity
  8
52176990
370
         0
390
0
  6
CONTINUOUS
 62
         7
100
AcDbLine
 10
21.2182738548
 20
552.5489155952
 30
0.0
 11
17.9133532808
 21
552.5489155952
 31
0.0
  0
LINE
  5
E6
100
AcDbEntity
  8
52176990
370
         0
390
0
  6
CONTINUOUS
 62
         7
100
AcDbLine
 10
28.0668865645
 20
552.5489155952
 30
0.0
 11
21.4570454166
 21
552.5489155952
 31
0.0
  0
LINE
  5
E7
100
AcDbEntity
  8
52176990
370
         0
390
0
  6
CONTINUOUS
 62
         7
100
AcDbLine
 10
17.7619659905
 20
508.5489155952
 30
0.0
 11
17.7619659905
 21
517.0489155952
 31
0.0
  0
LINE
  5
E8
100
AcDbEntity
  8
52176990
370
         0
390
0
  6
CONTINUOUS
 62
         7
100
AcDbLine
 10
31.7619659905
 20
507.0489155952
 30
0.0
 11
17.7619659905
 21
507.0489155952
 31
0.0
  0
LINE
  5
E9
100
AcDbEntity
  8
52176990
370
         0
390
0
  6
CONTINUOUS
 62
         7
100
AcDbLine
 10
16.2619659905
 20
531.5489155952
 30
0.0
 11
33.2619659905
 21
531.5489155952
 31
0.0
  0
LINE
  5
EA
100
AcDbEntity
  8
52176990
370
         0
390
0
  6
CONTINUOUS
 62
         7
100
AcDbLine
 10
31.7619659905
 20
517.0489155952
 30
0.0
 11
31.7619659905
 21
508.5489155952
 31
0.0
  0
ARC
  5
EB
100
AcDbEntity
  8
52176990
370
         0
390
0
  6
CONTINUOUS
 62
         7
100
AcDbCircle
 10
24.7619659897
 20
549.2541996364
 30
0.0
 40
81.0082889102
100
AcDbArc
 50
265.0428373642
 51
274.9571623079
  0
LINE
  5
EC
100
AcDbEntity
  8
52176990
370
         0
390
0
  6
CONTINUOUS
 62
         7
100
AcDbLine
 10
28.0668865645
 20
547.5489155952
 30
0.0
 11
21.4570454166
 21
547.5489155952
 31
0.0
  0
LINE
  5
ED
100
AcDbEntity
  8
52176990
370
         0
390
0
  6
CONTINUOUS
 62
         7
100
AcDbLine
 10
15.7619659905
 20
306.5489155952
 30
0.0
 11
33.7619659905
 21
306.5489155952
 31
0.0
  0
LINE
  5
EE
100
AcDbEntity
  8
52176990
370
         0
390
0
  6
CONTINUOUS
 62
         7
100
AcDbLine
 10
33.2619659905
 20
517.914940999
 30
0.0
 11
33.2619659905
 21
531.5489155952
 31
0.0
  0
LINE
  5
EF
100
AcDbEntity
  8
52176990
370
         0
390
0
  6
CONTINUOUS
 62
         7
100
AcDbLine
 10
31.7619659905
 20
468.5484635806
 30
0.0
 11
31.7619659905
 21
507.0489155952
 31
0.0
  0
LINE
  5
F0
100
AcDbEntity
  8
52176990
370
         0
390
0
  6
CONTINUOUS
 62
         7
100
AcDbLine
 10
21.4570454166
 20
552.5489155952
 30
0.0
 11
21.2182738548
 21
552.5489155952
 31
0.0
  0
LINE
  5
F1
100
AcDbEntity
  8
52176990
370
         0
390
0
  6
CONTINUOUS
 62
         7
100
AcDbLine
 10
28.3056581263
 20
552.5489155952
 30
0.0
 11
28.0668865645
 21
552.5489155952
 31
0.0
  0
LINE
  5
F2
100
AcDbEntity
  8
52176990
370
         0
390
0
  6
CONTINUOUS
 62
         7
100
AcDbLine
 10
31.6105787002
 20
547.5489155952
 30
0.0
 11
28.3056581263
 21
547.5489155952
 31
0.0
  0
LINE
  5
F3
100
AcDbEntity
  8
52176990
370
         0
390
0
  6
CONTINUOUS
 62
         7
100
AcDbLine
 10
21.2182738548
 20
547.5489155952
 30
0.0
 11
17.9133532808
 21
547.5489155952
 31
0.0
  0
LINE
  5
F4
100
AcDbEntity
  8
52176990
370
         0
390
0
  6
CONTINUOUS
 62
         7
100
AcDbLine
 10
15.7619659905
 20
468.5489155952
 30
0.0
 11
15.7619659905
 21
306.5489155952
 31
0.0
  0
LINE
  5
F5
100
AcDbEntity
  8
52176990
370
         0
390
0
  6
CONTINUOUS
 62
         7
100
AcDbLine
 10
33.7619659905
 20
468.5489155952
 30
0.0
 11
33.7619659905
 21
306.5489155952
 31
0.0
  0
LINE
  5
F6
100
AcDbEntity
  8
52176990
370
         0
390
0
  6
CONTINUOUS
 62
         7
100
AcDbLine
 10
31.7619659905
 20
508.5489155952
 30
0.0
 11
17.7619659905
 21
508.5489155952
 31
0.0
  0
LINE
  5
F7
100
AcDbEntity
  8
52176990
370
         0
390
0
  6
CONTINUOUS
 62
         7
100
AcDbLine
 10
33.2619659905
 20
517.914940999
 30
0.0
 11
31.7619659905
 21
517.0489155952
 31
0.0
  0
LINE
  5
F8
100
AcDbEntity
  8
52176990
370
         0
390
0
  6
CONTINUOUS
 62
         7
100
AcDbLine
 10
31.7619659905
 20
508.5489155952
 30
0.0
 11
31.7619659905
 21
507.0489155952
 31
0.0
  0
LINE
  5
F9
100
AcDbEntity
  8
52176990
370
         0
390
0
  6
CONTINUOUS
 62
         7
100
AcDbLine
 10
17.7619659905
 20
507.0489155952
 30
0.0
 11
17.7619659905
 21
508.5489155952
 31
0.0
  0
LINE
  5
FA
100
AcDbEntity
  8
52176990
370
         0
390
0
  6
CONTINUOUS
 62
         7
100
AcDbLine
 10
17.7619659905
 20
517.0489155952
 30
0.0
 11
16.2619659905
 21
517.914940999
 31
0.0
  0
LINE
  5
FB
100
AcDbEntity
  8
52176990
370
         0
390
0
  6
CONTINUOUS
 62
         7
100
AcDbLine
 10
31.5119659905
 20
555.5489155952
 30
0.0
 11
31.5119659905
 21
556.5489155952
 31
0.0
  0
LINE
  5
FC
100
AcDbEntity
  8
52176990
370
         0
390
0
  6
CONTINUOUS
 62
         7
100
AcDbLine
 10
17.8619659905
 20
558.9489155952
 30
0.0
 11
18.7619659905
 21
558.0489155952
 31
0.0
  0
ENDBLK
  5
FD
100
AcDbEntity
  8
52176990
370
         0
390
0
  6
CONTINUOUS
 62
         7
100
AcDbBlockEnd
  0
BLOCK
  5
17D
100
AcDbEntity
  8
0
370
         0
390
0
 62
         1
 48
0.0
100
AcDbBlockBegin
  2
SE4
 70
         0
 10
0.0
 20
0.0
 30
0.0
  3
SE4
  1

  0
ENDBLK
  5
17E
100
AcDbEntity
  8
0
370
         0
390
0
 62
         1
 48
0.0
100
AcDbBlockEnd
  0
BLOCK
  5
100
100
AcDbEntity
  8
0
370
         0
390
0
 62
         1
 48
0.0
100
AcDbBlockBegin
  2
SE5
 70
         0
 10
0.0
 20
0.0
 30
0.0
  3
SE5
  1

  0
LINE
  5
101
100
AcDbEntity
  8
52176990
370
         0
390
0
  6
CONTINUOUS
 62
         7
100
AcDbLine
 10
85.1835197644
 20
393.5489155952
 30
0.0
 11
85.1835197644
 21
381.5489155952
 31
0.0
  0
LINE
  5
102
100
AcDbEntity
  8
52176990
370
         0
390
0
  6
CONTINUOUS
 62
         7
100
AcDbLine
 10
255.6835197644
 20
507.0489155952
 30
0.0
 11
248.6835197644
 21
507.0489155952
 31
0.0
  0
LINE
  5
103
100
AcDbEntity
  8
52176990
370
         0
390
0
  6
CONTINUOUS
 62
         7
100
AcDbLine
 10
260.5053451449
 20
508.5489155952
 30
0.0
 11
264.1835197644
 21
508.5489155952
 31
0.0
  0
LINE
  5
104
100
AcDbEntity
  8
52176990
370
         0
390
0
  6
CONTINUOUS
 62
         7
100
AcDbLine
 10
199.2676159085
 20
445.6715944059
 30
0.0
 11
199.1261788905
 21
445.8130314238
 31
0.0
  0
LINE
  5
105
100
AcDbEntity
  8
52176990
370
         0
390
0
  6
CONTINUOUS
 62
         7
100
AcDbLine
 10
197.4965544176
 20
443.8985124324
 30
0.0
 11
197.3551149107
 21
444.0399519393
 31
0.0
  0
LINE
  5
106
100
AcDbEntity
  8
52176990
370
         0
390
0
  6
CONTINUOUS
 62
         7
100
AcDbLine
 10
195.1528004426
 20
441.3729995944
 30
0.0
 11
195.0111366827
 21
441.5146633543
 31
0.0
  0
ARC
  5
107
100
AcDbEntity
  8
52176990
370
         0
390
0
  6
CONTINUOUS
 62
         7
100
AcDbCircle
 10
126.611035925
 20
387.2152814147
 30
0.0
 40
9.5782962275
100
AcDbArc
 50
1.9961481256
 51
32.5641736544
  0
LINE
  5
108
100
AcDbEntity
  8
52176990
370
         0
390
0
  6
CONTINUOUS
 62
         7
100
AcDbLine
 10
84.2835197644
 20
394.4489155952
 30
0.0
 11
84.2835197644
 21
380.6489155952
 31
0.0
  0
LINE
  5
109
100
AcDbEntity
  8
52176990
370
         0
390
0
  6
CONTINUOUS
 62
         7
100
AcDbLine
 10
78.6835197644
 20
394.4489155952
 30
0.0
 11
78.6835197644
 21
380.6489155952
 31
0.0
  0
LINE
  5
10A
100
AcDbEntity
  8
52176990
370
         0
390
0
  6
CONTINUOUS
 62
         7
100
AcDbLine
 10
90.6835197644
 20
387.6867704207
 30
0.0
 11
95.6835197644
 21
387.6867704207
 31
0.0
  0
CIRCLE
  5
10B
100
AcDbEntity
  8
52176990
370
         0
390
0
  6
CONTINUOUS
 62
         7
100
AcDbCircle
 10
255.6835197644
 20
387.5489155952
 30
0.0
 40
81.0
  0
CIRCLE
  5
10C
100
AcDbEntity
  8
52176990
370
         0
390
0
  6
CONTINUOUS
 62
         7
100
AcDbCircle
 10
255.6835197644
 20
387.5489155952
 30
0.0
 40
41.735
  0
ELLIPSE
  5
10D
100
AcDbEntity
  8
52176990
370
         0
390
0
  6
CONTINUOUS
 62
         7
100
AcDbEllipse
 10
130.2249716487
 20
387.5489155952
 30
0.0
 11
0.0000000000000005
 21
8.5000000000000053
 31
0.0
210
0.0
220
0.0
230
1.0
 40
0.5773502692
 41
0.9676049211852272
 42
2.1739877324045658
  0
LINE
  5
10E
100
AcDbEntity
  8
52176990
370
         0
390
0
  6
CONTINUOUS
 62
         7
100
AcDbLine
 10
95.6835197644
 20
393.4110607697
 30
0.0
 11
90.6835197644
 21
393.4110607697
 31
0.0
  0
CIRCLE
  5
10F
100
AcDbEntity
  8
52176990
370
         0
390
0
  6
CONTINUOUS
 62
         7
100
AcDbCircle
 10
255.6835197644
 20
387.5489155952
 30
0.0
 40
52.5
  0
LINE
  5
110
100
AcDbEntity
  8
52176990
370
         0
390
0
  6
CONTINUOUS
 62
         7
100
AcDbLine
 10
255.6835197644
 20
507.0489155952
 30
0.0
 11
262.6835197644
 21
507.0489155952
 31
0.0
  0
LINE
  5
111
100
AcDbEntity
  8
52176990
370
         0
390
0
  6
CONTINUOUS
 62
         7
100
AcDbLine
 10
260.5053451449
 20
508.5489155952
 30
0.0
 11
260.5053451449
 21
517.0489155952
 31
0.0
  0
LINE
  5
112
100
AcDbEntity
  8
52176990
370
         0
390
0
  6
CONTINUOUS
 62
         7
100
AcDbLine
 10
260.5053451449
 20
517.0489155952
 30
0.0
 11
250.8616943839
 21
517.0489155952
 31
0.0
  0
LINE
  5
113
100
AcDbEntity
  8
52176990
370
         0
390
0
  6
CONTINUOUS
 62
         7
100
AcDbLine
 10
197.922487163
 20
444.3350328494
 30
0.0
 11
197.7810606973
 21
444.4764593151
 31
0.0
  0
LINE
  5
114
100
AcDbEntity
  8
52176990
370
         0
390
0
  6
CONTINUOUS
 62
         7
100
AcDbLine
 10
197.1726449194
 20
443.5621062281
 30
0.0
 11
197.0311900171
 21
443.7035611304
 31
0.0
  0
LINE
  5
115
100
AcDbEntity
  8
52176990
370
         0
390
0
  6
CONTINUOUS
 62
         7
100
AcDbLine
 10
247.1835197644
 20
508.5489155952
 30
0.0
 11
250.8616943839
 21
508.5489155952
 31
0.0
  0
LINE
  5
116
100
AcDbEntity
  8
52176990
370
         0
390
0
  6
CONTINUOUS
 62
         7
100
AcDbLine
 10
250.8616943839
 20
517.0489155952
 30
0.0
 11
250.8616943839
 21
508.5489155952
 31
0.0
  0
ELLIPSE
  5
117
100
AcDbEntity
  8
52176990
370
         0
390
0
  6
CONTINUOUS
 62
         7
100
AcDbEllipse
 10
255.6835197644
 20
513.0074637109
 30
0.0
 11
8.5000000000000053
 21
-0.0000000000000005
 31
0.0
210
0.0
220
0.0
230
1.0
 40
0.5773502692
 41
0.9676049211852272
 42
2.1739877324045658
  0
ARC
  5
118
100
AcDbEntity
  8
52176990
370
         0
390
0
  6
CONTINUOUS
 62
         7
100
AcDbCircle
 10
256.072305192
 20
516.79868589
 30
0.0
 40
9.7575188911
100
AcDbArc
 50
237.723215948
 51
267.716462272
  0
ARC
  5
119
100
AcDbEntity
  8
52176990
370
         0
390
0
  6
CONTINUOUS
 62
         7
100
AcDbCircle
 10
255.3498855839
 20
516.6213994346
 30
0.0
 40
9.5782962275
100
AcDbArc
 50
271.9961481256
 51
302.5641736544
  0
LINE
  5
11A
100
AcDbEntity
  8
52176990
370
         0
390
0
  6
CONTINUOUS
 62
         7
100
AcDbLine
 10
136.1835197644
 20
387.5489155952
 30
0.0
 11
136.1835197644
 21
380.5489155952
 31
0.0
  0
LINE
  5
11B
100
AcDbEntity
  8
52176990
370
         0
390
0
  6
CONTINUOUS
 62
         7
100
AcDbLine
 10
136.1835197644
 20
387.5489155952
 30
0.0
 11
136.1835197644
 21
394.5489155952
 31
0.0
  0
LINE
  5
11C
100
AcDbEntity
  8
52176990
370
         0
390
0
  6
CONTINUOUS
 62
         7
100
AcDbLine
 10
111.6835197644
 20
396.0489155952
 30
0.0
 11
111.6835197644
 21
379.0489155952
 31
0.0
  0
LINE
  5
11D
100
AcDbEntity
  8
52176990
370
         0
390
0
  6
CONTINUOUS
 62
         7
100
AcDbLine
 10
134.6835197644
 20
392.3707409757
 30
0.0
 11
134.6835197644
 21
396.0489155952
 31
0.0
  0
LINE
  5
11E
100
AcDbEntity
  8
52176990
370
         0
390
0
  6
CONTINUOUS
 62
         7
100
AcDbLine
 10
134.6835197644
 20
382.7270902147
 30
0.0
 11
134.6835197644
 21
379.0489155952
 31
0.0
  0
LINE
  5
11F
100
AcDbEntity
  8
52176990
370
         0
390
0
  6
CONTINUOUS
 62
         7
100
AcDbLine
 10
262.5335197644
 20
531.5489155952
 30
0.0
 11
262.5335197644
 21
547.5489155952
 31
0.0
  0
LINE
  5
120
100
AcDbEntity
  8
52176990
370
         0
390
0
  6
CONTINUOUS
 62
         7
100
AcDbLine
 10
90.6835197644
 20
381.6867704207
 30
0.0
 11
90.6835197644
 21
381.5489155952
 31
0.0
  0
LINE
  5
121
100
AcDbEntity
  8
52176990
370
         0
390
0
  6
CONTINUOUS
 62
         7
100
AcDbLine
 10
262.6835197644
 20
507.0489155952
 30
0.0
 11
264.1835197644
 21
508.5489155952
 31
0.0
  0
LINE
  5
122
100
AcDbEntity
  8
52176990
370
         0
390
0
  6
CONTINUOUS
 62
         7
100
AcDbLine
 10
247.1835197644
 20
508.5489155952
 30
0.0
 11
248.6835197644
 21
507.0489155952
 31
0.0
  0
LINE
  5
123
100
AcDbEntity
  8
52176990
370
         0
390
0
  6
CONTINUOUS
 62
         7
100
AcDbLine
 10
264.1835197644
 20
508.5489155952
 30
0.0
 11
264.1835197644
 21
531.5489155952
 31
0.0
  0
LINE
  5
124
100
AcDbEntity
  8
52176990
370
         0
390
0
  6
CONTINUOUS
 62
         7
100
AcDbLine
 10
174.9789297828
 20
394.5489155952
 30
0.0
 11
136.1835197644
 21
394.5489155952
 31
0.0
  0
LINE
  5
125
100
AcDbEntity
  8
52176990
370
         0
390
0
  6
CONTINUOUS
 62
         7
100
AcDbLine
 10
134.6835197644
 20
379.0489155952
 30
0.0
 11
136.1835197644
 21
380.5489155952
 31
0.0
  0
LINE
  5
126
100
AcDbEntity
  8
52176990
370
         0
390
0
  6
CONTINUOUS
 62
         7
100
AcDbLine
 10
262.5835197644
 20
558.9489155952
 30
0.0
 11
262.5835197644
 21
564.5489155952
 31
0.0
  0
LINE
  5
127
100
AcDbEntity
  8
52176990
370
         0
390
0
  6
CONTINUOUS
 62
         7
100
AcDbLine
 10
248.7835197644
 20
558.9489155952
 30
0.0
 11
249.6835197644
 21
558.0489155952
 31
0.0
  0
LINE
  5
128
100
AcDbEntity
  8
52176990
370
         0
390
0
  6
CONTINUOUS
 62
         7
100
AcDbLine
 10
86.6835197644
 20
393.5489155952
 30
0.0
 11
85.1835197644
 21
393.5489155952
 31
0.0
  0
LINE
  5
129
100
AcDbEntity
  8
52176990
370
         0
390
0
  6
CONTINUOUS
 62
         7
100
AcDbLine
 10
87.6835197644
 20
394.2989155952
 30
0.0
 11
86.6835197644
 21
394.2989155952
 31
0.0
  0
LINE
  5
12A
100
AcDbEntity
  8
52176990
370
         0
390
0
  6
CONTINUOUS
 62
         7
100
AcDbLine
 10
84.2835197644
 20
394.4489155952
 30
0.0
 11
78.6835197644
 21
394.4489155952
 31
0.0
  0
LINE
  5
12B
100
AcDbEntity
  8
52176990
370
         0
390
0
  6
CONTINUOUS
 62
         7
100
AcDbLine
 10
262.4335197644
 20
555.5489155952
 30
0.0
 11
262.4335197644
 21
556.5489155952
 31
0.0
  0
LINE
  5
12C
100
AcDbEntity
  8
52176990
370
         0
390
0
  6
CONTINUOUS
 62
         7
100
AcDbLine
 10
95.6835197644
 20
387.4110607697
 30
0.0
 11
95.6835197644
 21
381.6867704207
 31
0.0
  0
LINE
  5
12D
100
AcDbEntity
  8
52176990
370
         0
390
0
  6
CONTINUOUS
 62
         7
100
AcDbLine
 10
95.6835197644
 20
380.6989155952
 30
0.0
 11
95.6835197644
 21
381.5489155952
 31
0.0
  0
LINE
  5
12E
100
AcDbEntity
  8
52176990
370
         0
390
0
  6
CONTINUOUS
 62
         7
100
AcDbLine
 10
95.6835197644
 20
394.3989155952
 30
0.0
 11
95.6835197644
 21
393.5489155952
 31
0.0
  0
LINE
  5
12F
100
AcDbEntity
  8
52176990
370
         0
390
0
  6
CONTINUOUS
 62
         7
100
AcDbLine
 10
85.1835197644
 20
393.5489155952
 30
0.0
 11
84.2835197644
 21
394.4489155952
 31
0.0
  0
LINE
  5
130
100
AcDbEntity
  8
52176990
370
         0
390
0
  6
CONTINUOUS
 62
         7
100
AcDbLine
 10
95.6835197644
 20
380.6989155952
 30
0.0
 11
111.6835197644
 21
380.6989155952
 31
0.0
  0
LINE
  5
131
100
AcDbEntity
  8
52176990
370
         0
390
0
  6
CONTINUOUS
 62
         7
100
AcDbLine
 10
111.6835197644
 20
379.0489155952
 30
0.0
 11
134.6835197644
 21
379.0489155952
 31
0.0
  0
LINE
  5
132
100
AcDbEntity
  8
52176990
370
         0
390
0
  6
CONTINUOUS
 62
         7
100
AcDbLine
 10
251.6835197644
 20
555.5489155952
 30
0.0
 11
251.6835197644
 21
552.5489155952
 31
0.0
  0
LINE
  5
133
100
AcDbEntity
  8
52176990
370
         0
390
0
  6
CONTINUOUS
 62
         7
100
AcDbLine
 10
249.6835197644
 20
558.0489155952
 30
0.0
 11
249.6835197644
 21
556.5489155952
 31
0.0
  0
LINE
  5
134
100
AcDbEntity
  8
52176990
370
         0
390
0
  6
CONTINUOUS
 62
         7
100
AcDbLine
 10
248.9335197644
 20
556.5489155952
 30
0.0
 11
248.9335197644
 21
555.5489155952
 31
0.0
  0
LINE
  5
135
100
AcDbEntity
  8
52176990
370
         0
390
0
  6
CONTINUOUS
 62
         7
100
AcDbLine
 10
261.6835197644
 20
558.0489155952
 30
0.0
 11
262.5835197644
 21
558.9489155952
 31
0.0
  0
LINE
  5
136
100
AcDbEntity
  8
52176990
370
         0
390
0
  6
CONTINUOUS
 62
         7
100
AcDbLine
 10
248.7835197644
 20
564.5489155952
 30
0.0
 11
248.7835197644
 21
558.9489155952
 31
0.0
  0
LINE
  5
137
100
AcDbEntity
  8
52176990
370
         0
390
0
  6
CONTINUOUS
 62
         7
100
AcDbLine
 10
136.1835197644
 20
380.5489155952
 30
0.0
 11
174.986083852
 21
380.5489155952
 31
0.0
  0
LINE
  5
138
100
AcDbEntity
  8
52176990
370
         0
390
0
  6
CONTINUOUS
 62
         7
100
AcDbLine
 10
255.8213745899
 20
552.5489155952
 30
0.0
 11
255.5456649389
 21
552.5489155952
 31
0.0
  0
LINE
  5
139
100
AcDbEntity
  8
52176990
370
         0
390
0
  6
CONTINUOUS
 62
         7
100
AcDbLine
 10
249.8213745899
 20
552.5489155952
 30
0.0
 11
249.6835197644
 21
552.5489155952
 31
0.0
  0
LINE
  5
13A
100
AcDbEntity
  8
52176990
370
         0
390
0
  6
CONTINUOUS
 62
         7
100
AcDbLine
 10
255.5456649389
 20
552.5489155952
 30
0.0
 11
249.8213745899
 21
552.5489155952
 31
0.0
  0
LINE
  5
13B
100
AcDbEntity
  8
52176990
370
         0
390
0
  6
CONTINUOUS
 62
         7
100
AcDbLine
 10
111.6835197644
 20
394.3989155952
 30
0.0
 11
95.6835197644
 21
394.3989155952
 31
0.0
  0
LINE
  5
13C
100
AcDbEntity
  8
52176990
370
         0
390
0
  6
CONTINUOUS
 62
         7
100
AcDbLine
 10
134.6835197644
 20
396.0489155952
 30
0.0
 11
111.6835197644
 21
396.0489155952
 31
0.0
  0
LINE
  5
13D
100
AcDbEntity
  8
52176990
370
         0
390
0
  6
CONTINUOUS
 62
         7
100
AcDbLine
 10
136.1835197644
 20
394.5489155952
 30
0.0
 11
134.6835197644
 21
396.0489155952
 31
0.0
  0
LINE
  5
13E
100
AcDbEntity
  8
52176990
370
         0
390
0
  6
CONTINUOUS
 62
         7
100
AcDbLine
 10
261.6835197644
 20
556.5489155952
 30
0.0
 11
261.6835197644
 21
558.0489155952
 31
0.0
  0
LINE
  5
13F
100
AcDbEntity
  8
52176990
370
         0
390
0
  6
CONTINUOUS
 62
         7
100
AcDbLine
 10
259.6835197644
 20
552.5489155952
 30
0.0
 11
259.6835197644
 21
555.5489155952
 31
0.0
  0
LINE
  5
140
100
AcDbEntity
  8
52176990
370
         0
390
0
  6
CONTINUOUS
 62
         7
100
AcDbLine
 10
264.1835197644
 20
531.5489155952
 30
0.0
 11
247.1835197644
 21
531.5489155952
 31
0.0
  0
LINE
  5
141
100
AcDbEntity
  8
52176990
370
         0
390
0
  6
CONTINUOUS
 62
         7
100
AcDbLine
 10
204.3678969237
 20
450.2203353372
 30
0.0
 11
204.2257772439
 21
450.362455017
 31
0.0
  0
ARC
  5
142
100
AcDbEntity
  8
52176990
370
         0
390
0
  6
CONTINUOUS
 62
         7
100
AcDbCircle
 10
255.6835197644
 20
387.5489155952
 30
0.0
 40
81.2
100
AcDbArc
 50
129.3248205411
 51
130.2145406506
  0
LINE
  5
143
100
AcDbEntity
  8
52176990
370
         0
390
0
  6
CONTINUOUS
 62
         7
100
AcDbLine
 10
201.6392589475
 20
447.8831336871
 30
0.0
 11
201.4976244388
 21
448.0247681958
 31
0.0
  0
ARC
  5
144
100
AcDbEntity
  8
52176990
370
         0
390
0
  6
CONTINUOUS
 62
         7
100
AcDbCircle
 10
255.6835197644
 20
387.5489155952
 30
0.0
 40
81.2
100
AcDbArc
 50
138.4761159679
 51
139.741203866
  0
ARC
  5
145
100
AcDbEntity
  8
52176990
370
         0
390
0
  6
CONTINUOUS
 62
         7
100
AcDbCircle
 10
255.6835197644
 20
387.5489155952
 30
0.0
 40
81.2
100
AcDbArc
 50
130.9730058429
 51
131.8600935902
  0
LINE
  5
146
100
AcDbEntity
  8
52176990
370
         0
390
0
  6
CONTINUOUS
 62
         7
100
AcDbLine
 10
193.0121000224
 20
438.8645384358
 30
0.0
 11
192.8699803426
 21
439.0066581156
 31
0.0
  0
LINE
  5
147
100
AcDbEntity
  8
52176990
370
         0
390
0
  6
CONTINUOUS
 62
         7
100
AcDbLine
 10
195.0324319716
 20
441.2373272829
 30
0.0
 11
194.8907492976
 21
441.3790099568
 31
0.0
  0
LINE
  5
148
100
AcDbEntity
  8
52176990
370
         0
390
0
  6
CONTINUOUS
 62
         7
100
AcDbLine
 10
193.8590066328
 20
439.8817884005
 30
0.0
 11
193.7170984948
 21
440.0236965385
 31
0.0
  0
ARC
  5
149
100
AcDbEntity
  8
52176990
370
         0
390
0
  6
CONTINUOUS
 62
         7
100
AcDbCircle
 10
255.6835197644
 20
387.5489155952
 30
0.0
 40
81.2
100
AcDbArc
 50
130.2145406507
 51
130.9730058429
  0
ARC
  5
14A
100
AcDbEntity
  8
52176990
370
         0
390
0
  6
CONTINUOUS
 62
         7
100
AcDbCircle
 10
255.6835197644
 20
387.5489155952
 30
0.0
 40
81.1999999999
100
AcDbArc
 50
139.741203866
 51
140.6751794589
  0
LINE
  5
14B
100
AcDbEntity
  8
52176990
370
         0
390
0
  6
CONTINUOUS
 62
         7
100
AcDbLine
 10
95.6835197644
 20
393.4110607697
 30
0.0
 11
95.6835197644
 21
387.6867704207
 31
0.0
  0
LINE
  5
14C
100
AcDbEntity
  8
52176990
370
         0
390
0
  6
CONTINUOUS
 62
         7
100
AcDbLine
 10
84.2835197644
 20
380.6489155952
 30
0.0
 11
85.1835197644
 21
381.5489155952
 31
0.0
  0
LINE
  5
14D
100
AcDbEntity
  8
52176990
370
         0
390
0
  6
CONTINUOUS
 62
         7
100
AcDbLine
 10
90.6835197644
 20
393.4110607697
 30
0.0
 11
90.6835197644
 21
387.6867704207
 31
0.0
  0
LINE
  5
14E
100
AcDbEntity
  8
52176990
370
         0
390
0
  6
CONTINUOUS
 62
         7
100
AcDbLine
 10
261.6835197644
 20
552.5489155952
 30
0.0
 11
261.5456649389
 21
552.5489155952
 31
0.0
  0
LINE
  5
14F
100
AcDbEntity
  8
52176990
370
         0
390
0
  6
CONTINUOUS
 62
         7
100
AcDbLine
 10
90.6835197644
 20
387.4110607697
 30
0.0
 11
90.6835197644
 21
381.6867704207
 31
0.0
  0
ARC
  5
150
100
AcDbEntity
  8
52176990
370
         0
390
0
  6
CONTINUOUS
 62
         7
100
AcDbCircle
 10
255.6835197644
 20
387.5489155952
 30
0.0
 40
81.2
100
AcDbArc
 50
138.3481391171
 51
138.4761159679
  0
LINE
  5
151
100
AcDbEntity
  8
52176990
370
         0
390
0
  6
CONTINUOUS
 62
         7
100
AcDbLine
 10
86.6835197644
 20
394.2989155952
 30
0.0
 11
86.6835197644
 21
380.7989155952
 31
0.0
  0
LINE
  5
152
100
AcDbEntity
  8
52176990
370
         0
390
0
  6
CONTINUOUS
 62
         7
100
AcDbLine
 10
95.6835197644
 20
381.5489155952
 30
0.0
 11
90.6835197644
 21
381.5489155952
 31
0.0
  0
LINE
  5
153
100
AcDbEntity
  8
52176990
370
         0
390
0
  6
CONTINUOUS
 62
         7
100
AcDbLine
 10
90.6835197644
 20
381.6867704207
 30
0.0
 11
95.6835197644
 21
381.6867704207
 31
0.0
  0
LINE
  5
154
100
AcDbEntity
  8
52176990
370
         0
390
0
  6
CONTINUOUS
 62
         7
100
AcDbLine
 10
90.6835197644
 20
393.5489155952
 30
0.0
 11
95.6835197644
 21
393.5489155952
 31
0.0
  0
LINE
  5
155
100
AcDbEntity
  8
52176990
370
         0
390
0
  6
CONTINUOUS
 62
         7
100
AcDbLine
 10
95.6835197644
 20
387.4110607697
 30
0.0
 11
90.6835197644
 21
387.4110607697
 31
0.0
  0
LINE
  5
156
100
AcDbEntity
  8
52176990
370
         0
390
0
  6
CONTINUOUS
 62
         7
100
AcDbLine
 10
87.6835197644
 20
394.2989155952
 30
0.0
 11
87.6835197644
 21
380.7989155952
 31
0.0
  0
LINE
  5
157
100
AcDbEntity
  8
52176990
370
         0
390
0
  6
CONTINUOUS
 62
         7
100
AcDbLine
 10
85.1835197644
 20
381.5489155952
 30
0.0
 11
86.6835197644
 21
381.5489155952
 31
0.0
  0
LINE
  5
158
100
AcDbEntity
  8
52176990
370
         0
390
0
  6
CONTINUOUS
 62
         7
100
AcDbLine
 10
86.6835197644
 20
380.7989155952
 30
0.0
 11
87.6835197644
 21
380.7989155952
 31
0.0
  0
LINE
  5
159
100
AcDbEntity
  8
52176990
370
         0
390
0
  6
CONTINUOUS
 62
         7
100
AcDbLine
 10
90.6835197644
 20
393.5489155952
 30
0.0
 11
90.6835197644
 21
393.4110607697
 31
0.0
  0
LINE
  5
15A
100
AcDbEntity
  8
52176990
370
         0
390
0
  6
CONTINUOUS
 62
         7
100
AcDbLine
 10
255.8213745899
 20
552.5489155952
 30
0.0
 11
255.8213745899
 21
547.5489155952
 31
0.0
  0
LINE
  5
15B
100
AcDbEntity
  8
52176990
370
         0
390
0
  6
CONTINUOUS
 62
         7
100
AcDbLine
 10
255.5456649389
 20
547.5489155952
 30
0.0
 11
255.5456649389
 21
552.5489155952
 31
0.0
  0
LINE
  5
15C
100
AcDbEntity
  8
52176990
370
         0
390
0
  6
CONTINUOUS
 62
         7
100
AcDbLine
 10
249.8213745899
 20
552.5489155952
 30
0.0
 11
249.8213745899
 21
547.5489155952
 31
0.0
  0
LINE
  5
15D
100
AcDbEntity
  8
52176990
370
         0
390
0
  6
CONTINUOUS
 62
         7
100
AcDbLine
 10
249.6835197644
 20
547.5489155952
 30
0.0
 11
249.6835197644
 21
552.5489155952
 31
0.0
  0
ARC
  5
15E
100
AcDbEntity
  8
52176990
370
         0
390
0
  6
CONTINUOUS
 62
         7
100
AcDbCircle
 10
255.6835197644
 20
387.5489155952
 30
0.0
 40
81.2000000001
100
AcDbArc
 50
134.1483839106
 51
135.4864337835
  0
ARC
  5
15F
100
AcDbEntity
  8
52176990
370
         0
390
0
  6
CONTINUOUS
 62
         7
100
AcDbCircle
 10
255.6835197644
 20
387.5489155952
 30
0.0
 40
81.2
100
AcDbArc
 50
135.4864337835
 51
135.9167826932
  0
LINE
  5
160
100
AcDbEntity
  8
52176990
370
         0
390
0
  6
CONTINUOUS
 62
         7
100
AcDbLine
 10
202.582177178
 20
448.714652863
 30
0.0
 11
202.4404049313
 21
448.8564251097
 31
0.0
  0
LINE
  5
161
100
AcDbEntity
  8
52176990
370
         0
390
0
  6
CONTINUOUS
 62
         7
100
AcDbLine
 10
203.3985348697
 20
449.4139328065
 30
0.0
 11
203.256617575
 21
449.5558501011
 31
0.0
  0
ARC
  5
162
100
AcDbEntity
  8
52176990
370
         0
390
0
  6
CONTINUOUS
 62
         7
100
AcDbCircle
 10
255.6835197644
 20
387.5489155952
 30
0.0
 40
81.1999999998
100
AcDbArc
 50
136.2463022598
 51
138.3481391171
  0
ARC
  5
163
100
AcDbEntity
  8
52176990
370
         0
390
0
  6
CONTINUOUS
 62
         7
100
AcDbCircle
 10
255.6835197651
 20
387.5489155945
 30
0.0
 40
81.200000001
100
AcDbArc
 50
135.9167826932
 51
136.2463022598
  0
LINE
  5
164
100
AcDbEntity
  8
52176990
370
         0
390
0
  6
CONTINUOUS
 62
         7
100
AcDbLine
 10
261.5456649389
 20
552.5489155952
 30
0.0
 11
255.8213745899
 21
552.5489155952
 31
0.0
  0
LINE
  5
165
100
AcDbEntity
  8
52176990
370
         0
390
0
  6
CONTINUOUS
 62
         7
100
AcDbLine
 10
262.5335197644
 20
547.5489155952
 30
0.0
 11
261.6835197644
 21
547.5489155952
 31
0.0
  0
LINE
  5
166
100
AcDbEntity
  8
52176990
370
         0
390
0
  6
CONTINUOUS
 62
         7
100
AcDbLine
 10
261.5456649389
 20
547.5489155952
 30
0.0
 11
255.8213745899
 21
547.5489155952
 31
0.0
  0
LINE
  5
167
100
AcDbEntity
  8
52176990
370
         0
390
0
  6
CONTINUOUS
 62
         7
100
AcDbLine
 10
255.5456649389
 20
547.5489155952
 30
0.0
 11
249.8213745899
 21
547.5489155952
 31
0.0
  0
LINE
  5
168
100
AcDbEntity
  8
52176990
370
         0
390
0
  6
CONTINUOUS
 62
         7
100
AcDbLine
 10
249.6835197644
 20
547.5489155952
 30
0.0
 11
248.8335197644
 21
547.5489155952
 31
0.0
  0
LINE
  5
169
100
AcDbEntity
  8
52176990
370
         0
390
0
  6
CONTINUOUS
 62
         7
100
AcDbLine
 10
134.6835197644
 20
392.3707409757
 30
0.0
 11
126.1835197644
 21
392.3707409757
 31
0.0
  0
LINE
  5
16A
100
AcDbEntity
  8
52176990
370
         0
390
0
  6
CONTINUOUS
 62
         7
100
AcDbLine
 10
126.1835197644
 20
382.7270902147
 30
0.0
 11
134.6835197644
 21
382.7270902147
 31
0.0
  0
LINE
  5
16B
100
AcDbEntity
  8
52176990
370
         0
390
0
  6
CONTINUOUS
 62
         7
100
AcDbLine
 10
261.6835197644
 20
558.0489155952
 30
0.0
 11
249.6835197644
 21
558.0489155952
 31
0.0
  0
LINE
  5
16C
100
AcDbEntity
  8
52176990
370
         0
390
0
  6
CONTINUOUS
 62
         7
100
AcDbLine
 10
261.6835197644
 20
552.5489155952
 30
0.0
 11
261.6835197644
 21
547.5489155952
 31
0.0
  0
LINE
  5
16D
100
AcDbEntity
  8
52176990
370
         0
390
0
  6
CONTINUOUS
 62
         7
100
AcDbLine
 10
261.5456649389
 20
547.5489155952
 30
0.0
 11
261.5456649389
 21
552.5489155952
 31
0.0
  0
LINE
  5
16E
100
AcDbEntity
  8
52176990
370
         0
390
0
  6
CONTINUOUS
 62
         7
100
AcDbLine
 10
126.1835197644
 20
392.3707409757
 30
0.0
 11
126.1835197644
 21
382.7270902147
 31
0.0
  0
LINE
  5
16F
100
AcDbEntity
  8
52176990
370
         0
390
0
  6
CONTINUOUS
 62
         7
100
AcDbLine
 10
247.1835197644
 20
531.5489155952
 30
0.0
 11
247.1835197644
 21
508.5489155952
 31
0.0
  0
LINE
  5
170
100
AcDbEntity
  8
52176990
370
         0
390
0
  6
CONTINUOUS
 62
         7
100
AcDbLine
 10
78.6835197644
 20
380.6489155952
 30
0.0
 11
84.2835197644
 21
380.6489155952
 31
0.0
  0
LINE
  5
171
100
AcDbEntity
  8
52176990
370
         0
390
0
  6
CONTINUOUS
 62
         7
100
AcDbLine
 10
248.8335197644
 20
547.5489155952
 30
0.0
 11
248.8335197644
 21
531.5489155952
 31
0.0
  0
LINE
  5
172
100
AcDbEntity
  8
52176990
370
         0
390
0
  6
CONTINUOUS
 62
         7
100
AcDbLine
 10
87.6835197644
 20
383.5489155952
 30
0.0
 11
90.6835197644
 21
383.5489155952
 31
0.0
  0
LINE
  5
173
100
AcDbEntity
  8
52176990
370
         0
390
0
  6
CONTINUOUS
 62
         7
100
AcDbLine
 10
90.6835197644
 20
391.5489155952
 30
0.0
 11
87.6835197644
 21
391.5489155952
 31
0.0
  0
LINE
  5
174
100
AcDbEntity
  8
52176990
370
         0
390
0
  6
CONTINUOUS
 62
         7
100
AcDbLine
 10
262.6835197644
 20
468.2535055768
 30
0.0
 11
262.6835197644
 21
507.0489155952
 31
0.0
  0
LINE
  5
175
100
AcDbEntity
  8
52176990
370
         0
390
0
  6
CONTINUOUS
 62
         7
100
AcDbLine
 10
248.6835197644
 20
507.0489155952
 30
0.0
 11
248.6835197644
 21
468.2463515076
 31
0.0
  0
LINE
  5
176
100
AcDbEntity
  8
52176990
370
         0
390
0
  6
CONTINUOUS
 62
         7
100
AcDbLine
 10
90.6835197644
 20
387.6867704207
 30
0.0
 11
90.6835197644
 21
387.4110607697
 31
0.0
  0
ARC
  5
177
100
AcDbEntity
  8
52176990
370
         0
390
0
  6
CONTINUOUS
 62
         7
100
AcDbCircle
 10
126.4337494696
 20
387.9377010228
 30
0.0
 40
9.7575188911
100
AcDbArc
 50
327.723215948
 51
357.716462272
  0
LINE
  5
178
100
AcDbEntity
  8
52176990
370
         0
390
0
  6
CONTINUOUS
 62
         7
100
AcDbLine
 10
262.5835197644
 20
558.9489155952
 30
0.0
 11
248.7835197644
 21
558.9489155952
 31
0.0
  0
LINE
  5
179
100
AcDbEntity
  8
52176990
370
         0
390
0
  6
CONTINUOUS
 62
         7
100
AcDbLine
 10
262.4335197644
 20
556.5489155952
 30
0.0
 11
248.9335197644
 21
556.5489155952
 31
0.0
  0
LINE
  5
17A
100
AcDbEntity
  8
52176990
370
         0
390
0
  6
CONTINUOUS
 62
         7
100
AcDbLine
 10
262.4335197644
 20
555.5489155952
 30
0.0
 11
248.9335197644
 21
555.5489155952
 31
0.0
  0
LINE
  5
17B
100
AcDbEntity
  8
52176990
370
         0
390
0
  6
CONTINUOUS
 62
         7
100
AcDbLine
 10
262.5835197644
 20
564.5489155952
 30
0.0
 11
248.7835197644
 21
564.5489155952
 31
0.0
  0
ENDBLK
  5
17C
100
AcDbEntity
  8
52176990
370
         0
390
0
  6
CONTINUOUS
 62
         7
100
AcDbBlockEnd
  0
BLOCK
  5
1B5
100
AcDbEntity
  8
0
370
         0
390
0
 62
         1
 48
0.0
100
AcDbBlockBegin
  2
SE6
 70
         0
 10
0.0
 20
0.0
 30
0.0
  3
SE6
  1

  0
ENDBLK
  5
1B6
100
AcDbEntity
  8
0
370
         0
390
0
 62
         1
 48
0.0
100
AcDbBlockEnd
  0
BLOCK
  5
17F
100
AcDbEntity
  8
0
370
         0
390
0
 62
         1
 48
0.0
100
AcDbBlockBegin
  2
SE7
 70
         0
 10
0.0
 20
0.0
 30
0.0
  3
SE7
  1

  0
LINE
  5
180
100
AcDbEntity
  8
52176990
370
         0
390
0
  6
CONTINUOUS
 62
         7
100
AcDbLine
 10
265.1582435029
 20
169.8489639271
 30
0.0
 11
265.1582435029
 21
208.3489639271
 31
0.0
  0
LINE
  5
181
100
AcDbEntity
  8
52176990
370
         0
390
0
  6
CONTINUOUS
 62
         7
100
AcDbLine
 10
261.7019356386
 20
253.8489639271
 30
0.0
 11
261.4631640768
 21
253.8489639271
 31
0.0
  0
LINE
  5
182
100
AcDbEntity
  8
52176990
370
         0
390
0
  6
CONTINUOUS
 62
         7
100
AcDbLine
 10
254.6145513672
 20
248.8489639271
 30
0.0
 11
251.3096307932
 21
248.8489639271
 31
0.0
  0
LINE
  5
183
100
AcDbEntity
  8
52176990
370
         0
390
0
  6
CONTINUOUS
 62
         7
100
AcDbLine
 10
261.4631640768
 20
248.8489639271
 30
0.0
 11
254.853322929
 21
248.8489639271
 31
0.0
  0
LINE
  5
184
100
AcDbEntity
  8
52176990
370
         0
390
0
  6
CONTINUOUS
 62
         7
100
AcDbLine
 10
251.1582435029
 20
209.8489639271
 30
0.0
 11
251.1582435029
 21
218.3489639271
 31
0.0
  0
LINE
  5
185
100
AcDbEntity
  8
52176990
370
         0
390
0
  6
CONTINUOUS
 62
         7
100
AcDbLine
 10
251.3082435029
 20
253.8489639271
 30
0.0
 11
251.3082435029
 21
232.8489639271
 31
0.0
  0
LINE
  5
186
100
AcDbEntity
  8
52176990
370
         0
390
0
  6
CONTINUOUS
 62
         7
100
AcDbLine
 10
254.1582435029
 20
256.8489639271
 30
0.0
 11
254.1582435029
 21
253.8489639271
 31
0.0
  0
LINE
  5
187
100
AcDbEntity
  8
52176990
370
         0
390
0
  6
CONTINUOUS
 62
         7
100
AcDbLine
 10
252.1582435029
 20
259.3489639271
 30
0.0
 11
252.1582435029
 21
257.8489639271
 31
0.0
  0
LINE
  5
188
100
AcDbEntity
  8
52176990
370
         0
390
0
  6
CONTINUOUS
 62
         7
100
AcDbLine
 10
251.4082435029
 20
257.8489639271
 30
0.0
 11
251.4082435029
 21
256.8489639271
 31
0.0
  0
LINE
  5
189
100
AcDbEntity
  8
52176990
370
         0
390
0
  6
CONTINUOUS
 62
         7
100
AcDbLine
 10
251.2582435029
 20
265.8489639271
 30
0.0
 11
251.2582435029
 21
260.2489639271
 31
0.0
  0
LINE
  5
18A
100
AcDbEntity
  8
52176990
370
         0
390
0
  6
CONTINUOUS
 62
         7
100
AcDbLine
 10
264.1582435029
 20
259.3489639271
 30
0.0
 11
265.0582435029
 21
260.2489639271
 31
0.0
  0
LINE
  5
18B
100
AcDbEntity
  8
52176990
370
         0
390
0
  6
CONTINUOUS
 62
         7
100
AcDbLine
 10
249.6582435029
 20
232.8489639271
 30
0.0
 11
249.6582435029
 21
219.2149893309
 31
0.0
  0
LINE
  5
18C
100
AcDbEntity
  8
52176990
370
         0
390
0
  6
CONTINUOUS
 62
         7
100
AcDbLine
 10
262.1582435029
 20
253.8489639271
 30
0.0
 11
262.1582435029
 21
256.8489639271
 31
0.0
  0
LINE
  5
18D
100
AcDbEntity
  8
52176990
370
         0
390
0
  6
CONTINUOUS
 62
         7
100
AcDbLine
 10
251.1634502497
 20
169.8489639271
 30
0.0
 11
249.1582435029
 21
169.8489639271
 31
0.0
  0
LINE
  5
18E
100
AcDbEntity
  8
52176990
370
         0
390
0
  6
CONTINUOUS
 62
         7
100
AcDbLine
 10
265.1582435029
 20
209.8489639271
 30
0.0
 11
265.1582435029
 21
208.3489639271
 31
0.0
  0
LINE
  5
18F
100
AcDbEntity
  8
52176990
370
         0
390
0
  6
CONTINUOUS
 62
         7
100
AcDbLine
 10
265.0082435029
 20
253.8489639271
 30
0.0
 11
265.0068562126
 21
253.8489639271
 31
0.0
  0
LINE
  5
190
100
AcDbEntity
  8
52176990
370
         0
390
0
  6
CONTINUOUS
 62
         7
100
AcDbLine
 10
264.1582435029
 20
257.8489639271
 30
0.0
 11
264.1582435029
 21
259.3489639271
 31
0.0
  0
LINE
  5
191
100
AcDbEntity
  8
52176990
370
         0
390
0
  6
CONTINUOUS
 62
         7
100
AcDbLine
 10
265.0082435029
 20
232.8489639271
 30
0.0
 11
265.0082435029
 21
253.8489639271
 31
0.0
  0
LINE
  5
192
100
AcDbEntity
  8
52176990
370
         0
390
0
  6
CONTINUOUS
 62
         7
100
AcDbLine
 10
251.2582435029
 20
260.2489639271
 30
0.0
 11
252.1582435029
 21
259.3489639271
 31
0.0
  0
LINE
  5
193
100
AcDbEntity
  8
52176990
370
         0
390
0
  6
CONTINUOUS
 62
         7
100
AcDbLine
 10
264.9082435029
 20
256.8489639271
 30
0.0
 11
264.9082435029
 21
257.8489639271
 31
0.0
  0
LINE
  5
194
100
AcDbEntity
  8
52176990
370
         0
390
0
  6
CONTINUOUS
 62
         7
100
AcDbLine
 10
265.0582435029
 20
260.2489639271
 30
0.0
 11
265.0582435029
 21
265.8489639271
 31
0.0
  0
LINE
  5
195
100
AcDbEntity
  8
52176990
370
         0
390
0
  6
CONTINUOUS
 62
         7
100
AcDbLine
 10
266.6582435029
 20
219.2149893309
 30
0.0
 11
266.6582435029
 21
232.8489639271
 31
0.0
  0
LINE
  5
196
100
AcDbEntity
  8
52176990
370
         0
390
0
  6
CONTINUOUS
 62
         7
100
AcDbLine
 10
254.853322929
 20
253.8489639271
 30
0.0
 11
254.6145513672
 21
253.8489639271
 31
0.0
  0
LINE
  5
197
100
AcDbEntity
  8
52176990
370
         0
390
0
  6
CONTINUOUS
 62
         7
100
AcDbLine
 10
265.1582435029
 20
208.3489639271
 30
0.0
 11
251.1582435029
 21
208.3489639271
 31
0.0
  0
LINE
  5
198
100
AcDbEntity
  8
52176990
370
         0
390
0
  6
CONTINUOUS
 62
         7
100
AcDbLine
 10
249.6582435029
 20
232.8489639271
 30
0.0
 11
266.6582435029
 21
232.8489639271
 31
0.0
  0
LINE
  5
199
100
AcDbEntity
  8
52176990
370
         0
390
0
  6
CONTINUOUS
 62
         7
100
AcDbLine
 10
265.1582435029
 20
218.3489639271
 30
0.0
 11
265.1582435029
 21
209.8489639271
 31
0.0
  0
LINE
  5
19A
100
AcDbEntity
  8
52176990
370
         0
390
0
  6
CONTINUOUS
 62
         7
100
AcDbLine
 10
249.1582435029
 20
7.8489639271
 30
0.0
 11
267.1582435029
 21
7.8489639271
 31
0.0
  0
LINE
  5
19B
100
AcDbEntity
  8
52176990
370
         0
390
0
  6
CONTINUOUS
 62
         7
100
AcDbLine
 10
265.0068562126
 20
253.8489639271
 30
0.0
 11
261.7019356386
 21
253.8489639271
 31
0.0
  0
LINE
  5
19C
100
AcDbEntity
  8
52176990
370
         0
390
0
  6
CONTINUOUS
 62
         7
100
AcDbLine
 10
251.3082435029
 20
253.8489639271
 30
0.0
 11
251.3096307932
 21
253.8489639271
 31
0.0
  0
LINE
  5
19D
100
AcDbEntity
  8
52176990
370
         0
390
0
  6
CONTINUOUS
 62
         7
100
AcDbLine
 10
251.4082435029
 20
256.8489639271
 30
0.0
 11
264.9082435029
 21
256.8489639271
 31
0.0
  0
LINE
  5
19E
100
AcDbEntity
  8
52176990
370
         0
390
0
  6
CONTINUOUS
 62
         7
100
AcDbLine
 10
261.4631640768
 20
253.8489639271
 30
0.0
 11
254.853322929
 21
253.8489639271
 31
0.0
  0
LINE
  5
19F
100
AcDbEntity
  8
52176990
370
         0
390
0
  6
CONTINUOUS
 62
         7
100
AcDbLine
 10
254.6145513672
 20
253.8489639271
 30
0.0
 11
251.3096307932
 21
253.8489639271
 31
0.0
  0
LINE
  5
1A0
100
AcDbEntity
  8
52176990
370
         0
390
0
  6
CONTINUOUS
 62
         7
100
AcDbLine
 10
252.1582435029
 20
259.3489639271
 30
0.0
 11
264.1582435029
 21
259.3489639271
 31
0.0
  0
LINE
  5
1A1
100
AcDbEntity
  8
52176990
370
         0
390
0
  6
CONTINUOUS
 62
         7
100
AcDbLine
 10
251.2582435029
 20
260.2489639271
 30
0.0
 11
265.0582435029
 21
260.2489639271
 31
0.0
  0
LINE
  5
1A2
100
AcDbEntity
  8
52176990
370
         0
390
0
  6
CONTINUOUS
 62
         7
100
AcDbLine
 10
251.2582435029
 20
265.8489639271
 30
0.0
 11
265.0582435029
 21
265.8489639271
 31
0.0
  0
LINE
  5
1A3
100
AcDbEntity
  8
52176990
370
         0
390
0
  6
CONTINUOUS
 62
         7
100
AcDbLine
 10
254.6145513672
 20
248.8489639271
 30
0.0
 11
254.6145513672
 21
253.8489639271
 31
0.0
  0
LINE
  5
1A4
100
AcDbEntity
  8
52176990
370
         0
390
0
  6
CONTINUOUS
 62
         7
100
AcDbLine
 10
254.853322929
 20
253.8489639271
 30
0.0
 11
254.853322929
 21
248.8489639271
 31
0.0
  0
LINE
  5
1A5
100
AcDbEntity
  8
52176990
370
         0
390
0
  6
CONTINUOUS
 62
         7
100
AcDbLine
 10
251.3096307932
 20
253.8489639271
 30
0.0
 11
251.3096307932
 21
248.8489639271
 31
0.0
  0
LINE
  5
1A6
100
AcDbEntity
  8
52176990
370
         0
390
0
  6
CONTINUOUS
 62
         7
100
AcDbLine
 10
251.4082435029
 20
257.8489639271
 30
0.0
 11
264.9082435029
 21
257.8489639271
 31
0.0
  0
LINE
  5
1A7
100
AcDbEntity
  8
52176990
370
         0
390
0
  6
CONTINUOUS
 62
         7
100
AcDbLine
 10
261.4631640768
 20
248.8489639271
 30
0.0
 11
261.4631640768
 21
253.8489639271
 31
0.0
  0
LINE
  5
1A8
100
AcDbEntity
  8
52176990
370
         0
390
0
  6
CONTINUOUS
 62
         7
100
AcDbLine
 10
261.7019356386
 20
253.8489639271
 30
0.0
 11
261.7019356386
 21
248.8489639271
 31
0.0
  0
LINE
  5
1A9
100
AcDbEntity
  8
52176990
370
         0
390
0
  6
CONTINUOUS
 62
         7
100
AcDbLine
 10
251.1582435029
 20
208.3489639271
 30
0.0
 11
251.1582435029
 21
169.8489639271
 31
0.0
  0
LINE
  5
1AA
100
AcDbEntity
  8
52176990
370
         0
390
0
  6
CONTINUOUS
 62
         7
100
AcDbLine
 10
265.0068562126
 20
248.8489639271
 30
0.0
 11
261.7019356386
 21
248.8489639271
 31
0.0
  0
LINE
  5
1AB
100
AcDbEntity
  8
52176990
370
         0
390
0
  6
CONTINUOUS
 62
         7
100
AcDbLine
 10
265.0068562126
 20
248.8489639271
 30
0.0
 11
265.0068562126
 21
253.8489639271
 31
0.0
  0
LINE
  5
1AC
100
AcDbEntity
  8
52176990
370
         0
390
0
  6
CONTINUOUS
 62
         7
100
AcDbLine
 10
267.1582435029
 20
169.8489639271
 30
0.0
 11
265.1582435029
 21
169.8489639271
 31
0.0
  0
LINE
  5
1AD
100
AcDbEntity
  8
52176990
370
         0
390
0
  6
CONTINUOUS
 62
         7
100
AcDbLine
 10
265.1582435029
 20
209.8489639271
 30
0.0
 11
251.1582435029
 21
209.8489639271
 31
0.0
  0
ARC
  5
1AE
100
AcDbEntity
  8
52176990
370
         0
390
0
  6
CONTINUOUS
 62
         7
100
AcDbCircle
 10
258.1582435038
 20
250.5542479683
 30
0.0
 40
81.0082889102
100
AcDbArc
 50
265.0428376921
 51
274.9571626358
  0
LINE
  5
1AF
100
AcDbEntity
  8
52176990
370
         0
390
0
  6
CONTINUOUS
 62
         7
100
AcDbLine
 10
251.1582435029
 20
208.3489639271
 30
0.0
 11
251.1582435029
 21
209.8489639271
 31
0.0
  0
LINE
  5
1B0
100
AcDbEntity
  8
52176990
370
         0
390
0
  6
CONTINUOUS
 62
         7
100
AcDbLine
 10
249.6582435029
 20
219.2149893309
 30
0.0
 11
251.1582435029
 21
218.3489639271
 31
0.0
  0
LINE
  5
1B1
100
AcDbEntity
  8
52176990
370
         0
390
0
  6
CONTINUOUS
 62
         7
100
AcDbLine
 10
265.1582435029
 20
218.3489639271
 30
0.0
 11
266.6582435029
 21
219.2149893309
 31
0.0
  0
LINE
  5
1B2
100
AcDbEntity
  8
52176990
370
         0
390
0
  6
CONTINUOUS
 62
         7
100
AcDbLine
 10
249.1582435029
 20
7.8489639271
 30
0.0
 11
249.1582435029
 21
169.8489639271
 31
0.0
  0
LINE
  5
1B3
100
AcDbEntity
  8
52176990
370
         0
390
0
  6
CONTINUOUS
 62
         7
100
AcDbLine
 10
267.1582435029
 20
7.8489639271
 30
0.0
 11
267.1582435029
 21
169.8489639271
 31
0.0
  0
ENDBLK
  5
1B4
100
AcDbEntity
  8
52176990
370
         0
390
0
  6
CONTINUOUS
 62
         7
100
AcDbBlockEnd
  0
ENDSEC
  0
SECTION
  2
ENTITIES
  0
INSERT
  5
47
102
{ACAD_XDICTIONARY
360
48
102
}
100
AcDbEntity
  8
0
370
         0
390
0
 62
         0
 48
0.0
100
AcDbBlockReference
  2
SE1
 10
0.0
 20
0.0
 30
0.0
  0
INSERT
  5
4B
100
AcDbEntity
  8
0
370
         0
390
0
 62
         0
 48
0.0
100
AcDbBlockReference
  2
SE0
 10
0.0
 20
0.0
 30
0.0
  0
INSERT
  5
4E
102
{ACAD_XDICTIONARY
360
4F
102
}
100
AcDbEntity
  8
0
370
         0
390
0
 62
         0
 48
0.0
100
AcDbBlockReference
  2
SE3
 10
0.0
 20
0.0
 30
0.0
  0
INSERT
  5
52
100
AcDbEntity
  8
0
370
         0
390
0
 62
         0
 48
0.0
100
AcDbBlockReference
  2
SE2
 10
0.0
 20
0.0
 30
0.0
  0
INSERT
  5
55
102
{ACAD_XDICTIONARY
360
56
102
}
100
AcDbEntity
  8
0
370
         0
390
0
 62
         0
 48
0.0
100
AcDbBlockReference
  2
SE5
 10
0.0
 20
0.0
 30
0.0
  0
INSERT
  5
59
100
AcDbEntity
  8
0
370
         0
390
0
 62
         0
 48
0.0
100
AcDbBlockReference
  2
SE4
 10
0.0
 20
0.0
 30
0.0
  0
INSERT
  5
5C
102
{ACAD_XDICTIONARY
360
5D
102
}
100
AcDbEntity
  8
0
370
         0
390
0
 62
         0
 48
0.0
100
AcDbBlockReference
  2
SE7
 10
0.0
 20
0.0
 30
0.0
  0
INSERT
  5
60
100
AcDbEntity
  8
0
370
         0
390
0
 62
         0
 48
0.0
100
AcDbBlockReference
  2
SE6
 10
0.0
 20
0.0
 30
0.0
  0
ENDSEC
  0
SECTION
  2
OBJECTS
  0
DICTIONARY
  5
19
100
AcDbDictionary
280
         0
281
         1
  3
ACAD_GROUP
350
1A
  3
ACAD_MLINESTYLE
350
1B
  3
ACAD_LAYOUT
350
1E
  3
ACAD_PLOTSETTINGS
350
22
  3
ACAD_PLOTSTYLENAME
350
1F
  3
ACAD_WIPEOUT_VARS
350
23
  3
AcDbVariableDictionary
350
1B7
  0
DICTIONARY
  5
1A
102
{ACAD_REACTORS
330
19
102
}
100
AcDbDictionary
280
         0
281
         1
  0
DICTIONARY
  5
1B
102
{ACAD_REACTORS
330
19
102
}
100
AcDbDictionary
280
         0
281
         1
  3
Standard
350
1C
  0
MLINESTYLE
  5
1C
102
{ACAD_REACTORS
330
1B
102
}
100
AcDbMlineStyle
  2
Standard
 70
         0
  3

 62
         0
 51
90.0
 52
90.0
 71
         2
 49
0.5
 62
       256
  6
ByLayer
 49
-0.5
 62
       256
  6
ByLayer
  0
ACDBDICTIONARYWDFLT
  5
1F
102
{ACAD_REACTORS
330
19
102
}
100
AcDbDictionary
281
         1
  3
Normal
350
1D
100
AcDbDictionaryWithDefault
340
1D
  0
ACDBPLACEHOLDER
  5
1D
102
{ACAD_REACTORS
330
1F
102
}
  0
LAYOUT
  5
20
102
{ACAD_REACTORS
330
1E
102
}
100
AcDbPlotSettings
  1

  2

  4

  6

 40
0.0
 41
0.0
 42
0.0
 43
0.0
 44
0.0
 45
0.0
 46
0.0
 47
0.0
 48
0.0
 49
0.0
140
0.0
141
0.0
142
1.0
143
1.0
 70
      1024
 72
         0
 73
         0
 74
         0
  7

 75
         0
147
1.0
148
0.0
149
0.0
100
AcDbLayout
  1
Model
 70
         0
 71
         0
 10
0.0
 20
0.0
 11
0.0
 21
0.0
 12
0.0
 22
0.0
 32
0.0
 14
0.0
 24
0.0
 34
0.0
 15
0.0
 25
0.0
 35
0.0
146
0.0
 13
0.0
 23
0.0
 33
0.0
 16
0.0
 26
0.0
 36
0.0
 17
0.0
 27
0.0
 37
0.0
 76
         0
330
A
331
0
345
0
346
0
  0
LAYOUT
  5
21
102
{ACAD_REACTORS
330
1E
102
}
100
AcDbPlotSettings
  1

  2

  4

  6

 40
0.0
 41
0.0
 42
0.0
 43
0.0
 44
0.0
 45
0.0
 46
0.0
 47
0.0
 48
0.0
 49
0.0
140
0.0
141
0.0
142
1.0
143
1.0
 70
         0
 72
         0
 73
         0
 74
         0
  7

 75
         0
147
1.0
148
0.0
149
0.0
100
AcDbLayout
  1
Layout1
 70
         0
 71
         0
 10
0.0
 20
0.0
 11
0.0
 21
0.0
 12
0.0
 22
0.0
 32
0.0
 14
0.0
 24
0.0
 34
0.0
 15
0.0
 25
0.0
 35
0.0
146
0.0
 13
0.0
 23
0.0
 33
0.0
 16
0.0
 26
0.0
 36
0.0
 17
0.0
 27
0.0
 37
0.0
 76
         0
330
B
331
0
345
0
346
0
  0
DICTIONARY
  5
1E
102
{ACAD_REACTORS
330
19
102
}
100
AcDbDictionary
280
         0
281
         1
  3
Layout1
350
21
  3
Model
350
20
  0
DICTIONARY
  5
22
102
{ACAD_REACTORS
330
19
102
}
100
AcDbDictionary
280
         0
281
         1
  0
WIPEOUTVARIABLES
  5
23
100
AcDbWipeoutVariables
 70
         1
  0
DICTIONARY
  5
48
100
AcDbDictionary
280
         0
281
         0
  3
ACAD_FILTER
350
49
  0
DICTIONARY
  5
49
100
AcDbDictionary
280
         0
281
         0
  3
SPATIAL
350
4A
  0
SPATIAL_FILTER
  5
4A
100
AcDbFilter
100
AcDbSpatialFilter
 70
         2
 10
9.411966378
 20
1.4989707221
 10
40.1119656031
 20
272.1989571322
210
0.0
220
0.0
230
1.0
 11
0.0
 21
0.0
 31
0.0
 71
         1
 72
         0
 73
         0
 40
1.0
 40
0.0
 40
0.0
 40
0.0
 40
0.0
 40
1.0
 40
0.0
 40
0.0
 40
0.0
 40
0.0
 40
1.0
 40
0.0
 40
1.0
 40
0.0
 40
0.0
 40
0.0
 40
0.0
 40
1.0
 40
0.0
 40
0.0
 40
0.0
 40
0.0
 40
1.0
 40
0.0
  0
DICTIONARY
  5
4F
100
AcDbDictionary
280
         0
281
         0
  3
ACAD_FILTER
350
50
  0
DICTIONARY
  5
50
100
AcDbDictionary
280
         0
281
         0
  3
SPATIAL
350
51
  0
SPATIAL_FILTER
  5
51
100
AcDbFilter
100
AcDbSpatialFilter
 70
         2
 10
9.411966378
 20
300.1989223901
 10
40.1119656031
 20
570.8989088003
210
0.0
220
0.0
230
1.0
 11
0.0
 21
0.0
 31
0.0
 71
         1
 72
         0
 73
         0
 40
1.0
 40
0.0
 40
0.0
 40
0.0
 40
0.0
 40
1.0
 40
0.0
 40
0.0
 40
0.0
 40
0.0
 40
1.0
 40
0.0
 40
1.0
 40
0.0
 40
0.0
 40
0.0
 40
0.0
 40
1.0
 40
0.0
 40
0.0
 40
0.0
 40
0.0
 40
1.0
 40
0.0
  0
DICTIONARY
  5
56
100
AcDbDictionary
280
         0
281
         0
  3
ACAD_FILTER
350
57
  0
DICTIONARY
  5
57
100
AcDbDictionary
280
         0
281
         0
  3
SPATIAL
350
58
  0
SPATIAL_FILTER
  5
58
100
AcDbFilter
100
AcDbSpatialFilter
 70
         2
 10
72.3335265593
 20
300.1989223901
 10
343.0335129695
 20
570.8989088003
210
0.0
220
0.0
230
1.0
 11
0.0
 21
0.0
 31
0.0
 71
         1
 72
         0
 73
         0
 40
1.0
 40
0.0
 40
0.0
 40
0.0
 40
0.0
 40
1.0
 40
0.0
 40
0.0
 40
0.0
 40
0.0
 40
1.0
 40
0.0
 40
1.0
 40
0.0
 40
0.0
 40
0.0
 40
0.0
 40
1.0
 40
0.0
 40
0.0
 40
0.0
 40
0.0
 40
1.0
 40
0.0
  0
DICTIONARY
  5
5D
100
AcDbDictionary
280
         0
281
         0
  3
ACAD_FILTER
350
5E
  0
DICTIONARY
  5
5E
100
AcDbDictionary
280
         0
281
         0
  3
SPATIAL
350
5F
  0
SPATIAL_FILTER
  5
5F
100
AcDbFilter
100
AcDbSpatialFilter
 70
         2
 10
242.8082438903
 20
1.4989707221
 10
273.5082431155
 20
272.1989571322
210
0.0
220
0.0
230
1.0
 11
0.0
 21
0.0
 31
0.0
 71
         1
 72
         0
 73
         0
 40
1.0
 40
0.0
 40
0.0
 40
0.0
 40
0.0
 40
1.0
 40
0.0
 40
0.0
 40
0.0
 40
0.0
 40
1.0
 40
0.0
 40
1.0
 40
0.0
 40
0.0
 40
0.0
 40
0.0
 40
1.0
 40
0.0
 40
0.0
 40
0.0
 40
0.0
 40
1.0
 40
0.0
  0
DICTIONARY
  5
1B7
100
AcDbDictionary
280
         0
281
         0
  3
DIMASSOC
350
1B8
  0
DICTIONARYVAR
  5
1B8
100
DictionaryVariables
280
         0
  1
2
  0
ENDSEC
  0
EOF
