  0
SECTION
  2
HEADER
  9
$ACADVER
  1
AC1009
  9
$DWGCODEPAGE
  3
ansi_1252
  9
$INSBASE
 10
0.0
 20
0.0
 30
0.0
  9
$EXTMIN
 10
0.0
 20
0.0
 30
0.0
  9
$EXTMAX
 10
841.0
 20
594.0
 30
0.0
  9
$LIMMIN
 10
0.0
 20
0.0
  9
$LIMMAX
 10
841.0
 20
594.0
  9
$ORTHOMODE
 70
         0
  9
$REGENMODE
 70
         1
  9
$FILLMODE
 70
         1
  9
$QTEXTMODE
 70
         0
  9
$MIRRTEXT
 70
         1
  9
$DRAGMODE
 70
         2
  9
$LTSCALE
 40
25.4
  9
$OSMODE
 70
         0
  9
$ATTMODE
 70
         1
  9
$TEXTSIZE
 40
0.2
  9
$TRACEWID
 40
0.05
  9
$TEXTSTYLE
  7
Standard
  9
$CLAYER
  8
0
  9
$CELTYPE
  6
CONTINUOUS
  9
$CECOLOR
 62
       256
  9
$DIMSCALE
 40
1.0
  9
$DIMASZ
 40
0.18
  9
$DIMEXO
 40
0.0625
  9
$DIMDLI
 40
0.38
  9
$DIMRND
 40
0.0
  9
$DIMDLE
 40
0.0
  9
$DIMEXE
 40
0.18
  9
$DIMTP
 40
0.0
  9
$DIMTM
 40
0.0
  9
$DIMTXT
 40
0.18
  9
$DIMCEN
 40
0.09
  9
$DIMTSZ
 40
0.0
  9
$DIMTOL
 70
         0
  9
$DIMLIM
 70
         0
  9
$DIMTIH
 70
         1
  9
$DIMTOH
 70
         1
  9
$DIMSE1
 70
         0
  9
$DIMSE2
 70
         0
  9
$DIMTAD
 70
         0
  9
$DIMZIN
 70
         0
  9
$DIMBLK
  1

  9
$DIMASO
 70
         1
  9
$DIMSHO
 70
         1
  9
$DIMPOST
  1

  9
$DIMAPOST
  1

  9
$DIMALT
 70
         0
  9
$DIMALTD
 70
         2
  9
$DIMALTF
 40
25.4
  9
$DIMLFAC
 40
1.0
  9
$DIMTOFL
 70
         0
  9
$DIMTVP
 40
0.0
  9
$DIMTIX
 70
         0
  9
$DIMSOXD
 70
         0
  9
$DIMSAH
 70
         0
  9
$DIMBLK1
  1

  9
$DIMBLK2
  1

  9
$DIMSTYLE
  2
Standard
  9
$DIMCLRD
 70
         0
  9
$DIMCLRE
 70
         0
  9
$DIMCLRT
 70
         0
  9
$DIMTFAC
 40
1.0
  9
$DIMGAP
 40
0.09
  9
$LUNITS
 70
         2
  9
$LUPREC
 70
         4
  9
$AXISMODE
 70
         0
  9
$AXISUNIT
 10
0.0
 20
0.0
  9
$SKETCHINC
 40
0.1
  9
$FILLETRAD
 40
0.0
  9
$AUNITS
 70
         0
  9
$AUPREC
 70
         0
  9
$MENU
  1
acad
  9
$ELEVATION
 40
0.0
  9
$PELEVATION
 40
0.0
  9
$THICKNESS
 40
0.0
  9
$LIMCHECK
 70
         0
  9
$BLIPMODE
 70
         1
  9
$CHAMFERA
 40
0.0
  9
$CHAMFERB
 40
0.0
  9
$SKPOLY
 70
         0
  9
$TDCREATE
 40
0.000000000
  9
$TDUPDATE
 40
0.000000000
  9
$TDINDWG
 40
0.0000000000
  9
$TDUSRTIMER
 40
0.0000000000
  9
$USRTIMER
 70
         1
  9
$ANGBASE
 50
0.0
  9
$ANGDIR
 70
         0
  9
$PDMODE
 70
         0
  9
$PDSIZE
 40
0.0
  9
$PLINEWID
 40
0.0
  9
$COORDS
 70
         0
  9
$SPLFRAME
 70
         0
  9
$SPLINETYPE
 70
         6
  9
$SPLINESEGS
 70
         8
  9
$ATTDIA
 70
         0
  9
$ATTREQ
 70
         1
  9
$HANDLING
 70
         1
  9
$HANDSEED
  5
221
  9
$SURFTAB1
 70
         6
  9
$SURFTAB2
 70
         6
  9
$SURFTYPE
 70
         6
  9
$SURFU
 70
         6
  9
$SURFV
 70
         6
  9
$UCSNAME
  2

  9
$UCSORG
 10
0.0
 20
0.0
 30
0.0
  9
$UCSXDIR
 10
1.0
 20
0.0
 30
0.0
  9
$UCSYDIR
 10
0.0
 20
1.0
 30
0.0
  9
$PUCSNAME
  2

  9
$PUCSORG
 10
0.0
 20
0.0
 30
0.0
  9
$PUCSXDIR
 10
1.0
 20
0.0
 30
0.0
  9
$PUCSYDIR
 10
0.0
 20
1.0
 30
0.0
  9
$USERI1
 70
         0
  9
$USERI2
 70
         0
  9
$USERI3
 70
         0
  9
$USERI4
 70
         0
  9
$USERI5
 70
         0
  9
$USERR1
 40
0.0
  9
$USERR2
 40
0.0
  9
$USERR3
 40
0.0
  9
$USERR4
 40
0.0
  9
$USERR5
 40
0.0
  9
$WORLDVIEW
 70
         1
  9
$SHADEDGE
 70
         3
  9
$SHADEDIF
 70
        70
  9
$TILEMODE
 70
         1
  9
$MAXACTVP
 70
        16
  9
$PINSBASE
 10
0.0
 20
0.0
 30
0.0
  9
$PLIMCHECK
 70
         0
  9
$PEXTMIN
 10
1.0000000000E+20
 20
1.0000000000E+20
 30
1.0000000000E+20
  9
$PEXTMAX
 10
-1.0000000000E+20
 20
-1.0000000000E+20
 30
-1.0000000000E+20
  9
$PLIMMIN
 10
0.0
 20
0.0
  9
$PLIMMAX
 10
12.0
 20
9.0
  9
$UNITMODE
 70
         0
  9
$VISRETAIN
 70
         0
  9
$PLINEGEN
 70
         1
  9
$PSLTSCALE
 70
         0
  9
$TREEDEPTH
 70
      3020
  9
$DWGCODEPAGE
  3
ansi_1252
  0
ENDSEC
  0
SECTION
  2
TABLES
  0
TABLE
  2
VPORT
 70
         1
  0
VPORT
  2
*ACTIVE
 70
         0
 10
0.0
 20
0.0
 11
1.0
 21
1.0
 12
420.5
 22
297.0
 13
0.0
 23
0.0
 14
1.0
 24
1.0
 15
0.0
 25
0.0
 16
0.0
 26
0.0
 36
1.0
 17
0.0
 27
0.0
 37
0.0
 40
594.0
 41
1.604229
 42
50.0
 43
0.0
 44
0.0
 50
0.0
 51
0.0
 71
         0
 72
       100
 73
         1
 74
         1
 75
         0
 76
         0
 77
         0
 78
         0
  0
ENDTAB
  0
TABLE
  2
LTYPE
 70
         5
  0
LTYPE
  2
CONTINUOUS
 70
         0
  3
Solid line
 72
        65
 73
         0
 40
0.0
  0
LTYPE
  2
HIDDEN2
 70
        64
  3
_ _ _ _ _ _ _ _ _ _ _ _ _ _ _ _ _ _ _ _ _ _ _ _
 72
        65
 73
         2
 40
0.1875
 49
0.125
 49
-0.0625
  0
LTYPE
  2
CENTER2
 70
        64
  3
___ _ ___ _ ___ _ ___ _ ___ _ ___ _ ___ _ ___ _
 72
        65
 73
         4
 40
1.125
 49
0.75
 49
-0.125
 49
0.125
 49
-0.125
  0
LTYPE
  2
PHANTOM2
 70
        64
  3
___ _ _ ___ _ _ ___ _ _ ___ _ _ ___ _ _ ___ _ _
 72
        65
 73
         6
 40
1.25
 49
0.625
 49
-0.125
 49
0.125
 49
-0.125
 49
0.125
 49
-0.125
  0
LTYPE
  2
DOT2
 70
        64
  3
...............................................
 72
        65
 73
         2
 40
0.125
 49
0.0
 49
-0.125
  0
ENDTAB
  0
TABLE
  2
LAYER
 70
         5
  0
LAYER
  2
0
 70
         0
 62
         7
  6
CONTINUOUS
  0
LAYER
  2
DEFAULT
 70
         0
 62
         7
  6
CONTINUOUS
  0
LAYER
  2
04
 70
         0
 62
         7
  6
CONTINUOUS
  0
LAYER
  2
20
 70
         0
 62
         7
  6
CONTINUOUS
  0
LAYER
  2
52276002
 70
         0
 62
         7
  6
CONTINUOUS
  0
ENDTAB
  0
TABLE
  2
STYLE
 70
         1
  0
STYLE
  2
Standard
 70
         0
 40
0.0
 41
1.0
 50
0.0
 71
         0
 42
0.2
  3
txt
  4

  0
ENDTAB
  0
TABLE
  2
VIEW
 70
         0
  0
ENDTAB
  0
TABLE
  2
UCS
 70
         0
  0
ENDTAB
  0
TABLE
  2
APPID
 70
         1
  0
APPID
  2
ACAD
 70
         0
  0
ENDTAB
  0
TABLE
  2
DIMSTYLE
 70
         1
  0
DIMSTYLE
  2
Standard
 70
         0
  3

  4

  5

  6

  7

 40
1.0
 41
0.18
 42
0.0625
 43
0.38
 44
0.18
 45
0.0
 46
0.0
 47
0.0
 48
0.0
 71
         0
 72
         0
 73
         1
 74
         1
 75
         0
 76
         0
 77
         0
 78
         0
140
0.18
141
0.09
142
0.0
143
25.4
144
1.0
145
0.0
146
1.0
147
0.09
170
         0
171
         2
172
         0
173
         0
174
         0
175
         0
176
         0
177
         0
178
         0
  0
ENDTAB
  0
ENDSEC
  0
SECTION
  2
BLOCKS
  0
BLOCK
  8
0
 62
         1
 48
0.0
  5
FD
  2
SE0
 70
         0
 10
0.0
 20
0.0
 30
0.0
  3
SE0
  0
ENDBLK
  8
0
 62
         1
 48
0.0
  5
FE
  0
BLOCK
  8
0
 62
         1
 48
0.0
  5
61
  2
SE1
 70
         0
 10
0.0
 20
0.0
 30
0.0
  3
SE1
  0
LINE
  8
52276002
  6
CONTINUOUS
 62
         7
  5
62
 10
36.0168661098
 20
825.6756828341
 30
0.0
 11
27.5168661098
 21
825.6756828341
 31
0.0
  0
LINE
  8
52276002
  6
CONTINUOUS
 62
         7
  5
63
 10
36.0168661098
 20
864.1756828341
 30
0.0
 11
36.0168661098
 21
825.6756828341
 31
0.0
  0
LINE
  8
52276002
  6
CONTINUOUS
 62
         7
  5
64
 10
39.0168661098
 20
912.6756828341
 30
0.0
 11
39.0168661098
 21
909.6756828341
 31
0.0
  0
LINE
  8
52276002
  6
CONTINUOUS
 62
         7
  5
65
 10
36.2668661098
 20
913.6756828341
 30
0.0
 11
36.2668661098
 21
912.6756828341
 31
0.0
  0
LINE
  8
52276002
  6
CONTINUOUS
 62
         7
  5
66
 10
36.1668661098
 20
904.6756828341
 30
0.0
 11
36.1668661098
 21
888.6756828341
 31
0.0
  0
LINE
  8
52276002
  6
CONTINUOUS
 62
         7
  5
67
 10
37.0168661098
 20
915.1756828341
 30
0.0
 11
37.0168661098
 21
913.6756828341
 31
0.0
  0
LINE
  8
52276002
  6
CONTINUOUS
 62
         7
  5
68
 10
49.0168661098
 20
915.1756828341
 30
0.0
 11
49.9168661098
 21
916.0756828341
 31
0.0
  0
LINE
  8
52276002
  6
CONTINUOUS
 62
         7
  5
69
 10
36.1168661098
 20
921.6756828341
 30
0.0
 11
36.1168661098
 21
916.0756828341
 31
0.0
  0
LINE
  8
52276002
  6
CONTINUOUS
 62
         7
  5
6A
 10
34.5168661098
 20
888.6756828341
 30
0.0
 11
34.5168661098
 21
875.0417082378
 31
0.0
  0
LINE
  8
52276002
  6
CONTINUOUS
 62
         7
  5
6B
 10
49.0168661098
 20
909.6756828341
 30
0.0
 11
49.0168661098
 21
904.6756828341
 31
0.0
  0
LINE
  8
52276002
  6
CONTINUOUS
 62
         7
  5
6C
 10
48.8790112844
 20
904.6756828341
 30
0.0
 11
48.8790112844
 21
909.6756828341
 31
0.0
  0
LINE
  8
52276002
  6
CONTINUOUS
 62
         7
  5
6D
 10
43.1547209353
 20
909.6756828341
 30
0.0
 11
43.1547209353
 21
904.6756828341
 31
0.0
  0
LINE
  8
52276002
  6
CONTINUOUS
 62
         7
  5
6E
 10
42.8790112844
 20
904.6756828341
 30
0.0
 11
42.8790112844
 21
909.6756828341
 31
0.0
  0
LINE
  8
52276002
  6
CONTINUOUS
 62
         7
  5
6F
 10
37.1547209353
 20
909.6756828341
 30
0.0
 11
37.1547209353
 21
904.6756828341
 31
0.0
  0
LINE
  8
52276002
  6
CONTINUOUS
 62
         7
  5
70
 10
37.0168661098
 20
904.6756828341
 30
0.0
 11
37.0168661098
 21
909.6756828341
 31
0.0
  0
LINE
  8
52276002
  6
CONTINUOUS
 62
         7
  5
71
 10
49.0168661098
 20
915.1756828341
 30
0.0
 11
37.0168661098
 21
915.1756828341
 31
0.0
  0
LINE
  8
52276002
  6
CONTINUOUS
 62
         7
  5
72
 10
49.9168661098
 20
921.6756828341
 30
0.0
 11
36.1168661098
 21
921.6756828341
 31
0.0
  0
LINE
  8
52276002
  6
CONTINUOUS
 62
         7
  5
73
 10
49.9168661098
 20
916.0756828341
 30
0.0
 11
36.1168661098
 21
916.0756828341
 31
0.0
  0
LINE
  8
52276002
  6
CONTINUOUS
 62
         7
  5
74
 10
49.7668661098
 20
913.6756828341
 30
0.0
 11
36.2668661098
 21
913.6756828341
 31
0.0
  0
LINE
  8
52276002
  6
CONTINUOUS
 62
         7
  5
75
 10
49.7668661098
 20
912.6756828341
 30
0.0
 11
36.2668661098
 21
912.6756828341
 31
0.0
  0
LINE
  8
52276002
  6
CONTINUOUS
 62
         7
  5
76
 10
48.8790112844
 20
909.6756828341
 30
0.0
 11
43.1547209353
 21
909.6756828341
 31
0.0
  0
LINE
  8
52276002
  6
CONTINUOUS
 62
         7
  5
77
 10
42.8790112844
 20
909.6756828341
 30
0.0
 11
37.1547209353
 21
909.6756828341
 31
0.0
  0
LINE
  8
52276002
  6
CONTINUOUS
 62
         7
  5
78
 10
43.1547209353
 20
909.6756828341
 30
0.0
 11
42.8790112844
 21
909.6756828341
 31
0.0
  0
LINE
  8
52276002
  6
CONTINUOUS
 62
         7
  5
79
 10
47.0168661098
 20
710.5298935001
 30
0.0
 11
47.0168661098
 21
714.3166518381
 31
0.0
  0
LINE
  8
52276002
  6
CONTINUOUS
 62
         7
  5
7A
 10
39.0168661098
 20
711.891442618
 30
0.0
 11
44.8104076662
 21
711.891442618
 31
0.0
  0
LINE
  8
52276002
  6
CONTINUOUS
 62
         7
  5
7B
 10
44.8104076662
 20
711.891442618
 30
0.0
 11
44.8104076662
 21
710.9894209248
 31
0.0
  0
POLYLINE
  8
52276002
  6
CONTINUOUS
 62
         7
  5
7C
 66
         1
 10
0.0
 20
0.0
 30
0.0
 70
         4
  0
VERTEX
  8
52276002
  6
CONTINUOUS
 62
         7
  5
7D
 10
44.8104076662
 20
710.9894209248
 30
0.0
 70
         8
  0
VERTEX
  8
52276002
  6
CONTINUOUS
 62
         7
  5
7E
 10
45.9136323935
 20
710.7597527414
 30
0.0
 70
         8
  0
VERTEX
  8
52276002
  6
CONTINUOUS
 62
         7
  5
7F
 10
47.0168661098
 20
710.5298935002
 30
0.0
 70
         8
  0
SEQEND
  8
52276002
  6
CONTINUOUS
 62
         7
  5
80
  0
LINE
  8
52276002
  6
CONTINUOUS
 62
         7
  5
81
 10
39.0168661098
 20
711.7500073565
 30
0.0
 11
39.0168661098
 21
711.891442618
 31
0.0
  0
LINE
  8
52276002
  6
CONTINUOUS
 62
         7
  5
82
 10
44.8104076662
 20
713.5487881694
 30
0.0
 11
39.0168661098
 21
713.5487881694
 31
0.0
  0
POLYLINE
  8
52276002
  6
CONTINUOUS
 62
         7
  5
83
 66
         1
 10
0.0
 20
0.0
 30
0.0
 70
         4
  0
VERTEX
  8
52276002
  6
CONTINUOUS
 62
         7
  5
84
 10
47.0168661098
 20
714.3166518382
 30
0.0
 70
         8
  0
VERTEX
  8
52276002
  6
CONTINUOUS
 62
         7
  5
85
 10
45.9136264535
 20
714.5404503598
 30
0.0
 70
         8
  0
VERTEX
  8
52276002
  6
CONTINUOUS
 62
         7
  5
86
 10
44.8104076662
 20
714.7640601897
 30
0.0
 70
         8
  0
SEQEND
  8
52276002
  6
CONTINUOUS
 62
         7
  5
87
  0
LINE
  8
52276002
  6
CONTINUOUS
 62
         7
  5
88
 10
44.8104076662
 20
714.7640601897
 30
0.0
 11
44.8104076662
 21
713.5487881693
 31
0.0
  0
LINE
  8
52276002
  6
CONTINUOUS
 62
         7
  5
89
 10
47.0168661098
 20
710.3884661803
 30
0.0
 11
47.0168661098
 21
710.5298935001
 31
0.0
  0
LINE
  8
52276002
  6
CONTINUOUS
 62
         7
  5
8A
 10
44.8104076662
 20
710.8479912991
 30
0.0
 11
44.8104076662
 21
710.9894209248
 31
0.0
  0
LINE
  8
52276002
  6
CONTINUOUS
 62
         7
  5
8B
 10
39.0168661098
 20
713.5487881694
 30
0.0
 11
39.0168661098
 21
711.891442618
 31
0.0
  0
POLYLINE
  8
52276002
  6
CONTINUOUS
 62
         7
  5
8C
 66
         1
 10
0.0
 20
0.0
 30
0.0
  0
VERTEX
  8
52276002
  6
CONTINUOUS
 62
         7
  5
8D
 10
49.0168661098
 20
701.2912031365
 30
0.0
  0
VERTEX
  8
52276002
  6
CONTINUOUS
 62
         7
  5
8E
 10
47.2268870651
 20
699.9926572772
 30
0.0
  0
VERTEX
  8
52276002
  6
CONTINUOUS
 62
         7
  5
8F
 10
45.43712701
 20
698.6886315161
 30
0.0
  0
SEQEND
  8
52276002
  6
CONTINUOUS
 62
         7
  5
90
  0
POLYLINE
  8
52276002
  6
CONTINUOUS
 62
         7
  5
91
 66
         1
 10
0.0
 20
0.0
 30
0.0
  0
VERTEX
  8
52276002
  6
CONTINUOUS
 62
         7
  5
92
 10
49.0168661098
 20
701.2912031354
 30
0.0
  0
VERTEX
  8
52276002
  6
CONTINUOUS
 62
         7
  5
93
 10
47.2270705915
 20
702.5839788207
 30
0.0
  0
VERTEX
  8
52276002
  6
CONTINUOUS
 62
         7
  5
94
 10
45.4371270101
 20
703.8712255741
 30
0.0
  0
SEQEND
  8
52276002
  6
CONTINUOUS
 62
         7
  5
95
  0
LINE
  8
52276002
  6
CONTINUOUS
 62
         7
  5
96
 10
45.4371270101
 20
703.8712255741
 30
0.0
 11
43.6163816777
 21
703.8712255741
 31
0.0
  0
LINE
  8
52276002
  6
CONTINUOUS
 62
         7
  5
97
 10
43.6163816777
 20
703.8712255741
 30
0.0
 11
43.6163816777
 21
702.0661549828
 31
0.0
  0
LINE
  8
52276002
  6
CONTINUOUS
 62
         7
  5
98
 10
49.0168661098
 20
701.1497442082
 30
0.0
 11
49.0168661098
 21
701.2912031354
 31
0.0
  0
LINE
  8
52276002
  6
CONTINUOUS
 62
         7
  5
99
 10
43.6163816777
 20
698.5471379513
 30
0.0
 11
43.6163816777
 21
698.688631515
 31
0.0
  0
LINE
  8
52276002
  6
CONTINUOUS
 62
         7
  5
9A
 10
45.4371270101
 20
698.5471379514
 30
0.0
 11
45.4371270101
 21
698.688631515
 31
0.0
  0
LINE
  8
52276002
  6
CONTINUOUS
 62
         7
  5
9B
 10
43.6163816777
 20
700.5155906352
 30
0.0
 11
43.6163816777
 21
698.688631515
 31
0.0
  0
LINE
  8
52276002
  6
CONTINUOUS
 62
         7
  5
9C
 10
43.6163816777
 20
702.0661549828
 30
0.0
 11
37.0168661098
 21
702.0661549828
 31
0.0
  0
LINE
  8
52276002
  6
CONTINUOUS
 62
         7
  5
9D
 10
37.0168661098
 20
702.0661549828
 30
0.0
 11
37.0168661098
 21
700.5155906352
 31
0.0
  0
LINE
  8
52276002
  6
CONTINUOUS
 62
         7
  5
9E
 10
37.0168661098
 20
700.5155906352
 30
0.0
 11
43.6163816777
 21
700.5155906352
 31
0.0
  0
LINE
  8
52276002
  6
CONTINUOUS
 62
         7
  5
9F
 10
58.5168661098
 20
825.6756828341
 30
0.0
 11
50.0137933617
 21
825.6756828341
 31
0.0
  0
LINE
  8
52276002
  6
CONTINUOUS
 62
         7
  5
A0
 10
39.0168661098
 20
706.1341777639
 30
0.0
 11
39.0168661098
 21
707.9275836179
 31
0.0
  0
POLYLINE
  8
52276002
  6
CONTINUOUS
 62
         7
  5
A1
 66
         1
 10
0.0
 20
0.0
 30
0.0
  0
VERTEX
  8
52276002
  6
CONTINUOUS
 62
         7
  5
A2
 10
47.0168661098
 20
707.8197565833
 30
0.0
  0
VERTEX
  8
52276002
  6
CONTINUOUS
 62
         7
  5
A3
 10
43.0168464715
 20
706.9782020225
 30
0.0
  0
VERTEX
  8
52276002
  6
CONTINUOUS
 62
         7
  5
A4
 10
39.0168661093
 20
706.1341777825
 30
0.0
  0
SEQEND
  8
52276002
  6
CONTINUOUS
 62
         7
  5
A5
  0
LINE
  8
52276002
  6
CONTINUOUS
 62
         7
  5
A6
 10
37.0168661098
 20
700.3741225312
 30
0.0
 11
37.0168661098
 21
700.5155906352
 31
0.0
  0
LINE
  8
52276002
  6
CONTINUOUS
 62
         7
  5
A7
 10
43.6163816777
 20
698.688631515
 30
0.0
 11
45.4371270101
 21
698.688631515
 31
0.0
  0
LINE
  8
52276002
  6
CONTINUOUS
 62
         7
  5
A8
 10
39.0168661098
 20
708.9409532294
 30
0.0
 11
39.0168661098
 21
711.7230907218
 31
0.0
  0
POLYLINE
  8
52276002
  6
CONTINUOUS
 62
         7
  5
A9
 66
         1
 10
0.0
 20
0.0
 30
0.0
 70
         4
  0
VERTEX
  8
52276002
  6
CONTINUOUS
 62
         7
  5
AA
 10
41.0793330236
 20
708.5019719061
 30
0.0
 70
         8
  0
VERTEX
  8
52276002
  6
CONTINUOUS
 62
         7
  5
AB
 10
40.0480984538
 20
708.7215478732
 30
0.0
 70
         8
  0
VERTEX
  8
52276002
  6
CONTINUOUS
 62
         7
  5
AC
 10
39.0168661099
 20
708.9409532294
 30
0.0
 70
         8
  0
SEQEND
  8
52276002
  6
CONTINUOUS
 62
         7
  5
AD
  0
LINE
  8
52276002
  6
CONTINUOUS
 62
         7
  5
AE
 10
41.0793330236
 20
709.5996376716
 30
0.0
 11
41.0793330236
 21
708.5019719061
 31
0.0
  0
POLYLINE
  8
52276002
  6
CONTINUOUS
 62
         7
  5
AF
 66
         1
 10
0.0
 20
0.0
 30
0.0
 70
         4
  0
VERTEX
  8
52276002
  6
CONTINUOUS
 62
         7
  5
B0
 10
45.0348650511
 20
708.9409532294
 30
0.0
 70
         8
  0
VERTEX
  8
52276002
  6
CONTINUOUS
 62
         7
  5
B1
 10
43.0570936048
 20
709.2704886328
 30
0.0
 70
         8
  0
VERTEX
  8
52276002
  6
CONTINUOUS
 62
         7
  5
B2
 10
41.0793330236
 20
709.5996376716
 30
0.0
 70
         8
  0
SEQEND
  8
52276002
  6
CONTINUOUS
 62
         7
  5
B3
  0
POLYLINE
  8
52276002
  6
CONTINUOUS
 62
         7
  5
B4
 66
         1
 10
0.0
 20
0.0
 30
0.0
  0
VERTEX
  8
52276002
  6
CONTINUOUS
 62
         7
  5
B5
 10
45.0348650487
 20
708.9409531172
 30
0.0
  0
VERTEX
  8
52276002
  6
CONTINUOUS
 62
         7
  5
B6
 10
42.02587036
 20
708.4347215257
 30
0.0
  0
VERTEX
  8
52276002
  6
CONTINUOUS
 62
         7
  5
B7
 10
39.0168661099
 20
707.9275835061
 30
0.0
  0
SEQEND
  8
52276002
  6
CONTINUOUS
 62
         7
  5
B8
  0
POLYLINE
  8
52276002
  6
CONTINUOUS
 62
         7
  5
B9
 66
         1
 10
0.0
 20
0.0
 30
0.0
  0
VERTEX
  8
52276002
  6
CONTINUOUS
 62
         7
  5
BA
 10
47.0168661108
 20
710.0606931337
 30
0.0
  0
VERTEX
  8
52276002
  6
CONTINUOUS
 62
         7
  5
BB
 10
43.0168043369
 20
710.8931439116
 30
0.0
  0
VERTEX
  8
52276002
  6
CONTINUOUS
 62
         7
  5
BC
 10
39.0168661115
 20
711.7230906954
 30
0.0
  0
SEQEND
  8
52276002
  6
CONTINUOUS
 62
         7
  5
BD
  0
LINE
  8
52276002
  6
CONTINUOUS
 62
         7
  5
BE
 10
47.0168661098
 20
707.6783351985
 30
0.0
 11
47.0168661098
 21
707.8197565649
 31
0.0
  0
LINE
  8
52276002
  6
CONTINUOUS
 62
         7
  5
BF
 10
41.0793330236
 20
708.3605502614
 30
0.0
 11
41.0793330236
 21
708.5019719061
 31
0.0
  0
LINE
  8
52276002
  6
CONTINUOUS
 62
         7
  5
C0
 10
39.0168661098
 20
708.7995309739
 30
0.0
 11
39.0168661098
 21
708.9409532294
 31
0.0
  0
LINE
  8
52276002
  6
CONTINUOUS
 62
         7
  5
C1
 10
47.0168661098
 20
710.0606931605
 30
0.0
 11
47.0168661098
 21
707.8197565649
 31
0.0
  0
LINE
  8
52276002
  6
CONTINUOUS
 62
         7
  5
C2
 10
39.0168661098
 20
705.9927536188
 30
0.0
 11
39.0168661098
 21
706.1341777639
 31
0.0
  0
CIRCLE
  8
52276002
  6
CONTINUOUS
 62
         7
  5
C3
 10
43.0168661098
 20
423.1756828341
 30
0.0
 40
8.5
  0
POLYLINE
  8
52276002
  6
CONTINUOUS
 62
         7
  5
C4
 66
         1
 10
0.0
 20
0.0
 30
0.0
 70
         4
  0
VERTEX
  8
52276002
  6
CONTINUOUS
 62
         7
  5
C5
 10
44.6124640437
 20
708.8699434082
 30
0.0
 70
         8
  0
VERTEX
  8
52276002
  6
CONTINUOUS
 62
         7
  5
C6
 10
42.8458941951
 20
709.1642328384
 30
0.0
 70
         8
  0
VERTEX
  8
52276002
  6
CONTINUOUS
 62
         7
  5
C7
 10
41.0793330236
 20
709.4582138615
 30
0.0
 70
         8
  0
SEQEND
  8
52276002
  6
CONTINUOUS
 62
         7
  5
C8
  0
POLYLINE
  8
52276002
  6
CONTINUOUS
 62
         7
  5
C9
 66
         1
 10
0.0
 20
0.0
 30
0.0
 70
         4
  0
VERTEX
  8
52276002
  6
CONTINUOUS
 62
         7
  5
CA
 10
41.0793330235
 20
708.3605502614
 30
0.0
 70
         8
  0
VERTEX
  8
52276002
  6
CONTINUOUS
 62
         7
  5
CB
 10
40.0480984527
 20
708.5801259657
 30
0.0
 70
         8
  0
VERTEX
  8
52276002
  6
CONTINUOUS
 62
         7
  5
CC
 10
39.0168661098
 20
708.799530974
 30
0.0
 70
         8
  0
SEQEND
  8
52276002
  6
CONTINUOUS
 62
         7
  5
CD
  0
LINE
  8
52276002
  6
CONTINUOUS
 62
         7
  5
CE
 10
37.0168661098
 20
700.3741225312
 30
0.0
 11
43.6163816777
 21
700.3741225312
 31
0.0
  0
POLYLINE
  8
52276002
  6
CONTINUOUS
 62
         7
  5
CF
 66
         1
 10
0.0
 20
0.0
 30
0.0
  0
VERTEX
  8
52276002
  6
CONTINUOUS
 62
         7
  5
D0
 10
47.0168661099
 20
707.6783351926
 30
0.0
  0
VERTEX
  8
52276002
  6
CONTINUOUS
 62
         7
  5
D1
 10
43.0168464524
 20
706.8367798539
 30
0.0
  0
VERTEX
  8
52276002
  6
CONTINUOUS
 62
         7
  5
D2
 10
39.01686611
 20
705.9927536128
 30
0.0
  0
SEQEND
  8
52276002
  6
CONTINUOUS
 62
         7
  5
D3
  0
LINE
  8
52276002
  6
CONTINUOUS
 62
         7
  5
D4
 10
43.6163816777
 20
698.5471379513
 30
0.0
 11
45.4371270101
 21
698.5471379514
 31
0.0
  0
POLYLINE
  8
52276002
  6
CONTINUOUS
 62
         7
  5
D5
 66
         1
 10
0.0
 20
0.0
 30
0.0
  0
VERTEX
  8
52276002
  6
CONTINUOUS
 62
         7
  5
D6
 10
49.0168661098
 20
701.1497442084
 30
0.0
  0
VERTEX
  8
52276002
  6
CONTINUOUS
 62
         7
  5
D7
 10
47.2268869562
 20
699.8511823548
 30
0.0
  0
VERTEX
  8
52276002
  6
CONTINUOUS
 62
         7
  5
D8
 10
45.43712701
 20
698.5471379515
 30
0.0
  0
SEQEND
  8
52276002
  6
CONTINUOUS
 62
         7
  5
D9
  0
POLYLINE
  8
52276002
  6
CONTINUOUS
 62
         7
  5
DA
 66
         1
 10
0.0
 20
0.0
 30
0.0
 70
         4
  0
VERTEX
  8
52276002
  6
CONTINUOUS
 62
         7
  5
DB
 10
44.8104076662
 20
710.8479912991
 30
0.0
 70
         8
  0
VERTEX
  8
52276002
  6
CONTINUOUS
 62
         7
  5
DC
 10
45.913632389
 20
710.6183243165
 30
0.0
 70
         8
  0
VERTEX
  8
52276002
  6
CONTINUOUS
 62
         7
  5
DD
 10
47.0168661099
 20
710.3884661803
 30
0.0
 70
         8
  0
SEQEND
  8
52276002
  6
CONTINUOUS
 62
         7
  5
DE
  0
LINE
  8
52276002
  6
CONTINUOUS
 62
         7
  5
DF
 10
51.5168661098
 20
888.6756828341
 30
0.0
 11
34.5168661098
 21
888.6756828341
 31
0.0
  0
LINE
  8
52276002
  6
CONTINUOUS
 62
         7
  5
E0
 10
39.0168661098
 20
711.7500073565
 30
0.0
 11
44.8104076662
 21
711.7500073565
 31
0.0
  0
LINE
  8
52276002
  6
CONTINUOUS
 62
         7
  5
E1
 10
36.0168661098
 20
864.1756828341
 30
0.0
 11
36.0168661098
 21
865.6756828341
 31
0.0
  0
ARC
  8
52276002
  6
CONTINUOUS
 62
         7
  5
E2
 10
43.0168661098
 20
1228.1164479549
 30
0.0
 40
402.5016390415
 50
269.0035054816
 51
270.996494456
  0
LINE
  8
52276002
  6
CONTINUOUS
 62
         7
  5
E3
 10
58.5168661098
 20
20.6756828341
 30
0.0
 11
58.5168661098
 21
825.6756828341
 31
0.0
  0
LINE
  8
52276002
  6
CONTINUOUS
 62
         7
  5
E4
 10
27.5168661098
 20
20.6756828341
 30
0.0
 11
27.5168661098
 21
825.6756828341
 31
0.0
  0
LINE
  8
52276002
  6
CONTINUOUS
 62
         7
  5
E5
 10
50.0168661098
 20
864.1756828341
 30
0.0
 11
36.0168661098
 21
864.1756828341
 31
0.0
  0
LINE
  8
52276002
  6
CONTINUOUS
 62
         7
  5
E6
 10
50.0168661098
 20
865.6756828341
 30
0.0
 11
50.0168661098
 21
864.1756828341
 31
0.0
  0
LINE
  8
52276002
  6
CONTINUOUS
 62
         7
  5
E7
 10
36.0168661098
 20
865.6756828341
 30
0.0
 11
36.0168661098
 21
874.1756828341
 31
0.0
  0
LINE
  8
52276002
  6
CONTINUOUS
 62
         7
  5
E8
 10
50.0168661098
 20
865.6756828341
 30
0.0
 11
36.0168661098
 21
865.6756828341
 31
0.0
  0
LINE
  8
52276002
  6
CONTINUOUS
 62
         7
  5
E9
 10
50.0168661098
 20
874.1756828341
 30
0.0
 11
50.0168661098
 21
865.6756828341
 31
0.0
  0
LINE
  8
52276002
  6
CONTINUOUS
 62
         7
  5
EA
 10
51.5168661098
 20
875.0417082378
 30
0.0
 11
50.0168661098
 21
874.1756828341
 31
0.0
  0
LINE
  8
52276002
  6
CONTINUOUS
 62
         7
  5
EB
 10
36.0168661098
 20
874.1756828341
 30
0.0
 11
34.5168661098
 21
875.0417082378
 31
0.0
  0
CIRCLE
  8
52276002
  6
CONTINUOUS
 62
         7
  5
EC
 10
43.0168661098
 20
423.1756828341
 30
0.0
 40
6.9
  0
LINE
  8
52276002
  6
CONTINUOUS
 62
         7
  5
ED
 10
49.0168661098
 20
904.6756828341
 30
0.0
 11
49.8668661098
 21
904.6756828341
 31
0.0
  0
LINE
  8
52276002
  6
CONTINUOUS
 62
         7
  5
EE
 10
48.8790112844
 20
904.6756828341
 30
0.0
 11
43.1547209353
 21
904.6756828341
 31
0.0
  0
LINE
  8
52276002
  6
CONTINUOUS
 62
         7
  5
EF
 10
42.8790112844
 20
904.6756828341
 30
0.0
 11
37.1547209353
 21
904.6756828341
 31
0.0
  0
LINE
  8
52276002
  6
CONTINUOUS
 62
         7
  5
F0
 10
36.1668661098
 20
904.6756828341
 30
0.0
 11
37.0168661098
 21
904.6756828341
 31
0.0
  0
LINE
  8
52276002
  6
CONTINUOUS
 62
         7
  5
F1
 10
49.0168661098
 20
909.6756828341
 30
0.0
 11
48.8790112844
 21
909.6756828341
 31
0.0
  0
LINE
  8
52276002
  6
CONTINUOUS
 62
         7
  5
F2
 10
37.1547209353
 20
909.6756828341
 30
0.0
 11
37.0168661098
 21
909.6756828341
 31
0.0
  0
LINE
  8
52276002
  6
CONTINUOUS
 62
         7
  5
F3
 10
27.5168661098
 20
20.6756828341
 30
0.0
 11
58.5168661098
 21
20.6756828341
 31
0.0
  0
LINE
  8
52276002
  6
CONTINUOUS
 62
         7
  5
F4
 10
50.0168661098
 20
825.6756207529
 30
0.0
 11
50.0168661098
 21
864.1756828341
 31
0.0
  0
LINE
  8
52276002
  6
CONTINUOUS
 62
         7
  5
F5
 10
47.0168661098
 20
909.6756828341
 30
0.0
 11
47.0168661098
 21
912.6756828341
 31
0.0
  0
LINE
  8
52276002
  6
CONTINUOUS
 62
         7
  5
F6
 10
49.7668661098
 20
912.6756828341
 30
0.0
 11
49.7668661098
 21
913.6756828341
 31
0.0
  0
LINE
  8
52276002
  6
CONTINUOUS
 62
         7
  5
F7
 10
49.8668661098
 20
888.6756828341
 30
0.0
 11
49.8668661098
 21
904.6756828341
 31
0.0
  0
LINE
  8
52276002
  6
CONTINUOUS
 62
         7
  5
F8
 10
49.0168661098
 20
913.6756828341
 30
0.0
 11
49.0168661098
 21
915.1756828341
 31
0.0
  0
LINE
  8
52276002
  6
CONTINUOUS
 62
         7
  5
F9
 10
36.1168661098
 20
916.0756828341
 30
0.0
 11
37.0168661098
 21
915.1756828341
 31
0.0
  0
LINE
  8
52276002
  6
CONTINUOUS
 62
         7
  5
FA
 10
49.9168661098
 20
916.0756828341
 30
0.0
 11
49.9168661098
 21
921.6756828341
 31
0.0
  0
LINE
  8
52276002
  6
CONTINUOUS
 62
         7
  5
FB
 10
51.5168661098
 20
875.0417082378
 30
0.0
 11
51.5168661098
 21
888.6756828341
 31
0.0
  0
ENDBLK
  8
52276002
  6
CONTINUOUS
 62
         7
  5
FC
  0
BLOCK
  8
0
 62
         1
 48
0.0
  5
140
  2
SE2
 70
         0
 10
0.0
 20
0.0
 30
0.0
  3
SE2
  0
ENDBLK
  8
0
 62
         1
 48
0.0
  5
141
  0
BLOCK
  8
0
 62
         1
 48
0.0
  5
FF
  2
SE3
 70
         0
 10
0.0
 20
0.0
 30
0.0
  3
SE3
  0
LINE
  8
52276002
  6
CONTINUOUS
 62
         7
  5
100
 10
725.670128739
 20
825.6756828341
 30
0.0
 11
717.170128739
 21
825.6756828341
 31
0.0
  0
LINE
  8
52276002
  6
CONTINUOUS
 62
         7
  5
101
 10
703.170128739
 20
864.1756828341
 30
0.0
 11
703.170128739
 21
825.6756207529
 31
0.0
  0
LINE
  8
52276002
  6
CONTINUOUS
 62
         7
  5
102
 10
706.170128739
 20
912.6756828341
 30
0.0
 11
706.170128739
 21
909.6756828341
 31
0.0
  0
LINE
  8
52276002
  6
CONTINUOUS
 62
         7
  5
103
 10
703.420128739
 20
913.6756828341
 30
0.0
 11
703.420128739
 21
912.6756828341
 31
0.0
  0
LINE
  8
52276002
  6
CONTINUOUS
 62
         7
  5
104
 10
703.320128739
 20
904.6756828341
 30
0.0
 11
703.320128739
 21
888.6756828341
 31
0.0
  0
LINE
  8
52276002
  6
CONTINUOUS
 62
         7
  5
105
 10
704.170128739
 20
915.1756828341
 30
0.0
 11
704.170128739
 21
913.6756828341
 31
0.0
  0
LINE
  8
52276002
  6
CONTINUOUS
 62
         7
  5
106
 10
703.270128739
 20
921.6756828341
 30
0.0
 11
703.270128739
 21
916.0756828341
 31
0.0
  0
LINE
  8
52276002
  6
CONTINUOUS
 62
         7
  5
107
 10
716.170128739
 20
915.1756828341
 30
0.0
 11
717.070128739
 21
916.0756828341
 31
0.0
  0
LINE
  8
52276002
  6
CONTINUOUS
 62
         7
  5
108
 10
701.670128739
 20
888.6756828341
 30
0.0
 11
701.670128739
 21
875.0417082378
 31
0.0
  0
LINE
  8
52276002
  6
CONTINUOUS
 62
         7
  5
109
 10
704.170128739
 20
904.6756828341
 30
0.0
 11
704.170128739
 21
909.6756828341
 31
0.0
  0
LINE
  8
52276002
  6
CONTINUOUS
 62
         7
  5
10A
 10
716.170128739
 20
909.6756828341
 30
0.0
 11
716.170128739
 21
904.6756828341
 31
0.0
  0
LINE
  8
52276002
  6
CONTINUOUS
 62
         7
  5
10B
 10
710.0322739135
 20
904.6756828341
 30
0.0
 11
710.0322739135
 21
909.6756828341
 31
0.0
  0
LINE
  8
52276002
  6
CONTINUOUS
 62
         7
  5
10C
 10
704.3079835644
 20
909.6756828341
 30
0.0
 11
704.3079835644
 21
904.6756828341
 31
0.0
  0
LINE
  8
52276002
  6
CONTINUOUS
 62
         7
  5
10D
 10
716.0322739135
 20
904.6756828341
 30
0.0
 11
716.0322739135
 21
909.6756828341
 31
0.0
  0
LINE
  8
52276002
  6
CONTINUOUS
 62
         7
  5
10E
 10
710.3079835644
 20
909.6756828341
 30
0.0
 11
710.3079835644
 21
904.6756828341
 31
0.0
  0
LINE
  8
52276002
  6
CONTINUOUS
 62
         7
  5
10F
 10
703.270128739
 20
921.6756828341
 30
0.0
 11
717.070128739
 21
921.6756828341
 31
0.0
  0
LINE
  8
52276002
  6
CONTINUOUS
 62
         7
  5
110
 10
703.270128739
 20
916.0756828341
 30
0.0
 11
717.070128739
 21
916.0756828341
 31
0.0
  0
LINE
  8
52276002
  6
CONTINUOUS
 62
         7
  5
111
 10
704.170128739
 20
915.1756828341
 30
0.0
 11
716.170128739
 21
915.1756828341
 31
0.0
  0
LINE
  8
52276002
  6
CONTINUOUS
 62
         7
  5
112
 10
703.420128739
 20
912.6756828341
 30
0.0
 11
716.920128739
 21
912.6756828341
 31
0.0
  0
LINE
  8
52276002
  6
CONTINUOUS
 62
         7
  5
113
 10
703.420128739
 20
913.6756828341
 30
0.0
 11
716.920128739
 21
913.6756828341
 31
0.0
  0
LINE
  8
52276002
  6
CONTINUOUS
 62
         7
  5
114
 10
716.0322739135
 20
909.6756828341
 30
0.0
 11
710.3079835644
 21
909.6756828341
 31
0.0
  0
LINE
  8
52276002
  6
CONTINUOUS
 62
         7
  5
115
 10
710.0322739135
 20
909.6756828341
 30
0.0
 11
704.3079835644
 21
909.6756828341
 31
0.0
  0
LINE
  8
52276002
  6
CONTINUOUS
 62
         7
  5
116
 10
716.0322739135
 20
904.6756828341
 30
0.0
 11
710.3079835644
 21
904.6756828341
 31
0.0
  0
LINE
  8
52276002
  6
CONTINUOUS
 62
         7
  5
117
 10
694.670128739
 20
20.6756828341
 30
0.0
 11
725.670128739
 21
20.6756828341
 31
0.0
  0
LINE
  8
52276002
  6
CONTINUOUS
 62
         7
  5
118
 10
701.670128739
 20
888.6756828341
 30
0.0
 11
718.670128739
 21
888.6756828341
 31
0.0
  0
LINE
  8
52276002
  6
CONTINUOUS
 62
         7
  5
119
 10
717.170128739
 20
865.6756828341
 30
0.0
 11
703.170128739
 21
865.6756828341
 31
0.0
  0
POLYLINE
  8
52276002
  6
CONTINUOUS
 62
         7
  5
11A
 66
         1
 10
0.0
 20
0.0
 30
0.0
 70
         4
  0
VERTEX
  8
52276002
  6
CONTINUOUS
 62
         7
  5
11B
 10
703.1701287645
 20
825.6756828328
 30
0.0
 70
         8
  0
VERTEX
  8
52276002
  6
CONTINUOUS
 62
         7
  5
11C
 10
703.7094971511
 20
825.6664441786
 30
0.0
 70
         8
  0
VERTEX
  8
52276002
  6
CONTINUOUS
 62
         7
  5
11D
 10
705.2155808357
 20
825.6453059672
 30
0.0
 70
         8
  0
VERTEX
  8
52276002
  6
CONTINUOUS
 62
         7
  5
11E
 10
706.2741448285
 20
825.6336817519
 30
0.0
 70
         8
  0
VERTEX
  8
52276002
  6
CONTINUOUS
 62
         7
  5
11F
 10
707.4838738492
 20
825.6237738537
 30
0.0
 70
         8
  0
VERTEX
  8
52276002
  6
CONTINUOUS
 62
         7
  5
120
 10
708.7946234736
 20
825.6171789993
 30
0.0
 70
         8
  0
VERTEX
  8
52276002
  6
CONTINUOUS
 62
         7
  5
121
 10
710.1629955945
 20
825.6148087287
 30
0.0
 70
         8
  0
VERTEX
  8
52276002
  6
CONTINUOUS
 62
         7
  5
122
 10
712.8467517911
 20
825.6240302155
 30
0.0
 70
         8
  0
VERTEX
  8
52276002
  6
CONTINUOUS
 62
         7
  5
123
 10
715.1159221226
 20
825.6451982911
 30
0.0
 70
         8
  0
VERTEX
  8
52276002
  6
CONTINUOUS
 62
         7
  5
124
 10
716.6281103365
 20
825.6664015848
 30
0.0
 70
         8
  0
VERTEX
  8
52276002
  6
CONTINUOUS
 62
         7
  5
125
 10
717.170128739
 20
825.6756828341
 30
0.0
 70
         8
  0
SEQEND
  8
52276002
  6
CONTINUOUS
 62
         7
  5
126
  0
LINE
  8
52276002
  6
CONTINUOUS
 62
         7
  5
127
 10
725.670128739
 20
20.6756828341
 30
0.0
 11
725.670128739
 21
825.6756828341
 31
0.0
  0
LINE
  8
52276002
  6
CONTINUOUS
 62
         7
  5
128
 10
694.670128739
 20
20.6756828341
 30
0.0
 11
694.670128739
 21
825.6756828341
 31
0.0
  0
LINE
  8
52276002
  6
CONTINUOUS
 62
         7
  5
129
 10
703.170128739
 20
864.1756828341
 30
0.0
 11
703.170128739
 21
865.6756828341
 31
0.0
  0
LINE
  8
52276002
  6
CONTINUOUS
 62
         7
  5
12A
 10
717.170128739
 20
864.1756828341
 30
0.0
 11
703.170128739
 21
864.1756828341
 31
0.0
  0
LINE
  8
52276002
  6
CONTINUOUS
 62
         7
  5
12B
 10
703.170128739
 20
865.6756828341
 30
0.0
 11
703.170128739
 21
874.1756828341
 31
0.0
  0
LINE
  8
52276002
  6
CONTINUOUS
 62
         7
  5
12C
 10
717.170128739
 20
874.1756828341
 30
0.0
 11
717.170128739
 21
865.6756828341
 31
0.0
  0
LINE
  8
52276002
  6
CONTINUOUS
 62
         7
  5
12D
 10
717.170128739
 20
865.6756828341
 30
0.0
 11
717.170128739
 21
864.1756828341
 31
0.0
  0
LINE
  8
52276002
  6
CONTINUOUS
 62
         7
  5
12E
 10
701.670128739
 20
875.0417082378
 30
0.0
 11
703.170128739
 21
874.1756828341
 31
0.0
  0
LINE
  8
52276002
  6
CONTINUOUS
 62
         7
  5
12F
 10
717.170128739
 20
874.1756828341
 30
0.0
 11
718.670128739
 21
875.0417082378
 31
0.0
  0
LINE
  8
52276002
  6
CONTINUOUS
 62
         7
  5
130
 10
710.0322739135
 20
904.6756828341
 30
0.0
 11
704.3079835644
 21
904.6756828341
 31
0.0
  0
LINE
  8
52276002
  6
CONTINUOUS
 62
         7
  5
131
 10
704.170128739
 20
904.6756828341
 30
0.0
 11
703.320128739
 21
904.6756828341
 31
0.0
  0
LINE
  8
52276002
  6
CONTINUOUS
 62
         7
  5
132
 10
717.020128739
 20
904.6756828341
 30
0.0
 11
716.170128739
 21
904.6756828341
 31
0.0
  0
LINE
  8
52276002
  6
CONTINUOUS
 62
         7
  5
133
 10
704.3079835644
 20
909.6756828341
 30
0.0
 11
704.170128739
 21
909.6756828341
 31
0.0
  0
LINE
  8
52276002
  6
CONTINUOUS
 62
         7
  5
134
 10
716.170128739
 20
909.6756828341
 30
0.0
 11
716.0322739135
 21
909.6756828341
 31
0.0
  0
LINE
  8
52276002
  6
CONTINUOUS
 62
         7
  5
135
 10
710.3079835644
 20
909.6756828341
 30
0.0
 11
710.0322739135
 21
909.6756828341
 31
0.0
  0
LINE
  8
52276002
  6
CONTINUOUS
 62
         7
  5
136
 10
703.1732014871
 20
825.6756828341
 30
0.0
 11
694.670128739
 21
825.6756828341
 31
0.0
  0
LINE
  8
52276002
  6
CONTINUOUS
 62
         7
  5
137
 10
717.170128739
 20
825.6756828341
 30
0.0
 11
717.170128739
 21
864.1756828341
 31
0.0
  0
LINE
  8
52276002
  6
CONTINUOUS
 62
         7
  5
138
 10
714.170128739
 20
909.6756828341
 30
0.0
 11
714.170128739
 21
912.6756828341
 31
0.0
  0
LINE
  8
52276002
  6
CONTINUOUS
 62
         7
  5
139
 10
716.920128739
 20
912.6756828341
 30
0.0
 11
716.920128739
 21
913.6756828341
 31
0.0
  0
LINE
  8
52276002
  6
CONTINUOUS
 62
         7
  5
13A
 10
717.020128739
 20
888.6756828341
 30
0.0
 11
717.020128739
 21
904.6756828341
 31
0.0
  0
LINE
  8
52276002
  6
CONTINUOUS
 62
         7
  5
13B
 10
716.170128739
 20
913.6756828341
 30
0.0
 11
716.170128739
 21
915.1756828341
 31
0.0
  0
LINE
  8
52276002
  6
CONTINUOUS
 62
         7
  5
13C
 10
717.070128739
 20
916.0756828341
 30
0.0
 11
717.070128739
 21
921.6756828341
 31
0.0
  0
LINE
  8
52276002
  6
CONTINUOUS
 62
         7
  5
13D
 10
703.270128739
 20
916.0756828341
 30
0.0
 11
704.170128739
 21
915.1756828341
 31
0.0
  0
LINE
  8
52276002
  6
CONTINUOUS
 62
         7
  5
13E
 10
718.670128739
 20
875.0417082378
 30
0.0
 11
718.670128739
 21
888.6756828341
 31
0.0
  0
ENDBLK
  8
52276002
  6
CONTINUOUS
 62
         7
  5
13F
  0
BLOCK
  8
0
 62
         1
 48
0.0
  5
177
  2
SE4
 70
         0
 10
0.0
 20
0.0
 30
0.0
  3
SE4
  0
ENDBLK
  8
0
 62
         1
 48
0.0
  5
178
  0
BLOCK
  8
0
 62
         1
 48
0.0
  5
142
  2
SE5
 70
         0
 10
0.0
 20
0.0
 30
0.0
  3
SE5
  0
LINE
  8
52276002
  6
CONTINUOUS
 62
         7
  5
143
 10
36.0168661098
 20
1848.7625388491
 30
0.0
 11
36.0168661098
 21
1810.2625388491
 31
0.0
  0
LINE
  8
52276002
  6
CONTINUOUS
 62
         7
  5
144
 10
34.5168661098
 20
1873.2625388491
 30
0.0
 11
34.5168661098
 21
1859.6285642529
 31
0.0
  0
LINE
  8
52276002
  6
CONTINUOUS
 62
         7
  5
145
 10
36.0168661098
 20
1810.2625388491
 30
0.0
 11
27.5168661098
 21
1810.2625388491
 31
0.0
  0
LINE
  8
52276002
  6
CONTINUOUS
 62
         7
  5
146
 10
39.0168661098
 20
1897.2625388491
 30
0.0
 11
39.0168661098
 21
1894.2625388491
 31
0.0
  0
LINE
  8
52276002
  6
CONTINUOUS
 62
         7
  5
147
 10
36.2668661098
 20
1898.2625388491
 30
0.0
 11
36.2668661098
 21
1897.2625388491
 31
0.0
  0
LINE
  8
52276002
  6
CONTINUOUS
 62
         7
  5
148
 10
36.1668661098
 20
1889.2625388491
 30
0.0
 11
36.1668661098
 21
1873.2625388491
 31
0.0
  0
LINE
  8
52276002
  6
CONTINUOUS
 62
         7
  5
149
 10
37.0168661098
 20
1899.7625388491
 30
0.0
 11
37.0168661098
 21
1898.2625388491
 31
0.0
  0
LINE
  8
52276002
  6
CONTINUOUS
 62
         7
  5
14A
 10
36.1168661098
 20
1906.2625388491
 30
0.0
 11
36.1168661098
 21
1900.6625388491
 31
0.0
  0
LINE
  8
52276002
  6
CONTINUOUS
 62
         7
  5
14B
 10
49.0168661098
 20
1899.7625388491
 30
0.0
 11
49.9168661098
 21
1900.6625388491
 31
0.0
  0
LINE
  8
52276002
  6
CONTINUOUS
 62
         7
  5
14C
 10
48.8790112844
 20
1894.2625388491
 30
0.0
 11
43.1547209353
 21
1894.2625388491
 31
0.0
  0
LINE
  8
52276002
  6
CONTINUOUS
 62
         7
  5
14D
 10
42.8790112844
 20
1894.2625388491
 30
0.0
 11
37.1547209353
 21
1894.2625388491
 31
0.0
  0
LINE
  8
52276002
  6
CONTINUOUS
 62
         7
  5
14E
 10
43.1547209353
 20
1894.2625388491
 30
0.0
 11
42.8790112844
 21
1894.2625388491
 31
0.0
  0
LINE
  8
52276002
  6
CONTINUOUS
 62
         7
  5
14F
 10
37.1547209353
 20
1894.2625388491
 30
0.0
 11
37.0168661098
 21
1894.2625388491
 31
0.0
  0
LINE
  8
52276002
  6
CONTINUOUS
 62
         7
  5
150
 10
58.5168661098
 20
1810.2625388491
 30
0.0
 11
50.0137933617
 21
1810.2625388491
 31
0.0
  0
LINE
  8
52276002
  6
CONTINUOUS
 62
         7
  5
151
 10
50.0168661098
 20
1848.7625388491
 30
0.0
 11
36.0168661098
 21
1848.7625388491
 31
0.0
  0
LINE
  8
52276002
  6
CONTINUOUS
 62
         7
  5
152
 10
36.0168661098
 20
1850.2625388491
 30
0.0
 11
36.0168661098
 21
1858.7625388491
 31
0.0
  0
LINE
  8
52276002
  6
CONTINUOUS
 62
         7
  5
153
 10
50.0168661098
 20
1858.7625388491
 30
0.0
 11
50.0168661098
 21
1850.2625388491
 31
0.0
  0
LINE
  8
52276002
  6
CONTINUOUS
 62
         7
  5
154
 10
34.5168661098
 20
1873.2625388491
 30
0.0
 11
51.5168661098
 21
1873.2625388491
 31
0.0
  0
ARC
  8
52276002
  6
CONTINUOUS
 62
         7
  5
155
 10
43.0168661098
 20
2212.7033039697
 30
0.0
 40
402.5016390412
 50
269.0035054816
 51
270.996494456
  0
LINE
  8
52276002
  6
CONTINUOUS
 62
         7
  5
156
 10
27.5168661098
 20
1810.2625388491
 30
0.0
 11
27.5168661098
 21
1005.2625388491
 31
0.0
  0
LINE
  8
52276002
  6
CONTINUOUS
 62
         7
  5
157
 10
58.5168661098
 20
1810.2625388491
 30
0.0
 11
58.5168661098
 21
1005.2625388491
 31
0.0
  0
LINE
  8
52276002
  6
CONTINUOUS
 62
         7
  5
158
 10
51.5168661098
 20
1859.6285642529
 30
0.0
 11
50.0168661098
 21
1858.7625388491
 31
0.0
  0
LINE
  8
52276002
  6
CONTINUOUS
 62
         7
  5
159
 10
36.0168661098
 20
1858.7625388491
 30
0.0
 11
34.5168661098
 21
1859.6285642529
 31
0.0
  0
LINE
  8
52276002
  6
CONTINUOUS
 62
         7
  5
15A
 10
36.0168661098
 20
1848.7625388491
 30
0.0
 11
36.0168661098
 21
1850.2625388491
 31
0.0
  0
LINE
  8
52276002
  6
CONTINUOUS
 62
         7
  5
15B
 10
50.0168661098
 20
1850.2625388491
 30
0.0
 11
50.0168661098
 21
1848.7625388491
 31
0.0
  0
LINE
  8
52276002
  6
CONTINUOUS
 62
         7
  5
15C
 10
50.0168661098
 20
1850.2625388491
 30
0.0
 11
36.0168661098
 21
1850.2625388491
 31
0.0
  0
LINE
  8
52276002
  6
CONTINUOUS
 62
         7
  5
15D
 10
49.0168661098
 20
1889.2625388491
 30
0.0
 11
49.8668661098
 21
1889.2625388491
 31
0.0
  0
LINE
  8
52276002
  6
CONTINUOUS
 62
         7
  5
15E
 10
48.8790112844
 20
1889.2625388491
 30
0.0
 11
43.1547209353
 21
1889.2625388491
 31
0.0
  0
LINE
  8
52276002
  6
CONTINUOUS
 62
         7
  5
15F
 10
42.8790112844
 20
1889.2625388491
 30
0.0
 11
37.1547209353
 21
1889.2625388491
 31
0.0
  0
LINE
  8
52276002
  6
CONTINUOUS
 62
         7
  5
160
 10
37.0168661098
 20
1889.2625388491
 30
0.0
 11
36.1668661098
 21
1889.2625388491
 31
0.0
  0
LINE
  8
52276002
  6
CONTINUOUS
 62
         7
  5
161
 10
43.1547209353
 20
1894.2625388491
 30
0.0
 11
43.1547209353
 21
1889.2625388491
 31
0.0
  0
LINE
  8
52276002
  6
CONTINUOUS
 62
         7
  5
162
 10
42.8790112844
 20
1889.2625388491
 30
0.0
 11
42.8790112844
 21
1894.2625388491
 31
0.0
  0
LINE
  8
52276002
  6
CONTINUOUS
 62
         7
  5
163
 10
37.1547209353
 20
1894.2625388491
 30
0.0
 11
37.1547209353
 21
1889.2625388491
 31
0.0
  0
LINE
  8
52276002
  6
CONTINUOUS
 62
         7
  5
164
 10
37.0168661098
 20
1889.2625388491
 30
0.0
 11
37.0168661098
 21
1894.2625388491
 31
0.0
  0
LINE
  8
52276002
  6
CONTINUOUS
 62
         7
  5
165
 10
49.0168661098
 20
1894.2625388491
 30
0.0
 11
49.0168661098
 21
1889.2625388491
 31
0.0
  0
LINE
  8
52276002
  6
CONTINUOUS
 62
         7
  5
166
 10
48.8790112844
 20
1889.2625388491
 30
0.0
 11
48.8790112844
 21
1894.2625388491
 31
0.0
  0
LINE
  8
52276002
  6
CONTINUOUS
 62
         7
  5
167
 10
36.1168661098
 20
1906.2625388491
 30
0.0
 11
49.9168661098
 21
1906.2625388491
 31
0.0
  0
LINE
  8
52276002
  6
CONTINUOUS
 62
         7
  5
168
 10
36.2668661098
 20
1898.2625388491
 30
0.0
 11
49.7668661098
 21
1898.2625388491
 31
0.0
  0
LINE
  8
52276002
  6
CONTINUOUS
 62
         7
  5
169
 10
36.2668661098
 20
1897.2625388491
 30
0.0
 11
49.7668661098
 21
1897.2625388491
 31
0.0
  0
LINE
  8
52276002
  6
CONTINUOUS
 62
         7
  5
16A
 10
36.1168661098
 20
1900.6625388491
 30
0.0
 11
49.9168661098
 21
1900.6625388491
 31
0.0
  0
LINE
  8
52276002
  6
CONTINUOUS
 62
         7
  5
16B
 10
37.0168661098
 20
1899.7625388491
 30
0.0
 11
49.0168661098
 21
1899.7625388491
 31
0.0
  0
LINE
  8
52276002
  6
CONTINUOUS
 62
         7
  5
16C
 10
49.0168661098
 20
1894.2625388491
 30
0.0
 11
48.8790112844
 21
1894.2625388491
 31
0.0
  0
LINE
  8
52276002
  6
CONTINUOUS
 62
         7
  5
16D
 10
50.0168661098
 20
1810.2624767679
 30
0.0
 11
50.0168661098
 21
1848.7625388491
 31
0.0
  0
LINE
  8
52276002
  6
CONTINUOUS
 62
         7
  5
16E
 10
51.5168661098
 20
1859.6285642529
 30
0.0
 11
51.5168661098
 21
1873.2625388491
 31
0.0
  0
LINE
  8
52276002
  6
CONTINUOUS
 62
         7
  5
16F
 10
27.5168661098
 20
1005.2625388491
 30
0.0
 11
58.5168661098
 21
1005.2625388491
 31
0.0
  0
LINE
  8
52276002
  6
CONTINUOUS
 62
         7
  5
170
 10
47.0168661098
 20
1894.2625388491
 30
0.0
 11
47.0168661098
 21
1897.2625388491
 31
0.0
  0
LINE
  8
52276002
  6
CONTINUOUS
 62
         7
  5
171
 10
49.7668661098
 20
1897.2625388491
 30
0.0
 11
49.7668661098
 21
1898.2625388491
 31
0.0
  0
LINE
  8
52276002
  6
CONTINUOUS
 62
         7
  5
172
 10
49.8668661098
 20
1873.2625388491
 30
0.0
 11
49.8668661098
 21
1889.2625388491
 31
0.0
  0
LINE
  8
52276002
  6
CONTINUOUS
 62
         7
  5
173
 10
49.0168661098
 20
1898.2625388491
 30
0.0
 11
49.0168661098
 21
1899.7625388491
 31
0.0
  0
LINE
  8
52276002
  6
CONTINUOUS
 62
         7
  5
174
 10
49.9168661098
 20
1900.6625388491
 30
0.0
 11
49.9168661098
 21
1906.2625388491
 31
0.0
  0
LINE
  8
52276002
  6
CONTINUOUS
 62
         7
  5
175
 10
36.1168661098
 20
1900.6625388491
 30
0.0
 11
37.0168661098
 21
1899.7625388491
 31
0.0
  0
ENDBLK
  8
52276002
  6
CONTINUOUS
 62
         7
  5
176
  0
BLOCK
  8
0
 62
         1
 48
0.0
  5
21B
  2
SE6
 70
         0
 10
0.0
 20
0.0
 30
0.0
  3
SE6
  0
ENDBLK
  8
0
 62
         1
 48
0.0
  5
21C
  0
BLOCK
  8
0
 62
         1
 48
0.0
  5
179
  2
SE7
 70
         0
 10
0.0
 20
0.0
 30
0.0
  3
SE7
  0
LINE
  8
52276002
  6
CONTINUOUS
 62
         7
  5
17A
 10
760.468618446
 20
1848.7625388491
 30
0.0
 11
760.468618446
 21
1810.2018655453
 31
0.0
  0
LINE
  8
52276002
  6
CONTINUOUS
 62
         7
  5
17B
 10
758.968618446
 20
1873.2625388491
 30
0.0
 11
758.968618446
 21
1850.2625388491
 31
0.0
  0
LINE
  8
52276002
  6
CONTINUOUS
 62
         7
  5
17C
 10
326.468618446
 20
1400.7625388491
 30
0.0
 11
365.0292917498
 21
1400.7625388491
 31
0.0
  0
LINE
  8
52276002
  6
CONTINUOUS
 62
         7
  5
17D
 10
277.968618446
 20
1403.7625388491
 30
0.0
 11
280.968618446
 21
1403.7625388491
 31
0.0
  0
LINE
  8
52276002
  6
CONTINUOUS
 62
         7
  5
17E
 10
276.968618446
 20
1401.0125388491
 30
0.0
 11
277.968618446
 21
1401.0125388491
 31
0.0
  0
LINE
  8
52276002
  6
CONTINUOUS
 62
         7
  5
17F
 10
280.968618446
 20
1400.9125388491
 30
0.0
 11
301.968618446
 21
1400.9125388491
 31
0.0
  0
LINE
  8
52276002
  6
CONTINUOUS
 62
         7
  5
180
 10
275.468618446
 20
1401.7625388491
 30
0.0
 11
276.968618446
 21
1401.7625388491
 31
0.0
  0
LINE
  8
52276002
  6
CONTINUOUS
 62
         7
  5
181
 10
275.468618446
 20
1413.7625388491
 30
0.0
 11
274.568618446
 21
1414.6625388491
 31
0.0
  0
LINE
  8
52276002
  6
CONTINUOUS
 62
         7
  5
182
 10
268.968618446
 20
1400.8625388491
 30
0.0
 11
274.568618446
 21
1400.8625388491
 31
0.0
  0
LINE
  8
52276002
  6
CONTINUOUS
 62
         7
  5
183
 10
763.468618446
 20
1897.2625388491
 30
0.0
 11
763.468618446
 21
1894.2625388491
 31
0.0
  0
LINE
  8
52276002
  6
CONTINUOUS
 62
         7
  5
184
 10
760.718618446
 20
1898.2625388491
 30
0.0
 11
760.718618446
 21
1897.2625388491
 31
0.0
  0
LINE
  8
52276002
  6
CONTINUOUS
 62
         7
  5
185
 10
760.618618446
 20
1894.2625388491
 30
0.0
 11
760.618618446
 21
1873.2625388491
 31
0.0
  0
LINE
  8
52276002
  6
CONTINUOUS
 62
         7
  5
186
 10
761.468618446
 20
1899.7625388491
 30
0.0
 11
761.468618446
 21
1898.2625388491
 31
0.0
  0
LINE
  8
52276002
  6
CONTINUOUS
 62
         7
  5
187
 10
760.568618446
 20
1906.2625388491
 30
0.0
 11
760.568618446
 21
1900.6625388491
 31
0.0
  0
LINE
  8
52276002
  6
CONTINUOUS
 62
         7
  5
188
 10
773.468618446
 20
1899.7625388491
 30
0.0
 11
774.368618446
 21
1900.6625388491
 31
0.0
  0
LINE
  8
52276002
  6
CONTINUOUS
 62
         7
  5
189
 10
301.968618446
 20
1399.2625388491
 30
0.0
 11
324.968618446
 21
1399.2625388491
 31
0.0
  0
LINE
  8
52276002
  6
CONTINUOUS
 62
         7
  5
18A
 10
770.7735390199
 20
1894.2625388491
 30
0.0
 11
764.163697872
 21
1894.2625388491
 31
0.0
  0
LINE
  8
52276002
  6
CONTINUOUS
 62
         7
  5
18B
 10
764.163697872
 20
1894.2625388491
 30
0.0
 11
764.163697872
 21
1889.2625388491
 31
0.0
  0
LINE
  8
52276002
  6
CONTINUOUS
 62
         7
  5
18C
 10
774.3172311556
 20
1894.2625388491
 30
0.0
 11
771.0123105817
 21
1894.2625388491
 31
0.0
  0
LINE
  8
52276002
  6
CONTINUOUS
 62
         7
  5
18D
 10
774.318618446
 20
1894.2625388491
 30
0.0
 11
774.3172311556
 21
1894.2625388491
 31
0.0
  0
LINE
  8
52276002
  6
CONTINUOUS
 62
         7
  5
18E
 10
771.0123105817
 20
1894.2625388491
 30
0.0
 11
770.7735390199
 21
1894.2625388491
 31
0.0
  0
LINE
  8
52276002
  6
CONTINUOUS
 62
         7
  5
18F
 10
764.163697872
 20
1894.2625388491
 30
0.0
 11
763.9249263102
 21
1894.2625388491
 31
0.0
  0
LINE
  8
52276002
  6
CONTINUOUS
 62
         7
  5
190
 10
760.618618446
 20
1894.2625388491
 30
0.0
 11
760.6200057363
 21
1894.2625388491
 31
0.0
  0
LINE
  8
52276002
  6
CONTINUOUS
 62
         7
  5
191
 10
763.9249263102
 20
1894.2625388491
 30
0.0
 11
760.6200057363
 21
1894.2625388491
 31
0.0
  0
LINE
  8
52276002
  6
CONTINUOUS
 62
         7
  5
192
 10
763.9249263102
 20
1889.2625388491
 30
0.0
 11
760.6200057363
 21
1889.2625388491
 31
0.0
  0
LINE
  8
52276002
  6
CONTINUOUS
 62
         7
  5
193
 10
285.968618446
 20
1414.6111515588
 30
0.0
 11
280.968618446
 21
1414.6111515588
 31
0.0
  0
LINE
  8
52276002
  6
CONTINUOUS
 62
         7
  5
194
 10
280.968618446
 20
1411.3062309848
 30
0.0
 11
285.968618446
 21
1411.3062309848
 31
0.0
  0
LINE
  8
52276002
  6
CONTINUOUS
 62
         7
  5
195
 10
285.968618446
 20
1411.067459423
 30
0.0
 11
280.968618446
 21
1411.067459423
 31
0.0
  0
LINE
  8
52276002
  6
CONTINUOUS
 62
         7
  5
196
 10
280.968618446
 20
1404.4576182752
 30
0.0
 11
285.968618446
 21
1404.4576182752
 31
0.0
  0
LINE
  8
52276002
  6
CONTINUOUS
 62
         7
  5
197
 10
285.968618446
 20
1404.2188467134
 30
0.0
 11
280.968618446
 21
1404.2188467134
 31
0.0
  0
LINE
  8
52276002
  6
CONTINUOUS
 62
         7
  5
198
 10
280.968618446
 20
1400.9139261394
 30
0.0
 11
285.968618446
 21
1400.9139261394
 31
0.0
  0
LINE
  8
52276002
  6
CONTINUOUS
 62
         7
  5
199
 10
275.468618446
 20
1413.7625388491
 30
0.0
 11
275.468618446
 21
1401.7625388491
 31
0.0
  0
LINE
  8
52276002
  6
CONTINUOUS
 62
         7
  5
19A
 10
268.968618446
 20
1414.6625388491
 30
0.0
 11
268.968618446
 21
1400.8625388491
 31
0.0
  0
LINE
  8
52276002
  6
CONTINUOUS
 62
         7
  5
19B
 10
274.568618446
 20
1414.6625388491
 30
0.0
 11
274.568618446
 21
1400.8625388491
 31
0.0
  0
LINE
  8
52276002
  6
CONTINUOUS
 62
         7
  5
19C
 10
280.968618446
 20
1414.6111515588
 30
0.0
 11
280.968618446
 21
1411.3062309848
 31
0.0
  0
LINE
  8
52276002
  6
CONTINUOUS
 62
         7
  5
19D
 10
280.968618446
 20
1411.067459423
 30
0.0
 11
280.968618446
 21
1404.4576182752
 31
0.0
  0
LINE
  8
52276002
  6
CONTINUOUS
 62
         7
  5
19E
 10
277.968618446
 20
1414.5125388491
 30
0.0
 11
277.968618446
 21
1401.0125388491
 31
0.0
  0
LINE
  8
52276002
  6
CONTINUOUS
 62
         7
  5
19F
 10
276.968618446
 20
1414.5125388491
 30
0.0
 11
276.968618446
 21
1401.0125388491
 31
0.0
  0
LINE
  8
52276002
  6
CONTINUOUS
 62
         7
  5
1A0
 10
280.968618446
 20
1414.6125388491
 30
0.0
 11
280.968618446
 21
1414.6111515588
 31
0.0
  0
LINE
  8
52276002
  6
CONTINUOUS
 62
         7
  5
1A1
 10
280.968618446
 20
1404.2188467134
 30
0.0
 11
280.968618446
 21
1400.9139261394
 31
0.0
  0
LINE
  8
52276002
  6
CONTINUOUS
 62
         7
  5
1A2
 10
285.968618446
 20
1404.2188467134
 30
0.0
 11
285.968618446
 21
1400.9139261394
 31
0.0
  0
ARC
  8
52276002
  6
CONTINUOUS
 62
         7
  5
1A3
 10
767.468618446
 20
1407.7625388491
 30
0.0
 40
402.6999999999
 50
136.1425261454
 51
136.392649224
  0
LINE
  8
52276002
  6
CONTINUOUS
 62
         7
  5
1A4
 10
478.8942939235
 20
1688.353182361
 30
0.0
 11
478.752858662
 21
1688.4946176224
 31
0.0
  0
LINE
  8
52276002
  6
CONTINUOUS
 62
         7
  5
1A5
 10
477.2369626027
 20
1686.6385613869
 30
0.0
 11
477.0955131106
 21
1686.780010879
 31
0.0
  0
LINE
  8
52276002
  6
CONTINUOUS
 62
         7
  5
1A6
 10
476.0217042533
 20
1685.3682776362
 30
0.0
 11
475.8802410904
 21
1685.5097407991
 31
0.0
  0
ARC
  8
52276002
  6
CONTINUOUS
 62
         7
  5
1A7
 10
767.468618446
 20
1407.7625388491
 30
0.0
 40
402.7
 50
133.8324197814
 51
134.1895134046
  0
ARC
  8
52276002
  6
CONTINUOUS
 62
         7
  5
1A8
 10
767.468618446
 20
1407.7625388491
 30
0.0
 40
402.7
 50
135.8032364482
 51
136.1425261454
  0
ARC
  8
52276002
  6
CONTINUOUS
 62
         7
  5
1A9
 10
767.468618446
 20
1407.7625388491
 30
0.0
 40
402.7
 50
133.1699165616
 51
133.5273724873
  0
LINE
  8
52276002
  6
CONTINUOUS
 62
         7
  5
1AA
 10
492.0971633287
 20
1701.3214114907
 30
0.0
 11
491.955669765
 21
1701.4629050544
 31
0.0
  0
ARC
  8
52276002
  6
CONTINUOUS
 62
         7
  5
1AB
 10
767.468618446
 20
1407.7625388491
 30
0.0
 40
402.7
 50
133.5273724873
 51
133.8324197814
  0
LINE
  8
52276002
  6
CONTINUOUS
 62
         7
  5
1AC
 10
486.9145112195
 20
1696.3723843471
 30
0.0
 11
486.7730757059
 21
1696.5138198607
 31
0.0
  0
ARC
  8
52276002
  6
CONTINUOUS
 62
         7
  5
1AD
 10
767.468618446
 20
1407.7625388491
 30
0.0
 40
402.7000000001
 50
134.6402703657
 51
135.0
  0
LINE
  8
52276002
  6
CONTINUOUS
 62
         7
  5
1AE
 10
488.7195970369
 20
1698.1161733425
 30
0.0
 11
488.5781462972
 21
1698.2576240823
 31
0.0
  0
LINE
  8
52276002
  6
CONTINUOUS
 62
         7
  5
1AF
 10
490.2701787488
 20
1699.596866901
 30
0.0
 11
490.1287106448
 21
1699.738335005
 31
0.0
  0
ARC
  8
52276002
  6
CONTINUOUS
 62
         7
  5
1B0
 10
767.468618446
 20
1407.7625388491
 30
0.0
 40
402.7
 50
135.204267677
 51
135.7688873953
  0
ARC
  8
52276002
  6
CONTINUOUS
 62
         7
  5
1B1
 10
767.4686184903
 20
1407.762538805
 30
0.0
 40
402.7000000625
 50
135.1156912612
 51
135.204267677
  0
ARC
  8
52276002
  6
CONTINUOUS
 62
         7
  5
1B2
 10
767.4686184375
 20
1407.7625388575
 30
0.0
 40
402.6999999881
 50
135.0
 51
135.1156912612
  0
LINE
  8
52276002
  6
CONTINUOUS
 62
         7
  5
1B3
 10
479.0626446557
 20
1688.5262193389
 30
0.0
 11
478.9212105582
 21
1688.6676534364
 31
0.0
  0
LINE
  8
52276002
  6
CONTINUOUS
 62
         7
  5
1B4
 10
482.2837510186
 20
1691.7974687265
 30
0.0
 11
482.142329374
 21
1691.9388903712
 31
0.0
  0
LINE
  8
52276002
  6
CONTINUOUS
 62
         7
  5
1B5
 10
481.8447703061
 20
1691.3560285025
 30
0.0
 11
481.7033480506
 21
1691.4974507579
 31
0.0
  0
LINE
  8
52276002
  6
CONTINUOUS
 62
         7
  5
1B6
 10
484.6515476612
 20
1694.1551967032
 30
0.0
 11
484.5101235161
 21
1694.2966208483
 31
0.0
  0
LINE
  8
52276002
  6
CONTINUOUS
 62
         7
  5
1B7
 10
482.8581390185
 20
1692.3730182766
 30
0.0
 11
482.7167176621
 21
1692.5144396329
 31
0.0
  0
LINE
  8
52276002
  6
CONTINUOUS
 62
         7
  5
1B8
 10
774.468618446
 20
1848.7625388491
 30
0.0
 11
767.468618446
 21
1848.7625388491
 31
0.0
  0
LINE
  8
52276002
  6
CONTINUOUS
 62
         7
  5
1B9
 10
772.2904438265
 20
1858.7625388491
 30
0.0
 11
762.6467930655
 21
1858.7625388491
 31
0.0
  0
LINE
  8
52276002
  6
CONTINUOUS
 62
         7
  5
1BA
 10
772.2904438265
 20
1850.2625388491
 30
0.0
 11
772.2904438265
 21
1858.7625388491
 31
0.0
  0
LINE
  8
52276002
  6
CONTINUOUS
 62
         7
  5
1BB
 10
762.6467930655
 20
1850.2625388491
 30
0.0
 11
758.968618446
 21
1850.2625388491
 31
0.0
  0
LINE
  8
52276002
  6
CONTINUOUS
 62
         7
  5
1BC
 10
762.6467930655
 20
1858.7625388491
 30
0.0
 11
762.6467930655
 21
1850.2625388491
 31
0.0
  0
LINE
  8
52276002
  6
CONTINUOUS
 62
         7
  5
1BD
 10
775.968618446
 20
1873.2625388491
 30
0.0
 11
758.968618446
 21
1873.2625388491
 31
0.0
  0
LINE
  8
52276002
  6
CONTINUOUS
 62
         7
  5
1BE
 10
301.968618446
 20
1416.2625388491
 30
0.0
 11
301.968618446
 21
1399.2625388491
 31
0.0
  0
ARC
  8
52276002
  6
CONTINUOUS
 62
         7
  5
1BF
 10
316.8961346065
 20
1407.4289046686
 30
0.0
 40
9.5782962275
 50
1.9961481256
 51
32.5641736544
  0
LINE
  8
52276002
  6
CONTINUOUS
 62
         7
  5
1C0
 10
324.968618446
 20
1402.9407134686
 30
0.0
 11
324.968618446
 21
1399.2625388491
 31
0.0
  0
CIRCLE
  8
52276002
  6
CONTINUOUS
 62
         7
  5
1C1
 10
767.468618446
 20
1407.7625388491
 30
0.0
 40
274.0
  0
CIRCLE
  8
52276002
  6
CONTINUOUS
 62
         7
  5
1C2
 10
767.468618446
 20
1407.7625388491
 30
0.0
 40
402.5
  0
CIRCLE
  8
52276002
  6
CONTINUOUS
 62
         7
  5
1C3
 10
767.468618446
 20
1407.7625388491
 30
0.0
 40
346.5
  0
LINE
  8
52276002
  6
CONTINUOUS
 62
         7
  5
1C4
 10
326.468618446
 20
1414.7625388491
 30
0.0
 11
326.468618446
 21
1407.7625388491
 31
0.0
  0
LINE
  8
52276002
  6
CONTINUOUS
 62
         7
  5
1C5
 10
326.468618446
 20
1400.7625388491
 30
0.0
 11
326.468618446
 21
1407.7625388491
 31
0.0
  0
LINE
  8
52276002
  6
CONTINUOUS
 62
         7
  5
1C6
 10
324.968618446
 20
1412.5843642296
 30
0.0
 11
316.468618446
 21
1412.5843642296
 31
0.0
  0
LINE
  8
52276002
  6
CONTINUOUS
 62
         7
  5
1C7
 10
324.968618446
 20
1416.2625388491
 30
0.0
 11
324.968618446
 21
1412.5843642296
 31
0.0
  0
LINE
  8
52276002
  6
CONTINUOUS
 62
         7
  5
1C8
 10
316.468618446
 20
1402.9407134686
 30
0.0
 11
324.968618446
 21
1402.9407134686
 31
0.0
  0
LINE
  8
52276002
  6
CONTINUOUS
 62
         7
  5
1C9
 10
316.468618446
 20
1412.5843642296
 30
0.0
 11
316.468618446
 21
1402.9407134686
 31
0.0
  0
ARC
  8
52276002
  6
CONTINUOUS
 62
         7
  5
1CA
 10
316.7188481511
 20
1408.1513242767
 30
0.0
 40
9.7575188911
 50
327.723215948
 51
357.716462272
  0
POLYLINE
  8
52276002
  6
CONTINUOUS
 62
         7
  5
1CB
 66
         1
 10
0.0
 20
0.0
 30
0.0
  0
VERTEX
  8
52276002
  6
CONTINUOUS
 62
         7
  5
1CC
 10
316.468618446
 20
1412.5843642296
 30
0.0
  0
VERTEX
  8
52276002
  6
CONTINUOUS
 62
         7
  5
1CD
 10
316.2796452818
 20
1412.0707300854
 30
0.0
  0
VERTEX
  8
52276002
  6
CONTINUOUS
 62
         7
  5
1CE
 10
316.109292418
 20
1411.524115819
 30
0.0
  0
VERTEX
  8
52276002
  6
CONTINUOUS
 62
         7
  5
1CF
 10
315.960107172
 20
1410.9474259387
 30
0.0
  0
VERTEX
  8
52276002
  6
CONTINUOUS
 62
         7
  5
1D0
 10
315.8344423629
 20
1410.3443036198
 30
0.0
  0
VERTEX
  8
52276002
  6
CONTINUOUS
 62
         7
  5
1D1
 10
315.7343701548
 20
1409.7190826136
 30
0.0
  0
VERTEX
  8
52276002
  6
CONTINUOUS
 62
         7
  5
1D2
 10
315.6616007851
 20
1409.0767036823
 30
0.0
  0
VERTEX
  8
52276002
  6
CONTINUOUS
 62
         7
  5
1D3
 10
315.6174117959
 20
1408.422597482
 30
0.0
  0
VERTEX
  8
52276002
  6
CONTINUOUS
 62
         7
  5
1D4
 10
315.6025930422
 20
1407.7625388491
 30
0.0
  0
VERTEX
  8
52276002
  6
CONTINUOUS
 62
         7
  5
1D5
 10
315.6174117959
 20
1407.1024802162
 30
0.0
  0
VERTEX
  8
52276002
  6
CONTINUOUS
 62
         7
  5
1D6
 10
315.6616007851
 20
1406.4483740159
 30
0.0
  0
VERTEX
  8
52276002
  6
CONTINUOUS
 62
         7
  5
1D7
 10
315.7343701548
 20
1405.8059950846
 30
0.0
  0
VERTEX
  8
52276002
  6
CONTINUOUS
 62
         7
  5
1D8
 10
315.8344423629
 20
1405.1807740784
 30
0.0
  0
VERTEX
  8
52276002
  6
CONTINUOUS
 62
         7
  5
1D9
 10
315.960107172
 20
1404.5776517595
 30
0.0
  0
VERTEX
  8
52276002
  6
CONTINUOUS
 62
         7
  5
1DA
 10
316.109292418
 20
1404.0009618792
 30
0.0
  0
VERTEX
  8
52276002
  6
CONTINUOUS
 62
         7
  5
1DB
 10
316.2796452818
 20
1403.4543476128
 30
0.0
  0
VERTEX
  8
52276002
  6
CONTINUOUS
 62
         7
  5
1DC
 10
316.468618446
 20
1402.9407134686
 30
0.0
  0
SEQEND
  8
52276002
  6
CONTINUOUS
 62
         7
  5
1DD
  0
POLYLINE
  8
52276002
  6
CONTINUOUS
 62
         7
  5
1DE
 66
         1
 10
0.0
 20
0.0
 30
0.0
  0
VERTEX
  8
52276002
  6
CONTINUOUS
 62
         7
  5
1DF
 10
772.2904438265
 20
1858.7625388491
 30
0.0
  0
VERTEX
  8
52276002
  6
CONTINUOUS
 62
         7
  5
1E0
 10
771.7768096822
 20
1858.9515120132
 30
0.0
  0
VERTEX
  8
52276002
  6
CONTINUOUS
 62
         7
  5
1E1
 10
771.2301954158
 20
1859.1218648771
 30
0.0
  0
VERTEX
  8
52276002
  6
CONTINUOUS
 62
         7
  5
1E2
 10
770.6535055356
 20
1859.2710501231
 30
0.0
  0
VERTEX
  8
52276002
  6
CONTINUOUS
 62
         7
  5
1E3
 10
770.0503832166
 20
1859.3967149322
 30
0.0
  0
VERTEX
  8
52276002
  6
CONTINUOUS
 62
         7
  5
1E4
 10
769.4251622105
 20
1859.4967871402
 30
0.0
  0
VERTEX
  8
52276002
  6
CONTINUOUS
 62
         7
  5
1E5
 10
768.7827832791
 20
1859.5695565099
 30
0.0
  0
VERTEX
  8
52276002
  6
CONTINUOUS
 62
         7
  5
1E6
 10
768.1286770788
 20
1859.6137454991
 30
0.0
  0
VERTEX
  8
52276002
  6
CONTINUOUS
 62
         7
  5
1E7
 10
767.468618446
 20
1859.6285642529
 30
0.0
  0
VERTEX
  8
52276002
  6
CONTINUOUS
 62
         7
  5
1E8
 10
766.8085598131
 20
1859.6137454991
 30
0.0
  0
VERTEX
  8
52276002
  6
CONTINUOUS
 62
         7
  5
1E9
 10
766.1544536128
 20
1859.5695565099
 30
0.0
  0
VERTEX
  8
52276002
  6
CONTINUOUS
 62
         7
  5
1EA
 10
765.5120746814
 20
1859.4967871402
 30
0.0
  0
VERTEX
  8
52276002
  6
CONTINUOUS
 62
         7
  5
1EB
 10
764.8868536753
 20
1859.3967149322
 30
0.0
  0
VERTEX
  8
52276002
  6
CONTINUOUS
 62
         7
  5
1EC
 10
764.2837313564
 20
1859.2710501231
 30
0.0
  0
VERTEX
  8
52276002
  6
CONTINUOUS
 62
         7
  5
1ED
 10
763.7070414761
 20
1859.1218648771
 30
0.0
  0
VERTEX
  8
52276002
  6
CONTINUOUS
 62
         7
  5
1EE
 10
763.1604272097
 20
1858.9515120132
 30
0.0
  0
VERTEX
  8
52276002
  6
CONTINUOUS
 62
         7
  5
1EF
 10
762.6467930655
 20
1858.7625388491
 30
0.0
  0
SEQEND
  8
52276002
  6
CONTINUOUS
 62
         7
  5
1F0
  0
ARC
  8
52276002
  6
CONTINUOUS
 62
         7
  5
1F1
 10
767.8574038735
 20
1858.5123091439
 30
0.0
 40
9.7575188911
 50
237.723215948
 51
267.716462272
  0
ARC
  8
52276002
  6
CONTINUOUS
 62
         7
  5
1F2
 10
767.1349842655
 20
1858.3350226885
 30
0.0
 40
9.5782962275
 50
271.9961481256
 51
302.5641736544
  0
LINE
  8
52276002
  6
CONTINUOUS
 62
         7
  5
1F3
 10
767.468618446
 20
1848.7625388491
 30
0.0
 11
760.468618446
 21
1848.7625388491
 31
0.0
  0
LINE
  8
52276002
  6
CONTINUOUS
 62
         7
  5
1F4
 10
775.968618446
 20
1850.2625388491
 30
0.0
 11
772.2904438265
 21
1850.2625388491
 31
0.0
  0
LINE
  8
52276002
  6
CONTINUOUS
 62
         7
  5
1F5
 10
774.3172311556
 20
1889.2625388491
 30
0.0
 11
771.0123105817
 21
1889.2625388491
 31
0.0
  0
LINE
  8
52276002
  6
CONTINUOUS
 62
         7
  5
1F6
 10
770.7735390199
 20
1889.2625388491
 30
0.0
 11
764.163697872
 21
1889.2625388491
 31
0.0
  0
LINE
  8
52276002
  6
CONTINUOUS
 62
         7
  5
1F7
 10
774.3172311556
 20
1889.2625388491
 30
0.0
 11
774.3172311556
 21
1894.2625388491
 31
0.0
  0
LINE
  8
52276002
  6
CONTINUOUS
 62
         7
  5
1F8
 10
771.0123105817
 20
1894.2625388491
 30
0.0
 11
771.0123105817
 21
1889.2625388491
 31
0.0
  0
LINE
  8
52276002
  6
CONTINUOUS
 62
         7
  5
1F9
 10
770.7735390199
 20
1889.2625388491
 30
0.0
 11
770.7735390199
 21
1894.2625388491
 31
0.0
  0
LINE
  8
52276002
  6
CONTINUOUS
 62
         7
  5
1FA
 10
763.9249263102
 20
1889.2625388491
 30
0.0
 11
763.9249263102
 21
1894.2625388491
 31
0.0
  0
LINE
  8
52276002
  6
CONTINUOUS
 62
         7
  5
1FB
 10
760.6200057363
 20
1894.2625388491
 30
0.0
 11
760.6200057363
 21
1889.2625388491
 31
0.0
  0
LINE
  8
52276002
  6
CONTINUOUS
 62
         7
  5
1FC
 10
760.568618446
 20
1906.2625388491
 30
0.0
 11
774.368618446
 21
1906.2625388491
 31
0.0
  0
LINE
  8
52276002
  6
CONTINUOUS
 62
         7
  5
1FD
 10
760.718618446
 20
1898.2625388491
 30
0.0
 11
774.218618446
 21
1898.2625388491
 31
0.0
  0
LINE
  8
52276002
  6
CONTINUOUS
 62
         7
  5
1FE
 10
760.718618446
 20
1897.2625388491
 30
0.0
 11
774.218618446
 21
1897.2625388491
 31
0.0
  0
LINE
  8
52276002
  6
CONTINUOUS
 62
         7
  5
1FF
 10
760.568618446
 20
1900.6625388491
 30
0.0
 11
774.368618446
 21
1900.6625388491
 31
0.0
  0
LINE
  8
52276002
  6
CONTINUOUS
 62
         7
  5
200
 10
761.468618446
 20
1899.7625388491
 30
0.0
 11
773.468618446
 21
1899.7625388491
 31
0.0
  0
LINE
  8
52276002
  6
CONTINUOUS
 62
         7
  5
201
 10
285.968618446
 20
1414.6111515588
 30
0.0
 11
285.968618446
 21
1411.3062309848
 31
0.0
  0
LINE
  8
52276002
  6
CONTINUOUS
 62
         7
  5
202
 10
285.968618446
 20
1411.067459423
 30
0.0
 11
285.968618446
 21
1404.4576182752
 31
0.0
  0
LINE
  8
52276002
  6
CONTINUOUS
 62
         7
  5
203
 10
280.968618446
 20
1404.4576182752
 30
0.0
 11
280.968618446
 21
1404.2188467134
 31
0.0
  0
LINE
  8
52276002
  6
CONTINUOUS
 62
         7
  5
204
 10
280.968618446
 20
1400.9125388491
 30
0.0
 11
280.968618446
 21
1400.9139261394
 31
0.0
  0
LINE
  8
52276002
  6
CONTINUOUS
 62
         7
  5
205
 10
280.968618446
 20
1411.3062309848
 30
0.0
 11
280.968618446
 21
1411.067459423
 31
0.0
  0
LINE
  8
52276002
  6
CONTINUOUS
 62
         7
  5
206
 10
774.468618446
 20
1810.2032072565
 30
0.0
 11
774.468618446
 21
1848.7625388491
 31
0.0
  0
LINE
  8
52276002
  6
CONTINUOUS
 62
         7
  5
207
 10
775.968618446
 20
1850.2625388491
 30
0.0
 11
775.968618446
 21
1873.2625388491
 31
0.0
  0
LINE
  8
52276002
  6
CONTINUOUS
 62
         7
  5
208
 10
758.968618446
 20
1850.2625388491
 30
0.0
 11
760.468618446
 21
1848.7625388491
 31
0.0
  0
LINE
  8
52276002
  6
CONTINUOUS
 62
         7
  5
209
 10
774.468618446
 20
1848.7625388491
 30
0.0
 11
775.968618446
 21
1850.2625388491
 31
0.0
  0
LINE
  8
52276002
  6
CONTINUOUS
 62
         7
  5
20A
 10
326.468618446
 20
1414.7625388491
 30
0.0
 11
324.968618446
 21
1416.2625388491
 31
0.0
  0
LINE
  8
52276002
  6
CONTINUOUS
 62
         7
  5
20B
 10
365.0279500386
 20
1414.7625388491
 30
0.0
 11
326.468618446
 21
1414.7625388491
 31
0.0
  0
LINE
  8
52276002
  6
CONTINUOUS
 62
         7
  5
20C
 10
280.968618446
 20
1411.7625388491
 30
0.0
 11
277.968618446
 21
1411.7625388491
 31
0.0
  0
LINE
  8
52276002
  6
CONTINUOUS
 62
         7
  5
20D
 10
277.968618446
 20
1414.5125388491
 30
0.0
 11
276.968618446
 21
1414.5125388491
 31
0.0
  0
LINE
  8
52276002
  6
CONTINUOUS
 62
         7
  5
20E
 10
301.968618446
 20
1414.6125388491
 30
0.0
 11
280.968618446
 21
1414.6125388491
 31
0.0
  0
LINE
  8
52276002
  6
CONTINUOUS
 62
         7
  5
20F
 10
276.968618446
 20
1413.7625388491
 30
0.0
 11
275.468618446
 21
1413.7625388491
 31
0.0
  0
LINE
  8
52276002
  6
CONTINUOUS
 62
         7
  5
210
 10
274.568618446
 20
1400.8625388491
 30
0.0
 11
275.468618446
 21
1401.7625388491
 31
0.0
  0
LINE
  8
52276002
  6
CONTINUOUS
 62
         7
  5
211
 10
274.568618446
 20
1414.6625388491
 30
0.0
 11
268.968618446
 21
1414.6625388491
 31
0.0
  0
LINE
  8
52276002
  6
CONTINUOUS
 62
         7
  5
212
 10
771.468618446
 20
1894.2625388491
 30
0.0
 11
771.468618446
 21
1897.2625388491
 31
0.0
  0
LINE
  8
52276002
  6
CONTINUOUS
 62
         7
  5
213
 10
774.218618446
 20
1897.2625388491
 30
0.0
 11
774.218618446
 21
1898.2625388491
 31
0.0
  0
LINE
  8
52276002
  6
CONTINUOUS
 62
         7
  5
214
 10
774.318618446
 20
1873.2625388491
 30
0.0
 11
774.318618446
 21
1894.2625388491
 31
0.0
  0
LINE
  8
52276002
  6
CONTINUOUS
 62
         7
  5
215
 10
773.468618446
 20
1898.2625388491
 30
0.0
 11
773.468618446
 21
1899.7625388491
 31
0.0
  0
LINE
  8
52276002
  6
CONTINUOUS
 62
         7
  5
216
 10
774.368618446
 20
1900.6625388491
 30
0.0
 11
774.368618446
 21
1906.2625388491
 31
0.0
  0
LINE
  8
52276002
  6
CONTINUOUS
 62
         7
  5
217
 10
760.568618446
 20
1900.6625388491
 30
0.0
 11
761.468618446
 21
1899.7625388491
 31
0.0
  0
LINE
  8
52276002
  6
CONTINUOUS
 62
         7
  5
218
 10
324.968618446
 20
1399.2625388491
 30
0.0
 11
326.468618446
 21
1400.7625388491
 31
0.0
  0
LINE
  8
52276002
  6
CONTINUOUS
 62
         7
  5
219
 10
324.968618446
 20
1416.2625388491
 30
0.0
 11
301.968618446
 21
1416.2625388491
 31
0.0
  0
ENDBLK
  8
52276002
  6
CONTINUOUS
 62
         7
  5
21A
  0
ENDSEC
  0
SECTION
  2
ENTITIES
  0
INSERT
  8
0
 62
         0
 48
0.0
  5
47
  2
SE1
 10
0.0
 20
0.0
 30
0.0
  0
INSERT
  8
0
 62
         0
 48
0.0
  5
4B
  2
SE0
 10
0.0
 20
0.0
 30
0.0
  0
INSERT
  8
0
 62
         0
 48
0.0
  5
4E
  2
SE3
 10
0.0
 20
0.0
 30
0.0
  0
INSERT
  8
0
 62
         0
 48
0.0
  5
52
  2
SE2
 10
0.0
 20
0.0
 30
0.0
  0
INSERT
  8
0
 62
         0
 48
0.0
  5
55
  2
SE5
 10
0.0
 20
0.0
 30
0.0
  0
INSERT
  8
0
 62
         0
 48
0.0
  5
59
  2
SE4
 10
0.0
 20
0.0
 30
0.0
  0
INSERT
  8
0
 62
         0
 48
0.0
  5
5C
  2
SE7
 10
0.0
 20
0.0
 30
0.0
  0
INSERT
  8
0
 62
         0
 48
0.0
  5
60
  2
SE6
 10
0.0
 20
0.0
 30
0.0
  0
ENDSEC
  0
EOF
