  0
SECTION
  2
HEADER
  9
$ACADVER
  1
AC1009
  9
$DWGCODEPAGE
  3
ansi_1252
  9
$INSBASE
 10
0.0
 20
0.0
 30
0.0
  9
$EXTMIN
 10
0.0
 20
0.0
 30
0.0
  9
$EXTMAX
 10
841.0
 20
594.0
 30
0.0
  9
$LIMMIN
 10
0.0
 20
0.0
  9
$LIMMAX
 10
841.0
 20
594.0
  9
$ORTHOMODE
 70
         0
  9
$REGENMODE
 70
         1
  9
$FILLMODE
 70
         1
  9
$QTEXTMODE
 70
         0
  9
$MIRRTEXT
 70
         1
  9
$DRAGMODE
 70
         2
  9
$LTSCALE
 40
25.4
  9
$OSMODE
 70
         0
  9
$ATTMODE
 70
         1
  9
$TEXTSIZE
 40
0.2
  9
$TRACEWID
 40
0.05
  9
$TEXTSTYLE
  7
Standard
  9
$CLAYER
  8
0
  9
$CELTYPE
  6
CONTINUOUS
  9
$CECOLOR
 62
       256
  9
$DIMSCALE
 40
1.0
  9
$DIMASZ
 40
0.18
  9
$DIMEXO
 40
0.0625
  9
$DIMDLI
 40
0.38
  9
$DIMRND
 40
0.0
  9
$DIMDLE
 40
0.0
  9
$DIMEXE
 40
0.18
  9
$DIMTP
 40
0.0
  9
$DIMTM
 40
0.0
  9
$DIMTXT
 40
0.18
  9
$DIMCEN
 40
0.09
  9
$DIMTSZ
 40
0.0
  9
$DIMTOL
 70
         0
  9
$DIMLIM
 70
         0
  9
$DIMTIH
 70
         1
  9
$DIMTOH
 70
         1
  9
$DIMSE1
 70
         0
  9
$DIMSE2
 70
         0
  9
$DIMTAD
 70
         0
  9
$DIMZIN
 70
         0
  9
$DIMBLK
  1

  9
$DIMASO
 70
         1
  9
$DIMSHO
 70
         1
  9
$DIMPOST
  1

  9
$DIMAPOST
  1

  9
$DIMALT
 70
         0
  9
$DIMALTD
 70
         2
  9
$DIMALTF
 40
25.4
  9
$DIMLFAC
 40
1.0
  9
$DIMTOFL
 70
         0
  9
$DIMTVP
 40
0.0
  9
$DIMTIX
 70
         0
  9
$DIMSOXD
 70
         0
  9
$DIMSAH
 70
         0
  9
$DIMBLK1
  1

  9
$DIMBLK2
  1

  9
$DIMSTYLE
  2
Standard
  9
$DIMCLRD
 70
         0
  9
$DIMCLRE
 70
         0
  9
$DIMCLRT
 70
         0
  9
$DIMTFAC
 40
1.0
  9
$DIMGAP
 40
0.09
  9
$LUNITS
 70
         2
  9
$LUPREC
 70
         4
  9
$AXISMODE
 70
         0
  9
$AXISUNIT
 10
0.0
 20
0.0
  9
$SKETCHINC
 40
0.1
  9
$FILLETRAD
 40
0.0
  9
$AUNITS
 70
         0
  9
$AUPREC
 70
         0
  9
$MENU
  1
acad
  9
$ELEVATION
 40
0.0
  9
$PELEVATION
 40
0.0
  9
$THICKNESS
 40
0.0
  9
$LIMCHECK
 70
         0
  9
$BLIPMODE
 70
         1
  9
$CHAMFERA
 40
0.0
  9
$CHAMFERB
 40
0.0
  9
$SKPOLY
 70
         0
  9
$TDCREATE
 40
0.000000000
  9
$TDUPDATE
 40
0.000000000
  9
$TDINDWG
 40
0.0000000000
  9
$TDUSRTIMER
 40
0.0000000000
  9
$USRTIMER
 70
         1
  9
$ANGBASE
 50
0.0
  9
$ANGDIR
 70
         0
  9
$PDMODE
 70
         0
  9
$PDSIZE
 40
0.0
  9
$PLINEWID
 40
0.0
  9
$COORDS
 70
         0
  9
$SPLFRAME
 70
         0
  9
$SPLINETYPE
 70
         6
  9
$SPLINESEGS
 70
         8
  9
$ATTDIA
 70
         0
  9
$ATTREQ
 70
         1
  9
$HANDLING
 70
         1
  9
$HANDSEED
  5
222
  9
$SURFTAB1
 70
         6
  9
$SURFTAB2
 70
         6
  9
$SURFTYPE
 70
         6
  9
$SURFU
 70
         6
  9
$SURFV
 70
         6
  9
$UCSNAME
  2

  9
$UCSORG
 10
0.0
 20
0.0
 30
0.0
  9
$UCSXDIR
 10
1.0
 20
0.0
 30
0.0
  9
$UCSYDIR
 10
0.0
 20
1.0
 30
0.0
  9
$PUCSNAME
  2

  9
$PUCSORG
 10
0.0
 20
0.0
 30
0.0
  9
$PUCSXDIR
 10
1.0
 20
0.0
 30
0.0
  9
$PUCSYDIR
 10
0.0
 20
1.0
 30
0.0
  9
$USERI1
 70
         0
  9
$USERI2
 70
         0
  9
$USERI3
 70
         0
  9
$USERI4
 70
         0
  9
$USERI5
 70
         0
  9
$USERR1
 40
0.0
  9
$USERR2
 40
0.0
  9
$USERR3
 40
0.0
  9
$USERR4
 40
0.0
  9
$USERR5
 40
0.0
  9
$WORLDVIEW
 70
         1
  9
$SHADEDGE
 70
         3
  9
$SHADEDIF
 70
        70
  9
$TILEMODE
 70
         1
  9
$MAXACTVP
 70
        16
  9
$PINSBASE
 10
0.0
 20
0.0
 30
0.0
  9
$PLIMCHECK
 70
         0
  9
$PEXTMIN
 10
1.0000000000E+20
 20
1.0000000000E+20
 30
1.0000000000E+20
  9
$PEXTMAX
 10
-1.0000000000E+20
 20
-1.0000000000E+20
 30
-1.0000000000E+20
  9
$PLIMMIN
 10
0.0
 20
0.0
  9
$PLIMMAX
 10
12.0
 20
9.0
  9
$UNITMODE
 70
         0
  9
$VISRETAIN
 70
         0
  9
$PLINEGEN
 70
         1
  9
$PSLTSCALE
 70
         0
  9
$TREEDEPTH
 70
      3020
  9
$DWGCODEPAGE
  3
ansi_1252
  0
ENDSEC
  0
SECTION
  2
TABLES
  0
TABLE
  2
VPORT
 70
         1
  0
VPORT
  2
*ACTIVE
 70
         0
 10
0.0
 20
0.0
 11
1.0
 21
1.0
 12
420.5
 22
297.0
 13
0.0
 23
0.0
 14
1.0
 24
1.0
 15
0.0
 25
0.0
 16
0.0
 26
0.0
 36
1.0
 17
0.0
 27
0.0
 37
0.0
 40
594.0
 41
1.604229
 42
50.0
 43
0.0
 44
0.0
 50
0.0
 51
0.0
 71
         0
 72
       100
 73
         1
 74
         1
 75
         0
 76
         0
 77
         0
 78
         0
  0
ENDTAB
  0
TABLE
  2
LTYPE
 70
         5
  0
LTYPE
  2
CONTINUOUS
 70
         0
  3
Solid line
 72
        65
 73
         0
 40
0.0
  0
LTYPE
  2
HIDDEN2
 70
        64
  3
_ _ _ _ _ _ _ _ _ _ _ _ _ _ _ _ _ _ _ _ _ _ _ _
 72
        65
 73
         2
 40
0.1875
 49
0.125
 49
-0.0625
  0
LTYPE
  2
CENTER2
 70
        64
  3
___ _ ___ _ ___ _ ___ _ ___ _ ___ _ ___ _ ___ _
 72
        65
 73
         4
 40
1.125
 49
0.75
 49
-0.125
 49
0.125
 49
-0.125
  0
LTYPE
  2
PHANTOM2
 70
        64
  3
___ _ _ ___ _ _ ___ _ _ ___ _ _ ___ _ _ ___ _ _
 72
        65
 73
         6
 40
1.25
 49
0.625
 49
-0.125
 49
0.125
 49
-0.125
 49
0.125
 49
-0.125
  0
LTYPE
  2
DOT2
 70
        64
  3
...............................................
 72
        65
 73
         2
 40
0.125
 49
0.0
 49
-0.125
  0
ENDTAB
  0
TABLE
  2
LAYER
 70
         5
  0
LAYER
  2
0
 70
         0
 62
         7
  6
CONTINUOUS
  0
LAYER
  2
DEFAULT
 70
         0
 62
         7
  6
CONTINUOUS
  0
LAYER
  2
04
 70
         0
 62
         7
  6
CONTINUOUS
  0
LAYER
  2
20
 70
         0
 62
         7
  6
CONTINUOUS
  0
LAYER
  2
52176996
 70
         0
 62
         7
  6
CONTINUOUS
  0
ENDTAB
  0
TABLE
  2
STYLE
 70
         1
  0
STYLE
  2
Standard
 70
         0
 40
0.0
 41
1.0
 50
0.0
 71
         0
 42
0.2
  3
txt
  4

  0
ENDTAB
  0
TABLE
  2
VIEW
 70
         0
  0
ENDTAB
  0
TABLE
  2
UCS
 70
         0
  0
ENDTAB
  0
TABLE
  2
APPID
 70
         1
  0
APPID
  2
ACAD
 70
         0
  0
ENDTAB
  0
TABLE
  2
DIMSTYLE
 70
         1
  0
DIMSTYLE
  2
Standard
 70
         0
  3

  4

  5

  6

  7

 40
1.0
 41
0.18
 42
0.0625
 43
0.38
 44
0.18
 45
0.0
 46
0.0
 47
0.0
 48
0.0
 71
         0
 72
         0
 73
         1
 74
         1
 75
         0
 76
         0
 77
         0
 78
         0
140
0.18
141
0.09
142
0.0
143
25.4
144
1.0
145
0.0
146
1.0
147
0.09
170
         0
171
         2
172
         0
173
         0
174
         0
175
         0
176
         0
177
         0
178
         0
  0
ENDTAB
  0
ENDSEC
  0
SECTION
  2
BLOCKS
  0
BLOCK
  8
0
 62
         1
 48
0.0
  5
FD
  2
SE0
 70
         0
 10
0.0
 20
0.0
 30
0.0
  3
SE0
  0
ENDBLK
  8
0
 62
         1
 48
0.0
  5
FE
  0
BLOCK
  8
0
 62
         1
 48
0.0
  5
61
  2
SE1
 70
         0
 10
0.0
 20
0.0
 30
0.0
  3
SE1
  0
LINE
  8
52176996
  6
CONTINUOUS
 62
         7
  5
62
 10
8.4004127374
 20
454.5462992155
 30
0.0
 11
5.4004127374
 21
454.5462992155
 31
0.0
  0
LINE
  8
52176996
  6
CONTINUOUS
 62
         7
  5
63
 10
8.4004127374
 20
493.0462992155
 30
0.0
 11
8.4004127374
 21
454.5462992155
 31
0.0
  0
LINE
  8
52176996
  6
CONTINUOUS
 62
         7
  5
64
 10
11.4004127374
 20
541.5462992155
 30
0.0
 11
11.4004127374
 21
538.5462992155
 31
0.0
  0
LINE
  8
52176996
  6
CONTINUOUS
 62
         7
  5
65
 10
9.4004127374
 20
544.0462992155
 30
0.0
 11
9.4004127374
 21
542.5462992155
 31
0.0
  0
LINE
  8
52176996
  6
CONTINUOUS
 62
         7
  5
66
 10
8.6504127374
 20
542.5462992155
 30
0.0
 11
8.6504127374
 21
541.5462992155
 31
0.0
  0
LINE
  8
52176996
  6
CONTINUOUS
 62
         7
  5
67
 10
8.5504127374
 20
533.5462992155
 30
0.0
 11
8.5504127374
 21
517.5462992155
 31
0.0
  0
LINE
  8
52176996
  6
CONTINUOUS
 62
         7
  5
68
 10
21.4004127374
 20
544.0462992155
 30
0.0
 11
22.3004127374
 21
544.9462992155
 31
0.0
  0
LINE
  8
52176996
  6
CONTINUOUS
 62
         7
  5
69
 10
8.5004127374
 20
550.5462992155
 30
0.0
 11
8.5004127374
 21
544.9462992155
 31
0.0
  0
LINE
  8
52176996
  6
CONTINUOUS
 62
         7
  5
6A
 10
6.9004127374
 20
517.5462992155
 30
0.0
 11
6.9004127374
 21
503.9123246193
 31
0.0
  0
LINE
  8
52176996
  6
CONTINUOUS
 62
         7
  5
6B
 10
9.4004127374
 20
533.5462992155
 30
0.0
 11
9.4004127374
 21
538.5462992155
 31
0.0
  0
LINE
  8
52176996
  6
CONTINUOUS
 62
         7
  5
6C
 10
21.4004127374
 20
538.5462992155
 30
0.0
 11
21.4004127374
 21
533.5462992155
 31
0.0
  0
LINE
  8
52176996
  6
CONTINUOUS
 62
         7
  5
6D
 10
21.2625579119
 20
533.5462992155
 30
0.0
 11
21.2625579119
 21
538.5462992155
 31
0.0
  0
LINE
  8
52176996
  6
CONTINUOUS
 62
         7
  5
6E
 10
15.5382675629
 20
538.5462992155
 30
0.0
 11
15.5382675629
 21
533.5462992155
 31
0.0
  0
LINE
  8
52176996
  6
CONTINUOUS
 62
         7
  5
6F
 10
15.2625579119
 20
533.5462992155
 30
0.0
 11
15.2625579119
 21
538.5462992155
 31
0.0
  0
LINE
  8
52176996
  6
CONTINUOUS
 62
         7
  5
70
 10
9.5382675629
 20
538.5462992155
 30
0.0
 11
9.5382675629
 21
533.5462992155
 31
0.0
  0
LINE
  8
52176996
  6
CONTINUOUS
 62
         7
  5
71
 10
22.1504127374
 20
542.5462992155
 30
0.0
 11
8.6504127374
 21
542.5462992155
 31
0.0
  0
LINE
  8
52176996
  6
CONTINUOUS
 62
         7
  5
72
 10
22.1504127374
 20
541.5462992155
 30
0.0
 11
8.6504127374
 21
541.5462992155
 31
0.0
  0
LINE
  8
52176996
  6
CONTINUOUS
 62
         7
  5
73
 10
21.4004127374
 20
544.0462992155
 30
0.0
 11
9.4004127374
 21
544.0462992155
 31
0.0
  0
LINE
  8
52176996
  6
CONTINUOUS
 62
         7
  5
74
 10
22.3004127374
 20
550.5462992155
 30
0.0
 11
8.5004127374
 21
550.5462992155
 31
0.0
  0
LINE
  8
52176996
  6
CONTINUOUS
 62
         7
  5
75
 10
22.3004127374
 20
544.9462992155
 30
0.0
 11
8.5004127374
 21
544.9462992155
 31
0.0
  0
LINE
  8
52176996
  6
CONTINUOUS
 62
         7
  5
76
 10
21.2625579119
 20
538.5462992155
 30
0.0
 11
15.5382675629
 21
538.5462992155
 31
0.0
  0
LINE
  8
52176996
  6
CONTINUOUS
 62
         7
  5
77
 10
15.2625579119
 20
538.5462992155
 30
0.0
 11
9.5382675629
 21
538.5462992155
 31
0.0
  0
LINE
  8
52176996
  6
CONTINUOUS
 62
         7
  5
78
 10
15.5382675629
 20
538.5462992155
 30
0.0
 11
15.2625579119
 21
538.5462992155
 31
0.0
  0
LINE
  8
52176996
  6
CONTINUOUS
 62
         7
  5
79
 10
19.4004127374
 20
392.2109422692
 30
0.0
 11
19.4004127374
 21
395.9490071687
 31
0.0
  0
LINE
  8
52176996
  6
CONTINUOUS
 62
         7
  5
7A
 10
11.4004127374
 20
393.559925137
 30
0.0
 11
17.1939542938
 21
393.559925137
 31
0.0
  0
LINE
  8
52176996
  6
CONTINUOUS
 62
         7
  5
7B
 10
17.1939542938
 20
393.559925137
 30
0.0
 11
17.1939542938
 21
392.6668408254
 31
0.0
  0
POLYLINE
  8
52176996
  6
CONTINUOUS
 62
         7
  5
7C
 66
         1
 10
0.0
 20
0.0
 30
0.0
 70
         4
  0
VERTEX
  8
52176996
  6
CONTINUOUS
 62
         7
  5
7D
 10
19.4004127374
 20
395.9490071688
 30
0.0
 70
         8
  0
VERTEX
  8
52176996
  6
CONTINUOUS
 62
         7
  5
7E
 10
18.2971494459
 20
396.1685749811
 30
0.0
 70
         8
  0
VERTEX
  8
52176996
  6
CONTINUOUS
 62
         7
  5
7F
 10
17.1939542938
 20
396.3877943189
 30
0.0
 70
         8
  0
SEQEND
  8
52176996
  6
CONTINUOUS
 62
         7
  5
80
  0
LINE
  8
52176996
  6
CONTINUOUS
 62
         7
  5
81
 10
17.1939542938
 20
396.3877943188
 30
0.0
 11
17.1939542938
 21
395.1945095366
 31
0.0
  0
POLYLINE
  8
52176996
  6
CONTINUOUS
 62
         7
  5
82
 66
         1
 10
0.0
 20
0.0
 30
0.0
 70
         4
  0
VERTEX
  8
52176996
  6
CONTINUOUS
 62
         7
  5
83
 10
17.1939542938
 20
392.6668408254
 30
0.0
 70
         8
  0
VERTEX
  8
52176996
  6
CONTINUOUS
 62
         7
  5
84
 10
18.297168998
 20
392.4390660365
 30
0.0
 70
         8
  0
VERTEX
  8
52176996
  6
CONTINUOUS
 62
         7
  5
85
 10
19.4004127374
 20
392.2109422694
 30
0.0
 70
         8
  0
SEQEND
  8
52176996
  6
CONTINUOUS
 62
         7
  5
86
  0
LINE
  8
52176996
  6
CONTINUOUS
 62
         7
  5
87
 10
11.4004127374
 20
393.4184591639
 30
0.0
 11
11.4004127374
 21
393.559925137
 31
0.0
  0
LINE
  8
52176996
  6
CONTINUOUS
 62
         7
  5
88
 10
17.1939542938
 20
395.1945095367
 30
0.0
 11
11.4004127374
 21
395.1945095367
 31
0.0
  0
LINE
  8
52176996
  6
CONTINUOUS
 62
         7
  5
89
 10
19.4004127374
 20
392.0695020253
 30
0.0
 11
19.4004127374
 21
392.2109422692
 31
0.0
  0
LINE
  8
52176996
  6
CONTINUOUS
 62
         7
  5
8A
 10
17.1939542938
 20
392.5253931294
 30
0.0
 11
17.1939542938
 21
392.6668408254
 31
0.0
  0
LINE
  8
52176996
  6
CONTINUOUS
 62
         7
  5
8B
 10
11.4004127374
 20
395.1945095367
 30
0.0
 11
11.4004127374
 21
393.559925137
 31
0.0
  0
POLYLINE
  8
52176996
  6
CONTINUOUS
 62
         7
  5
8C
 66
         1
 10
0.0
 20
0.0
 30
0.0
  0
VERTEX
  8
52176996
  6
CONTINUOUS
 62
         7
  5
8D
 10
21.4004127374
 20
382.9177599389
 30
0.0
  0
VERTEX
  8
52176996
  6
CONTINUOUS
 62
         7
  5
8E
 10
19.6101806997
 20
381.5925950985
 30
0.0
  0
VERTEX
  8
52176996
  6
CONTINUOUS
 62
         7
  5
8F
 10
17.8206736376
 20
380.2577219061
 30
0.0
  0
SEQEND
  8
52176996
  6
CONTINUOUS
 62
         7
  5
90
  0
POLYLINE
  8
52176996
  6
CONTINUOUS
 62
         7
  5
91
 66
         1
 10
0.0
 20
0.0
 30
0.0
  0
VERTEX
  8
52176996
  6
CONTINUOUS
 62
         7
  5
92
 10
21.4004127374
 20
382.9177599388
 30
0.0
  0
VERTEX
  8
52176996
  6
CONTINUOUS
 62
         7
  5
93
 10
19.6107887518
 20
384.2322401283
 30
0.0
  0
VERTEX
  8
52176996
  6
CONTINUOUS
 62
         7
  5
94
 10
17.8206736376
 20
385.5368534443
 30
0.0
  0
SEQEND
  8
52176996
  6
CONTINUOUS
 62
         7
  5
95
  0
LINE
  8
52176996
  6
CONTINUOUS
 62
         7
  5
96
 10
17.8206736376
 20
385.5368534446
 30
0.0
 11
15.9999283053
 21
385.5368534446
 31
0.0
  0
LINE
  8
52176996
  6
CONTINUOUS
 62
         7
  5
97
 10
15.9999283053
 20
385.5368534446
 30
0.0
 11
15.9999283053
 21
383.7063380255
 31
0.0
  0
LINE
  8
52176996
  6
CONTINUOUS
 62
         7
  5
98
 10
15.9999283053
 20
383.7063380255
 30
0.0
 11
9.4004127374
 21
383.7063380255
 31
0.0
  0
LINE
  8
52176996
  6
CONTINUOUS
 62
         7
  5
99
 10
9.4004127374
 20
383.7063380255
 30
0.0
 11
9.4004127374
 21
382.126900039
 31
0.0
  0
LINE
  8
52176996
  6
CONTINUOUS
 62
         7
  5
9A
 10
21.4004127374
 20
382.7762132062
 30
0.0
 11
21.4004127374
 21
382.9177599392
 31
0.0
  0
LINE
  8
52176996
  6
CONTINUOUS
 62
         7
  5
9B
 10
15.9999283053
 20
380.1160603561
 30
0.0
 11
15.9999283053
 21
380.2577219063
 31
0.0
  0
LINE
  8
52176996
  6
CONTINUOUS
 62
         7
  5
9C
 10
17.8206736376
 20
380.1160603562
 30
0.0
 11
17.8206736376
 21
380.2577219063
 31
0.0
  0
LINE
  8
52176996
  6
CONTINUOUS
 62
         7
  5
9D
 10
15.9999283053
 20
382.126900039
 30
0.0
 11
15.9999283053
 21
380.2577219063
 31
0.0
  0
LINE
  8
52176996
  6
CONTINUOUS
 62
         7
  5
9E
 10
9.4004127374
 20
382.126900039
 30
0.0
 11
15.9999283053
 21
382.126900039
 31
0.0
  0
LINE
  8
52176996
  6
CONTINUOUS
 62
         7
  5
9F
 10
25.4004127374
 20
454.5462992155
 30
0.0
 11
22.3951859989
 21
454.5462992155
 31
0.0
  0
LINE
  8
52176996
  6
CONTINUOUS
 62
         7
  5
A0
 10
11.4004127374
 20
387.8190770021
 30
0.0
 11
11.4004127374
 21
389.6175864477
 31
0.0
  0
POLYLINE
  8
52176996
  6
CONTINUOUS
 62
         7
  5
A1
 66
         1
 10
0.0
 20
0.0
 30
0.0
  0
VERTEX
  8
52176996
  6
CONTINUOUS
 62
         7
  5
A2
 10
17.4184116786
 20
390.6297950774
 30
0.0
  0
VERTEX
  8
52176996
  6
CONTINUOUS
 62
         7
  5
A3
 10
15.4406284547
 20
390.9583186026
 30
0.0
  0
VERTEX
  8
52176996
  6
CONTINUOUS
 62
         7
  5
A4
 10
13.462879651
 20
391.2861394264
 30
0.0
  0
SEQEND
  8
52176996
  6
CONTINUOUS
 62
         7
  5
A5
  0
POLYLINE
  8
52176996
  6
CONTINUOUS
 62
         7
  5
A6
 66
         1
 10
0.0
 20
0.0
 30
0.0
  0
VERTEX
  8
52176996
  6
CONTINUOUS
 62
         7
  5
A7
 10
17.4184116786
 20
390.6297950748
 30
0.0
  0
VERTEX
  8
52176996
  6
CONTINUOUS
 62
         7
  5
A8
 10
14.4094264307
 20
390.1245130767
 30
0.0
  0
VERTEX
  8
52176996
  6
CONTINUOUS
 62
         7
  5
A9
 10
11.4004127374
 20
389.617586448
 30
0.0
  0
SEQEND
  8
52176996
  6
CONTINUOUS
 62
         7
  5
AA
  0
POLYLINE
  8
52176996
  6
CONTINUOUS
 62
         7
  5
AB
 66
         1
 10
0.0
 20
0.0
 30
0.0
  0
VERTEX
  8
52176996
  6
CONTINUOUS
 62
         7
  5
AC
 10
19.4004127374
 20
389.5097099933
 30
0.0
  0
VERTEX
  8
52176996
  6
CONTINUOUS
 62
         7
  5
AD
 10
15.4003449775
 20
388.6666247225
 30
0.0
  0
VERTEX
  8
52176996
  6
CONTINUOUS
 62
         7
  5
AE
 10
11.4004127376
 20
387.8190769985
 30
0.0
  0
SEQEND
  8
52176996
  6
CONTINUOUS
 62
         7
  5
AF
  0
LINE
  8
52176996
  6
CONTINUOUS
 62
         7
  5
B0
 10
9.4004127374
 20
381.985322881
 30
0.0
 11
9.4004127374
 21
382.126900039
 31
0.0
  0
LINE
  8
52176996
  6
CONTINUOUS
 62
         7
  5
B1
 10
15.9999283053
 20
380.2577219063
 30
0.0
 11
17.8206736376
 21
380.2577219063
 31
0.0
  0
LINE
  8
52176996
  6
CONTINUOUS
 62
         7
  5
B2
 10
11.4004127374
 20
390.6297950751
 30
0.0
 11
11.4004127374
 21
393.393424588
 31
0.0
  0
POLYLINE
  8
52176996
  6
CONTINUOUS
 62
         7
  5
B3
 66
         1
 10
0.0
 20
0.0
 30
0.0
 70
         4
  0
VERTEX
  8
52176996
  6
CONTINUOUS
 62
         7
  5
B4
 10
13.4628796511
 20
390.1916782264
 30
0.0
 70
         8
  0
VERTEX
  8
52176996
  6
CONTINUOUS
 62
         7
  5
B5
 10
12.4316427589
 20
390.4108915566
 30
0.0
 70
         8
  0
VERTEX
  8
52176996
  6
CONTINUOUS
 62
         7
  5
B6
 10
11.4004127374
 20
390.6297950752
 30
0.0
 70
         8
  0
SEQEND
  8
52176996
  6
CONTINUOUS
 62
         7
  5
B7
  0
LINE
  8
52176996
  6
CONTINUOUS
 62
         7
  5
B8
 10
13.4628796511
 20
391.2861394246
 30
0.0
 11
13.4628796511
 21
390.1916782265
 31
0.0
  0
POLYLINE
  8
52176996
  6
CONTINUOUS
 62
         7
  5
B9
 66
         1
 10
0.0
 20
0.0
 30
0.0
  0
VERTEX
  8
52176996
  6
CONTINUOUS
 62
         7
  5
BA
 10
19.4004127374
 20
391.7448079746
 30
0.0
  0
VERTEX
  8
52176996
  6
CONTINUOUS
 62
         7
  5
BB
 10
15.4002130419
 20
392.5714040199
 30
0.0
  0
VERTEX
  8
52176996
  6
CONTINUOUS
 62
         7
  5
BC
 10
11.4004127373
 20
393.3934245889
 30
0.0
  0
SEQEND
  8
52176996
  6
CONTINUOUS
 62
         7
  5
BD
  0
LINE
  8
52176996
  6
CONTINUOUS
 62
         7
  5
BE
 10
11.4004127374
 20
387.6776459846
 30
0.0
 11
11.4004127374
 21
387.8190770021
 31
0.0
  0
LINE
  8
52176996
  6
CONTINUOUS
 62
         7
  5
BF
 10
19.4004127374
 20
389.3682885713
 30
0.0
 11
19.4004127374
 21
389.5097099969
 31
0.0
  0
LINE
  8
52176996
  6
CONTINUOUS
 62
         7
  5
C0
 10
13.4628796511
 20
390.0502560735
 30
0.0
 11
13.4628796511
 21
390.1916782264
 31
0.0
  0
LINE
  8
52176996
  6
CONTINUOUS
 62
         7
  5
C1
 10
11.4004127374
 20
390.4883710361
 30
0.0
 11
11.4004127374
 21
390.6297950751
 31
0.0
  0
LINE
  8
52176996
  6
CONTINUOUS
 62
         7
  5
C2
 10
19.4004127374
 20
391.7448079738
 30
0.0
 11
19.4004127374
 21
389.5097099969
 31
0.0
  0
CIRCLE
  8
52176996
  6
CONTINUOUS
 62
         7
  5
C3
 10
15.4004127374
 20
232.5462992155
 30
0.0
 40
8.5
  0
POLYLINE
  8
52176996
  6
CONTINUOUS
 62
         7
  5
C4
 66
         1
 10
0.0
 20
0.0
 30
0.0
  0
VERTEX
  8
52176996
  6
CONTINUOUS
 62
         7
  5
C5
 10
19.4004127374
 20
389.3682885666
 30
0.0
  0
VERTEX
  8
52176996
  6
CONTINUOUS
 62
         7
  5
C6
 10
15.4003448554
 20
388.5252004972
 30
0.0
  0
VERTEX
  8
52176996
  6
CONTINUOUS
 62
         7
  5
C7
 10
11.4004127377
 20
387.6776459799
 30
0.0
  0
SEQEND
  8
52176996
  6
CONTINUOUS
 62
         7
  5
C8
  0
POLYLINE
  8
52176996
  6
CONTINUOUS
 62
         7
  5
C9
 66
         1
 10
0.0
 20
0.0
 30
0.0
  0
VERTEX
  8
52176996
  6
CONTINUOUS
 62
         7
  5
CA
 10
16.9949036063
 20
390.5587768953
 30
0.0
  0
VERTEX
  8
52176996
  6
CONTINUOUS
 62
         7
  5
CB
 10
15.228877507
 20
390.8520241319
 30
0.0
  0
VERTEX
  8
52176996
  6
CONTINUOUS
 62
         7
  5
CC
 10
13.4628796517
 20
391.1447104491
 30
0.0
  0
SEQEND
  8
52176996
  6
CONTINUOUS
 62
         7
  5
CD
  0
POLYLINE
  8
52176996
  6
CONTINUOUS
 62
         7
  5
CE
 66
         1
 10
0.0
 20
0.0
 30
0.0
 70
         4
  0
VERTEX
  8
52176996
  6
CONTINUOUS
 62
         7
  5
CF
 10
13.4628796511
 20
390.0502560736
 30
0.0
 70
         8
  0
VERTEX
  8
52176996
  6
CONTINUOUS
 62
         7
  5
D0
 10
12.4316427527
 20
390.2694686008
 30
0.0
 70
         8
  0
VERTEX
  8
52176996
  6
CONTINUOUS
 62
         7
  5
D1
 10
11.4004127374
 20
390.4883710361
 30
0.0
 70
         8
  0
SEQEND
  8
52176996
  6
CONTINUOUS
 62
         7
  5
D2
  0
LINE
  8
52176996
  6
CONTINUOUS
 62
         7
  5
D3
 10
9.4004127374
 20
381.985322881
 30
0.0
 11
15.9999283053
 21
381.985322881
 31
0.0
  0
POLYLINE
  8
52176996
  6
CONTINUOUS
 62
         7
  5
D4
 66
         1
 10
0.0
 20
0.0
 30
0.0
  0
VERTEX
  8
52176996
  6
CONTINUOUS
 62
         7
  5
D5
 10
21.4004127374
 20
382.7762132061
 30
0.0
  0
VERTEX
  8
52176996
  6
CONTINUOUS
 62
         7
  5
D6
 10
19.6101800446
 20
381.4509951095
 30
0.0
  0
VERTEX
  8
52176996
  6
CONTINUOUS
 62
         7
  5
D7
 10
17.8206736376
 20
380.1160603561
 30
0.0
  0
SEQEND
  8
52176996
  6
CONTINUOUS
 62
         7
  5
D8
  0
LINE
  8
52176996
  6
CONTINUOUS
 62
         7
  5
D9
 10
15.9999283053
 20
380.1160603561
 30
0.0
 11
17.8206736376
 21
380.1160603562
 31
0.0
  0
POLYLINE
  8
52176996
  6
CONTINUOUS
 62
         7
  5
DA
 66
         1
 10
0.0
 20
0.0
 30
0.0
 70
         4
  0
VERTEX
  8
52176996
  6
CONTINUOUS
 62
         7
  5
DB
 10
17.1939542938
 20
392.5253931295
 30
0.0
 70
         8
  0
VERTEX
  8
52176996
  6
CONTINUOUS
 62
         7
  5
DC
 10
18.2971689718
 20
392.2976222266
 30
0.0
 70
         8
  0
VERTEX
  8
52176996
  6
CONTINUOUS
 62
         7
  5
DD
 10
19.4004127374
 20
392.0695020254
 30
0.0
 70
         8
  0
SEQEND
  8
52176996
  6
CONTINUOUS
 62
         7
  5
DE
  0
LINE
  8
52176996
  6
CONTINUOUS
 62
         7
  5
DF
 10
11.4004127374
 20
393.4184591639
 30
0.0
 11
17.1939542938
 21
393.4184591639
 31
0.0
  0
LINE
  8
52176996
  6
CONTINUOUS
 62
         7
  5
E0
 10
23.9004127374
 20
517.5462992155
 30
0.0
 11
6.9004127374
 21
517.5462992155
 31
0.0
  0
ARC
  8
52176996
  6
CONTINUOUS
 62
         7
  5
E1
 10
15.4004127373
 20
676.4388799454
 30
0.0
 40
222.0029670589
 50
268.1931009763
 51
271.80689891
  0
LINE
  8
52176996
  6
CONTINUOUS
 62
         7
  5
E2
 10
8.4004127374
 20
493.0462992155
 30
0.0
 11
8.4004127374
 21
494.5462992155
 31
0.0
  0
LINE
  8
52176996
  6
CONTINUOUS
 62
         7
  5
E3
 10
22.4004127374
 20
494.5462992155
 30
0.0
 11
22.4004127374
 21
493.0462992155
 31
0.0
  0
LINE
  8
52176996
  6
CONTINUOUS
 62
         7
  5
E4
 10
25.4004127374
 20
10.5462992155
 30
0.0
 11
25.4004127374
 21
454.5462992155
 31
0.0
  0
LINE
  8
52176996
  6
CONTINUOUS
 62
         7
  5
E5
 10
5.4004127374
 20
10.5462992155
 30
0.0
 11
5.4004127374
 21
454.5462992155
 31
0.0
  0
LINE
  8
52176996
  6
CONTINUOUS
 62
         7
  5
E6
 10
22.4004127374
 20
493.0462992155
 30
0.0
 11
8.4004127374
 21
493.0462992155
 31
0.0
  0
LINE
  8
52176996
  6
CONTINUOUS
 62
         7
  5
E7
 10
22.4004127374
 20
494.5462992155
 30
0.0
 11
8.4004127374
 21
494.5462992155
 31
0.0
  0
LINE
  8
52176996
  6
CONTINUOUS
 62
         7
  5
E8
 10
8.4004127374
 20
494.5462992155
 30
0.0
 11
8.4004127374
 21
503.0462992155
 31
0.0
  0
LINE
  8
52176996
  6
CONTINUOUS
 62
         7
  5
E9
 10
22.4004127374
 20
503.0462992155
 30
0.0
 11
22.4004127374
 21
494.5462992155
 31
0.0
  0
LINE
  8
52176996
  6
CONTINUOUS
 62
         7
  5
EA
 10
23.9004127374
 20
503.9123246193
 30
0.0
 11
22.4004127374
 21
503.0462992155
 31
0.0
  0
LINE
  8
52176996
  6
CONTINUOUS
 62
         7
  5
EB
 10
8.4004127374
 20
503.0462992155
 30
0.0
 11
6.9004127374
 21
503.9123246193
 31
0.0
  0
CIRCLE
  8
52176996
  6
CONTINUOUS
 62
         7
  5
EC
 10
15.4004127374
 20
232.5462992155
 30
0.0
 40
6.9
  0
LINE
  8
52176996
  6
CONTINUOUS
 62
         7
  5
ED
 10
21.2625579119
 20
533.5462992155
 30
0.0
 11
15.5382675629
 21
533.5462992155
 31
0.0
  0
LINE
  8
52176996
  6
CONTINUOUS
 62
         7
  5
EE
 10
15.2625579119
 20
533.5462992155
 30
0.0
 11
9.5382675629
 21
533.5462992155
 31
0.0
  0
LINE
  8
52176996
  6
CONTINUOUS
 62
         7
  5
EF
 10
9.4004127374
 20
533.5462992155
 30
0.0
 11
8.5504127374
 21
533.5462992155
 31
0.0
  0
LINE
  8
52176996
  6
CONTINUOUS
 62
         7
  5
F0
 10
21.4004127374
 20
533.5462992155
 30
0.0
 11
22.2504127374
 21
533.5462992155
 31
0.0
  0
LINE
  8
52176996
  6
CONTINUOUS
 62
         7
  5
F1
 10
21.4004127374
 20
538.5462992155
 30
0.0
 11
21.2625579119
 21
538.5462992155
 31
0.0
  0
LINE
  8
52176996
  6
CONTINUOUS
 62
         7
  5
F2
 10
9.5382675629
 20
538.5462992155
 30
0.0
 11
9.4004127374
 21
538.5462992155
 31
0.0
  0
LINE
  8
52176996
  6
CONTINUOUS
 62
         7
  5
F3
 10
5.4004127374
 20
10.5462992155
 30
0.0
 11
25.4004127374
 21
10.5462992155
 31
0.0
  0
LINE
  8
52176996
  6
CONTINUOUS
 62
         7
  5
F4
 10
22.4004127374
 20
454.5461199891
 30
0.0
 11
22.4004127374
 21
493.0462992155
 31
0.0
  0
LINE
  8
52176996
  6
CONTINUOUS
 62
         7
  5
F5
 10
19.4004127374
 20
538.5462992155
 30
0.0
 11
19.4004127374
 21
541.5462992155
 31
0.0
  0
LINE
  8
52176996
  6
CONTINUOUS
 62
         7
  5
F6
 10
21.4004127374
 20
542.5462992155
 30
0.0
 11
21.4004127374
 21
544.0462992155
 31
0.0
  0
LINE
  8
52176996
  6
CONTINUOUS
 62
         7
  5
F7
 10
22.1504127374
 20
541.5462992155
 30
0.0
 11
22.1504127374
 21
542.5462992155
 31
0.0
  0
LINE
  8
52176996
  6
CONTINUOUS
 62
         7
  5
F8
 10
22.2504127374
 20
517.5462992155
 30
0.0
 11
22.2504127374
 21
533.5462992155
 31
0.0
  0
LINE
  8
52176996
  6
CONTINUOUS
 62
         7
  5
F9
 10
8.5004127374
 20
544.9462992155
 30
0.0
 11
9.4004127374
 21
544.0462992155
 31
0.0
  0
LINE
  8
52176996
  6
CONTINUOUS
 62
         7
  5
FA
 10
22.3004127374
 20
544.9462992155
 30
0.0
 11
22.3004127374
 21
550.5462992155
 31
0.0
  0
LINE
  8
52176996
  6
CONTINUOUS
 62
         7
  5
FB
 10
23.9004127374
 20
503.9123246193
 30
0.0
 11
23.9004127374
 21
517.5462992155
 31
0.0
  0
ENDBLK
  8
52176996
  6
CONTINUOUS
 62
         7
  5
FC
  0
BLOCK
  8
0
 62
         1
 48
0.0
  5
134
  2
SE2
 70
         0
 10
0.0
 20
0.0
 30
0.0
  3
SE2
  0
ENDBLK
  8
0
 62
         1
 48
0.0
  5
135
  0
BLOCK
  8
0
 62
         1
 48
0.0
  5
FF
  2
SE3
 70
         0
 10
0.0
 20
0.0
 30
0.0
  3
SE3
  0
LINE
  8
52176996
  6
CONTINUOUS
 62
         7
  5
100
 10
8.4004127374
 20
1121.9806468068
 30
0.0
 11
8.4004127374
 21
1083.4806468068
 31
0.0
  0
LINE
  8
52176996
  6
CONTINUOUS
 62
         7
  5
101
 10
6.9004127374
 20
1146.4806468068
 30
0.0
 11
6.9004127374
 21
1132.8466722106
 31
0.0
  0
LINE
  8
52176996
  6
CONTINUOUS
 62
         7
  5
102
 10
8.4004127374
 20
1083.4806468068
 30
0.0
 11
5.4004127374
 21
1083.4806468068
 31
0.0
  0
LINE
  8
52176996
  6
CONTINUOUS
 62
         7
  5
103
 10
11.4004127374
 20
1170.4806468068
 30
0.0
 11
11.4004127374
 21
1167.4806468068
 31
0.0
  0
LINE
  8
52176996
  6
CONTINUOUS
 62
         7
  5
104
 10
9.4004127374
 20
1172.9806468068
 30
0.0
 11
9.4004127374
 21
1171.4806468068
 31
0.0
  0
LINE
  8
52176996
  6
CONTINUOUS
 62
         7
  5
105
 10
8.6504127374
 20
1171.4806468068
 30
0.0
 11
8.6504127374
 21
1170.4806468068
 31
0.0
  0
LINE
  8
52176996
  6
CONTINUOUS
 62
         7
  5
106
 10
8.5504127374
 20
1162.4806468068
 30
0.0
 11
8.5504127374
 21
1146.4806468068
 31
0.0
  0
LINE
  8
52176996
  6
CONTINUOUS
 62
         7
  5
107
 10
8.5004127374
 20
1179.4806468068
 30
0.0
 11
8.5004127374
 21
1173.8806468068
 31
0.0
  0
LINE
  8
52176996
  6
CONTINUOUS
 62
         7
  5
108
 10
21.4004127374
 20
1172.9806468068
 30
0.0
 11
22.3004127374
 21
1173.8806468068
 31
0.0
  0
LINE
  8
52176996
  6
CONTINUOUS
 62
         7
  5
109
 10
9.5382675629
 20
1167.4806468068
 30
0.0
 11
9.4004127374
 21
1167.4806468068
 31
0.0
  0
LINE
  8
52176996
  6
CONTINUOUS
 62
         7
  5
10A
 10
21.2625579119
 20
1167.4806468068
 30
0.0
 11
15.5382675629
 21
1167.4806468068
 31
0.0
  0
LINE
  8
52176996
  6
CONTINUOUS
 62
         7
  5
10B
 10
15.2625579119
 20
1167.4806468068
 30
0.0
 11
9.5382675629
 21
1167.4806468068
 31
0.0
  0
LINE
  8
52176996
  6
CONTINUOUS
 62
         7
  5
10C
 10
15.5382675629
 20
1167.4806468068
 30
0.0
 11
15.2625579119
 21
1167.4806468068
 31
0.0
  0
LINE
  8
52176996
  6
CONTINUOUS
 62
         7
  5
10D
 10
25.4004127374
 20
1083.4806468068
 30
0.0
 11
22.3951859989
 21
1083.4806468068
 31
0.0
  0
LINE
  8
52176996
  6
CONTINUOUS
 62
         7
  5
10E
 10
22.4004127374
 20
1121.9806468068
 30
0.0
 11
8.4004127374
 21
1121.9806468068
 31
0.0
  0
LINE
  8
52176996
  6
CONTINUOUS
 62
         7
  5
10F
 10
6.9004127374
 20
1146.4806468068
 30
0.0
 11
23.9004127374
 21
1146.4806468068
 31
0.0
  0
LINE
  8
52176996
  6
CONTINUOUS
 62
         7
  5
110
 10
8.4004127374
 20
1123.4806468068
 30
0.0
 11
8.4004127374
 21
1131.9806468068
 31
0.0
  0
LINE
  8
52176996
  6
CONTINUOUS
 62
         7
  5
111
 10
22.4004127374
 20
1131.9806468068
 30
0.0
 11
22.4004127374
 21
1123.4806468068
 31
0.0
  0
ARC
  8
52176996
  6
CONTINUOUS
 62
         7
  5
112
 10
15.4004127373
 20
1305.3732275366
 30
0.0
 40
222.0029670588
 50
268.1931009763
 51
271.80689891
  0
LINE
  8
52176996
  6
CONTINUOUS
 62
         7
  5
113
 10
5.4004127374
 20
1083.4806468068
 30
0.0
 11
5.4004127374
 21
639.4806468068
 31
0.0
  0
LINE
  8
52176996
  6
CONTINUOUS
 62
         7
  5
114
 10
25.4004127374
 20
1083.4806468068
 30
0.0
 11
25.4004127374
 21
639.4806468068
 31
0.0
  0
LINE
  8
52176996
  6
CONTINUOUS
 62
         7
  5
115
 10
8.4004127374
 20
1121.9806468068
 30
0.0
 11
8.4004127374
 21
1123.4806468068
 31
0.0
  0
LINE
  8
52176996
  6
CONTINUOUS
 62
         7
  5
116
 10
23.9004127374
 20
1132.8466722106
 30
0.0
 11
22.4004127374
 21
1131.9806468068
 31
0.0
  0
LINE
  8
52176996
  6
CONTINUOUS
 62
         7
  5
117
 10
8.4004127374
 20
1131.9806468068
 30
0.0
 11
6.9004127374
 21
1132.8466722106
 31
0.0
  0
LINE
  8
52176996
  6
CONTINUOUS
 62
         7
  5
118
 10
22.4004127374
 20
1123.4806468068
 30
0.0
 11
22.4004127374
 21
1121.9806468068
 31
0.0
  0
LINE
  8
52176996
  6
CONTINUOUS
 62
         7
  5
119
 10
22.4004127374
 20
1123.4806468068
 30
0.0
 11
8.4004127374
 21
1123.4806468068
 31
0.0
  0
LINE
  8
52176996
  6
CONTINUOUS
 62
         7
  5
11A
 10
22.2504127374
 20
1162.4806468068
 30
0.0
 11
21.4004127374
 21
1162.4806468068
 31
0.0
  0
LINE
  8
52176996
  6
CONTINUOUS
 62
         7
  5
11B
 10
21.2625579119
 20
1162.4806468068
 30
0.0
 11
15.5382675629
 21
1162.4806468068
 31
0.0
  0
LINE
  8
52176996
  6
CONTINUOUS
 62
         7
  5
11C
 10
15.2625579119
 20
1162.4806468068
 30
0.0
 11
9.5382675629
 21
1162.4806468068
 31
0.0
  0
LINE
  8
52176996
  6
CONTINUOUS
 62
         7
  5
11D
 10
9.4004127374
 20
1162.4806468068
 30
0.0
 11
8.5504127374
 21
1162.4806468068
 31
0.0
  0
LINE
  8
52176996
  6
CONTINUOUS
 62
         7
  5
11E
 10
21.4004127374
 20
1167.4806468068
 30
0.0
 11
21.4004127374
 21
1162.4806468068
 31
0.0
  0
LINE
  8
52176996
  6
CONTINUOUS
 62
         7
  5
11F
 10
21.2625579119
 20
1162.4806468068
 30
0.0
 11
21.2625579119
 21
1167.4806468068
 31
0.0
  0
LINE
  8
52176996
  6
CONTINUOUS
 62
         7
  5
120
 10
15.5382675629
 20
1167.4806468068
 30
0.0
 11
15.5382675629
 21
1162.4806468068
 31
0.0
  0
LINE
  8
52176996
  6
CONTINUOUS
 62
         7
  5
121
 10
15.2625579119
 20
1162.4806468068
 30
0.0
 11
15.2625579119
 21
1167.4806468068
 31
0.0
  0
LINE
  8
52176996
  6
CONTINUOUS
 62
         7
  5
122
 10
9.5382675629
 20
1167.4806468068
 30
0.0
 11
9.5382675629
 21
1162.4806468068
 31
0.0
  0
LINE
  8
52176996
  6
CONTINUOUS
 62
         7
  5
123
 10
9.4004127374
 20
1162.4806468068
 30
0.0
 11
9.4004127374
 21
1167.4806468068
 31
0.0
  0
LINE
  8
52176996
  6
CONTINUOUS
 62
         7
  5
124
 10
8.5004127374
 20
1179.4806468068
 30
0.0
 11
22.3004127374
 21
1179.4806468068
 31
0.0
  0
LINE
  8
52176996
  6
CONTINUOUS
 62
         7
  5
125
 10
8.5004127374
 20
1173.8806468068
 30
0.0
 11
22.3004127374
 21
1173.8806468068
 31
0.0
  0
LINE
  8
52176996
  6
CONTINUOUS
 62
         7
  5
126
 10
9.4004127374
 20
1172.9806468068
 30
0.0
 11
21.4004127374
 21
1172.9806468068
 31
0.0
  0
LINE
  8
52176996
  6
CONTINUOUS
 62
         7
  5
127
 10
8.6504127374
 20
1171.4806468068
 30
0.0
 11
22.1504127374
 21
1171.4806468068
 31
0.0
  0
LINE
  8
52176996
  6
CONTINUOUS
 62
         7
  5
128
 10
8.6504127374
 20
1170.4806468068
 30
0.0
 11
22.1504127374
 21
1170.4806468068
 31
0.0
  0
LINE
  8
52176996
  6
CONTINUOUS
 62
         7
  5
129
 10
21.4004127374
 20
1167.4806468068
 30
0.0
 11
21.2625579119
 21
1167.4806468068
 31
0.0
  0
LINE
  8
52176996
  6
CONTINUOUS
 62
         7
  5
12A
 10
22.4004127374
 20
1083.4804675804
 30
0.0
 11
22.4004127374
 21
1121.9806468068
 31
0.0
  0
LINE
  8
52176996
  6
CONTINUOUS
 62
         7
  5
12B
 10
23.9004127374
 20
1132.8466722106
 30
0.0
 11
23.9004127374
 21
1146.4806468068
 31
0.0
  0
LINE
  8
52176996
  6
CONTINUOUS
 62
         7
  5
12C
 10
5.4004127374
 20
639.4806468068
 30
0.0
 11
25.4004127374
 21
639.4806468068
 31
0.0
  0
LINE
  8
52176996
  6
CONTINUOUS
 62
         7
  5
12D
 10
19.4004127374
 20
1167.4806468068
 30
0.0
 11
19.4004127374
 21
1170.4806468068
 31
0.0
  0
LINE
  8
52176996
  6
CONTINUOUS
 62
         7
  5
12E
 10
21.4004127374
 20
1171.4806468068
 30
0.0
 11
21.4004127374
 21
1172.9806468068
 31
0.0
  0
LINE
  8
52176996
  6
CONTINUOUS
 62
         7
  5
12F
 10
22.1504127374
 20
1170.4806468068
 30
0.0
 11
22.1504127374
 21
1171.4806468068
 31
0.0
  0
LINE
  8
52176996
  6
CONTINUOUS
 62
         7
  5
130
 10
22.2504127374
 20
1146.4806468068
 30
0.0
 11
22.2504127374
 21
1162.4806468068
 31
0.0
  0
LINE
  8
52176996
  6
CONTINUOUS
 62
         7
  5
131
 10
22.3004127374
 20
1173.8806468068
 30
0.0
 11
22.3004127374
 21
1179.4806468068
 31
0.0
  0
LINE
  8
52176996
  6
CONTINUOUS
 62
         7
  5
132
 10
8.5004127374
 20
1173.8806468068
 30
0.0
 11
9.4004127374
 21
1172.9806468068
 31
0.0
  0
ENDBLK
  8
52176996
  6
CONTINUOUS
 62
         7
  5
133
  0
BLOCK
  8
0
 62
         1
 48
0.0
  5
1D9
  2
SE4
 70
         0
 10
0.0
 20
0.0
 30
0.0
  3
SE4
  0
ENDBLK
  8
0
 62
         1
 48
0.0
  5
1DA
  0
BLOCK
  8
0
 62
         1
 48
0.0
  5
136
  2
SE5
 70
         0
 10
0.0
 20
0.0
 30
0.0
  3
SE5
  0
LINE
  8
52176996
  6
CONTINUOUS
 62
         7
  5
137
 10
499.9684940176
 20
1121.9806468068
 30
0.0
 11
499.9684940176
 21
1083.3706049129
 31
0.0
  0
LINE
  8
52176996
  6
CONTINUOUS
 62
         7
  5
138
 10
498.4684940176
 20
1146.4806468068
 30
0.0
 11
498.4684940176
 21
1123.4806468068
 31
0.0
  0
LINE
  8
52176996
  6
CONTINUOUS
 62
         7
  5
139
 10
246.4684940176
 20
854.4806468068
 30
0.0
 11
285.0785359115
 21
854.4806468068
 31
0.0
  0
LINE
  8
52176996
  6
CONTINUOUS
 62
         7
  5
13A
 10
197.9684940176
 20
857.4806468068
 30
0.0
 11
200.9684940176
 21
857.4806468068
 31
0.0
  0
LINE
  8
52176996
  6
CONTINUOUS
 62
         7
  5
13B
 10
195.4684940176
 20
855.4806468068
 30
0.0
 11
196.9684940176
 21
855.4806468068
 31
0.0
  0
LINE
  8
52176996
  6
CONTINUOUS
 62
         7
  5
13C
 10
196.9684940176
 20
854.7306468068
 30
0.0
 11
197.9684940176
 21
854.7306468068
 31
0.0
  0
LINE
  8
52176996
  6
CONTINUOUS
 62
         7
  5
13D
 10
200.9684940176
 20
854.6306468068
 30
0.0
 11
221.9684940176
 21
854.6306468068
 31
0.0
  0
LINE
  8
52176996
  6
CONTINUOUS
 62
         7
  5
13E
 10
195.4684940176
 20
867.4806468068
 30
0.0
 11
194.5684940176
 21
868.3806468068
 31
0.0
  0
LINE
  8
52176996
  6
CONTINUOUS
 62
         7
  5
13F
 10
188.9684940176
 20
854.5806468068
 30
0.0
 11
194.5684940176
 21
854.5806468068
 31
0.0
  0
LINE
  8
52176996
  6
CONTINUOUS
 62
         7
  5
140
 10
502.9684940176
 20
1170.4806468068
 30
0.0
 11
502.9684940176
 21
1167.4806468068
 31
0.0
  0
LINE
  8
52176996
  6
CONTINUOUS
 62
         7
  5
141
 10
500.9684940176
 20
1172.9806468068
 30
0.0
 11
500.9684940176
 21
1171.4806468068
 31
0.0
  0
LINE
  8
52176996
  6
CONTINUOUS
 62
         7
  5
142
 10
500.2184940176
 20
1171.4806468068
 30
0.0
 11
500.2184940176
 21
1170.4806468068
 31
0.0
  0
LINE
  8
52176996
  6
CONTINUOUS
 62
         7
  5
143
 10
500.1184940176
 20
1167.4806468068
 30
0.0
 11
500.1184940176
 21
1146.4806468068
 31
0.0
  0
LINE
  8
52176996
  6
CONTINUOUS
 62
         7
  5
144
 10
500.0684940176
 20
1179.4806468068
 30
0.0
 11
500.0684940176
 21
1173.8806468068
 31
0.0
  0
LINE
  8
52176996
  6
CONTINUOUS
 62
         7
  5
145
 10
512.9684940176
 20
1172.9806468068
 30
0.0
 11
513.8684940176
 21
1173.8806468068
 31
0.0
  0
LINE
  8
52176996
  6
CONTINUOUS
 62
         7
  5
146
 10
221.9684940176
 20
852.9806468068
 30
0.0
 11
244.9684940176
 21
852.9806468068
 31
0.0
  0
LINE
  8
52176996
  6
CONTINUOUS
 62
         7
  5
147
 10
510.2734145915
 20
1167.4806468068
 30
0.0
 11
503.6635734436
 21
1167.4806468068
 31
0.0
  0
LINE
  8
52176996
  6
CONTINUOUS
 62
         7
  5
148
 10
510.5121861533
 20
1167.4806468068
 30
0.0
 11
510.2734145915
 21
1167.4806468068
 31
0.0
  0
LINE
  8
52176996
  6
CONTINUOUS
 62
         7
  5
149
 10
503.6635734436
 20
1167.4806468068
 30
0.0
 11
503.6635734436
 21
1162.4806468068
 31
0.0
  0
LINE
  8
52176996
  6
CONTINUOUS
 62
         7
  5
14A
 10
503.6635734436
 20
1167.4806468068
 30
0.0
 11
503.4248018818
 21
1167.4806468068
 31
0.0
  0
LINE
  8
52176996
  6
CONTINUOUS
 62
         7
  5
14B
 10
500.1184940176
 20
1167.4806468068
 30
0.0
 11
500.1198813079
 21
1167.4806468068
 31
0.0
  0
LINE
  8
52176996
  6
CONTINUOUS
 62
         7
  5
14C
 10
503.4248018818
 20
1167.4806468068
 30
0.0
 11
500.1198813079
 21
1167.4806468068
 31
0.0
  0
LINE
  8
52176996
  6
CONTINUOUS
 62
         7
  5
14D
 10
513.8171067272
 20
1167.4806468068
 30
0.0
 11
510.5121861533
 21
1167.4806468068
 31
0.0
  0
LINE
  8
52176996
  6
CONTINUOUS
 62
         7
  5
14E
 10
513.8171067272
 20
1167.4806468068
 30
0.0
 11
513.8184940176
 21
1167.4806468068
 31
0.0
  0
LINE
  8
52176996
  6
CONTINUOUS
 62
         7
  5
14F
 10
503.4248018818
 20
1162.4806468068
 30
0.0
 11
500.1198813079
 21
1162.4806468068
 31
0.0
  0
LINE
  8
52176996
  6
CONTINUOUS
 62
         7
  5
150
 10
205.9684940176
 20
864.7855673808
 30
0.0
 11
200.9684940176
 21
864.7855673808
 31
0.0
  0
LINE
  8
52176996
  6
CONTINUOUS
 62
         7
  5
151
 10
200.9684940176
 20
858.1757262329
 30
0.0
 11
205.9684940176
 21
858.1757262329
 31
0.0
  0
LINE
  8
52176996
  6
CONTINUOUS
 62
         7
  5
152
 10
205.9684940176
 20
868.3292595165
 30
0.0
 11
200.9684940176
 21
868.3292595165
 31
0.0
  0
LINE
  8
52176996
  6
CONTINUOUS
 62
         7
  5
153
 10
200.9684940176
 20
865.0243389426
 30
0.0
 11
205.9684940176
 21
865.0243389426
 31
0.0
  0
LINE
  8
52176996
  6
CONTINUOUS
 62
         7
  5
154
 10
197.9684940176
 20
868.2306468068
 30
0.0
 11
197.9684940176
 21
854.7306468068
 31
0.0
  0
LINE
  8
52176996
  6
CONTINUOUS
 62
         7
  5
155
 10
196.9684940176
 20
868.2306468068
 30
0.0
 11
196.9684940176
 21
854.7306468068
 31
0.0
  0
LINE
  8
52176996
  6
CONTINUOUS
 62
         7
  5
156
 10
205.9684940176
 20
857.9369546711
 30
0.0
 11
200.9684940176
 21
857.9369546711
 31
0.0
  0
LINE
  8
52176996
  6
CONTINUOUS
 62
         7
  5
157
 10
200.9684940176
 20
854.6320340972
 30
0.0
 11
205.9684940176
 21
854.6320340972
 31
0.0
  0
LINE
  8
52176996
  6
CONTINUOUS
 62
         7
  5
158
 10
195.4684940176
 20
867.4806468068
 30
0.0
 11
195.4684940176
 21
855.4806468068
 31
0.0
  0
LINE
  8
52176996
  6
CONTINUOUS
 62
         7
  5
159
 10
188.9684940176
 20
868.3806468068
 30
0.0
 11
188.9684940176
 21
854.5806468068
 31
0.0
  0
LINE
  8
52176996
  6
CONTINUOUS
 62
         7
  5
15A
 10
194.5684940176
 20
868.3806468068
 30
0.0
 11
194.5684940176
 21
854.5806468068
 31
0.0
  0
LINE
  8
52176996
  6
CONTINUOUS
 62
         7
  5
15B
 10
200.9684940176
 20
868.3292595165
 30
0.0
 11
200.9684940176
 21
865.0243389426
 31
0.0
  0
LINE
  8
52176996
  6
CONTINUOUS
 62
         7
  5
15C
 10
200.9684940176
 20
864.7855673808
 30
0.0
 11
200.9684940176
 21
858.1757262329
 31
0.0
  0
LINE
  8
52176996
  6
CONTINUOUS
 62
         7
  5
15D
 10
200.9684940176
 20
868.3306468068
 30
0.0
 11
200.9684940176
 21
868.3292595165
 31
0.0
  0
ARC
  8
52176996
  6
CONTINUOUS
 62
         7
  5
15E
 10
506.9684940176
 20
861.4806468068
 30
0.0
 40
222.2
 50
136.376126386
 51
136.438391171
  0
ARC
  8
52176996
  6
CONTINUOUS
 62
         7
  5
15F
 10
506.9684940176
 20
861.4806468068
 30
0.0
 40
222.1999999999
 50
137.0534954597
 51
137.5070503651
  0
LINE
  8
52176996
  6
CONTINUOUS
 62
         7
  5
160
 10
200.9684940176
 20
857.9369546711
 30
0.0
 11
200.9684940176
 21
854.6320340972
 31
0.0
  0
LINE
  8
52176996
  6
CONTINUOUS
 62
         7
  5
161
 10
205.9684940176
 20
857.9369546711
 30
0.0
 11
205.9684940176
 21
854.6320340972
 31
0.0
  0
LINE
  8
52176996
  6
CONTINUOUS
 62
         7
  5
162
 10
343.2685558843
 20
1011.4350740678
 30
0.0
 11
343.1269989143
 21
1011.5766310378
 31
0.0
  0
LINE
  8
52176996
  6
CONTINUOUS
 62
         7
  5
163
 10
346.0963340692
 20
1014.4647902778
 30
0.0
 11
345.9548680961
 21
1014.6062562509
 31
0.0
  0
LINE
  8
52176996
  6
CONTINUOUS
 62
         7
  5
164
 10
344.4617960127
 20
1012.7273760395
 30
0.0
 11
344.3202836964
 21
1012.8688883559
 31
0.0
  0
ARC
  8
52176996
  6
CONTINUOUS
 62
         7
  5
165
 10
506.9684940176
 20
861.4806468068
 30
0.0
 40
222.2
 50
132.8661683856
 51
133.5135693488
  0
ARC
  8
52176996
  6
CONTINUOUS
 62
         7
  5
166
 10
506.9684940176
 20
861.4806468068
 30
0.0
 40
222.2
 50
136.438391171
 51
137.0534954597
  0
ARC
  8
52176996
  6
CONTINUOUS
 62
         7
  5
167
 10
506.9684940176
 20
861.4806468068
 30
0.0
 40
222.2
 50
132.3129774181
 51
132.8661683856
  0
LINE
  8
52176996
  6
CONTINUOUS
 62
         7
  5
168
 10
354.1194087925
 20
1022.4811348367
 30
0.0
 11
353.9779397885
 21
1022.6226038407
 31
0.0
  0
ARC
  8
52176996
  6
CONTINUOUS
 62
         7
  5
169
 10
506.9684940176
 20
861.4806468068
 30
0.0
 40
222.2
 50
131.6645201603
 51
132.3129774181
  0
LINE
  8
52176996
  6
CONTINUOUS
 62
         7
  5
16A
 10
359.398732877
 20
1027.333490005
 30
0.0
 11
359.2570713268
 21
1027.4751515553
 31
0.0
  0
ARC
  8
52176996
  6
CONTINUOUS
 62
         7
  5
16B
 10
506.9684940173
 20
861.4806468071
 30
0.0
 40
222.1999999996
 50
134.9825572666
 51
135.1922283711
  0
ARC
  8
52176996
  6
CONTINUOUS
 62
         7
  5
16C
 10
506.9684940176
 20
861.4806468068
 30
0.0
 40
222.2000000001
 50
134.3305970695
 51
134.9825572666
  0
LINE
  8
52176996
  6
CONTINUOUS
 62
         7
  5
16D
 10
355.9499747844
 20
1024.1994436578
 30
0.0
 11
355.8084552076
 21
1024.3409632346
 31
0.0
  0
LINE
  8
52176996
  6
CONTINUOUS
 62
         7
  5
16E
 10
357.5294703521
 20
1025.6512233603
 30
0.0
 11
357.3878931941
 21
1025.7928005183
 31
0.0
  0
ARC
  8
52176996
  6
CONTINUOUS
 62
         7
  5
16F
 10
506.9684940176
 20
861.4806468068
 30
0.0
 40
222.2
 50
135.3527594023
 51
136.376126386
  0
ARC
  8
52176996
  6
CONTINUOUS
 62
         7
  5
170
 10
506.9684940245
 20
861.4806468
 30
0.0
 40
222.2000000097
 50
135.1922283711
 51
135.3527594023
  0
LINE
  8
52176996
  6
CONTINUOUS
 62
         7
  5
171
 10
351.8371472485
 20
1020.2832451785
 30
0.0
 11
351.695716231
 21
1020.424676196
 31
0.0
  0
LINE
  8
52176996
  6
CONTINUOUS
 62
         7
  5
172
 10
350.0386281482
 20
1018.5061772095
 30
0.0
 11
349.8972067854
 21
1018.6475985723
 31
0.0
  0
LINE
  8
52176996
  6
CONTINUOUS
 62
         7
  5
173
 10
346.2628308383
 20
1014.6396812189
 30
0.0
 11
346.1213686451
 21
1014.7811434121
 31
0.0
  0
LINE
  8
52176996
  6
CONTINUOUS
 62
         7
  5
174
 10
349.4645371596
 20
1017.9303306482
 30
0.0
 11
349.3231150067
 21
1018.0717528011
 31
0.0
  0
LINE
  8
52176996
  6
CONTINUOUS
 62
         7
  5
175
 10
349.026422197
 20
1017.4880246741
 30
0.0
 11
348.884998158
 21
1017.6294487132
 31
0.0
  0
LINE
  8
52176996
  6
CONTINUOUS
 62
         7
  5
176
 10
511.7903193981
 20
1131.9806468068
 30
0.0
 11
502.1466686371
 21
1131.9806468068
 31
0.0
  0
LINE
  8
52176996
  6
CONTINUOUS
 62
         7
  5
177
 10
513.9684940176
 20
1121.9806468068
 30
0.0
 11
506.9684940176
 21
1121.9806468068
 31
0.0
  0
LINE
  8
52176996
  6
CONTINUOUS
 62
         7
  5
178
 10
511.7903193981
 20
1123.4806468068
 30
0.0
 11
511.7903193981
 21
1131.9806468068
 31
0.0
  0
LINE
  8
52176996
  6
CONTINUOUS
 62
         7
  5
179
 10
502.1466686371
 20
1123.4806468068
 30
0.0
 11
498.4684940176
 21
1123.4806468068
 31
0.0
  0
LINE
  8
52176996
  6
CONTINUOUS
 62
         7
  5
17A
 10
502.1466686371
 20
1131.9806468068
 30
0.0
 11
502.1466686371
 21
1123.4806468068
 31
0.0
  0
LINE
  8
52176996
  6
CONTINUOUS
 62
         7
  5
17B
 10
515.4684940176
 20
1146.4806468068
 30
0.0
 11
498.4684940176
 21
1146.4806468068
 31
0.0
  0
LINE
  8
52176996
  6
CONTINUOUS
 62
         7
  5
17C
 10
221.9684940176
 20
869.9806468068
 30
0.0
 11
221.9684940176
 21
852.9806468068
 31
0.0
  0
LINE
  8
52176996
  6
CONTINUOUS
 62
         7
  5
17D
 10
244.9684940176
 20
856.6588214263
 30
0.0
 11
244.9684940176
 21
852.9806468068
 31
0.0
  0
ARC
  8
52176996
  6
CONTINUOUS
 62
         7
  5
17E
 10
236.8960101781
 20
861.1470126264
 30
0.0
 40
9.5782962275
 50
1.9961481256
 51
32.5641736544
  0
CIRCLE
  8
52176996
  6
CONTINUOUS
 62
         7
  5
17F
 10
506.9684940176
 20
861.4806468068
 30
0.0
 40
135.5
  0
CIRCLE
  8
52176996
  6
CONTINUOUS
 62
         7
  5
180
 10
506.9684940176
 20
861.4806468068
 30
0.0
 40
222.0
  0
CIRCLE
  8
52176996
  6
CONTINUOUS
 62
         7
  5
181
 10
506.9684940176
 20
861.4806468068
 30
0.0
 40
169.0
  0
LINE
  8
52176996
  6
CONTINUOUS
 62
         7
  5
182
 10
246.4684940176
 20
854.4806468068
 30
0.0
 11
246.4684940176
 21
861.4806468068
 31
0.0
  0
LINE
  8
52176996
  6
CONTINUOUS
 62
         7
  5
183
 10
246.4684940176
 20
868.4806468068
 30
0.0
 11
246.4684940176
 21
861.4806468068
 31
0.0
  0
LINE
  8
52176996
  6
CONTINUOUS
 62
         7
  5
184
 10
244.9684940176
 20
866.3024721873
 30
0.0
 11
244.9684940176
 21
869.9806468068
 31
0.0
  0
LINE
  8
52176996
  6
CONTINUOUS
 62
         7
  5
185
 10
236.4684940176
 20
866.3024721873
 30
0.0
 11
236.4684940176
 21
856.6588214263
 31
0.0
  0
LINE
  8
52176996
  6
CONTINUOUS
 62
         7
  5
186
 10
244.9684940176
 20
866.3024721873
 30
0.0
 11
236.4684940176
 21
866.3024721873
 31
0.0
  0
LINE
  8
52176996
  6
CONTINUOUS
 62
         7
  5
187
 10
236.4684940176
 20
856.6588214263
 30
0.0
 11
244.9684940176
 21
856.6588214263
 31
0.0
  0
ARC
  8
52176996
  6
CONTINUOUS
 62
         7
  5
188
 10
236.7187237228
 20
861.8694322344
 30
0.0
 40
9.7575188911
 50
327.723215948
 51
357.716462272
  0
ARC
  8
52176996
  6
CONTINUOUS
 62
         7
  5
189
 10
507.3572794451
 20
1131.7304171017
 30
0.0
 40
9.7575188911
 50
237.723215948
 51
267.716462272
  0
ARC
  8
52176996
  6
CONTINUOUS
 62
         7
  5
18A
 10
506.6348598371
 20
1131.5531306463
 30
0.0
 40
9.5782962275
 50
271.9961481256
 51
302.5641736544
  0
POLYLINE
  8
52176996
  6
CONTINUOUS
 62
         7
  5
18B
 66
         1
 10
0.0
 20
0.0
 30
0.0
  0
VERTEX
  8
52176996
  6
CONTINUOUS
 62
         7
  5
18C
 10
236.4684940176
 20
866.3024721873
 30
0.0
  0
VERTEX
  8
52176996
  6
CONTINUOUS
 62
         7
  5
18D
 10
236.2795208534
 20
865.7888380431
 30
0.0
  0
VERTEX
  8
52176996
  6
CONTINUOUS
 62
         7
  5
18E
 10
236.1091679896
 20
865.2422237767
 30
0.0
  0
VERTEX
  8
52176996
  6
CONTINUOUS
 62
         7
  5
18F
 10
235.9599827436
 20
864.6655338964
 30
0.0
  0
VERTEX
  8
52176996
  6
CONTINUOUS
 62
         7
  5
190
 10
235.8343179345
 20
864.0624115775
 30
0.0
  0
VERTEX
  8
52176996
  6
CONTINUOUS
 62
         7
  5
191
 10
235.7342457265
 20
863.4371905714
 30
0.0
  0
VERTEX
  8
52176996
  6
CONTINUOUS
 62
         7
  5
192
 10
235.6614763567
 20
862.79481164
 30
0.0
  0
VERTEX
  8
52176996
  6
CONTINUOUS
 62
         7
  5
193
 10
235.6172873676
 20
862.1407054397
 30
0.0
  0
VERTEX
  8
52176996
  6
CONTINUOUS
 62
         7
  5
194
 10
235.6024686138
 20
861.4806468068
 30
0.0
  0
VERTEX
  8
52176996
  6
CONTINUOUS
 62
         7
  5
195
 10
235.6172873676
 20
860.820588174
 30
0.0
  0
VERTEX
  8
52176996
  6
CONTINUOUS
 62
         7
  5
196
 10
235.6614763567
 20
860.1664819737
 30
0.0
  0
VERTEX
  8
52176996
  6
CONTINUOUS
 62
         7
  5
197
 10
235.7342457265
 20
859.5241030423
 30
0.0
  0
VERTEX
  8
52176996
  6
CONTINUOUS
 62
         7
  5
198
 10
235.8343179345
 20
858.8988820362
 30
0.0
  0
VERTEX
  8
52176996
  6
CONTINUOUS
 62
         7
  5
199
 10
235.9599827436
 20
858.2957597172
 30
0.0
  0
VERTEX
  8
52176996
  6
CONTINUOUS
 62
         7
  5
19A
 10
236.1091679896
 20
857.719069837
 30
0.0
  0
VERTEX
  8
52176996
  6
CONTINUOUS
 62
         7
  5
19B
 10
236.2795208534
 20
857.1724555706
 30
0.0
  0
VERTEX
  8
52176996
  6
CONTINUOUS
 62
         7
  5
19C
 10
236.4684940176
 20
856.6588214263
 30
0.0
  0
SEQEND
  8
52176996
  6
CONTINUOUS
 62
         7
  5
19D
  0
POLYLINE
  8
52176996
  6
CONTINUOUS
 62
         7
  5
19E
 66
         1
 10
0.0
 20
0.0
 30
0.0
  0
VERTEX
  8
52176996
  6
CONTINUOUS
 62
         7
  5
19F
 10
511.7903193981
 20
1131.9806468068
 30
0.0
  0
VERTEX
  8
52176996
  6
CONTINUOUS
 62
         7
  5
1A0
 10
511.2766852538
 20
1132.169619971
 30
0.0
  0
VERTEX
  8
52176996
  6
CONTINUOUS
 62
         7
  5
1A1
 10
510.7300709874
 20
1132.3399728348
 30
0.0
  0
VERTEX
  8
52176996
  6
CONTINUOUS
 62
         7
  5
1A2
 10
510.1533811072
 20
1132.4891580808
 30
0.0
  0
VERTEX
  8
52176996
  6
CONTINUOUS
 62
         7
  5
1A3
 10
509.5502587882
 20
1132.6148228899
 30
0.0
  0
VERTEX
  8
52176996
  6
CONTINUOUS
 62
         7
  5
1A4
 10
508.9250377821
 20
1132.714895098
 30
0.0
  0
VERTEX
  8
52176996
  6
CONTINUOUS
 62
         7
  5
1A5
 10
508.2826588507
 20
1132.7876644677
 30
0.0
  0
VERTEX
  8
52176996
  6
CONTINUOUS
 62
         7
  5
1A6
 10
507.6285526504
 20
1132.8318534569
 30
0.0
  0
VERTEX
  8
52176996
  6
CONTINUOUS
 62
         7
  5
1A7
 10
506.9684940176
 20
1132.8466722106
 30
0.0
  0
VERTEX
  8
52176996
  6
CONTINUOUS
 62
         7
  5
1A8
 10
506.3084353847
 20
1132.8318534569
 30
0.0
  0
VERTEX
  8
52176996
  6
CONTINUOUS
 62
         7
  5
1A9
 10
505.6543291844
 20
1132.7876644677
 30
0.0
  0
VERTEX
  8
52176996
  6
CONTINUOUS
 62
         7
  5
1AA
 10
505.011950253
 20
1132.714895098
 30
0.0
  0
VERTEX
  8
52176996
  6
CONTINUOUS
 62
         7
  5
1AB
 10
504.3867292469
 20
1132.6148228899
 30
0.0
  0
VERTEX
  8
52176996
  6
CONTINUOUS
 62
         7
  5
1AC
 10
503.783606928
 20
1132.4891580808
 30
0.0
  0
VERTEX
  8
52176996
  6
CONTINUOUS
 62
         7
  5
1AD
 10
503.2069170477
 20
1132.3399728348
 30
0.0
  0
VERTEX
  8
52176996
  6
CONTINUOUS
 62
         7
  5
1AE
 10
502.6603027813
 20
1132.169619971
 30
0.0
  0
VERTEX
  8
52176996
  6
CONTINUOUS
 62
         7
  5
1AF
 10
502.1466686371
 20
1131.9806468068
 30
0.0
  0
SEQEND
  8
52176996
  6
CONTINUOUS
 62
         7
  5
1B0
  0
LINE
  8
52176996
  6
CONTINUOUS
 62
         7
  5
1B1
 10
499.9684940176
 20
1121.9806468068
 30
0.0
 11
506.9684940176
 21
1121.9806468068
 31
0.0
  0
LINE
  8
52176996
  6
CONTINUOUS
 62
         7
  5
1B2
 10
511.7903193981
 20
1123.4806468068
 30
0.0
 11
515.4684940176
 21
1123.4806468068
 31
0.0
  0
LINE
  8
52176996
  6
CONTINUOUS
 62
         7
  5
1B3
 10
513.8171067272
 20
1162.4806468068
 30
0.0
 11
510.5121861533
 21
1162.4806468068
 31
0.0
  0
LINE
  8
52176996
  6
CONTINUOUS
 62
         7
  5
1B4
 10
510.2734145915
 20
1162.4806468068
 30
0.0
 11
503.6635734436
 21
1162.4806468068
 31
0.0
  0
LINE
  8
52176996
  6
CONTINUOUS
 62
         7
  5
1B5
 10
513.8171067272
 20
1162.4806468068
 30
0.0
 11
513.8171067272
 21
1167.4806468068
 31
0.0
  0
LINE
  8
52176996
  6
CONTINUOUS
 62
         7
  5
1B6
 10
510.5121861533
 20
1167.4806468068
 30
0.0
 11
510.5121861533
 21
1162.4806468068
 31
0.0
  0
LINE
  8
52176996
  6
CONTINUOUS
 62
         7
  5
1B7
 10
510.2734145915
 20
1162.4806468068
 30
0.0
 11
510.2734145915
 21
1167.4806468068
 31
0.0
  0
LINE
  8
52176996
  6
CONTINUOUS
 62
         7
  5
1B8
 10
503.4248018818
 20
1162.4806468068
 30
0.0
 11
503.4248018818
 21
1167.4806468068
 31
0.0
  0
LINE
  8
52176996
  6
CONTINUOUS
 62
         7
  5
1B9
 10
500.1198813079
 20
1167.4806468068
 30
0.0
 11
500.1198813079
 21
1162.4806468068
 31
0.0
  0
LINE
  8
52176996
  6
CONTINUOUS
 62
         7
  5
1BA
 10
500.0684940176
 20
1179.4806468068
 30
0.0
 11
513.8684940176
 21
1179.4806468068
 31
0.0
  0
LINE
  8
52176996
  6
CONTINUOUS
 62
         7
  5
1BB
 10
500.0684940176
 20
1173.8806468068
 30
0.0
 11
513.8684940176
 21
1173.8806468068
 31
0.0
  0
LINE
  8
52176996
  6
CONTINUOUS
 62
         7
  5
1BC
 10
500.9684940176
 20
1172.9806468068
 30
0.0
 11
512.9684940176
 21
1172.9806468068
 31
0.0
  0
LINE
  8
52176996
  6
CONTINUOUS
 62
         7
  5
1BD
 10
500.2184940176
 20
1171.4806468068
 30
0.0
 11
513.7184940176
 21
1171.4806468068
 31
0.0
  0
LINE
  8
52176996
  6
CONTINUOUS
 62
         7
  5
1BE
 10
500.2184940176
 20
1170.4806468068
 30
0.0
 11
513.7184940176
 21
1170.4806468068
 31
0.0
  0
LINE
  8
52176996
  6
CONTINUOUS
 62
         7
  5
1BF
 10
205.9684940176
 20
868.3292595165
 30
0.0
 11
205.9684940176
 21
865.0243389426
 31
0.0
  0
LINE
  8
52176996
  6
CONTINUOUS
 62
         7
  5
1C0
 10
205.9684940176
 20
864.7855673808
 30
0.0
 11
205.9684940176
 21
858.1757262329
 31
0.0
  0
LINE
  8
52176996
  6
CONTINUOUS
 62
         7
  5
1C1
 10
200.9684940176
 20
858.1757262329
 30
0.0
 11
200.9684940176
 21
857.9369546711
 31
0.0
  0
LINE
  8
52176996
  6
CONTINUOUS
 62
         7
  5
1C2
 10
200.9684940176
 20
854.6306468068
 30
0.0
 11
200.9684940176
 21
854.6320340972
 31
0.0
  0
LINE
  8
52176996
  6
CONTINUOUS
 62
         7
  5
1C3
 10
200.9684940176
 20
865.0243389426
 30
0.0
 11
200.9684940176
 21
864.7855673808
 31
0.0
  0
LINE
  8
52176996
  6
CONTINUOUS
 62
         7
  5
1C4
 10
513.9684940176
 20
1083.3730544166
 30
0.0
 11
513.9684940176
 21
1121.9806468068
 31
0.0
  0
LINE
  8
52176996
  6
CONTINUOUS
 62
         7
  5
1C5
 10
498.4684940176
 20
1123.4806468068
 30
0.0
 11
499.9684940176
 21
1121.9806468068
 31
0.0
  0
LINE
  8
52176996
  6
CONTINUOUS
 62
         7
  5
1C6
 10
515.4684940176
 20
1123.4806468068
 30
0.0
 11
515.4684940176
 21
1146.4806468068
 31
0.0
  0
LINE
  8
52176996
  6
CONTINUOUS
 62
         7
  5
1C7
 10
513.9684940176
 20
1121.9806468068
 30
0.0
 11
515.4684940176
 21
1123.4806468068
 31
0.0
  0
LINE
  8
52176996
  6
CONTINUOUS
 62
         7
  5
1C8
 10
246.4684940176
 20
868.4806468068
 30
0.0
 11
244.9684940176
 21
869.9806468068
 31
0.0
  0
LINE
  8
52176996
  6
CONTINUOUS
 62
         7
  5
1C9
 10
285.0760864079
 20
868.4806468068
 30
0.0
 11
246.4684940176
 21
868.4806468068
 31
0.0
  0
LINE
  8
52176996
  6
CONTINUOUS
 62
         7
  5
1CA
 10
200.9684940176
 20
865.4806468068
 30
0.0
 11
197.9684940176
 21
865.4806468068
 31
0.0
  0
LINE
  8
52176996
  6
CONTINUOUS
 62
         7
  5
1CB
 10
196.9684940176
 20
867.4806468068
 30
0.0
 11
195.4684940176
 21
867.4806468068
 31
0.0
  0
LINE
  8
52176996
  6
CONTINUOUS
 62
         7
  5
1CC
 10
197.9684940176
 20
868.2306468068
 30
0.0
 11
196.9684940176
 21
868.2306468068
 31
0.0
  0
LINE
  8
52176996
  6
CONTINUOUS
 62
         7
  5
1CD
 10
221.9684940176
 20
868.3306468068
 30
0.0
 11
200.9684940176
 21
868.3306468068
 31
0.0
  0
LINE
  8
52176996
  6
CONTINUOUS
 62
         7
  5
1CE
 10
194.5684940176
 20
854.5806468068
 30
0.0
 11
195.4684940176
 21
855.4806468068
 31
0.0
  0
LINE
  8
52176996
  6
CONTINUOUS
 62
         7
  5
1CF
 10
194.5684940176
 20
868.3806468068
 30
0.0
 11
188.9684940176
 21
868.3806468068
 31
0.0
  0
LINE
  8
52176996
  6
CONTINUOUS
 62
         7
  5
1D0
 10
510.9684940176
 20
1167.4806468068
 30
0.0
 11
510.9684940176
 21
1170.4806468068
 31
0.0
  0
LINE
  8
52176996
  6
CONTINUOUS
 62
         7
  5
1D1
 10
512.9684940176
 20
1171.4806468068
 30
0.0
 11
512.9684940176
 21
1172.9806468068
 31
0.0
  0
LINE
  8
52176996
  6
CONTINUOUS
 62
         7
  5
1D2
 10
513.7184940176
 20
1170.4806468068
 30
0.0
 11
513.7184940176
 21
1171.4806468068
 31
0.0
  0
LINE
  8
52176996
  6
CONTINUOUS
 62
         7
  5
1D3
 10
513.8184940176
 20
1146.4806468068
 30
0.0
 11
513.8184940176
 21
1167.4806468068
 31
0.0
  0
LINE
  8
52176996
  6
CONTINUOUS
 62
         7
  5
1D4
 10
513.8684940176
 20
1173.8806468068
 30
0.0
 11
513.8684940176
 21
1179.4806468068
 31
0.0
  0
LINE
  8
52176996
  6
CONTINUOUS
 62
         7
  5
1D5
 10
500.0684940176
 20
1173.8806468068
 30
0.0
 11
500.9684940176
 21
1172.9806468068
 31
0.0
  0
LINE
  8
52176996
  6
CONTINUOUS
 62
         7
  5
1D6
 10
244.9684940176
 20
852.9806468068
 30
0.0
 11
246.4684940176
 21
854.4806468068
 31
0.0
  0
LINE
  8
52176996
  6
CONTINUOUS
 62
         7
  5
1D7
 10
244.9684940176
 20
869.9806468068
 30
0.0
 11
221.9684940176
 21
869.9806468068
 31
0.0
  0
ENDBLK
  8
52176996
  6
CONTINUOUS
 62
         7
  5
1D8
  0
BLOCK
  8
0
 62
         1
 48
0.0
  5
21C
  2
SE6
 70
         0
 10
0.0
 20
0.0
 30
0.0
  3
SE6
  0
ENDBLK
  8
0
 62
         1
 48
0.0
  5
21D
  0
BLOCK
  8
0
 62
         1
 48
0.0
  5
1DB
  2
SE7
 70
         0
 10
0.0
 20
0.0
 30
0.0
  3
SE7
  0
LINE
  8
52176996
  6
CONTINUOUS
 62
         7
  5
1DC
 10
515.3356172777
 20
454.5462992155
 30
0.0
 11
512.3356172777
 21
454.5462992155
 31
0.0
  0
LINE
  8
52176996
  6
CONTINUOUS
 62
         7
  5
1DD
 10
498.3356172777
 20
493.0462992155
 30
0.0
 11
498.3356172777
 21
454.5462992155
 31
0.0
  0
LINE
  8
52176996
  6
CONTINUOUS
 62
         7
  5
1DE
 10
501.3356172777
 20
541.5462992155
 30
0.0
 11
501.3356172777
 21
538.5462992155
 31
0.0
  0
LINE
  8
52176996
  6
CONTINUOUS
 62
         7
  5
1DF
 10
499.3356172777
 20
544.0462992155
 30
0.0
 11
499.3356172777
 21
542.5462992155
 31
0.0
  0
LINE
  8
52176996
  6
CONTINUOUS
 62
         7
  5
1E0
 10
498.5856172777
 20
542.5462992155
 30
0.0
 11
498.5856172777
 21
541.5462992155
 31
0.0
  0
LINE
  8
52176996
  6
CONTINUOUS
 62
         7
  5
1E1
 10
498.4856172777
 20
533.5462992155
 30
0.0
 11
498.4856172777
 21
517.5462992155
 31
0.0
  0
LINE
  8
52176996
  6
CONTINUOUS
 62
         7
  5
1E2
 10
511.3356172777
 20
544.0462992155
 30
0.0
 11
512.2356172777
 21
544.9462992155
 31
0.0
  0
LINE
  8
52176996
  6
CONTINUOUS
 62
         7
  5
1E3
 10
498.4356172777
 20
550.5462992155
 30
0.0
 11
498.4356172777
 21
544.9462992155
 31
0.0
  0
LINE
  8
52176996
  6
CONTINUOUS
 62
         7
  5
1E4
 10
496.8356172777
 20
517.5462992155
 30
0.0
 11
496.8356172777
 21
503.9123246193
 31
0.0
  0
LINE
  8
52176996
  6
CONTINUOUS
 62
         7
  5
1E5
 10
511.3356172777
 20
538.5462992155
 30
0.0
 11
511.3356172777
 21
533.5462992155
 31
0.0
  0
LINE
  8
52176996
  6
CONTINUOUS
 62
         7
  5
1E6
 10
505.1977624522
 20
533.5462992155
 30
0.0
 11
505.1977624522
 21
538.5462992155
 31
0.0
  0
LINE
  8
52176996
  6
CONTINUOUS
 62
         7
  5
1E7
 10
499.4734721032
 20
538.5462992155
 30
0.0
 11
499.4734721032
 21
533.5462992155
 31
0.0
  0
LINE
  8
52176996
  6
CONTINUOUS
 62
         7
  5
1E8
 10
499.3356172777
 20
533.5462992155
 30
0.0
 11
499.3356172777
 21
538.5462992155
 31
0.0
  0
LINE
  8
52176996
  6
CONTINUOUS
 62
         7
  5
1E9
 10
498.5856172777
 20
541.5462992155
 30
0.0
 11
512.0856172777
 21
541.5462992155
 31
0.0
  0
LINE
  8
52176996
  6
CONTINUOUS
 62
         7
  5
1EA
 10
498.5856172777
 20
542.5462992155
 30
0.0
 11
512.0856172777
 21
542.5462992155
 31
0.0
  0
LINE
  8
52176996
  6
CONTINUOUS
 62
         7
  5
1EB
 10
511.1977624522
 20
533.5462992155
 30
0.0
 11
511.1977624522
 21
538.5462992155
 31
0.0
  0
LINE
  8
52176996
  6
CONTINUOUS
 62
         7
  5
1EC
 10
505.4734721032
 20
538.5462992155
 30
0.0
 11
505.4734721032
 21
533.5462992155
 31
0.0
  0
LINE
  8
52176996
  6
CONTINUOUS
 62
         7
  5
1ED
 10
498.4356172777
 20
550.5462992155
 30
0.0
 11
512.2356172777
 21
550.5462992155
 31
0.0
  0
LINE
  8
52176996
  6
CONTINUOUS
 62
         7
  5
1EE
 10
498.4356172777
 20
544.9462992155
 30
0.0
 11
512.2356172777
 21
544.9462992155
 31
0.0
  0
LINE
  8
52176996
  6
CONTINUOUS
 62
         7
  5
1EF
 10
499.3356172777
 20
544.0462992155
 30
0.0
 11
511.3356172777
 21
544.0462992155
 31
0.0
  0
LINE
  8
52176996
  6
CONTINUOUS
 62
         7
  5
1F0
 10
505.1977624522
 20
538.5462992155
 30
0.0
 11
499.4734721032
 21
538.5462992155
 31
0.0
  0
LINE
  8
52176996
  6
CONTINUOUS
 62
         7
  5
1F1
 10
511.1977624522
 20
538.5462992155
 30
0.0
 11
505.4734721032
 21
538.5462992155
 31
0.0
  0
LINE
  8
52176996
  6
CONTINUOUS
 62
         7
  5
1F2
 10
511.1977624522
 20
533.5462992155
 30
0.0
 11
505.4734721032
 21
533.5462992155
 31
0.0
  0
LINE
  8
52176996
  6
CONTINUOUS
 62
         7
  5
1F3
 10
495.3356172777
 20
10.5462992155
 30
0.0
 11
515.3356172777
 21
10.5462992155
 31
0.0
  0
LINE
  8
52176996
  6
CONTINUOUS
 62
         7
  5
1F4
 10
496.8356172777
 20
517.5462992155
 30
0.0
 11
513.8356172777
 21
517.5462992155
 31
0.0
  0
LINE
  8
52176996
  6
CONTINUOUS
 62
         7
  5
1F5
 10
512.3356172777
 20
494.5462992155
 30
0.0
 11
498.3356172777
 21
494.5462992155
 31
0.0
  0
POLYLINE
  8
52176996
  6
CONTINUOUS
 62
         7
  5
1F6
 66
         1
 10
0.0
 20
0.0
 30
0.0
 70
         4
  0
VERTEX
  8
52176996
  6
CONTINUOUS
 62
         7
  5
1F7
 10
498.3356173034
 20
454.5462992132
 30
0.0
 70
         8
  0
VERTEX
  8
52176996
  6
CONTINUOUS
 62
         7
  5
1F8
 10
498.8749929089
 20
454.5295482687
 30
0.0
 70
         8
  0
VERTEX
  8
52176996
  6
CONTINUOUS
 62
         7
  5
1F9
 10
500.3810712298
 20
454.4912192442
 30
0.0
 70
         8
  0
VERTEX
  8
52176996
  6
CONTINUOUS
 62
         7
  5
1FA
 10
501.4395866464
 20
454.4701401567
 30
0.0
 70
         8
  0
VERTEX
  8
52176996
  6
CONTINUOUS
 62
         7
  5
1FB
 10
502.6493039927
 20
454.452171781
 30
0.0
 70
         8
  0
VERTEX
  8
52176996
  6
CONTINUOUS
 62
         7
  5
1FC
 10
503.9600676693
 20
454.4402104864
 30
0.0
 70
         8
  0
VERTEX
  8
52176996
  6
CONTINUOUS
 62
         7
  5
1FD
 10
505.3285142344
 20
454.4359115241
 30
0.0
 70
         8
  0
VERTEX
  8
52176996
  6
CONTINUOUS
 62
         7
  5
1FE
 10
508.0123952855
 20
454.4526370949
 30
0.0
 70
         8
  0
VERTEX
  8
52176996
  6
CONTINUOUS
 62
         7
  5
1FF
 10
510.2814145365
 20
454.4910241146
 30
0.0
 70
         8
  0
VERTEX
  8
52176996
  6
CONTINUOUS
 62
         7
  5
200
 10
511.7935544514
 20
454.5294702225
 30
0.0
 70
         8
  0
VERTEX
  8
52176996
  6
CONTINUOUS
 62
         7
  5
201
 10
512.3356172777
 20
454.5462992155
 30
0.0
 70
         8
  0
SEQEND
  8
52176996
  6
CONTINUOUS
 62
         7
  5
202
  0
LINE
  8
52176996
  6
CONTINUOUS
 62
         7
  5
203
 10
498.3356172777
 20
493.0462992155
 30
0.0
 11
498.3356172777
 21
494.5462992155
 31
0.0
  0
LINE
  8
52176996
  6
CONTINUOUS
 62
         7
  5
204
 10
515.3356172777
 20
10.5462992155
 30
0.0
 11
515.3356172777
 21
454.5462992155
 31
0.0
  0
LINE
  8
52176996
  6
CONTINUOUS
 62
         7
  5
205
 10
495.3356172777
 20
10.5462992155
 30
0.0
 11
495.3356172777
 21
454.5462992155
 31
0.0
  0
LINE
  8
52176996
  6
CONTINUOUS
 62
         7
  5
206
 10
512.3356172777
 20
493.0462992155
 30
0.0
 11
498.3356172777
 21
493.0462992155
 31
0.0
  0
LINE
  8
52176996
  6
CONTINUOUS
 62
         7
  5
207
 10
498.3356172777
 20
494.5462992155
 30
0.0
 11
498.3356172777
 21
503.0462992155
 31
0.0
  0
LINE
  8
52176996
  6
CONTINUOUS
 62
         7
  5
208
 10
512.3356172777
 20
503.0462992155
 30
0.0
 11
512.3356172777
 21
494.5462992155
 31
0.0
  0
LINE
  8
52176996
  6
CONTINUOUS
 62
         7
  5
209
 10
496.8356172777
 20
503.9123246193
 30
0.0
 11
498.3356172777
 21
503.0462992155
 31
0.0
  0
LINE
  8
52176996
  6
CONTINUOUS
 62
         7
  5
20A
 10
512.3356172777
 20
494.5462992155
 30
0.0
 11
512.3356172777
 21
493.0462992155
 31
0.0
  0
LINE
  8
52176996
  6
CONTINUOUS
 62
         7
  5
20B
 10
512.3356172777
 20
503.0462992155
 30
0.0
 11
513.8356172777
 21
503.9123246193
 31
0.0
  0
LINE
  8
52176996
  6
CONTINUOUS
 62
         7
  5
20C
 10
511.3356172777
 20
533.5462992155
 30
0.0
 11
512.1856172777
 21
533.5462992155
 31
0.0
  0
LINE
  8
52176996
  6
CONTINUOUS
 62
         7
  5
20D
 10
505.1977624522
 20
533.5462992155
 30
0.0
 11
499.4734721032
 21
533.5462992155
 31
0.0
  0
LINE
  8
52176996
  6
CONTINUOUS
 62
         7
  5
20E
 10
498.4856172777
 20
533.5462992155
 30
0.0
 11
499.3356172777
 21
533.5462992155
 31
0.0
  0
LINE
  8
52176996
  6
CONTINUOUS
 62
         7
  5
20F
 10
499.4734721032
 20
538.5462992155
 30
0.0
 11
499.3356172777
 21
538.5462992155
 31
0.0
  0
LINE
  8
52176996
  6
CONTINUOUS
 62
         7
  5
210
 10
511.3356172777
 20
538.5462992155
 30
0.0
 11
511.1977624522
 21
538.5462992155
 31
0.0
  0
LINE
  8
52176996
  6
CONTINUOUS
 62
         7
  5
211
 10
505.4734721032
 20
538.5462992155
 30
0.0
 11
505.1977624522
 21
538.5462992155
 31
0.0
  0
LINE
  8
52176996
  6
CONTINUOUS
 62
         7
  5
212
 10
498.3408440163
 20
454.5462992155
 30
0.0
 11
495.3356172777
 21
454.5462992155
 31
0.0
  0
LINE
  8
52176996
  6
CONTINUOUS
 62
         7
  5
213
 10
512.3356172777
 20
454.5462992155
 30
0.0
 11
512.3356172777
 21
493.0462992155
 31
0.0
  0
LINE
  8
52176996
  6
CONTINUOUS
 62
         7
  5
214
 10
509.3356172777
 20
538.5462992155
 30
0.0
 11
509.3356172777
 21
541.5462992155
 31
0.0
  0
LINE
  8
52176996
  6
CONTINUOUS
 62
         7
  5
215
 10
511.3356172777
 20
542.5462992155
 30
0.0
 11
511.3356172777
 21
544.0462992155
 31
0.0
  0
LINE
  8
52176996
  6
CONTINUOUS
 62
         7
  5
216
 10
512.0856172777
 20
541.5462992155
 30
0.0
 11
512.0856172777
 21
542.5462992155
 31
0.0
  0
LINE
  8
52176996
  6
CONTINUOUS
 62
         7
  5
217
 10
512.1856172777
 20
517.5462992155
 30
0.0
 11
512.1856172777
 21
533.5462992155
 31
0.0
  0
LINE
  8
52176996
  6
CONTINUOUS
 62
         7
  5
218
 10
498.4356172777
 20
544.9462992155
 30
0.0
 11
499.3356172777
 21
544.0462992155
 31
0.0
  0
LINE
  8
52176996
  6
CONTINUOUS
 62
         7
  5
219
 10
512.2356172777
 20
544.9462992155
 30
0.0
 11
512.2356172777
 21
550.5462992155
 31
0.0
  0
LINE
  8
52176996
  6
CONTINUOUS
 62
         7
  5
21A
 10
513.8356172777
 20
503.9123246193
 30
0.0
 11
513.8356172777
 21
517.5462992155
 31
0.0
  0
ENDBLK
  8
52176996
  6
CONTINUOUS
 62
         7
  5
21B
  0
ENDSEC
  0
SECTION
  2
ENTITIES
  0
INSERT
  8
0
 62
         0
 48
0.0
  5
47
  2
SE1
 10
0.0
 20
0.0
 30
0.0
  0
INSERT
  8
0
 62
         0
 48
0.0
  5
4B
  2
SE0
 10
0.0
 20
0.0
 30
0.0
  0
INSERT
  8
0
 62
         0
 48
0.0
  5
4E
  2
SE3
 10
0.0
 20
0.0
 30
0.0
  0
INSERT
  8
0
 62
         0
 48
0.0
  5
52
  2
SE2
 10
0.0
 20
0.0
 30
0.0
  0
INSERT
  8
0
 62
         0
 48
0.0
  5
55
  2
SE5
 10
0.0
 20
0.0
 30
0.0
  0
INSERT
  8
0
 62
         0
 48
0.0
  5
59
  2
SE4
 10
0.0
 20
0.0
 30
0.0
  0
INSERT
  8
0
 62
         0
 48
0.0
  5
5C
  2
SE7
 10
0.0
 20
0.0
 30
0.0
  0
INSERT
  8
0
 62
         0
 48
0.0
  5
60
  2
SE6
 10
0.0
 20
0.0
 30
0.0
  0
ENDSEC
  0
EOF
