  0
SECTION
  2
HEADER
  9
$ACADVER
  1
AC1015
  9
$ACADMAINTVER
 70
         6
  9
$DWGCODEPAGE
  3
ANSI_1252
  9
$INSBASE
 10
0.0
 20
0.0
 30
0.0
  9
$EXTMIN
 10
0.0
 20
0.0
 30
0.0
  9
$EXTMAX
 10
841.0
 20
594.0
 30
0.0
  9
$LIMMIN
 10
0.0
 20
0.0
  9
$LIMMAX
 10
841.0
 20
594.0
  9
$ORTHOMODE
 70
         0
  9
$REGENMODE
 70
         1
  9
$FILLMODE
 70
         1
  9
$QTEXTMODE
 70
         0
  9
$MIRRTEXT
 70
         1
  9
$LTSCALE
 40
25.4
  9
$ATTMODE
 70
         1
  9
$TEXTSIZE
 40
0.2
  9
$TRACEWID
 40
0.05
  9
$TEXTSTYLE
  7
Standard
  9
$CLAYER
  8
0
  9
$CELTYPE
  6
CONTINUOUS
  9
$CECOLOR
 62
       256
  9
$CELTSCALE
 40
1.0
  9
$DISPSILH
 70
         0
  9
$DIMSCALE
 40
1.0
  9
$DIMASZ
 40
0.18
  9
$DIMEXO
 40
0.0625
  9
$DIMDLI
 40
0.38
  9
$DIMRND
 40
0.0
  9
$DIMDLE
 40
0.0
  9
$DIMEXE
 40
0.18
  9
$DIMTP
 40
0.0
  9
$DIMTM
 40
0.0
  9
$DIMTXT
 40
0.18
  9
$DIMCEN
 40
0.09
  9
$DIMTSZ
 40
0.0
  9
$DIMTOL
 70
         0
  9
$DIMLIM
 70
         0
  9
$DIMTIH
 70
         1
  9
$DIMTOH
 70
         1
  9
$DIMSE1
 70
         0
  9
$DIMSE2
 70
         0
  9
$DIMTAD
 70
         0
  9
$DIMZIN
 70
         0
  9
$DIMBLK
  1

  9
$DIMASO
 70
         1
  9
$DIMSHO
 70
         1
  9
$DIMPOST
  1

  9
$DIMAPOST
  1

  9
$DIMALT
 70
         0
  9
$DIMALTD
 70
         2
  9
$DIMALTF
 40
25.4
  9
$DIMLFAC
 40
1.0
  9
$DIMTOFL
 70
         0
  9
$DIMTVP
 40
0.0
  9
$DIMTIX
 70
         0
  9
$DIMSOXD
 70
         0
  9
$DIMSAH
 70
         0
  9
$DIMBLK1
  1

  9
$DIMBLK2
  1

  9
$DIMSTYLE
  2
Standard
  9
$DIMCLRD
 70
         0
  9
$DIMCLRE
 70
         0
  9
$DIMCLRT
 70
         0
  9
$DIMTFAC
 40
1.0
  9
$DIMGAP
 40
0.09
  9
$DIMJUST
 70
         0
  9
$DIMSD1
 70
         0
  9
$DIMSD2
 70
         0
  9
$DIMTOLJ
 70
         1
  9
$DIMTZIN
 70
         0
  9
$DIMALTZ
 70
         0
  9
$DIMALTTZ
 70
         0
  9
$DIMUPT
 70
         0
  9
$DIMDEC
 70
         4
  9
$DIMTDEC
 70
         4
  9
$DIMALTU
 70
         2
  9
$DIMALTTD
 70
         2
  9
$DIMTXSTY
  7
Standard
  9
$DIMAUNIT
 70
         0
  9
$DIMADEC
 70
         0
  9
$DIMALTRND
 40
0.0
  9
$DIMAZIN
 70
         0
  9
$DIMDSEP
 70
         0
  9
$DIMATFIT
 70
         3
  9
$DIMFRAC
 70
         0
  9
$DIMLDRBLK
  1

  9
$DIMLUNIT
 70
         2
  9
$DIMLWD
 70
         0
  9
$DIMLWE
 70
         0
  9
$DIMTMOVE
 70
         0
  9
$LUNITS
 70
         2
  9
$LUPREC
 70
         4
  9
$SKETCHINC
 40
0.1
  9
$FILLETRAD
 40
0.0
  9
$AUNITS
 70
         0
  9
$AUPREC
 70
         0
  9
$MENU
  1
acad
  9
$ELEVATION
 40
0.0
  9
$PELEVATION
 40
0.0
  9
$THICKNESS
 40
0.0
  9
$LIMCHECK
 70
         0
  9
$CHAMFERA
 40
0.0
  9
$CHAMFERB
 40
0.0
  9
$CHAMFERC
 40
0.0
  9
$CHAMFERD
 40
0.0
  9
$SKPOLY
 70
         0
  9
$TDCREATE
 40
0.000000000
  9
$TDUCREATE
 40
0.000000000
  9
$TDUPDATE
 40
0.000000000
  9
$TDUUPDATE
 40
0.000000000
  9
$TDINDWG
 40
0.0000000000
  9
$TDUSRTIMER
 40
0.0000000000
  9
$USRTIMER
 70
         1
  9
$ANGBASE
 50
0.0
  9
$ANGDIR
 70
         0
  9
$PDMODE
 70
         0
  9
$PDSIZE
 40
0.0
  9
$PLINEWID
 40
0.0
  9
$SPLFRAME
 70
         0
  9
$SPLINETYPE
 70
         6
  9
$SPLINESEGS
 70
         8
  9
$HANDSEED
  5
1B9
  9
$SURFTAB1
 70
         6
  9
$SURFTAB2
 70
         6
  9
$SURFTYPE
 70
         6
  9
$SURFU
 70
         6
  9
$SURFV
 70
         6
  9
$UCSBASE
  2

  9
$UCSNAME
  2

  9
$UCSORG
 10
0.0
 20
0.0
 30
0.0
  9
$UCSXDIR
 10
1.0
 20
0.0
 30
0.0
  9
$UCSYDIR
 10
0.0
 20
1.0
 30
0.0
  9
$UCSORTHOREF
  2

  9
$UCSORTHOVIEW
 70
         0
  9
$UCSORGTOP
 10
0.0
 20
0.0
 30
0.0
  9
$UCSORGBOTTOM
 10
0.0
 20
0.0
 30
0.0
  9
$UCSORGLEFT
 10
0.0
 20
0.0
 30
0.0
  9
$UCSORGRIGHT
 10
0.0
 20
0.0
 30
0.0
  9
$UCSORGFRONT
 10
0.0
 20
0.0
 30
0.0
  9
$UCSORGBACK
 10
0.0
 20
0.0
 30
0.0
  9
$PUCSBASE
  2

  9
$PUCSNAME
  2

  9
$PUCSORG
 10
0.0
 20
0.0
 30
0.0
  9
$PUCSXDIR
 10
1.0
 20
0.0
 30
0.0
  9
$PUCSYDIR
 10
0.0
 20
1.0
 30
0.0
  9
$PUCSORTHOREF
  2

  9
$PUCSORTHOVIEW
 70
         0
  9
$PUCSORGTOP
 10
0.0
 20
0.0
 30
0.0
  9
$PUCSORGBOTTOM
 10
0.0
 20
0.0
 30
0.0
  9
$PUCSORGLEFT
 10
0.0
 20
0.0
 30
0.0
  9
$PUCSORGRIGHT
 10
0.0
 20
0.0
 30
0.0
  9
$PUCSORGFRONT
 10
0.0
 20
0.0
 30
0.0
  9
$PUCSORGBACK
 10
0.0
 20
0.0
 30
0.0
  9
$USERI1
 70
         0
  9
$USERI2
 70
         0
  9
$USERI3
 70
         0
  9
$USERI4
 70
         0
  9
$USERI5
 70
         0
  9
$USERR1
 40
0.0
  9
$USERR2
 40
0.0
  9
$USERR3
 40
0.0
  9
$USERR4
 40
0.0
  9
$USERR5
 40
0.0
  9
$WORLDVIEW
 70
         1
  9
$SHADEDGE
 70
         3
  9
$SHADEDIF
 70
        70
  9
$TILEMODE
 70
         1
  9
$MAXACTVP
 70
        16
  9
$PINSBASE
 10
0.0
 20
0.0
 30
0.0
  9
$PLIMCHECK
 70
         0
  9
$PEXTMIN
 10
1.0000000000E+20
 20
1.0000000000E+20
 30
1.0000000000E+20
  9
$PEXTMAX
 10
-1.0000000000E+20
 20
-1.0000000000E+20
 30
-1.0000000000E+20
  9
$PLIMMIN
 10
0.0
 20
0.0
  9
$PLIMMAX
 10
12.0
 20
9.0
  9
$UNITMODE
 70
         0
  9
$VISRETAIN
 70
         0
  9
$PLINEGEN
 70
         1
  9
$PSLTSCALE
 70
         0
  9
$TREEDEPTH
 70
      3020
  9
$CMLSTYLE
  2
Standard
  9
$CMLJUST
 70
         0
  9
$CMLSCALE
 40
1.0
  9
$PROXYGRAPHICS
 70
         0
  9
$MEASUREMENT
 70
         0
  9
$CELWEIGHT
370
         0
  9
$ENDCAPS
280
         0
  9
$JOINSTYLE
280
         0
  9
$LWDISPLAY
290
         0
  9
$INSUNITS
 70
         0
  9
$HYPERLINKBASE
  1

  9
$STYLESHEET
  1

  9
$XEDIT
290
         1
  9
$CEPSNTYPE
380
         0
  9
$PSTYLEMODE
290
         1
  9
$FINGERPRINTGUID
  2

  9
$VERSIONGUID
  2

  9
$EXTNAMES
290
         1
  9
$PSVPSCALE
 40
0.0
  0
ENDSEC
  0
SECTION
  2
CLASSES
  0
CLASS
  1
LWPOLYLINE
  2
AcDbPolyline
  3
AutoCAD 2000
 90
        0
280
         0
281
         1
  0
CLASS
  1
IMAGE
  2
AcDbRasterImage
  3
ISM
 90
      127
280
         0
281
         1
  0
CLASS
  1
OLE2FRAME
  2
AcDbOle2Frame
  3
AutoCAD 2000
 90
        0
280
         0
281
         1
  0
CLASS
  1
HATCH
  2
AcDbHatch
  3
AutoCAD 2000
 90
        0
280
         0
281
         1
  0
CLASS
  1
DICTIONARYVAR
  2
AcDbDictionaryVar
  3
AutoCAD 2000
 90
        0
280
         0
281
         0
  0
CLASS
  1
RASTERVARIABLES
  2
AcDbRasterVariables
  3
ISM
 90
        0
280
         0
281
         0
  0
CLASS
  1
IMAGEDEF
  2
AcDbRasterImageDef
  3
ISM
 90
        0
280
         0
281
         0
  0
CLASS
  1
IMAGEDEF_REACTOR
  2
AcDbRasterImageDefReactor
  3
ISM
 90
        1
280
         0
281
         0
  0
CLASS
  1
IDBUFFER
  2
AcDbIdBuffer
  3
AutoCAD 2000
 90
        0
280
         0
281
         0
  0
CLASS
  1
SPATIAL_FILTER
  2
AcDbSpatialFilter
  3
AutoCAD 2000
 90
        0
280
         0
281
         0
  0
CLASS
  1
XRECORD
  2
AcDbXrecord
  3
AutoCAD 2000
 90
        0
280
         0
281
         0
  0
CLASS
  1
SORTENTSTABLE
  2
AcDbSortentsTable
  3
AutoCAD 2000
 90
        0
280
         0
281
         0
  0
CLASS
  1
LAYER_INDEX
  2
AcDbLayerIndex
  3
AutoCAD 2000
 90
        0
280
         0
281
         0
  0
CLASS
  1
SPATIAL_INDEX
  2
AcDbSpatialIndex
  3
AutoCAD 2000
 90
        0
280
         0
281
         0
  0
CLASS
  1
OBJECT_PTR
  2
CAseDLPNTableRecord
  3
"ASE-LPNTableRecord"
 90
        1
280
         0
281
         0
  0
CLASS
  1
LAYOUT
  2
AcDbLayout
  3
AutoCAD 2000
 90
        0
280
         0
281
         0
  0
CLASS
  1
PLOTSETTINGS
  2
AcDbPlotSettings
  3
AutoCAD 2000
 90
        0
280
         0
281
         0
  0
CLASS
  1
ACDBDICTIONARYWDFLT
  2
AcDbDictionaryWithDefault
  3
AutoCAD 2000
 90
        0
280
         0
281
         0
  0
CLASS
  1
ACDBPLACEHOLDER
  2
AcDbPlaceHolder
  3
AutoCAD 2000
 90
        0
280
         0
281
         0
  0
CLASS
  1
VBA_PROJECT
  2
AcDbVbaProject
  3
acadvba
 90
        0
280
         0
281
         0
  0
CLASS
  1
WIPEOUT
  2
AcDbWipeout
  3
WipeOut|AutoCAD Express Tool|expresstools@autodesk.com
 90
      127
280
         0
281
         1
  0
CLASS
  1
WIPEOUTVARIABLES
  2
AcDbWipeoutVariables
  3
WipeOut|AutoCAD Express Tool|expresstools@autodesk.com
 90
        0
280
         0
281
         0
  0
CLASS
  1
RTEXT
  2
RText
  3
RText|AutoCAD Express Tool|expresstools@autodesk.com
 90
        0
280
         0
281
         1
  0
CLASS
  1
ARCALIGNEDTEXT
  2
AcDbArcAlignedText
  3
ATEXT|AutoCAD Express Tool|expresstools@autodesk.com
 90
        0
280
         0
281
         1
  0
ENDSEC
  0
SECTION
  2
TABLES
  0
TABLE
  2
VPORT
  5
7
100
AcDbSymbolTable
 70
         1
  0
VPORT
  5
15
100
AcDbSymbolTableRecord
100
AcDbViewportTableRecord
  2
*ACTIVE
 70
         0
 10
0.0
 20
0.0
 11
1.0
 21
1.0
 12
420.5
 22
297.0
 13
0.0
 23
0.0
 14
1.0
 24
1.0
 15
0.0
 25
0.0
 16
0.0
 26
0.0
 36
1.0
 17
0.0
 27
0.0
 37
0.0
 40
594.0
 41
1.604229
 42
50.0
 43
0.0
 44
0.0
 50
0.0
 51
0.0
 71
         0
 72
       100
 73
         1
 74
         1
 75
         0
 76
         0
 77
         0
 78
         0
281
         0
 65
         0
110
0.0
120
0.0
130
0.0
111
1.0
121
0.0
131
0.0
112
0.0
122
1.0
132
0.0
345
0
346
0
 79
         0
146
0.0
  0
ENDTAB
  0
TABLE
  2
LTYPE
  5
4
100
AcDbSymbolTable
 70
         7
  0
LTYPE
  5
11
100
AcDbSymbolTableRecord
100
AcDbLinetypeTableRecord
  2
ByBlock
 70
        64
  3

 72
        65
 73
         0
 40
0.0
  0
LTYPE
  5
12
100
AcDbSymbolTableRecord
100
AcDbLinetypeTableRecord
  2
ByLayer
 70
        64
  3

 72
        65
 73
         0
 40
0.0
  0
LTYPE
  5
13
100
AcDbSymbolTableRecord
100
AcDbLinetypeTableRecord
  2
CONTINUOUS
 70
         0
  3
Solid line
 72
        65
 73
         0
 40
0.0
  0
LTYPE
  5
28
100
AcDbSymbolTableRecord
100
AcDbLinetypeTableRecord
  2
HIDDEN2
 70
        64
  3
_ _ _ _ _ _ _ _ _ _ _ _ _ _ _ _ _ _ _ _ _ _ _ _
 72
        65
 73
         2
 40
0.1875
 49
0.125
 74
         0
 49
-0.0625
 74
         0
  0
LTYPE
  5
29
100
AcDbSymbolTableRecord
100
AcDbLinetypeTableRecord
  2
CENTER2
 70
        64
  3
___ _ ___ _ ___ _ ___ _ ___ _ ___ _ ___ _ ___ _
 72
        65
 73
         4
 40
1.125
 49
0.75
 74
         0
 49
-0.125
 74
         0
 49
0.125
 74
         0
 49
-0.125
 74
         0
  0
LTYPE
  5
2A
100
AcDbSymbolTableRecord
100
AcDbLinetypeTableRecord
  2
PHANTOM2
 70
        64
  3
___ _ _ ___ _ _ ___ _ _ ___ _ _ ___ _ _ ___ _ _
 72
        65
 73
         6
 40
1.25
 49
0.625
 74
         0
 49
-0.125
 74
         0
 49
0.125
 74
         0
 49
-0.125
 74
         0
 49
0.125
 74
         0
 49
-0.125
 74
         0
  0
LTYPE
  5
2B
100
AcDbSymbolTableRecord
100
AcDbLinetypeTableRecord
  2
DOT2
 70
        64
  3
...............................................
 72
        65
 73
         2
 40
0.125
 49
0.0
 74
         0
 49
-0.125
 74
         0
  0
ENDTAB
  0
TABLE
  2
LAYER
  5
2
100
AcDbSymbolTable
 70
         5
  0
LAYER
  5
14
100
AcDbSymbolTableRecord
100
AcDbLayerTableRecord
  2
0
 70
         0
 62
         7
  6
CONTINUOUS
290
         1
370
        -3
390
1D
  0
LAYER
  5
2D
100
AcDbSymbolTableRecord
100
AcDbLayerTableRecord
  2
DEFAULT
 70
         0
 62
         7
  6
CONTINUOUS
290
         1
370
        -3
390
0
  0
LAYER
  5
2F
100
AcDbSymbolTableRecord
100
AcDbLayerTableRecord
  2
04
 70
         0
 62
         7
  6
CONTINUOUS
290
         1
370
        -3
390
0
  0
LAYER
  5
31
100
AcDbSymbolTableRecord
100
AcDbLayerTableRecord
  2
20
 70
         0
 62
         7
  6
CONTINUOUS
290
         1
370
        -3
390
0
  0
LAYER
  5
44
100
AcDbSymbolTableRecord
100
AcDbLayerTableRecord
  2
52176993
 70
         0
 62
         7
  6
CONTINUOUS
290
         1
370
        -3
390
0
  0
ENDTAB
  0
TABLE
  2
STYLE
  5
3
100
AcDbSymbolTable
 70
         1
  0
STYLE
  5
17
100
AcDbSymbolTableRecord
100
AcDbTextStyleTableRecord
  2
Standard
 70
         0
 40
0.0
 41
1.0
 50
0.0
 71
         0
 42
0.2
  3
txt
  4

  0
ENDTAB
  0
TABLE
  2
VIEW
  5
5
100
AcDbSymbolTable
 70
         0
  0
ENDTAB
  0
TABLE
  2
UCS
  5
6
100
AcDbSymbolTable
 70
         0
  0
ENDTAB
  0
TABLE
  2
APPID
  5
8
100
AcDbSymbolTable
 70
         1
  0
APPID
  5
16
100
AcDbSymbolTableRecord
100
AcDbRegAppTableRecord
  2
ACAD
 70
         0
  0
ENDTAB
  0
TABLE
  2
DIMSTYLE
  5
9
100
AcDbSymbolTable
 70
         1
100
AcDbDimStyleTable
 71
         0
  0
DIMSTYLE
105
18
100
AcDbSymbolTableRecord
100
AcDbDimStyleTableRecord
  2
Standard
 70
         0
  3

  4

 40
1.0
 41
0.18
 42
0.0625
 43
0.38
 44
0.18
 45
0.0
 46
0.0
 47
0.0
 48
0.0
 71
         0
 72
         0
 73
         1
 74
         1
 75
         0
 76
         0
 77
         0
 78
         0
 79
         0
140
0.18
141
0.09
142
0.0
143
25.4
144
1.0
145
0.0
146
1.0
147
0.09
148
0.0
170
         0
171
         2
172
         0
173
         0
174
         0
175
         0
176
         0
177
         0
178
         0
179
         0
271
         4
272
         4
273
         2
274
         2
275
         0
276
         0
277
         2
278
        46
279
         0
280
         0
281
         0
282
         0
283
         1
284
         0
285
         0
286
         0
288
         0
289
         0
340
17
341
0
342
0
343
0
344
0
371
        -2
372
        -2
  0
ENDTAB
  0
TABLE
  2
BLOCK_RECORD
  5
1
100
AcDbSymbolTable
 70
         8
  0
BLOCK_RECORD
  5
A
100
AcDbSymbolTableRecord
100
AcDbBlockTableRecord
  2
*MODEL_SPACE
340
20
  0
BLOCK_RECORD
  5
B
100
AcDbSymbolTableRecord
100
AcDbBlockTableRecord
  2
*PAPER_SPACE
340
21
  0
BLOCK_RECORD
  5
45
100
AcDbSymbolTableRecord
100
AcDbBlockTableRecord
  2
SE0
340
0
102
{BLKREFS
331
4B
102
}
  0
BLOCK_RECORD
  5
46
100
AcDbSymbolTableRecord
100
AcDbBlockTableRecord
  2
SE1
340
0
102
{BLKREFS
331
47
102
}
  0
BLOCK_RECORD
  5
4C
100
AcDbSymbolTableRecord
100
AcDbBlockTableRecord
  2
SE2
340
0
102
{BLKREFS
331
52
102
}
  0
BLOCK_RECORD
  5
4D
100
AcDbSymbolTableRecord
100
AcDbBlockTableRecord
  2
SE3
340
0
102
{BLKREFS
331
4E
102
}
  0
BLOCK_RECORD
  5
53
100
AcDbSymbolTableRecord
100
AcDbBlockTableRecord
  2
SE4
340
0
102
{BLKREFS
331
59
102
}
  0
BLOCK_RECORD
  5
54
100
AcDbSymbolTableRecord
100
AcDbBlockTableRecord
  2
SE5
340
0
102
{BLKREFS
331
55
102
}
  0
BLOCK_RECORD
  5
5A
100
AcDbSymbolTableRecord
100
AcDbBlockTableRecord
  2
SE6
340
0
102
{BLKREFS
331
60
102
}
  0
BLOCK_RECORD
  5
5B
100
AcDbSymbolTableRecord
100
AcDbBlockTableRecord
  2
SE7
340
0
102
{BLKREFS
331
5C
102
}
  0
ENDTAB
  0
ENDSEC
  0
SECTION
  2
BLOCKS
  0
BLOCK
  5
D
100
AcDbEntity
  8
0
390
0
100
AcDbBlockBegin
  2
*MODEL_SPACE
 70
         0
 10
0.0
 20
0.0
 30
0.0
  3
*MODEL_SPACE
  1

  0
ENDBLK
  5
E
100
AcDbEntity
  8
0
390
0
100
AcDbBlockEnd
  0
BLOCK
  5
F
100
AcDbEntity
 67
         1
  8
0
390
0
100
AcDbBlockBegin
  2
*PAPER_SPACE
 70
         0
 10
0.0
 20
0.0
 30
0.0
  3
*PAPER_SPACE
  1

  0
ENDBLK
  5
10
100
AcDbEntity
 67
         1
  8
0
390
0
100
AcDbBlockEnd
  0
BLOCK
  5
C6
100
AcDbEntity
  8
0
370
         0
390
0
 62
         1
 48
0.0
100
AcDbBlockBegin
  2
SE0
 70
         0
 10
0.0
 20
0.0
 30
0.0
  3
SE0
  1

  0
ENDBLK
  5
C7
100
AcDbEntity
  8
0
370
         0
390
0
 62
         1
 48
0.0
100
AcDbBlockEnd
  0
BLOCK
  5
61
100
AcDbEntity
  8
0
370
         0
390
0
 62
         1
 48
0.0
100
AcDbBlockBegin
  2
SE1
 70
         0
 10
0.0
 20
0.0
 30
0.0
  3
SE1
  1

  0
LINE
  5
62
100
AcDbEntity
  8
52176993
370
         0
390
0
  6
CONTINUOUS
 62
         7
100
AcDbLine
 10
26.4194764681
 20
373.8150164789
 30
0.0
 11
26.4194764681
 21
372.3150164789
 31
0.0
  0
LINE
  5
63
100
AcDbEntity
  8
52176993
370
         0
390
0
  6
CONTINUOUS
 62
         7
100
AcDbLine
 10
25.4194764681
 20
322.8150164789
 30
0.0
 11
25.4194764681
 21
284.3150164789
 31
0.0
  0
LINE
  5
64
100
AcDbEntity
  8
52176993
370
         0
390
0
  6
CONTINUOUS
 62
         7
100
AcDbLine
 10
38.4194764681
 20
373.8150164789
 30
0.0
 11
39.3194764681
 21
374.7150164789
 31
0.0
  0
LINE
  5
65
100
AcDbEntity
  8
52176993
370
         0
390
0
  6
CONTINUOUS
 62
         7
100
AcDbLine
 10
25.5194764681
 20
380.3150164789
 30
0.0
 11
25.5194764681
 21
374.7150164789
 31
0.0
  0
LINE
  5
66
100
AcDbEntity
  8
52176993
370
         0
390
0
  6
CONTINUOUS
 62
         7
100
AcDbLine
 10
25.6694764681
 20
372.3150164789
 30
0.0
 11
25.6694764681
 21
371.3150164789
 31
0.0
  0
LINE
  5
67
100
AcDbEntity
  8
52176993
370
         0
390
0
  6
CONTINUOUS
 62
         7
100
AcDbLine
 10
39.2680891777
 20
368.3150164789
 30
0.0
 11
35.9631686038
 21
368.3150164789
 31
0.0
  0
LINE
  5
68
100
AcDbEntity
  8
52176993
370
         0
390
0
  6
CONTINUOUS
 62
         7
100
AcDbLine
 10
28.4194764681
 20
371.3150164789
 30
0.0
 11
28.4194764681
 21
368.3150164789
 31
0.0
  0
LINE
  5
69
100
AcDbEntity
  8
52176993
370
         0
390
0
  6
CONTINUOUS
 62
         7
100
AcDbLine
 10
39.2694764681
 20
368.3150164789
 30
0.0
 11
39.2680891777
 21
368.3150164789
 31
0.0
  0
LINE
  5
6A
100
AcDbEntity
  8
52176993
370
         0
390
0
  6
CONTINUOUS
 62
         7
100
AcDbLine
 10
39.4194764681
 20
324.3150164789
 30
0.0
 11
39.4194764681
 21
322.8150164789
 31
0.0
  0
LINE
  5
6B
100
AcDbEntity
  8
52176993
370
         0
390
0
  6
CONTINUOUS
 62
         7
100
AcDbLine
 10
41.4194764681
 20
11.3150164789
 30
0.0
 11
41.4194764681
 21
284.3150164789
 31
0.0
  0
LINE
  5
6C
100
AcDbEntity
  8
52176993
370
         0
390
0
  6
CONTINUOUS
 62
         7
100
AcDbLine
 10
39.4194764681
 20
322.8150164789
 30
0.0
 11
25.4194764681
 21
322.8150164789
 31
0.0
  0
LINE
  5
6D
100
AcDbEntity
  8
52176993
370
         0
390
0
  6
CONTINUOUS
 62
         7
100
AcDbLine
 10
23.4194764681
 20
11.3150164789
 30
0.0
 11
23.4194764681
 21
284.3150164789
 31
0.0
  0
LINE
  5
6E
100
AcDbEntity
  8
52176993
370
         0
390
0
  6
CONTINUOUS
 62
         7
100
AcDbLine
 10
25.5194764681
 20
374.7150164789
 30
0.0
 11
26.4194764681
 21
373.8150164789
 31
0.0
  0
LINE
  5
6F
100
AcDbEntity
  8
52176993
370
         0
390
0
  6
CONTINUOUS
 62
         7
100
AcDbLine
 10
39.1694764681
 20
371.3150164789
 30
0.0
 11
39.1694764681
 21
372.3150164789
 31
0.0
  0
LINE
  5
70
100
AcDbEntity
  8
52176993
370
         0
390
0
  6
CONTINUOUS
 62
         7
100
AcDbLine
 10
38.4194764681
 20
372.3150164789
 30
0.0
 11
38.4194764681
 21
373.8150164789
 31
0.0
  0
LINE
  5
71
100
AcDbEntity
  8
52176993
370
         0
390
0
  6
CONTINUOUS
 62
         7
100
AcDbLine
 10
40.9194764681
 20
333.6810418827
 30
0.0
 11
40.9194764681
 21
347.3150164789
 31
0.0
  0
ELLIPSE
  5
72
100
AcDbEntity
  8
52176993
370
         0
390
0
  6
CONTINUOUS
 62
         7
100
AcDbEllipse
 10
41.6540989126
 20
147.8150183255
 30
0.0
 11
126.00966708003416
 21
126.12669108852026
 31
0.0
210
0.0
220
0.0
230
1.0
 40
0.414213433
 41
1.2234898661690938
 42
1.2366291270194476
  0
LINE
  5
73
100
AcDbEntity
  8
52176993
370
         0
390
0
  6
CONTINUOUS
 62
         7
100
AcDbLine
 10
36.4194764681
 20
368.3150164789
 30
0.0
 11
36.4194764681
 21
371.3150164789
 31
0.0
  0
LINE
  5
74
100
AcDbEntity
  8
52176993
370
         0
390
0
  6
CONTINUOUS
 62
         7
100
AcDbLine
 10
39.3194764681
 20
374.7150164789
 30
0.0
 11
39.3194764681
 21
380.3150164789
 31
0.0
  0
LINE
  5
75
100
AcDbEntity
  8
52176993
370
         0
390
0
  6
CONTINUOUS
 62
         7
100
AcDbLine
 10
39.4194764681
 20
324.3150164789
 30
0.0
 11
25.4194764681
 21
324.3150164789
 31
0.0
  0
LINE
  5
76
100
AcDbEntity
  8
52176993
370
         0
390
0
  6
CONTINUOUS
 62
         7
100
AcDbLine
 10
25.4194764681
 20
332.8150164789
 30
0.0
 11
23.9194764681
 21
333.6810418827
 31
0.0
  0
ARC
  5
77
100
AcDbEntity
  8
52176993
370
         0
390
0
  6
CONTINUOUS
 62
         7
100
AcDbCircle
 10
32.4194764678
 20
420.6402252024
 30
0.0
 40
136.5048077304
100
AcDbArc
 50
267.0605691357
 51
272.9394306769
  0
LINE
  5
78
100
AcDbEntity
  8
52176993
370
         0
390
0
  6
CONTINUOUS
 62
         7
100
AcDbLine
 10
29.4194764681
 20
247.8951396447
 30
0.0
 11
33.7646326354
 21
247.8951396447
 31
0.0
  0
LINE
  5
79
100
AcDbEntity
  8
52176993
370
         0
390
0
  6
CONTINUOUS
 62
         7
100
AcDbLine
 10
33.7646326354
 20
247.8951396447
 30
0.0
 11
33.7646326354
 21
247.2323743941
 31
0.0
  0
LINE
  5
7A
100
AcDbEntity
  8
52176993
370
         0
390
0
  6
CONTINUOUS
 62
         7
100
AcDbLine
 10
29.4194764681
 20
247.7716480619
 30
0.0
 11
29.4194764681
 21
247.8951396447
 31
0.0
  0
LINE
  5
7B
100
AcDbEntity
  8
52176993
370
         0
390
0
  6
CONTINUOUS
 62
         7
100
AcDbLine
 10
35.4194764681
 20
246.8936962877
 30
0.0
 11
35.4194764681
 21
249.6634803034
 31
0.0
  0
LINE
  5
7C
100
AcDbEntity
  8
52176993
370
         0
390
0
  6
CONTINUOUS
 62
         7
100
AcDbLine
 10
30.9663266534
 20
246.2059594355
 30
0.0
 11
30.9663266534
 21
245.3908319719
 31
0.0
  0
LINE
  5
7D
100
AcDbEntity
  8
52176993
370
         0
390
0
  6
CONTINUOUS
 62
         7
100
AcDbLine
 10
33.7646326354
 20
249.1057598176
 30
0.0
 11
29.4194764681
 21
249.1057598176
 31
0.0
  0
SPLINE
  5
7E
100
AcDbEntity
  8
52176993
370
         0
390
0
  6
CONTINUOUS
 62
         7
100
AcDbSpline
210
0.0
220
0.0
230
1.0
 70
        12
 71
         2
 72
         6
 73
         3
 74
         0
 42
0.0
 43
0.0
 40
0.0
 40
0.0
 40
0.0
 40
1.0
 40
1.0
 40
1.0
 10
33.76463263534788
 20
247.23237439405275
 30
0.0
 41
1.0
 10
34.592014101410797
 20
247.06335740914596
 30
0.0
 41
1.0
 10
35.419476468068851
 20
246.89369628769046
 30
0.0
 41
1.0
  0
SPLINE
  5
7F
100
AcDbEntity
  8
52176993
370
         0
390
0
  6
CONTINUOUS
 62
         7
100
AcDbSpline
210
0.0
220
0.0
230
1.0
 70
        12
 71
         2
 72
         6
 73
         3
 74
         0
 42
0.0
 43
0.0
 40
0.0
 40
0.0
 40
0.0
 40
1.0
 40
1.0
 40
1.0
 10
35.419476468060388
 20
249.66348030338153
 30
0.0
 41
1.0
 10
34.591970501045189
 20
249.82581744983318
 30
0.0
 41
1.0
 10
33.764632635349528
 20
249.98750788261844
 30
0.0
 41
1.0
  0
LINE
  5
80
100
AcDbEntity
  8
52176993
370
         0
390
0
  6
CONTINUOUS
 62
         7
100
AcDbLine
 10
33.7646326354
 20
249.9875078827
 30
0.0
 11
33.7646326354
 21
249.1057598176
 31
0.0
  0
LINE
  5
81
100
AcDbEntity
  8
52176993
370
         0
390
0
  6
CONTINUOUS
 62
         7
100
AcDbLine
 10
35.4194764681
 20
246.7522294836
 30
0.0
 11
35.4194764681
 21
246.8936962877
 31
0.0
  0
LINE
  5
82
100
AcDbEntity
  8
52176993
370
         0
390
0
  6
CONTINUOUS
 62
         7
100
AcDbLine
 10
33.6296069182
 20
238.4900446531
 30
0.0
 11
33.6296069182
 21
238.6317109813
 31
0.0
  0
LINE
  5
83
100
AcDbEntity
  8
52176993
370
         0
390
0
  6
CONTINUOUS
 62
         7
100
AcDbLine
 10
32.719234252
 20
241.2803587671
 30
0.0
 11
32.719234252
 21
240.3601787242
 31
0.0
  0
LINE
  5
84
100
AcDbEntity
  8
52176993
370
         0
390
0
  6
CONTINUOUS
 62
         7
100
AcDbLine
 10
33.6296069182
 20
241.280358767
 30
0.0
 11
32.719234252
 21
241.2803587671
 31
0.0
  0
LINE
  5
85
100
AcDbEntity
  8
52176993
370
         0
390
0
  6
CONTINUOUS
 62
         7
100
AcDbLine
 10
32.719234252
 20
239.5677408307
 30
0.0
 11
32.719234252
 21
238.6317109813
 31
0.0
  0
LINE
  5
86
100
AcDbEntity
  8
52176993
370
         0
390
0
  6
CONTINUOUS
 62
         7
100
AcDbLine
 10
32.719234252
 20
238.4900446531
 30
0.0
 11
32.719234252
 21
238.6317109813
 31
0.0
  0
ELLIPSE
  5
87
100
AcDbEntity
  8
52176993
370
         0
390
0
  6
CONTINUOUS
 62
         7
100
AcDbEllipse
 10
29.1848542924
 20
147.8150233739
 30
0.0
 11
-126.1942939123094
 21
126.31148714114454
 31
0.0
210
0.0
220
0.0
230
1.0
 40
0.4142134245
 41
5.059762366944982
 42
5.0728744919303024
  0
ELLIPSE
  5
88
100
AcDbEntity
  8
52176993
370
         0
390
0
  6
CONTINUOUS
 62
         7
100
AcDbEllipse
 10
41.6541021943
 20
147.8149757583
 30
0.0
 11
126.19431999449071
 21
126.31153401935403
 31
0.0
210
0.0
220
0.0
230
1.0
 40
0.4142135077
 41
1.22342282510542
 42
1.2365428065853856
  0
LINE
  5
89
100
AcDbEntity
  8
52176993
370
         0
390
0
  6
CONTINUOUS
 62
         7
100
AcDbLine
 10
29.4194764681
 20
249.1057598176
 30
0.0
 11
29.4194764681
 21
247.8951396447
 31
0.0
  0
LINE
  5
8A
100
AcDbEntity
  8
52176993
370
         0
390
0
  6
CONTINUOUS
 62
         7
100
AcDbLine
 10
33.7646326354
 20
247.0908937371
 30
0.0
 11
33.7646326354
 21
247.2323743941
 31
0.0
  0
LINE
  5
8B
100
AcDbEntity
  8
52176993
370
         0
390
0
  6
CONTINUOUS
 62
         7
100
AcDbLine
 10
35.724397042
 20
368.3150164789
 30
0.0
 11
29.1145558941
 21
368.3150164789
 31
0.0
  0
LINE
  5
8C
100
AcDbEntity
  8
52176993
370
         0
390
0
  6
CONTINUOUS
 62
         7
100
AcDbLine
 10
35.9631686038
 20
368.3150164789
 30
0.0
 11
35.724397042
 21
368.3150164789
 31
0.0
  0
LINE
  5
8D
100
AcDbEntity
  8
52176993
370
         0
390
0
  6
CONTINUOUS
 62
         7
100
AcDbLine
 10
29.1145558941
 20
368.3150164789
 30
0.0
 11
29.1145558941
 21
363.3150164789
 31
0.0
  0
LINE
  5
8E
100
AcDbEntity
  8
52176993
370
         0
390
0
  6
CONTINUOUS
 62
         7
100
AcDbLine
 10
29.1145558941
 20
368.3150164789
 30
0.0
 11
28.8757843323
 21
368.3150164789
 31
0.0
  0
LINE
  5
8F
100
AcDbEntity
  8
52176993
370
         0
390
0
  6
CONTINUOUS
 62
         7
100
AcDbLine
 10
25.5694764681
 20
368.3150164789
 30
0.0
 11
25.5708637584
 21
368.3150164789
 31
0.0
  0
LINE
  5
90
100
AcDbEntity
  8
52176993
370
         0
390
0
  6
CONTINUOUS
 62
         7
100
AcDbLine
 10
28.8757843323
 20
368.3150164789
 30
0.0
 11
25.5708637584
 21
368.3150164789
 31
0.0
  0
LINE
  5
91
100
AcDbEntity
  8
52176993
370
         0
390
0
  6
CONTINUOUS
 62
         7
100
AcDbLine
 10
28.8757843323
 20
363.3150164789
 30
0.0
 11
25.5708637584
 21
363.3150164789
 31
0.0
  0
CIRCLE
  5
92
100
AcDbEntity
  8
52176993
370
         0
390
0
  6
CONTINUOUS
 62
         7
100
AcDbCircle
 10
32.4194764681
 20
147.8150164789
 30
0.0
 40
6.9
  0
LINE
  5
93
100
AcDbEntity
  8
52176993
370
         0
390
0
  6
CONTINUOUS
 62
         7
100
AcDbLine
 10
23.4194764681
 20
11.3150164789
 30
0.0
 11
41.4194764681
 21
11.3150164789
 31
0.0
  0
LINE
  5
94
100
AcDbEntity
  8
52176993
370
         0
390
0
  6
CONTINUOUS
 62
         7
100
AcDbLine
 10
39.2680891777
 20
363.3150164789
 30
0.0
 11
35.9631686038
 21
363.3150164789
 31
0.0
  0
LINE
  5
95
100
AcDbEntity
  8
52176993
370
         0
390
0
  6
CONTINUOUS
 62
         7
100
AcDbLine
 10
35.724397042
 20
363.3150164789
 30
0.0
 11
29.1145558941
 21
363.3150164789
 31
0.0
  0
LINE
  5
96
100
AcDbEntity
  8
52176993
370
         0
390
0
  6
CONTINUOUS
 62
         7
100
AcDbLine
 10
40.9194764681
 20
347.3150164789
 30
0.0
 11
23.9194764681
 21
347.3150164789
 31
0.0
  0
LINE
  5
97
100
AcDbEntity
  8
52176993
370
         0
390
0
  6
CONTINUOUS
 62
         7
100
AcDbLine
 10
39.4194764681
 20
332.8150164789
 30
0.0
 11
39.4194764681
 21
324.3150164789
 31
0.0
  0
LINE
  5
98
100
AcDbEntity
  8
52176993
370
         0
390
0
  6
CONTINUOUS
 62
         7
100
AcDbLine
 10
25.4194764681
 20
324.3150164789
 30
0.0
 11
25.4194764681
 21
332.8150164789
 31
0.0
  0
LINE
  5
99
100
AcDbEntity
  8
52176993
370
         0
390
0
  6
CONTINUOUS
 62
         7
100
AcDbLine
 10
28.8757843323
 20
363.3150164789
 30
0.0
 11
28.8757843323
 21
368.3150164789
 31
0.0
  0
LINE
  5
9A
100
AcDbEntity
  8
52176993
370
         0
390
0
  6
CONTINUOUS
 62
         7
100
AcDbLine
 10
39.2680891777
 20
363.3150164789
 30
0.0
 11
39.2680891777
 21
368.3150164789
 31
0.0
  0
LINE
  5
9B
100
AcDbEntity
  8
52176993
370
         0
390
0
  6
CONTINUOUS
 62
         7
100
AcDbLine
 10
39.2694764681
 20
347.3150164789
 30
0.0
 11
39.2694764681
 21
368.3150164789
 31
0.0
  0
LINE
  5
9C
100
AcDbEntity
  8
52176993
370
         0
390
0
  6
CONTINUOUS
 62
         7
100
AcDbLine
 10
35.9631686038
 20
368.3150164789
 30
0.0
 11
35.9631686038
 21
363.3150164789
 31
0.0
  0
LINE
  5
9D
100
AcDbEntity
  8
52176993
370
         0
390
0
  6
CONTINUOUS
 62
         7
100
AcDbLine
 10
35.724397042
 20
363.3150164789
 30
0.0
 11
35.724397042
 21
368.3150164789
 31
0.0
  0
LINE
  5
9E
100
AcDbEntity
  8
52176993
370
         0
390
0
  6
CONTINUOUS
 62
         7
100
AcDbLine
 10
25.5708637584
 20
368.3150164789
 30
0.0
 11
25.5708637584
 21
363.3150164789
 31
0.0
  0
LINE
  5
9F
100
AcDbEntity
  8
52176993
370
         0
390
0
  6
CONTINUOUS
 62
         7
100
AcDbLine
 10
39.3194764681
 20
380.3150164789
 30
0.0
 11
25.5194764681
 21
380.3150164789
 31
0.0
  0
LINE
  5
A0
100
AcDbEntity
  8
52176993
370
         0
390
0
  6
CONTINUOUS
 62
         7
100
AcDbLine
 10
39.1694764681
 20
372.3150164789
 30
0.0
 11
25.6694764681
 21
372.3150164789
 31
0.0
  0
LINE
  5
A1
100
AcDbEntity
  8
52176993
370
         0
390
0
  6
CONTINUOUS
 62
         7
100
AcDbLine
 10
39.1694764681
 20
371.3150164789
 30
0.0
 11
25.6694764681
 21
371.3150164789
 31
0.0
  0
LINE
  5
A2
100
AcDbEntity
  8
52176993
370
         0
390
0
  6
CONTINUOUS
 62
         7
100
AcDbLine
 10
38.4194764681
 20
373.8150164789
 30
0.0
 11
26.4194764681
 21
373.8150164789
 31
0.0
  0
LINE
  5
A3
100
AcDbEntity
  8
52176993
370
         0
390
0
  6
CONTINUOUS
 62
         7
100
AcDbLine
 10
39.3194764681
 20
374.7150164789
 30
0.0
 11
25.5194764681
 21
374.7150164789
 31
0.0
  0
ELLIPSE
  5
A4
100
AcDbEntity
  8
52176993
370
         0
390
0
  6
CONTINUOUS
 62
         7
100
AcDbEllipse
 10
41.3967764447
 20
147.8182314597
 30
0.0
 11
-577.49226808062474
 21
99.324678698930725
 31
0.0
210
0.0
220
0.0
230
1.0
 40
0.1626305629
 41
4.7532728314495261
 42
4.758408567938428
  0
ELLIPSE
  5
A5
100
AcDbEntity
  8
52176993
370
         0
390
0
  6
CONTINUOUS
 62
         7
100
AcDbEllipse
 10
26.5297998583
 20
147.8146435583
 30
0.0
 11
572.78052007941801
 21
99.369963359368256
 31
0.0
210
0.0
220
0.0
230
1.0
 40
0.1638943536
 41
1.5294503326761346
 42
1.5373274676230599
  0
LINE
  5
A6
100
AcDbEntity
  8
52176993
370
         0
390
0
  6
CONTINUOUS
 62
         7
100
AcDbLine
 10
29.4194764681
 20
243.6193588002
 30
0.0
 11
29.4194764681
 21
244.9627420242
 31
0.0
  0
ELLIPSE
  5
A7
100
AcDbEntity
  8
52176993
370
         0
390
0
  6
CONTINUOUS
 62
         7
100
AcDbEllipse
 10
33.4832571872
 20
147.8150869704
 30
0.0
 11
459.85106577050345
 21
100.81829834892291
 31
0.0
210
0.0
220
0.0
230
1.0
 40
0.200755445
 41
1.5226043755923577
 42
1.5356395856040193
  0
ELLIPSE
  5
A8
100
AcDbEntity
  8
52176993
370
         0
390
0
  6
CONTINUOUS
 62
         7
100
AcDbEllipse
 10
45.3877870837
 20
147.8149648242
 30
0.0
 11
-459.85135295355542
 21
100.81836810805544
 31
0.0
210
0.0
220
0.0
230
1.0
 40
0.2007555698
 41
4.7780324584558747
 42
4.7910728022944227
  0
LINE
  5
A9
100
AcDbEntity
  8
52176993
370
         0
390
0
  6
CONTINUOUS
 62
         7
100
AcDbLine
 10
30.9663266534
 20
245.2494042188
 30
0.0
 11
30.9663266534
 21
245.3908319721
 31
0.0
  0
LINE
  5
AA
100
AcDbEntity
  8
52176993
370
         0
390
0
  6
CONTINUOUS
 62
         7
100
AcDbLine
 10
32.719234252
 20
240.3601787242
 30
0.0
 11
29.4194764681
 21
240.3601787242
 31
0.0
  0
LINE
  5
AB
100
AcDbEntity
  8
52176993
370
         0
390
0
  6
CONTINUOUS
 62
         7
100
AcDbLine
 10
29.4194764681
 20
240.3601787242
 30
0.0
 11
29.4194764681
 21
239.5677408307
 31
0.0
  0
LINE
  5
AC
100
AcDbEntity
  8
52176993
370
         0
390
0
  6
CONTINUOUS
 62
         7
100
AcDbLine
 10
29.4194764681
 20
239.5677408307
 30
0.0
 11
32.719234252
 21
239.5677408307
 31
0.0
  0
LINE
  5
AD
100
AcDbEntity
  8
52176993
370
         0
390
0
  6
CONTINUOUS
 62
         7
100
AcDbLine
 10
29.4194764681
 20
239.4261452578
 30
0.0
 11
29.4194764681
 21
239.5677408307
 31
0.0
  0
LINE
  5
AE
100
AcDbEntity
  8
52176993
370
         0
390
0
  6
CONTINUOUS
 62
         7
100
AcDbLine
 10
35.4194764681
 20
239.8227887278
 30
0.0
 11
35.4194764681
 21
239.9643578092
 31
0.0
  0
LINE
  5
AF
100
AcDbEntity
  8
52176993
370
         0
390
0
  6
CONTINUOUS
 62
         7
100
AcDbLine
 10
32.719234252
 20
238.6317109813
 30
0.0
 11
33.6296069182
 21
238.6317109813
 31
0.0
  0
LINE
  5
B0
100
AcDbEntity
  8
52176993
370
         0
390
0
  6
CONTINUOUS
 62
         7
100
AcDbLine
 10
41.4194764681
 20
284.3150164789
 30
0.0
 11
39.4145490891
 21
284.3150164789
 31
0.0
  0
LINE
  5
B1
100
AcDbEntity
  8
52176993
370
         0
390
0
  6
CONTINUOUS
 62
         7
100
AcDbLine
 10
29.4194764681
 20
245.7172878742
 30
0.0
 11
29.4194764681
 21
247.7716480618
 31
0.0
  0
SPLINE
  5
B2
100
AcDbEntity
  8
52176993
370
         0
390
0
  6
CONTINUOUS
 62
         7
100
AcDbSpline
210
0.0
220
0.0
230
1.0
 70
        12
 71
         2
 72
         6
 73
         3
 74
         0
 42
0.0
 43
0.0
 40
0.0
 40
0.0
 40
0.0
 40
1.0
 40
1.0
 40
1.0
 10
30.966326653356376
 20
245.39083197209578
 30
0.0
 41
1.0
 10
30.192886749402231
 20
245.55434502514461
 30
0.0
 41
1.0
 10
29.419476468060495
 20
245.71728787429632
 30
0.0
 41
1.0
  0
LINE
  5
B3
100
AcDbEntity
  8
52176993
370
         0
390
0
  6
CONTINUOUS
 62
         7
100
AcDbLine
 10
29.4194764681
 20
245.5758546963
 30
0.0
 11
29.4194764681
 21
245.7172878742
 31
0.0
  0
LINE
  5
B4
100
AcDbEntity
  8
52176993
370
         0
390
0
  6
CONTINUOUS
 62
         7
100
AcDbLine
 10
29.4194764681
 20
243.4779319239
 30
0.0
 11
29.4194764681
 21
243.6193588002
 31
0.0
  0
LINE
  5
B5
100
AcDbEntity
  8
52176993
370
         0
390
0
  6
CONTINUOUS
 62
         7
100
AcDbLine
 10
35.4194764681
 20
244.7408383648
 30
0.0
 11
35.4194764681
 21
244.882260974
 31
0.0
  0
LINE
  5
B6
100
AcDbEntity
  8
52176993
370
         0
390
0
  6
CONTINUOUS
 62
         7
100
AcDbLine
 10
35.4194764681
 20
246.5471714702
 30
0.0
 11
35.4194764681
 21
244.882260974
 31
0.0
  0
CIRCLE
  5
B7
100
AcDbEntity
  8
52176993
370
         0
390
0
  6
CONTINUOUS
 62
         7
100
AcDbCircle
 10
32.4194764681
 20
147.8150164789
 30
0.0
 40
8.5
  0
SPLINE
  5
B8
100
AcDbEntity
  8
52176993
370
         0
390
0
  6
CONTINUOUS
 62
         7
100
AcDbSpline
210
0.0
220
0.0
230
1.0
 70
        12
 71
         2
 72
         6
 73
         3
 74
         0
 42
0.0
 43
0.0
 40
0.0
 40
0.0
 40
0.0
 40
1.0
 40
1.0
 40
1.0
 10
30.966326653349228
 20
245.24940421886143
 30
0.0
 41
1.0
 10
30.192886705952176
 20
245.41291498193556
 30
0.0
 41
1.0
 10
29.419476468060971
 20
245.57585469625997
 30
0.0
 41
1.0
  0
ELLIPSE
  5
B9
100
AcDbEntity
  8
52176993
370
         0
390
0
  6
CONTINUOUS
 62
         7
100
AcDbEllipse
 10
41.3970992258
 20
147.8146995513
 30
0.0
 11
-576.65773400936928
 21
99.181299722107198
 31
0.0
210
0.0
220
0.0
230
1.0
 40
0.1626334784
 41
4.7540319134649387
 42
4.758435804711957
  0
LINE
  5
BA
100
AcDbEntity
  8
52176993
370
         0
390
0
  6
CONTINUOUS
 62
         7
100
AcDbLine
 10
29.4194764681
 20
239.4261452578
 30
0.0
 11
32.719234252
 21
239.4261452578
 31
0.0
  0
ELLIPSE
  5
BB
100
AcDbEntity
  8
52176993
370
         0
390
0
  6
CONTINUOUS
 62
         7
100
AcDbEllipse
 10
33.4832579536
 20
147.8150242554
 30
0.0
 11
459.17842608726738
 21
100.67083072851288
 31
0.0
210
0.0
220
0.0
230
1.0
 40
0.2007555101
 41
1.522598199840306
 42
1.5356525051892824
  0
LINE
  5
BC
100
AcDbEntity
  8
52176993
370
         0
390
0
  6
CONTINUOUS
 62
         7
100
AcDbLine
 10
29.50837201
 20
247.7536263432
 30
0.0
 11
33.7646326354
 21
247.7536263432
 31
0.0
  0
SPLINE
  5
BD
100
AcDbEntity
  8
52176993
370
         0
390
0
  6
CONTINUOUS
 62
         7
100
AcDbSpline
210
0.0
220
0.0
230
1.0
 70
        12
 71
         2
 72
         6
 73
         3
 74
         0
 42
0.0
 43
0.0
 40
0.0
 40
0.0
 40
0.0
 40
1.0
 40
1.0
 40
1.0
 10
33.764632635354886
 20
247.09089373714758
 30
0.0
 41
1.0
 10
34.592013982705858
 20
246.92188416337203
 30
0.0
 41
1.0
 10
35.419476468068751
 20
246.7522294835679
 30
0.0
 41
1.0
  0
LINE
  5
BE
100
AcDbEntity
  8
52176993
370
         0
390
0
  6
CONTINUOUS
 62
         7
100
AcDbLine
 10
32.719234252
 20
238.4900446531
 30
0.0
 11
33.6296069182
 21
238.4900446531
 31
0.0
  0
LINE
  5
BF
100
AcDbEntity
  8
52176993
370
         0
390
0
  6
CONTINUOUS
 62
         7
100
AcDbLine
 10
40.9194764681
 20
333.6810418827
 30
0.0
 11
39.4194764681
 21
332.8150164789
 31
0.0
  0
LINE
  5
C0
100
AcDbEntity
  8
52176993
370
         0
390
0
  6
CONTINUOUS
 62
         7
100
AcDbLine
 10
23.9194764681
 20
347.3150164789
 30
0.0
 11
23.9194764681
 21
333.6810418827
 31
0.0
  0
LINE
  5
C1
100
AcDbEntity
  8
52176993
370
         0
390
0
  6
CONTINUOUS
 62
         7
100
AcDbLine
 10
25.5694764681
 20
368.3150164789
 30
0.0
 11
25.5694764681
 21
347.3150164789
 31
0.0
  0
LINE
  5
C2
100
AcDbEntity
  8
52176993
370
         0
390
0
  6
CONTINUOUS
 62
         7
100
AcDbLine
 10
25.4194764681
 20
284.3150164789
 30
0.0
 11
23.4194764681
 21
284.3150164789
 31
0.0
  0
LINE
  5
C3
100
AcDbEntity
  8
52176993
370
         0
390
0
  6
CONTINUOUS
 62
         7
100
AcDbLine
 10
39.4194764681
 20
284.3147625243
 30
0.0
 11
39.4194764681
 21
322.8150164789
 31
0.0
  0
LINE
  5
C4
100
AcDbEntity
  8
52176993
370
         0
390
0
  6
CONTINUOUS
 62
         7
100
AcDbLine
 10
25.4194764681
 20
322.8150164789
 30
0.0
 11
25.4194764681
 21
324.3150164789
 31
0.0
  0
ENDBLK
  5
C5
100
AcDbEntity
  8
52176993
370
         0
390
0
  6
CONTINUOUS
 62
         7
100
AcDbBlockEnd
  0
BLOCK
  5
FE
100
AcDbEntity
  8
0
370
         0
390
0
 62
         1
 48
0.0
100
AcDbBlockBegin
  2
SE2
 70
         0
 10
0.0
 20
0.0
 30
0.0
  3
SE2
  1

  0
ENDBLK
  5
FF
100
AcDbEntity
  8
0
370
         0
390
0
 62
         1
 48
0.0
100
AcDbBlockEnd
  0
BLOCK
  5
C8
100
AcDbEntity
  8
0
370
         0
390
0
 62
         1
 48
0.0
100
AcDbBlockBegin
  2
SE3
 70
         0
 10
0.0
 20
0.0
 30
0.0
  3
SE3
  1

  0
LINE
  5
C9
100
AcDbEntity
  8
52176993
370
         0
390
0
  6
CONTINUOUS
 62
         7
100
AcDbLine
 10
25.6694764681
 20
834.6054228256
 30
0.0
 11
25.6694764681
 21
833.6054228256
 31
0.0
  0
LINE
  5
CA
100
AcDbEntity
  8
52176993
370
         0
390
0
  6
CONTINUOUS
 62
         7
100
AcDbLine
 10
38.4194764681
 20
834.6054228256
 30
0.0
 11
38.4194764681
 21
836.1054228256
 31
0.0
  0
LINE
  5
CB
100
AcDbEntity
  8
52176993
370
         0
390
0
  6
CONTINUOUS
 62
         7
100
AcDbLine
 10
39.2694764681
 20
809.6054228256
 30
0.0
 11
39.2694764681
 21
830.6054228256
 31
0.0
  0
LINE
  5
CC
100
AcDbEntity
  8
52176993
370
         0
390
0
  6
CONTINUOUS
 62
         7
100
AcDbLine
 10
23.4194764681
 20
473.6054228256
 30
0.0
 11
41.4194764681
 21
473.6054228256
 31
0.0
  0
LINE
  5
CD
100
AcDbEntity
  8
52176993
370
         0
390
0
  6
CONTINUOUS
 62
         7
100
AcDbLine
 10
40.9194764681
 20
795.9714482294
 30
0.0
 11
40.9194764681
 21
809.6054228256
 31
0.0
  0
LINE
  5
CE
100
AcDbEntity
  8
52176993
370
         0
390
0
  6
CONTINUOUS
 62
         7
100
AcDbLine
 10
39.4194764681
 20
746.6051688711
 30
0.0
 11
39.4194764681
 21
785.1054228256
 31
0.0
  0
LINE
  5
CF
100
AcDbEntity
  8
52176993
370
         0
390
0
  6
CONTINUOUS
 62
         7
100
AcDbLine
 10
39.2680891777
 20
825.6054228256
 30
0.0
 11
35.9631686038
 21
825.6054228256
 31
0.0
  0
LINE
  5
D0
100
AcDbEntity
  8
52176993
370
         0
390
0
  6
CONTINUOUS
 62
         7
100
AcDbLine
 10
41.4194764681
 20
746.6054228256
 30
0.0
 11
39.4145490891
 21
746.6054228256
 31
0.0
  0
LINE
  5
D1
100
AcDbEntity
  8
52176993
370
         0
390
0
  6
CONTINUOUS
 62
         7
100
AcDbLine
 10
35.9631686038
 20
830.6054228256
 30
0.0
 11
35.724397042
 21
830.6054228256
 31
0.0
  0
LINE
  5
D2
100
AcDbEntity
  8
52176993
370
         0
390
0
  6
CONTINUOUS
 62
         7
100
AcDbLine
 10
25.5194764681
 20
842.6054228256
 30
0.0
 11
39.3194764681
 21
842.6054228256
 31
0.0
  0
LINE
  5
D3
100
AcDbEntity
  8
52176993
370
         0
390
0
  6
CONTINUOUS
 62
         7
100
AcDbLine
 10
39.4194764681
 20
795.1054228256
 30
0.0
 11
39.4194764681
 21
786.6054228256
 31
0.0
  0
LINE
  5
D4
100
AcDbEntity
  8
52176993
370
         0
390
0
  6
CONTINUOUS
 62
         7
100
AcDbLine
 10
23.9194764681
 20
809.6054228256
 30
0.0
 11
40.9194764681
 21
809.6054228256
 31
0.0
  0
ARC
  5
D5
100
AcDbEntity
  8
52176993
370
         0
390
0
  6
CONTINUOUS
 62
         7
100
AcDbCircle
 10
32.4194764678
 20
882.9306315492
 30
0.0
 40
136.5048077304
100
AcDbArc
 50
267.0605691357
 51
272.9394306769
  0
LINE
  5
D6
100
AcDbEntity
  8
52176993
370
         0
390
0
  6
CONTINUOUS
 62
         7
100
AcDbLine
 10
29.1145558941
 20
830.6054228256
 30
0.0
 11
29.1145558941
 21
825.6054228256
 31
0.0
  0
LINE
  5
D7
100
AcDbEntity
  8
52176993
370
         0
390
0
  6
CONTINUOUS
 62
         7
100
AcDbLine
 10
35.724397042
 20
825.6054228256
 30
0.0
 11
35.724397042
 21
830.6054228256
 31
0.0
  0
LINE
  5
D8
100
AcDbEntity
  8
52176993
370
         0
390
0
  6
CONTINUOUS
 62
         7
100
AcDbLine
 10
39.4194764681
 20
785.1054228256
 30
0.0
 11
25.4194764681
 21
785.1054228256
 31
0.0
  0
LINE
  5
D9
100
AcDbEntity
  8
52176993
370
         0
390
0
  6
CONTINUOUS
 62
         7
100
AcDbLine
 10
35.9631686038
 20
830.6054228256
 30
0.0
 11
35.9631686038
 21
825.6054228256
 31
0.0
  0
LINE
  5
DA
100
AcDbEntity
  8
52176993
370
         0
390
0
  6
CONTINUOUS
 62
         7
100
AcDbLine
 10
39.2680891777
 20
825.6054228256
 30
0.0
 11
39.2680891777
 21
830.6054228256
 31
0.0
  0
LINE
  5
DB
100
AcDbEntity
  8
52176993
370
         0
390
0
  6
CONTINUOUS
 62
         7
100
AcDbLine
 10
25.5708637584
 20
830.6054228256
 30
0.0
 11
25.5708637584
 21
825.6054228256
 31
0.0
  0
LINE
  5
DC
100
AcDbEntity
  8
52176993
370
         0
390
0
  6
CONTINUOUS
 62
         7
100
AcDbLine
 10
28.8757843323
 20
825.6054228256
 30
0.0
 11
28.8757843323
 21
830.6054228256
 31
0.0
  0
LINE
  5
DD
100
AcDbEntity
  8
52176993
370
         0
390
0
  6
CONTINUOUS
 62
         7
100
AcDbLine
 10
25.4194764681
 20
786.6054228256
 30
0.0
 11
25.4194764681
 21
795.1054228256
 31
0.0
  0
LINE
  5
DE
100
AcDbEntity
  8
52176993
370
         0
390
0
  6
CONTINUOUS
 62
         7
100
AcDbLine
 10
23.4194764681
 20
746.6054228256
 30
0.0
 11
23.4194764681
 21
473.6054228256
 31
0.0
  0
LINE
  5
DF
100
AcDbEntity
  8
52176993
370
         0
390
0
  6
CONTINUOUS
 62
         7
100
AcDbLine
 10
39.2694764681
 20
830.6054228256
 30
0.0
 11
39.2680891777
 21
830.6054228256
 31
0.0
  0
LINE
  5
E0
100
AcDbEntity
  8
52176993
370
         0
390
0
  6
CONTINUOUS
 62
         7
100
AcDbLine
 10
28.8757843323
 20
825.6054228256
 30
0.0
 11
25.5708637584
 21
825.6054228256
 31
0.0
  0
LINE
  5
E1
100
AcDbEntity
  8
52176993
370
         0
390
0
  6
CONTINUOUS
 62
         7
100
AcDbLine
 10
29.1145558941
 20
830.6054228256
 30
0.0
 11
28.8757843323
 21
830.6054228256
 31
0.0
  0
LINE
  5
E2
100
AcDbEntity
  8
52176993
370
         0
390
0
  6
CONTINUOUS
 62
         7
100
AcDbLine
 10
35.724397042
 20
825.6054228256
 30
0.0
 11
29.1145558941
 21
825.6054228256
 31
0.0
  0
LINE
  5
E3
100
AcDbEntity
  8
52176993
370
         0
390
0
  6
CONTINUOUS
 62
         7
100
AcDbLine
 10
25.4194764681
 20
795.1054228256
 30
0.0
 11
23.9194764681
 21
795.9714482294
 31
0.0
  0
LINE
  5
E4
100
AcDbEntity
  8
52176993
370
         0
390
0
  6
CONTINUOUS
 62
         7
100
AcDbLine
 10
25.4194764681
 20
785.1054228256
 30
0.0
 11
25.4194764681
 21
786.6054228256
 31
0.0
  0
LINE
  5
E5
100
AcDbEntity
  8
52176993
370
         0
390
0
  6
CONTINUOUS
 62
         7
100
AcDbLine
 10
39.4194764681
 20
786.6054228256
 30
0.0
 11
39.4194764681
 21
785.1054228256
 31
0.0
  0
LINE
  5
E6
100
AcDbEntity
  8
52176993
370
         0
390
0
  6
CONTINUOUS
 62
         7
100
AcDbLine
 10
40.9194764681
 20
795.9714482294
 30
0.0
 11
39.4194764681
 21
795.1054228256
 31
0.0
  0
LINE
  5
E7
100
AcDbEntity
  8
52176993
370
         0
390
0
  6
CONTINUOUS
 62
         7
100
AcDbLine
 10
39.4194764681
 20
786.6054228256
 30
0.0
 11
25.4194764681
 21
786.6054228256
 31
0.0
  0
LINE
  5
E8
100
AcDbEntity
  8
52176993
370
         0
390
0
  6
CONTINUOUS
 62
         7
100
AcDbLine
 10
41.4194764681
 20
746.6054228256
 30
0.0
 11
41.4194764681
 21
473.6054228256
 31
0.0
  0
LINE
  5
E9
100
AcDbEntity
  8
52176993
370
         0
390
0
  6
CONTINUOUS
 62
         7
100
AcDbLine
 10
25.5708637584
 20
830.6054228256
 30
0.0
 11
25.5694764681
 21
830.6054228256
 31
0.0
  0
LINE
  5
EA
100
AcDbEntity
  8
52176993
370
         0
390
0
  6
CONTINUOUS
 62
         7
100
AcDbLine
 10
25.5194764681
 20
837.0054228256
 30
0.0
 11
39.3194764681
 21
837.0054228256
 31
0.0
  0
LINE
  5
EB
100
AcDbEntity
  8
52176993
370
         0
390
0
  6
CONTINUOUS
 62
         7
100
AcDbLine
 10
35.724397042
 20
830.6054228256
 30
0.0
 11
29.1145558941
 21
830.6054228256
 31
0.0
  0
LINE
  5
EC
100
AcDbEntity
  8
52176993
370
         0
390
0
  6
CONTINUOUS
 62
         7
100
AcDbLine
 10
28.8757843323
 20
830.6054228256
 30
0.0
 11
25.5708637584
 21
830.6054228256
 31
0.0
  0
LINE
  5
ED
100
AcDbEntity
  8
52176993
370
         0
390
0
  6
CONTINUOUS
 62
         7
100
AcDbLine
 10
39.2680891777
 20
830.6054228256
 30
0.0
 11
35.9631686038
 21
830.6054228256
 31
0.0
  0
LINE
  5
EE
100
AcDbEntity
  8
52176993
370
         0
390
0
  6
CONTINUOUS
 62
         7
100
AcDbLine
 10
26.4194764681
 20
836.1054228256
 30
0.0
 11
38.4194764681
 21
836.1054228256
 31
0.0
  0
LINE
  5
EF
100
AcDbEntity
  8
52176993
370
         0
390
0
  6
CONTINUOUS
 62
         7
100
AcDbLine
 10
25.6694764681
 20
834.6054228256
 30
0.0
 11
39.1694764681
 21
834.6054228256
 31
0.0
  0
LINE
  5
F0
100
AcDbEntity
  8
52176993
370
         0
390
0
  6
CONTINUOUS
 62
         7
100
AcDbLine
 10
25.6694764681
 20
833.6054228256
 30
0.0
 11
39.1694764681
 21
833.6054228256
 31
0.0
  0
LINE
  5
F1
100
AcDbEntity
  8
52176993
370
         0
390
0
  6
CONTINUOUS
 62
         7
100
AcDbLine
 10
25.5194764681
 20
842.6054228256
 30
0.0
 11
25.5194764681
 21
837.0054228256
 31
0.0
  0
LINE
  5
F2
100
AcDbEntity
  8
52176993
370
         0
390
0
  6
CONTINUOUS
 62
         7
100
AcDbLine
 10
38.4194764681
 20
836.1054228256
 30
0.0
 11
39.3194764681
 21
837.0054228256
 31
0.0
  0
LINE
  5
F3
100
AcDbEntity
  8
52176993
370
         0
390
0
  6
CONTINUOUS
 62
         7
100
AcDbLine
 10
26.4194764681
 20
836.1054228256
 30
0.0
 11
26.4194764681
 21
834.6054228256
 31
0.0
  0
LINE
  5
F4
100
AcDbEntity
  8
52176993
370
         0
390
0
  6
CONTINUOUS
 62
         7
100
AcDbLine
 10
28.4194764681
 20
833.6054228256
 30
0.0
 11
28.4194764681
 21
830.6054228256
 31
0.0
  0
LINE
  5
F5
100
AcDbEntity
  8
52176993
370
         0
390
0
  6
CONTINUOUS
 62
         7
100
AcDbLine
 10
25.4194764681
 20
746.6054228256
 30
0.0
 11
23.4194764681
 21
746.6054228256
 31
0.0
  0
LINE
  5
F6
100
AcDbEntity
  8
52176993
370
         0
390
0
  6
CONTINUOUS
 62
         7
100
AcDbLine
 10
25.5694764681
 20
830.6054228256
 30
0.0
 11
25.5694764681
 21
809.6054228256
 31
0.0
  0
LINE
  5
F7
100
AcDbEntity
  8
52176993
370
         0
390
0
  6
CONTINUOUS
 62
         7
100
AcDbLine
 10
23.9194764681
 20
809.6054228256
 30
0.0
 11
23.9194764681
 21
795.9714482294
 31
0.0
  0
LINE
  5
F8
100
AcDbEntity
  8
52176993
370
         0
390
0
  6
CONTINUOUS
 62
         7
100
AcDbLine
 10
25.4194764681
 20
785.1054228256
 30
0.0
 11
25.4194764681
 21
746.6054228256
 31
0.0
  0
LINE
  5
F9
100
AcDbEntity
  8
52176993
370
         0
390
0
  6
CONTINUOUS
 62
         7
100
AcDbLine
 10
39.1694764681
 20
833.6054228256
 30
0.0
 11
39.1694764681
 21
834.6054228256
 31
0.0
  0
LINE
  5
FA
100
AcDbEntity
  8
52176993
370
         0
390
0
  6
CONTINUOUS
 62
         7
100
AcDbLine
 10
36.4194764681
 20
830.6054228256
 30
0.0
 11
36.4194764681
 21
833.6054228256
 31
0.0
  0
LINE
  5
FB
100
AcDbEntity
  8
52176993
370
         0
390
0
  6
CONTINUOUS
 62
         7
100
AcDbLine
 10
39.3194764681
 20
837.0054228256
 30
0.0
 11
39.3194764681
 21
842.6054228256
 31
0.0
  0
LINE
  5
FC
100
AcDbEntity
  8
52176993
370
         0
390
0
  6
CONTINUOUS
 62
         7
100
AcDbLine
 10
25.5194764681
 20
837.0054228256
 30
0.0
 11
26.4194764681
 21
836.1054228256
 31
0.0
  0
ENDBLK
  5
FD
100
AcDbEntity
  8
52176993
370
         0
390
0
  6
CONTINUOUS
 62
         7
100
AcDbBlockEnd
  0
BLOCK
  5
17D
100
AcDbEntity
  8
0
370
         0
390
0
 62
         1
 48
0.0
100
AcDbBlockBegin
  2
SE4
 70
         0
 10
0.0
 20
0.0
 30
0.0
  3
SE4
  1

  0
ENDBLK
  5
17E
100
AcDbEntity
  8
0
370
         0
390
0
 62
         1
 48
0.0
100
AcDbBlockEnd
  0
BLOCK
  5
100
100
AcDbEntity
  8
0
370
         0
390
0
 62
         1
 48
0.0
100
AcDbBlockBegin
  2
SE5
 70
         0
 10
0.0
 20
0.0
 30
0.0
  3
SE5
  1

  0
LINE
  5
101
100
AcDbEntity
  8
52176993
370
         0
390
0
  6
CONTINUOUS
 62
         7
100
AcDbLine
 10
343.3526100202
 20
746.4303585797
 30
0.0
 11
343.3526100202
 21
785.1054228256
 31
0.0
  0
LINE
  5
102
100
AcDbEntity
  8
52176993
370
         0
390
0
  6
CONTINUOUS
 62
         7
100
AcDbLine
 10
136.8526100202
 20
601.6054228256
 30
0.0
 11
159.8526100202
 21
601.6054228256
 31
0.0
  0
LINE
  5
103
100
AcDbEntity
  8
52176993
370
         0
390
0
  6
CONTINUOUS
 62
         7
100
AcDbLine
 10
329.6026100202
 20
834.6054228256
 30
0.0
 11
329.6026100202
 21
833.6054228256
 31
0.0
  0
ARC
  5
104
100
AcDbEntity
  8
52176993
370
         0
390
0
  6
CONTINUOUS
 62
         7
100
AcDbCircle
 10
151.6028397254
 20
610.4942082532
 30
0.0
 40
9.7575188911
100
AcDbArc
 50
327.723215948
 51
357.716462272
  0
LINE
  5
105
100
AcDbEntity
  8
52176993
370
         0
390
0
  6
CONTINUOUS
 62
         7
100
AcDbLine
 10
115.8526100202
 20
604.2432776511
 30
0.0
 11
115.8526100202
 21
604.1054228256
 31
0.0
  0
LINE
  5
106
100
AcDbEntity
  8
52176993
370
         0
390
0
  6
CONTINUOUS
 62
         7
100
AcDbLine
 10
120.8526100202
 20
616.9554228256
 30
0.0
 11
120.8526100202
 21
616.1054228256
 31
0.0
  0
LINE
  5
107
100
AcDbEntity
  8
52176993
370
         0
390
0
  6
CONTINUOUS
 62
         7
100
AcDbLine
 10
120.8526100202
 20
603.2554228256
 30
0.0
 11
120.8526100202
 21
604.1054228256
 31
0.0
  0
LINE
  5
108
100
AcDbEntity
  8
52176993
370
         0
390
0
  6
CONTINUOUS
 62
         7
100
AcDbLine
 10
110.3526100202
 20
604.1054228256
 30
0.0
 11
111.8526100202
 21
604.1054228256
 31
0.0
  0
ARC
  5
109
100
AcDbEntity
  8
52176993
370
         0
390
0
  6
CONTINUOUS
 62
         7
100
AcDbCircle
 10
336.3526100202
 20
610.1054228256
 30
0.0
 40
136.7
100
AcDbArc
 50
136.9880667501
 51
137.0639978821
  0
LINE
  5
10A
100
AcDbEntity
  8
52176993
370
         0
390
0
  6
CONTINUOUS
 62
         7
100
AcDbLine
 10
336.2147551947
 20
830.6054228256
 30
0.0
 11
330.4904648457
 21
830.6054228256
 31
0.0
  0
LINE
  5
10B
100
AcDbEntity
  8
52176993
370
         0
390
0
  6
CONTINUOUS
 62
         7
100
AcDbLine
 10
342.2147551947
 20
830.6054228256
 30
0.0
 11
336.4904648457
 21
830.6054228256
 31
0.0
  0
ARC
  5
10C
100
AcDbEntity
  8
52176993
370
         0
390
0
  6
CONTINUOUS
 62
         7
100
AcDbCircle
 10
336.3526100202
 20
610.1054228256
 30
0.0
 40
136.7
100
AcDbArc
 50
137.8142004518
 51
138.3674937682
  0
LINE
  5
10D
100
AcDbEntity
  8
52176993
370
         0
390
0
  6
CONTINUOUS
 62
         7
100
AcDbLine
 10
235.2034590486
 20
701.762933471
 30
0.0
 11
235.0618666815
 21
701.9045258381
 31
0.0
  0
LINE
  5
10E
100
AcDbEntity
  8
52176993
370
         0
390
0
  6
CONTINUOUS
 62
         7
100
AcDbLine
 10
342.2147551947
 20
825.6054228256
 30
0.0
 11
336.4904648457
 21
825.6054228256
 31
0.0
  0
LINE
  5
10F
100
AcDbEntity
  8
52176993
370
         0
390
0
  6
CONTINUOUS
 62
         7
100
AcDbLine
 10
342.3526100202
 20
830.6054228256
 30
0.0
 11
342.2147551947
 21
830.6054228256
 31
0.0
  0
LINE
  5
110
100
AcDbEntity
  8
52176993
370
         0
390
0
  6
CONTINUOUS
 62
         7
100
AcDbLine
 10
344.8526100202
 20
809.6054228256
 30
0.0
 11
327.8526100202
 21
809.6054228256
 31
0.0
  0
CIRCLE
  5
111
100
AcDbEntity
  8
52176993
370
         0
390
0
  6
CONTINUOUS
 62
         7
100
AcDbCircle
 10
336.3526100202
 20
610.1054228256
 30
0.0
 40
81.0
  0
ELLIPSE
  5
112
100
AcDbEntity
  8
52176993
370
         0
390
0
  6
CONTINUOUS
 62
         7
100
AcDbEllipse
 10
155.3940619045
 20
610.1054228256
 30
0.0
 11
0.0000000000000005
 21
8.5000000000000213
 31
0.0
210
0.0
220
0.0
230
1.0
 40
0.5773502692
 41
0.9676049211852369
 42
2.1739877324045724
  0
ARC
  5
113
100
AcDbEntity
  8
52176993
370
         0
390
0
  6
CONTINUOUS
 62
         7
100
AcDbCircle
 10
151.7801261808
 20
609.7717886452
 30
0.0
 40
9.5782962275
100
AcDbArc
 50
1.9961481256
 51
32.5641736544
  0
LINE
  5
114
100
AcDbEntity
  8
52176993
370
         0
390
0
  6
CONTINUOUS
 62
         7
100
AcDbLine
 10
336.2147551947
 20
825.6054228256
 30
0.0
 11
330.4904648457
 21
825.6054228256
 31
0.0
  0
LINE
  5
115
100
AcDbEntity
  8
52176993
370
         0
390
0
  6
CONTINUOUS
 62
         7
100
AcDbLine
 10
329.5026100202
 20
825.6054228256
 30
0.0
 11
330.3526100202
 21
825.6054228256
 31
0.0
  0
LINE
  5
116
100
AcDbEntity
  8
52176993
370
         0
390
0
  6
CONTINUOUS
 62
         7
100
AcDbLine
 10
330.4904648457
 20
830.6054228256
 30
0.0
 11
330.3526100202
 21
830.6054228256
 31
0.0
  0
LINE
  5
117
100
AcDbEntity
  8
52176993
370
         0
390
0
  6
CONTINUOUS
 62
         7
100
AcDbLine
 10
341.1744354007
 20
786.6054228256
 30
0.0
 11
344.8526100202
 21
786.6054228256
 31
0.0
  0
LINE
  5
118
100
AcDbEntity
  8
52176993
370
         0
390
0
  6
CONTINUOUS
 62
         7
100
AcDbLine
 10
236.5374850949
 20
703.2139124284
 30
0.0
 11
236.3959784372
 21
703.3554190861
 31
0.0
  0
LINE
  5
119
100
AcDbEntity
  8
52176993
370
         0
390
0
  6
CONTINUOUS
 62
         7
100
AcDbLine
 10
341.1744354007
 20
795.1054228256
 30
0.0
 11
331.5307846397
 21
795.1054228256
 31
0.0
  0
LINE
  5
11A
100
AcDbEntity
  8
52176993
370
         0
390
0
  6
CONTINUOUS
 62
         7
100
AcDbLine
 10
341.1744354007
 20
786.6054228256
 30
0.0
 11
341.1744354007
 21
795.1054228256
 31
0.0
  0
LINE
  5
11B
100
AcDbEntity
  8
52176993
370
         0
390
0
  6
CONTINUOUS
 62
         7
100
AcDbLine
 10
159.8526100202
 20
614.9272482061
 30
0.0
 11
159.8526100202
 21
618.6054228256
 31
0.0
  0
LINE
  5
11C
100
AcDbEntity
  8
52176993
370
         0
390
0
  6
CONTINUOUS
 62
         7
100
AcDbLine
 10
159.8526100202
 20
601.6054228256
 30
0.0
 11
159.8526100202
 21
605.2835974451
 31
0.0
  0
LINE
  5
11D
100
AcDbEntity
  8
52176993
370
         0
390
0
  6
CONTINUOUS
 62
         7
100
AcDbLine
 10
151.3526100202
 20
614.9272482061
 30
0.0
 11
151.3526100202
 21
605.2835974451
 31
0.0
  0
LINE
  5
11E
100
AcDbEntity
  8
52176993
370
         0
390
0
  6
CONTINUOUS
 62
         7
100
AcDbLine
 10
159.8526100202
 20
614.9272482061
 30
0.0
 11
151.3526100202
 21
614.9272482061
 31
0.0
  0
LINE
  5
11F
100
AcDbEntity
  8
52176993
370
         0
390
0
  6
CONTINUOUS
 62
         7
100
AcDbLine
 10
151.3526100202
 20
605.2835974451
 30
0.0
 11
159.8526100202
 21
605.2835974451
 31
0.0
  0
LINE
  5
120
100
AcDbEntity
  8
52176993
370
         0
390
0
  6
CONTINUOUS
 62
         7
100
AcDbLine
 10
120.8526100202
 20
615.9675680002
 30
0.0
 11
115.8526100202
 21
615.9675680002
 31
0.0
  0
LINE
  5
121
100
AcDbEntity
  8
52176993
370
         0
390
0
  6
CONTINUOUS
 62
         7
100
AcDbLine
 10
115.8526100202
 20
610.2432776511
 30
0.0
 11
120.8526100202
 21
610.2432776511
 31
0.0
  0
LINE
  5
122
100
AcDbEntity
  8
52176993
370
         0
390
0
  6
CONTINUOUS
 62
         7
100
AcDbLine
 10
109.4526100202
 20
617.0054228256
 30
0.0
 11
109.4526100202
 21
603.2054228256
 31
0.0
  0
LINE
  5
123
100
AcDbEntity
  8
52176993
370
         0
390
0
  6
CONTINUOUS
 62
         7
100
AcDbLine
 10
112.8526100202
 20
616.8554228256
 30
0.0
 11
112.8526100202
 21
603.3554228256
 31
0.0
  0
LINE
  5
124
100
AcDbEntity
  8
52176993
370
         0
390
0
  6
CONTINUOUS
 62
         7
100
AcDbLine
 10
103.8526100202
 20
617.0054228256
 30
0.0
 11
103.8526100202
 21
603.2054228256
 31
0.0
  0
ARC
  5
125
100
AcDbEntity
  8
52176993
370
         0
390
0
  6
CONTINUOUS
 62
         7
100
AcDbCircle
 10
336.0189758397
 20
794.6779066651
 30
0.0
 40
9.5782962275
100
AcDbArc
 50
271.9961481256
 51
302.5641736544
  0
ARC
  5
126
100
AcDbEntity
  8
52176993
370
         0
390
0
  6
CONTINUOUS
 62
         7
100
AcDbCircle
 10
336.7413954478
 20
794.8551931205
 30
0.0
 40
9.7575188911
100
AcDbArc
 50
237.723215948
 51
267.716462272
  0
LINE
  5
127
100
AcDbEntity
  8
52176993
370
         0
390
0
  6
CONTINUOUS
 62
         7
100
AcDbLine
 10
336.3526100202
 20
785.1054228256
 30
0.0
 11
329.3526100202
 21
785.1054228256
 31
0.0
  0
LINE
  5
128
100
AcDbEntity
  8
52176993
370
         0
390
0
  6
CONTINUOUS
 62
         7
100
AcDbLine
 10
159.8526100202
 20
601.6054228256
 30
0.0
 11
161.3526100202
 21
603.1054228256
 31
0.0
  0
LINE
  5
129
100
AcDbEntity
  8
52176993
370
         0
390
0
  6
CONTINUOUS
 62
         7
100
AcDbLine
 10
109.4526100202
 20
603.2054228256
 30
0.0
 11
110.3526100202
 21
604.1054228256
 31
0.0
  0
LINE
  5
12A
100
AcDbEntity
  8
52176993
370
         0
390
0
  6
CONTINUOUS
 62
         7
100
AcDbLine
 10
109.4526100202
 20
617.0054228256
 30
0.0
 11
103.8526100202
 21
617.0054228256
 31
0.0
  0
LINE
  5
12B
100
AcDbEntity
  8
52176993
370
         0
390
0
  6
CONTINUOUS
 62
         7
100
AcDbLine
 10
112.8526100202
 20
616.8554228256
 30
0.0
 11
111.8526100202
 21
616.8554228256
 31
0.0
  0
LINE
  5
12C
100
AcDbEntity
  8
52176993
370
         0
390
0
  6
CONTINUOUS
 62
         7
100
AcDbLine
 10
111.8526100202
 20
616.1054228256
 30
0.0
 11
110.3526100202
 21
616.1054228256
 31
0.0
  0
LINE
  5
12D
100
AcDbEntity
  8
52176993
370
         0
390
0
  6
CONTINUOUS
 62
         7
100
AcDbLine
 10
115.8526100202
 20
614.1054228256
 30
0.0
 11
112.8526100202
 21
614.1054228256
 31
0.0
  0
LINE
  5
12E
100
AcDbEntity
  8
52176993
370
         0
390
0
  6
CONTINUOUS
 62
         7
100
AcDbLine
 10
159.8526100202
 20
618.6054228256
 30
0.0
 11
136.8526100202
 21
618.6054228256
 31
0.0
  0
LINE
  5
12F
100
AcDbEntity
  8
52176993
370
         0
390
0
  6
CONTINUOUS
 62
         7
100
AcDbLine
 10
161.3526100202
 20
617.1054228256
 30
0.0
 11
159.8526100202
 21
618.6054228256
 31
0.0
  0
LINE
  5
130
100
AcDbEntity
  8
52176993
370
         0
390
0
  6
CONTINUOUS
 62
         7
100
AcDbLine
 10
343.1026100202
 20
833.6054228256
 30
0.0
 11
343.1026100202
 21
834.6054228256
 31
0.0
  0
LINE
  5
131
100
AcDbEntity
  8
52176993
370
         0
390
0
  6
CONTINUOUS
 62
         7
100
AcDbLine
 10
340.3526100202
 20
830.6054228256
 30
0.0
 11
340.3526100202
 21
833.6054228256
 31
0.0
  0
LINE
  5
132
100
AcDbEntity
  8
52176993
370
         0
390
0
  6
CONTINUOUS
 62
         7
100
AcDbLine
 10
200.0276742662
 20
617.1054228256
 30
0.0
 11
161.3526100202
 21
617.1054228256
 31
0.0
  0
LINE
  5
133
100
AcDbEntity
  8
52176993
370
         0
390
0
  6
CONTINUOUS
 62
         7
100
AcDbLine
 10
343.2526100202
 20
837.0054228256
 30
0.0
 11
343.2526100202
 21
842.6054228256
 31
0.0
  0
LINE
  5
134
100
AcDbEntity
  8
52176993
370
         0
390
0
  6
CONTINUOUS
 62
         7
100
AcDbLine
 10
329.4526100202
 20
837.0054228256
 30
0.0
 11
330.3526100202
 21
836.1054228256
 31
0.0
  0
LINE
  5
135
100
AcDbEntity
  8
52176993
370
         0
390
0
  6
CONTINUOUS
 62
         7
100
AcDbLine
 10
342.3526100202
 20
834.6054228256
 30
0.0
 11
342.3526100202
 21
836.1054228256
 31
0.0
  0
LINE
  5
136
100
AcDbEntity
  8
52176993
370
         0
390
0
  6
CONTINUOUS
 62
         7
100
AcDbLine
 10
136.8526100202
 20
616.9554228256
 30
0.0
 11
120.8526100202
 21
616.9554228256
 31
0.0
  0
ELLIPSE
  5
137
100
AcDbEntity
  8
52176993
370
         0
390
0
  6
CONTINUOUS
 62
         7
100
AcDbEllipse
 10
336.3526100202
 20
791.0639709413
 30
0.0
 11
8.4999999999999964
 21
-0.0000000000000005
 31
0.0
210
0.0
220
0.0
230
1.0
 40
0.5773502692
 41
0.9676049211852267
 42
2.1739877324045667
  0
LINE
  5
138
100
AcDbEntity
  8
52176993
370
         0
390
0
  6
CONTINUOUS
 62
         7
100
AcDbLine
 10
343.2026100202
 20
809.6054228256
 30
0.0
 11
343.2026100202
 21
825.6054228256
 31
0.0
  0
LINE
  5
139
100
AcDbEntity
  8
52176993
370
         0
390
0
  6
CONTINUOUS
 62
         7
100
AcDbLine
 10
239.3463076322
 20
706.1368098665
 30
0.0
 11
239.204884475
 21
706.2782330237
 31
0.0
  0
LINE
  5
13A
100
AcDbEntity
  8
52176993
370
         0
390
0
  6
CONTINUOUS
 62
         7
100
AcDbLine
 10
343.3526100202
 20
785.1054228256
 30
0.0
 11
344.8526100202
 21
786.6054228256
 31
0.0
  0
LINE
  5
13B
100
AcDbEntity
  8
52176993
370
         0
390
0
  6
CONTINUOUS
 62
         7
100
AcDbLine
 10
327.8526100202
 20
786.6054228256
 30
0.0
 11
329.3526100202
 21
785.1054228256
 31
0.0
  0
LINE
  5
13C
100
AcDbEntity
  8
52176993
370
         0
390
0
  6
CONTINUOUS
 62
         7
100
AcDbLine
 10
120.8526100202
 20
604.1054228256
 30
0.0
 11
115.8526100202
 21
604.1054228256
 31
0.0
  0
LINE
  5
13D
100
AcDbEntity
  8
52176993
370
         0
390
0
  6
CONTINUOUS
 62
         7
100
AcDbLine
 10
115.8526100202
 20
604.2432776511
 30
0.0
 11
120.8526100202
 21
604.2432776511
 31
0.0
  0
LINE
  5
13E
100
AcDbEntity
  8
52176993
370
         0
390
0
  6
CONTINUOUS
 62
         7
100
AcDbLine
 10
120.8526100202
 20
609.9675680002
 30
0.0
 11
115.8526100202
 21
609.9675680002
 31
0.0
  0
LINE
  5
13F
100
AcDbEntity
  8
52176993
370
         0
390
0
  6
CONTINUOUS
 62
         7
100
AcDbLine
 10
110.3526100202
 20
616.1054228256
 30
0.0
 11
110.3526100202
 21
604.1054228256
 31
0.0
  0
LINE
  5
140
100
AcDbEntity
  8
52176993
370
         0
390
0
  6
CONTINUOUS
 62
         7
100
AcDbLine
 10
120.8526100202
 20
609.9675680002
 30
0.0
 11
120.8526100202
 21
604.2432776511
 31
0.0
  0
LINE
  5
141
100
AcDbEntity
  8
52176993
370
         0
390
0
  6
CONTINUOUS
 62
         7
100
AcDbLine
 10
344.8526100202
 20
786.6054228256
 30
0.0
 11
344.8526100202
 21
809.6054228256
 31
0.0
  0
LINE
  5
142
100
AcDbEntity
  8
52176993
370
         0
390
0
  6
CONTINUOUS
 62
         7
100
AcDbLine
 10
161.3526100202
 20
610.1054228256
 30
0.0
 11
161.3526100202
 21
617.1054228256
 31
0.0
  0
LINE
  5
143
100
AcDbEntity
  8
52176993
370
         0
390
0
  6
CONTINUOUS
 62
         7
100
AcDbLine
 10
161.3526100202
 20
610.1054228256
 30
0.0
 11
161.3526100202
 21
603.1054228256
 31
0.0
  0
ARC
  5
144
100
AcDbEntity
  8
52176993
370
         0
390
0
  6
CONTINUOUS
 62
         7
100
AcDbCircle
 10
336.3526100202
 20
610.1054228256
 30
0.0
 40
136.7000000002
100
AcDbArc
 50
134.4941508514
 51
135.2889401327
  0
ARC
  5
145
100
AcDbEntity
  8
52176993
370
         0
390
0
  6
CONTINUOUS
 62
         7
100
AcDbCircle
 10
336.3526100204
 20
610.1054228255
 30
0.0
 40
136.7000000002
100
AcDbArc
 50
135.2889401327
 51
135.5445552222
  0
LINE
  5
146
100
AcDbEntity
  8
52176993
370
         0
390
0
  6
CONTINUOUS
 62
         7
100
AcDbLine
 10
329.3526100202
 20
785.1054228256
 30
0.0
 11
329.3526100202
 21
746.4263094466
 31
0.0
  0
LINE
  5
147
100
AcDbEntity
  8
52176993
370
         0
390
0
  6
CONTINUOUS
 62
         7
100
AcDbLine
 10
327.8526100202
 20
809.6054228256
 30
0.0
 11
327.8526100202
 21
786.6054228256
 31
0.0
  0
LINE
  5
148
100
AcDbEntity
  8
52176993
370
         0
390
0
  6
CONTINUOUS
 62
         7
100
AcDbLine
 10
329.5026100202
 20
825.6054228256
 30
0.0
 11
329.5026100202
 21
809.6054228256
 31
0.0
  0
LINE
  5
149
100
AcDbEntity
  8
52176993
370
         0
390
0
  6
CONTINUOUS
 62
         7
100
AcDbLine
 10
120.8526100202
 20
603.2554228256
 30
0.0
 11
136.8526100202
 21
603.2554228256
 31
0.0
  0
LINE
  5
14A
100
AcDbEntity
  8
52176993
370
         0
390
0
  6
CONTINUOUS
 62
         7
100
AcDbLine
 10
330.3526100202
 20
836.1054228256
 30
0.0
 11
330.3526100202
 21
834.6054228256
 31
0.0
  0
LINE
  5
14B
100
AcDbEntity
  8
52176993
370
         0
390
0
  6
CONTINUOUS
 62
         7
100
AcDbLine
 10
342.3526100202
 20
836.1054228256
 30
0.0
 11
343.2526100202
 21
837.0054228256
 31
0.0
  0
LINE
  5
14C
100
AcDbEntity
  8
52176993
370
         0
390
0
  6
CONTINUOUS
 62
         7
100
AcDbLine
 10
329.4526100202
 20
842.6054228256
 30
0.0
 11
329.4526100202
 21
837.0054228256
 31
0.0
  0
LINE
  5
14D
100
AcDbEntity
  8
52176993
370
         0
390
0
  6
CONTINUOUS
 62
         7
100
AcDbLine
 10
332.3526100202
 20
833.6054228256
 30
0.0
 11
332.3526100202
 21
830.6054228256
 31
0.0
  0
LINE
  5
14E
100
AcDbEntity
  8
52176993
370
         0
390
0
  6
CONTINUOUS
 62
         7
100
AcDbLine
 10
111.8526100202
 20
616.8554228256
 30
0.0
 11
111.8526100202
 21
603.3554228256
 31
0.0
  0
LINE
  5
14F
100
AcDbEntity
  8
52176993
370
         0
390
0
  6
CONTINUOUS
 62
         7
100
AcDbLine
 10
238.9182222803
 20
705.7024420559
 30
0.0
 11
238.776794527
 21
705.8438698093
 31
0.0
  0
LINE
  5
150
100
AcDbEntity
  8
52176993
370
         0
390
0
  6
CONTINUOUS
 62
         7
100
AcDbLine
 10
238.5917718028
 20
705.3685768309
 30
0.0
 11
238.4503386249
 21
705.5100100089
 31
0.0
  0
LINE
  5
151
100
AcDbEntity
  8
52176993
370
         0
390
0
  6
CONTINUOUS
 62
         7
100
AcDbLine
 10
240.6896945752
 20
707.4751132255
 30
0.0
 11
240.5482676989
 21
707.6165401017
 31
0.0
  0
LINE
  5
152
100
AcDbEntity
  8
52176993
370
         0
390
0
  6
CONTINUOUS
 62
         7
100
AcDbLine
 10
234.3217849446
 20
700.7804509999
 30
0.0
 11
234.1801186164
 21
700.9221173281
 31
0.0
  0
ARC
  5
153
100
AcDbEntity
  8
52176993
370
         0
390
0
  6
CONTINUOUS
 62
         7
100
AcDbCircle
 10
336.3526100202
 20
610.1054228256
 30
0.0
 40
136.7
100
AcDbArc
 50
137.0639978821
 51
137.8142004518
  0
ARC
  5
154
100
AcDbEntity
  8
52176993
370
         0
390
0
  6
CONTINUOUS
 62
         7
100
AcDbCircle
 10
336.3526100202
 20
610.1054228256
 30
0.0
 40
136.7
100
AcDbArc
 50
132.6092347853
 51
133.1354953593
  0
LINE
  5
155
100
AcDbEntity
  8
52176993
370
         0
390
0
  6
CONTINUOUS
 62
         7
100
AcDbLine
 10
243.948992517
 20
710.5734350102
 30
0.0
 11
243.8074477749
 21
710.7149797524
 31
0.0
  0
LINE
  5
156
100
AcDbEntity
  8
52176993
370
         0
390
0
  6
CONTINUOUS
 62
         7
100
AcDbLine
 10
244.7414812413
 20
711.2965839211
 30
0.0
 11
244.5998856684
 21
711.438179494
 31
0.0
  0
ARC
  5
157
100
AcDbEntity
  8
52176993
370
         0
390
0
  6
CONTINUOUS
 62
         7
100
AcDbCircle
 10
336.3526100202
 20
610.1054228256
 30
0.0
 40
136.6999999999
100
AcDbArc
 50
135.7402675827
 51
136.9880667501
  0
ARC
  5
158
100
AcDbEntity
  8
52176993
370
         0
390
0
  6
CONTINUOUS
 62
         7
100
AcDbCircle
 10
336.3526100221
 20
610.1054228238
 30
0.0
 40
136.7000000027
100
AcDbArc
 50
135.5445552222
 51
135.7402675827
  0
LINE
  5
159
100
AcDbEntity
  8
52176993
370
         0
390
0
  6
CONTINUOUS
 62
         7
100
AcDbLine
 10
236.4140001559
 20
703.0813565848
 30
0.0
 11
236.2724868543
 21
703.2228698864
 31
0.0
  0
LINE
  5
15A
100
AcDbEntity
  8
52176993
370
         0
390
0
  6
CONTINUOUS
 62
         7
100
AcDbLine
 10
330.4904648457
 20
830.6054228256
 30
0.0
 11
330.4904648457
 21
825.6054228256
 31
0.0
  0
CIRCLE
  5
15B
100
AcDbEntity
  8
52176993
370
         0
390
0
  6
CONTINUOUS
 62
         7
100
AcDbCircle
 10
336.3526100202
 20
610.1054228256
 30
0.0
 40
136.5
  0
LINE
  5
15C
100
AcDbEntity
  8
52176993
370
         0
390
0
  6
CONTINUOUS
 62
         7
100
AcDbLine
 10
136.8526100202
 20
618.6054228256
 30
0.0
 11
136.8526100202
 21
601.6054228256
 31
0.0
  0
CIRCLE
  5
15D
100
AcDbEntity
  8
52176993
370
         0
390
0
  6
CONTINUOUS
 62
         7
100
AcDbCircle
 10
336.3526100202
 20
610.1054228256
 30
0.0
 40
101.5
  0
LINE
  5
15E
100
AcDbEntity
  8
52176993
370
         0
390
0
  6
CONTINUOUS
 62
         7
100
AcDbLine
 10
343.2526100202
 20
842.6054228256
 30
0.0
 11
329.4526100202
 21
842.6054228256
 31
0.0
  0
LINE
  5
15F
100
AcDbEntity
  8
52176993
370
         0
390
0
  6
CONTINUOUS
 62
         7
100
AcDbLine
 10
343.2526100202
 20
837.0054228256
 30
0.0
 11
329.4526100202
 21
837.0054228256
 31
0.0
  0
LINE
  5
160
100
AcDbEntity
  8
52176993
370
         0
390
0
  6
CONTINUOUS
 62
         7
100
AcDbLine
 10
342.3526100202
 20
825.6054228256
 30
0.0
 11
343.2026100202
 21
825.6054228256
 31
0.0
  0
LINE
  5
161
100
AcDbEntity
  8
52176993
370
         0
390
0
  6
CONTINUOUS
 62
         7
100
AcDbLine
 10
343.1026100202
 20
833.6054228256
 30
0.0
 11
329.6026100202
 21
833.6054228256
 31
0.0
  0
LINE
  5
162
100
AcDbEntity
  8
52176993
370
         0
390
0
  6
CONTINUOUS
 62
         7
100
AcDbLine
 10
343.1026100202
 20
834.6054228256
 30
0.0
 11
329.6026100202
 21
834.6054228256
 31
0.0
  0
LINE
  5
163
100
AcDbEntity
  8
52176993
370
         0
390
0
  6
CONTINUOUS
 62
         7
100
AcDbLine
 10
336.4904648457
 20
830.6054228256
 30
0.0
 11
336.2147551947
 21
830.6054228256
 31
0.0
  0
LINE
  5
164
100
AcDbEntity
  8
52176993
370
         0
390
0
  6
CONTINUOUS
 62
         7
100
AcDbLine
 10
342.3526100202
 20
836.1054228256
 30
0.0
 11
330.3526100202
 21
836.1054228256
 31
0.0
  0
LINE
  5
165
100
AcDbEntity
  8
52176993
370
         0
390
0
  6
CONTINUOUS
 62
         7
100
AcDbLine
 10
330.3526100202
 20
825.6054228256
 30
0.0
 11
330.3526100202
 21
830.6054228256
 31
0.0
  0
LINE
  5
166
100
AcDbEntity
  8
52176993
370
         0
390
0
  6
CONTINUOUS
 62
         7
100
AcDbLine
 10
161.3526100202
 20
603.1054228256
 30
0.0
 11
200.0317233993
 21
603.1054228256
 31
0.0
  0
LINE
  5
167
100
AcDbEntity
  8
52176993
370
         0
390
0
  6
CONTINUOUS
 62
         7
100
AcDbLine
 10
115.8526100202
 20
616.1054228256
 30
0.0
 11
115.8526100202
 21
615.9675680002
 31
0.0
  0
LINE
  5
168
100
AcDbEntity
  8
52176993
370
         0
390
0
  6
CONTINUOUS
 62
         7
100
AcDbLine
 10
115.8526100202
 20
610.2432776511
 30
0.0
 11
115.8526100202
 21
609.9675680002
 31
0.0
  0
LINE
  5
169
100
AcDbEntity
  8
52176993
370
         0
390
0
  6
CONTINUOUS
 62
         7
100
AcDbLine
 10
115.8526100202
 20
616.1054228256
 30
0.0
 11
120.8526100202
 21
616.1054228256
 31
0.0
  0
LINE
  5
16A
100
AcDbEntity
  8
52176993
370
         0
390
0
  6
CONTINUOUS
 62
         7
100
AcDbLine
 10
112.8526100202
 20
606.1054228256
 30
0.0
 11
115.8526100202
 21
606.1054228256
 31
0.0
  0
LINE
  5
16B
100
AcDbEntity
  8
52176993
370
         0
390
0
  6
CONTINUOUS
 62
         7
100
AcDbLine
 10
115.8526100202
 20
609.9675680002
 30
0.0
 11
115.8526100202
 21
604.2432776511
 31
0.0
  0
LINE
  5
16C
100
AcDbEntity
  8
52176993
370
         0
390
0
  6
CONTINUOUS
 62
         7
100
AcDbLine
 10
115.8526100202
 20
615.9675680002
 30
0.0
 11
115.8526100202
 21
610.2432776511
 31
0.0
  0
LINE
  5
16D
100
AcDbEntity
  8
52176993
370
         0
390
0
  6
CONTINUOUS
 62
         7
100
AcDbLine
 10
120.8526100202
 20
615.9675680002
 30
0.0
 11
120.8526100202
 21
610.2432776511
 31
0.0
  0
LINE
  5
16E
100
AcDbEntity
  8
52176993
370
         0
390
0
  6
CONTINUOUS
 62
         7
100
AcDbLine
 10
342.2147551947
 20
825.6054228256
 30
0.0
 11
342.2147551947
 21
830.6054228256
 31
0.0
  0
LINE
  5
16F
100
AcDbEntity
  8
52176993
370
         0
390
0
  6
CONTINUOUS
 62
         7
100
AcDbLine
 10
336.4904648457
 20
830.6054228256
 30
0.0
 11
336.4904648457
 21
825.6054228256
 31
0.0
  0
LINE
  5
170
100
AcDbEntity
  8
52176993
370
         0
390
0
  6
CONTINUOUS
 62
         7
100
AcDbLine
 10
336.2147551947
 20
825.6054228256
 30
0.0
 11
336.2147551947
 21
830.6054228256
 31
0.0
  0
LINE
  5
171
100
AcDbEntity
  8
52176993
370
         0
390
0
  6
CONTINUOUS
 62
         7
100
AcDbLine
 10
342.3526100202
 20
830.6054228256
 30
0.0
 11
342.3526100202
 21
825.6054228256
 31
0.0
  0
LINE
  5
172
100
AcDbEntity
  8
52176993
370
         0
390
0
  6
CONTINUOUS
 62
         7
100
AcDbLine
 10
111.8526100202
 20
603.3554228256
 30
0.0
 11
112.8526100202
 21
603.3554228256
 31
0.0
  0
LINE
  5
173
100
AcDbEntity
  8
52176993
370
         0
390
0
  6
CONTINUOUS
 62
         7
100
AcDbLine
 10
110.3526100202
 20
616.1054228256
 30
0.0
 11
109.4526100202
 21
617.0054228256
 31
0.0
  0
LINE
  5
174
100
AcDbEntity
  8
52176993
370
         0
390
0
  6
CONTINUOUS
 62
         7
100
AcDbLine
 10
103.8526100202
 20
603.2054228256
 30
0.0
 11
109.4526100202
 21
603.2054228256
 31
0.0
  0
LINE
  5
175
100
AcDbEntity
  8
52176993
370
         0
390
0
  6
CONTINUOUS
 62
         7
100
AcDbLine
 10
327.8526100202
 20
786.6054228256
 30
0.0
 11
331.5307846397
 21
786.6054228256
 31
0.0
  0
LINE
  5
176
100
AcDbEntity
  8
52176993
370
         0
390
0
  6
CONTINUOUS
 62
         7
100
AcDbLine
 10
331.5307846397
 20
795.1054228256
 30
0.0
 11
331.5307846397
 21
786.6054228256
 31
0.0
  0
LINE
  5
177
100
AcDbEntity
  8
52176993
370
         0
390
0
  6
CONTINUOUS
 62
         7
100
AcDbLine
 10
336.3526100202
 20
785.1054228256
 30
0.0
 11
343.3526100202
 21
785.1054228256
 31
0.0
  0
LINE
  5
178
100
AcDbEntity
  8
52176993
370
         0
390
0
  6
CONTINUOUS
 62
         7
100
AcDbLine
 10
243.0287641112
 20
709.7192260095
 30
0.0
 11
242.8872677319
 21
709.8607223888
 31
0.0
  0
ARC
  5
179
100
AcDbEntity
  8
52176993
370
         0
390
0
  6
CONTINUOUS
 62
         7
100
AcDbCircle
 10
336.3526100202
 20
610.1054228256
 30
0.0
 40
136.7
100
AcDbArc
 50
132.1595705919
 51
132.6092347853
  0
LINE
  5
17A
100
AcDbEntity
  8
52176993
370
         0
390
0
  6
CONTINUOUS
 62
         7
100
AcDbLine
 10
245.677581846
 20
712.1362479012
 30
0.0
 11
245.5359155178
 21
712.2779142294
 31
0.0
  0
ARC
  5
17B
100
AcDbEntity
  8
52176993
370
         0
390
0
  6
CONTINUOUS
 62
         7
100
AcDbCircle
 10
336.3526100202
 20
610.1054228256
 30
0.0
 40
136.7
100
AcDbArc
 50
131.6325062318
 51
132.1595705919
  0
ENDBLK
  5
17C
100
AcDbEntity
  8
52176993
370
         0
390
0
  6
CONTINUOUS
 62
         7
100
AcDbBlockEnd
  0
BLOCK
  5
1B5
100
AcDbEntity
  8
0
370
         0
390
0
 62
         1
 48
0.0
100
AcDbBlockBegin
  2
SE6
 70
         0
 10
0.0
 20
0.0
 30
0.0
  3
SE6
  1

  0
ENDBLK
  5
1B6
100
AcDbEntity
  8
0
370
         0
390
0
 62
         1
 48
0.0
100
AcDbBlockEnd
  0
BLOCK
  5
17F
100
AcDbEntity
  8
0
370
         0
390
0
 62
         1
 48
0.0
100
AcDbBlockBegin
  2
SE7
 70
         0
 10
0.0
 20
0.0
 30
0.0
  3
SE7
  1

  0
LINE
  5
180
100
AcDbEntity
  8
52176993
370
         0
390
0
  6
CONTINUOUS
 62
         7
100
AcDbLine
 10
331.7575275536
 20
380.3150164789
 30
0.0
 11
331.7575275536
 21
374.7150164789
 31
0.0
  0
LINE
  5
181
100
AcDbEntity
  8
52176993
370
         0
390
0
  6
CONTINUOUS
 62
         7
100
AcDbLine
 10
331.9075275536
 20
372.3150164789
 30
0.0
 11
331.9075275536
 21
371.3150164789
 31
0.0
  0
LINE
  5
182
100
AcDbEntity
  8
52176993
370
         0
390
0
  6
CONTINUOUS
 62
         7
100
AcDbLine
 10
330.1575275536
 20
347.3150164789
 30
0.0
 11
330.1575275536
 21
333.6810418827
 31
0.0
  0
LINE
  5
183
100
AcDbEntity
  8
52176993
370
         0
390
0
  6
CONTINUOUS
 62
         7
100
AcDbLine
 10
344.6575275536
 20
373.8150164789
 30
0.0
 11
345.5575275536
 21
374.7150164789
 31
0.0
  0
LINE
  5
184
100
AcDbEntity
  8
52176993
370
         0
390
0
  6
CONTINUOUS
 62
         7
100
AcDbLine
 10
331.6575275536
 20
322.8150164789
 30
0.0
 11
331.6575275536
 21
284.3150164789
 31
0.0
  0
LINE
  5
185
100
AcDbEntity
  8
52176993
370
         0
390
0
  6
CONTINUOUS
 62
         7
100
AcDbLine
 10
331.8075275536
 20
368.3150164789
 30
0.0
 11
331.8089148439
 21
368.3150164789
 31
0.0
  0
LINE
  5
186
100
AcDbEntity
  8
52176993
370
         0
390
0
  6
CONTINUOUS
 62
         7
100
AcDbLine
 10
335.1138354178
 20
368.3150164789
 30
0.0
 11
331.8089148439
 21
368.3150164789
 31
0.0
  0
LINE
  5
187
100
AcDbEntity
  8
52176993
370
         0
390
0
  6
CONTINUOUS
 62
         7
100
AcDbLine
 10
329.6575275536
 20
11.3150164789
 30
0.0
 11
347.6575275536
 21
11.3150164789
 31
0.0
  0
LINE
  5
188
100
AcDbEntity
  8
52176993
370
         0
390
0
  6
CONTINUOUS
 62
         7
100
AcDbLine
 10
332.6575275536
 20
373.8150164789
 30
0.0
 11
344.6575275536
 21
373.8150164789
 31
0.0
  0
LINE
  5
189
100
AcDbEntity
  8
52176993
370
         0
390
0
  6
CONTINUOUS
 62
         7
100
AcDbLine
 10
345.5075275536
 20
368.3150164789
 30
0.0
 11
345.5061402632
 21
368.3150164789
 31
0.0
  0
LINE
  5
18A
100
AcDbEntity
  8
52176993
370
         0
390
0
  6
CONTINUOUS
 62
         7
100
AcDbLine
 10
347.6575275536
 20
284.3150164789
 30
0.0
 11
345.6575275536
 21
284.3150164789
 31
0.0
  0
LINE
  5
18B
100
AcDbEntity
  8
52176993
370
         0
390
0
  6
CONTINUOUS
 62
         7
100
AcDbLine
 10
345.5075275536
 20
347.3150164789
 30
0.0
 11
345.5075275536
 21
368.3150164789
 31
0.0
  0
LINE
  5
18C
100
AcDbEntity
  8
52176993
370
         0
390
0
  6
CONTINUOUS
 62
         7
100
AcDbLine
 10
331.6624549325
 20
284.3150164789
 30
0.0
 11
329.6575275536
 21
284.3150164789
 31
0.0
  0
LINE
  5
18D
100
AcDbEntity
  8
52176993
370
         0
390
0
  6
CONTINUOUS
 62
         7
100
AcDbLine
 10
345.6575275536
 20
324.3150164789
 30
0.0
 11
345.6575275536
 21
322.8150164789
 31
0.0
  0
LINE
  5
18E
100
AcDbEntity
  8
52176993
370
         0
390
0
  6
CONTINUOUS
 62
         7
100
AcDbLine
 10
335.3526069796
 20
368.3150164789
 30
0.0
 11
335.1138354178
 21
368.3150164789
 31
0.0
  0
LINE
  5
18F
100
AcDbEntity
  8
52176993
370
         0
390
0
  6
CONTINUOUS
 62
         7
100
AcDbLine
 10
342.2012196893
 20
368.3150164789
 30
0.0
 11
341.9624481275
 21
368.3150164789
 31
0.0
  0
LINE
  5
190
100
AcDbEntity
  8
52176993
370
         0
390
0
  6
CONTINUOUS
 62
         7
100
AcDbLine
 10
341.9624481275
 20
363.3150164789
 30
0.0
 11
335.3526069796
 21
363.3150164789
 31
0.0
  0
LINE
  5
191
100
AcDbEntity
  8
52176993
370
         0
390
0
  6
CONTINUOUS
 62
         7
100
AcDbLine
 10
345.5061402632
 20
363.3150164789
 30
0.0
 11
342.2012196893
 21
363.3150164789
 31
0.0
  0
LINE
  5
192
100
AcDbEntity
  8
52176993
370
         0
390
0
  6
CONTINUOUS
 62
         7
100
AcDbLine
 10
335.1138354178
 20
363.3150164789
 30
0.0
 11
331.8089148439
 21
363.3150164789
 31
0.0
  0
LINE
  5
193
100
AcDbEntity
  8
52176993
370
         0
390
0
  6
CONTINUOUS
 62
         7
100
AcDbLine
 10
345.5061402632
 20
363.3150164789
 30
0.0
 11
345.5061402632
 21
368.3150164789
 31
0.0
  0
LINE
  5
194
100
AcDbEntity
  8
52176993
370
         0
390
0
  6
CONTINUOUS
 62
         7
100
AcDbLine
 10
331.8089148439
 20
368.3150164789
 30
0.0
 11
331.8089148439
 21
363.3150164789
 31
0.0
  0
LINE
  5
195
100
AcDbEntity
  8
52176993
370
         0
390
0
  6
CONTINUOUS
 62
         7
100
AcDbLine
 10
335.1138354178
 20
363.3150164789
 30
0.0
 11
335.1138354178
 21
368.3150164789
 31
0.0
  0
LINE
  5
196
100
AcDbEntity
  8
52176993
370
         0
390
0
  6
CONTINUOUS
 62
         7
100
AcDbLine
 10
335.3526069796
 20
368.3150164789
 30
0.0
 11
335.3526069796
 21
363.3150164789
 31
0.0
  0
LINE
  5
197
100
AcDbEntity
  8
52176993
370
         0
390
0
  6
CONTINUOUS
 62
         7
100
AcDbLine
 10
341.9624481275
 20
363.3150164789
 30
0.0
 11
341.9624481275
 21
368.3150164789
 31
0.0
  0
LINE
  5
198
100
AcDbEntity
  8
52176993
370
         0
390
0
  6
CONTINUOUS
 62
         7
100
AcDbLine
 10
342.2012196893
 20
368.3150164789
 30
0.0
 11
342.2012196893
 21
363.3150164789
 31
0.0
  0
LINE
  5
199
100
AcDbEntity
  8
52176993
370
         0
390
0
  6
CONTINUOUS
 62
         7
100
AcDbLine
 10
331.8075275536
 20
368.3150164789
 30
0.0
 11
331.8075275536
 21
347.3150164789
 31
0.0
  0
LINE
  5
19A
100
AcDbEntity
  8
52176993
370
         0
390
0
  6
CONTINUOUS
 62
         7
100
AcDbLine
 10
345.6575275536
 20
284.3150164789
 30
0.0
 11
345.6575275536
 21
322.8150164789
 31
0.0
  0
LINE
  5
19B
100
AcDbEntity
  8
52176993
370
         0
390
0
  6
CONTINUOUS
 62
         7
100
AcDbLine
 10
331.7575275536
 20
374.7150164789
 30
0.0
 11
332.6575275536
 21
373.8150164789
 31
0.0
  0
LINE
  5
19C
100
AcDbEntity
  8
52176993
370
         0
390
0
  6
CONTINUOUS
 62
         7
100
AcDbLine
 10
345.5575275536
 20
374.7150164789
 30
0.0
 11
345.5575275536
 21
380.3150164789
 31
0.0
  0
LINE
  5
19D
100
AcDbEntity
  8
52176993
370
         0
390
0
  6
CONTINUOUS
 62
         7
100
AcDbLine
 10
345.4075275536
 20
371.3150164789
 30
0.0
 11
345.4075275536
 21
372.3150164789
 31
0.0
  0
LINE
  5
19E
100
AcDbEntity
  8
52176993
370
         0
390
0
  6
CONTINUOUS
 62
         7
100
AcDbLine
 10
344.6575275536
 20
372.3150164789
 30
0.0
 11
344.6575275536
 21
373.8150164789
 31
0.0
  0
LINE
  5
19F
100
AcDbEntity
  8
52176993
370
         0
390
0
  6
CONTINUOUS
 62
         7
100
AcDbLine
 10
342.6575275536
 20
368.3150164789
 30
0.0
 11
342.6575275536
 21
371.3150164789
 31
0.0
  0
LINE
  5
1A0
100
AcDbEntity
  8
52176993
370
         0
390
0
  6
CONTINUOUS
 62
         7
100
AcDbLine
 10
347.1575275536
 20
333.6810418827
 30
0.0
 11
347.1575275536
 21
347.3150164789
 31
0.0
  0
LINE
  5
1A1
100
AcDbEntity
  8
52176993
370
         0
390
0
  6
CONTINUOUS
 62
         7
100
AcDbLine
 10
331.7575275536
 20
374.7150164789
 30
0.0
 11
345.5575275536
 21
374.7150164789
 31
0.0
  0
LINE
  5
1A2
100
AcDbEntity
  8
52176993
370
         0
390
0
  6
CONTINUOUS
 62
         7
100
AcDbLine
 10
331.9075275536
 20
372.3150164789
 30
0.0
 11
345.4075275536
 21
372.3150164789
 31
0.0
  0
LINE
  5
1A3
100
AcDbEntity
  8
52176993
370
         0
390
0
  6
CONTINUOUS
 62
         7
100
AcDbLine
 10
331.9075275536
 20
371.3150164789
 30
0.0
 11
345.4075275536
 21
371.3150164789
 31
0.0
  0
LINE
  5
1A4
100
AcDbEntity
  8
52176993
370
         0
390
0
  6
CONTINUOUS
 62
         7
100
AcDbLine
 10
331.7575275536
 20
380.3150164789
 30
0.0
 11
345.5575275536
 21
380.3150164789
 31
0.0
  0
LINE
  5
1A5
100
AcDbEntity
  8
52176993
370
         0
390
0
  6
CONTINUOUS
 62
         7
100
AcDbLine
 10
345.6575275536
 20
332.8150164789
 30
0.0
 11
345.6575275536
 21
324.3150164789
 31
0.0
  0
LINE
  5
1A6
100
AcDbEntity
  8
52176993
370
         0
390
0
  6
CONTINUOUS
 62
         7
100
AcDbLine
 10
345.6575275536
 20
324.3150164789
 30
0.0
 11
331.6575275536
 21
324.3150164789
 31
0.0
  0
LINE
  5
1A7
100
AcDbEntity
  8
52176993
370
         0
390
0
  6
CONTINUOUS
 62
         7
100
AcDbLine
 10
331.6575275536
 20
324.3150164789
 30
0.0
 11
331.6575275536
 21
332.8150164789
 31
0.0
  0
LINE
  5
1A8
100
AcDbEntity
  8
52176993
370
         0
390
0
  6
CONTINUOUS
 62
         7
100
AcDbLine
 10
330.1575275536
 20
347.3150164789
 30
0.0
 11
347.1575275536
 21
347.3150164789
 31
0.0
  0
LINE
  5
1A9
100
AcDbEntity
  8
52176993
370
         0
390
0
  6
CONTINUOUS
 62
         7
100
AcDbLine
 10
345.6575275536
 20
322.8150164789
 30
0.0
 11
331.6575275536
 21
322.8150164789
 31
0.0
  0
LINE
  5
1AA
100
AcDbEntity
  8
52176993
370
         0
390
0
  6
CONTINUOUS
 62
         7
100
AcDbLine
 10
345.5061402632
 20
368.3150164789
 30
0.0
 11
342.2012196893
 21
368.3150164789
 31
0.0
  0
LINE
  5
1AB
100
AcDbEntity
  8
52176993
370
         0
390
0
  6
CONTINUOUS
 62
         7
100
AcDbLine
 10
329.6575275536
 20
11.3150164789
 30
0.0
 11
329.6575275536
 21
284.3150164789
 31
0.0
  0
LINE
  5
1AC
100
AcDbEntity
  8
52176993
370
         0
390
0
  6
CONTINUOUS
 62
         7
100
AcDbLine
 10
347.6575275536
 20
11.3150164789
 30
0.0
 11
347.6575275536
 21
284.3150164789
 31
0.0
  0
LINE
  5
1AD
100
AcDbEntity
  8
52176993
370
         0
390
0
  6
CONTINUOUS
 62
         7
100
AcDbLine
 10
331.6575275536
 20
322.8150164789
 30
0.0
 11
331.6575275536
 21
324.3150164789
 31
0.0
  0
ARC
  5
1AE
100
AcDbEntity
  8
52176993
370
         0
390
0
  6
CONTINUOUS
 62
         7
100
AcDbCircle
 10
338.6575275539
 20
420.6402252024
 30
0.0
 40
136.5048077304
100
AcDbArc
 50
267.0605693231
 51
272.9394308643
  0
LINE
  5
1AF
100
AcDbEntity
  8
52176993
370
         0
390
0
  6
CONTINUOUS
 62
         7
100
AcDbLine
 10
345.6575275536
 20
332.8150164789
 30
0.0
 11
347.1575275536
 21
333.6810418827
 31
0.0
  0
LINE
  5
1B0
100
AcDbEntity
  8
52176993
370
         0
390
0
  6
CONTINUOUS
 62
         7
100
AcDbLine
 10
330.1575275536
 20
333.6810418827
 30
0.0
 11
331.6575275536
 21
332.8150164789
 31
0.0
  0
LINE
  5
1B1
100
AcDbEntity
  8
52176993
370
         0
390
0
  6
CONTINUOUS
 62
         7
100
AcDbLine
 10
332.6575275536
 20
373.8150164789
 30
0.0
 11
332.6575275536
 21
372.3150164789
 31
0.0
  0
LINE
  5
1B2
100
AcDbEntity
  8
52176993
370
         0
390
0
  6
CONTINUOUS
 62
         7
100
AcDbLine
 10
334.6575275536
 20
371.3150164789
 30
0.0
 11
334.6575275536
 21
368.3150164789
 31
0.0
  0
LINE
  5
1B3
100
AcDbEntity
  8
52176993
370
         0
390
0
  6
CONTINUOUS
 62
         7
100
AcDbLine
 10
341.9624481275
 20
368.3150164789
 30
0.0
 11
335.3526069796
 21
368.3150164789
 31
0.0
  0
ENDBLK
  5
1B4
100
AcDbEntity
  8
52176993
370
         0
390
0
  6
CONTINUOUS
 62
         7
100
AcDbBlockEnd
  0
ENDSEC
  0
SECTION
  2
ENTITIES
  0
INSERT
  5
47
102
{ACAD_XDICTIONARY
360
48
102
}
100
AcDbEntity
  8
0
370
         0
390
0
 62
         0
 48
0.0
100
AcDbBlockReference
  2
SE1
 10
0.0
 20
0.0
 30
0.0
  0
INSERT
  5
4B
100
AcDbEntity
  8
0
370
         0
390
0
 62
         0
 48
0.0
100
AcDbBlockReference
  2
SE0
 10
0.0
 20
0.0
 30
0.0
  0
INSERT
  5
4E
102
{ACAD_XDICTIONARY
360
4F
102
}
100
AcDbEntity
  8
0
370
         0
390
0
 62
         0
 48
0.0
100
AcDbBlockReference
  2
SE3
 10
0.0
 20
0.0
 30
0.0
  0
INSERT
  5
52
100
AcDbEntity
  8
0
370
         0
390
0
 62
         0
 48
0.0
100
AcDbBlockReference
  2
SE2
 10
0.0
 20
0.0
 30
0.0
  0
INSERT
  5
55
102
{ACAD_XDICTIONARY
360
56
102
}
100
AcDbEntity
  8
0
370
         0
390
0
 62
         0
 48
0.0
100
AcDbBlockReference
  2
SE5
 10
0.0
 20
0.0
 30
0.0
  0
INSERT
  5
59
100
AcDbEntity
  8
0
370
         0
390
0
 62
         0
 48
0.0
100
AcDbBlockReference
  2
SE4
 10
0.0
 20
0.0
 30
0.0
  0
INSERT
  5
5C
102
{ACAD_XDICTIONARY
360
5D
102
}
100
AcDbEntity
  8
0
370
         0
390
0
 62
         0
 48
0.0
100
AcDbBlockReference
  2
SE7
 10
0.0
 20
0.0
 30
0.0
  0
INSERT
  5
60
100
AcDbEntity
  8
0
370
         0
390
0
 62
         0
 48
0.0
100
AcDbBlockReference
  2
SE6
 10
0.0
 20
0.0
 30
0.0
  0
ENDSEC
  0
SECTION
  2
OBJECTS
  0
DICTIONARY
  5
19
100
AcDbDictionary
280
         0
281
         1
  3
ACAD_GROUP
350
1A
  3
ACAD_MLINESTYLE
350
1B
  3
ACAD_LAYOUT
350
1E
  3
ACAD_PLOTSETTINGS
350
22
  3
ACAD_PLOTSTYLENAME
350
1F
  3
ACAD_WIPEOUT_VARS
350
23
  3
AcDbVariableDictionary
350
1B7
  0
DICTIONARY
  5
1A
102
{ACAD_REACTORS
330
19
102
}
100
AcDbDictionary
280
         0
281
         1
  0
DICTIONARY
  5
1B
102
{ACAD_REACTORS
330
19
102
}
100
AcDbDictionary
280
         0
281
         1
  3
Standard
350
1C
  0
MLINESTYLE
  5
1C
102
{ACAD_REACTORS
330
1B
102
}
100
AcDbMlineStyle
  2
Standard
 70
         0
  3

 62
         0
 51
90.0
 52
90.0
 71
         2
 49
0.5
 62
       256
  6
ByLayer
 49
-0.5
 62
       256
  6
ByLayer
  0
ACDBDICTIONARYWDFLT
  5
1F
102
{ACAD_REACTORS
330
19
102
}
100
AcDbDictionary
281
         1
  3
Normal
350
1D
100
AcDbDictionaryWithDefault
340
1D
  0
ACDBPLACEHOLDER
  5
1D
102
{ACAD_REACTORS
330
1F
102
}
  0
LAYOUT
  5
20
102
{ACAD_REACTORS
330
1E
102
}
100
AcDbPlotSettings
  1

  2

  4

  6

 40
0.0
 41
0.0
 42
0.0
 43
0.0
 44
0.0
 45
0.0
 46
0.0
 47
0.0
 48
0.0
 49
0.0
140
0.0
141
0.0
142
1.0
143
1.0
 70
      1024
 72
         0
 73
         0
 74
         0
  7

 75
         0
147
1.0
148
0.0
149
0.0
100
AcDbLayout
  1
Model
 70
         0
 71
         0
 10
0.0
 20
0.0
 11
0.0
 21
0.0
 12
0.0
 22
0.0
 32
0.0
 14
0.0
 24
0.0
 34
0.0
 15
0.0
 25
0.0
 35
0.0
146
0.0
 13
0.0
 23
0.0
 33
0.0
 16
0.0
 26
0.0
 36
0.0
 17
0.0
 27
0.0
 37
0.0
 76
         0
330
A
331
0
345
0
346
0
  0
LAYOUT
  5
21
102
{ACAD_REACTORS
330
1E
102
}
100
AcDbPlotSettings
  1

  2

  4

  6

 40
0.0
 41
0.0
 42
0.0
 43
0.0
 44
0.0
 45
0.0
 46
0.0
 47
0.0
 48
0.0
 49
0.0
140
0.0
141
0.0
142
1.0
143
1.0
 70
         0
 72
         0
 73
         0
 74
         0
  7

 75
         0
147
1.0
148
0.0
149
0.0
100
AcDbLayout
  1
Layout1
 70
         0
 71
         0
 10
0.0
 20
0.0
 11
0.0
 21
0.0
 12
0.0
 22
0.0
 32
0.0
 14
0.0
 24
0.0
 34
0.0
 15
0.0
 25
0.0
 35
0.0
146
0.0
 13
0.0
 23
0.0
 33
0.0
 16
0.0
 26
0.0
 36
0.0
 17
0.0
 27
0.0
 37
0.0
 76
         0
330
B
331
0
345
0
346
0
  0
DICTIONARY
  5
1E
102
{ACAD_REACTORS
330
19
102
}
100
AcDbDictionary
280
         0
281
         1
  3
Layout1
350
21
  3
Model
350
20
  0
DICTIONARY
  5
22
102
{ACAD_REACTORS
330
19
102
}
100
AcDbDictionary
280
         0
281
         1
  0
WIPEOUTVARIABLES
  5
23
100
AcDbWipeoutVariables
 70
         1
  0
DICTIONARY
  5
48
100
AcDbDictionary
280
         0
281
         0
  3
ACAD_FILTER
350
49
  0
DICTIONARY
  5
49
100
AcDbDictionary
280
         0
281
         0
  3
SPATIAL
350
4A
  0
SPATIAL_FILTER
  5
4A
100
AcDbFilter
100
AcDbSpatialFilter
 70
         2
 10
17.0694768555
 20
4.9650225585
 10
47.7694760806
 20
386.6650103992
210
0.0
220
0.0
230
1.0
 11
0.0
 21
0.0
 31
0.0
 71
         1
 72
         0
 73
         0
 40
1.0
 40
0.0
 40
0.0
 40
0.0
 40
0.0
 40
1.0
 40
0.0
 40
0.0
 40
0.0
 40
0.0
 40
1.0
 40
0.0
 40
1.0
 40
0.0
 40
0.0
 40
0.0
 40
0.0
 40
1.0
 40
0.0
 40
0.0
 40
0.0
 40
0.0
 40
1.0
 40
0.0
  0
DICTIONARY
  5
4F
100
AcDbDictionary
280
         0
281
         0
  3
ACAD_FILTER
350
50
  0
DICTIONARY
  5
50
100
AcDbDictionary
280
         0
281
         0
  3
SPATIAL
350
51
  0
SPATIAL_FILTER
  5
51
100
AcDbFilter
100
AcDbSpatialFilter
 70
         2
 10
17.0694768555
 20
467.2554289053
 10
47.7694760806
 20
848.955416746
210
0.0
220
0.0
230
1.0
 11
0.0
 21
0.0
 31
0.0
 71
         1
 72
         0
 73
         0
 40
1.0
 40
0.0
 40
0.0
 40
0.0
 40
0.0
 40
1.0
 40
0.0
 40
0.0
 40
0.0
 40
0.0
 40
1.0
 40
0.0
 40
1.0
 40
0.0
 40
0.0
 40
0.0
 40
0.0
 40
1.0
 40
0.0
 40
0.0
 40
0.0
 40
0.0
 40
1.0
 40
0.0
  0
DICTIONARY
  5
56
100
AcDbDictionary
280
         0
281
         0
  3
ACAD_FILTER
350
57
  0
DICTIONARY
  5
57
100
AcDbDictionary
280
         0
281
         0
  3
SPATIAL
350
58
  0
SPATIAL_FILTER
  5
58
100
AcDbFilter
100
AcDbSpatialFilter
 70
         2
 10
97.5026160999
 20
467.2554289053
 10
479.2026039405
 20
848.955416746
210
0.0
220
0.0
230
1.0
 11
0.0
 21
0.0
 31
0.0
 71
         1
 72
         0
 73
         0
 40
1.0
 40
0.0
 40
0.0
 40
0.0
 40
0.0
 40
1.0
 40
0.0
 40
0.0
 40
0.0
 40
0.0
 40
1.0
 40
0.0
 40
1.0
 40
0.0
 40
0.0
 40
0.0
 40
0.0
 40
1.0
 40
0.0
 40
0.0
 40
0.0
 40
0.0
 40
1.0
 40
0.0
  0
DICTIONARY
  5
5D
100
AcDbDictionary
280
         0
281
         0
  3
ACAD_FILTER
350
5E
  0
DICTIONARY
  5
5E
100
AcDbDictionary
280
         0
281
         0
  3
SPATIAL
350
5F
  0
SPATIAL_FILTER
  5
5F
100
AcDbFilter
100
AcDbSpatialFilter
 70
         2
 10
323.307527941
 20
4.9650225585
 10
354.0075271661
 20
386.6650103992
210
0.0
220
0.0
230
1.0
 11
0.0
 21
0.0
 31
0.0
 71
         1
 72
         0
 73
         0
 40
1.0
 40
0.0
 40
0.0
 40
0.0
 40
0.0
 40
1.0
 40
0.0
 40
0.0
 40
0.0
 40
0.0
 40
1.0
 40
0.0
 40
1.0
 40
0.0
 40
0.0
 40
0.0
 40
0.0
 40
1.0
 40
0.0
 40
0.0
 40
0.0
 40
0.0
 40
1.0
 40
0.0
  0
DICTIONARY
  5
1B7
100
AcDbDictionary
280
         0
281
         0
  3
DIMASSOC
350
1B8
  0
DICTIONARYVAR
  5
1B8
100
DictionaryVariables
280
         0
  1
2
  0
ENDSEC
  0
EOF
