  0
SECTION
  2
HEADER
  9
$ACADVER
  1
AC1015
  9
$ACADMAINTVER
 70
         6
  9
$DWGCODEPAGE
  3
ANSI_1252
  9
$INSBASE
 10
0.0
 20
0.0
 30
0.0
  9
$EXTMIN
 10
0.0
 20
0.0
 30
0.0
  9
$EXTMAX
 10
594.0
 20
420.0
 30
0.0
  9
$LIMMIN
 10
0.0
 20
0.0
  9
$LIMMAX
 10
594.0
 20
420.0
  9
$ORTHOMODE
 70
         0
  9
$REGENMODE
 70
         1
  9
$FILLMODE
 70
         1
  9
$QTEXTMODE
 70
         0
  9
$MIRRTEXT
 70
         1
  9
$LTSCALE
 40
25.4
  9
$ATTMODE
 70
         1
  9
$TEXTSIZE
 40
0.2
  9
$TRACEWID
 40
0.05
  9
$TEXTSTYLE
  7
Standard
  9
$CLAYER
  8
0
  9
$CELTYPE
  6
CONTINUOUS
  9
$CECOLOR
 62
       256
  9
$CELTSCALE
 40
1.0
  9
$DISPSILH
 70
         0
  9
$DIMSCALE
 40
1.0
  9
$DIMASZ
 40
0.18
  9
$DIMEXO
 40
0.0625
  9
$DIMDLI
 40
0.38
  9
$DIMRND
 40
0.0
  9
$DIMDLE
 40
0.0
  9
$DIMEXE
 40
0.18
  9
$DIMTP
 40
0.0
  9
$DIMTM
 40
0.0
  9
$DIMTXT
 40
0.18
  9
$DIMCEN
 40
0.09
  9
$DIMTSZ
 40
0.0
  9
$DIMTOL
 70
         0
  9
$DIMLIM
 70
         0
  9
$DIMTIH
 70
         1
  9
$DIMTOH
 70
         1
  9
$DIMSE1
 70
         0
  9
$DIMSE2
 70
         0
  9
$DIMTAD
 70
         0
  9
$DIMZIN
 70
         0
  9
$DIMBLK
  1

  9
$DIMASO
 70
         1
  9
$DIMSHO
 70
         1
  9
$DIMPOST
  1

  9
$DIMAPOST
  1

  9
$DIMALT
 70
         0
  9
$DIMALTD
 70
         2
  9
$DIMALTF
 40
25.4
  9
$DIMLFAC
 40
1.0
  9
$DIMTOFL
 70
         0
  9
$DIMTVP
 40
0.0
  9
$DIMTIX
 70
         0
  9
$DIMSOXD
 70
         0
  9
$DIMSAH
 70
         0
  9
$DIMBLK1
  1

  9
$DIMBLK2
  1

  9
$DIMSTYLE
  2
Standard
  9
$DIMCLRD
 70
         0
  9
$DIMCLRE
 70
         0
  9
$DIMCLRT
 70
         0
  9
$DIMTFAC
 40
1.0
  9
$DIMGAP
 40
0.09
  9
$DIMJUST
 70
         0
  9
$DIMSD1
 70
         0
  9
$DIMSD2
 70
         0
  9
$DIMTOLJ
 70
         1
  9
$DIMTZIN
 70
         0
  9
$DIMALTZ
 70
         0
  9
$DIMALTTZ
 70
         0
  9
$DIMUPT
 70
         0
  9
$DIMDEC
 70
         4
  9
$DIMTDEC
 70
         4
  9
$DIMALTU
 70
         2
  9
$DIMALTTD
 70
         2
  9
$DIMTXSTY
  7
Standard
  9
$DIMAUNIT
 70
         0
  9
$DIMADEC
 70
         0
  9
$DIMALTRND
 40
0.0
  9
$DIMAZIN
 70
         0
  9
$DIMDSEP
 70
         0
  9
$DIMATFIT
 70
         3
  9
$DIMFRAC
 70
         0
  9
$DIMLDRBLK
  1

  9
$DIMLUNIT
 70
         2
  9
$DIMLWD
 70
         0
  9
$DIMLWE
 70
         0
  9
$DIMTMOVE
 70
         0
  9
$LUNITS
 70
         2
  9
$LUPREC
 70
         4
  9
$SKETCHINC
 40
0.1
  9
$FILLETRAD
 40
0.0
  9
$AUNITS
 70
         0
  9
$AUPREC
 70
         0
  9
$MENU
  1
acad
  9
$ELEVATION
 40
0.0
  9
$PELEVATION
 40
0.0
  9
$THICKNESS
 40
0.0
  9
$LIMCHECK
 70
         0
  9
$CHAMFERA
 40
0.0
  9
$CHAMFERB
 40
0.0
  9
$CHAMFERC
 40
0.0
  9
$CHAMFERD
 40
0.0
  9
$SKPOLY
 70
         0
  9
$TDCREATE
 40
0.000000000
  9
$TDUCREATE
 40
0.000000000
  9
$TDUPDATE
 40
0.000000000
  9
$TDUUPDATE
 40
0.000000000
  9
$TDINDWG
 40
0.0000000000
  9
$TDUSRTIMER
 40
0.0000000000
  9
$USRTIMER
 70
         1
  9
$ANGBASE
 50
0.0
  9
$ANGDIR
 70
         0
  9
$PDMODE
 70
         0
  9
$PDSIZE
 40
0.0
  9
$PLINEWID
 40
0.0
  9
$SPLFRAME
 70
         0
  9
$SPLINETYPE
 70
         6
  9
$SPLINESEGS
 70
         8
  9
$HANDSEED
  5
1ED
  9
$SURFTAB1
 70
         6
  9
$SURFTAB2
 70
         6
  9
$SURFTYPE
 70
         6
  9
$SURFU
 70
         6
  9
$SURFV
 70
         6
  9
$UCSBASE
  2

  9
$UCSNAME
  2

  9
$UCSORG
 10
0.0
 20
0.0
 30
0.0
  9
$UCSXDIR
 10
1.0
 20
0.0
 30
0.0
  9
$UCSYDIR
 10
0.0
 20
1.0
 30
0.0
  9
$UCSORTHOREF
  2

  9
$UCSORTHOVIEW
 70
         0
  9
$UCSORGTOP
 10
0.0
 20
0.0
 30
0.0
  9
$UCSORGBOTTOM
 10
0.0
 20
0.0
 30
0.0
  9
$UCSORGLEFT
 10
0.0
 20
0.0
 30
0.0
  9
$UCSORGRIGHT
 10
0.0
 20
0.0
 30
0.0
  9
$UCSORGFRONT
 10
0.0
 20
0.0
 30
0.0
  9
$UCSORGBACK
 10
0.0
 20
0.0
 30
0.0
  9
$PUCSBASE
  2

  9
$PUCSNAME
  2

  9
$PUCSORG
 10
0.0
 20
0.0
 30
0.0
  9
$PUCSXDIR
 10
1.0
 20
0.0
 30
0.0
  9
$PUCSYDIR
 10
0.0
 20
1.0
 30
0.0
  9
$PUCSORTHOREF
  2

  9
$PUCSORTHOVIEW
 70
         0
  9
$PUCSORGTOP
 10
0.0
 20
0.0
 30
0.0
  9
$PUCSORGBOTTOM
 10
0.0
 20
0.0
 30
0.0
  9
$PUCSORGLEFT
 10
0.0
 20
0.0
 30
0.0
  9
$PUCSORGRIGHT
 10
0.0
 20
0.0
 30
0.0
  9
$PUCSORGFRONT
 10
0.0
 20
0.0
 30
0.0
  9
$PUCSORGBACK
 10
0.0
 20
0.0
 30
0.0
  9
$USERI1
 70
         0
  9
$USERI2
 70
         0
  9
$USERI3
 70
         0
  9
$USERI4
 70
         0
  9
$USERI5
 70
         0
  9
$USERR1
 40
0.0
  9
$USERR2
 40
0.0
  9
$USERR3
 40
0.0
  9
$USERR4
 40
0.0
  9
$USERR5
 40
0.0
  9
$WORLDVIEW
 70
         1
  9
$SHADEDGE
 70
         3
  9
$SHADEDIF
 70
        70
  9
$TILEMODE
 70
         1
  9
$MAXACTVP
 70
        16
  9
$PINSBASE
 10
0.0
 20
0.0
 30
0.0
  9
$PLIMCHECK
 70
         0
  9
$PEXTMIN
 10
1.0000000000E+20
 20
1.0000000000E+20
 30
1.0000000000E+20
  9
$PEXTMAX
 10
-1.0000000000E+20
 20
-1.0000000000E+20
 30
-1.0000000000E+20
  9
$PLIMMIN
 10
0.0
 20
0.0
  9
$PLIMMAX
 10
12.0
 20
9.0
  9
$UNITMODE
 70
         0
  9
$VISRETAIN
 70
         0
  9
$PLINEGEN
 70
         1
  9
$PSLTSCALE
 70
         0
  9
$TREEDEPTH
 70
      3020
  9
$CMLSTYLE
  2
Standard
  9
$CMLJUST
 70
         0
  9
$CMLSCALE
 40
1.0
  9
$PROXYGRAPHICS
 70
         0
  9
$MEASUREMENT
 70
         0
  9
$CELWEIGHT
370
         0
  9
$ENDCAPS
280
         0
  9
$JOINSTYLE
280
         0
  9
$LWDISPLAY
290
         0
  9
$INSUNITS
 70
         0
  9
$HYPERLINKBASE
  1

  9
$STYLESHEET
  1

  9
$XEDIT
290
         1
  9
$CEPSNTYPE
380
         0
  9
$PSTYLEMODE
290
         1
  9
$FINGERPRINTGUID
  2

  9
$VERSIONGUID
  2

  9
$EXTNAMES
290
         1
  9
$PSVPSCALE
 40
0.0
  0
ENDSEC
  0
SECTION
  2
CLASSES
  0
CLASS
  1
LWPOLYLINE
  2
AcDbPolyline
  3
AutoCAD 2000
 90
        0
280
         0
281
         1
  0
CLASS
  1
IMAGE
  2
AcDbRasterImage
  3
ISM
 90
      127
280
         0
281
         1
  0
CLASS
  1
OLE2FRAME
  2
AcDbOle2Frame
  3
AutoCAD 2000
 90
        0
280
         0
281
         1
  0
CLASS
  1
HATCH
  2
AcDbHatch
  3
AutoCAD 2000
 90
        0
280
         0
281
         1
  0
CLASS
  1
DICTIONARYVAR
  2
AcDbDictionaryVar
  3
AutoCAD 2000
 90
        0
280
         0
281
         0
  0
CLASS
  1
RASTERVARIABLES
  2
AcDbRasterVariables
  3
ISM
 90
        0
280
         0
281
         0
  0
CLASS
  1
IMAGEDEF
  2
AcDbRasterImageDef
  3
ISM
 90
        0
280
         0
281
         0
  0
CLASS
  1
IMAGEDEF_REACTOR
  2
AcDbRasterImageDefReactor
  3
ISM
 90
        1
280
         0
281
         0
  0
CLASS
  1
IDBUFFER
  2
AcDbIdBuffer
  3
AutoCAD 2000
 90
        0
280
         0
281
         0
  0
CLASS
  1
SPATIAL_FILTER
  2
AcDbSpatialFilter
  3
AutoCAD 2000
 90
        0
280
         0
281
         0
  0
CLASS
  1
XRECORD
  2
AcDbXrecord
  3
AutoCAD 2000
 90
        0
280
         0
281
         0
  0
CLASS
  1
SORTENTSTABLE
  2
AcDbSortentsTable
  3
AutoCAD 2000
 90
        0
280
         0
281
         0
  0
CLASS
  1
LAYER_INDEX
  2
AcDbLayerIndex
  3
AutoCAD 2000
 90
        0
280
         0
281
         0
  0
CLASS
  1
SPATIAL_INDEX
  2
AcDbSpatialIndex
  3
AutoCAD 2000
 90
        0
280
         0
281
         0
  0
CLASS
  1
OBJECT_PTR
  2
CAseDLPNTableRecord
  3
"ASE-LPNTableRecord"
 90
        1
280
         0
281
         0
  0
CLASS
  1
LAYOUT
  2
AcDbLayout
  3
AutoCAD 2000
 90
        0
280
         0
281
         0
  0
CLASS
  1
PLOTSETTINGS
  2
AcDbPlotSettings
  3
AutoCAD 2000
 90
        0
280
         0
281
         0
  0
CLASS
  1
ACDBDICTIONARYWDFLT
  2
AcDbDictionaryWithDefault
  3
AutoCAD 2000
 90
        0
280
         0
281
         0
  0
CLASS
  1
ACDBPLACEHOLDER
  2
AcDbPlaceHolder
  3
AutoCAD 2000
 90
        0
280
         0
281
         0
  0
CLASS
  1
VBA_PROJECT
  2
AcDbVbaProject
  3
acadvba
 90
        0
280
         0
281
         0
  0
CLASS
  1
WIPEOUT
  2
AcDbWipeout
  3
WipeOut|AutoCAD Express Tool|expresstools@autodesk.com
 90
      127
280
         0
281
         1
  0
CLASS
  1
WIPEOUTVARIABLES
  2
AcDbWipeoutVariables
  3
WipeOut|AutoCAD Express Tool|expresstools@autodesk.com
 90
        0
280
         0
281
         0
  0
CLASS
  1
RTEXT
  2
RText
  3
RText|AutoCAD Express Tool|expresstools@autodesk.com
 90
        0
280
         0
281
         1
  0
CLASS
  1
ARCALIGNEDTEXT
  2
AcDbArcAlignedText
  3
ATEXT|AutoCAD Express Tool|expresstools@autodesk.com
 90
        0
280
         0
281
         1
  0
ENDSEC
  0
SECTION
  2
TABLES
  0
TABLE
  2
VPORT
  5
7
100
AcDbSymbolTable
 70
         1
  0
VPORT
  5
15
100
AcDbSymbolTableRecord
100
AcDbViewportTableRecord
  2
*ACTIVE
 70
         0
 10
0.0
 20
0.0
 11
1.0
 21
1.0
 12
297.0
 22
210.0
 13
0.0
 23
0.0
 14
1.0
 24
1.0
 15
0.0
 25
0.0
 16
0.0
 26
0.0
 36
1.0
 17
0.0
 27
0.0
 37
0.0
 40
420.0
 41
1.604229
 42
50.0
 43
0.0
 44
0.0
 50
0.0
 51
0.0
 71
         0
 72
       100
 73
         1
 74
         1
 75
         0
 76
         0
 77
         0
 78
         0
281
         0
 65
         0
110
0.0
120
0.0
130
0.0
111
1.0
121
0.0
131
0.0
112
0.0
122
1.0
132
0.0
345
0
346
0
 79
         0
146
0.0
  0
ENDTAB
  0
TABLE
  2
LTYPE
  5
4
100
AcDbSymbolTable
 70
         7
  0
LTYPE
  5
11
100
AcDbSymbolTableRecord
100
AcDbLinetypeTableRecord
  2
ByBlock
 70
        64
  3

 72
        65
 73
         0
 40
0.0
  0
LTYPE
  5
12
100
AcDbSymbolTableRecord
100
AcDbLinetypeTableRecord
  2
ByLayer
 70
        64
  3

 72
        65
 73
         0
 40
0.0
  0
LTYPE
  5
13
100
AcDbSymbolTableRecord
100
AcDbLinetypeTableRecord
  2
CONTINUOUS
 70
         0
  3
Solid line
 72
        65
 73
         0
 40
0.0
  0
LTYPE
  5
28
100
AcDbSymbolTableRecord
100
AcDbLinetypeTableRecord
  2
HIDDEN2
 70
        64
  3
_ _ _ _ _ _ _ _ _ _ _ _ _ _ _ _ _ _ _ _ _ _ _ _
 72
        65
 73
         2
 40
0.1875
 49
0.125
 74
         0
 49
-0.0625
 74
         0
  0
LTYPE
  5
29
100
AcDbSymbolTableRecord
100
AcDbLinetypeTableRecord
  2
CENTER2
 70
        64
  3
___ _ ___ _ ___ _ ___ _ ___ _ ___ _ ___ _ ___ _
 72
        65
 73
         4
 40
1.125
 49
0.75
 74
         0
 49
-0.125
 74
         0
 49
0.125
 74
         0
 49
-0.125
 74
         0
  0
LTYPE
  5
2A
100
AcDbSymbolTableRecord
100
AcDbLinetypeTableRecord
  2
PHANTOM2
 70
        64
  3
___ _ _ ___ _ _ ___ _ _ ___ _ _ ___ _ _ ___ _ _
 72
        65
 73
         6
 40
1.25
 49
0.625
 74
         0
 49
-0.125
 74
         0
 49
0.125
 74
         0
 49
-0.125
 74
         0
 49
0.125
 74
         0
 49
-0.125
 74
         0
  0
LTYPE
  5
2B
100
AcDbSymbolTableRecord
100
AcDbLinetypeTableRecord
  2
DOT2
 70
        64
  3
...............................................
 72
        65
 73
         2
 40
0.125
 49
0.0
 74
         0
 49
-0.125
 74
         0
  0
ENDTAB
  0
TABLE
  2
LAYER
  5
2
100
AcDbSymbolTable
 70
         5
  0
LAYER
  5
14
100
AcDbSymbolTableRecord
100
AcDbLayerTableRecord
  2
0
 70
         0
 62
         7
  6
CONTINUOUS
290
         1
370
        -3
390
1D
  0
LAYER
  5
2D
100
AcDbSymbolTableRecord
100
AcDbLayerTableRecord
  2
DEFAULT
 70
         0
 62
         7
  6
CONTINUOUS
290
         1
370
        -3
390
0
  0
LAYER
  5
2F
100
AcDbSymbolTableRecord
100
AcDbLayerTableRecord
  2
04
 70
         0
 62
         7
  6
CONTINUOUS
290
         1
370
        -3
390
0
  0
LAYER
  5
31
100
AcDbSymbolTableRecord
100
AcDbLayerTableRecord
  2
20
 70
         0
 62
         7
  6
CONTINUOUS
290
         1
370
        -3
390
0
  0
LAYER
  5
44
100
AcDbSymbolTableRecord
100
AcDbLayerTableRecord
  2
52176940
 70
         0
 62
         7
  6
CONTINUOUS
290
         1
370
        -3
390
0
  0
ENDTAB
  0
TABLE
  2
STYLE
  5
3
100
AcDbSymbolTable
 70
         1
  0
STYLE
  5
17
100
AcDbSymbolTableRecord
100
AcDbTextStyleTableRecord
  2
Standard
 70
         0
 40
0.0
 41
1.0
 50
0.0
 71
         0
 42
0.2
  3
txt
  4

  0
ENDTAB
  0
TABLE
  2
VIEW
  5
5
100
AcDbSymbolTable
 70
         0
  0
ENDTAB
  0
TABLE
  2
UCS
  5
6
100
AcDbSymbolTable
 70
         0
  0
ENDTAB
  0
TABLE
  2
APPID
  5
8
100
AcDbSymbolTable
 70
         1
  0
APPID
  5
16
100
AcDbSymbolTableRecord
100
AcDbRegAppTableRecord
  2
ACAD
 70
         0
  0
ENDTAB
  0
TABLE
  2
DIMSTYLE
  5
9
100
AcDbSymbolTable
 70
         1
100
AcDbDimStyleTable
 71
         0
  0
DIMSTYLE
105
18
100
AcDbSymbolTableRecord
100
AcDbDimStyleTableRecord
  2
Standard
 70
         0
  3

  4

 40
1.0
 41
0.18
 42
0.0625
 43
0.38
 44
0.18
 45
0.0
 46
0.0
 47
0.0
 48
0.0
 71
         0
 72
         0
 73
         1
 74
         1
 75
         0
 76
         0
 77
         0
 78
         0
 79
         0
140
0.18
141
0.09
142
0.0
143
25.4
144
1.0
145
0.0
146
1.0
147
0.09
148
0.0
170
         0
171
         2
172
         0
173
         0
174
         0
175
         0
176
         0
177
         0
178
         0
179
         0
271
         4
272
         4
273
         2
274
         2
275
         0
276
         0
277
         2
278
        46
279
         0
280
         0
281
         0
282
         0
283
         1
284
         0
285
         0
286
         0
288
         0
289
         0
340
17
341
0
342
0
343
0
344
0
371
        -2
372
        -2
  0
ENDTAB
  0
TABLE
  2
BLOCK_RECORD
  5
1
100
AcDbSymbolTable
 70
         8
  0
BLOCK_RECORD
  5
A
100
AcDbSymbolTableRecord
100
AcDbBlockTableRecord
  2
*MODEL_SPACE
340
20
  0
BLOCK_RECORD
  5
B
100
AcDbSymbolTableRecord
100
AcDbBlockTableRecord
  2
*PAPER_SPACE
340
21
  0
BLOCK_RECORD
  5
45
100
AcDbSymbolTableRecord
100
AcDbBlockTableRecord
  2
SE0
340
0
102
{BLKREFS
331
4B
102
}
  0
BLOCK_RECORD
  5
46
100
AcDbSymbolTableRecord
100
AcDbBlockTableRecord
  2
SE1
340
0
102
{BLKREFS
331
47
102
}
  0
BLOCK_RECORD
  5
4C
100
AcDbSymbolTableRecord
100
AcDbBlockTableRecord
  2
SE2
340
0
102
{BLKREFS
331
52
102
}
  0
BLOCK_RECORD
  5
4D
100
AcDbSymbolTableRecord
100
AcDbBlockTableRecord
  2
SE3
340
0
102
{BLKREFS
331
4E
102
}
  0
BLOCK_RECORD
  5
53
100
AcDbSymbolTableRecord
100
AcDbBlockTableRecord
  2
SE4
340
0
102
{BLKREFS
331
59
102
}
  0
BLOCK_RECORD
  5
54
100
AcDbSymbolTableRecord
100
AcDbBlockTableRecord
  2
SE5
340
0
102
{BLKREFS
331
55
102
}
  0
BLOCK_RECORD
  5
5A
100
AcDbSymbolTableRecord
100
AcDbBlockTableRecord
  2
SE6
340
0
102
{BLKREFS
331
60
102
}
  0
BLOCK_RECORD
  5
5B
100
AcDbSymbolTableRecord
100
AcDbBlockTableRecord
  2
SE7
340
0
102
{BLKREFS
331
5C
102
}
  0
ENDTAB
  0
ENDSEC
  0
SECTION
  2
BLOCKS
  0
BLOCK
  5
D
100
AcDbEntity
  8
0
390
0
100
AcDbBlockBegin
  2
*MODEL_SPACE
 70
         0
 10
0.0
 20
0.0
 30
0.0
  3
*MODEL_SPACE
  1

  0
ENDBLK
  5
E
100
AcDbEntity
  8
0
390
0
100
AcDbBlockEnd
  0
BLOCK
  5
F
100
AcDbEntity
 67
         1
  8
0
390
0
100
AcDbBlockBegin
  2
*PAPER_SPACE
 70
         0
 10
0.0
 20
0.0
 30
0.0
  3
*PAPER_SPACE
  1

  0
ENDBLK
  5
10
100
AcDbEntity
 67
         1
  8
0
390
0
100
AcDbBlockEnd
  0
BLOCK
  5
E1
100
AcDbEntity
  8
0
370
         0
390
0
 62
         1
 48
0.0
100
AcDbBlockBegin
  2
SE0
 70
         0
 10
0.0
 20
0.0
 30
0.0
  3
SE0
  1

  0
ENDBLK
  5
E2
100
AcDbEntity
  8
0
370
         0
390
0
 62
         1
 48
0.0
100
AcDbBlockEnd
  0
BLOCK
  5
61
100
AcDbEntity
  8
0
370
         0
390
0
 62
         1
 48
0.0
100
AcDbBlockBegin
  2
SE1
 70
         0
 10
0.0
 20
0.0
 30
0.0
  3
SE1
  1

  0
LINE
  5
62
100
AcDbEntity
  8
52176940
370
         0
390
0
  6
CONTINUOUS
 62
         7
100
AcDbLine
 10
24.9975105295
 20
151.4325381272
 30
0.0
 11
24.9975105295
 21
155.3923361019
 31
0.0
  0
LINE
  5
63
100
AcDbEntity
  8
52176940
370
         0
390
0
  6
CONTINUOUS
 62
         7
100
AcDbLine
 10
11.0975105295
 20
101.2760663922
 30
0.0
 11
9.0975105295
 21
101.2760663922
 31
0.0
  0
LINE
  5
64
100
AcDbEntity
  8
52176940
370
         0
390
0
  6
CONTINUOUS
 62
         7
100
AcDbLine
 10
25.0975105295
 20
135.467357747
 30
0.0
 11
25.0975105295
 21
139.7760663922
 31
0.0
  0
LINE
  5
65
100
AcDbEntity
  8
52176940
370
         0
390
0
  6
CONTINUOUS
 62
         7
100
AcDbLine
 10
24.8475105295
 20
149.0283750712
 30
0.0
 11
24.8475105295
 21
149.7354818524
 31
0.0
  0
LINE
  5
66
100
AcDbEntity
  8
52176940
370
         0
390
0
  6
CONTINUOUS
 62
         7
100
AcDbLine
 10
12.0975105295
 20
190.7760663922
 30
0.0
 11
12.0975105295
 21
189.2760663922
 31
0.0
  0
LINE
  5
67
100
AcDbEntity
  8
52176940
370
         0
390
0
  6
CONTINUOUS
 62
         7
100
AcDbLine
 10
9.5975105295
 20
132.0578123227
 30
0.0
 11
9.5975105295
 21
122.4171364312
 31
0.0
  0
LINE
  5
68
100
AcDbEntity
  8
52176940
370
         0
390
0
  6
CONTINUOUS
 62
         7
100
AcDbLine
 10
11.0975105295
 20
112.3848109312
 30
0.0
 11
11.0975105295
 21
87.510085108
 31
0.0
  0
LINE
  5
69
100
AcDbEntity
  8
52176940
370
         0
390
0
  6
CONTINUOUS
 62
         7
100
AcDbLine
 10
19.6110097354
 20
55.3528265828
 30
0.0
 11
16.6443607148
 21
56.0547852911
 31
0.0
  0
LINE
  5
6A
100
AcDbEntity
  8
52176940
370
         0
390
0
  6
CONTINUOUS
 62
         7
100
AcDbLine
 10
26.5975105295
 20
164.2760663922
 30
0.0
 11
9.5975105295
 21
164.2760663922
 31
0.0
  0
ELLIPSE
  5
6B
100
AcDbEntity
  8
52176940
370
         0
390
0
  6
CONTINUOUS
 62
         7
100
AcDbEllipse
 10
18.0975105342
 20
146.9070547334
 30
0.0
 11
-6.8500000058262041
 21
-0.0000000057103211
 31
0.0
210
0.0
220
0.0
230
1.0
 40
0.7071067814
 41
1.0270713995892553
 42
1.067323701035936
  0
ELLIPSE
  5
6C
100
AcDbEntity
  8
52176940
370
         0
390
0
  6
CONTINUOUS
 62
         7
100
AcDbEllipse
 10
18.0975105295
 20
143.3715208217
 30
0.0
 11
6.8500000000000636
 21
-0.0000000000000555
 31
0.0
210
0.0
220
0.0
230
1.0
 40
0.7071067812
 41
5.2561139067200218
 42
6.2630591564425737
  0
ELLIPSE
  5
6D
100
AcDbEntity
  8
52176940
370
         0
390
0
  6
CONTINUOUS
 62
         7
100
AcDbEllipse
 10
18.0975105295
 20
143.3715208217
 30
0.0
 11
-6.8499999999999881
 21
0.0000000000000555
 31
0.0
210
0.0
220
0.0
230
1.0
 40
0.7071067812
 41
0.0201261507370567
 42
1.0270714004595713
  0
LINE
  5
6E
100
AcDbEntity
  8
52176940
370
         0
390
0
  6
CONTINUOUS
 62
         7
100
AcDbLine
 10
21.0975105295
 20
56.547109272
 30
0.0
 11
21.0975105295
 21
54.1617201773
 31
0.0
  0
LINE
  5
6F
100
AcDbEntity
  8
52176940
370
         0
390
0
  6
CONTINUOUS
 62
         7
100
AcDbLine
 10
15.0975105295
 20
58.3290044547
 30
0.0
 11
21.0975105295
 21
56.547109272
 31
0.0
  0
LINE
  5
70
100
AcDbEntity
  8
52176940
370
         0
390
0
  6
CONTINUOUS
 62
         7
100
AcDbLine
 10
18.3972683135
 20
49.1390256967
 30
0.0
 11
18.3972683135
 21
47.8843089738
 31
0.0
  0
LINE
  5
71
100
AcDbEntity
  8
52176940
370
         0
390
0
  6
CONTINUOUS
 62
         7
100
AcDbLine
 10
21.4024311035
 20
180.2760663922
 30
0.0
 11
21.4024311035
 21
185.2760663922
 31
0.0
  0
LINE
  5
72
100
AcDbEntity
  8
52176940
370
         0
390
0
  6
CONTINUOUS
 62
         7
100
AcDbLine
 10
21.6412026653
 20
185.2760663922
 30
0.0
 11
21.6412026653
 21
180.2760663922
 31
0.0
  0
LINE
  5
73
100
AcDbEntity
  8
52176940
370
         0
390
0
  6
CONTINUOUS
 62
         7
100
AcDbLine
 10
25.0975105295
 20
139.7760663922
 30
0.0
 11
24.9475105295
 21
139.7760663922
 31
0.0
  0
LINE
  5
74
100
AcDbEntity
  8
52176940
370
         0
390
0
  6
CONTINUOUS
 62
         7
100
AcDbLine
 10
11.2475105295
 20
139.7760663922
 30
0.0
 11
11.0975105295
 21
139.7760663922
 31
0.0
  0
LINE
  5
75
100
AcDbEntity
  8
52176940
370
         0
390
0
  6
CONTINUOUS
 62
         7
100
AcDbLine
 10
9.0975105295
 20
7.2760663922
 30
0.0
 11
9.0975105295
 21
101.2760663922
 31
0.0
  0
LINE
  5
76
100
AcDbEntity
  8
52176940
370
         0
390
0
  6
CONTINUOUS
 62
         7
100
AcDbLine
 10
27.0975105295
 20
7.2760663922
 30
0.0
 11
27.0975105295
 21
101.2760663922
 31
0.0
  0
LINE
  5
77
100
AcDbEntity
  8
52176940
370
         0
390
0
  6
CONTINUOUS
 62
         7
100
AcDbLine
 10
25.0975105295
 20
149.7760663922
 30
0.0
 11
25.0975105295
 21
141.2760663922
 31
0.0
  0
LINE
  5
78
100
AcDbEntity
  8
52176940
370
         0
390
0
  6
CONTINUOUS
 62
         7
100
AcDbLine
 10
11.0975105295
 20
139.7760663922
 30
0.0
 11
11.0975105295
 21
135.467357747
 31
0.0
  0
ARC
  5
79
100
AcDbEntity
  8
52176940
370
         0
390
0
  6
CONTINUOUS
 62
         7
100
AcDbCircle
 10
14.6732041747
 20
146.9070547277
 30
0.0
 40
3.4256935047
100
AcDbArc
 50
178.3694289491
 51
181.6305710509
  0
ARC
  5
7A
100
AcDbEntity
  8
52176940
370
         0
390
0
  6
CONTINUOUS
 62
         7
100
AcDbCircle
 10
21.5218168844
 20
146.9070547277
 30
0.0
 40
3.4256935047
100
AcDbArc
 50
358.3694289491
 51
1.6305710509
  0
LINE
  5
7B
100
AcDbEntity
  8
52176940
370
         0
390
0
  6
CONTINUOUS
 62
         7
100
AcDbLine
 10
24.5102013212
 20
147.5384259429
 30
0.0
 11
24.9461232392
 21
147.0045328096
 31
0.0
  0
LINE
  5
7C
100
AcDbEntity
  8
52176940
370
         0
390
0
  6
CONTINUOUS
 62
         7
100
AcDbLine
 10
11.2488978199
 20
147.0045328096
 30
0.0
 11
11.6848197378
 21
147.5384259429
 31
0.0
  0
LINE
  5
7D
100
AcDbEntity
  8
52176940
370
         0
390
0
  6
CONTINUOUS
 62
         7
100
AcDbLine
 10
14.5538183938
 20
142.7618921225
 30
0.0
 11
11.2488978199
 21
146.8095766457
 31
0.0
  0
LINE
  5
7E
100
AcDbEntity
  8
52176940
370
         0
390
0
  6
CONTINUOUS
 62
         7
100
AcDbLine
 10
21.4024311035
 20
142.6644140405
 30
0.0
 11
14.7925899556
 21
142.6644140405
 31
0.0
  0
LINE
  5
7F
100
AcDbEntity
  8
52176940
370
         0
390
0
  6
CONTINUOUS
 62
         7
100
AcDbLine
 10
24.9461232392
 20
146.8095766457
 30
0.0
 11
21.6412026653
 21
142.7618921225
 31
0.0
  0
LINE
  5
80
100
AcDbEntity
  8
52176940
370
         0
390
0
  6
CONTINUOUS
 62
         7
100
AcDbLine
 10
11.2488978199
 20
185.2760663922
 30
0.0
 11
11.2488978199
 21
180.2760663922
 31
0.0
  0
LINE
  5
81
100
AcDbEntity
  8
52176940
370
         0
390
0
  6
CONTINUOUS
 62
         7
100
AcDbLine
 10
14.7925899556
 20
185.2760663922
 30
0.0
 11
14.7925899556
 21
180.2760663922
 31
0.0
  0
LINE
  5
82
100
AcDbEntity
  8
52176940
370
         0
390
0
  6
CONTINUOUS
 62
         7
100
AcDbLine
 10
11.2475105295
 20
146.9070547277
 30
0.0
 11
11.2475105295
 21
132.0578123227
 31
0.0
  0
LINE
  5
83
100
AcDbEntity
  8
52176940
370
         0
390
0
  6
CONTINUOUS
 62
         7
100
AcDbLine
 10
24.0975105295
 20
190.7760663922
 30
0.0
 11
24.9975105295
 21
191.6760663922
 31
0.0
  0
LINE
  5
84
100
AcDbEntity
  8
52176940
370
         0
390
0
  6
CONTINUOUS
 62
         7
100
AcDbLine
 10
11.1975105295
 20
197.2760663922
 30
0.0
 11
11.1975105295
 21
191.6760663922
 31
0.0
  0
LINE
  5
85
100
AcDbEntity
  8
52176940
370
         0
390
0
  6
CONTINUOUS
 62
         7
100
AcDbLine
 10
14.0975105295
 20
188.2760663922
 30
0.0
 11
14.0975105295
 21
185.2760663922
 31
0.0
  0
LINE
  5
86
100
AcDbEntity
  8
52176940
370
         0
390
0
  6
CONTINUOUS
 62
         7
100
AcDbLine
 10
11.3475105295
 20
189.2760663922
 30
0.0
 11
11.3475105295
 21
188.2760663922
 31
0.0
  0
LINE
  5
87
100
AcDbEntity
  8
52176940
370
         0
390
0
  6
CONTINUOUS
 62
         7
100
AcDbLine
 10
11.1975105295
 20
155.3923361019
 30
0.0
 11
11.1975105295
 21
151.4325381272
 31
0.0
  0
LINE
  5
88
100
AcDbEntity
  8
52176940
370
         0
390
0
  6
CONTINUOUS
 62
         7
100
AcDbLine
 10
11.3475105295
 20
149.7354818524
 30
0.0
 11
11.3475105295
 21
149.0283750712
 31
0.0
  0
LINE
  5
89
100
AcDbEntity
  8
52176940
370
         0
390
0
  6
CONTINUOUS
 62
         7
100
AcDbLine
 10
9.5975105295
 20
164.2760663922
 30
0.0
 11
9.5975105295
 21
150.642091796
 31
0.0
  0
LINE
  5
8A
100
AcDbEntity
  8
52176940
370
         0
390
0
  6
CONTINUOUS
 62
         7
100
AcDbLine
 10
11.2475105295
 20
185.2760663922
 30
0.0
 11
11.2475105295
 21
164.2760663922
 31
0.0
  0
ELLIPSE
  5
8B
100
AcDbEntity
  8
52176940
370
         0
390
0
  6
CONTINUOUS
 62
         7
100
AcDbEllipse
 10
18.0975105295
 20
143.3715208217
 30
0.0
 11
6.850000000000005
 21
0.0
 31
0.0
210
0.0
220
0.0
230
1.0
 40
0.7071067812
 41
4.2089163555234155
 42
5.2158616052459541
  0
LINE
  5
8C
100
AcDbEntity
  8
52176940
370
         0
390
0
  6
CONTINUOUS
 62
         7
100
AcDbLine
 10
14.5538183938
 20
139.2263582165
 30
0.0
 11
11.2488978199
 21
143.2740427398
 31
0.0
  0
LINE
  5
8D
100
AcDbEntity
  8
52176940
370
         0
390
0
  6
CONTINUOUS
 62
         7
100
AcDbLine
 10
26.5975105295
 20
150.642091796
 30
0.0
 11
26.5975105295
 21
164.2760663922
 31
0.0
  0
LINE
  5
8E
100
AcDbEntity
  8
52176940
370
         0
390
0
  6
CONTINUOUS
 62
         7
100
AcDbLine
 10
24.9475105295
 20
164.2760663922
 30
0.0
 11
24.9475105295
 21
185.2760663922
 31
0.0
  0
LINE
  5
8F
100
AcDbEntity
  8
52176940
370
         0
390
0
  6
CONTINUOUS
 62
         7
100
AcDbLine
 10
24.8475105295
 20
188.2760663922
 30
0.0
 11
24.8475105295
 21
189.2760663922
 31
0.0
  0
LINE
  5
90
100
AcDbEntity
  8
52176940
370
         0
390
0
  6
CONTINUOUS
 62
         7
100
AcDbLine
 10
21.4024311035
 20
139.1288801346
 30
0.0
 11
14.7925899556
 21
139.1288801346
 31
0.0
  0
LINE
  5
91
100
AcDbEntity
  8
52176940
370
         0
390
0
  6
CONTINUOUS
 62
         7
100
AcDbLine
 10
11.2488978199
 20
146.8095766457
 30
0.0
 11
11.2488978199
 21
143.2740427398
 31
0.0
  0
LINE
  5
92
100
AcDbEntity
  8
52176940
370
         0
390
0
  6
CONTINUOUS
 62
         7
100
AcDbLine
 10
25.0975105295
 20
141.2760663922
 30
0.0
 11
25.0975105295
 21
139.7760663922
 31
0.0
  0
LINE
  5
93
100
AcDbEntity
  8
52176940
370
         0
390
0
  6
CONTINUOUS
 62
         7
100
AcDbLine
 10
25.0975105295
 20
141.2760663922
 30
0.0
 11
24.9475105295
 21
141.2760663922
 31
0.0
  0
LINE
  5
94
100
AcDbEntity
  8
52176940
370
         0
390
0
  6
CONTINUOUS
 62
         7
100
AcDbLine
 10
11.2475105295
 20
141.2760663922
 30
0.0
 11
11.0975105295
 21
141.2760663922
 31
0.0
  0
LINE
  5
95
100
AcDbEntity
  8
52176940
370
         0
390
0
  6
CONTINUOUS
 62
         7
100
AcDbLine
 10
11.0975105295
 20
141.2760663922
 30
0.0
 11
11.0975105295
 21
149.7760663922
 31
0.0
  0
LINE
  5
96
100
AcDbEntity
  8
52176940
370
         0
390
0
  6
CONTINUOUS
 62
         7
100
AcDbLine
 10
21.6412026653
 20
142.7618921225
 30
0.0
 11
21.6412026653
 21
139.2263582165
 31
0.0
  0
LINE
  5
97
100
AcDbEntity
  8
52176940
370
         0
390
0
  6
CONTINUOUS
 62
         7
100
AcDbLine
 10
24.9461232392
 20
143.2740427398
 30
0.0
 11
24.9461232392
 21
146.8095766457
 31
0.0
  0
LINE
  5
98
100
AcDbEntity
  8
52176940
370
         0
390
0
  6
CONTINUOUS
 62
         7
100
AcDbLine
 10
21.4024311035
 20
139.1288801346
 30
0.0
 11
21.4024311035
 21
142.6644140405
 31
0.0
  0
LINE
  5
99
100
AcDbEntity
  8
52176940
370
         0
390
0
  6
CONTINUOUS
 62
         7
100
AcDbLine
 10
14.7925899556
 20
142.6644140405
 30
0.0
 11
14.7925899556
 21
139.1288801346
 31
0.0
  0
LINE
  5
9A
100
AcDbEntity
  8
52176940
370
         0
390
0
  6
CONTINUOUS
 62
         7
100
AcDbLine
 10
14.5538183938
 20
139.2263582165
 30
0.0
 11
14.5538183938
 21
142.7618921225
 31
0.0
  0
LINE
  5
9B
100
AcDbEntity
  8
52176940
370
         0
390
0
  6
CONTINUOUS
 62
         7
100
AcDbLine
 10
24.9461232392
 20
143.2740427398
 30
0.0
 11
21.6412026653
 21
139.2263582165
 31
0.0
  0
ELLIPSE
  5
9C
100
AcDbEntity
  8
52176940
370
         0
390
0
  6
CONTINUOUS
 62
         7
100
AcDbEllipse
 10
18.0975105295
 20
149.7354818524
 30
0.0
 11
-6.0000000000000053
 21
0.0
 31
0.0
210
0.0
220
0.0
230
1.0
 40
0.7071067812
 41
0.2045484048940302
 42
2.9370442487088457
  0
ELLIPSE
  5
9D
100
AcDbEntity
  8
52176940
370
         0
390
0
  6
CONTINUOUS
 62
         7
100
AcDbEllipse
 10
18.0975105295
 20
151.4325381272
 30
0.0
 11
6.9000000000000083
 21
-0.0000000000000139
 31
0.0
210
0.0
220
0.0
230
1.0
 40
0.7071067812
 41
3.1415926535897905
 42
6.2831853071795774
  0
ELLIPSE
  5
9E
100
AcDbEntity
  8
52176940
370
         0
390
0
  6
CONTINUOUS
 62
         7
100
AcDbEllipse
 10
18.0975105295
 20
155.3923361019
 30
0.0
 11
6.9000000000000083
 21
-0.0000000000000139
 31
0.0
210
0.0
220
0.0
230
1.0
 40
0.7071067812
 41
0.0
 42
6.2831853071795862
  0
ELLIPSE
  5
9F
100
AcDbEntity
  8
52176940
370
         0
390
0
  6
CONTINUOUS
 62
         7
100
AcDbEllipse
 10
18.0975105295
 20
146.9070547277
 30
0.0
 11
4.0000000000000089
 21
0.0
 31
0.0
210
0.0
220
0.0
230
1.0
 40
0.7071067812
 41
4.1705676220057422
 42
5.254210338756546
  0
ELLIPSE
  5
A0
100
AcDbEntity
  8
52176940
370
         0
390
0
  6
CONTINUOUS
 62
         7
100
AcDbEllipse
 10
18.0975105295
 20
149.7354818524
 30
0.0
 11
-6.7500000000000098
 21
0.0
 31
0.0
210
0.0
220
0.0
230
1.0
 40
0.7071067812
 41
0.0
 42
3.2564282139206147
  0
ELLIPSE
  5
A1
100
AcDbEntity
  8
52176940
370
         0
390
0
  6
CONTINUOUS
 62
         7
100
AcDbEllipse
 10
18.0975105295
 20
149.7354818524
 30
0.0
 11
-6.7500000000000098
 21
0.0
 31
0.0
210
0.0
220
0.0
230
1.0
 40
0.7071067812
 41
6.1683497468556938
 42
6.2831853071795862
  0
LINE
  5
A2
100
AcDbEntity
  8
52176940
370
         0
390
0
  6
CONTINUOUS
 62
         7
100
AcDbLine
 10
19.4426666968
 20
60.2983003785
 30
0.0
 11
15.0975105295
 21
60.2983003785
 31
0.0
  0
LINE
  5
A3
100
AcDbEntity
  8
52176940
370
         0
390
0
  6
CONTINUOUS
 62
         7
100
AcDbLine
 10
15.0975105295
 20
58.5100526283
 30
0.0
 11
19.4426666968
 21
58.5100526283
 31
0.0
  0
LINE
  5
A4
100
AcDbEntity
  8
52176940
370
         0
390
0
  6
CONTINUOUS
 62
         7
100
AcDbLine
 10
19.4426666968
 20
58.5100526283
 30
0.0
 11
19.4426666968
 21
57.5412860852
 31
0.0
  0
LINE
  5
A5
100
AcDbEntity
  8
52176940
370
         0
390
0
  6
CONTINUOUS
 62
         7
100
AcDbLine
 10
21.0975105295
 20
57.0489621042
 30
0.0
 11
21.0975105295
 21
61.1304867204
 31
0.0
  0
LINE
  5
A6
100
AcDbEntity
  8
52176940
370
         0
390
0
  6
CONTINUOUS
 62
         7
100
AcDbLine
 10
19.3076409796
 20
49.1390256967
 30
0.0
 11
18.3972683135
 21
49.1390256967
 31
0.0
  0
ELLIPSE
  5
A7
100
AcDbEntity
  8
52176940
370
         0
390
0
  6
CONTINUOUS
 62
         7
100
AcDbEllipse
 10
18.0975105295
 20
149.0283750712
 30
0.0
 11
-6.7500000000000115
 21
0.0
 31
0.0
210
0.0
220
0.0
230
1.0
 40
0.7071067812
 41
0.0
 42
3.1415926535897931
  0
LINE
  5
A8
100
AcDbEntity
  8
52176940
370
         0
390
0
  6
CONTINUOUS
 62
         7
100
AcDbLine
 10
19.4426666968
 20
61.6164581339
 30
0.0
 11
19.4426666968
 21
60.2983003785
 31
0.0
  0
LINE
  5
A9
100
AcDbEntity
  8
52176940
370
         0
390
0
  6
CONTINUOUS
 62
         7
100
AcDbLine
 10
19.3076409796
 20
45.5569361444
 30
0.0
 11
21.0975105295
 21
47.3479809206
 31
0.0
  0
LINE
  5
AA
100
AcDbEntity
  8
52176940
370
         0
390
0
  6
CONTINUOUS
 62
         7
100
AcDbLine
 10
24.8475105295
 20
189.2760663922
 30
0.0
 11
11.3475105295
 21
189.2760663922
 31
0.0
  0
LINE
  5
AB
100
AcDbEntity
  8
52176940
370
         0
390
0
  6
CONTINUOUS
 62
         7
100
AcDbLine
 10
24.8475105295
 20
188.2760663922
 30
0.0
 11
11.3475105295
 21
188.2760663922
 31
0.0
  0
LINE
  5
AC
100
AcDbEntity
  8
52176940
370
         0
390
0
  6
CONTINUOUS
 62
         7
100
AcDbLine
 10
14.5538183938
 20
180.2760663922
 30
0.0
 11
14.5538183938
 21
185.2760663922
 31
0.0
  0
LINE
  5
AD
100
AcDbEntity
  8
52176940
370
         0
390
0
  6
CONTINUOUS
 62
         7
100
AcDbLine
 10
24.0975105295
 20
190.7760663922
 30
0.0
 11
12.0975105295
 21
190.7760663922
 31
0.0
  0
LINE
  5
AE
100
AcDbEntity
  8
52176940
370
         0
390
0
  6
CONTINUOUS
 62
         7
100
AcDbLine
 10
24.9975105295
 20
197.2760663922
 30
0.0
 11
11.1975105295
 21
197.2760663922
 31
0.0
  0
LINE
  5
AF
100
AcDbEntity
  8
52176940
370
         0
390
0
  6
CONTINUOUS
 62
         7
100
AcDbLine
 10
24.9975105295
 20
191.6760663922
 30
0.0
 11
11.1975105295
 21
191.6760663922
 31
0.0
  0
LINE
  5
B0
100
AcDbEntity
  8
52176940
370
         0
390
0
  6
CONTINUOUS
 62
         7
100
AcDbLine
 10
14.5538183938
 20
185.2760663922
 30
0.0
 11
11.2488978199
 21
185.2760663922
 31
0.0
  0
LINE
  5
B1
100
AcDbEntity
  8
52176940
370
         0
390
0
  6
CONTINUOUS
 62
         7
100
AcDbLine
 10
24.9461232392
 20
185.2760663922
 30
0.0
 11
21.6412026653
 21
185.2760663922
 31
0.0
  0
LINE
  5
B2
100
AcDbEntity
  8
52176940
370
         0
390
0
  6
CONTINUOUS
 62
         7
100
AcDbLine
 10
21.4024311035
 20
185.2760663922
 30
0.0
 11
14.7925899556
 21
185.2760663922
 31
0.0
  0
LINE
  5
B3
100
AcDbEntity
  8
52176940
370
         0
390
0
  6
CONTINUOUS
 62
         7
100
AcDbLine
 10
24.9475105295
 20
185.2760663922
 30
0.0
 11
24.9461232392
 21
185.2760663922
 31
0.0
  0
LINE
  5
B4
100
AcDbEntity
  8
52176940
370
         0
390
0
  6
CONTINUOUS
 62
         7
100
AcDbLine
 10
24.9461232392
 20
180.2760663922
 30
0.0
 11
24.9461232392
 21
185.2760663922
 31
0.0
  0
LINE
  5
B5
100
AcDbEntity
  8
52176940
370
         0
390
0
  6
CONTINUOUS
 62
         7
100
AcDbLine
 10
14.5538183938
 20
180.2760663922
 30
0.0
 11
11.2488978199
 21
180.2760663922
 31
0.0
  0
LINE
  5
B6
100
AcDbEntity
  8
52176940
370
         0
390
0
  6
CONTINUOUS
 62
         7
100
AcDbLine
 10
21.0975105295
 20
47.3479809206
 30
0.0
 11
19.3076409796
 21
49.1390256967
 31
0.0
  0
LINE
  5
B7
100
AcDbEntity
  8
52176940
370
         0
390
0
  6
CONTINUOUS
 62
         7
100
AcDbLine
 10
18.3972683135
 20
47.8843089738
 30
0.0
 11
15.0975105295
 21
47.8843089738
 31
0.0
  0
LINE
  5
B8
100
AcDbEntity
  8
52176940
370
         0
390
0
  6
CONTINUOUS
 62
         7
100
AcDbLine
 10
15.0975105295
 20
47.8843089738
 30
0.0
 11
15.0975105295
 21
46.8125913241
 31
0.0
  0
LINE
  5
B9
100
AcDbEntity
  8
52176940
370
         0
390
0
  6
CONTINUOUS
 62
         7
100
AcDbLine
 10
15.0975105295
 20
52.3798249947
 30
0.0
 11
15.0975105295
 21
54.2760663922
 31
0.0
  0
LINE
  5
BA
100
AcDbEntity
  8
52176940
370
         0
390
0
  6
CONTINUOUS
 62
         7
100
AcDbLine
 10
27.0975105295
 20
101.2760663922
 30
0.0
 11
25.0975105295
 21
101.2760663922
 31
0.0
  0
LINE
  5
BB
100
AcDbEntity
  8
52176940
370
         0
390
0
  6
CONTINUOUS
 62
         7
100
AcDbLine
 10
18.3972683135
 20
46.8125913241
 30
0.0
 11
18.3972683135
 21
45.5569361444
 31
0.0
  0
LINE
  5
BC
100
AcDbEntity
  8
52176940
370
         0
390
0
  6
CONTINUOUS
 62
         7
100
AcDbLine
 10
18.3972683135
 20
45.5569361444
 30
0.0
 11
19.3076409796
 21
45.5569361444
 31
0.0
  0
LINE
  5
BD
100
AcDbEntity
  8
52176940
370
         0
390
0
  6
CONTINUOUS
 62
         7
100
AcDbLine
 10
15.0975105295
 20
54.2760663922
 30
0.0
 11
19.6110097355
 21
55.3528265828
 31
0.0
  0
LINE
  5
BE
100
AcDbEntity
  8
52176940
370
         0
390
0
  6
CONTINUOUS
 62
         7
100
AcDbLine
 10
15.0975105295
 20
60.2983003785
 30
0.0
 11
15.0975105295
 21
58.5100526283
 31
0.0
  0
LINE
  5
BF
100
AcDbEntity
  8
52176940
370
         0
390
0
  6
CONTINUOUS
 62
         7
100
AcDbLine
 10
21.0975105295
 20
61.1304867204
 30
0.0
 11
19.4426666968
 21
61.6164581339
 31
0.0
  0
LINE
  5
C0
100
AcDbEntity
  8
52176940
370
         0
390
0
  6
CONTINUOUS
 62
         7
100
AcDbLine
 10
16.6443607148
 20
56.0547852911
 30
0.0
 11
16.6443607148
 21
54.8859128718
 31
0.0
  0
LINE
  5
C1
100
AcDbEntity
  8
52176940
370
         0
390
0
  6
CONTINUOUS
 62
         7
100
AcDbLine
 10
21.0975105295
 20
54.1617201773
 30
0.0
 11
15.0975105295
 21
52.3798249946
 31
0.0
  0
LINE
  5
C2
100
AcDbEntity
  8
52176940
370
         0
390
0
  6
CONTINUOUS
 62
         7
100
AcDbLine
 10
15.0975105295
 20
55.3528265828
 30
0.0
 11
15.0975105295
 21
58.3290044547
 31
0.0
  0
LINE
  5
C3
100
AcDbEntity
  8
52176940
370
         0
390
0
  6
CONTINUOUS
 62
         7
100
AcDbLine
 10
15.0975105295
 20
46.8125913241
 30
0.0
 11
18.3972683135
 21
46.8125913241
 31
0.0
  0
LINE
  5
C4
100
AcDbEntity
  8
52176940
370
         0
390
0
  6
CONTINUOUS
 62
         7
100
AcDbLine
 10
19.4426666968
 20
57.5412860852
 30
0.0
 11
21.0975105295
 21
57.0489621042
 31
0.0
  0
ELLIPSE
  5
C5
100
AcDbEntity
  8
52176940
370
         0
390
0
  6
CONTINUOUS
 62
         7
100
AcDbEllipse
 10
18.0975105295
 20
118.9470259623
 30
0.0
 11
7.9644794666642369
 21
-5.3511359101739018
 31
0.0
210
0.0
220
0.0
230
1.0
 40
0.5549017375
 41
3.4984548430621798
 42
4.1016462486718481
  0
ELLIPSE
  5
C6
100
AcDbEntity
  8
52176940
370
         0
390
0
  6
CONTINUOUS
 62
         7
100
AcDbEllipse
 10
18.0975105295
 20
118.9470259623
 30
0.0
 11
-7.9644794666642973
 21
-5.3511359101739426
 31
0.0
210
0.0
220
0.0
230
1.0
 40
0.5549017375
 41
2.1815390585077328
 42
2.7847304641174109
  0
ELLIPSE
  5
C7
100
AcDbEntity
  8
52176940
370
         0
390
0
  6
CONTINUOUS
 62
         7
100
AcDbEllipse
 10
18.0975105295
 20
132.0578123227
 30
0.0
 11
6.8500000000000076
 21
0.0
 31
0.0
210
0.0
220
0.0
230
1.0
 40
0.7071067812
 41
3.1415926535897931
 42
6.2831853071795862
  0
ELLIPSE
  5
C8
100
AcDbEntity
  8
52176940
370
         0
390
0
  6
CONTINUOUS
 62
         7
100
AcDbEllipse
 10
18.0975105295
 20
132.0578123227
 30
0.0
 11
-8.4999999999999964
 21
0.0
 31
0.0
210
0.0
220
0.0
230
1.0
 40
0.7071067812
 41
0.0
 42
3.7752247495297171
  0
ELLIPSE
  5
C9
100
AcDbEntity
  8
52176940
370
         0
390
0
  6
CONTINUOUS
 62
         7
100
AcDbEllipse
 10
18.0975105295
 20
132.0578123227
 30
0.0
 11
-8.4999999999999964
 21
0.0
 31
0.0
210
0.0
220
0.0
230
1.0
 40
0.7071067812
 41
5.6495532112396605
 42
6.2831853071795862
  0
LINE
  5
CA
100
AcDbEntity
  8
52176940
370
         0
390
0
  6
CONTINUOUS
 62
         7
100
AcDbLine
 10
11.0975105295
 20
112.3848109312
 30
0.0
 11
11.0975105295
 21
118.3952185713
 31
0.0
  0
ELLIPSE
  5
CB
100
AcDbEntity
  8
52176940
370
         0
390
0
  6
CONTINUOUS
 62
         7
100
AcDbEllipse
 10
18.0975105295
 20
115.7943563554
 30
0.0
 11
8.4999999999999964
 21
-0.0000000000000139
 31
0.0
210
0.0
220
0.0
230
1.0
 40
0.7071067812
 41
3.744784059199465
 42
5.679993901569917
  0
SPLINE
  5
CC
100
AcDbEntity
  8
52176940
370
         0
390
0
  6
CONTINUOUS
 62
         7
100
AcDbSpline
210
0.0
220
0.0
230
1.0
 70
         8
 71
         3
 72
        22
 73
        18
 74
         0
 42
0.0
 43
0.0
 40
0.0
 40
0.0
 40
0.0
 40
0.0
 40
0.0625000000000003
 40
0.0625000000000003
 40
0.1250000000000006
 40
0.1250000000000006
 40
0.250000000000001
 40
0.250000000000001
 40
0.3125000000000012
 40
0.3125000000000012
 40
0.3750000000000013
 40
0.3750000000000013
 40
0.4375000000000015
 40
0.4375000000000015
 40
0.5000000000000017
 40
0.5000000000000017
 40
0.5000602187975979
 40
0.5000602187975979
 40
0.5000602187975979
 40
0.5000602187975979
 10
11.097510529525637
 20
87.510085107984423
 30
0.0
 10
11.097510529525637
 20
86.855101919262154
 30
0.0
 10
11.280328233958523
 20
86.192529570708672
 30
0.0
 10
11.983486436252624
 20
84.92561769199331
 30
0.0
 10
12.503519906351642
 20
84.328949499763681
 30
0.0
 10
14.438032548563719
 20
82.816523125043886
 30
0.0
 10
16.264695311984948
 20
82.190515889201933
 30
0.0
 10
19.007972235162185
 20
82.189251986450344
 30
0.0
 10
19.926030346199511
 20
82.33760242412005
 30
0.0
 10
21.622573837295587
 20
82.903054844392102
 30
0.0
 10
22.392993227112413
 20
83.313973728679983
 30
0.0
 10
23.698152086308507
 20
84.333935543971435
 30
0.0
 10
24.211877455654481
 20
84.926155886409035
 30
0.0
 10
24.914600058740433
 20
86.192441960697181
 30
0.0
 10
25.09715895172468
 20
86.86165985957264
 30
0.0
 10
25.097510351732382
 20
87.508807377949068
 30
0.0
 10
25.097510514127556
 20
87.509430284301843
 30
0.0
 10
25.097510500694835
 20
87.510053170037779
 30
0.0
  0
LINE
  5
CD
100
AcDbEntity
  8
52176940
370
         0
390
0
  6
CONTINUOUS
 62
         7
100
AcDbLine
 10
25.0975105295
 20
118.3952185713
 30
0.0
 11
25.0975105295
 21
112.3848109312
 31
0.0
  0
LINE
  5
CE
100
AcDbEntity
  8
52176940
370
         0
390
0
  6
CONTINUOUS
 62
         7
100
AcDbLine
 10
16.6443607148
 20
54.8859128718
 30
0.0
 11
15.0975105295
 21
55.3528265828
 31
0.0
  0
LINE
  5
CF
100
AcDbEntity
  8
52176940
370
         0
390
0
  6
CONTINUOUS
 62
         7
100
AcDbLine
 10
22.0975105295
 20
185.2760663922
 30
0.0
 11
22.0975105295
 21
188.2760663922
 31
0.0
  0
LINE
  5
D0
100
AcDbEntity
  8
52176940
370
         0
390
0
  6
CONTINUOUS
 62
         7
100
AcDbLine
 10
24.9975105295
 20
191.6760663922
 30
0.0
 11
24.9975105295
 21
197.2760663922
 31
0.0
  0
LINE
  5
D1
100
AcDbEntity
  8
52176940
370
         0
390
0
  6
CONTINUOUS
 62
         7
100
AcDbLine
 10
11.1975105295
 20
191.6760663922
 30
0.0
 11
12.0975105295
 21
190.7760663922
 31
0.0
  0
LINE
  5
D2
100
AcDbEntity
  8
52176940
370
         0
390
0
  6
CONTINUOUS
 62
         7
100
AcDbLine
 10
24.9475105295
 20
132.0578123227
 30
0.0
 11
24.9475105295
 21
146.9070547277
 31
0.0
  0
LINE
  5
D3
100
AcDbEntity
  8
52176940
370
         0
390
0
  6
CONTINUOUS
 62
         7
100
AcDbLine
 10
26.5975105295
 20
122.4171364312
 30
0.0
 11
26.5975105295
 21
132.0578123227
 31
0.0
  0
LINE
  5
D4
100
AcDbEntity
  8
52176940
370
         0
390
0
  6
CONTINUOUS
 62
         7
100
AcDbLine
 10
25.0975105295
 20
87.5094738392
 30
0.0
 11
25.0975105295
 21
112.3848109312
 31
0.0
  0
LINE
  5
D5
100
AcDbEntity
  8
52176940
370
         0
390
0
  6
CONTINUOUS
 62
         7
100
AcDbLine
 10
9.0975105295
 20
7.2760663922
 30
0.0
 11
27.0975105295
 21
7.2760663922
 31
0.0
  0
LINE
  5
D6
100
AcDbEntity
  8
52176940
370
         0
390
0
  6
CONTINUOUS
 62
         7
100
AcDbLine
 10
11.2475105295
 20
185.2760663922
 30
0.0
 11
11.2488978199
 21
185.2760663922
 31
0.0
  0
LINE
  5
D7
100
AcDbEntity
  8
52176940
370
         0
390
0
  6
CONTINUOUS
 62
         7
100
AcDbLine
 10
14.7925899556
 20
185.2760663922
 30
0.0
 11
14.5538183938
 21
185.2760663922
 31
0.0
  0
LINE
  5
D8
100
AcDbEntity
  8
52176940
370
         0
390
0
  6
CONTINUOUS
 62
         7
100
AcDbLine
 10
21.6412026653
 20
185.2760663922
 30
0.0
 11
21.4024311035
 21
185.2760663922
 31
0.0
  0
LINE
  5
D9
100
AcDbEntity
  8
52176940
370
         0
390
0
  6
CONTINUOUS
 62
         7
100
AcDbLine
 10
21.4024311035
 20
180.2760663922
 30
0.0
 11
14.7925899556
 21
180.2760663922
 31
0.0
  0
LINE
  5
DA
100
AcDbEntity
  8
52176940
370
         0
390
0
  6
CONTINUOUS
 62
         7
100
AcDbLine
 10
24.9461232392
 20
180.2760663922
 30
0.0
 11
21.6412026653
 21
180.2760663922
 31
0.0
  0
ELLIPSE
  5
DB
100
AcDbEntity
  8
52176940
370
         0
390
0
  6
CONTINUOUS
 62
         7
100
AcDbEllipse
 10
18.0975105242
 20
146.9070547342
 30
0.0
 11
6.8500000066648683
 21
-0.0000000065354666
 31
0.0
210
0.0
220
0.0
230
1.0
 40
0.7071067815
 41
5.2158616062743075
 42
5.2561139077170544
  0
LINE
  5
DC
100
AcDbEntity
  8
52176940
370
         0
390
0
  6
CONTINUOUS
 62
         7
100
AcDbLine
 10
11.0975105295
 20
149.7760663922
 30
0.0
 11
9.5975105295
 21
150.642091796
 31
0.0
  0
LINE
  5
DD
100
AcDbEntity
  8
52176940
370
         0
390
0
  6
CONTINUOUS
 62
         7
100
AcDbLine
 10
26.5975105295
 20
150.642091796
 30
0.0
 11
25.0975105295
 21
149.7760663922
 31
0.0
  0
LINE
  5
DE
100
AcDbEntity
  8
52176940
370
         0
390
0
  6
CONTINUOUS
 62
         7
100
AcDbLine
 10
11.0975105295
 20
139.7760663922
 30
0.0
 11
11.0975105295
 21
141.2760663922
 31
0.0
  0
LINE
  5
DF
100
AcDbEntity
  8
52176940
370
         0
390
0
  6
CONTINUOUS
 62
         7
100
AcDbLine
 10
24.0975105295
 20
189.2760663922
 30
0.0
 11
24.0975105295
 21
190.7760663922
 31
0.0
  0
ENDBLK
  5
E0
100
AcDbEntity
  8
52176940
370
         0
390
0
  6
CONTINUOUS
 62
         7
100
AcDbBlockEnd
  0
BLOCK
  5
12C
100
AcDbEntity
  8
0
370
         0
390
0
 62
         1
 48
0.0
100
AcDbBlockBegin
  2
SE2
 70
         0
 10
0.0
 20
0.0
 30
0.0
  3
SE2
  1

  0
ENDBLK
  5
12D
100
AcDbEntity
  8
0
370
         0
390
0
 62
         1
 48
0.0
100
AcDbBlockEnd
  0
BLOCK
  5
E3
100
AcDbEntity
  8
0
370
         0
390
0
 62
         1
 48
0.0
100
AcDbBlockBegin
  2
SE3
 70
         0
 10
0.0
 20
0.0
 30
0.0
  3
SE3
  1

  0
ELLIPSE
  5
E4
100
AcDbEntity
  8
52176940
370
         0
390
0
  6
CONTINUOUS
 62
         7
100
AcDbEllipse
 10
18.0975105295
 20
379.8795035784
 30
0.0
 11
4.0000000000000089
 21
0.0
 31
0.0
210
0.0
220
0.0
230
1.0
 40
0.7071067812
 41
0.8480620789814749
 42
2.2935305746083259
  0
LINE
  5
E5
100
AcDbEntity
  8
52176940
370
         0
390
0
  6
CONTINUOUS
 62
         7
100
AcDbLine
 10
9.0975105295
 20
332.1271948994
 30
0.0
 11
9.0975105295
 21
238.1271948994
 31
0.0
  0
ELLIPSE
  5
E6
100
AcDbEntity
  8
52176940
370
         0
390
0
  6
CONTINUOUS
 62
         7
100
AcDbEllipse
 10
18.0975105295
 20
346.6454848626
 30
0.0
 11
8.4999999999999947
 21
0.0000000000000069
 31
0.0
210
0.0
220
0.0
230
1.0
 40
0.7071067812
 41
0.6031914056096683
 42
2.5384012479801221
  0
LINE
  5
E7
100
AcDbEntity
  8
52176940
370
         0
390
0
  6
CONTINUOUS
 62
         7
100
AcDbLine
 10
21.0975105295
 20
332.3271948994
 30
0.0
 11
15.0975105295
 21
332.3271948994
 31
0.0
  0
LINE
  5
E8
100
AcDbEntity
  8
52176940
370
         0
390
0
  6
CONTINUOUS
 62
         7
100
AcDbLine
 10
21.6412026653
 20
381.90334584
 30
0.0
 11
21.6412026653
 21
378.3678119341
 31
0.0
  0
LINE
  5
E9
100
AcDbEntity
  8
52176940
370
         0
390
0
  6
CONTINUOUS
 62
         7
100
AcDbLine
 10
24.9461232392
 20
374.3201274108
 30
0.0
 11
24.9461232392
 21
377.8556613167
 31
0.0
  0
LINE
  5
EA
100
AcDbEntity
  8
52176940
370
         0
390
0
  6
CONTINUOUS
 62
         7
100
AcDbLine
 10
14.7925899556
 20
382.0008239219
 30
0.0
 11
14.7925899556
 21
378.465290016
 31
0.0
  0
LINE
  5
EB
100
AcDbEntity
  8
52176940
370
         0
390
0
  6
CONTINUOUS
 62
         7
100
AcDbLine
 10
18.3972683135
 20
331.8924110018
 30
0.0
 11
15.0975105295
 21
331.8924110018
 31
0.0
  0
LINE
  5
EC
100
AcDbEntity
  8
52176940
370
         0
390
0
  6
CONTINUOUS
 62
         7
100
AcDbLine
 10
18.3972683135
 20
332.0468156661
 30
0.0
 11
18.3972683135
 21
331.8924110018
 31
0.0
  0
LINE
  5
ED
100
AcDbEntity
  8
52176940
370
         0
390
0
  6
CONTINUOUS
 62
         7
100
AcDbLine
 10
15.0975105295
 20
331.7333805394
 30
0.0
 11
18.3972683135
 21
331.7333805394
 31
0.0
  0
LINE
  5
EE
100
AcDbEntity
  8
52176940
370
         0
390
0
  6
CONTINUOUS
 62
         7
100
AcDbLine
 10
15.0975105295
 20
331.8924110018
 30
0.0
 11
15.0975105295
 21
331.7333805394
 31
0.0
  0
LINE
  5
EF
100
AcDbEntity
  8
52176940
370
         0
390
0
  6
CONTINUOUS
 62
         7
100
AcDbLine
 10
14.5538183938
 20
378.3678119341
 30
0.0
 11
14.5538183938
 21
381.90334584
 31
0.0
  0
LINE
  5
F0
100
AcDbEntity
  8
52176940
370
         0
390
0
  6
CONTINUOUS
 62
         7
100
AcDbLine
 10
25.0975105295
 20
356.0654379269
 30
0.0
 11
25.0975105295
 21
350.0550302869
 31
0.0
  0
LINE
  5
F1
100
AcDbEntity
  8
52176940
370
         0
390
0
  6
CONTINUOUS
 62
         7
100
AcDbLine
 10
21.0975105295
 20
332.1270558027
 30
0.0
 11
21.0975105295
 21
332.3270563922
 31
0.0
  0
LINE
  5
F2
100
AcDbEntity
  8
52176940
370
         0
390
0
  6
CONTINUOUS
 62
         7
100
AcDbLine
 10
15.0975105295
 20
332.0889268581
 30
0.0
 11
15.0975105295
 21
332.289089142
 31
0.0
  0
LINE
  5
F3
100
AcDbEntity
  8
52176940
370
         0
390
0
  6
CONTINUOUS
 62
         7
100
AcDbLine
 10
21.4024311035
 20
382.0008239219
 30
0.0
 11
14.7925899556
 21
382.0008239219
 31
0.0
  0
LINE
  5
F4
100
AcDbEntity
  8
52176940
370
         0
390
0
  6
CONTINUOUS
 62
         7
100
AcDbLine
 10
24.9461232392
 20
377.8556613167
 30
0.0
 11
21.6412026653
 21
381.90334584
 31
0.0
  0
LINE
  5
F5
100
AcDbEntity
  8
52176940
370
         0
390
0
  6
CONTINUOUS
 62
         7
100
AcDbLine
 10
21.0975105295
 20
332.3270563922
 30
0.0
 11
21.0975105295
 21
332.3271948994
 31
0.0
  0
LINE
  5
F6
100
AcDbEntity
  8
52176940
370
         0
390
0
  6
CONTINUOUS
 62
         7
100
AcDbLine
 10
14.5538183938
 20
381.90334584
 30
0.0
 11
11.2488978199
 21
377.8556613167
 31
0.0
  0
ARC
  5
F7
100
AcDbEntity
  8
52176940
370
         0
390
0
  6
CONTINUOUS
 62
         7
100
AcDbCircle
 10
14.6732041747
 20
377.7581832348
 30
0.0
 40
3.4256935047
100
AcDbArc
 50
178.3694289491
 51
180.0
  0
LINE
  5
F8
100
AcDbEntity
  8
52176940
370
         0
390
0
  6
CONTINUOUS
 62
         7
100
AcDbLine
 10
24.8475105295
 20
379.8795035784
 30
0.0
 11
24.8475105295
 21
380.5866103596
 31
0.0
  0
LINE
  5
F9
100
AcDbEntity
  8
52176940
370
         0
390
0
  6
CONTINUOUS
 62
         7
100
AcDbLine
 10
19.3076409796
 20
331.3113563373
 30
0.0
 11
19.3076409796
 21
331.5148739502
 31
0.0
  0
LINE
  5
FA
100
AcDbEntity
  8
52176940
370
         0
390
0
  6
CONTINUOUS
 62
         7
100
AcDbLine
 10
21.0975105295
 20
331.6137696463
 30
0.0
 11
21.0975105295
 21
331.8159690501
 31
0.0
  0
LINE
  5
FB
100
AcDbEntity
  8
52176940
370
         0
390
0
  6
CONTINUOUS
 62
         7
100
AcDbLine
 10
27.0975105295
 20
332.1271948994
 30
0.0
 11
21.0975105295
 21
332.1271948994
 31
0.0
  0
LINE
  5
FC
100
AcDbEntity
  8
52176940
370
         0
390
0
  6
CONTINUOUS
 62
         7
100
AcDbLine
 10
15.0975105295
 20
332.289089142
 30
0.0
 11
15.0975105295
 21
332.3271948993
 31
0.0
  0
ARC
  5
FD
100
AcDbEntity
  8
52176940
370
         0
390
0
  6
CONTINUOUS
 62
         7
100
AcDbCircle
 10
28.0213285984
 20
285.1865699851
 30
0.0
 40
47.1406417033
100
AcDbArc
 50
98.4459160018
 51
100.6520656481
  0
ARC
  5
FE
100
AcDbEntity
  8
52176940
370
         0
390
0
  6
CONTINUOUS
 62
         7
100
AcDbCircle
 10
14.1738444874
 20
285.1875938302
 30
0.0
 40
47.1396067773
100
AcDbArc
 50
81.5540839982
 51
83.7477320904
  0
LINE
  5
FF
100
AcDbEntity
  8
52176940
370
         0
390
0
  6
CONTINUOUS
 62
         7
100
AcDbLine
 10
19.3076409796
 20
332.0468156661
 30
0.0
 11
18.3972683135
 21
332.0468156661
 31
0.0
  0
ARC
  5
100
100
AcDbEntity
  8
52176940
370
         0
390
0
  6
CONTINUOUS
 62
         7
100
AcDbCircle
 10
28.0213309753
 20
285.1862969058
 30
0.0
 40
46.9409149986
100
AcDbArc
 50
98.4821193412
 51
100.6979245341
  0
LINE
  5
101
100
AcDbEntity
  8
52176940
370
         0
390
0
  6
CONTINUOUS
 62
         7
100
AcDbLine
 10
18.3972683135
 20
331.3113563373
 30
0.0
 11
18.3972683135
 21
331.5148739502
 31
0.0
  0
LINE
  5
102
100
AcDbEntity
  8
52176940
370
         0
390
0
  6
CONTINUOUS
 62
         7
100
AcDbLine
 10
18.3972683135
 20
331.7333805394
 30
0.0
 11
18.3972683135
 21
331.5148739502
 31
0.0
  0
LINE
  5
103
100
AcDbEntity
  8
52176940
370
         0
390
0
  6
CONTINUOUS
 62
         7
100
AcDbLine
 10
18.3972683135
 20
331.5148739502
 30
0.0
 11
19.3076409796
 21
331.5148739502
 31
0.0
  0
LINE
  5
104
100
AcDbEntity
  8
52176940
370
         0
390
0
  6
CONTINUOUS
 62
         7
100
AcDbLine
 10
15.0975105295
 20
331.5308212653
 30
0.0
 11
15.0975105295
 21
331.7333805394
 31
0.0
  0
ELLIPSE
  5
105
100
AcDbEntity
  8
52176940
370
         0
390
0
  6
CONTINUOUS
 62
         7
100
AcDbEllipse
 10
21.4825372741
 20
285.1271947946
 30
0.0
 11
-158.93190748481172
 21
0.0000000023211097
 31
0.0
210
0.0
220
0.0
230
1.0
 40
0.2969825308
 41
4.7148115720969459
 42
4.7525744010854041
  0
LINE
  5
106
100
AcDbEntity
  8
52176940
370
         0
390
0
  6
CONTINUOUS
 62
         7
100
AcDbLine
 10
11.0975105295
 20
350.0550302869
 30
0.0
 11
11.0975105295
 21
356.0654379269
 31
0.0
  0
ELLIPSE
  5
107
100
AcDbEntity
  8
52176940
370
         0
390
0
  6
CONTINUOUS
 62
         7
100
AcDbEllipse
 10
18.0975105295
 20
362.9089408299
 30
0.0
 11
-8.4999999999999964
 21
0.0000000000000139
 31
0.0
210
0.0
220
0.0
230
1.0
 40
0.7071067812
 41
3.1415926535897953
 42
6.2831853071795791
  0
ELLIPSE
  5
108
100
AcDbEntity
  8
52176940
370
         0
390
0
  6
CONTINUOUS
 62
         7
100
AcDbEllipse
 10
18.0975105295
 20
345.5848246908
 30
0.0
 11
6.9999999999999876
 21
-0.0000000000000625
 31
0.0
210
0.0
220
0.0
230
1.0
 40
0.7071067812
 41
0.0
 42
3.141592653589794
  0
ELLIPSE
  5
109
100
AcDbEntity
  8
52176940
370
         0
390
0
  6
CONTINUOUS
 62
         7
100
AcDbEllipse
 10
21.4825372502
 20
285.1271951287
 30
0.0
 11
-158.25846663680042
 21
-0.0000000059276654
 31
0.0
210
0.0
220
0.0
230
1.0
 40
0.2969825297
 41
4.7148218808604794
 42
4.7527454955497292
  0
LINE
  5
10A
100
AcDbEntity
  8
52176940
370
         0
390
0
  6
CONTINUOUS
 62
         7
100
AcDbLine
 10
18.3972683135
 20
331.3113563373
 30
0.0
 11
19.3076409796
 21
331.3113563373
 31
0.0
  0
LINE
  5
10B
100
AcDbEntity
  8
52176940
370
         0
390
0
  6
CONTINUOUS
 62
         7
100
AcDbLine
 10
15.0975105295
 20
331.5308212653
 30
0.0
 11
18.3972683135
 21
331.5308212653
 31
0.0
  0
LINE
  5
10C
100
AcDbEntity
  8
52176940
370
         0
390
0
  6
CONTINUOUS
 62
         7
100
AcDbLine
 10
11.0975105295
 20
345.5848246908
 30
0.0
 11
11.0975105295
 21
332.1271948994
 31
0.0
  0
LINE
  5
10D
100
AcDbEntity
  8
52176940
370
         0
390
0
  6
CONTINUOUS
 62
         7
100
AcDbLine
 10
24.9975105295
 20
382.2836666344
 30
0.0
 11
24.9975105295
 21
386.2434646091
 31
0.0
  0
LINE
  5
10E
100
AcDbEntity
  8
52176940
370
         0
390
0
  6
CONTINUOUS
 62
         7
100
AcDbLine
 10
11.1975105295
 20
386.2434646091
 30
0.0
 11
11.1975105295
 21
382.2836666344
 31
0.0
  0
LINE
  5
10F
100
AcDbEntity
  8
52176940
370
         0
390
0
  6
CONTINUOUS
 62
         7
100
AcDbLine
 10
11.3475105295
 20
380.5866103596
 30
0.0
 11
11.3475105295
 21
379.8795035784
 31
0.0
  0
LINE
  5
110
100
AcDbEntity
  8
52176940
370
         0
390
0
  6
CONTINUOUS
 62
         7
100
AcDbLine
 10
11.2475105295
 20
377.7581832348
 30
0.0
 11
11.2475105295
 21
366.467557134
 31
0.0
  0
LINE
  5
111
100
AcDbEntity
  8
52176940
370
         0
390
0
  6
CONTINUOUS
 62
         7
100
AcDbLine
 10
15.0975105295
 20
332.1271948994
 30
0.0
 11
9.0975105295
 21
332.1271948994
 31
0.0
  0
LINE
  5
112
100
AcDbEntity
  8
52176940
370
         0
390
0
  6
CONTINUOUS
 62
         7
100
AcDbLine
 10
9.5975105295
 20
362.9089408299
 30
0.0
 11
9.5975105295
 21
353.2682649384
 31
0.0
  0
ELLIPSE
  5
113
100
AcDbEntity
  8
52176940
370
         0
390
0
  6
CONTINUOUS
 62
         7
100
AcDbEllipse
 10
18.0975105295
 20
349.7981544695
 30
0.0
 11
-7.9644794666642991
 21
-5.3511359101739426
 31
0.0
210
0.0
220
0.0
230
1.0
 40
0.5549017375
 41
2.1815390585077452
 42
3.3879218697270925
  0
ELLIPSE
  5
114
100
AcDbEntity
  8
52176940
370
         0
390
0
  6
CONTINUOUS
 62
         7
100
AcDbEllipse
 10
18.0975105342
 20
377.7581832291
 30
0.0
 11
-6.8500000058262041
 21
0.0000000057103211
 31
0.0
210
0.0
220
0.0
230
1.0
 40
0.7071067814
 41
5.2158616061436511
 42
5.25611390759033
  0
ELLIPSE
  5
115
100
AcDbEntity
  8
52176940
370
         0
390
0
  6
CONTINUOUS
 62
         7
100
AcDbEllipse
 10
18.0975105242
 20
377.7581832283
 30
0.0
 11
6.8500000066648683
 21
0.0000000065354666
 31
0.0
210
0.0
220
0.0
230
1.0
 40
0.7071067815
 41
1.0270713994625305
 42
1.0673237009052776
  0
ELLIPSE
  5
116
100
AcDbEntity
  8
52176940
370
         0
390
0
  6
CONTINUOUS
 62
         7
100
AcDbEllipse
 10
18.0975105295
 20
374.2226493289
 30
0.0
 11
6.8500000000000636
 21
0.0
 31
0.0
210
0.0
220
0.0
230
1.0
 40
0.7071067812
 41
0.0201261507370181
 42
1.0270714004595702
  0
ELLIPSE
  5
117
100
AcDbEntity
  8
52176940
370
         0
390
0
  6
CONTINUOUS
 62
         7
100
AcDbEllipse
 10
18.0975105295
 20
374.2226493289
 30
0.0
 11
-6.8499999999999881
 21
-0.0000000000000278
 31
0.0
210
0.0
220
0.0
230
1.0
 40
0.7071067812
 41
5.2561139067200182
 42
6.2630591564425515
  0
ELLIPSE
  5
118
100
AcDbEntity
  8
52176940
370
         0
390
0
  6
CONTINUOUS
 62
         7
100
AcDbEllipse
 10
18.0975105295
 20
374.2226493289
 30
0.0
 11
6.8500000000000103
 21
-0.0000000000000278
 31
0.0
210
0.0
220
0.0
230
1.0
 40
0.7071067812
 41
1.0673237019336357
 42
2.0742689516561739
  0
LINE
  5
119
100
AcDbEntity
  8
52176940
370
         0
390
0
  6
CONTINUOUS
 62
         7
100
AcDbLine
 10
21.4024311035
 20
378.465290016
 30
0.0
 11
21.4024311035
 21
382.0008239219
 31
0.0
  0
LINE
  5
11A
100
AcDbEntity
  8
52176940
370
         0
390
0
  6
CONTINUOUS
 62
         7
100
AcDbLine
 10
24.9475105295
 20
366.467557134
 30
0.0
 11
24.9475105295
 21
377.7581832348
 31
0.0
  0
LINE
  5
11B
100
AcDbEntity
  8
52176940
370
         0
390
0
  6
CONTINUOUS
 62
         7
100
AcDbLine
 10
26.5975105295
 20
353.2682649384
 30
0.0
 11
26.5975105295
 21
362.9089408299
 31
0.0
  0
ELLIPSE
  5
11C
100
AcDbEntity
  8
52176940
370
         0
390
0
  6
CONTINUOUS
 62
         7
100
AcDbEllipse
 10
18.0975105295
 20
379.8795035784
 30
0.0
 11
-6.750000000000008
 21
0.0000000000000139
 31
0.0
210
0.0
220
0.0
230
1.0
 40
0.7071067812
 41
0.0
 42
0.3174698949696331
  0
ELLIPSE
  5
11D
100
AcDbEntity
  8
52176940
370
         0
390
0
  6
CONTINUOUS
 62
         7
100
AcDbEllipse
 10
18.0975105295
 20
379.8795035784
 30
0.0
 11
-6.750000000000008
 21
0.0000000000000139
 31
0.0
210
0.0
220
0.0
230
1.0
 40
0.7071067812
 41
2.8241227586201605
 42
6.2831853071795862
  0
ELLIPSE
  5
11E
100
AcDbEntity
  8
52176940
370
         0
390
0
  6
CONTINUOUS
 62
         7
100
AcDbEllipse
 10
18.0975105295
 20
380.5866103596
 30
0.0
 11
-6.7500000000000098
 21
0.0000000000000139
 31
0.0
210
0.0
220
0.0
230
1.0
 40
0.7071067812
 41
3.1415926535897842
 42
6.2831853071795862
  0
LINE
  5
11F
100
AcDbEntity
  8
52176940
370
         0
390
0
  6
CONTINUOUS
 62
         7
100
AcDbLine
 10
25.0975105295
 20
332.1271948994
 30
0.0
 11
25.0975105295
 21
345.5848246908
 31
0.0
  0
LINE
  5
120
100
AcDbEntity
  8
52176940
370
         0
390
0
  6
CONTINUOUS
 62
         7
100
AcDbLine
 10
9.0975105295
 20
238.1271948994
 30
0.0
 11
27.0975105295
 21
238.1271948994
 31
0.0
  0
LINE
  5
121
100
AcDbEntity
  8
52176940
370
         0
390
0
  6
CONTINUOUS
 62
         7
100
AcDbLine
 10
11.0975105295
 20
345.5848246908
 30
0.0
 11
11.0975105295
 21
350.0550302869
 31
0.0
  0
ELLIPSE
  5
122
100
AcDbEntity
  8
52176940
370
         0
390
0
  6
CONTINUOUS
 62
         7
100
AcDbEllipse
 10
18.0975105295
 20
349.7981544695
 30
0.0
 11
7.9644794666642369
 21
-5.3511359101738876
 31
0.0
210
0.0
220
0.0
230
1.0
 40
0.5549017375
 41
2.8952634374525079
 42
4.1016462486718446
  0
LINE
  5
123
100
AcDbEntity
  8
52176940
370
         0
390
0
  6
CONTINUOUS
 62
         7
100
AcDbLine
 10
25.0975105295
 20
350.0550302869
 30
0.0
 11
25.0975105295
 21
345.5848246908
 31
0.0
  0
ELLIPSE
  5
124
100
AcDbEntity
  8
52176940
370
         0
390
0
  6
CONTINUOUS
 62
         7
100
AcDbEllipse
 10
18.0975105295
 20
386.2434646091
 30
0.0
 11
-6.9000000000000101
 21
0.0000000000000139
 31
0.0
210
0.0
220
0.0
230
1.0
 40
0.7071067812
 41
3.1415926535897931
 42
6.2831853071795862
  0
ELLIPSE
  5
125
100
AcDbEntity
  8
52176940
370
         0
390
0
  6
CONTINUOUS
 62
         7
100
AcDbEllipse
 10
18.0975105295
 20
382.2836666344
 30
0.0
 11
-6.9000000000000101
 21
0.0000000000000139
 31
0.0
210
0.0
220
0.0
230
1.0
 40
0.7071067812
 41
0.0000000000000028
 42
0.2379734715692624
  0
ELLIPSE
  5
126
100
AcDbEntity
  8
52176940
370
         0
390
0
  6
CONTINUOUS
 62
         7
100
AcDbEllipse
 10
18.0975105295
 20
382.2836666344
 30
0.0
 11
-6.9000000000000101
 21
0.0000000000000139
 31
0.0
210
0.0
220
0.0
230
1.0
 40
0.7071067812
 41
2.9036191820205981
 42
6.2831853071795862
  0
ELLIPSE
  5
127
100
AcDbEntity
  8
52176940
370
         0
390
0
  6
CONTINUOUS
 62
         7
100
AcDbEllipse
 10
18.0975105295
 20
381.6472705313
 30
0.0
 11
-6.0000000000000053
 21
0.0000000000000278
 31
0.0
210
0.0
220
0.0
230
1.0
 40
0.7071067812
 41
3.5599390400337132
 42
5.8648389207358118
  0
LINE
  5
128
100
AcDbEntity
  8
52176940
370
         0
390
0
  6
CONTINUOUS
 62
         7
100
AcDbLine
 10
27.0975105295
 20
332.1271948994
 30
0.0
 11
27.0975105295
 21
238.1271948994
 31
0.0
  0
LINE
  5
129
100
AcDbEntity
  8
52176940
370
         0
390
0
  6
CONTINUOUS
 62
         7
100
AcDbLine
 10
11.2488978199
 20
377.8556613167
 30
0.0
 11
11.2488978199
 21
374.3201274108
 31
0.0
  0
ARC
  5
12A
100
AcDbEntity
  8
52176940
370
         0
390
0
  6
CONTINUOUS
 62
         7
100
AcDbCircle
 10
21.5218168844
 20
377.7581832348
 30
0.0
 40
3.4256935047
100
AcDbArc
 50
0.0
 51
1.6305710509
  0
ENDBLK
  5
12B
100
AcDbEntity
  8
52176940
370
         0
390
0
  6
CONTINUOUS
 62
         7
100
AcDbBlockEnd
  0
BLOCK
  5
1AB
100
AcDbEntity
  8
0
370
         0
390
0
 62
         1
 48
0.0
100
AcDbBlockBegin
  2
SE4
 70
         0
 10
0.0
 20
0.0
 30
0.0
  3
SE4
  1

  0
ENDBLK
  5
1AC
100
AcDbEntity
  8
0
370
         0
390
0
 62
         1
 48
0.0
100
AcDbBlockEnd
  0
BLOCK
  5
12E
100
AcDbEntity
  8
0
370
         0
390
0
 62
         1
 48
0.0
100
AcDbBlockBegin
  2
SE5
 70
         0
 10
0.0
 20
0.0
 30
0.0
  3
SE5
  1

  0
LINE
  5
12F
100
AcDbEntity
  8
52176940
370
         0
390
0
  6
CONTINUOUS
 62
         7
100
AcDbLine
 10
75.4557445145
 20
291.8771948994
 30
0.0
 11
75.4557445145
 21
278.3771948994
 31
0.0
  0
ARC
  5
130
100
AcDbEntity
  8
52176940
370
         0
390
0
  6
CONTINUOUS
 62
         7
100
AcDbCircle
 10
143.3789492218
 20
352.7537703202
 30
0.0
 40
9.7574142768
100
AcDbArc
 50
282.7230513861
 51
312.7166268339
  0
ARC
  5
131
100
AcDbEntity
  8
52176940
370
         0
390
0
  6
CONTINUOUS
 62
         7
100
AcDbCircle
 10
210.4557445145
 20
285.1271948994
 30
0.0
 40
47.2
100
AcDbArc
 50
90.7403093579
 51
91.3071857381
  0
ARC
  5
132
100
AcDbEntity
  8
52176940
370
         0
390
0
  6
CONTINUOUS
 62
         7
100
AcDbCircle
 10
210.4557445145
 20
285.1271948994
 30
0.0
 40
47.1999999998
100
AcDbArc
 50
91.3071857381
 51
94.9259016812
  0
ARC
  5
133
100
AcDbEntity
  8
52176940
370
         0
390
0
  6
CONTINUOUS
 62
         7
100
AcDbCircle
 10
142.993292304
 20
352.117751074
 30
0.0
 40
9.578447904
100
AcDbArc
 50
316.9963960595
 51
347.5639257205
  0
LINE
  5
134
100
AcDbEntity
  8
52176940
370
         0
390
0
  6
CONTINUOUS
 62
         7
100
AcDbLine
 10
79.4557445145
 20
285.2650497249
 30
0.0
 11
84.4557445145
 21
285.2650497249
 31
0.0
  0
LINE
  5
135
100
AcDbEntity
  8
52176940
370
         0
390
0
  6
CONTINUOUS
 62
         7
100
AcDbLine
 10
209.3789843239
 20
332.1148591049
 30
0.0
 11
209.3789843239
 21
332.3149113886
 31
0.0
  0
LINE
  5
136
100
AcDbEntity
  8
52176940
370
         0
390
0
  6
CONTINUOUS
 62
         7
100
AcDbLine
 10
123.4557445145
 20
289.9490202799
 30
0.0
 11
123.4557445145
 21
293.6271948994
 31
0.0
  0
LINE
  5
137
100
AcDbEntity
  8
52176940
370
         0
390
0
  6
CONTINUOUS
 62
         7
100
AcDbLine
 10
100.4557445145
 20
293.6271948994
 30
0.0
 11
100.4557445145
 21
276.6271948994
 31
0.0
  0
LINE
  5
138
100
AcDbEntity
  8
52176940
370
         0
390
0
  6
CONTINUOUS
 62
         7
100
AcDbLine
 10
124.9557445145
 20
285.1271948994
 30
0.0
 11
124.9557445145
 21
278.1271948994
 31
0.0
  0
LINE
  5
139
100
AcDbEntity
  8
52176940
370
         0
390
0
  6
CONTINUOUS
 62
         7
100
AcDbLine
 10
152.3469999755
 20
350.0550302869
 30
0.0
 11
154.9478621913
 21
352.6558925027
 31
0.0
  0
LINE
  5
13A
100
AcDbEntity
  8
52176940
370
         0
390
0
  6
CONTINUOUS
 62
         7
100
AcDbLine
 10
149.998114723
 20
345.5848246908
 30
0.0
 11
145.0483672547
 21
340.6350772225
 31
0.0
  0
LINE
  5
13B
100
AcDbEntity
  8
52176940
370
         0
390
0
  6
CONTINUOUS
 62
         7
100
AcDbLine
 10
73.0557445145
 20
278.2271948994
 30
0.0
 11
73.9557445145
 21
279.1271948994
 31
0.0
  0
LINE
  5
13C
100
AcDbEntity
  8
52176940
370
         0
390
0
  6
CONTINUOUS
 62
         7
100
AcDbLine
 10
116.5166086338
 20
369.3789678778
 30
0.0
 11
117.1176493979
 21
369.9800086418
 31
0.0
  0
LINE
  5
13D
100
AcDbEntity
  8
52176940
370
         0
390
0
  6
CONTINUOUS
 62
         7
100
AcDbLine
 10
121.2628120031
 20
374.125171247
 30
0.0
 11
117.2151274798
 21
370.0774867237
 31
0.0
  0
LINE
  5
13E
100
AcDbEntity
  8
52176940
370
         0
390
0
  6
CONTINUOUS
 62
         7
100
AcDbLine
 10
79.4557445145
 20
291.1271948994
 30
0.0
 11
79.4557445145
 21
290.9893400739
 31
0.0
  0
LINE
  5
13F
100
AcDbEntity
  8
52176940
370
         0
390
0
  6
CONTINUOUS
 62
         7
100
AcDbLine
 10
125.5054526902
 20
378.3678119341
 30
0.0
 11
121.4577681669
 21
374.3201274108
 31
0.0
  0
LINE
  5
140
100
AcDbEntity
  8
52176940
370
         0
390
0
  6
CONTINUOUS
 62
         7
100
AcDbLine
 10
123.4557445145
 20
280.3053695189
 30
0.0
 11
123.4557445145
 21
276.6271948994
 31
0.0
  0
ARC
  5
141
100
AcDbEntity
  8
52176940
370
         0
390
0
  6
CONTINUOUS
 62
         7
100
AcDbCircle
 10
115.383260675
 20
284.7935607189
 30
0.0
 40
9.5782962275
100
AcDbArc
 50
1.9961481256
 51
32.5641736544
  0
CIRCLE
  5
142
100
AcDbEntity
  8
52176940
370
         0
390
0
  6
CONTINUOUS
 62
         7
100
AcDbCircle
 10
210.4557445145
 20
285.1271948994
 30
0.0
 40
47.0
  0
LINE
  5
143
100
AcDbEntity
  8
52176940
370
         0
390
0
  6
CONTINUOUS
 62
         7
100
AcDbLine
 10
118.1783095696
 20
387.1627034246
 30
0.0
 11
108.4202359893
 21
377.4046298442
 31
0.0
  0
LINE
  5
144
100
AcDbEntity
  8
52176940
370
         0
390
0
  6
CONTINUOUS
 62
         7
100
AcDbLine
 10
119.7692998273
 20
385.3595811326
 30
0.0
 11
110.2233582813
 21
375.8136395866
 31
0.0
  0
LINE
  5
145
100
AcDbEntity
  8
52176940
370
         0
390
0
  6
CONTINUOUS
 62
         7
100
AcDbLine
 10
120.4764066085
 20
384.6524743514
 30
0.0
 11
110.9304650625
 21
375.1065328054
 31
0.0
  0
CIRCLE
  5
146
100
AcDbEntity
  8
52176940
370
         0
390
0
  6
CONTINUOUS
 62
         7
100
AcDbCircle
 10
210.4557445145
 20
285.1271948994
 30
0.0
 40
21.0
  0
ELLIPSE
  5
147
100
AcDbEntity
  8
52176940
370
         0
390
0
  6
CONTINUOUS
 62
         7
100
AcDbEllipse
 10
118.9971963988
 20
285.1271948994
 30
0.0
 11
0.0000000000000005
 21
8.5000000000000089
 31
0.0
210
0.0
220
0.0
230
1.0
 40
0.5773502692
 41
0.9676049211852278
 42
2.1739877324045653
  0
LINE
  5
148
100
AcDbEntity
  8
52176940
370
         0
390
0
  6
CONTINUOUS
 62
         7
100
AcDbLine
 10
100.4557445145
 20
291.9771948994
 30
0.0
 11
84.4557445145
 21
291.9771948994
 31
0.0
  0
LINE
  5
149
100
AcDbEntity
  8
52176940
370
         0
390
0
  6
CONTINUOUS
 62
         7
100
AcDbLine
 10
124.9557445145
 20
292.1271948994
 30
0.0
 11
123.4557445145
 21
293.6271948994
 31
0.0
  0
LINE
  5
14A
100
AcDbEntity
  8
52176940
370
         0
390
0
  6
CONTINUOUS
 62
         7
100
AcDbLine
 10
123.4557445145
 20
293.6271948994
 30
0.0
 11
100.4557445145
 21
293.6271948994
 31
0.0
  0
LINE
  5
14B
100
AcDbEntity
  8
52176940
370
         0
390
0
  6
CONTINUOUS
 62
         7
100
AcDbLine
 10
76.4557445145
 20
291.8771948994
 30
0.0
 11
75.4557445145
 21
291.8771948994
 31
0.0
  0
LINE
  5
14C
100
AcDbEntity
  8
52176940
370
         0
390
0
  6
CONTINUOUS
 62
         7
100
AcDbLine
 10
75.4557445145
 20
291.1271948994
 30
0.0
 11
73.9557445145
 21
291.1271948994
 31
0.0
  0
LINE
  5
14D
100
AcDbEntity
  8
52176940
370
         0
390
0
  6
CONTINUOUS
 62
         7
100
AcDbLine
 10
79.4557445145
 20
279.2650497249
 30
0.0
 11
79.4557445145
 21
279.1271948994
 31
0.0
  0
LINE
  5
14E
100
AcDbEntity
  8
52176940
370
         0
390
0
  6
CONTINUOUS
 62
         7
100
AcDbLine
 10
79.4557445145
 20
285.2650497249
 30
0.0
 11
79.4557445145
 21
284.9893400739
 31
0.0
  0
ARC
  5
14F
100
AcDbEntity
  8
52176940
370
         0
390
0
  6
CONTINUOUS
 62
         7
100
AcDbCircle
 10
115.2059742197
 20
285.515980327
 30
0.0
 40
9.7575188911
100
AcDbArc
 50
327.723215948
 51
357.716462272
  0
LINE
  5
150
100
AcDbEntity
  8
52176940
370
         0
390
0
  6
CONTINUOUS
 62
         7
100
AcDbLine
 10
84.4557445145
 20
291.9771948994
 30
0.0
 11
84.4557445145
 21
291.1271948994
 31
0.0
  0
LINE
  5
151
100
AcDbEntity
  8
52176940
370
         0
390
0
  6
CONTINUOUS
 62
         7
100
AcDbLine
 10
84.4557445145
 20
278.2771948994
 30
0.0
 11
84.4557445145
 21
279.1271948994
 31
0.0
  0
LINE
  5
152
100
AcDbEntity
  8
52176940
370
         0
390
0
  6
CONTINUOUS
 62
         7
100
AcDbLine
 10
84.4557445145
 20
284.9893400739
 30
0.0
 11
84.4557445145
 21
279.2650497249
 31
0.0
  0
LINE
  5
153
100
AcDbEntity
  8
52176940
370
         0
390
0
  6
CONTINUOUS
 62
         7
100
AcDbLine
 10
142.9270469112
 20
340.6350772225
 30
0.0
 11
145.0483672547
 21
340.6350772225
 31
0.0
  0
LINE
  5
154
100
AcDbEntity
  8
52176940
370
         0
390
0
  6
CONTINUOUS
 62
         7
100
AcDbLine
 10
137.5176800351
 20
367.752622281
 30
0.0
 11
126.2039715361
 21
379.06633078
 31
0.0
  0
LINE
  5
155
100
AcDbEntity
  8
52176940
370
         0
390
0
  6
CONTINUOUS
 62
         7
100
AcDbLine
 10
154.9478621913
 20
350.5345721591
 30
0.0
 11
154.9478621913
 21
352.6558925027
 31
0.0
  0
LINE
  5
156
100
AcDbEntity
  8
52176940
370
         0
390
0
  6
CONTINUOUS
 62
         7
100
AcDbLine
 10
182.5396710457
 20
322.9427633048
 30
0.0
 11
154.9478621913
 21
350.5345721591
 31
0.0
  0
LINE
  5
157
100
AcDbEntity
  8
52176940
370
         0
390
0
  6
CONTINUOUS
 62
         7
100
AcDbLine
 10
154.9478621913
 20
352.6558925027
 30
0.0
 11
138.684406224
 21
368.91934847
 31
0.0
  0
LINE
  5
158
100
AcDbEntity
  8
52176940
370
         0
390
0
  6
CONTINUOUS
 62
         7
100
AcDbLine
 10
73.0557445145
 20
292.0271948994
 30
0.0
 11
67.4557445145
 21
292.0271948994
 31
0.0
  0
LINE
  5
159
100
AcDbEntity
  8
52176940
370
         0
390
0
  6
CONTINUOUS
 62
         7
100
AcDbLine
 10
122.0673968662
 20
382.0008239219
 30
0.0
 11
121.9699187842
 21
381.90334584
 31
0.0
  0
LINE
  5
15A
100
AcDbEntity
  8
52176940
370
         0
390
0
  6
CONTINUOUS
 62
         7
100
AcDbLine
 10
117.922234261
 20
377.8556613167
 30
0.0
 11
121.4577681669
 21
374.3201274108
 31
0.0
  0
LINE
  5
15B
100
AcDbEntity
  8
52176940
370
         0
390
0
  6
CONTINUOUS
 62
         7
100
AcDbLine
 10
121.2628120031
 20
374.125171247
 30
0.0
 11
117.7272780971
 21
377.6607051529
 31
0.0
  0
LINE
  5
15C
100
AcDbEntity
  8
52176940
370
         0
390
0
  6
CONTINUOUS
 62
         7
100
AcDbLine
 10
113.6795935738
 20
373.6130206296
 30
0.0
 11
117.2151274798
 21
370.0774867237
 31
0.0
  0
LINE
  5
15D
100
AcDbEntity
  8
52176940
370
         0
390
0
  6
CONTINUOUS
 62
         7
100
AcDbLine
 10
117.1176493979
 20
369.9800086418
 30
0.0
 11
113.5821154919
 21
373.5155425477
 31
0.0
  0
LINE
  5
15E
100
AcDbEntity
  8
52176940
370
         0
390
0
  6
CONTINUOUS
 62
         7
100
AcDbLine
 10
114.9557445145
 20
280.3053695189
 30
0.0
 11
123.4557445145
 21
280.3053695189
 31
0.0
  0
LINE
  5
15F
100
AcDbEntity
  8
52176940
370
         0
390
0
  6
CONTINUOUS
 62
         7
100
AcDbLine
 10
123.4557445145
 20
289.9490202799
 30
0.0
 11
114.9557445145
 21
289.9490202799
 31
0.0
  0
LINE
  5
160
100
AcDbEntity
  8
52176940
370
         0
390
0
  6
CONTINUOUS
 62
         7
100
AcDbLine
 10
114.9557445145
 20
289.9490202799
 30
0.0
 11
114.9557445145
 21
280.3053695189
 31
0.0
  0
LINE
  5
161
100
AcDbEntity
  8
52176940
370
         0
390
0
  6
CONTINUOUS
 62
         7
100
AcDbLine
 10
118.1783095696
 20
385.8899112185
 30
0.0
 11
109.6930281954
 21
377.4046298442
 31
0.0
  0
LINE
  5
162
100
AcDbEntity
  8
52176940
370
         0
390
0
  6
CONTINUOUS
 62
         7
100
AcDbLine
 10
126.2039715361
 20
379.06633078
 30
0.0
 11
125.6029307721
 21
378.465290016
 31
0.0
  0
CIRCLE
  5
163
100
AcDbEntity
  8
52176940
370
         0
390
0
  6
CONTINUOUS
 62
         7
100
AcDbCircle
 10
210.4557445145
 20
285.1271948994
 30
0.0
 40
14.5
  0
LINE
  5
164
100
AcDbEntity
  8
52176940
370
         0
390
0
  6
CONTINUOUS
 62
         7
100
AcDbLine
 10
146.3365923354
 20
356.0654379269
 30
0.0
 11
139.5175014869
 21
349.2463470785
 31
0.0
  0
LINE
  5
165
100
AcDbEntity
  8
52176940
370
         0
390
0
  6
CONTINUOUS
 62
         7
100
AcDbLine
 10
206.402806452
 20
331.9521208796
 30
0.0
 11
206.402806452
 21
332.1528654747
 31
0.0
  0
LINE
  5
166
100
AcDbEntity
  8
52176940
370
         0
390
0
  6
CONTINUOUS
 62
         7
100
AcDbLine
 10
209.8458980349
 20
332.1232382142
 30
0.0
 11
209.8458980349
 21
332.3232549815
 31
0.0
  0
LINE
  5
167
100
AcDbEntity
  8
52176940
370
         0
390
0
  6
CONTINUOUS
 62
         7
100
AcDbLine
 10
210.4557445145
 20
332.1271948992
 30
0.0
 11
210.4557445145
 21
332.3271948994
 31
0.0
  0
LINE
  5
168
100
AcDbEntity
  8
52176940
370
         0
390
0
  6
CONTINUOUS
 62
         7
100
AcDbLine
 10
212.351985912
 20
332.0889268581
 30
0.0
 11
212.351985912
 21
332.289089142
 31
0.0
  0
LINE
  5
169
100
AcDbEntity
  8
52176940
370
         0
390
0
  6
CONTINUOUS
 62
         7
100
AcDbLine
 10
149.998114723
 20
345.5848246908
 30
0.0
 11
154.9478621913
 21
350.5345721591
 31
0.0
  0
ELLIPSE
  5
16A
100
AcDbEntity
  8
52176940
370
         0
390
0
  6
CONTINUOUS
 62
         7
100
AcDbEllipse
 10
145.7847849444
 20
349.7981544695
 30
0.0
 11
6.0104076400856536
 21
6.0104076400856465
 31
0.0
210
0.0
220
0.0
230
1.0
 40
0.5773502692
 41
0.9676049211852277
 42
2.1739877324045689
  0
LINE
  5
16B
100
AcDbEntity
  8
52176940
370
         0
390
0
  6
CONTINUOUS
 62
         7
100
AcDbLine
 10
139.5175014869
 20
349.2463470785
 30
0.0
 11
145.527909127
 21
343.2359394384
 31
0.0
  0
LINE
  5
16C
100
AcDbEntity
  8
52176940
370
         0
390
0
  6
CONTINUOUS
 62
         7
100
AcDbLine
 10
145.527909127
 20
343.2359394384
 30
0.0
 11
142.9270469112
 21
340.6350772225
 31
0.0
  0
LINE
  5
16D
100
AcDbEntity
  8
52176940
370
         0
390
0
  6
CONTINUOUS
 62
         7
100
AcDbLine
 10
138.684406224
 20
368.91934847
 30
0.0
 11
126.6635909439
 21
356.8985331898
 31
0.0
  0
LINE
  5
16E
100
AcDbEntity
  8
52176940
370
         0
390
0
  6
CONTINUOUS
 62
         7
100
AcDbLine
 10
125.5054526902
 20
378.3678119341
 30
0.0
 11
121.9699187842
 21
381.90334584
 31
0.0
  0
LINE
  5
16F
100
AcDbEntity
  8
52176940
370
         0
390
0
  6
CONTINUOUS
 62
         7
100
AcDbLine
 10
122.0673968662
 20
382.0008239219
 30
0.0
 11
125.6029307721
 21
378.465290016
 31
0.0
  0
LINE
  5
170
100
AcDbEntity
  8
52176940
370
         0
390
0
  6
CONTINUOUS
 62
         7
100
AcDbLine
 10
79.4557445145
 20
289.1271948994
 30
0.0
 11
76.4557445145
 21
289.1271948994
 31
0.0
  0
LINE
  5
171
100
AcDbEntity
  8
52176940
370
         0
390
0
  6
CONTINUOUS
 62
         7
100
AcDbLine
 10
124.9557445145
 20
285.1271948994
 30
0.0
 11
124.9557445145
 21
292.1271948994
 31
0.0
  0
LINE
  5
172
100
AcDbEntity
  8
52176940
370
         0
390
0
  6
CONTINUOUS
 62
         7
100
AcDbLine
 10
114.218511595
 20
391.1225013992
 30
0.0
 11
104.4604380146
 21
381.3644278189
 31
0.0
  0
LINE
  5
173
100
AcDbEntity
  8
52176940
370
         0
390
0
  6
CONTINUOUS
 62
         7
100
AcDbLine
 10
119.2389697414
 20
384.8292510467
 30
0.0
 11
118.1783095696
 21
385.8899112185
 31
0.0
  0
LINE
  5
174
100
AcDbEntity
  8
52176940
370
         0
390
0
  6
CONTINUOUS
 62
         7
100
AcDbLine
 10
120.4764066085
 20
384.6524743514
 30
0.0
 11
119.7692998273
 21
385.3595811326
 31
0.0
  0
LINE
  5
175
100
AcDbEntity
  8
52176940
370
         0
390
0
  6
CONTINUOUS
 62
         7
100
AcDbLine
 10
120.6531833038
 20
380.5866103596
 30
0.0
 11
118.5318629602
 21
382.7079307031
 31
0.0
  0
LINE
  5
176
100
AcDbEntity
  8
52176940
370
         0
390
0
  6
CONTINUOUS
 62
         7
100
AcDbLine
 10
67.4557445145
 20
278.2271948994
 30
0.0
 11
73.0557445145
 21
278.2271948994
 31
0.0
  0
LINE
  5
177
100
AcDbEntity
  8
52176940
370
         0
390
0
  6
CONTINUOUS
 62
         7
100
AcDbLine
 10
73.9557445145
 20
291.1271948994
 30
0.0
 11
73.0557445145
 21
292.0271948994
 31
0.0
  0
LINE
  5
178
100
AcDbEntity
  8
52176940
370
         0
390
0
  6
CONTINUOUS
 62
         7
100
AcDbLine
 10
76.4557445145
 20
281.1271948994
 30
0.0
 11
79.4557445145
 21
281.1271948994
 31
0.0
  0
LINE
  5
179
100
AcDbEntity
  8
52176940
370
         0
390
0
  6
CONTINUOUS
 62
         7
100
AcDbLine
 10
73.9557445145
 20
279.1271948994
 30
0.0
 11
75.4557445145
 21
279.1271948994
 31
0.0
  0
LINE
  5
17A
100
AcDbEntity
  8
52176940
370
         0
390
0
  6
CONTINUOUS
 62
         7
100
AcDbLine
 10
75.4557445145
 20
278.3771948994
 30
0.0
 11
76.4557445145
 21
278.3771948994
 31
0.0
  0
LINE
  5
17B
100
AcDbEntity
  8
52176940
370
         0
390
0
  6
CONTINUOUS
 62
         7
100
AcDbLine
 10
84.4557445145
 20
278.2771948994
 30
0.0
 11
100.4557445145
 21
278.2771948994
 31
0.0
  0
LINE
  5
17C
100
AcDbEntity
  8
52176940
370
         0
390
0
  6
CONTINUOUS
 62
         7
100
AcDbLine
 10
100.4557445145
 20
276.6271948994
 30
0.0
 11
123.4557445145
 21
276.6271948994
 31
0.0
  0
LINE
  5
17D
100
AcDbEntity
  8
52176940
370
         0
390
0
  6
CONTINUOUS
 62
         7
100
AcDbLine
 10
112.8750087107
 20
377.0510764536
 30
0.0
 11
114.9963290543
 21
374.9297561101
 31
0.0
  0
LINE
  5
17E
100
AcDbEntity
  8
52176940
370
         0
390
0
  6
CONTINUOUS
 62
         7
100
AcDbLine
 10
110.2233582813
 20
375.8136395866
 30
0.0
 11
110.9304650625
 21
375.1065328054
 31
0.0
  0
LINE
  5
17F
100
AcDbEntity
  8
52176940
370
         0
390
0
  6
CONTINUOUS
 62
         7
100
AcDbLine
 10
124.9557445145
 20
278.1271948994
 30
0.0
 11
163.9793831311
 21
278.1271948994
 31
0.0
  0
LINE
  5
180
100
AcDbEntity
  8
52176940
370
         0
390
0
  6
CONTINUOUS
 62
         7
100
AcDbLine
 10
118.1783095696
 20
385.8899112185
 30
0.0
 11
118.1783095696
 21
387.1627034246
 31
0.0
  0
LINE
  5
181
100
AcDbEntity
  8
52176940
370
         0
390
0
  6
CONTINUOUS
 62
         7
100
AcDbLine
 10
109.6930281954
 20
377.4046298442
 30
0.0
 11
110.7536883672
 21
376.3439696724
 31
0.0
  0
LINE
  5
182
100
AcDbEntity
  8
52176940
370
         0
390
0
  6
CONTINUOUS
 62
         7
100
AcDbLine
 10
152.3469999755
 20
350.0550302869
 30
0.0
 11
146.3365923354
 21
356.0654379269
 31
0.0
  0
ARC
  5
183
100
AcDbEntity
  8
52176940
370
         0
390
0
  6
CONTINUOUS
 62
         7
100
AcDbCircle
 10
210.4557445145
 20
285.1271948994
 30
0.0
 40
47.2
100
AcDbArc
 50
95.1465267851
 51
97.3303325826
  0
ARC
  5
184
100
AcDbEntity
  8
52176940
370
         0
390
0
  6
CONTINUOUS
 62
         7
100
AcDbCircle
 10
210.4557445145
 20
285.1271948994
 30
0.0
 40
47.2
100
AcDbArc
 50
82.2171744274
 51
83.7518021696
  0
LINE
  5
185
100
AcDbEntity
  8
52176940
370
         0
390
0
  6
CONTINUOUS
 62
         7
100
AcDbLine
 10
206.2217582784
 20
331.9360974773
 30
0.0
 11
206.2217582784
 21
332.1369104968
 31
0.0
  0
LINE
  5
186
100
AcDbEntity
  8
52176940
370
         0
390
0
  6
CONTINUOUS
 62
         7
100
AcDbLine
 10
204.4335105282
 20
331.7397757957
 30
0.0
 11
204.4335105282
 21
331.9414309587
 31
0.0
  0
LINE
  5
187
100
AcDbEntity
  8
52176940
370
         0
390
0
  6
CONTINUOUS
 62
         7
100
AcDbLine
 10
203.1153527728
 20
331.5504503763
 30
0.0
 11
203.1153527728
 21
331.7529243744
 31
0.0
  0
LINE
  5
188
100
AcDbEntity
  8
52176940
370
         0
390
0
  6
CONTINUOUS
 62
         7
100
AcDbLine
 10
84.4557445145
 20
290.9893400739
 30
0.0
 11
84.4557445145
 21
285.2650497249
 31
0.0
  0
ARC
  5
189
100
AcDbEntity
  8
52176940
370
         0
390
0
  6
CONTINUOUS
 62
         7
100
AcDbCircle
 10
210.4557445145
 20
285.1271948994
 30
0.0
 40
47.2
100
AcDbArc
 50
94.9259016812
 51
95.1465267851
  0
ARC
  5
18A
100
AcDbEntity
  8
52176940
370
         0
390
0
  6
CONTINUOUS
 62
         7
100
AcDbCircle
 10
210.4557445145
 20
285.1271948994
 30
0.0
 40
47.2
100
AcDbArc
 50
80.9019494092
 51
82.2171744274
  0
ARC
  5
18B
100
AcDbEntity
  8
52176940
370
         0
390
0
  6
CONTINUOUS
 62
         7
100
AcDbCircle
 10
210.4557445145
 20
285.1271948994
 30
0.0
 40
47.2
100
AcDbArc
 50
97.3303325826
 51
98.9467686821
  0
LINE
  5
18C
100
AcDbEntity
  8
52176940
370
         0
390
0
  6
CONTINUOUS
 62
         7
100
AcDbLine
 10
79.4557445145
 20
290.9893400739
 30
0.0
 11
79.4557445145
 21
285.2650497249
 31
0.0
  0
LINE
  5
18D
100
AcDbEntity
  8
52176940
370
         0
390
0
  6
CONTINUOUS
 62
         7
100
AcDbLine
 10
79.4557445145
 20
284.9893400739
 30
0.0
 11
79.4557445145
 21
279.2650497249
 31
0.0
  0
LINE
  5
18E
100
AcDbEntity
  8
52176940
370
         0
390
0
  6
CONTINUOUS
 62
         7
100
AcDbLine
 10
73.9557445145
 20
291.1271948994
 30
0.0
 11
73.9557445145
 21
279.1271948994
 31
0.0
  0
LINE
  5
18F
100
AcDbEntity
  8
52176940
370
         0
390
0
  6
CONTINUOUS
 62
         7
100
AcDbLine
 10
73.0557445145
 20
292.0271948994
 30
0.0
 11
73.0557445145
 21
278.2271948994
 31
0.0
  0
LINE
  5
190
100
AcDbEntity
  8
52176940
370
         0
390
0
  6
CONTINUOUS
 62
         7
100
AcDbLine
 10
67.4557445145
 20
292.0271948994
 30
0.0
 11
67.4557445145
 21
278.2271948994
 31
0.0
  0
LINE
  5
191
100
AcDbEntity
  8
52176940
370
         0
390
0
  6
CONTINUOUS
 62
         7
100
AcDbLine
 10
84.4557445145
 20
290.9893400739
 30
0.0
 11
79.4557445145
 21
290.9893400739
 31
0.0
  0
LINE
  5
192
100
AcDbEntity
  8
52176940
370
         0
390
0
  6
CONTINUOUS
 62
         7
100
AcDbLine
 10
79.4557445145
 20
279.2650497249
 30
0.0
 11
84.4557445145
 21
279.2650497249
 31
0.0
  0
LINE
  5
193
100
AcDbEntity
  8
52176940
370
         0
390
0
  6
CONTINUOUS
 62
         7
100
AcDbLine
 10
84.4557445145
 20
284.9893400739
 30
0.0
 11
79.4557445145
 21
284.9893400739
 31
0.0
  0
LINE
  5
194
100
AcDbEntity
  8
52176940
370
         0
390
0
  6
CONTINUOUS
 62
         7
100
AcDbLine
 10
79.4557445145
 20
291.1271948994
 30
0.0
 11
84.4557445145
 21
291.1271948994
 31
0.0
  0
LINE
  5
195
100
AcDbEntity
  8
52176940
370
         0
390
0
  6
CONTINUOUS
 62
         7
100
AcDbLine
 10
121.9699187842
 20
381.90334584
 30
0.0
 11
117.922234261
 21
377.8556613167
 31
0.0
  0
LINE
  5
196
100
AcDbEntity
  8
52176940
370
         0
390
0
  6
CONTINUOUS
 62
         7
100
AcDbLine
 10
117.7272780971
 20
377.6607051529
 30
0.0
 11
113.6795935738
 21
373.6130206296
 31
0.0
  0
LINE
  5
197
100
AcDbEntity
  8
52176940
370
         0
390
0
  6
CONTINUOUS
 62
         7
100
AcDbLine
 10
113.6795935738
 20
373.6130206296
 30
0.0
 11
113.5821154919
 21
373.5155425477
 31
0.0
  0
LINE
  5
198
100
AcDbEntity
  8
52176940
370
         0
390
0
  6
CONTINUOUS
 62
         7
100
AcDbLine
 10
117.922234261
 20
377.8556613167
 30
0.0
 11
117.7272780971
 21
377.6607051529
 31
0.0
  0
LINE
  5
199
100
AcDbEntity
  8
52176940
370
         0
390
0
  6
CONTINUOUS
 62
         7
100
AcDbLine
 10
84.4557445145
 20
279.1271948994
 30
0.0
 11
79.4557445145
 21
279.1271948994
 31
0.0
  0
LINE
  5
19A
100
AcDbEntity
  8
52176940
370
         0
390
0
  6
CONTINUOUS
 62
         7
100
AcDbLine
 10
76.4557445145
 20
291.8771948994
 30
0.0
 11
76.4557445145
 21
278.3771948994
 31
0.0
  0
LINE
  5
19B
100
AcDbEntity
  8
52176940
370
         0
390
0
  6
CONTINUOUS
 62
         7
100
AcDbLine
 10
145.0483672547
 20
340.6350772225
 30
0.0
 11
172.6422467471
 21
313.0411977302
 31
0.0
  0
LINE
  5
19C
100
AcDbEntity
  8
52176940
370
         0
390
0
  6
CONTINUOUS
 62
         7
100
AcDbLine
 10
126.6635909439
 20
356.8985331898
 30
0.0
 11
142.9270469112
 21
340.6350772225
 31
0.0
  0
ARC
  5
19D
100
AcDbEntity
  8
52176940
370
         0
390
0
  6
CONTINUOUS
 62
         7
100
AcDbCircle
 10
210.4557445145
 20
285.1271948994
 30
0.0
 40
47.2
100
AcDbArc
 50
79.3547641019
 51
80.9019494092
  0
LINE
  5
19E
100
AcDbEntity
  8
52176940
370
         0
390
0
  6
CONTINUOUS
 62
         7
100
AcDbLine
 10
219.1748747623
 20
331.3113563373
 30
0.0
 11
219.1748747623
 21
331.5148739502
 31
0.0
  0
LINE
  5
19F
100
AcDbEntity
  8
52176940
370
         0
390
0
  6
CONTINUOUS
 62
         7
100
AcDbLine
 10
215.59278521
 20
331.8456153874
 30
0.0
 11
215.59278521
 21
332.0468156661
 31
0.0
  0
LINE
  5
1A0
100
AcDbEntity
  8
52176940
370
         0
390
0
  6
CONTINUOUS
 62
         7
100
AcDbLine
 10
216.8475019329
 20
331.6905435451
 30
0.0
 11
216.8475019329
 21
331.8924110018
 31
0.0
  0
LINE
  5
1A1
100
AcDbEntity
  8
52176940
370
         0
390
0
  6
CONTINUOUS
 62
         7
100
AcDbLine
 10
217.9192195826
 20
331.5308212653
 30
0.0
 11
217.9192195826
 21
331.7333805394
 31
0.0
  0
ARC
  5
1A2
100
AcDbEntity
  8
52176940
370
         0
390
0
  6
CONTINUOUS
 62
         7
100
AcDbCircle
 10
210.4557445145
 20
285.1271948994
 30
0.0
 40
47.1999999999
100
AcDbArc
 50
87.697544996
 51
90.0
  0
ARC
  5
1A3
100
AcDbEntity
  8
52176940
370
         0
390
0
  6
CONTINUOUS
 62
         7
100
AcDbCircle
 10
210.4557445145
 20
285.1271948994
 30
0.0
 40
47.2
100
AcDbArc
 50
90.0
 51
90.7403093579
  0
LINE
  5
1A4
100
AcDbEntity
  8
52176940
370
         0
390
0
  6
CONTINUOUS
 62
         7
100
AcDbLine
 10
104.4604380146
 20
381.3644278189
 30
0.0
 11
108.4202359893
 21
377.4046298442
 31
0.0
  0
LINE
  5
1A5
100
AcDbEntity
  8
52176940
370
         0
390
0
  6
CONTINUOUS
 62
         7
100
AcDbLine
 10
108.4202359893
 20
377.4046298442
 30
0.0
 11
109.6930281954
 21
377.4046298442
 31
0.0
  0
LINE
  5
1A6
100
AcDbEntity
  8
52176940
370
         0
390
0
  6
CONTINUOUS
 62
         7
100
AcDbLine
 10
116.5166086338
 20
369.3789678778
 30
0.0
 11
127.8303171328
 21
358.0652593788
 31
0.0
  0
LINE
  5
1A7
100
AcDbEntity
  8
52176940
370
         0
390
0
  6
CONTINUOUS
 62
         7
100
AcDbLine
 10
123.4557445145
 20
276.6271948994
 30
0.0
 11
124.9557445145
 21
278.1271948994
 31
0.0
  0
LINE
  5
1A8
100
AcDbEntity
  8
52176940
370
         0
390
0
  6
CONTINUOUS
 62
         7
100
AcDbLine
 10
163.9764548067
 20
292.1271948994
 30
0.0
 11
124.9557445145
 21
292.1271948994
 31
0.0
  0
LINE
  5
1A9
100
AcDbEntity
  8
52176940
370
         0
390
0
  6
CONTINUOUS
 62
         7
100
AcDbLine
 10
118.1783095696
 20
387.1627034246
 30
0.0
 11
114.218511595
 21
391.1225013992
 31
0.0
  0
ENDBLK
  5
1AA
100
AcDbEntity
  8
52176940
370
         0
390
0
  6
CONTINUOUS
 62
         7
100
AcDbBlockEnd
  0
BLOCK
  5
1E9
100
AcDbEntity
  8
0
370
         0
390
0
 62
         1
 48
0.0
100
AcDbBlockBegin
  2
SE6
 70
         0
 10
0.0
 20
0.0
 30
0.0
  3
SE6
  1

  0
ENDBLK
  5
1EA
100
AcDbEntity
  8
0
370
         0
390
0
 62
         1
 48
0.0
100
AcDbBlockEnd
  0
BLOCK
  5
1AD
100
AcDbEntity
  8
0
370
         0
390
0
 62
         1
 48
0.0
100
AcDbBlockBegin
  2
SE7
 70
         0
 10
0.0
 20
0.0
 30
0.0
  3
SE7
  1

  0
LINE
  5
1AE
100
AcDbEntity
  8
52176940
370
         0
390
0
  6
CONTINUOUS
 62
         7
100
AcDbLine
 10
167.4330368193
 20
191.6760663922
 30
0.0
 11
181.2330368193
 21
191.6760663922
 31
0.0
  0
LINE
  5
1AF
100
AcDbEntity
  8
52176940
370
         0
390
0
  6
CONTINUOUS
 62
         7
100
AcDbLine
 10
167.4330368193
 20
197.2760663922
 30
0.0
 11
181.2330368193
 21
197.2760663922
 31
0.0
  0
LINE
  5
1B0
100
AcDbEntity
  8
52176940
370
         0
390
0
  6
CONTINUOUS
 62
         7
100
AcDbLine
 10
167.5830368193
 20
189.2760663922
 30
0.0
 11
181.0830368193
 21
189.2760663922
 31
0.0
  0
LINE
  5
1B1
100
AcDbEntity
  8
52176940
370
         0
390
0
  6
CONTINUOUS
 62
         7
100
AcDbLine
 10
167.5830368193
 20
188.2760663922
 30
0.0
 11
181.0830368193
 21
188.2760663922
 31
0.0
  0
LINE
  5
1B2
100
AcDbEntity
  8
52176940
370
         0
390
0
  6
CONTINUOUS
 62
         7
100
AcDbLine
 10
167.4844241096
 20
185.2760663922
 30
0.0
 11
167.4844241096
 21
180.2760663922
 31
0.0
  0
LINE
  5
1B3
100
AcDbEntity
  8
52176940
370
         0
390
0
  6
CONTINUOUS
 62
         7
100
AcDbLine
 10
170.7893446836
 20
180.2760663922
 30
0.0
 11
170.7893446836
 21
185.2760663922
 31
0.0
  0
LINE
  5
1B4
100
AcDbEntity
  8
52176940
370
         0
390
0
  6
CONTINUOUS
 62
         7
100
AcDbLine
 10
171.0281162454
 20
185.2760663922
 30
0.0
 11
171.0281162454
 21
180.2760663922
 31
0.0
  0
LINE
  5
1B5
100
AcDbEntity
  8
52176940
370
         0
390
0
  6
CONTINUOUS
 62
         7
100
AcDbLine
 10
177.6379573932
 20
180.2760663922
 30
0.0
 11
177.6379573932
 21
185.2760663922
 31
0.0
  0
LINE
  5
1B6
100
AcDbEntity
  8
52176940
370
         0
390
0
  6
CONTINUOUS
 62
         7
100
AcDbLine
 10
177.876728955
 20
185.2760663922
 30
0.0
 11
177.876728955
 21
180.2760663922
 31
0.0
  0
LINE
  5
1B7
100
AcDbEntity
  8
52176940
370
         0
390
0
  6
CONTINUOUS
 62
         7
100
AcDbLine
 10
181.181649529
 20
180.2760663922
 30
0.0
 11
181.181649529
 21
185.2760663922
 31
0.0
  0
ELLIPSE
  5
1B8
100
AcDbEntity
  8
52176940
370
         0
390
0
  6
CONTINUOUS
 62
         7
100
AcDbEllipse
 10
174.3330368193
 20
132.0578123227
 30
0.0
 11
8.4999999999999964
 21
0.0
 31
0.0
210
0.0
220
0.0
230
1.0
 40
0.7071067812
 41
0.0
 42
0.603191405609675
  0
ELLIPSE
  5
1B9
100
AcDbEntity
  8
52176940
370
         0
390
0
  6
CONTINUOUS
 62
         7
100
AcDbEllipse
 10
174.3330368193
 20
132.0578123227
 30
0.0
 11
8.4999999999999964
 21
0.0
 31
0.0
210
0.0
220
0.0
230
1.0
 40
0.7071067812
 41
2.5384012479801181
 42
3.1415926535897931
  0
LINE
  5
1BA
100
AcDbEntity
  8
52176940
370
         0
390
0
  6
CONTINUOUS
 62
         7
100
AcDbLine
 10
165.3330368193
 20
7.2760663922
 30
0.0
 11
183.3330368193
 21
7.2760663922
 31
0.0
  0
LINE
  5
1BB
100
AcDbEntity
  8
52176940
370
         0
390
0
  6
CONTINUOUS
 62
         7
100
AcDbLine
 10
167.4830368193
 20
185.2760663922
 30
0.0
 11
167.4844241096
 21
185.2760663922
 31
0.0
  0
LINE
  5
1BC
100
AcDbEntity
  8
52176940
370
         0
390
0
  6
CONTINUOUS
 62
         7
100
AcDbLine
 10
177.6379573932
 20
185.2760663922
 30
0.0
 11
171.0281162454
 21
185.2760663922
 31
0.0
  0
LINE
  5
1BD
100
AcDbEntity
  8
52176940
370
         0
390
0
  6
CONTINUOUS
 62
         7
100
AcDbLine
 10
181.181649529
 20
185.2760663922
 30
0.0
 11
177.876728955
 21
185.2760663922
 31
0.0
  0
LINE
  5
1BE
100
AcDbEntity
  8
52176940
370
         0
390
0
  6
CONTINUOUS
 62
         7
100
AcDbLine
 10
170.7893446836
 20
185.2760663922
 30
0.0
 11
167.4844241096
 21
185.2760663922
 31
0.0
  0
LINE
  5
1BF
100
AcDbEntity
  8
52176940
370
         0
390
0
  6
CONTINUOUS
 62
         7
100
AcDbLine
 10
168.3330368193
 20
190.7760663922
 30
0.0
 11
180.3330368193
 21
190.7760663922
 31
0.0
  0
LINE
  5
1C0
100
AcDbEntity
  8
52176940
370
         0
390
0
  6
CONTINUOUS
 62
         7
100
AcDbLine
 10
167.3330368193
 20
139.7760663922
 30
0.0
 11
167.3330368193
 21
101.2760663922
 31
0.0
  0
LINE
  5
1C1
100
AcDbEntity
  8
52176940
370
         0
390
0
  6
CONTINUOUS
 62
         7
100
AcDbLine
 10
165.8330368193
 20
164.2760663922
 30
0.0
 11
165.8330368193
 21
150.642091796
 31
0.0
  0
LINE
  5
1C2
100
AcDbEntity
  8
52176940
370
         0
390
0
  6
CONTINUOUS
 62
         7
100
AcDbLine
 10
167.4830368193
 20
185.2760663922
 30
0.0
 11
167.4830368193
 21
164.2760663922
 31
0.0
  0
LINE
  5
1C3
100
AcDbEntity
  8
52176940
370
         0
390
0
  6
CONTINUOUS
 62
         7
100
AcDbLine
 10
167.5830368193
 20
189.2760663922
 30
0.0
 11
167.5830368193
 21
188.2760663922
 31
0.0
  0
LINE
  5
1C4
100
AcDbEntity
  8
52176940
370
         0
390
0
  6
CONTINUOUS
 62
         7
100
AcDbLine
 10
168.3330368193
 20
190.7760663922
 30
0.0
 11
168.3330368193
 21
189.2760663922
 31
0.0
  0
LINE
  5
1C5
100
AcDbEntity
  8
52176940
370
         0
390
0
  6
CONTINUOUS
 62
         7
100
AcDbLine
 10
170.3330368193
 20
188.2760663922
 30
0.0
 11
170.3330368193
 21
185.2760663922
 31
0.0
  0
LINE
  5
1C6
100
AcDbEntity
  8
52176940
370
         0
390
0
  6
CONTINUOUS
 62
         7
100
AcDbLine
 10
180.3330368193
 20
190.7760663922
 30
0.0
 11
181.2330368193
 21
191.6760663922
 31
0.0
  0
LINE
  5
1C7
100
AcDbEntity
  8
52176940
370
         0
390
0
  6
CONTINUOUS
 62
         7
100
AcDbLine
 10
167.4330368193
 20
197.2760663922
 30
0.0
 11
167.4330368193
 21
191.6760663922
 31
0.0
  0
LINE
  5
1C8
100
AcDbEntity
  8
52176940
370
         0
390
0
  6
CONTINUOUS
 62
         7
100
AcDbLine
 10
183.3330368193
 20
101.2760663922
 30
0.0
 11
181.3330368193
 21
101.2760663922
 31
0.0
  0
LINE
  5
1C9
100
AcDbEntity
  8
52176940
370
         0
390
0
  6
CONTINUOUS
 62
         7
100
AcDbLine
 10
165.8330368193
 20
132.0578123227
 30
0.0
 11
165.8330368193
 21
122.4171364312
 31
0.0
  0
LINE
  5
1CA
100
AcDbEntity
  8
52176940
370
         0
390
0
  6
CONTINUOUS
 62
         7
100
AcDbLine
 10
181.3330368193
 20
101.2760663922
 30
0.0
 11
181.3330368193
 21
139.7760663922
 31
0.0
  0
LINE
  5
1CB
100
AcDbEntity
  8
52176940
370
         0
390
0
  6
CONTINUOUS
 62
         7
100
AcDbLine
 10
167.3388205192
 20
101.2760663922
 30
0.0
 11
165.3330368193
 21
101.2760663922
 31
0.0
  0
LINE
  5
1CC
100
AcDbEntity
  8
52176940
370
         0
390
0
  6
CONTINUOUS
 62
         7
100
AcDbLine
 10
181.2330368193
 20
191.6760663922
 30
0.0
 11
181.2330368193
 21
197.2760663922
 31
0.0
  0
LINE
  5
1CD
100
AcDbEntity
  8
52176940
370
         0
390
0
  6
CONTINUOUS
 62
         7
100
AcDbLine
 10
167.4330368193
 20
191.6760663922
 30
0.0
 11
168.3330368193
 21
190.7760663922
 31
0.0
  0
LINE
  5
1CE
100
AcDbEntity
  8
52176940
370
         0
390
0
  6
CONTINUOUS
 62
         7
100
AcDbLine
 10
178.3330368193
 20
185.2760663922
 30
0.0
 11
178.3330368193
 21
188.2760663922
 31
0.0
  0
LINE
  5
1CF
100
AcDbEntity
  8
52176940
370
         0
390
0
  6
CONTINUOUS
 62
         7
100
AcDbLine
 10
180.3330368193
 20
189.2760663922
 30
0.0
 11
180.3330368193
 21
190.7760663922
 31
0.0
  0
LINE
  5
1D0
100
AcDbEntity
  8
52176940
370
         0
390
0
  6
CONTINUOUS
 62
         7
100
AcDbLine
 10
181.0830368193
 20
188.2760663922
 30
0.0
 11
181.0830368193
 21
189.2760663922
 31
0.0
  0
LINE
  5
1D1
100
AcDbEntity
  8
52176940
370
         0
390
0
  6
CONTINUOUS
 62
         7
100
AcDbLine
 10
181.1830368193
 20
164.2760663922
 30
0.0
 11
181.1830368193
 21
185.2760663922
 31
0.0
  0
LINE
  5
1D2
100
AcDbEntity
  8
52176940
370
         0
390
0
  6
CONTINUOUS
 62
         7
100
AcDbLine
 10
182.8330368193
 20
150.642091796
 30
0.0
 11
182.8330368193
 21
164.2760663922
 31
0.0
  0
LINE
  5
1D3
100
AcDbEntity
  8
52176940
370
         0
390
0
  6
CONTINUOUS
 62
         7
100
AcDbLine
 10
165.8330368193
 20
164.2760663922
 30
0.0
 11
182.8330368193
 21
164.2760663922
 31
0.0
  0
LINE
  5
1D4
100
AcDbEntity
  8
52176940
370
         0
390
0
  6
CONTINUOUS
 62
         7
100
AcDbLine
 10
181.3330368193
 20
141.2760663922
 30
0.0
 11
167.3330368193
 21
141.2760663922
 31
0.0
  0
LINE
  5
1D5
100
AcDbEntity
  8
52176940
370
         0
390
0
  6
CONTINUOUS
 62
         7
100
AcDbLine
 10
167.3330368193
 20
139.7760663922
 30
0.0
 11
167.3330368193
 21
141.2760663922
 31
0.0
  0
LINE
  5
1D6
100
AcDbEntity
  8
52176940
370
         0
390
0
  6
CONTINUOUS
 62
         7
100
AcDbLine
 10
167.3330368193
 20
141.2760663922
 30
0.0
 11
167.3330368193
 21
149.7760663922
 31
0.0
  0
LINE
  5
1D7
100
AcDbEntity
  8
52176940
370
         0
390
0
  6
CONTINUOUS
 62
         7
100
AcDbLine
 10
181.3330368193
 20
139.7760663922
 30
0.0
 11
167.3330368193
 21
139.7760663922
 31
0.0
  0
LINE
  5
1D8
100
AcDbEntity
  8
52176940
370
         0
390
0
  6
CONTINUOUS
 62
         7
100
AcDbLine
 10
183.3330368193
 20
7.2760663922
 30
0.0
 11
183.3330368193
 21
101.2760663922
 31
0.0
  0
LINE
  5
1D9
100
AcDbEntity
  8
52176940
370
         0
390
0
  6
CONTINUOUS
 62
         7
100
AcDbLine
 10
165.3330368193
 20
7.2760663922
 30
0.0
 11
165.3330368193
 21
101.2760663922
 31
0.0
  0
LINE
  5
1DA
100
AcDbEntity
  8
52176940
370
         0
390
0
  6
CONTINUOUS
 62
         7
100
AcDbLine
 10
181.3330368193
 20
149.7760663922
 30
0.0
 11
181.3330368193
 21
141.2760663922
 31
0.0
  0
ARC
  5
1DB
100
AcDbEntity
  8
52176940
370
         0
390
0
  6
CONTINUOUS
 62
         7
100
AcDbCircle
 10
174.3330368221
 20
147.7658889675
 30
0.0
 40
47.013866072
100
AcDbArc
 50
261.4372647128
 51
278.5627359163
  0
LINE
  5
1DC
100
AcDbEntity
  8
52176940
370
         0
390
0
  6
CONTINUOUS
 62
         7
100
AcDbLine
 10
182.8330368193
 20
122.4171364312
 30
0.0
 11
182.8330368193
 21
132.0578123227
 31
0.0
  0
ELLIPSE
  5
1DD
100
AcDbEntity
  8
52176940
370
         0
390
0
  6
CONTINUOUS
 62
         7
100
AcDbEllipse
 10
174.3330368193
 20
118.9470259623
 30
0.0
 11
-7.9644794666642262
 21
-5.3511359101739018
 31
0.0
210
0.0
220
0.0
230
1.0
 40
0.5549017375
 41
2.1815390585077394
 42
3.3879218697270703
  0
ELLIPSE
  5
1DE
100
AcDbEntity
  8
52176940
370
         0
390
0
  6
CONTINUOUS
 62
         7
100
AcDbEllipse
 10
174.3330368193
 20
118.9470259623
 30
0.0
 11
7.9644794666642973
 21
-5.3511359101739426
 31
0.0
210
0.0
220
0.0
230
1.0
 40
0.5549017375
 41
2.895263437452511
 42
4.1016462486718526
  0
LINE
  5
1DF
100
AcDbEntity
  8
52176940
370
         0
390
0
  6
CONTINUOUS
 62
         7
100
AcDbLine
 10
165.8330368193
 20
150.642091796
 30
0.0
 11
167.3330368193
 21
149.7760663922
 31
0.0
  0
LINE
  5
1E0
100
AcDbEntity
  8
52176940
370
         0
390
0
  6
CONTINUOUS
 62
         7
100
AcDbLine
 10
181.3330368193
 20
149.7760663922
 30
0.0
 11
182.8330368193
 21
150.642091796
 31
0.0
  0
LINE
  5
1E1
100
AcDbEntity
  8
52176940
370
         0
390
0
  6
CONTINUOUS
 62
         7
100
AcDbLine
 10
177.876728955
 20
185.2760663922
 30
0.0
 11
177.6379573932
 21
185.2760663922
 31
0.0
  0
LINE
  5
1E2
100
AcDbEntity
  8
52176940
370
         0
390
0
  6
CONTINUOUS
 62
         7
100
AcDbLine
 10
170.7893446836
 20
180.2760663922
 30
0.0
 11
167.4844241096
 21
180.2760663922
 31
0.0
  0
LINE
  5
1E3
100
AcDbEntity
  8
52176940
370
         0
390
0
  6
CONTINUOUS
 62
         7
100
AcDbLine
 10
181.3330368193
 20
141.2760663922
 30
0.0
 11
181.3330368193
 21
139.7760663922
 31
0.0
  0
LINE
  5
1E4
100
AcDbEntity
  8
52176940
370
         0
390
0
  6
CONTINUOUS
 62
         7
100
AcDbLine
 10
177.6379573932
 20
180.2760663922
 30
0.0
 11
171.0281162454
 21
180.2760663922
 31
0.0
  0
LINE
  5
1E5
100
AcDbEntity
  8
52176940
370
         0
390
0
  6
CONTINUOUS
 62
         7
100
AcDbLine
 10
171.0281162454
 20
185.2760663922
 30
0.0
 11
170.7893446836
 21
185.2760663922
 31
0.0
  0
LINE
  5
1E6
100
AcDbEntity
  8
52176940
370
         0
390
0
  6
CONTINUOUS
 62
         7
100
AcDbLine
 10
181.1830368193
 20
185.2760663922
 30
0.0
 11
181.181649529
 21
185.2760663922
 31
0.0
  0
LINE
  5
1E7
100
AcDbEntity
  8
52176940
370
         0
390
0
  6
CONTINUOUS
 62
         7
100
AcDbLine
 10
181.181649529
 20
180.2760663922
 30
0.0
 11
177.876728955
 21
180.2760663922
 31
0.0
  0
ENDBLK
  5
1E8
100
AcDbEntity
  8
52176940
370
         0
390
0
  6
CONTINUOUS
 62
         7
100
AcDbBlockEnd
  0
ENDSEC
  0
SECTION
  2
ENTITIES
  0
INSERT
  5
47
102
{ACAD_XDICTIONARY
360
48
102
}
100
AcDbEntity
  8
0
370
         0
390
0
 62
         0
 48
0.0
100
AcDbBlockReference
  2
SE1
 10
0.0
 20
0.0
 30
0.0
  0
INSERT
  5
4B
100
AcDbEntity
  8
0
370
         0
390
0
 62
         0
 48
0.0
100
AcDbBlockReference
  2
SE0
 10
0.0
 20
0.0
 30
0.0
  0
INSERT
  5
4E
102
{ACAD_XDICTIONARY
360
4F
102
}
100
AcDbEntity
  8
0
370
         0
390
0
 62
         0
 48
0.0
100
AcDbBlockReference
  2
SE3
 10
0.0
 20
0.0
 30
0.0
  0
INSERT
  5
52
100
AcDbEntity
  8
0
370
         0
390
0
 62
         0
 48
0.0
100
AcDbBlockReference
  2
SE2
 10
0.0
 20
0.0
 30
0.0
  0
INSERT
  5
55
102
{ACAD_XDICTIONARY
360
56
102
}
100
AcDbEntity
  8
0
370
         0
390
0
 62
         0
 48
0.0
100
AcDbBlockReference
  2
SE5
 10
0.0
 20
0.0
 30
0.0
  0
INSERT
  5
59
100
AcDbEntity
  8
0
370
         0
390
0
 62
         0
 48
0.0
100
AcDbBlockReference
  2
SE4
 10
0.0
 20
0.0
 30
0.0
  0
INSERT
  5
5C
102
{ACAD_XDICTIONARY
360
5D
102
}
100
AcDbEntity
  8
0
370
         0
390
0
 62
         0
 48
0.0
100
AcDbBlockReference
  2
SE7
 10
0.0
 20
0.0
 30
0.0
  0
INSERT
  5
60
100
AcDbEntity
  8
0
370
         0
390
0
 62
         0
 48
0.0
100
AcDbBlockReference
  2
SE6
 10
0.0
 20
0.0
 30
0.0
  0
ENDSEC
  0
SECTION
  2
OBJECTS
  0
DICTIONARY
  5
19
100
AcDbDictionary
280
         0
281
         1
  3
ACAD_GROUP
350
1A
  3
ACAD_MLINESTYLE
350
1B
  3
ACAD_LAYOUT
350
1E
  3
ACAD_PLOTSETTINGS
350
22
  3
ACAD_PLOTSTYLENAME
350
1F
  3
ACAD_WIPEOUT_VARS
350
23
  3
AcDbVariableDictionary
350
1EB
  0
DICTIONARY
  5
1A
102
{ACAD_REACTORS
330
19
102
}
100
AcDbDictionary
280
         0
281
         1
  0
DICTIONARY
  5
1B
102
{ACAD_REACTORS
330
19
102
}
100
AcDbDictionary
280
         0
281
         1
  3
Standard
350
1C
  0
MLINESTYLE
  5
1C
102
{ACAD_REACTORS
330
1B
102
}
100
AcDbMlineStyle
  2
Standard
 70
         0
  3

 62
         0
 51
90.0
 52
90.0
 71
         2
 49
0.5
 62
       256
  6
ByLayer
 49
-0.5
 62
       256
  6
ByLayer
  0
ACDBDICTIONARYWDFLT
  5
1F
102
{ACAD_REACTORS
330
19
102
}
100
AcDbDictionary
281
         1
  3
Normal
350
1D
100
AcDbDictionaryWithDefault
340
1D
  0
ACDBPLACEHOLDER
  5
1D
102
{ACAD_REACTORS
330
1F
102
}
  0
LAYOUT
  5
20
102
{ACAD_REACTORS
330
1E
102
}
100
AcDbPlotSettings
  1

  2

  4

  6

 40
0.0
 41
0.0
 42
0.0
 43
0.0
 44
0.0
 45
0.0
 46
0.0
 47
0.0
 48
0.0
 49
0.0
140
0.0
141
0.0
142
1.0
143
1.0
 70
      1024
 72
         0
 73
         0
 74
         0
  7

 75
         0
147
1.0
148
0.0
149
0.0
100
AcDbLayout
  1
Model
 70
         0
 71
         0
 10
0.0
 20
0.0
 11
0.0
 21
0.0
 12
0.0
 22
0.0
 32
0.0
 14
0.0
 24
0.0
 34
0.0
 15
0.0
 25
0.0
 35
0.0
146
0.0
 13
0.0
 23
0.0
 33
0.0
 16
0.0
 26
0.0
 36
0.0
 17
0.0
 27
0.0
 37
0.0
 76
         0
330
A
331
0
345
0
346
0
  0
LAYOUT
  5
21
102
{ACAD_REACTORS
330
1E
102
}
100
AcDbPlotSettings
  1

  2

  4

  6

 40
0.0
 41
0.0
 42
0.0
 43
0.0
 44
0.0
 45
0.0
 46
0.0
 47
0.0
 48
0.0
 49
0.0
140
0.0
141
0.0
142
1.0
143
1.0
 70
         0
 72
         0
 73
         0
 74
         0
  7

 75
         0
147
1.0
148
0.0
149
0.0
100
AcDbLayout
  1
Layout1
 70
         0
 71
         0
 10
0.0
 20
0.0
 11
0.0
 21
0.0
 12
0.0
 22
0.0
 32
0.0
 14
0.0
 24
0.0
 34
0.0
 15
0.0
 25
0.0
 35
0.0
146
0.0
 13
0.0
 23
0.0
 33
0.0
 16
0.0
 26
0.0
 36
0.0
 17
0.0
 27
0.0
 37
0.0
 76
         0
330
B
331
0
345
0
346
0
  0
DICTIONARY
  5
1E
102
{ACAD_REACTORS
330
19
102
}
100
AcDbDictionary
280
         0
281
         1
  3
Layout1
350
21
  3
Model
350
20
  0
DICTIONARY
  5
22
102
{ACAD_REACTORS
330
19
102
}
100
AcDbDictionary
280
         0
281
         1
  0
WIPEOUTVARIABLES
  5
23
100
AcDbWipeoutVariables
 70
         1
  0
DICTIONARY
  5
48
100
AcDbDictionary
280
         0
281
         0
  3
ACAD_FILTER
350
49
  0
DICTIONARY
  5
49
100
AcDbDictionary
280
         0
281
         0
  3
SPATIAL
350
4A
  0
SPATIAL_FILTER
  5
4A
100
AcDbFilter
100
AcDbSpatialFilter
 70
         2
 10
2.747510917
 20
0.9260675843
 10
33.4475101421
 20
203.6260652001
210
0.0
220
0.0
230
1.0
 11
0.0
 21
0.0
 31
0.0
 71
         1
 72
         0
 73
         0
 40
1.0
 40
0.0
 40
0.0
 40
0.0
 40
0.0
 40
1.0
 40
0.0
 40
0.0
 40
0.0
 40
0.0
 40
1.0
 40
0.0
 40
1.0
 40
0.0
 40
0.0
 40
0.0
 40
0.0
 40
1.0
 40
0.0
 40
0.0
 40
0.0
 40
0.0
 40
1.0
 40
0.0
  0
DICTIONARY
  5
4F
100
AcDbDictionary
280
         0
281
         0
  3
ACAD_FILTER
350
50
  0
DICTIONARY
  5
50
100
AcDbDictionary
280
         0
281
         0
  3
SPATIAL
350
51
  0
SPATIAL_FILTER
  5
51
100
AcDbFilter
100
AcDbSpatialFilter
 70
         2
 10
2.747510917
 20
231.7771965127
 10
33.4475101421
 20
397.4724997859
210
0.0
220
0.0
230
1.0
 11
0.0
 21
0.0
 31
0.0
 71
         1
 72
         0
 73
         0
 40
1.0
 40
0.0
 40
0.0
 40
0.0
 40
0.0
 40
1.0
 40
0.0
 40
0.0
 40
0.0
 40
0.0
 40
1.0
 40
0.0
 40
1.0
 40
0.0
 40
0.0
 40
0.0
 40
0.0
 40
1.0
 40
0.0
 40
0.0
 40
0.0
 40
0.0
 40
1.0
 40
0.0
  0
DICTIONARY
  5
56
100
AcDbDictionary
280
         0
281
         0
  3
ACAD_FILTER
350
57
  0
DICTIONARY
  5
57
100
AcDbDictionary
280
         0
281
         0
  3
SPATIAL
350
58
  0
SPATIAL_FILTER
  5
58
100
AcDbFilter
100
AcDbSpatialFilter
 70
         2
 10
61.1057457066
 20
231.7771965127
 10
263.8057433224
 20
397.4724997859
210
0.0
220
0.0
230
1.0
 11
0.0
 21
0.0
 31
0.0
 71
         1
 72
         0
 73
         0
 40
1.0
 40
0.0
 40
0.0
 40
0.0
 40
0.0
 40
1.0
 40
0.0
 40
0.0
 40
0.0
 40
0.0
 40
1.0
 40
0.0
 40
1.0
 40
0.0
 40
0.0
 40
0.0
 40
0.0
 40
1.0
 40
0.0
 40
0.0
 40
0.0
 40
0.0
 40
1.0
 40
0.0
  0
DICTIONARY
  5
5D
100
AcDbDictionary
280
         0
281
         0
  3
ACAD_FILTER
350
5E
  0
DICTIONARY
  5
5E
100
AcDbDictionary
280
         0
281
         0
  3
SPATIAL
350
5F
  0
SPATIAL_FILTER
  5
5F
100
AcDbFilter
100
AcDbSpatialFilter
 70
         2
 10
158.9830372067
 20
0.9260675843
 10
189.6830364319
 20
203.6260652001
210
0.0
220
0.0
230
1.0
 11
0.0
 21
0.0
 31
0.0
 71
         1
 72
         0
 73
         0
 40
1.0
 40
0.0
 40
0.0
 40
0.0
 40
0.0
 40
1.0
 40
0.0
 40
0.0
 40
0.0
 40
0.0
 40
1.0
 40
0.0
 40
1.0
 40
0.0
 40
0.0
 40
0.0
 40
0.0
 40
1.0
 40
0.0
 40
0.0
 40
0.0
 40
0.0
 40
1.0
 40
0.0
  0
DICTIONARY
  5
1EB
100
AcDbDictionary
280
         0
281
         0
  3
DIMASSOC
350
1EC
  0
DICTIONARYVAR
  5
1EC
100
DictionaryVariables
280
         0
  1
2
  0
ENDSEC
  0
EOF
