  0
SECTION
  2
HEADER
  9
$ACADVER
  1
AC1015
  9
$ACADMAINTVER
 70
     6
  9
$DWGCODEPAGE
  3
ANSI_1252
  9
$INSBASE
 10
0.0
 20
0.0
 30
0.0
  9
$EXTMIN
 10
0.0
 20
0.0
 30
0.0
  9
$EXTMAX
 10
600.0
 20
600.0
 30
0.0
  9
$LIMMIN
 10
0.0
 20
0.0
  9
$LIMMAX
 10
600.0
 20
600.0
  9
$ORTHOMODE
 70
     0
  9
$REGENMODE
 70
     1
  9
$FILLMODE
 70
     1
  9
$QTEXTMODE
 70
     0
  9
$MIRRTEXT
 70
     1
  9
$LTSCALE
 40
1.0
  9
$ATTMODE
 70
     1
  9
$TEXTSIZE
 40
3.5
  9
$TRACEWID
 40
1.0
  9
$TEXTSTYLE
  7
Standard
  9
$CLAYER
  8
0
  9
$CELTYPE
  6
ByLayer
  9
$CECOLOR
 62
   256
  9
$CELTSCALE
 40
1.0
  9
$DISPSILH
 70
     0
  9
$DIMSCALE
 40
1.0
  9
$DIMASZ
 40
4.0
  9
$DIMEXO
 40
0.0
  9
$DIMDLI
 40
3.75
  9
$DIMRND
 40
0.0
  9
$DIMDLE
 40
0.0
  9
$DIMEXE
 40
1.0
  9
$DIMTP
 40
0.0
  9
$DIMTM
 40
0.0
  9
$DIMTXT
 40
3.5
  9
$DIMCEN
 40
2.5
  9
$DIMTSZ
 40
0.0
  9
$DIMTOL
 70
     0
  9
$DIMLIM
 70
     0
  9
$DIMTIH
 70
     1
  9
$DIMTOH
 70
     1
  9
$DIMSE1
 70
     0
  9
$DIMSE2
 70
     0
  9
$DIMTAD
 70
     1
  9
$DIMZIN
 70
     0
  9
$DIMBLK
  1

  9
$DIMASO
 70
     1
  9
$DIMSHO
 70
     1
  9
$DIMPOST
  1

  9
$DIMAPOST
  1

  9
$DIMALT
 70
     0
  9
$DIMALTD
 70
     3
  9
$DIMALTF
 40
0.0393700787
  9
$DIMLFAC
 40
1.0
  9
$DIMTOFL
 70
     1
  9
$DIMTVP
 40
0.0
  9
$DIMTIX
 70
     0
  9
$DIMSOXD
 70
     0
  9
$DIMSAH
 70
     0
  9
$DIMBLK1
  1

  9
$DIMBLK2
  1

  9
$DIMSTYLE
  2
ISO-25
  9
$DIMCLRD
 70
     0
  9
$DIMCLRE
 70
     0
  9
$DIMCLRT
 70
     0
  9
$DIMTFAC
 40
1.0
  9
$DIMGAP
 40
1.524
  9
$DIMJUST
 70
     0
  9
$DIMSD1
 70
     0
  9
$DIMSD2
 70
     0
  9
$DIMTOLJ
 70
     0
  9
$DIMTZIN
 70
     0
  9
$DIMALTZ
 70
     0
  9
$DIMALTTZ
 70
     0
  9
$DIMUPT
 70
     0
  9
$DIMDEC
 70
     1
  9
$DIMTDEC
 70
     1
  9
$DIMALTU
 70
     2
  9
$DIMALTTD
 70
     3
  9
$DIMTXSTY
  7
Standard
  9
$DIMAUNIT
 70
     0
  9
$DIMADEC
 70
     1
  9
$DIMALTRND
 40
0.0
  9
$DIMAZIN
 70
     0
  9
$DIMDSEP
 70
    44
  9
$DIMATFIT
 70
     3
  9
$DIMFRAC
 70
     0
  9
$DIMLDRBLK
  1

  9
$DIMLUNIT
 70
     2
  9
$DIMLWD
 70
    -2
  9
$DIMLWE
 70
    -2
  9
$DIMTMOVE
 70
     0
  9
$LUNITS
 70
     2
  9
$LUPREC
 70
     1
  9
$SKETCHINC
 40
1.0
  9
$FILLETRAD
 40
10.0
  9
$AUNITS
 70
     0
  9
$AUPREC
 70
     1
  9
$MENU
  1
.
  9
$ELEVATION
 40
0.0
  9
$PELEVATION
 40
0.0
  9
$THICKNESS
 40
0.0
  9
$LIMCHECK
 70
     0
  9
$CHAMFERA
 40
10.0
  9
$CHAMFERB
 40
10.0
  9
$CHAMFERC
 40
20.0
  9
$CHAMFERD
 40
0.0
  9
$SKPOLY
 70
     0
  9
$TDCREATE
 40
2455929.358772662
  9
$TDUCREATE
 40
2455929.317105995
  9
$TDUPDATE
 40
2455929.358772674
  9
$TDUUPDATE
 40
2455929.317106007
  9
$TDINDWG
 40
0.0000000116
  9
$TDUSRTIMER
 40
0.0000000116
  9
$USRTIMER
 70
     1
  9
$ANGBASE
 50
0.0
  9
$ANGDIR
 70
     0
  9
$PDMODE
 70
     0
  9
$PDSIZE
 40
-1.0
  9
$PLINEWID
 40
0.0
  9
$SPLFRAME
 70
     0
  9
$SPLINETYPE
 70
     6
  9
$SPLINESEGS
 70
     8
  9
$HANDSEED
  5
33D
  9
$SURFTAB1
 70
     6
  9
$SURFTAB2
 70
     6
  9
$SURFTYPE
 70
     6
  9
$SURFU
 70
     6
  9
$SURFV
 70
     6
  9
$UCSBASE
  2

  9
$UCSNAME
  2

  9
$UCSORG
 10
0.0
 20
0.0
 30
0.0
  9
$UCSXDIR
 10
1.0
 20
0.0
 30
0.0
  9
$UCSYDIR
 10
0.0
 20
1.0
 30
0.0
  9
$UCSORTHOREF
  2

  9
$UCSORTHOVIEW
 70
     0
  9
$UCSORGTOP
 10
0.0
 20
0.0
 30
0.0
  9
$UCSORGBOTTOM
 10
0.0
 20
0.0
 30
0.0
  9
$UCSORGLEFT
 10
0.0
 20
0.0
 30
0.0
  9
$UCSORGRIGHT
 10
0.0
 20
0.0
 30
0.0
  9
$UCSORGFRONT
 10
0.0
 20
0.0
 30
0.0
  9
$UCSORGBACK
 10
0.0
 20
0.0
 30
0.0
  9
$PUCSBASE
  2

  9
$PUCSNAME
  2

  9
$PUCSORG
 10
0.0
 20
0.0
 30
0.0
  9
$PUCSXDIR
 10
1.0
 20
0.0
 30
0.0
  9
$PUCSYDIR
 10
0.0
 20
1.0
 30
0.0
  9
$PUCSORTHOREF
  2

  9
$PUCSORTHOVIEW
 70
     0
  9
$PUCSORGTOP
 10
0.0
 20
0.0
 30
0.0
  9
$PUCSORGBOTTOM
 10
0.0
 20
0.0
 30
0.0
  9
$PUCSORGLEFT
 10
0.0
 20
0.0
 30
0.0
  9
$PUCSORGRIGHT
 10
0.0
 20
0.0
 30
0.0
  9
$PUCSORGFRONT
 10
0.0
 20
0.0
 30
0.0
  9
$PUCSORGBACK
 10
0.0
 20
0.0
 30
0.0
  9
$USERI1
 70
     0
  9
$USERI2
 70
     0
  9
$USERI3
 70
     0
  9
$USERI4
 70
     0
  9
$USERI5
 70
     0
  9
$USERR1
 40
0.0
  9
$USERR2
 40
0.0
  9
$USERR3
 40
0.0
  9
$USERR4
 40
0.0
  9
$USERR5
 40
0.0
  9
$WORLDVIEW
 70
     1
  9
$SHADEDGE
 70
     3
  9
$SHADEDIF
 70
    70
  9
$TILEMODE
 70
     1
  9
$MAXACTVP
 70
    64
  9
$PINSBASE
 10
0.0
 20
0.0
 30
0.0
  9
$PLIMCHECK
 70
     0
  9
$PEXTMIN
 10
1.0000000000E+20
 20
1.0000000000E+20
 30
1.0000000000E+20
  9
$PEXTMAX
 10
-1.0000000000E+20
 20
-1.0000000000E+20
 30
-1.0000000000E+20
  9
$PLIMMIN
 10
0.0
 20
0.0
  9
$PLIMMAX
 10
420.0
 20
297.0
  9
$UNITMODE
 70
     0
  9
$VISRETAIN
 70
     1
  9
$PLINEGEN
 70
     0
  9
$PSLTSCALE
 70
     1
  9
$TREEDEPTH
 70
  3020
  9
$CMLSTYLE
  2
Standard
  9
$CMLJUST
 70
     0
  9
$CMLSCALE
 40
20.0
  9
$PROXYGRAPHICS
 70
     1
  9
$MEASUREMENT
 70
     1
  9
$CELWEIGHT
370
    -1
  9
$ENDCAPS
280
     0
  9
$JOINSTYLE
280
     0
  9
$LWDISPLAY
290
     1
  9
$INSUNITS
 70
     4
  9
$HYPERLINKBASE
  1

  9
$STYLESHEET
  1

  9
$XEDIT
290
     1
  9
$CEPSNTYPE
380
     0
  9
$PSTYLEMODE
290
     1
  9
$FINGERPRINTGUID
  2
{3E4059BF-F753-4B08-81D7-B7D53B5A2390}
  9
$VERSIONGUID
  2
{FAEB1C32-E019-11D5-929B-00C0DF256EC4}
  9
$EXTNAMES
290
     1
  9
$PSVPSCALE
 40
0.0
  9
$OLESTARTUP
290
     0
  0
ENDSEC
  0
SECTION
  2
CLASSES
  0
CLASS
  1
ACDBDICTIONARYWDFLT
  2
AcDbDictionaryWithDefault
  3
ObjectDBX Classes
 90
        0
280
     0
281
     0
  0
CLASS
  1
VISUALSTYLE
  2
AcDbVisualStyle
  3
ObjectDBX Classes
 90
     4095
280
     0
281
     0
  0
CLASS
  1
MATERIAL
  2
AcDbMaterial
  3
ObjectDBX Classes
 90
     1153
280
     0
281
     0
  0
CLASS
  1
ACDBPLACEHOLDER
  2
AcDbPlaceHolder
  3
ObjectDBX Classes
 90
        0
280
     0
281
     0
  0
CLASS
  1
LAYOUT
  2
AcDbLayout
  3
ObjectDBX Classes
 90
        0
280
     0
281
     0
  0
ENDSEC
  0
SECTION
  2
TABLES
  0
TABLE
  2
VPORT
  5
8
330
0
100
AcDbSymbolTable
 70
     1
  0
VPORT
  5
29
330
8
100
AcDbSymbolTableRecord
100
AcDbViewportTableRecord
  2
*Active
 70
     0
 10
0.0
 20
0.0
 11
1.0
 21
1.0
 12
300.0
 22
300.0
 13
0.0
 23
0.0
 14
10.0
 24
10.0
 15
10.0
 25
10.0
 16
0.0
 26
0.0
 36
1.0
 17
0.0
 27
0.0
 37
0.0
 40
600.0
 41
1.0
 42
50.0
 43
0.0
 44
0.0
 50
0.0
 51
0.0
 71
     0
 72
  2000
 73
     1
 74
     3
 75
     0
 76
     0
 77
     0
 78
     0
281
     0
 65
     1
110
0.0
120
0.0
130
0.0
111
1.0
121
0.0
131
0.0
112
0.0
122
1.0
132
0.0
 79
     0
146
0.0
  0
ENDTAB
  0
TABLE
  2
LTYPE
  5
5
330
0
100
AcDbSymbolTable
 70
     6
  0
LTYPE
  5
14
330
5
100
AcDbSymbolTableRecord
100
AcDbLinetypeTableRecord
  2
ByBlock
 70
     0
  3

 72
    65
 73
     0
 40
0.0
  0
LTYPE
  5
15
330
5
100
AcDbSymbolTableRecord
100
AcDbLinetypeTableRecord
  2
ByLayer
 70
     0
  3

 72
    65
 73
     0
 40
0.0
  0
LTYPE
  5
16
330
5
100
AcDbSymbolTableRecord
100
AcDbLinetypeTableRecord
  2
Continuous
 70
     0
  3
Solid line
 72
    65
 73
     0
 40
0.0
  0
LTYPE
  5
3F
330
5
100
AcDbSymbolTableRecord
100
AcDbLinetypeTableRecord
  2
HIDDEN
 70
     0
  3
Hidden __ __ __ __ __ __ __ __ __ __ __ __ __ __
 72
    65
 73
     2
 40
1.905
 49
1.27
 74
     0
 49
-0.635
 74
     0
  0
LTYPE
  5
40
330
5
100
AcDbSymbolTableRecord
100
AcDbLinetypeTableRecord
  2
PHANTOM
 70
     0
  3
Phantom ______  __  __  ______  __  __  ______
 72
    65
 73
     6
 40
12.7
 49
6.35
 74
     0
 49
-1.27
 74
     0
 49
1.27
 74
     0
 49
-1.27
 74
     0
 49
1.27
 74
     0
 49
-1.27
 74
     0
  0
LTYPE
  5
41
330
5
100
AcDbSymbolTableRecord
100
AcDbLinetypeTableRecord
  2
CENTER
 70
     0
  3
Center ____ _ ____ _ ____ _ ____ _ ____ _ ____
 72
    65
 73
     4
 40
10.16
 49
6.35
 74
     0
 49
-1.27
 74
     0
 49
1.27
 74
     0
 49
-1.27
 74
     0
  0
LTYPE
  5
42
330
5
100
AcDbSymbolTableRecord
100
AcDbLinetypeTableRecord
  2
CENTERX2
 70
     0
  3
Center (2x) ________  __  ________  __  _____
 72
    65
 73
     4
 40
20.32
 49
12.7
 74
     0
 49
-2.54
 74
     0
 49
2.54
 74
     0
 49
-2.54
 74
     0
  0
LTYPE
  5
43
330
5
100
AcDbSymbolTableRecord
100
AcDbLinetypeTableRecord
  2
DOT2
 70
     0
  3
Dot (.5x) ........................................
 72
    65
 73
     2
 40
0.635
 49
0.0
 74
     0
 49
-0.635
 74
     0
  0
ENDTAB
  0
TABLE
  2
LAYER
  5
2
330
0
100
AcDbSymbolTable
 70
     2
  0
LAYER
  5
10
330
2
100
AcDbSymbolTableRecord
100
AcDbLayerTableRecord
  2
0
 70
     0
 62
     7
  6
Continuous
370
    -3
390
F
  0
LAYER
  5
44
330
2
100
AcDbSymbolTableRecord
100
AcDbLayerTableRecord
  2
FORMAT
 70
     0
 62
     7
  6
Continuous
370
    -3
390
F
  0
ENDTAB
  0
TABLE
  2
STYLE
  5
3
330
0
100
AcDbSymbolTable
 70
     1
  0
STYLE
  5
11
330
3
100
AcDbSymbolTableRecord
100
AcDbTextStyleTableRecord
  2
Standard
 70
     0
 40
0.0
 41
1.0
 50
0.0
 71
     0
 42
2.5
  3
txt
  4

  0
ENDTAB
  0
TABLE
  2
VIEW
  5
6
330
0
100
AcDbSymbolTable
 70
     0
  0
ENDTAB
  0
TABLE
  2
UCS
  5
7
330
0
100
AcDbSymbolTable
 70
     0
  0
ENDTAB
  0
TABLE
  2
APPID
  5
9
330
0
100
AcDbSymbolTable
 70
     1
  0
APPID
  5
12
330
9
100
AcDbSymbolTableRecord
100
AcDbRegAppTableRecord
  2
ACAD
 70
     0
  0
ENDTAB
  0
TABLE
  2
DIMSTYLE
  5
A
330
0
100
AcDbSymbolTable
 70
     1
100
AcDbDimStyleTable
  0
DIMSTYLE
105
27
330
A
100
AcDbSymbolTableRecord
100
AcDbDimStyleTableRecord
  2
ISO-25
 70
     0
 41
2.5
 42
0.625
 43
3.75
 44
1.25
 73
     0
 74
     0
 77
     1
 78
     8
140
2.5
141
2.5
143
0.0393700787
147
0.625
171
     3
172
     1
178
     0
271
     2
272
     2
274
     3
278
    44
283
     0
284
     8
340
11
  0
ENDTAB
  0
TABLE
  2
BLOCK_RECORD
  5
1
330
0
100
AcDbSymbolTable
 70
     1
  0
BLOCK_RECORD
  5
1F
330
1
100
AcDbSymbolTableRecord
100
AcDbBlockTableRecord
  2
*Model_Space
340
22
  0
BLOCK_RECORD
  5
1B
330
1
100
AcDbSymbolTableRecord
100
AcDbBlockTableRecord
  2
*Paper_Space
340
1E
  0
BLOCK_RECORD
  5
23
330
1
100
AcDbSymbolTableRecord
100
AcDbBlockTableRecord
  2
*Paper_Space0
340
26
  0
ENDTAB
  0
ENDSEC
  0
SECTION
  2
BLOCKS
  0
BLOCK
  5
20
330
1F
100
AcDbEntity
  8
0
100
AcDbBlockBegin
  2
*Model_Space
 70
     0
 10
0.0
 20
0.0
 30
0.0
  3
*Model_Space
  1

  0
ENDBLK
  5
21
330
1F
100
AcDbEntity
  8
0
100
AcDbBlockEnd
  0
BLOCK
  5
1C
330
1B
100
AcDbEntity
 67
     1
  8
0
100
AcDbBlockBegin
  2
*Paper_Space
 70
     0
 10
0.0
 20
0.0
 30
0.0
  3
*Paper_Space
  1

  0
ENDBLK
  5
1D
330
1B
100
AcDbEntity
 67
     1
  8
0
100
AcDbBlockEnd
  0
BLOCK
  5
24
330
23
100
AcDbEntity
  8
0
100
AcDbBlockBegin
  2
*Paper_Space0
 70
     0
 10
0.0
 20
0.0
 30
0.0
  3
*Paper_Space0
  1

  0
ENDBLK
  5
25
330
23
100
AcDbEntity
  8
0
100
AcDbBlockEnd
  0
ENDSEC
  0
SECTION
  2
ENTITIES
  0
ARC
  5
45
330
1F
100
AcDbEntity
  8
0
  6
Continuous
 62
     7
370
    15
100
AcDbCircle
 10
260.7230295956
 20
576.8199709061
 30
0.0
 40
27.38972459582928
100
AcDbArc
 50
247.7628020003
 51
262.7558996553
  0
LINE
  5
46
330
1F
100
AcDbEntity
  8
0
  6
Continuous
 62
     7
370
    15
100
AcDbLine
 10
315.0901438705
 20
361.7102221636
 30
0.0
 11
315.0901438705
 21
369.3175927786
 31
0.0
  0
LINE
  5
47
330
1F
100
AcDbEntity
  8
0
  6
Continuous
 62
     7
370
    15
100
AcDbLine
 10
307.0901434905
 20
369.3175927786
 30
0.0
 11
307.0901434905
 21
361.7102221636
 31
0.0
  0
ARC
  5
48
330
1F
100
AcDbEntity
  8
0
  6
Continuous
 62
     7
370
    15
100
AcDbCircle
 10
311.0901436805
 20
369.3175891536
 30
0.0
 40
4.0
100
AcDbArc
 50
165.0
 51
180.0
  0
ARC
  5
49
330
1F
100
AcDbEntity
  8
0
  6
Continuous
 62
     7
370
    15
100
AcDbCircle
 10
311.0901436805
 20
369.3175891536
 30
0.0
 40
4.0
100
AcDbArc
 50
0.0
 51
15.0
  0
LINE
  5
4A
330
1F
100
AcDbEntity
  8
0
  6
Continuous
 62
     7
370
    15
100
AcDbLine
 10
314.9538469072
 20
370.3528658537
 30
0.0
 11
314.7264402862
 21
371.2015614895
 31
0.0
  0
LINE
  5
4B
330
1F
100
AcDbEntity
  8
0
  6
Continuous
 62
     7
370
    15
100
AcDbLine
 10
307.4538470748
 20
371.2015614895
 30
0.0
 11
307.2264404538
 21
370.3528658537
 31
0.0
  0
ARC
  5
4C
330
1F
100
AcDbEntity
  8
0
  6
Continuous
 62
     7
370
    15
100
AcDbCircle
 10
318.5901436805
 20
372.2368345381
 30
0.0
 40
4.0
100
AcDbArc
 50
180.0
 51
195.0
  0
ARC
  5
4D
330
1F
100
AcDbEntity
  8
0
  6
Continuous
 62
     7
370
    15
100
AcDbCircle
 10
303.5901436805
 20
372.2368345381
 30
0.0
 40
4.0
100
AcDbArc
 50
345.0
 51
0.0
  0
LINE
  5
4E
330
1F
100
AcDbEntity
  8
0
  6
Continuous
 62
     7
370
    15
100
AcDbLine
 10
314.5901437885
 20
393.1602255491
 30
0.0
 11
313.0401436276
 21
394.7102219848
 31
0.0
  0
LINE
  5
4F
330
1F
100
AcDbEntity
  8
0
  6
Continuous
 62
     7
370
    15
100
AcDbLine
 10
309.1401437334
 20
394.7102219848
 30
0.0
 11
307.5901435725
 21
393.1602255491
 31
0.0
  0
LINE
  5
50
330
1F
100
AcDbEntity
  8
0
  6
Continuous
 62
     7
370
    15
100
AcDbLine
 10
314.5901437885
 20
391.160221496
 30
0.0
 11
314.5901437885
 21
393.1602255491
 31
0.0
  0
LINE
  5
51
330
1F
100
AcDbEntity
  8
0
  6
Continuous
 62
     7
370
    15
100
AcDbLine
 10
307.5901435725
 20
393.1602255491
 30
0.0
 11
307.5901435725
 21
391.160221496
 31
0.0
  0
LINE
  5
52
330
1F
100
AcDbEntity
  8
0
  6
Continuous
 62
     7
370
    15
100
AcDbLine
 10
314.5901437885
 20
372.2368345646
 30
0.0
 11
314.5901437885
 21
375.2102271704
 31
0.0
  0
LINE
  5
53
330
1F
100
AcDbEntity
  8
0
  6
Continuous
 62
     7
370
    15
100
AcDbLine
 10
307.5901435725
 20
375.2102271704
 30
0.0
 11
307.5901435725
 21
372.2368345646
 31
0.0
  0
LINE
  5
54
330
1F
100
AcDbEntity
  8
0
  6
Continuous
 62
     7
370
    15
100
AcDbLine
 10
314.5901437885
 20
378.2102257995
 30
0.0
 11
314.5901437885
 21
388.1102220205
 31
0.0
  0
LINE
  5
55
330
1F
100
AcDbEntity
  8
0
  6
Continuous
 62
     7
370
    15
100
AcDbLine
 10
307.5901435725
 20
388.1102220205
 30
0.0
 11
307.5901435725
 21
378.2102257995
 31
0.0
  0
LINE
  5
56
330
1F
100
AcDbEntity
  8
0
  6
Continuous
 62
     7
370
    15
100
AcDbLine
 10
314.0901437066
 20
375.2102271704
 30
0.0
 11
314.0901437066
 21
378.2102257995
 31
0.0
  0
LINE
  5
57
330
1F
100
AcDbEntity
  8
0
  6
Continuous
 62
     7
370
    15
100
AcDbLine
 10
308.0901436544
 20
378.2102257995
 30
0.0
 11
308.0901436544
 21
375.2102271704
 31
0.0
  0
LINE
  5
58
330
1F
100
AcDbEntity
  8
0
  6
Continuous
 62
     7
370
    15
100
AcDbLine
 10
313.0401436276
 20
388.1102220205
 30
0.0
 11
313.0401436276
 21
391.160221496
 31
0.0
  0
LINE
  5
59
330
1F
100
AcDbEntity
  8
0
  6
Continuous
 62
     7
370
    15
100
AcDbLine
 10
309.1401437334
 20
391.160221496
 30
0.0
 11
309.1401437334
 21
388.1102220205
 31
0.0
  0
LINE
  5
5A
330
1F
100
AcDbEntity
  8
0
  6
Continuous
 62
     7
370
    15
100
AcDbLine
 10
326.0701441243
 20
348.7102256207
 30
0.0
 11
326.0701441243
 21
354.7102228789
 31
0.0
  0
LINE
  5
5B
330
1F
100
AcDbEntity
  8
0
  6
Continuous
 62
     7
370
    15
100
AcDbLine
 10
296.1101432367
 20
354.7102228789
 30
0.0
 11
296.1101432367
 21
348.7102256207
 31
0.0
  0
LINE
  5
5C
330
1F
100
AcDbEntity
  8
0
  6
Continuous
 62
     7
370
    15
100
AcDbLine
 10
253.5901426374
 20
237.7102241902
 30
0.0
 11
253.5901426374
 21
223.7102256207
 31
0.0
  0
LINE
  5
5D
330
1F
100
AcDbEntity
  8
0
  6
Continuous
 62
     7
370
    15
100
AcDbLine
 10
368.5901447236
 20
223.7102256207
 30
0.0
 11
368.5901447236
 21
237.7102241902
 31
0.0
  0
LINE
  5
5E
330
1F
100
AcDbEntity
  8
0
  6
Continuous
 62
     7
370
    15
100
AcDbLine
 10
375.0901467203
 20
239.2102235047
 30
0.0
 11
389.0901452898
 21
239.2102235047
 31
0.0
  0
LINE
  5
5F
330
1F
100
AcDbEntity
  8
0
  6
Continuous
 62
     7
370
    15
100
AcDbLine
 10
389.0901452898
 20
354.2102255909
 30
0.0
 11
375.0901467203
 21
354.2102255909
 31
0.0
  0
LINE
  5
60
330
1F
100
AcDbEntity
  8
0
  6
Continuous
 62
     7
370
    15
100
AcDbLine
 10
247.0901406407
 20
354.2102255909
 30
0.0
 11
233.0901420712
 21
354.2102255909
 31
0.0
  0
LINE
  5
61
330
1F
100
AcDbEntity
  8
0
  6
Continuous
 62
     7
370
    15
100
AcDbLine
 10
233.0901420712
 20
239.2102235047
 30
0.0
 11
247.0901406407
 21
239.2102235047
 31
0.0
  0
ARC
  5
62
330
1F
100
AcDbEntity
  8
0
  6
Continuous
 62
     7
370
    15
100
AcDbCircle
 10
276.5901436805
 20
221.7102245478
 30
0.0
 40
2.0
100
AcDbArc
 50
0.0
 51
90.0
  0
ARC
  5
63
330
1F
100
AcDbEntity
  8
0
  6
Continuous
 62
     7
370
    15
100
AcDbCircle
 10
345.5901436805
 20
221.7102245478
 30
0.0
 40
2.000000000000057
100
AcDbArc
 50
90.0
 51
180.0
  0
ARC
  5
64
330
1F
100
AcDbEntity
  8
0
  6
Continuous
 62
     7
370
    15
100
AcDbCircle
 10
231.0901436805
 20
331.2102245478
 30
0.0
 40
2.000000000000057
100
AcDbArc
 50
270.0
 51
0.0
  0
ARC
  5
65
330
1F
100
AcDbEntity
  8
0
  6
Continuous
 62
     7
370
    15
100
AcDbCircle
 10
231.0901436805
 20
262.2102245478
 30
0.0
 40
2.0
100
AcDbArc
 50
0.0
 51
90.0
  0
ARC
  5
66
330
1F
100
AcDbEntity
  8
0
  6
Continuous
 62
     7
370
    15
100
AcDbCircle
 10
391.0901436805
 20
262.2102245478
 30
0.0
 40
2.000000000000057
100
AcDbArc
 50
90.0
 51
180.0
  0
ARC
  5
67
330
1F
100
AcDbEntity
  8
0
  6
Continuous
 62
     7
370
    15
100
AcDbCircle
 10
391.0901436805
 20
331.2102245478
 30
0.0
 40
2.000000000000057
100
AcDbArc
 50
180.0
 51
270.0
  0
SPLINE
  5
68
330
1F
100
AcDbEntity
  8
0
  6
Continuous
 62
     7
370
    15
100
AcDbSpline
210
0.0
220
0.0
230
1.0
 70
     8
 71
     3
 72
    10
 73
     6
 74
     0
 42
0.00000001
 43
0.00000001
 40
0.0
 40
0.0
 40
0.0
 40
0.0
 40
0.1757004978529531
 40
0.5787826267212328
 40
1.0
 40
1.0
 40
1.0
 40
1.0
 10
339.3289803563799
 20
330.7092801717896
 30
0.0
 10
338.9272974999496
 20
330.8604886843015
 30
0.0
 10
337.6040965893396
 20
331.3585912003655
 30
0.0
 10
335.2584982005386
 20
332.071811529641
 30
0.0
 10
333.2639995852615
 20
332.3674438668734
 30
0.0
 10
332.2448099999871
 20
332.5185121087212
 30
0.0
  0
ARC
  5
69
330
1F
100
AcDbEntity
  8
0
  6
Continuous
 62
     7
370
    15
100
AcDbCircle
 10
294.6584669553
 20
321.7102245478
 30
0.0
 40
11.00000000000002
100
AcDbArc
 50
112.050975633
 51
119.9264348666
  0
SPLINE
  5
6A
330
1F
100
AcDbEntity
  8
0
  6
Continuous
 62
     7
370
    15
100
AcDbSpline
210
0.0
220
0.0
230
1.0
 70
     8
 71
     3
 72
    14
 73
    10
 74
     0
 42
0.00000001
 43
0.00000001
 40
0.0
 40
0.0
 40
0.0
 40
0.0
 40
0.0337048051787791
 40
0.2028611587325488
 40
0.3619081131128398
 40
0.5092003536159639
 40
0.6706727574110313
 40
0.8375279139518138
 40
1.0
 40
1.0
 40
1.0
 40
1.0
 10
332.2521972506489
 20
332.5296358255524
 30
0.0
 10
332.212800757157
 20
332.5340447907607
 30
0.0
 10
331.9756826881641
 20
332.5605812975354
 30
0.0
 10
331.5583768128499
 20
332.702643350464
 30
0.0
 10
331.0679635440852
 20
332.9931443367207
 30
0.0
 10
330.6592936504518
 20
333.3816075666767
 30
0.0
 10
330.3436371772347
 20
333.8577875889123
 30
0.0
 10
330.1277117021806
 20
334.4126324487518
 30
0.0
 10
330.1085363753233
 20
334.8075564480357
 30
0.0
 10
330.0990763156857
 20
335.002390393414
 30
0.0
  0
ARC
  5
6B
330
1F
100
AcDbEntity
  8
0
  6
Continuous
 62
     7
370
    15
100
AcDbCircle
 10
289.5901436805
 20
334.2227022873
 30
0.0
 40
2.5
100
AcDbArc
 50
292.050975633
 51
0.0
  0
LINE
  5
6C
330
1F
100
AcDbEntity
  8
0
  6
Continuous
 62
     7
370
    15
100
AcDbLine
 10
292.0901442914
 20
348.7102256207
 30
0.0
 11
292.0901442914
 21
334.2227020351
 31
0.0
  0
LINE
  5
6D
330
1F
100
AcDbEntity
  8
0
  6
Continuous
 62
     7
370
    15
100
AcDbLine
 10
330.0901430695
 20
334.9973687021
 30
0.0
 11
330.0901430695
 21
348.7102256207
 31
0.0
  0
ARC
  5
6E
330
1F
100
AcDbEntity
  8
0
  6
Continuous
 62
     7
370
    15
100
AcDbCircle
 10
287.1751521818
 20
334.7102245478
 30
0.0
 40
4.0
100
AcDbArc
 50
270.0
 51
299.9264348666
  0
LWPOLYLINE
  5
6F
330
1F
100
AcDbEntity
  8
0
  6
Continuous
 62
     7
370
    15
100
AcDbPolyline
 90
        3
 70
   128
 43
0.0
 10
247.2188866734
 20
239.9163634566
 10
247.1318117379
 20
239.6166452257
 10
247.090170443
 20
239.229129353
  0
LINE
  5
70
330
1F
100
AcDbEntity
  8
0
  6
Continuous
 62
     7
370
    15
100
AcDbLine
 10
313.0401436276
 20
394.7102219848
 30
0.0
 11
309.1401437334
 21
394.7102219848
 31
0.0
  0
LINE
  5
71
330
1F
100
AcDbEntity
  8
0
  6
Continuous
 62
     7
370
    15
100
AcDbLine
 10
314.5901437885
 20
393.1602255491
 30
0.0
 11
307.5901435725
 21
393.1602255491
 31
0.0
  0
LINE
  5
72
330
1F
100
AcDbEntity
  8
0
  6
Continuous
 62
     7
370
    15
100
AcDbLine
 10
314.5901437885
 20
391.160221496
 30
0.0
 11
307.5901435725
 21
391.160221496
 31
0.0
  0
LINE
  5
73
330
1F
100
AcDbEntity
  8
0
  6
Continuous
 62
     7
370
    15
100
AcDbLine
 10
314.5901437885
 20
375.2102271704
 30
0.0
 11
307.5901435725
 21
375.2102271704
 31
0.0
  0
LINE
  5
74
330
1F
100
AcDbEntity
  8
0
  6
Continuous
 62
     7
370
    15
100
AcDbLine
 10
314.5901437885
 20
378.2102257995
 30
0.0
 11
307.5901435725
 21
378.2102257995
 31
0.0
  0
LINE
  5
75
330
1F
100
AcDbEntity
  8
0
  6
Continuous
 62
     7
370
    15
100
AcDbLine
 10
314.5901437885
 20
388.1102220205
 30
0.0
 11
307.5901435725
 21
388.1102220205
 31
0.0
  0
LINE
  5
76
330
1F
100
AcDbEntity
  8
0
  6
Continuous
 62
     7
370
    15
100
AcDbLine
 10
299.0901435762
 20
354.7102228789
 30
0.0
 11
296.1101432367
 21
354.7102228789
 31
0.0
  0
LINE
  5
77
330
1F
100
AcDbEntity
  8
0
  6
Continuous
 62
     7
370
    15
100
AcDbLine
 10
299.0901435762
 20
354.7102228789
 30
0.0
 11
299.0901435762
 21
361.7102221636
 31
0.0
  0
LINE
  5
78
330
1F
100
AcDbEntity
  8
0
  6
Continuous
 62
     7
370
    15
100
AcDbLine
 10
323.0901437848
 20
361.7102221636
 30
0.0
 11
299.0901435762
 21
361.7102221636
 31
0.0
  0
LINE
  5
79
330
1F
100
AcDbEntity
  8
0
  6
Continuous
 62
     7
370
    15
100
AcDbLine
 10
323.0901437848
 20
361.7102221636
 30
0.0
 11
323.0901437848
 21
354.7102228789
 31
0.0
  0
LINE
  5
7A
330
1F
100
AcDbEntity
  8
0
  6
Continuous
 62
     7
370
    15
100
AcDbLine
 10
323.0901437848
 20
354.7102228789
 30
0.0
 11
326.0701441243
 21
354.7102228789
 31
0.0
  0
LINE
  5
7B
330
1F
100
AcDbEntity
  8
0
  6
Continuous
 62
     7
370
    15
100
AcDbLine
 10
311.0901436805
 20
223.7102256207
 30
0.0
 11
368.5901447236
 21
223.7102256207
 31
0.0
  0
LINE
  5
7C
330
1F
100
AcDbEntity
  8
0
  6
Continuous
 62
     7
370
    15
100
AcDbLine
 10
253.5901426374
 20
223.7102256207
 30
0.0
 11
311.0901436805
 21
223.7102256207
 31
0.0
  0
LINE
  5
7D
330
1F
100
AcDbEntity
  8
0
  6
Continuous
 62
     7
370
    15
100
AcDbLine
 10
253.8079491853
 20
237.7102241902
 30
0.0
 11
368.3723381757
 21
237.7102241902
 31
0.0
  0
LINE
  5
7E
330
1F
100
AcDbEntity
  8
0
  6
Continuous
 62
     7
370
    15
100
AcDbLine
 10
375.0901467203
 20
239.2102235047
 30
0.0
 11
375.0901467203
 21
239.4280300526
 31
0.0
  0
LINE
  5
7F
330
1F
100
AcDbEntity
  8
0
  6
Continuous
 62
     7
370
    15
100
AcDbLine
 10
389.0901452898
 20
296.7102245478
 30
0.0
 11
389.0901452898
 21
354.2102255909
 31
0.0
  0
LINE
  5
80
330
1F
100
AcDbEntity
  8
0
  6
Continuous
 62
     7
370
    15
100
AcDbLine
 10
389.0901452898
 20
239.2102235047
 30
0.0
 11
389.0901452898
 21
296.7102245478
 31
0.0
  0
LINE
  5
81
330
1F
100
AcDbEntity
  8
0
  6
Continuous
 62
     7
370
    15
100
AcDbLine
 10
375.0901467203
 20
239.4280300526
 30
0.0
 11
375.0901467203
 21
354.2102255909
 31
0.0
  0
LINE
  5
82
330
1F
100
AcDbEntity
  8
0
  6
Continuous
 62
     7
370
    15
100
AcDbLine
 10
247.0901406407
 20
239.4280300526
 30
0.0
 11
247.0901406407
 21
239.2102235047
 31
0.0
  0
LINE
  5
83
330
1F
100
AcDbEntity
  8
0
  6
Continuous
 62
     7
370
    15
100
AcDbLine
 10
247.0901406407
 20
354.2102255909
 30
0.0
 11
247.0901406407
 21
239.4280300526
 31
0.0
  0
LINE
  5
84
330
1F
100
AcDbEntity
  8
0
  6
Continuous
 62
     7
370
    15
100
AcDbLine
 10
233.0901420712
 20
296.7102245478
 30
0.0
 11
233.0901420712
 21
239.2102235047
 31
0.0
  0
LINE
  5
85
330
1F
100
AcDbEntity
  8
0
  6
Continuous
 62
     7
370
    15
100
AcDbLine
 10
233.0901420712
 20
354.2102255909
 30
0.0
 11
233.0901420712
 21
296.7102245478
 31
0.0
  0
LINE
  5
86
330
1F
100
AcDbEntity
  8
0
  6
Continuous
 62
     7
370
    15
100
AcDbLine
 10
320.4196666404
 20
331.2102236835
 30
0.0
 11
320.4196666404
 21
348.7102256207
 31
0.0
  0
LINE
  5
87
330
1F
100
AcDbEntity
  8
0
  6
Continuous
 62
     7
370
    15
100
AcDbLine
 10
320.397855997
 20
331.2102236835
 30
0.0
 11
320.4196666404
 21
331.2102236835
 31
0.0
  0
LINE
  5
88
330
1F
100
AcDbEntity
  8
0
  6
Continuous
 62
     7
370
    15
100
AcDbLine
 10
301.7606207206
 20
331.2102236835
 30
0.0
 11
301.782431364
 21
331.2102236835
 31
0.0
  0
LINE
  5
89
330
1F
100
AcDbEntity
  8
0
  6
Continuous
 62
     7
370
    15
100
AcDbLine
 10
301.7606207206
 20
331.2102236835
 30
0.0
 11
301.7606207206
 21
348.7102256207
 31
0.0
  0
LINE
  5
8A
330
1F
100
AcDbEntity
  8
0
  6
Continuous
 62
     7
370
    15
100
AcDbLine
 10
301.7606207206
 20
348.7102256207
 30
0.0
 11
320.4196666404
 21
348.7102256207
 31
0.0
  0
LINE
  5
8B
330
1F
100
AcDbEntity
  8
0
  6
Continuous
 62
     7
370
    15
100
AcDbLine
 10
311.0901436805
 20
221.7102215675
 30
0.0
 11
343.5901424884
 21
221.7102215675
 31
0.0
  0
LINE
  5
8C
330
1F
100
AcDbEntity
  8
0
  6
Continuous
 62
     7
370
    15
100
AcDbLine
 10
278.5901448726
 20
221.7102215675
 30
0.0
 11
311.0901436805
 21
221.7102215675
 31
0.0
  0
LINE
  5
8D
330
1F
100
AcDbEntity
  8
0
  6
Continuous
 62
     7
370
    15
100
AcDbLine
 10
231.0901454686
 20
296.7102245478
 30
0.0
 11
231.0901454686
 21
264.2102257399
 31
0.0
  0
LINE
  5
8E
330
1F
100
AcDbEntity
  8
0
  6
Continuous
 62
     7
370
    15
100
AcDbLine
 10
231.0901454686
 20
329.2102233557
 30
0.0
 11
231.0901454686
 21
296.7102245478
 31
0.0
  0
LINE
  5
8F
330
1F
100
AcDbEntity
  8
0
  6
Continuous
 62
     7
370
    15
100
AcDbLine
 10
391.0901418924
 20
296.7102245478
 30
0.0
 11
391.0901418924
 21
329.2102233557
 31
0.0
  0
LINE
  5
90
330
1F
100
AcDbEntity
  8
0
  6
Continuous
 62
     7
370
    15
100
AcDbLine
 10
391.0901418924
 20
264.2102257399
 30
0.0
 11
391.0901418924
 21
296.7102245478
 31
0.0
  0
LINE
  5
91
330
1F
100
AcDbEntity
  8
0
  6
Continuous
 62
     7
370
    15
100
AcDbLine
 10
313.0925538055
 20
316.0167277841
 30
0.0
 11
312.9948480557
 21
316.0167277841
 31
0.0
  0
LINE
  5
92
330
1F
100
AcDbEntity
  8
0
  6
Continuous
 62
     7
370
    15
100
AcDbLine
 10
303.9589401371
 20
278.9634184031
 30
0.0
 11
304.3045413717
 21
278.9634184031
 31
0.0
  0
SPLINE
  5
93
330
1F
100
AcDbEntity
  8
0
  6
Continuous
 62
     7
370
    15
100
AcDbSpline
210
0.0
220
0.0
230
1.0
 70
     8
 71
     3
 72
    18
 73
    14
 74
     0
 42
0.00000001
 43
0.00000001
 40
0.0
 40
0.0
 40
0.0
 40
0.0
 40
0.1250000000000001
 40
0.1250000000000001
 40
0.2500000000000002
 40
0.2500000000000002
 40
0.5
 40
0.5
 40
0.625
 40
0.625
 40
0.75
 40
0.75
 40
1.0
 40
1.0
 40
1.0
 40
1.0
 10
323.3216401826662
 20
326.3934345755284
 30
0.0
 10
322.8138802139885
 20
326.3972582859542
 30
0.0
 10
322.3060718845527
 20
326.3999850800377
 30
0.0
 10
321.2906108201398
 20
326.4001576817664
 30
0.0
 10
320.7827799896726
 20
326.3999799643273
 30
0.0
 10
319.2589887622609
 20
326.3986211781067
 30
0.0
 10
318.2427071008728
 20
326.3966145772238
 30
0.0
 10
316.7179438829299
 20
326.3918162629743
 30
0.0
 10
316.2096787604759
 20
326.390298662439
 30
0.0
 10
315.1927755047284
 20
326.3848369682249
 30
0.0
 10
314.6833876605375
 20
326.3812589412642
 30
0.0
 10
313.1505226080723
 20
326.374069981946
 30
0.0
 10
312.1230871572087
 20
326.3717653914146
 30
0.0
 10
311.0901436804978
 20
326.3717653914146
 30
0.0
  0
SPLINE
  5
94
330
1F
100
AcDbEntity
  8
0
  6
Continuous
 62
     7
370
    15
100
AcDbSpline
210
0.0
220
0.0
230
1.0
 70
     8
 71
     3
 72
    22
 73
    18
 74
     0
 42
0.00000001
 43
0.00000001
 40
0.0
 40
0.0
 40
0.0
 40
0.0
 40
0.1249999999999994
 40
0.1249999999999994
 40
0.2499999999999988
 40
0.2499999999999988
 40
0.3749999999999983
 40
0.3749999999999983
 40
0.4999999999999979
 40
0.4999999999999979
 40
0.6249999999999973
 40
0.6249999999999973
 40
0.687499999999998
 40
0.687499999999998
 40
0.7499999999999986
 40
0.7499999999999986
 40
1.0
 40
1.0
 40
1.0
 40
1.0
 10
327.9495218369811
 20
332.1506451019936
 30
0.0
 10
327.7238354281415
 20
332.1440655179365
 30
0.0
 10
327.4988500316739
 20
332.1063943216478
 30
0.0
 10
327.0574176041351
 20
331.9697005098602
 30
0.0
 10
326.8421057710341
 20
331.8703976547976
 30
0.0
 10
326.4094485426897
 20
331.6125373796634
 30
0.0
 10
326.1887107752869
 20
331.4554388638538
 30
0.0
 10
325.7524517896303
 20
331.0836159336671
 30
0.0
 10
325.5379554543215
 20
330.8676631092068
 30
0.0
 10
325.1265451734233
 20
330.3833351620901
 30
0.0
 10
324.9285981092188
 20
330.1138102016164
 30
0.0
 10
324.6438080976937
 20
329.6662894479784
 30
0.0
 10
324.5508914949303
 20
329.5098892008983
 30
0.0
 10
324.3692312144956
 20
329.1818956703861
 30
0.0
 10
324.2801684174034
 20
329.0096137791194
 30
0.0
 10
323.85067881749
 20
328.1177214741649
 30
0.0
 10
323.557587480462
 20
327.3098208025913
 30
0.0
 10
323.3216401826661
 20
326.3934345755303
 30
0.0
  0
SPLINE
  5
95
330
1F
100
AcDbEntity
  8
0
  6
Continuous
 62
     7
370
    15
100
AcDbSpline
210
0.0
220
0.0
230
1.0
 70
     8
 71
     3
 72
    20
 73
    16
 74
     0
 42
0.00000001
 43
0.00000001
 40
0.0
 40
0.0
 40
0.0
 40
0.0
 40
0.2499999999999997
 40
0.2499999999999997
 40
0.4999999999999994
 40
0.4999999999999994
 40
0.7499999999999991
 40
0.7499999999999991
 40
0.8749999999999987
 40
0.9374999999999988
 40
0.968749999999999
 40
0.984374999999999
 40
0.9921874999999994
 40
0.9921874999999994
 40
1.0
 40
1.0
 40
1.0
 40
1.0
 10
330.8994758822461
 20
332.3837456900897
 30
0.0
 10
330.6609550440119
 20
332.3652963902688
 30
0.0
 10
330.4233353698273
 20
332.3427573521919
 30
0.0
 10
329.9379622291906
 20
332.2962918192753
 30
0.0
 10
329.6910159893228
 20
332.2725269831762
 30
0.0
 10
329.1887540715683
 20
332.2306668711709
 30
0.0
 10
328.9359219956644
 20
332.2127011758432
 30
0.0
 10
328.5632655239944
 20
332.1880433470712
 30
0.0
 10
328.3778904781661
 20
332.1763219641641
 30
0.0
 10
328.1631987665711
 20
332.1633288646497
 30
0.0
 10
328.0562352353022
 20
332.1569550083244
 30
0.0
 10
328.0028474952105
 20
332.1537928939152
 30
0.0
 10
327.9799870140434
 20
332.1524423945061
 30
0.0
 10
327.9647511140677
 20
332.1515430352241
 30
0.0
 10
327.9585981366588
 20
332.1510766610037
 30
0.0
 10
327.9495218369811
 20
332.1506451019936
 30
0.0
  0
LINE
  5
96
330
1F
100
AcDbEntity
  8
0
  6
Continuous
 62
     7
370
    15
100
AcDbLine
 10
332.2442493438
 20
332.5152934579
 30
0.0
 11
332.2504761665
 21
332.5160496918
 31
0.0
  0
SPLINE
  5
97
330
1F
100
AcDbEntity
  8
0
  6
Continuous
 62
     7
370
    15
100
AcDbSpline
210
0.0
220
0.0
230
1.0
 70
     8
 71
     3
 72
    16
 73
    12
 74
     0
 42
0.00000001
 43
0.00000001
 40
0.0
 40
0.0
 40
0.0
 40
0.0
 40
0.5000000000000007
 40
0.5000000000000007
 40
0.7500000000000006
 40
0.7500000000000006
 40
0.8750000000000002
 40
0.8750000000000002
 40
0.9375000000000001
 40
0.9375000000000001
 40
1.0
 40
1.0
 40
1.0
 40
1.0
 10
362.5390400337548
 20
321.6113099023632
 30
0.0
 10
358.5407534923989
 20
323.1231851990551
 30
0.0
 10
354.5436671590721
 20
324.6380229046846
 30
0.0
 10
348.5482215127152
 20
326.9107770702988
 30
0.0
 10
346.5496847245033
 20
327.6682277633495
 30
0.0
 10
343.5517040033135
 20
328.8040075265348
 30
0.0
 10
342.5524644238799
 20
329.182840205158
 30
0.0
 10
341.0546150283463
 20
329.7537912334122
 30
0.0
 10
340.5555001717346
 20
329.9445584677128
 30
0.0
 10
339.5577532405488
 20
330.3273834498704
 30
0.0
 10
339.0599956778752
 20
330.5217298052507
 30
0.0
 10
338.5599687039575
 20
330.7102245477814
 30
0.0
  0
SPLINE
  5
98
330
1F
100
AcDbEntity
  8
0
  6
Continuous
 62
     7
370
    15
100
AcDbSpline
210
0.0
220
0.0
230
1.0
 70
     8
 71
     3
 72
     8
 73
     4
 74
     0
 42
0.00000001
 43
0.00000001
 40
0.0
 40
0.0
 40
0.0
 40
0.0
 40
1.0
 40
1.0
 40
1.0
 40
1.0
 10
345.1817826059005
 20
288.7988011027797
 30
0.0
 10
350.8864680597984
 20
286.7764953733277
 30
0.0
 10
356.5893971795102
 20
284.7493254257627
 30
0.0
 10
362.289116364735
 20
282.7127586554207
 30
0.0
  0
LINE
  5
99
330
1F
100
AcDbEntity
  8
0
  6
Continuous
 62
     7
370
    15
100
AcDbLine
 10
305.6075193956
 20
330.7084457068
 30
0.0
 11
305.1508029959
 21
330.7102263955
 31
0.0
  0
SPLINE
  5
9A
330
1F
100
AcDbEntity
  8
0
  6
Continuous
 62
     7
370
    15
100
AcDbSpline
210
0.0
220
0.0
230
1.0
 70
     8
 71
     3
 72
    10
 73
     6
 74
     0
 42
0.00000001
 43
0.00000001
 40
0.0
 40
0.0
 40
0.0
 40
0.0
 40
0.4999999999999999
 40
0.4999999999999999
 40
1.0
 40
1.0
 40
1.0
 40
1.0
 10
317.7420616362726
 20
330.7102245477814
 30
0.0
 10
316.6345106905429
 20
330.7102245477815
 30
0.0
 10
315.5264339396323
 20
330.7035246919584
 30
0.0
 10
313.3087876518912
 20
330.6886402840997
 30
0.0
 10
312.1995934872475
 20
330.6821912846918
 30
0.0
 10
311.0901436804979
 20
330.6821912846918
 30
0.0
  0
LINE
  5
9B
330
1F
100
AcDbEntity
  8
0
  6
Continuous
 62
     7
370
    15
100
AcDbLine
 10
305.1508029959
 20
330.7102263955
 30
0.0
 11
302.2478169798
 21
330.7102263955
 31
0.0
  0
LINE
  5
9C
330
1F
100
AcDbEntity
  8
0
  6
Continuous
 62
     7
370
    15
100
AcDbLine
 10
319.9324703812
 20
330.7102263955
 30
0.0
 11
317.7420616186
 21
330.7102263955
 31
0.0
  0
ARC
  5
9D
330
1F
100
AcDbEntity
  8
0
  6
Continuous
 62
     7
370
    15
100
AcDbCircle
 10
311.0901436805
 20
313.2102245478
 30
0.0
 40
29.02298675710582
100
AcDbArc
 50
152.1595516885
 51
188.6529220074
  0
SPLINE
  5
9E
330
1F
100
AcDbEntity
  8
0
  6
Continuous
 62
     7
370
    15
100
AcDbSpline
210
0.0
220
0.0
230
1.0
 70
     8
 71
     3
 72
    10
 73
     6
 74
     0
 42
0.00000001
 43
0.00000001
 40
0.0
 40
0.0
 40
0.0
 40
0.0
 40
0.5
 40
0.5
 40
1.0
 40
1.0
 40
1.0
 40
1.0
 10
302.1966505470811
 20
326.3717630093199
 30
0.0
 10
301.8525885944334
 20
326.3717630093199
 30
0.0
 10
301.5191936142175
 20
326.4134896907565
 30
0.0
 10
300.8902309358803
 20
326.5511281578349
 30
0.0
 10
300.5930056763587
 20
326.6470634412302
 30
0.0
 10
300.3101712983334
 20
326.7642786018401
 30
0.0
  0
LINE
  5
9F
330
1F
100
AcDbEntity
  8
0
  6
Continuous
 62
     7
370
    15
100
AcDbLine
 10
311.0901436805
 20
326.3717626272
 30
0.0
 11
302.1966501176
 21
326.3717626272
 31
0.0
  0
SPLINE
  5
A0
330
1F
100
AcDbEntity
  8
0
  6
Continuous
 62
     7
370
    15
100
AcDbSpline
210
0.0
220
0.0
230
1.0
 70
     8
 71
     3
 72
     8
 73
     4
 74
     0
 42
0.00000001
 43
0.00000001
 40
0.0
 40
0.0
 40
0.0
 40
0.0
 40
1.0
 40
1.0
 40
1.0
 40
1.0
 10
277.1960500155709
 20
304.485335414535
 30
0.0
 10
271.4294873693116
 20
306.5035646310437
 30
0.0
 10
265.6659842702532
 20
308.5304613529964
 30
0.0
 10
259.9072133660396
 20
310.5718142905048
 30
0.0
  0
SPLINE
  5
A1
330
1F
100
AcDbEntity
  8
0
  6
Continuous
 62
     7
370
    15
100
AcDbSpline
210
0.0
220
0.0
230
1.0
 70
     8
 71
     3
 72
    12
 73
     8
 74
     0
 42
0.00000001
 43
0.00000001
 40
0.0
 40
0.0
 40
0.0
 40
0.0
 40
0.4999999999999996
 40
0.4999999999999996
 40
0.7499999999999998
 40
0.7499999999999998
 40
1.0
 40
1.0
 40
1.0
 40
1.0
 10
259.6242793691047
 20
271.6690840924817
 30
0.0
 10
263.2495625615664
 20
270.3061789839741
 30
0.0
 10
266.8743302868591
 20
268.9419633623295
 30
0.0
 10
272.3117015010597
 20
266.8962131543905
 30
0.0
 10
274.1242036581785
 20
266.2144135038484
 30
0.0
 10
277.7495762078161
 20
264.8517596260526
 30
0.0
 10
279.5629081680029
 20
264.1721397368433
 30
0.0
 10
281.3735694895209
 20
263.4853770726182
 30
0.0
  0
ARC
  5
A2
330
1F
100
AcDbEntity
  8
0
  6
Continuous
 62
     7
370
    15
100
AcDbCircle
 10
311.0901436805
 20
280.2102245478
 30
0.0
 40
29.14879700543251
100
AcDbArc
 50
332.2900811363
 51
8.4024303184
  0
ARC
  5
A3
330
1F
100
AcDbEntity
  8
0
  6
Continuous
 62
     7
370
    15
100
AcDbCircle
 10
250.9554431513
 20
322.3296500731
 30
0.0
 40
3.865316048848797
100
AcDbArc
 50
180.1516443375
 51
229.2804153412
  0
SPLINE
  5
A4
330
1F
100
AcDbEntity
  8
0
  6
Continuous
 62
     7
370
    15
100
AcDbSpline
210
0.0
220
0.0
230
1.0
 70
     8
 71
     3
 72
    20
 73
    16
 74
     0
 42
0.00000001
 43
0.00000001
 40
0.0
 40
0.0
 40
0.0
 40
0.0
 40
0.1250000000000003
 40
0.1250000000000003
 40
0.2500000000000006
 40
0.2500000000000006
 40
0.3750000000000009
 40
0.3750000000000009
 40
0.5000000000000012
 40
0.5000000000000012
 40
0.6250000000000016
 40
0.6250000000000016
 40
0.7500000000000018
 40
0.7500000000000018
 40
1.0
 40
1.0
 40
1.0
 40
1.0
 10
247.0901436804979
 20
268.6512701988391
 30
0.0
 10
247.0901436804975
 20
268.9129987890777
 30
0.0
 10
247.1159974563367
 20
269.1702730047384
 30
0.0
 10
247.2172427075421
 20
269.6762889986841
 30
0.0
 10
247.2938195319232
 20
269.9276057500774
 30
0.0
 10
247.4941187865301
 20
270.4075502282502
 30
0.0
 10
247.6166444196736
 20
270.6350030403717
 30
0.0
 10
247.905854076943
 20
271.0652186878061
 30
0.0
 10
248.07446129356
 20
271.2693034010471
 30
0.0
 10
248.442950688874
 20
271.6351747718518
 30
0.0
 10
248.6438107403929
 20
271.799140971906
 30
0.0
 10
249.0792845659101
 20
272.0885594012789
 30
0.0
 10
249.3127394310162
 20
272.2124889935421
 30
0.0
 10
250.0339354781489
 20
272.5097762230795
 30
0.0
 10
250.5585094252604
 20
272.6152694554626
 30
0.0
 10
251.0868134551875
 20
272.6157050230855
 30
0.0
  0
ARC
  5
A5
330
1F
100
AcDbEntity
  8
0
  6
Continuous
 62
     7
370
    15
100
AcDbCircle
 10
371.1370309023
 20
324.6147332589
 30
0.0
 40
3.953403396378278
100
AcDbArc
 50
269.4376034923
 51
359.3089128583
  0
SPLINE
  5
A6
330
1F
100
AcDbEntity
  8
0
  6
Continuous
 62
     7
370
    15
100
AcDbSpline
210
0.0
220
0.0
230
1.0
 70
     8
 71
     3
 72
    14
 73
    10
 74
     0
 42
0.00000001
 43
0.00000001
 40
0.0
 40
0.0
 40
0.0
 40
0.0
 40
0.25
 40
0.25
 40
0.5
 40
0.5
 40
0.75
 40
0.75
 40
1.0
 40
1.0
 40
1.0
 40
1.0
 10
373.7569173406249
 20
273.8532679764166
 30
0.0
 10
373.9676728200311
 20
273.6665132141537
 30
0.0
 10
374.154844519263
 20
273.4612276533896
 30
0.0
 10
374.4839535031
 20
273.0150873041657
 30
0.0
 10
374.6270184609042
 20
272.7710399827844
 30
0.0
 10
374.8555238170182
 20
272.2648783418238
 30
0.0
 10
374.9422179219048
 20
272.0023750357348
 30
0.0
 10
375.0599724976108
 20
271.4583329484009
 30
0.0
 10
375.0901436804978
 20
271.1782947549024
 30
0.0
 10
375.0901436804978
 20
270.8980190464083
 30
0.0
  0
SPLINE
  5
A7
330
1F
100
AcDbEntity
  8
0
  6
Continuous
 62
     7
370
    15
100
AcDbSpline
210
0.0
220
0.0
230
1.0
 70
     8
 71
     3
 72
    22
 73
    18
 74
     0
 42
0.00000001
 43
0.00000001
 40
0.0
 40
0.0
 40
0.0
 40
0.0
 40
0.125
 40
0.125
 40
0.25
 40
0.25
 40
0.375
 40
0.375
 40
0.5
 40
0.5
 40
0.625
 40
0.625
 40
0.75
 40
0.75
 40
0.875
 40
0.875
 40
1.0
 40
1.0
 40
1.0
 40
1.0
 10
286.4919699055763
 20
241.7102245477814
 30
0.0
 10
286.4919699055764
 20
241.4460325628013
 30
0.0
 10
286.4662822166613
 20
241.1862058312582
 30
0.0
 10
286.3655749861574
 20
240.6749349286257
 30
0.0
 10
286.2893130949338
 20
240.4208422485835
 30
0.0
 10
286.09044322325
 20
239.9367587769199
 30
0.0
 10
285.9686939095392
 20
239.7070090459635
 30
0.0
 10
285.6807892097341
 20
239.2719617142666
 30
0.0
 10
285.5134960507948
 20
239.0663784444727
 30
0.0
 10
285.1479266351398
 20
238.6976545313146
 30
0.0
 10
284.9482595091732
 20
238.5319822835314
 30
0.0
 10
284.5141146407736
 20
238.2391540568019
 30
0.0
 10
284.284390652065
 20
238.1155193939338
 30
0.0
 10
283.8074137007176
 20
237.9159830245828
 30
0.0
 10
283.5570160978385
 20
237.8389816987813
 30
0.0
 10
283.0452987902431
 20
237.7360943348065
 30
0.0
 10
282.7864017347869
 20
237.7102245477814
 30
0.0
 10
282.5244299663262
 20
237.7102245477814
 30
0.0
  0
LINE
  5
A8
330
1F
100
AcDbEntity
  8
0
  6
Continuous
 62
     7
370
    15
100
AcDbLine
 10
286.4919698834
 20
241.7102248458
 30
0.0
 11
335.6883174776
 21
241.7102248458
 31
0.0
  0
SPLINE
  5
A9
330
1F
100
AcDbEntity
  8
0
  6
Continuous
 62
     7
370
    15
100
AcDbSpline
210
0.0
220
0.0
230
1.0
 70
     8
 71
     3
 72
    20
 73
    16
 74
     0
 42
0.00000001
 43
0.00000001
 40
0.0
 40
0.0
 40
0.0
 40
0.0
 40
0.1249999999999996
 40
0.1249999999999996
 40
0.2499999999999992
 40
0.2499999999999992
 40
0.3749999999999988
 40
0.3749999999999988
 40
0.4999999999999984
 40
0.4999999999999984
 40
0.624999999999998
 40
0.624999999999998
 40
0.7499999999999977
 40
0.7499999999999977
 40
1.0
 40
1.0
 40
1.0
 40
1.0
 10
339.6558573946689
 20
237.7102245477814
 30
0.0
 10
339.3938023469896
 20
237.7102245477814
 30
0.0
 10
339.1362007132935
 20
237.736107206519
 30
0.0
 10
338.6295291699502
 20
237.8374706329714
 30
0.0
 10
338.3778718341861
 20
237.9141447593923
 30
0.0
 10
337.8973792548609
 20
238.1146499296731
 30
0.0
 10
337.6696552757139
 20
238.2373048888436
 30
0.0
 10
337.2389174231677
 20
238.5268474093875
 30
0.0
 10
337.0346326963017
 20
238.6956237481527
 30
0.0
 10
336.6684607846237
 20
239.0644365651414
 30
0.0
 10
336.5043539400601
 20
239.2654911720632
 30
0.0
 10
336.2147125730822
 20
239.7014524298485
 30
0.0
 10
336.0908119822536
 20
239.9350014662807
 30
0.0
 10
335.7935867415404
 20
240.6567150193227
 30
0.0
 10
335.6883174554189
 20
241.1816716690871
 30
0.0
 10
335.6883174554189
 20
241.7102245477814
 30
0.0
  0
SPLINE
  5
AA
330
1F
100
AcDbEntity
  8
0
  6
Continuous
 62
     7
370
    15
100
AcDbSpline
210
0.0
220
0.0
230
1.0
 70
    24
 71
     3
 72
    14
 73
    10
 74
     0
 42
0.00000001
 43
0.00000001
 40
0.0
 40
0.0
 40
0.0
 40
0.0
 40
0.25
 40
0.25
 40
0.5
 40
0.5
 40
0.75
 40
0.75
 40
1.0
 40
1.0
 40
1.0
 40
1.0
 10
311.0901436804978
 20
330.6821912935401
 30
0.0
 10
311.0901436804978
 20
330.61752850926
 30
0.0
 10
311.0901436804978
 20
330.4395400748482
 30
0.0
 10
311.0901436804978
 20
329.8956156501402
 30
0.0
 10
311.0901436804978
 20
329.5301328248762
 30
0.0
 10
311.0901436804978
 20
328.6916005160231
 30
0.0
 10
311.0901436804978
 20
328.2192496469906
 30
0.0
 10
311.0901436804978
 20
327.2710915989827
 30
0.0
 10
311.0901436804978
 20
326.7960743681193
 30
0.0
 10
311.0901436804978
 20
326.3717653914144
 30
0.0
  0
SPLINE
  5
AB
330
1F
100
AcDbEntity
  8
0
  6
Continuous
 62
     7
370
    15
100
AcDbSpline
210
0.0
220
0.0
230
1.0
 70
    24
 71
     3
 72
     8
 73
     4
 74
     0
 42
0.00000001
 43
0.00000001
 40
0.0
 40
0.0
 40
0.0
 40
0.0
 40
1.0
 40
1.0
 40
1.0
 40
1.0
 10
311.0901436804976
 20
299.5880270375376
 30
0.0
 10
311.0901436804976
 20
299.5820921032561
 30
0.0
 10
311.0901436804977
 20
299.576157980005
 30
0.0
 10
311.0901436804977
 20
299.570224668807
 30
0.0
  0
LINE
  5
AC
330
1F
100
AcDbEntity
  8
0
  6
Continuous
 62
     7
370
    15
100
AcDbLine
 10
302.2478169798
 20
330.7102263955
 30
0.0
 11
302.2270969152
 21
330.7102263955
 31
0.0
  0
ARC
  5
AD
330
1F
100
AcDbEntity
  8
0
  6
Continuous
 62
     7
370
    15
100
AcDbCircle
 10
302.2444560639
 20
331.194021607
 30
0.0
 40
0.4841065448121475
100
AcDbArc
 50
178.0820668511
 51
267.9450407377
  0
LINE
  5
AE
330
1F
100
AcDbEntity
  8
0
  6
Continuous
 62
     7
370
    15
100
AcDbLine
 10
319.9531904458
 20
330.7102263955
 30
0.0
 11
319.9324703812
 21
330.7102263955
 31
0.0
  0
ARC
  5
AF
330
1F
100
AcDbEntity
  8
0
  6
Continuous
 62
     7
370
    15
100
AcDbCircle
 10
319.9358312971
 20
331.194021607
 30
0.0
 40
0.4841065448121475
100
AcDbArc
 50
272.0549592623
 51
1.9179331489
  0
LINE
  5
B0
330
1F
100
AcDbEntity
  8
0
  6
Continuous
 62
     7
370
    15
100
AcDbLine
 10
293.3640501498
 20
334.2227020351
 30
0.0
 11
293.3640501498
 21
348.7102256207
 31
0.0
  0
LINE
  5
B1
330
1F
100
AcDbEntity
  8
0
  6
Continuous
 62
     7
370
    15
100
AcDbLine
 10
293.3640501498
 20
348.7102256207
 30
0.0
 11
301.7606207206
 21
348.7102256207
 31
0.0
  0
LINE
  5
B2
330
1F
100
AcDbEntity
  8
0
  6
Continuous
 62
     7
370
    15
100
AcDbLine
 10
328.8162372112
 20
334.865858504
 30
0.0
 11
328.8162372112
 21
348.7102256207
 31
0.0
  0
LINE
  5
B3
330
1F
100
AcDbEntity
  8
0
  6
Continuous
 62
     7
370
    15
100
AcDbLine
 10
320.4196666404
 20
348.7102256207
 30
0.0
 11
328.8162372112
 21
348.7102256207
 31
0.0
  0
LINE
  5
B4
330
1F
100
AcDbEntity
  8
0
  6
Continuous
 62
     7
370
    15
100
AcDbLine
 10
320.0694940089
 20
330.7102263955
 30
0.0
 11
319.9531904458
 21
330.7102263955
 31
0.0
  0
SPLINE
  5
B5
330
1F
100
AcDbEntity
  8
0
  6
Continuous
 62
     7
370
    15
100
AcDbSpline
210
0.0
220
0.0
230
1.0
 70
     8
 71
     3
 72
    20
 73
    16
 74
     0
 42
0.00000001
 43
0.00000001
 40
0.0
 40
0.0
 40
0.0
 40
0.0
 40
0.25
 40
0.25
 40
0.375
 40
0.375
 40
0.5
 40
0.5
 40
0.625
 40
0.625
 40
0.75
 40
0.75
 40
0.875
 40
0.875
 40
1.0
 40
1.0
 40
1.0
 40
1.0
 10
281.3735694895209
 20
263.4853770726183
 30
0.0
 10
282.1249272194352
 20
263.1953318197591
 30
0.0
 10
282.8149032445182
 20
262.8018672883846
 30
0.0
 10
283.7590853019831
 20
262.0585697959097
 30
0.0
 10
284.0567303126185
 20
261.7854451988426
 30
0.0
 10
284.6013428665528
 20
261.2051386017384
 30
0.0
 10
284.8509606577254
 20
260.8959842712788
 30
0.0
 10
285.3044186533418
 20
260.2393237911112
 30
0.0
 10
285.5092402570053
 20
259.8890490158528
 30
0.0
 10
285.8593917828886
 20
259.1709816774219
 30
0.0
 10
286.0064162907943
 20
258.8014633961667
 30
0.0
 10
286.2448871551421
 20
258.0416507184392
 30
0.0
 10
286.3366599600026
 20
257.6489323604119
 30
0.0
 10
286.4596659012047
 20
256.8537020734329
 30
0.0
 10
286.491009733215
 20
256.4532214677321
 30
0.0
 10
286.4919699055764
 20
256.0498539833489
 30
0.0
  0
SPLINE
  5
B6
330
1F
100
AcDbEntity
  8
0
  6
Continuous
 62
     7
370
    15
100
AcDbSpline
210
0.0
220
0.0
230
1.0
 70
     8
 71
     3
 72
     8
 73
     4
 74
     0
 42
0.00000001
 43
0.00000001
 40
0.0
 40
0.0
 40
0.0
 40
0.0
 40
0.0003768561106808
 40
0.0003768561106808
 40
0.0003768561106808
 40
0.0003768561106808
 10
336.7143518714056
 20
266.3259933580574
 30
0.0
 10
336.7767823212105
 20
266.4349874151768
 30
0.0
 10
336.837336109676
 20
266.5450791024311
 30
0.0
 10
336.8959566993447
 20
266.6561704937275
 30
0.0
  0
SPLINE
  5
B7
330
1F
100
AcDbEntity
  8
0
  6
Continuous
 62
     7
370
    15
100
AcDbSpline
210
0.0
220
0.0
230
1.0
 70
     8
 71
     3
 72
    12
 73
     8
 74
     0
 42
0.00000001
 43
0.00000001
 40
0.0
 40
0.0
 40
0.0
 40
0.0
 40
0.4999999999999988
 40
0.4999999999999988
 40
0.7499999999999982
 40
0.7499999999999982
 40
1.0
 40
1.0
 40
1.0
 40
1.0
 10
335.6883174554191
 20
262.4101888564398
 30
0.0
 10
335.6883174554191
 20
263.0973041811376
 30
0.0
 10
335.7755718582352
 20
263.7696221137546
 30
0.0
 10
336.0333066496828
 20
264.7565906422982
 30
0.0
 10
336.1414243606546
 20
265.0836626926086
 30
0.0
 10
336.397839441945
 20
265.7184357555568
 30
0.0
 10
336.5460231570734
 20
266.0267749743514
 30
0.0
 10
336.7143518714056
 20
266.3259933580574
 30
0.0
  0
SPLINE
  5
B8
330
1F
100
AcDbEntity
  8
0
  6
Continuous
 62
     7
370
    15
100
AcDbSpline
210
0.0
220
0.0
230
1.0
 70
     8
 71
     3
 72
    10
 73
     6
 74
     0
 42
0.00000001
 43
0.00000001
 40
0.0
 40
0.0
 40
0.0
 40
0.0
 40
0.5
 40
0.5
 40
1.0
 40
1.0
 40
1.0
 40
1.0
 10
300.3101712983322
 20
326.7642786018406
 30
0.0
 10
299.8987824179628
 20
326.9101307541033
 30
0.0
 10
299.5234972931673
 20
327.0905276118738
 30
0.0
 10
298.8367120195812
 20
327.5014262202561
 30
0.0
 10
298.5255984986358
 20
327.7326323797212
 30
0.0
 10
298.2538171874604
 20
327.9794529225308
 30
0.0
  0
ARC
  5
B9
330
1F
100
AcDbEntity
  8
0
  6
Continuous
 62
     7
370
    15
100
AcDbCircle
 10
331.2874339106
 20
334.8246474172
 30
0.0
 40
2.471540305381566
100
AcDbArc
 50
179.0445914374
 51
260.9689134327
  0
LINE
  5
BA
330
1F
100
AcDbEntity
  8
0
  6
Continuous
 62
     7
370
    15
100
AcDbLine
 10
286.4919698834
 20
256.0498544065
 30
0.0
 11
286.4919698834
 21
241.7102248458
 31
0.0
  0
LINE
  5
BB
330
1F
100
AcDbEntity
  8
0
  6
Continuous
 62
     7
370
    15
100
AcDbLine
 10
335.6883174776
 20
241.7102248458
 30
0.0
 11
335.6883174776
 21
262.4101878194
 31
0.0
  0
SPLINE
  5
BC
330
1F
100
AcDbEntity
  8
0
  6
Continuous
 62
     7
370
    15
100
AcDbSpline
210
0.0
220
0.0
230
1.0
 70
     8
 71
     3
 72
     8
 73
     4
 74
     0
 42
0.00000001
 43
0.00000001
 40
0.0000000000000001
 40
0.0000000000000001
 40
0.0000000000000001
 40
0.0000000000000001
 40
0.0032891391181057
 40
0.0032891391181057
 40
0.0032891391181057
 40
0.0032891391181057
 10
371.0982256665867
 20
320.6615210010734
 30
0.0
 10
370.0018650606893
 20
320.6606718023646
 30
0.0
 10
368.9055025838553
 20
320.6598965144177
 30
0.0
 10
367.8091376153853
 20
320.6592776337123
 30
0.0
  0
SPLINE
  5
BD
330
1F
100
AcDbEntity
  8
0
  6
Continuous
 62
     7
370
    15
100
AcDbSpline
210
0.0
220
0.0
230
1.0
 70
     8
 71
     3
 72
    11
 73
     7
 74
     0
 42
0.00000001
 43
0.00000001
 40
0.0000000000000001
 40
0.0000000000000001
 40
0.0000000000000001
 40
0.0000000000000001
 40
0.0043618913464156
 40
0.0043618913464156
 40
0.0043618913464156
 40
0.0087229346141289
 40
0.0087229346141289
 40
0.0087229346141289
 40
0.0087229346141289
 10
367.3027553966145
 20
279.7212458177587
 30
0.0
 10
368.3794378686587
 20
278.7441322736859
 30
0.0
 10
369.4555857107447
 20
277.7664257180795
 30
0.0
 10
370.5313432973061
 20
276.7882891219315
 30
0.0
 10
371.6068918087399
 20
275.810342628123
 30
0.0
 10
372.6820460523543
 20
274.831960789966
 30
0.0
 10
373.7569173406248
 20
273.8532679764166
 30
0.0
  0
SPLINE
  5
BE
330
1F
100
AcDbEntity
  8
0
  6
Continuous
 62
     7
370
    15
100
AcDbSpline
210
0.0
220
0.0
230
1.0
 70
     8
 71
     3
 72
    11
 73
     7
 74
     0
 42
0.00000001
 43
0.00000001
 40
0.0
 40
0.0
 40
0.0
 40
0.0
 40
0.0036466017362
 40
0.0036466017362
 40
0.0036466017362
 40
0.0086854624308082
 40
0.0086854624308082
 40
0.0086854624308082
 40
0.0086854624308082
 10
254.8624339767644
 20
313.5596646176083
 30
0.0
 10
253.9618330784868
 20
314.3760104297714
 30
0.0
 10
253.0617004285446
 20
315.1928781464999
 30
0.0
 10
252.1619284931801
 20
316.0101447213666
 30
0.0
 10
250.9186271033713
 20
317.1394405222679
 30
0.0
 10
249.6760114498626
 20
318.2694966422123
 30
0.0
 10
248.4338779414347
 20
319.4000827433791
 30
0.0
  0
SPLINE
  5
BF
330
1F
100
AcDbEntity
  8
0
  6
Continuous
 62
     7
370
    15
100
AcDbSpline
210
0.0
220
0.0
230
1.0
 70
     8
 71
     3
 72
     8
 73
     4
 74
     0
 42
0.00000001
 43
0.00000001
 40
0.0
 40
0.0
 40
0.0
 40
0.0
 40
0.0033025135039581
 40
0.0033025135039581
 40
0.0033025135039581
 40
0.0033025135039581
 10
251.0868134551875
 20
272.6157050230854
 30
0.0
 10
252.1876415227728
 20
272.6157560770263
 30
0.0
 10
253.288470249478
 20
272.6157557438158
 30
0.0
 10
254.3893000378712
 20
272.6156410817028
 30
0.0
  0
SPLINE
  5
C0
330
1F
100
AcDbEntity
  8
0
  6
Continuous
 62
     7
370
    15
100
AcDbSpline
210
0.0
220
0.0
230
1.0
 70
     8
 71
     3
 72
    18
 73
    14
 74
     0
 42
0.00000001
 43
0.00000001
 40
0.0
 40
0.0
 40
0.0
 40
0.0
 40
0.1249999999999999
 40
0.1249999999999999
 40
0.2499999999999999
 40
0.2499999999999999
 40
0.3749999999999998
 40
0.3749999999999998
 40
0.4999999999999998
 40
0.4999999999999998
 40
0.7499999999999999
 40
0.7499999999999999
 40
1.0
 40
1.0
 40
1.0
 40
1.0
 10
298.2538171874604
 20
327.9794529225308
 30
0.0
 10
298.0307675960866
 20
328.4241294879629
 30
0.0
 10
297.7867597847623
 20
328.8223120371019
 30
0.0
 10
297.2829393831848
 20
329.5145623567113
 30
0.0
 10
297.0221092473757
 20
329.8117450800441
 30
0.0
 10
296.4877579351636
 20
330.3297222365497
 30
0.0
 10
296.2138418854124
 20
330.5506032172407
 30
0.0
 10
295.659290389145
 20
330.9298336393267
 30
0.0
 10
295.3816712502183
 20
331.0863103101154
 30
0.0
 10
294.5518698619528
 20
331.4810532103901
 30
0.0
 10
294.0029638768036
 20
331.6462212616022
 30
0.0
 10
292.9318881144287
 20
331.8586190607639
 30
0.0
 10
292.4093644742143
 20
331.9055767799725
 30
0.0
 10
291.9073180275082
 20
331.9055767799725
 30
0.0
  0
SPLINE
  5
C1
330
1F
100
AcDbEntity
  8
0
  6
Continuous
 62
     7
370
    15
100
AcDbSpline
210
0.0
220
0.0
230
1.0
 70
     8
 71
     3
 72
    14
 73
    10
 74
     0
 42
0.00000001
 43
0.00000001
 40
0.0
 40
0.0
 40
0.0
 40
0.0
 40
0.25
 40
0.25
 40
0.5
 40
0.5
 40
0.75
 40
0.75
 40
1.0
 40
1.0
 40
1.0
 40
1.0
 10
289.8717752315374
 20
331.2435578811148
 30
0.0
 10
289.4020331235382
 20
330.9858570931069
 30
0.0
 10
288.9524355858191
 20
330.6959012384828
 30
0.0
 10
288.1051446881705
 20
330.0603045126613
 30
0.0
 10
287.7054072333453
 20
329.713574934948
 30
0.0
 10
286.9549782825925
 20
328.9608415613308
 30
0.0
 10
286.6023492789964
 20
328.5517955545167
 30
0.0
 10
285.9653249264779
 20
327.6913150524587
 30
0.0
 10
285.6793167589931
 20
327.2390467719111
 30
0.0
 10
285.4265239240652
 20
326.7642786018354
 30
0.0
  0
SPLINE
  5
C2
330
1F
100
AcDbEntity
  8
0
  6
Continuous
 62
     7
370
    15
100
AcDbSpline
210
0.0
220
0.0
230
1.0
 70
     8
 71
     3
 72
    10
 73
     6
 74
     0
 42
0.00000001
 43
0.00000001
 40
0.0
 40
0.0
 40
0.0
 40
0.0
 40
0.5
 40
0.5
 40
1.0
 40
1.0
 40
1.0
 40
1.0
 10
367.8091376153853
 20
320.6592776337123
 30
0.0
 10
366.9016207063514
 20
320.6575566940496
 30
0.0
 10
366.0090628425299
 20
320.7380766507215
 30
0.0
 10
364.2523856744154
 20
321.0555132524357
 30
0.0
 10
363.3882673161502
 20
321.2924351743462
 30
0.0
 10
362.5390400337548
 20
321.6113099023632
 30
0.0
  0
SPLINE
  5
C3
330
1F
100
AcDbEntity
  8
0
  6
Continuous
 62
     7
370
    15
100
AcDbSpline
210
0.0
220
0.0
230
1.0
 70
     8
 71
     3
 72
    12
 73
     8
 74
     0
 42
0.00000001
 43
0.00000001
 40
0.0
 40
0.0
 40
0.0
 40
0.0
 40
0.5000000000000002
 40
0.5000000000000002
 40
0.7500000000000001
 40
0.7500000000000001
 40
1.0
 40
1.0
 40
1.0
 40
1.0
 10
362.289116364735
 20
282.7127586554207
 30
0.0
 10
363.2195638338279
 20
282.3823860710763
 30
0.0
 10
364.1020412502626
 20
281.9660775619859
 30
0.0
 10
365.356761720878
 20
281.2180087564009
 30
0.0
 10
365.7634177838851
 20
280.9478994652773
 30
0.0
 10
366.5530450472355
 20
280.3652477976473
 30
0.0
 10
366.9364413178824
 20
280.0521059558074
 30
0.0
 10
367.3027553966145
 20
279.7212458177588
 30
0.0
  0
SPLINE
  5
C4
330
1F
100
AcDbEntity
  8
0
  6
Continuous
 62
     7
370
    15
100
AcDbSpline
210
0.0
220
0.0
230
1.0
 70
     8
 71
     3
 72
    12
 73
     8
 74
     0
 42
0.00000001
 43
0.00000001
 40
0.0
 40
0.0
 40
0.0
 40
0.0
 40
0.25
 40
0.25
 40
0.5
 40
0.5
 40
1.0
 40
1.0
 40
1.0
 40
1.0
 10
259.907213366042
 20
310.5718142905097
 30
0.0
 10
259.4393060684199
 20
310.7358361404763
 30
0.0
 10
258.9788583525782
 20
310.9235958733929
 30
0.0
 10
258.0855550708547
 20
311.340477921339
 30
0.0
 10
257.6520564018975
 20
311.5696434086495
 30
0.0
 10
256.3900829737473
 20
312.3178413445082
 30
0.0
 10
255.5997539637346
 20
312.8969808850007
 30
0.0
 10
254.8624339767644
 20
313.5596646176083
 30
0.0
  0
SPLINE
  5
C5
330
1F
100
AcDbEntity
  8
0
  6
Continuous
 62
     7
370
    15
100
AcDbSpline
210
0.0
220
0.0
230
1.0
 70
     8
 71
     3
 72
    10
 73
     6
 74
     0
 42
0.00000001
 43
0.00000001
 40
0.0
 40
0.0
 40
0.0
 40
0.0
 40
0.5
 40
0.5
 40
1.0
 40
1.0
 40
1.0
 40
1.0
 10
254.3893000378712
 20
272.6156410817028
 30
0.0
 10
255.2905241122482
 20
272.6162896449847
 30
0.0
 10
256.1770199104073
 20
272.5357338742836
 30
0.0
 10
257.9219914864147
 20
272.220110179646
 30
0.0
 10
258.7804664826514
 20
271.9850378937539
 30
0.0
 10
259.6242793691047
 20
271.6690840924817
 30
0.0
  0
SPLINE
  5
C6
330
1F
100
AcDbEntity
  8
0
  6
Continuous
 62
     7
370
    15
100
AcDbSpline
210
0.0
220
0.0
230
1.0
 70
     8
 71
     3
 72
    27
 73
    23
 74
     0
 42
0.00000001
 43
0.00000001
 40
0.0
 40
0.0
 40
0.0
 40
0.0
 40
0.1250000000000003
 40
0.1250000000000003
 40
0.1875000000000004
 40
0.1875000000000004
 40
0.2500000000000006
 40
0.3125000000000007
 40
0.3125000000000007
 40
0.3750000000000008
 40
0.3750000000000008
 40
0.4999999999999998
 40
0.4999999999999998
 40
0.6249999999999987
 40
0.6249999999999987
 40
0.687499999999999
 40
0.687499999999999
 40
0.7499999999999992
 40
0.7499999999999992
 40
0.8749999999999996
 40
0.8749999999999996
 40
1.0
 40
1.0
 40
1.0
 40
1.0
 10
339.9260614532201
 20
284.4695922319204
 30
0.0
 10
339.8824920041196
 20
284.8074064761863
 30
0.0
 10
339.8825211975929
 20
285.1441198121094
 30
0.0
 10
339.9460300335912
 20
285.6476197987934
 30
0.0
 10
339.9782746830174
 20
285.8163492709198
 30
0.0
 10
340.0631551011519
 20
286.1453918236252
 30
0.0
 10
340.1681791666022
 20
286.466809159188
 30
0.0
 10
340.3126526333313
 20
286.773296857719
 30
0.0
 10
340.4774064100051
 20
287.0721106550209
 30
0.0
 10
340.5697251090746
 20
287.2169656975308
 30
0.0
 10
340.8694263896472
 20
287.6279329823981
 30
0.0
 10
341.1028526123329
 20
287.8761397272846
 30
0.0
 10
341.6301683145294
 20
288.31068876944
 30
0.0
 10
341.9158409399665
 20
288.4909174076038
 30
0.0
 10
342.3769535881971
 20
288.7064269108437
 30
0.0
 10
342.536753436023
 20
288.7690457328617
 30
0.0
 10
342.8587437371357
 20
288.872148523802
 30
0.0
 10
343.0219342749415
 20
288.9131852738854
 30
0.0
 10
343.5180322608101
 20
289.0050836701607
 30
0.0
 10
343.8611785943841
 20
289.0241137180344
 30
0.0
 10
344.5298455681773
 20
288.9754421645575
 30
0.0
 10
344.861111788387
 20
288.9085093833712
 30
0.0
 10
345.1817826059007
 20
288.7988011027796
 30
0.0
  0
ARC
  5
C7
330
1F
100
AcDbEntity
  8
0
  6
Continuous
 62
     7
370
    15
100
AcDbCircle
 10
278.3797723754
 20
308.3556345285
 30
0.0
 40
4.047272064067842
100
AcDbArc
 50
252.9938904055
 51
6.9270473194
  0
ARC
  5
C8
330
1F
100
AcDbEntity
  8
0
  6
Continuous
 62
     7
370
    15
100
AcDbCircle
 10
290.8597594566
 20
334.1806274546
 30
0.0
 40
2.504644115765467
100
AcDbArc
 50
294.7239343261
 51
0.9625356627
  0
LINE
  5
C9
330
1F
100
AcDbEntity
  8
0
  6
Continuous
 62
     7
370
    15
100
AcDbLine
 10
292.0901442914
 20
348.7102256207
 30
0.0
 11
293.3640501498
 21
348.7102256207
 31
0.0
  0
LINE
  5
CA
330
1F
100
AcDbEntity
  8
0
  6
Continuous
 62
     7
370
    15
100
AcDbLine
 10
328.8162372112
 20
348.7102256207
 30
0.0
 11
330.0901430695
 21
348.7102256207
 31
0.0
  0
SPLINE
  5
CB
330
1F
100
AcDbEntity
  8
0
  6
Continuous
 62
     7
370
    15
100
AcDbSpline
210
0.0
220
0.0
230
1.0
 70
     8
 71
     3
 72
     8
 73
     4
 74
     0
 42
0.00000001
 43
0.00000001
 40
0.0
 40
0.0
 40
0.0
 40
0.0
 40
0.0152340928812577
 40
0.0152340928812577
 40
0.0152340928812577
 40
0.0152340928812577
 10
349.7071462744974
 20
330.7102245477814
 30
0.0
 10
354.4512345959715
 20
328.8991407747245
 30
0.0
 10
359.1938456845696
 20
327.0841896500939
 30
0.0
 10
363.9375100707426
 20
325.2719957790277
 30
0.0
  0
SPLINE
  5
CC
330
1F
100
AcDbEntity
  8
0
  6
Continuous
 62
     7
370
    15
100
AcDbSpline
210
0.0
220
0.0
230
1.0
 70
    24
 71
     3
 72
    22
 73
    18
 74
     0
 42
0.00000001
 43
0.00000001
 40
0.0
 40
0.0
 40
0.0
 40
0.0
 40
0.0625000000000003
 40
0.0625000000000003
 40
0.1250000000000006
 40
0.1250000000000006
 40
0.1875000000000009
 40
0.1875000000000009
 40
0.2500000000000011
 40
0.2500000000000011
 40
0.3750000000000016
 40
0.3750000000000016
 40
0.5000000000000012
 40
0.5000000000000012
 40
0.7500000000000006
 40
0.7500000000000006
 40
1.0
 40
1.0
 40
1.0
 40
1.0
 10
338.5599687039576
 20
330.7102245477814
 30
0.0
 10
338.6260067025663
 20
330.7102245477814
 30
0.0
 10
338.7515108470229
 20
330.7102245477814
 30
0.0
 10
339.0652245985337
 20
330.7102245477814
 30
0.0
 10
339.2481814193357
 20
330.7102245477814
 30
0.0
 10
339.6451953985421
 20
330.7102245477814
 30
0.0
 10
339.8591302692729
 20
330.7102245477814
 30
0.0
 10
340.2971369390582
 20
330.7102245477814
 30
0.0
 10
340.5230011081726
 20
330.7102245477814
 30
0.0
 10
341.2152732534319
 20
330.7102245477814
 30
0.0
 10
341.6985399970264
 20
330.7102245477814
 30
0.0
 10
342.6698437233771
 20
330.7102245477814
 30
0.0
 10
343.1602764604646
 20
330.7102245477814
 30
0.0
 10
344.6417593126391
 20
330.7102245477814
 30
0.0
 10
345.6428172901768
 20
330.7102245477814
 30
0.0
 10
347.6639310591721
 20
330.7102245477814
 30
0.0
 10
348.6860493216629
 20
330.7102245477814
 30
0.0
 10
349.7071462744974
 20
330.7102245477814
 30
0.0
  0
LWPOLYLINE
  5
CD
330
1F
100
AcDbEntity
  8
0
  6
Continuous
 62
     7
370
    15
100
AcDbPolyline
 90
        9
 70
   128
 43
0.0
 10
257.5135811269
 20
316.487908089
 10
257.0419817268
 20
315.9670156477
 10
256.5850450694
 20
315.4623226313
 10
256.1569905876
 20
314.989527413
 10
255.7711250185
 20
314.5633299885
 10
255.4394475221
 20
314.1969886659
 10
255.1722808778
 20
313.9018953828
 10
254.9779287576
 20
313.6872292546
 10
254.8624335825
 20
313.559664139
  0
SPLINE
  5
CE
330
1F
100
AcDbEntity
  8
0
  6
Continuous
 62
     7
370
    15
100
AcDbSpline
210
0.0
220
0.0
230
1.0
 70
     8
 71
     3
 72
    12
 73
     8
 74
     0
 42
0.00000001
 43
0.00000001
 40
0.0
 40
0.0
 40
0.0
 40
0.0
 40
0.5
 40
0.5
 40
0.75
 40
0.75
 40
1.0
 40
1.0
 40
1.0
 40
1.0
 10
257.5135825455028
 20
316.4879088309911
 30
0.0
 10
258.052943393266
 20
315.9995869440919
 30
0.0
 10
258.6315185948705
 20
315.5728447773287
 30
0.0
 10
259.5561674404748
 20
315.0219047075428
 30
0.0
 10
259.8739173024058
 20
314.8532289436821
 30
0.0
 10
260.5289787821408
 20
314.5465959497128
 30
0.0
 10
260.8667739659981
 20
314.408606805925
 30
0.0
 10
261.2101058565892
 20
314.2882427113251
 30
0.0
  0
LWPOLYLINE
  5
CF
330
1F
100
AcDbEntity
  8
0
  6
Continuous
 62
     7
370
    15
100
AcDbPolyline
 90
        9
 70
   128
 43
0.0
 10
261.2101047336
 20
314.288243377
 10
260.9805523454
 20
313.6334546892
 10
260.7579587995
 20
312.998519936
 10
260.5490743219
 20
312.4026895551
 10
260.3602319061
 20
311.8640284104
 10
260.1971610486
 20
311.3988700373
 10
260.064797759
 20
311.0213165222
 10
259.9671616255
 20
310.7428166134
 10
259.9072142541
 20
310.5718146128
  0
SPLINE
  5
D0
330
1F
100
AcDbEntity
  8
0
  6
Continuous
 62
     7
370
    15
100
AcDbSpline
210
0.0
220
0.0
230
1.0
 70
    24
 71
     3
 72
    14
 73
    10
 74
     0
 42
0.00000001
 43
0.00000001
 40
0.0
 40
0.0
 40
0.0
 40
0.0
 40
0.25
 40
0.25
 40
0.5
 40
0.5
 40
0.75
 40
0.75
 40
1.0
 40
1.0
 40
1.0
 40
1.0
 10
283.2987737717701
 20
330.7102245477814
 30
0.0
 10
283.6685775758868
 20
330.7102245477814
 30
0.0
 10
284.0335157512824
 20
330.7102245477814
 30
0.0
 10
284.7547974084425
 20
330.7102245477814
 30
0.0
 10
285.113080810024
 20
330.7102245477814
 30
0.0
 10
285.8121343812245
 20
330.7102245477814
 30
0.0
 10
286.1494353047151
 20
330.7102245477814
 30
0.0
 10
286.7997216810965
 20
330.7102245477814
 30
0.0
 10
287.1135675507173
 20
330.7102245477814
 30
0.0
 10
287.4112840377364
 20
330.7102245477814
 30
0.0
  0
SPLINE
  5
D1
330
1F
100
AcDbEntity
  8
0
  6
Continuous
 62
     7
370
    15
100
AcDbSpline
210
0.0
220
0.0
230
1.0
 70
     8
 71
     3
 72
    14
 73
    10
 74
     0
 42
0.00000001
 43
0.00000001
 40
0.0
 40
0.0
 40
0.0
 40
0.0
 40
0.4999999999999991
 40
0.4999999999999991
 40
0.7499999999999978
 40
0.7499999999999978
 40
0.8749999999999989
 40
0.8749999999999989
 40
1.0
 40
1.0
 40
1.0
 40
1.0
 10
287.4112840377435
 20
330.7102245477814
 30
0.0
 10
287.8630467590922
 20
330.7102245477814
 30
0.0
 10
288.2853040564955
 20
330.7681161497496
 30
0.0
 10
288.8955809092112
 20
330.9081689105919
 30
0.0
 10
289.0949633623318
 20
330.9641118545644
 30
0.0
 10
289.3894655207788
 20
331.0600869837269
 30
0.0
 10
289.4868657248791
 20
331.0940999585371
 30
0.0
 10
289.6803258327048
 20
331.1659825445399
 30
0.0
 10
289.7772319733319
 20
331.2042073357471
 30
0.0
 10
289.8717752315374
 20
331.2435578811148
 30
0.0
  0
LWPOLYLINE
  5
D2
330
1F
100
AcDbEntity
  8
0
  6
Continuous
 62
     7
370
    15
100
AcDbPolyline
 90
        9
 70
   128
 43
0.0
 10
281.9467115252
 20
328.6021181432
 10
282.5584917366
 20
328.2790088145
 10
283.1518317609
 20
327.9656411199
 10
283.7088427543
 20
327.6714586703
 10
284.2127366959
 20
327.405331382
 10
284.648321852
 20
327.1752798049
 10
285.0024684369
 20
326.9882404296
 10
285.2645034938
 20
326.8498496203
 10
285.4265238195
 20
326.7642778395
  0
SPLINE
  5
D3
330
1F
100
AcDbEntity
  8
0
  6
Continuous
 62
     7
370
    15
100
AcDbSpline
210
0.0
220
0.0
230
1.0
 70
     8
 71
     3
 72
     8
 73
     4
 74
     0
 42
0.00000001
 43
0.00000001
 40
0.0
 40
0.0
 40
0.0
 40
0.0
 40
1.0
 40
1.0
 40
1.0
 40
1.0
 10
281.9467110757354
 20
328.6021164396733
 30
0.0
 10
282.3379690534878
 20
329.3429350853466
 30
0.0
 10
282.7887860586225
 20
330.0455547701479
 30
0.0
 10
283.2987737717701
 20
330.7102245477814
 30
0.0
  0
SPLINE
  5
D4
330
1F
100
AcDbEntity
  8
0
  6
Continuous
 62
     7
370
    15
100
AcDbSpline
210
0.0
220
0.0
230
1.0
 70
     8
 71
     3
 72
    10
 73
     6
 74
     0
 42
0.00000001
 43
0.00000001
 40
0.0
 40
0.0
 40
0.0
 40
0.0
 40
0.5
 40
0.5
 40
1.0
 40
1.0
 40
1.0
 40
1.0
 10
363.9375100707426
 20
325.2719957790277
 30
0.0
 10
364.5597273320141
 20
325.0342938221536
 30
0.0
 10
365.1931228465484
 20
324.8573329945875
 30
0.0
 10
366.4813666638461
 20
324.6199829140288
 30
0.0
 10
367.1362135165656
 20
324.5595857816929
 30
0.0
 10
367.8023874293868
 20
324.5607383750719
 30
0.0
  0
LWPOLYLINE
  5
D5
330
1F
100
AcDbEntity
  8
0
  6
Continuous
 62
     7
370
    15
100
AcDbPolyline
 90
        9
 70
   128
 43
0.0
 10
367.8023873865
 20
324.5607388256
 10
367.8035496771
 20
323.8897376744
 10
367.8046747147
 20
323.2377559928
 10
367.8057401478
 20
322.6232656328
 10
367.8067087232
 20
322.0636879144
 10
367.8075543641
 20
321.5748776732
 10
367.8082509934
 20
321.1706892637
 10
367.8087874352
 20
320.8625798164
 10
367.8091376125
 20
320.6592776863
  0
LINE
  5
D6
330
1F
100
AcDbEntity
  8
0
  6
Continuous
 62
     7
370
    15
100
AcDbLine
 10
371.0901423394
 20
324.5670494674
 30
0.0
 11
371.0901423394
 21
330.7102263955
 31
0.0
  0
ARC
  5
D7
330
1F
100
AcDbEntity
  8
0
  6
Continuous
 62
     7
370
    15
100
AcDbCircle
 10
371.0901436805
 20
334.7102245478
 30
0.0
 40
4.0
100
AcDbArc
 50
270.0
 51
0.0
  0
LINE
  5
D8
330
1F
100
AcDbEntity
  8
0
  6
Continuous
 62
     7
370
    15
100
AcDbLine
 10
371.0901423394
 20
324.5670494674
 30
0.0
 11
375.0901467203
 21
324.5670494674
 31
0.0
  0
LWPOLYLINE
  5
D9
330
1F
100
AcDbEntity
  8
0
  6
Continuous
 62
     7
370
    15
100
AcDbPolyline
 90
        9
 70
   128
 43
0.0
 10
371.0901423394
 20
324.5670494674
 10
371.091535598
 20
323.8937516747
 10
371.0928916036
 20
323.2396689294
 10
371.0941656529
 20
322.6234649358
 10
371.0953242182
 20
322.0627249269
 10
371.0963374972
 20
321.573450887
 10
371.0971756875
 20
321.1696033416
 10
371.0978089868
 20
320.8627064762
 10
371.0982262193
 20
320.661520311
  0
ARC
  5
DA
330
1F
100
AcDbEntity
  8
0
  6
Continuous
 62
     7
370
    15
100
AcDbCircle
 10
251.0901436805
 20
334.7102245478
 30
0.0
 40
4.0
100
AcDbArc
 50
180.0
 51
270.0
  0
LINE
  5
DB
330
1F
100
AcDbEntity
  8
0
  6
Continuous
 62
     7
370
    15
100
AcDbLine
 10
251.0901450216
 20
330.7102263955
 30
0.0
 11
251.0901450216
 21
322.3194197802
 31
0.0
  0
LINE
  5
DC
330
1F
100
AcDbEntity
  8
0
  6
Continuous
 62
     7
370
    15
100
AcDbLine
 10
251.0901450216
 20
322.3194197802
 30
0.0
 11
247.0901406407
 21
322.3194197802
 31
0.0
  0
LWPOLYLINE
  5
DD
330
1F
100
AcDbEntity
  8
0
  6
Continuous
 62
     7
370
    15
100
AcDbPolyline
 90
        9
 70
   128
 43
0.0
 10
251.0901450216
 20
322.3194197802
 10
250.6188883483
 20
321.80149267
 10
250.1621901094
 20
321.2995619563
 10
249.7341468035
 20
320.8291285721
 10
249.3479832112
 20
320.4047211496
 10
249.0156277119
 20
320.0394471226
 10
248.7473397552
 20
319.7445866702
 10
248.551408112
 20
319.5292499898
 10
248.4338752031
 20
319.4000829993
  0
SPLINE
  5
DE
330
1F
100
AcDbEntity
  8
0
  6
Continuous
 62
     7
370
    15
100
AcDbSpline
210
0.0
220
0.0
230
1.0
 70
     8
 71
     3
 72
     8
 73
     4
 74
     0
 42
0.00000001
 43
0.00000001
 40
0.0
 40
0.0
 40
0.0
 40
0.0
 40
1.0
 40
1.0
 40
1.0
 40
1.0
 10
261.2101058565916
 20
314.2882427113308
 30
0.0
 10
266.972895875222
 20
312.2679439218212
 30
0.0
 10
272.739672527678
 20
310.2590682632726
 30
0.0
 10
278.5069734422871
 20
308.2516948032102
 30
0.0
  0
LWPOLYLINE
  5
DF
330
1F
100
AcDbEntity
  8
0
  6
Continuous
 62
     7
370
    15
100
AcDbPolyline
 90
        9
 70
   128
 43
0.0
 10
278.5069740414
 20
308.2516945017
 10
278.2629675268
 20
307.550647953
 10
278.0274360477
 20
306.8739545582
 10
277.8085640668
 20
306.2451236931
 10
277.6139549016
 20
305.6860004602
 10
277.450369954
 20
305.2160085229
 10
277.3234902918
 20
304.8514748974
 10
277.2377229332
 20
304.6050637079
 10
277.1960518359
 20
304.485335206
  0
LWPOLYLINE
  5
E0
330
1F
100
AcDbEntity
  8
0
  6
Continuous
 62
     7
370
    15
100
AcDbPolyline
 90
        9
 70
   128
 43
0.0
 10
278.5069740414
 20
308.2516945017
 10
279.1909634172
 20
308.3557847006
 10
279.8543314486
 20
308.4567363424
 10
280.4770863651
 20
308.5515077276
 10
281.0404527038
 20
308.6372415585
 10
281.5274505913
 20
308.711353415
 10
281.9233967959
 20
308.771608123
 10
282.2163573503
 20
308.816191466
 10
282.3975014537
 20
308.8437576828
  0
SPLINE
  5
E1
330
1F
100
AcDbEntity
  8
0
  6
Continuous
 62
     7
370
    15
100
AcDbSpline
210
0.0
220
0.0
230
1.0
 70
     8
 71
     3
 72
    12
 73
     8
 74
     0
 42
0.00000001
 43
0.00000001
 40
0.0
 40
0.0
 40
0.0
 40
0.0
 40
0.250000000000001
 40
0.250000000000001
 40
0.500000000000002
 40
0.500000000000002
 40
1.0
 40
1.0
 40
1.0
 40
1.0
 10
365.3055553111088
 20
277.5189562407266
 30
0.0
 10
365.0129091437464
 20
277.7843495643723
 30
0.0
 10
364.7065287397912
 20
278.0355479860655
 30
0.0
 10
364.0753873988464
 20
278.5028903580488
 30
0.0
 10
363.750286317508
 20
278.7195175810832
 30
0.0
 10
362.7469901141486
 20
279.3193372991498
 30
0.0
 10
362.0410746335439
 20
279.6529553559436
 30
0.0
 10
361.2964628785408
 20
279.917369904441
 30
0.0
  0
LWPOLYLINE
  5
E2
330
1F
100
AcDbEntity
  8
0
  6
Continuous
 62
     7
370
    15
100
AcDbPolyline
 90
        9
 70
   128
 43
0.0
 10
361.2964621782
 20
279.9173702536
 10
361.473845601
 20
280.4168888418
 10
361.6456410884
 20
280.9006885676
 10
361.80645442
 20
281.3535441695
 10
361.9512154757
 20
281.7612073434
 10
362.0753756761
 20
282.110849121
 10
362.1750234663
 20
282.3914668573
 10
362.2470258772
 20
282.5942306829
 10
362.2891179322
 20
282.7127582444
  0
LWPOLYLINE
  5
E3
330
1F
100
AcDbEntity
  8
0
  6
Continuous
 62
     7
370
    15
100
AcDbPolyline
 90
        9
 70
   128
 43
0.0
 10
365.3055562674
 20
277.5189557163
 10
365.6655124425
 20
277.915877947
 10
366.0138978659
 20
278.3000354705
 10
366.3394994139
 20
278.6590733616
 10
366.6318490206
 20
278.9814432202
 10
366.8815440535
 20
279.2567794261
 10
367.0805527865
 20
279.4762251017
 10
367.2224788963
 20
279.6327264098
 10
367.3027551769
 20
279.7212448953
  0
SPLINE
  5
E4
330
1F
100
AcDbEntity
  8
0
  6
Continuous
 62
     7
370
    15
100
AcDbSpline
210
0.0
220
0.0
230
1.0
 70
     8
 71
     3
 72
    10
 73
     6
 74
     0
 42
0.00000001
 43
0.00000001
 40
0.0
 40
0.0
 40
0.0
 40
0.0
 40
0.5
 40
0.5
 40
1.0
 40
1.0
 40
1.0
 40
1.0
 10
258.5792330938561
 20
268.905677677902
 30
0.0
 10
257.9045422433828
 20
269.1608276828059
 30
0.0
 10
257.2179559095285
 20
269.3508854734723
 30
0.0
 10
255.8219792977347
 20
269.6062176251336
 30
0.0
 10
255.1125900680193
 20
269.6714977220233
 30
0.0
 10
254.3911865569309
 20
269.671035540772
 30
0.0
  0
SPLINE
  5
E5
330
1F
100
AcDbEntity
  8
0
  6
Continuous
 62
     7
370
    15
100
AcDbSpline
210
0.0
220
0.0
230
1.0
 70
     8
 71
     3
 72
    11
 73
     7
 74
     0
 42
0.00000001
 43
0.00000001
 40
0.0
 40
0.0
 40
0.0
 40
0.0
 40
0.0050338950290746
 40
0.0050338950290746
 40
0.0050338950290746
 40
0.0086756617180105
 40
0.0086756617180105
 40
0.0086756617180105
 40
0.0086756617180105
 10
251.0901436804974
 20
322.319419266824
 30
0.0
 10
252.331245465131
 20
321.1901571475937
 30
0.0
 10
253.5729357352653
 20
320.0615411416642
 30
0.0
 10
254.815454788646
 20
318.933838620724
 30
0.0
 10
255.7143540896146
 20
318.1180032377448
 30
0.0
 10
256.6136886587591
 20
317.3026470208436
 30
0.0
 10
257.5135825455029
 20
316.4879088309912
 30
0.0
  0
ARC
  5
E6
330
1F
100
AcDbEntity
  8
0
  6
Continuous
 62
     7
370
    15
100
AcDbCircle
 10
311.0901436805
 20
313.2102245478
 30
0.0
 40
32.9583069953575
100
AcDbArc
 50
152.1595516885
 51
188.6529220074
  0
LWPOLYLINE
  5
E7
330
1F
100
AcDbEntity
  8
0
  6
Continuous
 62
     7
370
    15
100
AcDbPolyline
 90
        9
 70
   128
 43
0.0
 10
251.0868146121
 20
272.6157044111
 10
251.0869338214
 20
272.4753783135
 10
251.0871238112
 20
272.2513933716
 10
251.0873771309
 20
271.9504253058
 10
251.0876900553
 20
271.5814464776
 10
251.0880514085
 20
271.1554502187
 10
251.0884500145
 20
270.6851379065
 10
251.0888746976
 20
270.1845240829
 10
251.0893105566
 20
269.6685322611
  0
SPLINE
  5
E8
330
1F
100
AcDbEntity
  8
0
  6
Continuous
 62
     7
370
    15
100
AcDbSpline
210
0.0
220
0.0
230
1.0
 70
     8
 71
     3
 72
    12
 73
     8
 74
     0
 42
0.00000001
 43
0.00000001
 40
0.0
 40
0.0
 40
0.0
 40
0.0
 40
0.4999999999999954
 40
0.4999999999999954
 40
0.7499999999999977
 40
0.7499999999999977
 40
1.0
 40
1.0
 40
1.0
 40
1.0
 10
251.0893111241703
 20
269.6685326185963
 30
0.0
 10
250.8229597448822
 20
269.6683068911914
 30
0.0
 10
250.5630592806292
 20
269.5554662506268
 30
0.0
 10
250.2877860070012
 20
269.2725809965901
 30
0.0
 10
250.2145667273223
 20
269.1600761494392
 30
0.0
 10
250.1155948688161
 20
268.914901021876
 30
0.0
 10
250.0901436804973
 20
268.7843808620768
 30
0.0
 10
250.0901436804978
 20
268.6512701988398
 30
0.0
  0
LINE
  5
E9
330
1F
100
AcDbEntity
  8
0
  6
Continuous
 62
     7
370
    15
100
AcDbLine
 10
247.0901406407
 20
268.6512709645
 30
0.0
 11
250.090142995
 21
268.6512709645
 31
0.0
  0
SPLINE
  5
EA
330
1F
100
AcDbEntity
  8
0
  6
Continuous
 62
     7
370
    15
100
AcDbSpline
210
0.0
220
0.0
230
1.0
 70
     8
 71
     3
 72
    12
 73
     8
 74
     0
 42
0.00000001
 43
0.00000001
 40
0.0
 40
0.0
 40
0.0
 40
0.0
 40
0.500000000000007
 40
0.500000000000007
 40
0.7500000000000034
 40
0.7500000000000034
 40
1.0
 40
1.0
 40
1.0
 40
1.0
 10
338.6400983084094
 20
241.7102245477814
 30
0.0
 10
338.6400983084094
 20
241.4439408223906
 30
0.0
 10
338.7524896072825
 20
241.1839073730498
 30
0.0
 10
339.0348604504203
 20
240.9082954336328
 30
0.0
 10
339.1472678656548
 20
240.834918737689
 30
0.0
 10
339.3922700541849
 20
240.735745766403
 30
0.0
 10
339.5227748678967
 20
240.7102245477814
 30
0.0
 10
339.655857394669
 20
240.7102245477814
 30
0.0
  0
LINE
  5
EB
330
1F
100
AcDbEntity
  8
0
  6
Continuous
 62
     7
370
    15
100
AcDbLine
 10
339.6558578163
 20
240.7102228192
 30
0.0
 11
339.6558578163
 21
237.7102241902
 31
0.0
  0
LINE
  5
EC
330
1F
100
AcDbEntity
  8
0
  6
Continuous
 62
     7
370
    15
100
AcDbLine
 10
338.6400978117
 20
241.7102248458
 30
0.0
 11
335.6883174776
 21
241.7102248458
 31
0.0
  0
SPLINE
  5
ED
330
1F
100
AcDbEntity
  8
0
  6
Continuous
 62
     7
370
    15
100
AcDbSpline
210
0.0
220
0.0
230
1.0
 70
     8
 71
     3
 72
    10
 73
     6
 74
     0
 42
0.00000001
 43
0.00000001
 40
0.0
 40
0.0
 40
0.0
 40
0.0
 40
0.5
 40
0.5
 40
1.0
 40
1.0
 40
1.0
 40
1.0
 10
372.0901436804975
 20
270.8980190464077
 30
0.0
 10
372.0901436804975
 20
271.0412489703038
 30
0.0
 10
372.0602660630411
 20
271.1827404774254
 30
0.0
 10
371.9463207128584
 20
271.4424038163708
 30
0.0
 10
371.8627797805769
 20
271.5597411964374
 30
0.0
 10
371.7568370955294
 20
271.656184444211
 30
0.0
  0
LWPOLYLINE
  5
EE
330
1F
100
AcDbEntity
  8
0
  6
Continuous
 62
     7
370
    15
100
AcDbPolyline
 90
        9
 70
   128
 43
0.0
 10
371.7568389177
 20
271.6561851142
 10
372.1163815855
 20
272.0511441169
 10
372.4644391834
 20
272.4334836988
 10
372.7898879945
 20
272.7909867702
 10
373.0823270082
 20
273.1122315911
 10
373.3324169218
 20
273.3869549868
 10
373.5321632623
 20
273.6063764481
 10
373.6751846074
 20
273.7634887038
 10
373.7569174766
 20
273.8532682
  0
LINE
  5
EF
330
1F
100
AcDbEntity
  8
0
  6
Continuous
 62
     7
370
    15
100
AcDbLine
 10
372.090144366
 20
270.8980196206
 30
0.0
 11
375.0901467203
 21
270.8980196206
 31
0.0
  0
LINE
  5
F0
330
1F
100
AcDbEntity
  8
0
  6
Continuous
 62
     7
370
    15
100
AcDbLine
 10
372.090144366
 20
241.1854618279
 30
0.0
 11
372.090144366
 21
270.8980196206
 31
0.0
  0
SPLINE
  5
F1
330
1F
100
AcDbEntity
  8
0
  6
Continuous
 62
     7
370
    15
100
AcDbSpline
210
0.0
220
0.0
230
1.0
 70
     8
 71
     3
 72
    22
 73
    18
 74
     0
 42
0.00000001
 43
0.00000001
 40
0.0
 40
0.0
 40
0.0
 40
0.0
 40
0.1250000000000002
 40
0.1250000000000002
 40
0.2500000000000003
 40
0.2500000000000003
 40
0.3750000000000003
 40
0.3750000000000003
 40
0.5000000000000002
 40
0.5000000000000002
 40
0.6250000000000001
 40
0.6250000000000001
 40
0.7500000000000001
 40
0.7500000000000001
 40
0.875
 40
0.875
 40
1.0
 40
1.0
 40
1.0
 40
1.0
 10
375.0901436804975
 20
239.4280283608334
 30
0.0
 10
375.0901436804975
 20
239.4093379116925
 30
0.0
 10
375.0670288460764
 20
239.4278576287835
 30
0.0
 10
374.9798225348488
 20
239.5255099691618
 30
0.0
 10
374.9179969849591
 20
239.6008894440692
 30
0.0
 10
374.7629445705777
 20
239.7783438815113
 30
0.0
 10
374.671593167709
 20
239.8781490792161
 30
0.0
 10
374.4639138578852
 20
240.0831464318246
 30
0.0
 10
374.3468721876103
 20
240.1892252026542
 30
0.0
 10
374.0853130311893
 20
240.3986837413791
 30
0.0
 10
373.9434015956587
 20
240.5000772528296
 30
0.0
 10
373.6346017943885
 20
240.6909043939609
 30
0.0
 10
373.4667191692657
 20
240.7808903019647
 30
0.0
 10
373.1043442784726
 20
240.9414436230999
 30
0.0
 10
372.9142361457205
 20
241.0101952877076
 30
0.0
 10
372.5136866582816
 20
241.1205184172856
 30
0.0
 10
372.3030651542183
 20
241.1616642611787
 30
0.0
 10
372.0901436804975
 20
241.1854621465519
 30
0.0
  0
SPLINE
  5
F2
330
1F
100
AcDbEntity
  8
0
  6
Continuous
 62
     7
370
    15
100
AcDbSpline
210
0.0
220
0.0
230
1.0
 70
     8
 71
     3
 72
     8
 73
     4
 74
     0
 42
0.00000001
 43
0.00000001
 40
0.0
 40
0.0
 40
0.0
 40
0.0
 40
1.0
 40
1.0
 40
1.0
 40
1.0
 10
371.6456618689917
 20
241.2102245477814
 30
0.0
 10
371.7952281480012
 20
241.2102245477814
 30
0.0
 10
371.9433710859327
 20
241.2018666797366
 30
0.0
 10
372.0901436804975
 20
241.1854621465519
 30
0.0
  0
LINE
  5
F3
330
1F
100
AcDbEntity
  8
0
  6
Continuous
 62
     7
370
    15
100
AcDbLine
 10
282.5244295447
 20
237.7102241902
 30
0.0
 11
282.5244295447
 21
240.7102228192
 31
0.0
  0
SPLINE
  5
F4
330
1F
100
AcDbEntity
  8
0
  6
Continuous
 62
     7
370
    15
100
AcDbSpline
210
0.0
220
0.0
230
1.0
 70
     8
 71
     3
 72
    14
 73
    10
 74
     0
 42
0.00000001
 43
0.00000001
 40
0.0
 40
0.0
 40
0.0
 40
0.0
 40
0.25
 40
0.25
 40
0.5
 40
0.5
 40
0.75
 40
0.75
 40
1.0
 40
1.0
 40
1.0
 40
1.0
 10
282.5244299663262
 20
240.7102245477814
 30
0.0
 10
282.6574768230905
 20
240.7102245477814
 30
0.0
 10
282.7897539453562
 20
240.7363248633268
 30
0.0
 10
283.0329508760191
 20
240.8350156806295
 30
0.0
 10
283.1461234344476
 20
240.9088456452304
 30
0.0
 10
283.3339997001674
 20
241.0924848417373
 30
0.0
 10
283.4102150984763
 20
241.2035132328879
 30
0.0
 10
283.5132822565241
 20
241.4464582023106
 30
0.0
 10
283.5401890525858
 20
241.5771204147983
 30
0.0
 10
283.5401890525858
 20
241.7102245477814
 30
0.0
  0
LINE
  5
F5
330
1F
100
AcDbEntity
  8
0
  6
Continuous
 62
     7
370
    15
100
AcDbLine
 10
286.4919698834
 20
241.7102248458
 30
0.0
 11
283.5401895493
 21
241.7102248458
 31
0.0
  0
LINE
  5
F6
330
1F
100
AcDbEntity
  8
0
  6
Continuous
 62
     7
370
    15
100
AcDbLine
 10
339.6558578163
 20
240.7102228192
 30
0.0
 11
367.3653996586
 21
240.7102228192
 31
0.0
  0
LINE
  5
F7
330
1F
100
AcDbEntity
  8
0
  6
Continuous
 62
     7
370
    15
100
AcDbLine
 10
368.5901447236
 20
237.7102241902
 30
0.0
 11
368.3723381757
 21
237.7102241902
 31
0.0
  0
SPLINE
  5
F8
330
1F
100
AcDbEntity
  8
0
  6
Continuous
 62
     7
370
    15
100
AcDbSpline
210
0.0
220
0.0
230
1.0
 70
     8
 71
     3
 72
    26
 73
    22
 74
     0
 42
0.00000001
 43
0.00000001
 40
0.0
 40
0.0
 40
0.0
 40
0.0
 40
0.0624999999999987
 40
0.0624999999999987
 40
0.1249999999999974
 40
0.1249999999999974
 40
0.1874999999999961
 40
0.1874999999999961
 40
0.2499999999999948
 40
0.2499999999999948
 40
0.3749999999999957
 40
0.3749999999999957
 40
0.4999999999999966
 40
0.4999999999999966
 40
0.6249999999999974
 40
0.6249999999999974
 40
0.7499999999999982
 40
0.7499999999999982
 40
0.8749999999999991
 40
0.8749999999999991
 40
1.0
 40
1.0
 40
1.0
 40
1.0
 10
367.365398809106
 20
240.7102245477814
 30
0.0
 10
367.2850104322119
 20
240.631460345925
 30
0.0
 10
367.213474998856
 20
240.5463040620176
 30
0.0
 10
367.087448122077
 20
240.3639343623565
 30
0.0
 10
367.0325161055009
 20
240.2654316237121
 30
0.0
 10
366.9440669903709
 20
240.0643715727188
 30
0.0
 10
366.9100654377298
 20
239.9615923016641
 30
0.0
 10
366.8613688815845
 20
239.7524063766113
 30
0.0
 10
366.8471128938716
 20
239.6468852327845
 30
0.0
 10
366.8323025759885
 20
239.3398551616979
 30
0.0
 10
366.8593823353332
 20
239.1427371231236
 30
0.0
 10
366.963217021791
 20
238.7898196358656
 30
0.0
 10
367.0398073366472
 20
238.6321644767881
 30
0.0
 10
367.2200057499323
 20
238.3593393078661
 30
0.0
 10
367.3259018009845
 20
238.2409430886678
 30
0.0
 10
367.5515959274909
 20
238.0437594507255
 30
0.0
 10
367.6718176498551
 20
237.9638872576944
 30
0.0
 10
367.9230166997963
 20
237.8362511564104
 30
0.0
 10
368.054676268108
 20
237.7885857765527
 30
0.0
 10
368.3201293302694
 20
237.7258100120152
 30
0.0
 10
368.4553607111155
 20
237.7102245477785
 30
0.0
 10
368.5901436804976
 20
237.7102245477785
 30
0.0
  0
LINE
  5
F9
330
1F
100
AcDbEntity
  8
0
  6
Continuous
 62
     7
370
    15
100
AcDbLine
 10
254.8148877024
 20
240.7102228192
 30
0.0
 11
282.5244295447
 21
240.7102228192
 31
0.0
  0
LINE
  5
FA
330
1F
100
AcDbEntity
  8
0
  6
Continuous
 62
     7
370
    15
100
AcDbLine
 10
253.8079491853
 20
237.7102241902
 30
0.0
 11
253.5901426374
 21
237.7102241902
 31
0.0
  0
SPLINE
  5
FB
330
1F
100
AcDbEntity
  8
0
  6
Continuous
 62
     7
370
    15
100
AcDbSpline
210
0.0
220
0.0
230
1.0
 70
     8
 71
     3
 72
    26
 73
    22
 74
     0
 42
0.00000001
 43
0.00000001
 40
0.0
 40
0.0
 40
0.0
 40
0.0
 40
0.0625000000000014
 40
0.0625000000000014
 40
0.1250000000000028
 40
0.1250000000000028
 40
0.1875000000000042
 40
0.1875000000000042
 40
0.2500000000000057
 40
0.2500000000000057
 40
0.3750000000000047
 40
0.3750000000000047
 40
0.5000000000000038
 40
0.5000000000000038
 40
0.6250000000000028
 40
0.6250000000000028
 40
0.7500000000000019
 40
0.7500000000000019
 40
0.8750000000000009
 40
0.8750000000000009
 40
1.0
 40
1.0
 40
1.0
 40
1.0
 10
254.8148885518885
 20
240.7102245477814
 30
0.0
 10
254.8952769287826
 20
240.6314603459251
 30
0.0
 10
254.9668123621385
 20
240.5463040620177
 30
0.0
 10
255.0928392389177
 20
240.3639343623566
 30
0.0
 10
255.1477712554938
 20
240.2654316237122
 30
0.0
 10
255.2362203706238
 20
240.0643715727189
 30
0.0
 10
255.270221923265
 20
239.9615923016642
 30
0.0
 10
255.3189184794103
 20
239.7524063766114
 30
0.0
 10
255.3331744671233
 20
239.6468852327846
 30
0.0
 10
255.3479847850064
 20
239.339855161698
 30
0.0
 10
255.3209050256618
 20
239.1427371231237
 30
0.0
 10
255.217070339204
 20
238.7898196358657
 30
0.0
 10
255.1404800243479
 20
238.6321644767882
 30
0.0
 10
254.9602816110628
 20
238.3593393078662
 30
0.0
 10
254.8543855600106
 20
238.2409430886679
 30
0.0
 10
254.6286914335043
 20
238.0437594507255
 30
0.0
 10
254.50846971114
 20
237.9638872576944
 30
0.0
 10
254.2572706611988
 20
237.8362511564104
 30
0.0
 10
254.1256110928871
 20
237.7885857765527
 30
0.0
 10
253.8601580307257
 20
237.7258100120153
 30
0.0
 10
253.7249266498454
 20
237.7102245477815
 30
0.0
 10
253.5901436804976
 20
237.7102245477814
 30
0.0
  0
SPLINE
  5
FC
330
1F
100
AcDbEntity
  8
0
  6
Continuous
 62
     7
370
    15
100
AcDbSpline
210
0.0
220
0.0
230
1.0
 70
     8
 71
     3
 72
    20
 73
    16
 74
     0
 42
0.00000001
 43
0.00000001
 40
0.0
 40
0.0
 40
0.0
 40
0.0
 40
0.1250000000000001
 40
0.1250000000000001
 40
0.249999999999996
 40
0.249999999999996
 40
0.499999999999997
 40
0.499999999999997
 40
0.7499999999999979
 40
0.7499999999999979
 40
0.8749999999999999
 40
0.8749999999999999
 40
0.9374999999999999
 40
0.9374999999999999
 40
1.0
 40
1.0
 40
1.0
 40
1.0
 10
249.089723440994
 20
241.2102245477809
 30
0.0
 10
248.923870769616
 20
241.2102245477809
 30
0.0
 10
248.7676107342743
 20
241.1899885978712
 30
0.0
 10
248.4716300328307
 20
241.1184846671014
 30
0.0
 10
248.3320255213241
 20
241.0665854460019
 30
0.0
 10
247.9547916763645
 20
240.881204892056
 30
0.0
 10
247.7478852954874
 20
240.7141952742114
 30
0.0
 10
247.4252886019381
 20
240.3493248380389
 30
0.0
 10
247.3051282154927
 20
240.1468676486917
 30
0.0
 10
247.1815225059638
 20
239.837100044878
 30
0.0
 10
247.1497447837433
 20
239.7319678494272
 30
0.0
 10
247.1161181091657
 20
239.5833915561867
 30
0.0
 10
247.1072163005883
 20
239.534949517135
 30
0.0
 10
247.0942607934994
 20
239.4533854471223
 30
0.0
 10
247.090143680498
 20
239.4202819892528
 30
0.0
 10
247.090143680498
 20
239.4280283608328
 30
0.0
  0
LINE
  5
FD
330
1F
100
AcDbEntity
  8
0
  6
Continuous
 62
     7
370
    15
100
AcDbLine
 10
250.090142995
 20
268.6512709645
 30
0.0
 11
250.090142995
 21
241.2102238325
 31
0.0
  0
LINE
  5
FE
330
1F
100
AcDbEntity
  8
0
  6
Continuous
 62
     7
370
    15
100
AcDbLine
 10
250.090142995
 20
241.2102238325
 30
0.0
 11
249.089723736
 21
241.2102238325
 31
0.0
  0
LINE
  5
FF
330
1F
100
AcDbEntity
  8
0
  6
Continuous
 62
     7
370
    15
100
AcDbLine
 10
286.4919698834
 20
256.0498544065
 30
0.0
 11
283.5401895493
 21
256.0498544065
 31
0.0
  0
SPLINE
  5
100
330
1F
100
AcDbEntity
  8
0
  6
Continuous
 62
     7
370
    15
100
AcDbSpline
210
0.0
220
0.0
230
1.0
 70
     8
 71
     3
 72
    20
 73
    16
 74
     0
 42
0.00000001
 43
0.00000001
 40
0.0
 40
0.0
 40
0.0
 40
0.0
 40
0.1249999999999998
 40
0.1249999999999998
 40
0.2499999999999997
 40
0.2499999999999997
 40
0.3749999999999995
 40
0.3749999999999995
 40
0.4999999999999993
 40
0.4999999999999993
 40
0.6249999999999991
 40
0.6249999999999991
 40
0.749999999999999
 40
0.749999999999999
 40
1.0
 40
1.0
 40
1.0
 40
1.0
 10
283.5401890525857
 20
256.0498539833489
 30
0.0
 10
283.5401890525857
 20
256.302650871617
 30
0.0
 10
283.5208353088454
 20
256.5536206025911
 30
0.0
 10
283.4436670659534
 20
257.0519290435479
 30
0.0
 10
283.3857866706865
 20
257.2979197283411
 30
0.0
 10
283.2350902288197
 20
257.7735283676902
 30
0.0
 10
283.142064722857
 20
258.0046939320027
 30
0.0
 10
282.9204058301578
 20
258.4536524183341
 30
0.0
 10
282.7907100608558
 20
258.6724836464627
 30
0.0
 10
282.503807410339
 20
259.0822279359668
 30
0.0
 10
282.3459428628736
 20
259.2749372506506
 30
0.0
 10
282.0017701131337
 20
259.6363532430641
 30
0.0
 10
281.8137750813254
 20
259.8062910822751
 30
0.0
 10
281.2181922025075
 20
260.2682031531361
 30
0.0
 10
280.7835715817644
 20
260.5121966718285
 30
0.0
 10
280.311161072205
 20
260.6918601251842
 30
0.0
  0
LWPOLYLINE
  5
101
330
1F
100
AcDbEntity
  8
0
  6
Continuous
 62
     7
370
    15
100
AcDbPolyline
 90
        9
 70
   128
 43
0.0
 10
281.3735700249
 20
263.4853773801
 10
281.338300839
 20
263.3926400034
 10
281.2677866816
 20
263.2072323052
 10
281.1644471287
 20
262.9355059055
 10
281.0318286567
 20
262.5867963819
 10
280.8744798451
 20
262.173061916
 10
280.6978005021
 20
261.7084995894
 10
280.5078554004
 20
261.2090536443
 10
280.3111619353
 20
260.6918604163
  0
SPLINE
  5
102
330
1F
100
AcDbEntity
  8
0
  6
Continuous
 62
     7
370
    15
100
AcDbSpline
210
0.0
220
0.0
230
1.0
 70
     8
 71
     3
 72
     8
 73
     4
 74
     0
 42
0.00000001
 43
0.00000001
 40
0.0
 40
0.0
 40
0.0
 40
0.0
 40
0.0032877623069168
 40
0.0032877623069168
 40
0.0032877623069168
 40
0.0032877623069168
 10
367.8023874293868
 20
324.5607383750719
 30
0.0
 10
368.8983065580519
 20
324.5626345002538
 30
0.0
 10
369.9942252580467
 20
324.5647808273475
 30
0.0
 10
371.0901436804975
 20
324.5670486892479
 30
0.0
  0
SPLINE
  5
103
330
1F
100
AcDbEntity
  8
0
  6
Continuous
 62
     7
370
    15
100
AcDbSpline
210
0.0
220
0.0
230
1.0
 70
     8
 71
     3
 72
    16
 73
    12
 74
     0
 42
0.00000001
 43
0.00000001
 40
0.0
 40
0.0
 40
0.0
 40
0.0
 40
0.2499999999999985
 40
0.2499999999999985
 40
0.499999999999997
 40
0.499999999999997
 40
0.7499999999999956
 40
0.7499999999999956
 40
0.8749999999999978
 40
0.8749999999999978
 40
1.0
 40
1.0
 40
1.0
 40
1.0
 10
344.1841418920336
 20
285.9762774170226
 30
0.0
 10
344.0213543601824
 20
286.0338158073305
 30
0.0
 10
343.8459561157499
 20
286.0496916889337
 30
0.0
 10
343.5093326744311
 20
285.9952304727714
 30
0.0
 10
343.3479698519195
 20
285.9246666069085
 30
0.0
 10
343.079579675173
 20
285.7091495798394
 30
0.0
 10
342.9754925690103
 20
285.5660012767548
 30
0.0
 10
342.8834160200643
 20
285.3278327162861
 30
0.0
 10
342.8628678909362
 20
285.2433138145774
 30
0.0
 10
342.8443092584642
 20
285.0733658914991
 30
0.0
 10
342.8459100360256
 20
284.9881696277761
 30
0.0
 10
342.8585276674107
 20
284.9027482675925
 30
0.0
  0
LWPOLYLINE
  5
104
330
1F
100
AcDbEntity
  8
0
  6
Continuous
 62
     7
370
    15
100
AcDbPolyline
 90
        9
 70
   128
 43
0.0
 10
342.8585290014
 20
284.9027483774
 10
342.3358428328
 20
284.8255426673
 10
341.8294976502
 20
284.750750014
 10
341.3553240746
 20
284.6807089684
 10
340.9281413107
 20
284.6176100014
 10
340.5613082498
 20
284.5634247226
 10
340.2662913352
 20
284.5198481394
 10
340.0523125231
 20
284.4882409138
 10
339.9260605722
 20
284.4695921106
  0
LWPOLYLINE
  5
105
330
1F
100
AcDbEntity
  8
0
  6
Continuous
 62
     7
370
    15
100
AcDbPolyline
 90
        9
 70
   128
 43
0.0
 10
344.1841437518
 20
285.9762773899
 10
344.3712017535
 20
286.5055042369
 10
344.5516548156
 20
287.0160394398
 10
344.719125241
 20
287.4898497997
 10
344.8677009939
 20
287.9102013124
 10
344.9921331405
 20
288.2622468335
 10
345.0880295634
 20
288.5335513441
 10
345.1519965231
 20
288.7145343287
 10
345.1817839443
 20
288.7988013266
  0
SPLINE
  5
106
330
1F
100
AcDbEntity
  8
0
  6
Continuous
 62
     7
370
    15
100
AcDbSpline
210
0.0
220
0.0
230
1.0
 70
     8
 71
     3
 72
    12
 73
     8
 74
     0
 42
0.00000001
 43
0.00000001
 40
0.0
 40
0.0
 40
0.0
 40
0.0
 40
0.2500000000000003
 40
0.2500000000000003
 40
0.5000000000000006
 40
0.5000000000000006
 40
1.0
 40
1.0
 40
1.0
 40
1.0
 10
339.2902274935702
 20
264.8575666699508
 30
0.0
 10
339.1837809139108
 20
264.6708408689094
 30
0.0
 10
339.0899796194671
 20
264.478341995737
 30
0.0
 10
338.9275535757401
 20
264.0818501621699
 30
0.0
 10
338.8589983923166
 20
263.8774426997725
 30
0.0
 10
338.695533573251
 20
263.260524408257
 30
0.0
 10
338.6400983084096
 20
262.8400941783075
 30
0.0
 10
338.6400983084096
 20
262.4101888564398
 30
0.0
  0
LWPOLYLINE
  5
107
330
1F
100
AcDbEntity
  8
0
  6
Continuous
 62
     7
370
    15
100
AcDbPolyline
 90
        9
 70
   128
 43
0.0
 10
339.2902280241
 20
264.8575657097
 10
338.8306948393
 20
265.1195318488
 10
338.3855617642
 20
265.3732874481
 10
337.9687762856
 20
265.6108846007
 10
337.593395546
 20
265.8248783139
 10
337.2711840122
 20
266.0085612027
 10
337.0122353583
 20
266.156179556
 10
336.8246669918
 20
266.2631065635
 10
336.7143518328
 20
266.325993189
  0
SPLINE
  5
108
330
1F
100
AcDbEntity
  8
0
  6
Continuous
 62
     7
370
    15
100
AcDbSpline
210
0.0
220
0.0
230
1.0
 70
     8
 71
     3
 72
     8
 73
     4
 74
     0
 42
0.00000001
 43
0.00000001
 40
0.0
 40
0.0
 40
0.0
 40
0.0
 40
1.0
 40
1.0
 40
1.0
 40
1.0
 10
361.2964628785408
 20
279.917369904441
 30
0.0
 10
355.5942162430734
 20
281.9422600024113
 30
0.0
 10
349.8893437938822
 20
283.9597339503245
 30
0.0
 10
344.1841418920336
 20
285.9762774170226
 30
0.0
  0
SPLINE
  5
109
330
1F
100
AcDbEntity
  8
0
  6
Continuous
 62
     7
370
    15
100
AcDbSpline
210
0.0
220
0.0
230
1.0
 70
     8
 71
     3
 72
    12
 73
     8
 74
     0
 42
0.00000001
 43
0.00000001
 40
0.0
 40
0.0
 40
0.0
 40
0.0
 40
0.2499999999999998
 40
0.2499999999999998
 40
0.4999999999999996
 40
0.4999999999999996
 40
1.0
 40
1.0
 40
1.0
 40
1.0
 10
280.311161072205
 20
260.6918601251842
 30
0.0
 10
278.5015742410714
 20
261.3800679712206
 30
0.0
 10
276.6894062006329
 20
262.061446513544
 30
0.0
 10
273.0665650734147
 20
263.428158911909
 30
0.0
 10
271.2554286924801
 20
264.1122669950205
 30
0.0
 10
265.8224367207301
 20
266.1656949858543
 30
0.0
 10
262.2009667089753
 20
267.5360350497118
 30
0.0
 10
258.5792330938561
 20
268.905677677902
 30
0.0
  0
SPLINE
  5
10A
330
1F
100
AcDbEntity
  8
0
  6
Continuous
 62
     7
370
    15
100
AcDbSpline
210
0.0
220
0.0
230
1.0
 70
     8
 71
     3
 72
    11
 73
     7
 74
     0
 42
0.00000001
 43
0.00000001
 40
0.0
 40
0.0
 40
0.0
 40
0.0
 40
0.0043586471839136
 40
0.0043586471839136
 40
0.0043586471839136
 40
0.0087172902876898
 40
0.0087172902876898
 40
0.0087172902876898
 40
0.0087172902876898
 10
371.7568370955294
 20
271.656184444211
 30
0.0
 10
370.6824562920049
 20
272.6342300165985
 30
0.0
 10
369.6077411042544
 20
273.6119084954118
 30
0.0
 10
368.5325728128906
 20
274.5890883140196
 30
0.0
 10
367.457405575571
 20
275.5662671746464
 30
0.0
 10
366.3817866995066
 20
276.5429495232863
 30
0.0
 10
365.3055553111088
 20
277.5189562407266
 30
0.0
  0
SPLINE
  5
10B
330
1F
100
AcDbEntity
  8
0
  6
Continuous
 62
     7
370
    15
100
AcDbSpline
210
0.0
220
0.0
230
1.0
 70
     8
 71
     3
 72
     8
 73
     4
 74
     0
 42
0.00000001
 43
0.00000001
 40
0.0
 40
0.0
 40
0.0
 40
0.0
 40
0.0004790741563923
 40
0.0004790741563923
 40
0.0004790741563923
 40
0.0004790741563923
 10
339.520276667363
 20
265.2777921153492
 30
0.0
 10
339.446020921229
 20
265.1364152333722
 30
0.0
 10
339.3693143725569
 20
264.9962988009212
 30
0.0
 10
339.2902274935702
 20
264.8575666699508
 30
0.0
  0
ARC
  5
10C
330
1F
100
AcDbEntity
  8
0
  6
Continuous
 62
     7
370
    15
100
AcDbCircle
 10
311.0901436805
 20
280.2102245478
 30
0.0
 40
32.11308144666281
100
AcDbArc
 50
332.2900811363
 51
8.4024303184
  0
LINE
  5
10D
330
1F
100
AcDbEntity
  8
0
  6
Continuous
 62
     7
370
    15
100
AcDbLine
 10
283.5401895493
 20
241.7102248458
 30
0.0
 11
283.5401895493
 21
256.0498544065
 31
0.0
  0
LINE
  5
10E
330
1F
100
AcDbEntity
  8
0
  6
Continuous
 62
     7
370
    15
100
AcDbLine
 10
338.6400978117
 20
262.4101878194
 30
0.0
 11
338.6400978117
 21
241.7102248458
 31
0.0
  0
LINE
  5
10F
330
1F
100
AcDbEntity
  8
0
  6
Continuous
 62
     7
370
    15
100
AcDbLine
 10
254.391188085
 20
269.6710356561
 30
0.0
 11
251.0893105566
 21
269.6685322611
 31
0.0
  0
LINE
  5
110
330
1F
100
AcDbEntity
  8
0
  6
Continuous
 62
     7
370
    15
100
AcDbLine
 10
250.090142995
 20
241.2102238325
 30
0.0
 11
253.5901426374
 21
241.2102238325
 31
0.0
  0
ARC
  5
111
330
1F
100
AcDbEntity
  8
0
  6
Continuous
 62
     7
370
    15
100
AcDbCircle
 10
253.5901436805
 20
239.4602245478
 30
0.0
 40
1.749999999999716
100
AcDbArc
 50
45.5846914028
 51
90.0
  0
LINE
  5
112
330
1F
100
AcDbEntity
  8
0
  6
Continuous
 62
     7
370
    15
100
AcDbLine
 10
368.5901447236
 20
241.2102238325
 30
0.0
 11
371.645661354
 21
241.2102238325
 31
0.0
  0
ARC
  5
113
330
1F
100
AcDbEntity
  8
0
  6
Continuous
 62
     7
370
    15
100
AcDbCircle
 10
368.5901436805
 20
239.4602245478
 30
0.0
 40
1.75
100
AcDbArc
 50
90.0
 51
134.4153085972
  0
LINE
  5
114
330
1F
100
AcDbEntity
  8
0
  6
Continuous
 62
     7
370
    15
100
AcDbLine
 10
283.2987739741
 20
330.7102263955
 30
0.0
 11
251.0901450216
 21
330.7102263955
 31
0.0
  0
LINE
  5
115
330
1F
100
AcDbEntity
  8
0
  6
Continuous
 62
     7
370
    15
100
AcDbLine
 10
371.0901423394
 20
330.7102263955
 30
0.0
 11
349.7071473896
 21
330.7102263955
 31
0.0
  0
LINE
  5
116
330
1F
100
AcDbEntity
  8
0
  6
Continuous
 62
     8
370
    15
100
AcDbLine
 10
315.0901438705
 20
369.3175927786
 30
0.0
 11
307.0901434905
 21
369.3175927786
 31
0.0
  0
LINE
  5
117
330
1F
100
AcDbEntity
  8
0
  6
Continuous
 62
     8
370
    15
100
AcDbLine
 10
314.9538469072
 20
370.3528658537
 30
0.0
 11
307.2264404538
 21
370.3528658537
 31
0.0
  0
LINE
  5
118
330
1F
100
AcDbEntity
  8
0
  6
Continuous
 62
     8
370
    15
100
AcDbLine
 10
314.7264402862
 20
371.2015614895
 30
0.0
 11
307.4538470748
 21
371.2015614895
 31
0.0
  0
LINE
  5
119
330
1F
100
AcDbEntity
  8
0
  6
Continuous
 62
     8
370
    15
100
AcDbLine
 10
314.5901437885
 20
372.2368345646
 30
0.0
 11
307.5901435725
 21
372.2368345646
 31
0.0
  0
SPLINE
  5
11A
330
1F
100
AcDbEntity
  8
0
  6
Continuous
 62
     8
370
    15
100
AcDbSpline
210
0.0
220
0.0
230
1.0
 70
     8
 71
     3
 72
    10
 73
     6
 74
     0
 42
0.00000001
 43
0.00000001
 40
0.0
 40
0.0
 40
0.0
 40
0.0
 40
0.0726781217531154
 40
0.530052620176278
 40
1.0
 40
1.0
 40
1.0
 40
1.0
 10
332.250476166531
 20
332.5160496918339
 30
0.0
 10
332.2621856099686
 20
332.5174913844326
 30
0.0
 10
332.3475843658138
 20
332.5280058683102
 30
0.0
 10
331.9585395455414
 20
332.4753183526821
 30
0.0
 10
331.2556733489265
 20
332.4145447836577
 30
0.0
 10
330.8994754254069
 20
332.3837460068841
 30
0.0
  0
SPLINE
  5
11B
330
1F
100
AcDbEntity
  8
0
  6
Continuous
 62
     8
370
    15
100
AcDbSpline
210
0.0
220
0.0
230
1.0
 70
     8
 71
     3
 72
     9
 73
     5
 74
     0
 42
0.00000001
 43
0.00000001
 40
0.0
 40
0.0
 40
0.0
 40
0.0
 40
0.729231607521099
 40
1.0
 40
1.0
 40
1.0
 40
1.0
 10
311.0901436804978
 20
330.6821898607392
 30
0.0
 10
309.7559586650392
 20
330.689622163333
 30
0.0
 10
307.9263821605402
 20
330.6998141277476
 30
0.0
 10
306.1016100158362
 20
330.7066065370223
 30
0.0
 10
305.6075193955745
 20
330.7084457067627
 30
0.0
  0
LINE
  5
11C
330
1F
100
AcDbEntity
  8
0
  6
Continuous
 62
     8
370
    15
100
AcDbLine
 10
291.9073182195
 20
331.9055751948
 30
0.0
 11
290.5287223905
 21
331.9055751948
 31
0.0
  0
LINE
  5
11D
330
1F
100
AcDbEntity
  8
0
  6
Continuous
 62
     8
370
    15
100
AcDbLine
 10
289.1707032024
 20
331.2435575811
 30
0.0
 11
289.8717748969
 21
331.2435575811
 31
0.0
  0
ARC
  5
11E
330
1F
100
AcDbEntity
  8
0
  6
Continuous
 62
     7
370
    15
100
AcDbCircle
 10
523.9302968146
 20
369.3175891536
 30
0.0
 40
4.0
100
AcDbArc
 50
165.0
 51
180.0
  0
ARC
  5
11F
330
1F
100
AcDbEntity
  8
0
  6
Continuous
 62
     7
370
    15
100
AcDbCircle
 10
523.9302968146
 20
369.3175891536
 30
0.0
 40
4.0
100
AcDbArc
 50
0.0
 51
15.0
  0
LINE
  5
120
330
1F
100
AcDbEntity
  8
0
  6
Continuous
 62
     7
370
    15
100
AcDbLine
 10
527.7940000412
 20
370.3528658537
 30
0.0
 11
527.5665934203
 21
371.2015614895
 31
0.0
  0
LINE
  5
121
330
1F
100
AcDbEntity
  8
0
  6
Continuous
 62
     7
370
    15
100
AcDbLine
 10
520.2940002089
 20
371.2015614895
 30
0.0
 11
520.0665935879
 21
370.3528658537
 31
0.0
  0
ARC
  5
122
330
1F
100
AcDbEntity
  8
0
  6
Continuous
 62
     7
370
    15
100
AcDbCircle
 10
531.4302968146
 20
372.2368345381
 30
0.0
 40
4.0
100
AcDbArc
 50
180.0
 51
195.0
  0
ARC
  5
123
330
1F
100
AcDbEntity
  8
0
  6
Continuous
 62
     7
370
    15
100
AcDbCircle
 10
516.4302968146
 20
372.2368345381
 30
0.0
 40
4.0
100
AcDbArc
 50
345.0
 51
0.0
  0
LINE
  5
124
330
1F
100
AcDbEntity
  8
0
  6
Continuous
 62
     7
370
    15
100
AcDbLine
 10
527.4302969226
 20
391.160221496
 30
0.0
 11
527.4302969226
 21
393.1602255491
 31
0.0
  0
LINE
  5
125
330
1F
100
AcDbEntity
  8
0
  6
Continuous
 62
     7
370
    15
100
AcDbLine
 10
520.4302967065
 20
393.1602255491
 30
0.0
 11
520.4302967065
 21
391.160221496
 31
0.0
  0
LINE
  5
126
330
1F
100
AcDbEntity
  8
0
  6
Continuous
 62
     7
370
    15
100
AcDbLine
 10
527.4302969226
 20
372.2368345646
 30
0.0
 11
527.4302969226
 21
375.2102271704
 31
0.0
  0
LINE
  5
127
330
1F
100
AcDbEntity
  8
0
  6
Continuous
 62
     7
370
    15
100
AcDbLine
 10
520.4302967065
 20
375.2102271704
 30
0.0
 11
520.4302967065
 21
372.2368345646
 31
0.0
  0
LINE
  5
128
330
1F
100
AcDbEntity
  8
0
  6
Continuous
 62
     7
370
    15
100
AcDbLine
 10
527.4302969226
 20
393.1602255491
 30
0.0
 11
525.8802967617
 21
394.7102219848
 31
0.0
  0
LINE
  5
129
330
1F
100
AcDbEntity
  8
0
  6
Continuous
 62
     7
370
    15
100
AcDbLine
 10
521.9802968675
 20
394.7102219848
 30
0.0
 11
520.4302967065
 21
393.1602255491
 31
0.0
  0
LINE
  5
12A
330
1F
100
AcDbEntity
  8
0
  6
Continuous
 62
     7
370
    15
100
AcDbLine
 10
527.4302969226
 20
378.2102257995
 30
0.0
 11
527.4302969226
 21
388.1102220205
 31
0.0
  0
LINE
  5
12B
330
1F
100
AcDbEntity
  8
0
  6
Continuous
 62
     7
370
    15
100
AcDbLine
 10
520.4302967065
 20
388.1102220205
 30
0.0
 11
520.4302967065
 21
378.2102257995
 31
0.0
  0
LINE
  5
12C
330
1F
100
AcDbEntity
  8
0
  6
Continuous
 62
     7
370
    15
100
AcDbLine
 10
526.9302968407
 20
375.2102271704
 30
0.0
 11
526.9302968407
 21
378.2102257995
 31
0.0
  0
LINE
  5
12D
330
1F
100
AcDbEntity
  8
0
  6
Continuous
 62
     7
370
    15
100
AcDbLine
 10
520.9302967885
 20
378.2102257995
 30
0.0
 11
520.9302967885
 21
375.2102271704
 31
0.0
  0
LINE
  5
12E
330
1F
100
AcDbEntity
  8
0
  6
Continuous
 62
     7
370
    15
100
AcDbLine
 10
525.8802967617
 20
388.1102220205
 30
0.0
 11
525.8802967617
 21
391.160221496
 31
0.0
  0
LINE
  5
12F
330
1F
100
AcDbEntity
  8
0
  6
Continuous
 62
     7
370
    15
100
AcDbLine
 10
521.9802968675
 20
391.160221496
 30
0.0
 11
521.9802968675
 21
388.1102220205
 31
0.0
  0
LINE
  5
130
330
1F
100
AcDbEntity
  8
0
  6
Continuous
 62
     7
370
    15
100
AcDbLine
 10
538.9102972583
 20
352.2246346859
 30
0.0
 11
538.9102972583
 21
361.7102221636
 31
0.0
  0
LINE
  5
131
330
1F
100
AcDbEntity
  8
0
  6
Continuous
 62
     7
370
    15
100
AcDbLine
 10
508.9502963708
 20
361.7102221636
 30
0.0
 11
508.9502963708
 21
352.2246346859
 31
0.0
  0
SPLINE
  5
132
330
1F
100
AcDbEntity
  8
0
  6
Continuous
 62
     7
370
    15
100
AcDbSpline
210
0.0
220
0.0
230
1.0
 70
     8
 71
     3
 72
    45
 73
    41
 74
     0
 42
0.00000001
 43
0.00000001
 40
0.0
 40
0.0
 40
0.0
 40
0.0
 40
0.0242787046120757
 40
0.0426595697388026
 40
0.0585290990172333
 40
0.0720831443062892
 40
0.0783201340622334
 40
0.0844952424069853
 40
0.0978570078260621
 40
0.1223380930385401
 40
0.1485140501151045
 40
0.1811272738498435
 40
0.2135655315370855
 40
0.2463419780284327
 40
0.2790842678222263
 40
0.3115003088553182
 40
0.3444626695382463
 40
0.3774316411347652
 40
0.4104304508523873
 40
0.4434745772281434
 40
0.4765158189767011
 40
0.5095359683586693
 40
0.5425768211207631
 40
0.5756020275787198
 40
0.6086491603214399
 40
0.6417628316861751
 40
0.6748102374719309
 40
0.7071433603090731
 40
0.739696116411279
 40
0.7720711433167597
 40
0.8047065470503086
 40
0.8385492421232884
 40
0.8543431065886866
 40
0.8685958829873438
 40
0.8826012200035884
 40
0.8975917686811602
 40
0.9141870240026302
 40
0.9325306707098245
 40
0.9733219183878564
 40
1.0
 40
1.0
 40
1.0
 40
1.0
 10
535.2310617925098
 20
302.0203138751764
 30
0.0
 10
535.2302077240955
 20
302.0334451574081
 30
0.0
 10
535.228707059556
 20
302.0565178402005
 30
0.0
 10
535.2950495659852
 20
301.8864709636998
 30
0.0
 10
535.4002511373008
 20
301.6510080272654
 30
0.0
 10
535.5375015500165
 20
301.3226707077827
 30
0.0
 10
535.6705785577922
 20
300.9737060057924
 30
0.0
 10
535.8172831050199
 20
300.5606120773018
 30
0.0
 10
536.073935303283
 20
299.7254072696287
 30
0.0
 10
536.3256176928603
 20
298.5176425695396
 30
0.0
 10
536.4685492588364
 20
296.9188334674855
 30
0.0
 10
536.3781097130994
 20
295.1289367043848
 30
0.0
 10
535.988687551993
 20
293.261700916549
 30
0.0
 10
535.3153892790405
 20
291.4672048065381
 30
0.0
 10
534.3706443246211
 20
289.8016006262336
 30
0.0
 10
533.196391278436
 20
288.2852371052689
 30
0.0
 10
531.8047527275614
 20
286.9580608327726
 30
0.0
 10
530.2141383454764
 20
285.8574214095792
 30
0.0
 10
528.4710585092687
 20
285.0147963810086
 30
0.0
 10
526.616641872198
 20
284.4517692564073
 30
0.0
 10
524.69695595484
 20
284.1829439616828
 30
0.0
 10
522.7588592642056
 20
284.2144831126855
 30
0.0
 10
520.8493253993066
 20
284.5455920262142
 30
0.0
 10
519.0136774960299
 20
285.1686281174007
 30
0.0
 10
517.295776855069
 20
286.0693252026462
 30
0.0
 10
515.7376180856533
 20
287.225307988786
 30
0.0
 10
514.390081534557
 20
288.6012330143436
 30
0.0
 10
513.2649074001405
 20
290.1496069369135
 30
0.0
 10
512.381841969583
 20
291.8348504164694
 30
0.0
 10
511.7688087790323
 20
293.6389035537408
 30
0.0
 10
511.4343044600911
 20
295.5449207743228
 30
0.0
 10
511.4081220001759
 20
297.1461881395528
 30
0.0
 10
511.5350753097446
 20
298.3927238461417
 30
0.0
 10
511.680303955951
 20
299.2170359006103
 30
0.0
 10
511.8396862566762
 20
299.8799569789501
 30
0.0
 10
511.990488824774
 20
300.3991988822939
 30
0.0
 10
512.1272196360338
 20
300.8103342352324
 30
0.0
 10
512.2795914713076
 20
301.2698493285371
 30
0.0
 10
512.4430027355266
 20
301.5990090669977
 30
0.0
 10
512.4647366115305
 20
301.5777017984338
 30
0.0
 10
512.4733304144313
 20
301.5692766805965
 30
0.0
  0
LINE
  5
133
330
1F
100
AcDbEntity
  8
0
  6
Continuous
 62
     7
370
    15
100
AcDbLine
 10
466.4302957715
 20
237.7102241902
 30
0.0
 11
466.4302957715
 21
223.7102256207
 31
0.0
  0
LINE
  5
134
330
1F
100
AcDbEntity
  8
0
  6
Continuous
 62
     7
370
    15
100
AcDbLine
 10
581.4302978577
 20
223.7102256207
 30
0.0
 11
581.4302978577
 21
237.7102241902
 31
0.0
  0
SPLINE
  5
135
330
1F
100
AcDbEntity
  8
0
  6
Continuous
 62
     7
370
    15
100
AcDbSpline
210
0.0
220
0.0
230
1.0
 70
     8
 71
     3
 72
    19
 73
    15
 74
     0
 42
0.00000001
 43
0.00000001
 40
0.0
 40
0.0
 40
0.0
 40
0.0
 40
0.0397089844281842
 40
0.142010763514333
 40
0.2514661396503256
 40
0.3525633909100884
 40
0.4364715128366812
 40
0.5049742561750097
 40
0.5735570653232921
 40
0.6469320120124855
 40
0.7316999380208815
 40
0.8286122370627808
 40
0.9368488352683486
 40
1.0
 40
1.0
 40
1.0
 40
1.0
 10
512.233985169368
 20
292.4211730299372
 30
0.0
 10
512.5342054773378
 20
292.4370021094794
 30
0.0
 10
513.6078797546136
 20
292.4936114563034
 30
0.0
 10
515.5539919167363
 20
292.5724327652517
 30
0.0
 10
517.990688026974
 20
292.6463025638921
 30
0.0
 10
520.2971045016234
 20
292.6887333147443
 30
0.0
 10
522.2907245799887
 20
292.7073106197391
 30
0.0
 10
524.0370904604008
 20
292.7117226034128
 30
0.0
 10
525.7003027241624
 20
292.7062359435644
 30
0.0
 10
527.4828353710408
 20
292.6889968888963
 30
0.0
 10
529.4783255260775
 20
292.6541049420366
 30
0.0
 10
531.7346877548074
 20
292.5915629941629
 30
0.0
 10
533.8175874421145
 20
292.5133811562855
 30
0.0
 10
535.1351803355029
 20
292.4465839186781
 30
0.0
 10
535.6206731410196
 20
292.4219711733837
 30
0.0
  0
ARC
  5
136
330
1F
100
AcDbEntity
  8
0
  6
Continuous
 62
     7
370
    15
100
AcDbCircle
 10
489.4302968146
 20
221.7102245478
 30
0.0
 40
2.0
100
AcDbArc
 50
0.0
 51
90.0
  0
ARC
  5
137
330
1F
100
AcDbEntity
  8
0
  6
Continuous
 62
     7
370
    15
100
AcDbCircle
 10
558.4302968146
 20
221.7102245478
 30
0.0
 40
2.0
100
AcDbArc
 50
90.0
 51
180.0
  0
ARC
  5
138
330
1F
100
AcDbEntity
  8
0
  6
Continuous
 62
     7
370
    15
100
AcDbCircle
 10
494.9302968146
 20
241.7102245478
 30
0.0
 40
4.0
100
AcDbArc
 50
270.0
 51
0.0
  0
ARC
  5
139
330
1F
100
AcDbEntity
  8
0
  6
Continuous
 62
     7
370
    15
100
AcDbCircle
 10
552.9302968146
 20
241.7102245478
 30
0.0
 40
4.0
100
AcDbArc
 50
180.0
 51
270.0
  0
LINE
  5
13A
330
1F
100
AcDbEntity
  8
0
  6
Continuous
 62
     7
370
    15
100
AcDbLine
 10
498.930296442
 20
244.9294381825
 30
0.0
 11
498.930296442
 21
241.7102248458
 31
0.0
  0
LINE
  5
13B
330
1F
100
AcDbEntity
  8
0
  6
Continuous
 62
     7
370
    15
100
AcDbLine
 10
498.930296442
 20
262.4101878194
 30
0.0
 11
498.930296442
 21
261.8107774345
 31
0.0
  0
LINE
  5
13C
330
1F
100
AcDbEntity
  8
0
  6
Continuous
 62
     7
370
    15
100
AcDbLine
 10
548.9302971871
 20
261.8107774345
 30
0.0
 11
548.9302971871
 21
262.4102250723
 31
0.0
  0
LINE
  5
13D
330
1F
100
AcDbEntity
  8
0
  6
Continuous
 62
     7
370
    15
100
AcDbLine
 10
548.9302971871
 20
241.7102248458
 30
0.0
 11
548.9302971871
 21
244.9294381825
 31
0.0
  0
LINE
  5
13E
330
1F
100
AcDbEntity
  8
0
  6
Continuous
 62
     7
370
    15
100
AcDbLine
 10
488.9302966656
 20
348.7102256207
 30
0.0
 11
488.9302966656
 21
342.3309453813
 31
0.0
  0
LINE
  5
13F
330
1F
100
AcDbEntity
  8
0
  6
Continuous
 62
     7
370
    15
100
AcDbLine
 10
558.9302969636
 20
342.3309453813
 30
0.0
 11
558.9302969636
 21
348.7102256207
 31
0.0
  0
LINE
  5
140
330
1F
100
AcDbEntity
  8
0
  6
Continuous
 62
     7
370
    15
100
AcDbLine
 10
527.4302969226
 20
393.1602255491
 30
0.0
 11
520.4302967065
 21
393.1602255491
 31
0.0
  0
LINE
  5
141
330
1F
100
AcDbEntity
  8
0
  6
Continuous
 62
     7
370
    15
100
AcDbLine
 10
527.4302969226
 20
391.160221496
 30
0.0
 11
520.4302967065
 21
391.160221496
 31
0.0
  0
LINE
  5
142
330
1F
100
AcDbEntity
  8
0
  6
Continuous
 62
     7
370
    15
100
AcDbLine
 10
527.4302969226
 20
375.2102271704
 30
0.0
 11
520.4302967065
 21
375.2102271704
 31
0.0
  0
LINE
  5
143
330
1F
100
AcDbEntity
  8
0
  6
Continuous
 62
     7
370
    15
100
AcDbLine
 10
525.8802967617
 20
394.7102219848
 30
0.0
 11
521.9802968675
 21
394.7102219848
 31
0.0
  0
LINE
  5
144
330
1F
100
AcDbEntity
  8
0
  6
Continuous
 62
     7
370
    15
100
AcDbLine
 10
527.4302969226
 20
378.2102257995
 30
0.0
 11
520.4302967065
 21
378.2102257995
 31
0.0
  0
LINE
  5
145
330
1F
100
AcDbEntity
  8
0
  6
Continuous
 62
     7
370
    15
100
AcDbLine
 10
527.4302969226
 20
388.1102220205
 30
0.0
 11
520.4302967065
 21
388.1102220205
 31
0.0
  0
LINE
  5
146
330
1F
100
AcDbEntity
  8
0
  6
Continuous
 62
     7
370
    15
100
AcDbLine
 10
514.9636702151
 20
361.7102221636
 30
0.0
 11
508.9502963708
 21
361.7102221636
 31
0.0
  0
LINE
  5
147
330
1F
100
AcDbEntity
  8
0
  6
Continuous
 62
     7
370
    15
100
AcDbLine
 10
514.9636702151
 20
361.7102221636
 30
0.0
 11
514.9636702151
 21
354.7102228789
 31
0.0
  0
LINE
  5
148
330
1F
100
AcDbEntity
  8
0
  6
Continuous
 62
     7
370
    15
100
AcDbLine
 10
532.896923414
 20
354.7102228789
 30
0.0
 11
514.9636702151
 21
354.7102228789
 31
0.0
  0
LINE
  5
149
330
1F
100
AcDbEntity
  8
0
  6
Continuous
 62
     7
370
    15
100
AcDbLine
 10
532.896923414
 20
354.7102228789
 30
0.0
 11
532.896923414
 21
361.7102221636
 31
0.0
  0
LINE
  5
14A
330
1F
100
AcDbEntity
  8
0
  6
Continuous
 62
     7
370
    15
100
AcDbLine
 10
538.9102972583
 20
361.7102221636
 30
0.0
 11
532.896923414
 21
361.7102221636
 31
0.0
  0
LINE
  5
14B
330
1F
100
AcDbEntity
  8
0
  6
Continuous
 62
     7
370
    15
100
AcDbLine
 10
532.896923414
 20
361.7102221636
 30
0.0
 11
514.9636702151
 21
361.7102221636
 31
0.0
  0
CIRCLE
  5
14C
330
1F
100
AcDbEntity
  8
0
  6
Continuous
 62
     7
370
    15
100
AcDbCircle
 10
523.9302969383
 20
296.7102226692
 30
0.0
 40
12.5000003100113
  0
CIRCLE
  5
14D
330
1F
100
AcDbEntity
  8
0
  6
Continuous
 62
     7
370
    15
100
AcDbCircle
 10
523.9302968146
 20
296.7102245478
 30
0.0
 40
32.5
  0
CIRCLE
  5
14E
330
1F
100
AcDbEntity
  8
0
  6
Continuous
 62
     7
370
    15
100
AcDbCircle
 10
523.9302968146
 20
296.7102245478
 30
0.0
 40
34.5
  0
CIRCLE
  5
14F
330
1F
100
AcDbEntity
  8
0
  6
Continuous
 62
     7
370
    15
100
AcDbCircle
 10
553.895284374
 20
326.6752121072
 30
0.0
 40
7.0
  0
CIRCLE
  5
150
330
1F
100
AcDbEntity
  8
0
  6
Continuous
 62
     7
370
    15
100
AcDbCircle
 10
493.9653092551
 20
266.7452369883
 30
0.0
 40
7.0
  0
CIRCLE
  5
151
330
1F
100
AcDbEntity
  8
0
  6
Continuous
 62
     7
370
    15
100
AcDbCircle
 10
523.9302968146
 20
296.7102245478
 30
0.0
 40
57.5
  0
CIRCLE
  5
152
330
1F
100
AcDbEntity
  8
0
  6
Continuous
 62
     7
370
    15
100
AcDbCircle
 10
493.9653092551
 20
326.6752121072
 30
0.0
 40
7.0
  0
CIRCLE
  5
153
330
1F
100
AcDbEntity
  8
0
  6
Continuous
 62
     7
370
    15
100
AcDbCircle
 10
553.895284374
 20
266.7452369883
 30
0.0
 40
7.0
  0
SPLINE
  5
154
330
1F
100
AcDbEntity
  8
0
  6
Continuous
 62
     7
370
    15
100
AcDbSpline
210
0.0
220
0.0
230
1.0
 70
     8
 71
     3
 72
    13
 73
     9
 74
     0
 42
0.00000001
 43
0.00000001
 40
0.0
 40
0.0
 40
0.0
 40
0.0
 40
0.0029190552380072
 40
0.2700327403983542
 40
0.6032079438421686
 40
0.840343537573757
 40
0.9913028442713222
 40
1.0
 40
1.0
 40
1.0
 40
1.0
 10
528.9302925118675
 20
237.7102241901535
 30
0.0
 10
528.9273920666839
 20
237.7102264981976
 30
0.0
 10
528.6590808846505
 20
237.7104400081876
 30
0.0
 10
528.0595032995302
 20
237.7921935346346
 30
0.0
 10
527.2468968617317
 20
238.1611737730609
 30
0.0
 10
526.6463911036232
 20
238.7378934506629
 30
0.0
 10
526.3502940454027
 20
239.1373522970139
 30
0.0
 10
526.2731343636159
 20
239.3213929114356
 30
0.0
 10
526.2689311528077
 20
239.33141837398
 30
0.0
  0
LINE
  5
155
330
1F
100
AcDbEntity
  8
0
  6
Continuous
 62
     7
370
    15
100
AcDbLine
 10
528.9302925119
 20
237.7102241902
 30
0.0
 11
523.9302968146
 21
237.7102241902
 31
0.0
  0
LINE
  5
156
330
1F
100
AcDbEntity
  8
0
  6
Continuous
 62
     7
370
    15
100
AcDbLine
 10
523.9302968146
 20
237.7102241902
 30
0.0
 11
518.9303011173
 21
237.7102241902
 31
0.0
  0
SPLINE
  5
157
330
1F
100
AcDbEntity
  8
0
  6
Continuous
 62
     7
370
    15
100
AcDbSpline
210
0.0
220
0.0
230
1.0
 70
     8
 71
     3
 72
    13
 73
     9
 74
     0
 42
0.00000001
 43
0.00000001
 40
0.0
 40
0.0
 40
0.0
 40
0.0
 40
0.012822065691249
 40
0.163153081050003
 40
0.3993017184757843
 40
0.7310902495824649
 40
0.9970922098777764
 40
1.0
 40
1.0
 40
1.0
 40
1.0
 10
521.5977805671712
 20
239.345835247435
 30
0.0
 10
521.5915849102358
 20
239.3309781068622
 30
0.0
 10
521.5127488987473
 20
239.1419299208348
 30
0.0
 10
521.2146669261343
 20
238.7376353466053
 30
0.0
 10
520.6134867345471
 20
238.1612934323551
 30
0.0
 10
519.8011183687773
 20
237.7921627250041
 30
0.0
 10
519.201558662198
 20
237.7104399137799
 30
0.0
 10
518.9331987706933
 20
237.7102264978745
 30
0.0
 10
518.9302969263365
 20
237.7102241901535
 30
0.0
  0
LINE
  5
158
330
1F
100
AcDbEntity
  8
0
  6
Continuous
 62
     7
370
    15
100
AcDbLine
 10
466.4302957715
 20
223.7102256207
 30
0.0
 11
581.4302978577
 21
223.7102256207
 31
0.0
  0
LINE
  5
159
330
1F
100
AcDbEntity
  8
0
  6
Continuous
 62
     7
370
    15
100
AcDbLine
 10
466.4302957715
 20
237.7102241902
 30
0.0
 11
518.9302969263
 21
237.7102241902
 31
0.0
  0
LINE
  5
15A
330
1F
100
AcDbEntity
  8
0
  6
Continuous
 62
     7
370
    15
100
AcDbLine
 10
528.9302967028
 20
237.7102241902
 30
0.0
 11
581.4302978577
 21
237.7102241902
 31
0.0
  0
SPLINE
  5
15B
330
1F
100
AcDbEntity
  8
0
  6
Continuous
 62
     7
370
    15
100
AcDbSpline
210
0.0
220
0.0
230
1.0
 70
     8
 71
     3
 72
     9
 73
     5
 74
     0
 42
0.00000001
 43
0.00000001
 40
0.0
 40
0.0
 40
0.0
 40
0.0
 40
0.6053656097034155
 40
1.0
 40
1.0
 40
1.0
 40
1.0
 10
550.1321596564223
 20
266.656171256103
 30
0.0
 10
550.7781889272233
 20
268.0033471313903
 30
0.0
 10
551.8453609972017
 20
270.2287392806855
 30
0.0
 10
552.3844303249712
 20
272.6326530864586
 30
0.0
 10
552.5971656204631
 20
273.5813201455254
 30
0.0
  0
SPLINE
  5
15C
330
1F
100
AcDbEntity
  8
0
  6
Continuous
 62
     7
370
    15
100
AcDbSpline
210
0.0
220
0.0
230
1.0
 70
     8
 71
     3
 72
    14
 73
    10
 74
     0
 42
0.00000001
 43
0.00000001
 40
0.0
 40
0.0
 40
0.0
 40
0.0
 40
0.4999999999999942
 40
0.7500000000000036
 40
0.8750000000000082
 40
0.9375000000000041
 40
0.9687500000000021
 40
0.9687500000000021
 40
1.0
 40
1.0
 40
1.0
 40
1.0
 10
549.9542377795706
 20
266.3261663106891
 30
0.0
 10
549.9848185893961
 20
266.3806393313607
 30
0.0
 10
550.0299951445243
 20
266.4627435574517
 30
0.0
 10
550.0814837718663
 20
266.5592252172029
 30
0.0
 10
550.1069233829043
 20
266.607639839231
 30
0.0
 10
550.1195669625996
 20
266.631890656315
 30
0.0
 10
550.124969299677
 20
266.6422931928843
 30
0.0
 10
550.1285672259575
 20
266.6492302911718
 30
0.0
 10
550.131309276314
 20
266.6545265057813
 30
0.0
 10
550.1321597012656
 20
266.6561704949447
 30
0.0
  0
SPLINE
  5
15D
330
1F
100
AcDbEntity
  8
0
  6
Continuous
 62
     7
370
    15
100
AcDbSpline
210
0.0
220
0.0
230
1.0
 70
     8
 71
     3
 72
     8
 73
     4
 74
     0
 42
0.00000001
 43
0.00000001
 40
0.0
 40
0.0
 40
0.0
 40
0.0
 40
1.0
 40
1.0
 40
1.0
 40
1.0
 10
497.9063406428618
 20
266.3261577745065
 30
0.0
 10
497.8451694218597
 20
266.4351407181898
 30
0.0
 10
497.7858557010416
 20
266.5451662580729
 30
0.0
 10
497.7284339285198
 20
266.6561704937274
 30
0.0
  0
ARC
  5
15E
330
1F
100
AcDbEntity
  8
0
  6
Continuous
 62
     7
370
    15
100
AcDbCircle
 10
523.9302968146
 20
280.2102245478
 30
0.0
 40
29.5
100
AcDbArc
 50
192.8676189181
 51
207.3522329091
  0
LINE
  5
15F
330
1F
100
AcDbEntity
  8
0
  6
Continuous
 62
     7
370
    15
100
AcDbLine
 10
491.4302980067
 20
221.7102215675
 30
0.0
 11
556.4302956225
 21
221.7102215675
 31
0.0
  0
SPLINE
  5
160
330
1F
100
AcDbEntity
  8
0
  6
Continuous
 62
     7
370
    15
100
AcDbSpline
210
0.0
220
0.0
230
1.0
 70
     8
 71
     3
 72
    10
 73
     6
 74
     0
 42
0.00000001
 43
0.00000001
 40
0.0
 40
0.0
 40
0.0
 40
0.0
 40
0.5
 40
0.5
 40
1.0
 40
1.0
 40
1.0
 40
1.0
 10
548.9302968145778
 20
262.4102244825297
 30
0.0
 10
548.9302968145778
 20
263.092266481348
 30
0.0
 10
549.0179906760742
 20
263.7742599874736
 30
0.0
 10
549.3630852700086
 20
265.0939701351369
 30
0.0
 10
549.6204614664708
 20
265.7315929462379
 30
0.0
 10
549.9543300832921
 20
266.3263307328749
 30
0.0
  0
SPLINE
  5
161
330
1F
100
AcDbEntity
  8
0
  6
Continuous
 62
     7
370
    15
100
AcDbSpline
210
0.0
220
0.0
230
1.0
 70
     8
 71
     3
 72
    10
 73
     6
 74
     0
 42
0.00000001
 43
0.00000001
 40
0.0
 40
0.0
 40
0.0
 40
0.0
 40
0.5
 40
0.5
 40
1.0
 40
1.0
 40
1.0
 40
1.0
 10
497.9062635458635
 20
266.3263307328748
 30
0.0
 10
498.2401321626848
 20
265.7315929462378
 30
0.0
 10
498.4975083591471
 20
265.0939701351368
 30
0.0
 10
498.8426029530816
 20
263.7742599874735
 30
0.0
 10
498.9302968145778
 20
263.0922664813477
 30
0.0
 10
498.9302968145778
 20
262.4102244825295
 30
0.0
  0
ARC
  5
162
330
1F
100
AcDbEntity
  8
0
  6
Continuous
 62
     7
370
    15
100
AcDbCircle
 10
523.9302968146
 20
313.2102245478
 30
0.0
 40
29.49999999999996
100
AcDbArc
 50
153.5028148323
 51
167.176339383
  0
LINE
  5
163
330
1F
100
AcDbEntity
  8
0
  6
Continuous
 62
     7
370
    15
100
AcDbLine
 10
499.0721052052
 20
326.3717626272
 30
0.0
 11
497.5290862383
 21
326.3717626272
 31
0.0
  0
SPLINE
  5
164
330
1F
100
AcDbEntity
  8
0
  6
Continuous
 62
     7
370
    15
100
AcDbSpline
210
0.0
220
0.0
230
1.0
 70
     8
 71
     3
 72
    10
 73
     6
 74
     0
 42
0.00000001
 43
0.00000001
 40
0.0
 40
0.0
 40
0.0
 40
0.0
 40
0.5
 40
0.5
 40
1.0
 40
1.0
 40
1.0
 40
1.0
 10
500.0487178437516
 20
326.7642786018355
 30
0.0
 10
499.8545226687874
 20
326.6470634412269
 30
0.0
 10
499.6741051913633
 20
326.5511281578327
 30
0.0
 10
499.3447021383126
 20
326.413489690756
 30
0.0
 10
499.195200042994
 20
326.3717630093199
 30
0.0
 10
499.0721053033009
 20
326.3717630093199
 30
0.0
  0
SPLINE
  5
165
330
1F
100
AcDbEntity
  8
0
  6
Continuous
 62
     7
370
    15
100
AcDbSpline
210
0.0
220
0.0
230
1.0
 70
     8
 71
     3
 72
    10
 73
     6
 74
     0
 42
0.00000001
 43
0.00000001
 40
0.0
 40
0.0
 40
0.0
 40
0.0
 40
0.5
 40
0.5
 40
1.0
 40
1.0
 40
1.0
 40
1.0
 10
548.7884883258547
 20
326.3717630093199
 30
0.0
 10
548.6653935861607
 20
326.3717630093199
 30
0.0
 10
548.515891490841
 20
326.4134896907565
 30
0.0
 10
548.1864884377878
 20
326.5511281578349
 30
0.0
 10
548.0060709603622
 20
326.6470634412302
 30
0.0
 10
547.8118757853963
 20
326.7642786018401
 30
0.0
  0
LINE
  5
166
330
1F
100
AcDbEntity
  8
0
  6
Continuous
 62
     7
370
    15
100
AcDbLine
 10
550.3315073909
 20
326.3717626272
 30
0.0
 11
548.788488424
 21
326.3717626272
 31
0.0
  0
SPLINE
  5
167
330
1F
100
AcDbEntity
  8
0
  6
Continuous
 62
     7
370
    15
100
AcDbSpline
210
0.0
220
0.0
230
1.0
 70
     8
 71
     3
 72
     9
 73
     5
 74
     0
 42
0.00000001
 43
0.00000001
 40
0.0
 40
0.0
 40
0.0
 40
0.0
 40
0.7665030259439413
 40
1.0
 40
1.0
 40
1.0
 40
1.0
 10
550.3315073908736
 20
326.3717626271624
 30
0.0
 10
550.8105783948354
 20
325.3779374251966
 30
0.0
 10
551.4355870219988
 20
324.0813669377653
 30
0.0
 10
551.8345938655541
 20
322.7021511884586
 30
0.0
 10
551.9277607561519
 20
322.380108484425
 30
0.0
  0
LINE
  5
168
330
1F
100
AcDbEntity
  8
0
  6
Continuous
 62
     7
370
    15
100
AcDbLine
 10
495.3302969695
 20
348.7102256207
 30
0.0
 11
499.3895148398
 21
348.7102256207
 31
0.0
  0
LINE
  5
169
330
1F
100
AcDbEntity
  8
0
  6
Continuous
 62
     7
370
    15
100
AcDbLine
 10
548.4710787894
 20
348.7102256207
 30
0.0
 11
552.5302966596
 21
348.7102256207
 31
0.0
  0
SPLINE
  5
16A
330
1F
100
AcDbEntity
  8
0
  6
Continuous
 62
     7
370
    15
100
AcDbSpline
210
0.0
220
0.0
230
1.0
 70
     8
 71
     3
 72
    12
 73
     8
 74
     0
 42
0.00000001
 43
0.00000001
 40
0.0
 40
0.0
 40
0.0
 40
0.0
 40
0.2499999999999994
 40
0.2499999999999994
 40
0.4999999999999989
 40
0.4999999999999989
 40
1.0
 40
1.0
 40
1.0
 40
1.0
 10
550.6987074518009
 20
330.6376061432106
 30
0.0
 10
550.5989285968919
 20
330.6219397136335
 30
0.0
 10
550.4948506004008
 20
330.6109546889112
 30
0.0
 10
550.2845857590715
 20
330.5931225678303
 30
0.0
 10
550.1780225978281
 20
330.5864803926198
 30
0.0
 10
549.8559603239563
 20
330.5708962744404
 30
0.0
 10
549.6380831745059
 20
330.5662429943154
 30
0.0
 10
549.4189248610069
 20
330.5647781438381
 30
0.0
  0
ARC
  5
16B
330
1F
100
AcDbEntity
  8
0
  6
Continuous
 62
     7
370
    15
100
AcDbCircle
 10
551.513191303
 20
327.7122707663
 30
0.0
 40
3.036604658164295
100
AcDbArc
 50
105.5584876645
 51
206.1964127304
  0
ARC
  5
16C
330
1F
100
AcDbEntity
  8
0
  6
Continuous
 62
     7
370
    15
100
AcDbCircle
 10
496.3474023262
 20
327.7122707663
 30
0.0
 40
3.036604658164251
100
AcDbArc
 50
333.8035872696
 51
74.4415123355
  0
SPLINE
  5
16D
330
1F
100
AcDbEntity
  8
0
  6
Continuous
 62
     7
370
    15
100
AcDbSpline
210
0.0
220
0.0
230
1.0
 70
     8
 71
     3
 72
    12
 73
     8
 74
     0
 42
0.00000001
 43
0.00000001
 40
0.0
 40
0.0
 40
0.0
 40
0.0
 40
0.5000000000000009
 40
0.5000000000000009
 40
0.7500000000000004
 40
0.7500000000000004
 40
1.0
 40
1.0
 40
1.0
 40
1.0
 10
498.4416687681376
 20
330.5647781438382
 30
0.0
 10
498.2225662060109
 20
330.5662426216741
 30
0.0
 10
498.004982640368
 20
330.5708847561043
 30
0.0
 10
497.6828184996935
 20
330.5864657305416
 30
0.0
 10
497.5760465516918
 20
330.5931179119553
 30
0.0
 10
497.3655287013266
 20
330.6109742420886
 30
0.0
 10
497.2614249943297
 20
330.6219774023542
 30
0.0
 10
497.1618861773547
 20
330.6376061432106
 30
0.0
  0
SPLINE
  5
16E
330
1F
100
AcDbEntity
  8
0
  6
Continuous
 62
     7
370
    15
100
AcDbSpline
210
0.0
220
0.0
230
1.0
 70
     8
 71
     3
 72
     8
 73
     4
 74
     0
 42
0.00000001
 43
0.00000001
 40
0.0
 40
0.0
 40
0.0
 40
0.0
 40
1.0
 40
1.0
 40
1.0
 40
1.0
 10
497.1618861773547
 20
330.6376061432106
 30
0.0
 10
496.8866930779892
 20
330.6857177966519
 30
0.0
 10
496.6096779278811
 20
330.7102245477814
 30
0.0
 10
496.3307648236283
 20
330.7102245477814
 30
0.0
  0
SPLINE
  5
16F
330
1F
100
AcDbEntity
  8
0
  6
Continuous
 62
     7
370
    15
100
AcDbSpline
210
0.0
220
0.0
230
1.0
 70
     8
 71
     3
 72
     8
 73
     4
 74
     0
 42
0.00000001
 43
0.00000001
 40
0.0
 40
0.0
 40
0.0
 40
0.0
 40
1.0
 40
1.0
 40
1.0
 40
1.0
 10
551.5298288055274
 20
330.7102245477814
 30
0.0
 10
551.2509157012745
 20
330.7102245477814
 30
0.0
 10
550.9739005511664
 20
330.6857177966519
 30
0.0
 10
550.6987074518009
 20
330.6376061432106
 30
0.0
  0
LINE
  5
170
330
1F
100
AcDbEntity
  8
0
  6
Continuous
 62
     7
370
    15
100
AcDbLine
 10
496.3307646574
 20
330.7102263955
 30
0.0
 11
495.5102974088
 21
330.7102263955
 31
0.0
  0
LWPOLYLINE
  5
171
330
1F
100
AcDbEntity
  8
0
  6
Continuous
 62
     7
370
    15
100
AcDbPolyline
 90
        9
 70
   128
 43
0.0
 10
495.3302969695
 20
331.2102236835
 10
495.3337559016
 20
331.1126806823
 10
495.3439985873
 20
331.0188815979
 10
495.3606320085
 20
330.9324399618
 10
495.3830172779
 20
330.8566712824
 10
495.4102938534
 20
330.7944887368
 10
495.4414130659
 20
330.7482839612
 10
495.4751809598
 20
330.7198301939
 10
495.5102974088
 20
330.7102263955
  0
LINE
  5
172
330
1F
100
AcDbEntity
  8
0
  6
Continuous
 62
     7
370
    15
100
AcDbLine
 10
552.3502962203
 20
330.7102263955
 30
0.0
 11
551.5298289718
 21
330.7102263955
 31
0.0
  0
LWPOLYLINE
  5
173
330
1F
100
AcDbEntity
  8
0
  6
Continuous
 62
     7
370
    15
100
AcDbPolyline
 90
        9
 70
   128
 43
0.0
 10
552.3502962203
 20
330.7102263955
 10
552.3854126693
 20
330.7198301939
 10
552.4191805632
 20
330.7482839612
 10
552.4502997757
 20
330.7944887368
 10
552.4775763513
 20
330.8566712824
 10
552.4999616207
 20
330.9324399618
 10
552.5165950419
 20
331.0188815979
 10
552.5268377276
 20
331.1126806823
 10
552.5302966596
 20
331.2102236835
  0
ARC
  5
174
330
1F
100
AcDbEntity
  8
0
  6
Continuous
 62
     7
370
    15
100
AcDbCircle
 10
494.8442176701
 20
327.7102245478
 30
0.0
 40
3.000000000000047
100
AcDbArc
 50
333.5028148323
 51
82.1611403011
  0
LINE
  5
175
330
1F
100
AcDbEntity
  8
0
  6
Continuous
 62
     7
370
    15
100
AcDbLine
 10
552.6072127284
 20
330.6821898607
 30
0.0
 11
552.5769335689
 21
330.6897671012
 31
0.0
  0
SPLINE
  5
176
330
1F
100
AcDbEntity
  8
0
  6
Continuous
 62
     7
370
    15
100
AcDbSpline
210
0.0
220
0.0
230
1.0
 70
     8
 71
     3
 72
    14
 73
    10
 74
     0
 42
0.00000001
 43
0.00000001
 40
0.0
 40
0.0
 40
0.0
 40
0.0
 40
0.25
 40
0.25
 40
0.5
 40
0.5
 40
0.75
 40
0.75
 40
1.0
 40
1.0
 40
1.0
 40
1.0
 10
552.6072135307904
 20
330.6821912935401
 30
0.0
 10
552.1375326323341
 20
330.61752850926
 30
0.0
 10
551.6838524407817
 20
330.4395400748482
 30
0.0
 10
550.907146635223
 20
329.8956156501402
 30
0.0
 10
550.5847681256591
 20
329.5301328248762
 30
0.0
 10
550.1420613884256
 20
328.6916005160231
 30
0.0
 10
550.0221019973145
 20
328.2192496469906
 30
0.0
 10
550.0110564470752
 20
327.2710915989827
 30
0.0
 10
550.1199794904335
 20
326.7960743681193
 30
0.0
 10
550.3315056456325
 20
326.3717653914144
 30
0.0
  0
LINE
  5
177
330
1F
100
AcDbEntity
  8
0
  6
Continuous
 62
     7
370
    15
100
AcDbLine
 10
488.9302966656
 20
348.7102256207
 30
0.0
 11
495.3302969695
 21
348.7102256207
 31
0.0
  0
SPLINE
  5
178
330
1F
100
AcDbEntity
  8
0
  6
Continuous
 62
     7
370
    15
100
AcDbSpline
210
0.0
220
0.0
230
1.0
 70
     8
 71
     3
 72
    10
 73
     6
 74
     0
 42
0.00000001
 43
0.00000001
 40
0.0
 40
0.0
 40
0.0
 40
0.0
 40
0.5
 40
0.5
 40
1.0
 40
1.0
 40
1.0
 40
1.0
 10
495.4570772617816
 20
330.7102245477814
 30
0.0
 10
495.2562713406585
 20
330.7102245477814
 30
0.0
 10
495.0570296478508
 20
330.7408068684979
 30
0.0
 10
494.6812398062074
 20
330.8563851989126
 30
0.0
 10
494.5018680935522
 20
330.941779609063
 30
0.0
 10
494.3365725925817
 20
331.0535805648142
 30
0.0
  0
SPLINE
  5
179
330
1F
100
AcDbEntity
  8
0
  6
Continuous
 62
     7
370
    15
100
AcDbSpline
210
0.0
220
0.0
230
1.0
 70
     8
 71
     3
 72
    10
 73
     6
 74
     0
 42
0.00000001
 43
0.00000001
 40
0.0
 40
0.0
 40
0.0
 40
0.0
 40
0.5
 40
0.5
 40
1.0
 40
1.0
 40
1.0
 40
1.0
 10
553.5240210365739
 20
331.0535805648142
 30
0.0
 10
553.3586055957917
 20
330.9416984853452
 30
0.0
 10
553.1790767780625
 20
330.8560747145591
 30
0.0
 10
552.7996681826526
 20
330.7398364403475
 30
0.0
 10
552.6044840450282
 20
330.7102245477814
 30
0.0
 10
552.4035163673741
 20
330.7102245477814
 30
0.0
  0
LINE
  5
17A
330
1F
100
AcDbEntity
  8
0
  6
Continuous
 62
     7
370
    15
100
AcDbLine
 10
552.5302966596
 20
331.2102236835
 30
0.0
 11
552.5863175751
 21
331.2102236835
 31
0.0
  0
LINE
  5
17B
330
1F
100
AcDbEntity
  8
0
  6
Continuous
 62
     7
370
    15
100
AcDbLine
 10
552.5302966596
 20
348.7102256207
 30
0.0
 11
558.9302969636
 21
348.7102256207
 31
0.0
  0
LINE
  5
17C
330
1F
100
AcDbEntity
  8
0
  6
Continuous
 62
     7
370
    15
100
AcDbLine
 10
495.5102974088
 20
330.7102263955
 30
0.0
 11
495.4570779116
 21
330.7102263955
 31
0.0
  0
LINE
  5
17D
330
1F
100
AcDbEntity
  8
0
  6
Continuous
 62
     7
370
    15
100
AcDbLine
 10
552.4035157175
 20
330.7102263955
 30
0.0
 11
552.3502962203
 21
330.7102263955
 31
0.0
  0
LWPOLYLINE
  5
17E
330
1F
100
AcDbEntity
  8
0
  6
Continuous
 62
     7
370
    15
100
AcDbPolyline
 90
        5
 70
   128
 43
0.0
 10
494.3365720571
 20
331.0535789518
 10
493.280811748
 20
331.7676649479
 10
492.3147638799
 20
332.4210734157
 10
491.454568273
 20
333.0028818039
 10
491.2628909112
 20
333.1325293569
  0
LWPOLYLINE
  5
17F
330
1F
100
AcDbEntity
  8
0
  6
Continuous
 62
     7
370
    15
100
AcDbPolyline
 90
        5
 70
   128
 43
0.0
 10
556.5977027179
 20
333.1325293569
 10
556.4060253562
 20
333.0028818039
 10
555.5458297492
 20
332.4210734157
 10
554.5797818811
 20
331.7676649479
 10
553.524021572
 20
331.0535789518
  0
LINE
  5
180
330
1F
100
AcDbEntity
  8
0
  6
Continuous
 62
     8
370
    15
100
AcDbLine
 10
527.9302970046
 20
369.3175927786
 30
0.0
 11
519.9302966246
 21
369.3175927786
 31
0.0
  0
LINE
  5
181
330
1F
100
AcDbEntity
  8
0
  6
Continuous
 62
     8
370
    15
100
AcDbLine
 10
527.7940000412
 20
370.3528658537
 30
0.0
 11
520.0665935879
 21
370.3528658537
 31
0.0
  0
LINE
  5
182
330
1F
100
AcDbEntity
  8
0
  6
Continuous
 62
     8
370
    15
100
AcDbLine
 10
527.5665934203
 20
371.2015614895
 30
0.0
 11
520.2940002089
 21
371.2015614895
 31
0.0
  0
LINE
  5
183
330
1F
100
AcDbEntity
  8
0
  6
Continuous
 62
     8
370
    15
100
AcDbLine
 10
527.4302969226
 20
372.2368345646
 30
0.0
 11
520.4302967065
 21
372.2368345646
 31
0.0
  0
SPLINE
  5
184
330
1F
100
AcDbEntity
  8
0
  6
Continuous
 62
     8
370
    15
100
AcDbSpline
210
0.0
220
0.0
230
1.0
 70
     8
 71
     3
 72
    12
 73
     8
 74
     0
 42
0.00000001
 43
0.00000001
 40
0.0
 40
0.0
 40
0.0
 40
0.0
 40
0.0317727794462864
 40
0.1898045695212971
 40
0.5101321077784682
 40
0.7536502449291556
 40
1.0
 40
1.0
 40
1.0
 40
1.0
 10
547.1297563524415
 20
264.9580442396779
 30
0.0
 10
547.1847805860544
 20
264.9907469748766
 30
0.0
 10
547.5134849410447
 20
265.1861069240132
 30
0.0
 10
548.2167215120824
 20
265.616226666526
 30
0.0
 10
549.0812961714707
 20
266.1555366538415
 30
0.0
 10
549.8135977737765
 20
266.300185634437
 30
0.0
 10
549.9072382981068
 20
266.3175819110288
 30
0.0
 10
549.954329198735
 20
266.3263303277869
 30
0.0
  0
SPLINE
  5
185
330
1F
100
AcDbEntity
  8
0
  6
Continuous
 62
     8
370
    15
100
AcDbSpline
210
0.0
220
0.0
230
1.0
 70
     8
 71
     3
 72
    12
 73
     8
 74
     0
 42
0.00000001
 43
0.00000001
 40
0.0
 40
0.0
 40
0.0
 40
0.0
 40
0.0000041830274635
 40
0.2895815741959238
 40
0.5842719909177324
 40
0.8680571291414746
 40
1.0
 40
1.0
 40
1.0
 40
1.0
 10
497.9062644304206
 20
266.3263303277869
 30
0.0
 10
497.9062644304126
 20
266.3263303277877
 30
0.0
 10
497.9062638762237
 20
266.3263303874174
 30
0.0
 10
498.1384232321697
 20
266.3012849230716
 30
0.0
 10
498.9549866288111
 20
266.0594271956177
 30
0.0
 10
499.8269520450503
 20
265.5003668284828
 30
0.0
 10
500.4537519815263
 20
265.1227906602974
 30
0.0
 10
500.6526844115426
 20
265.0029563395161
 30
0.0
  0
SPLINE
  5
186
330
1F
100
AcDbEntity
  8
0
  6
Continuous
 62
     8
370
    15
100
AcDbSpline
210
0.0
220
0.0
230
1.0
 70
     8
 71
     3
 72
    10
 73
     6
 74
     0
 42
0.00000001
 43
0.00000001
 40
0.0
 40
0.0
 40
0.0
 40
0.0
 40
0.4989824181319669
 40
0.9986748616805605
 40
1.0
 40
1.0
 40
1.0
 40
1.0
 10
548.9302971871068
 20
262.4102250723023
 30
0.0
 10
548.9092843973427
 20
262.4073477594318
 30
0.0
 10
548.8672289177334
 20
262.4015890394278
 30
0.0
 10
548.7237310093117
 20
262.4136056325743
 30
0.0
 10
548.5825868235875
 20
262.3153893584725
 30
0.0
 10
548.5822135121991
 20
262.3151295868535
 30
0.0
  0
SPLINE
  5
187
330
1F
100
AcDbEntity
  8
0
  6
Continuous
 62
     8
370
    15
100
AcDbSpline
210
0.0
220
0.0
230
1.0
 70
     8
 71
     3
 72
    10
 73
     6
 74
     0
 42
0.00000001
 43
0.00000001
 40
0.0
 40
0.0
 40
0.0
 40
0.0
 40
0.2417597352807151
 40
0.72622554705085
 40
1.0
 40
1.0
 40
1.0
 40
1.0
 10
499.3015588731935
 20
262.2642123190541
 30
0.0
 10
499.2419597785113
 20
262.2955669104458
 30
0.0
 10
499.0629292005324
 20
262.3897534186316
 30
0.0
 10
498.9521235485212
 20
262.3988189785817
 30
0.0
 10
498.9360867704536
 20
262.407199246202
 30
0.0
 10
498.9302964420488
 20
262.4102250723023
 30
0.0
  0
SPLINE
  5
188
330
1F
100
AcDbEntity
  8
0
  6
Continuous
 62
     8
370
    15
100
AcDbSpline
210
0.0
220
0.0
230
1.0
 70
     8
 71
     3
 72
    10
 73
     6
 74
     0
 42
0.00000001
 43
0.00000001
 40
0.0
 40
0.0
 40
0.0
 40
0.0
 40
0.3543856971653515
 40
0.7098093731986251
 40
0.9999999999999999
 40
0.9999999999999999
 40
0.9999999999999999
 40
0.9999999999999999
 10
518.9302969263365
 20
237.7102241901535
 30
0.0
 10
518.9893230949708
 20
237.7571101016625
 30
0.0
 10
519.1075483170828
 20
237.8510192512875
 30
0.0
 10
519.2640296026174
 20
238.4945608895096
 30
0.0
 10
519.3330523698285
 20
239.1548092648752
 30
0.0
 10
519.3640767136087
 20
239.4515776125569
 30
0.0
  0
LINE
  5
189
330
1F
100
AcDbEntity
  8
0
  6
Continuous
 62
     8
370
    15
100
AcDbLine
 10
498.930296442
 20
241.7102248458
 30
0.0
 11
507.1597868116
 21
241.7102248458
 31
0.0
  0
SPLINE
  5
18A
330
1F
100
AcDbEntity
  8
0
  6
Continuous
 62
     8
370
    15
100
AcDbSpline
210
0.0
220
0.0
230
1.0
 70
     8
 71
     3
 72
    11
 73
     7
 74
     0
 42
0.00000001
 43
0.00000001
 40
0.0
 40
0.0
 40
0.0
 40
0.0
 40
0.0685812075980651
 40
0.4105823021099876
 40
0.7563405972274023
 40
0.9999999999999999
 40
0.9999999999999999
 40
0.9999999999999999
 40
0.9999999999999999
 10
528.4945052587857
 20
239.4746967641491
 30
0.0
 10
528.5000907354021
 20
239.395658745945
 30
0.0
 10
528.5335298935598
 20
238.9224735600172
 30
0.0
 10
528.6429326476389
 20
238.2999259172344
 30
0.0
 10
528.7898396426762
 20
237.7835089482718
 30
0.0
 10
528.8892156511824
 20
237.731658605265
 30
0.0
 10
528.9302967028191
 20
237.7102241901535
 30
0.0
  0
LINE
  5
18B
330
1F
100
AcDbEntity
  8
0
  6
Continuous
 62
     8
370
    15
100
AcDbLine
 10
540.7008068175
 20
241.7102248458
 30
0.0
 11
548.9302971871
 21
241.7102248458
 31
0.0
  0
LINE
  5
18C
330
1F
100
AcDbEntity
  8
0
  6
Continuous
 62
     8
370
    15
100
AcDbLine
 10
500.8525350602
 20
327.2535351155
 30
0.0
 11
500.0487179966
 21
326.7642778395
 31
0.0
  0
LINE
  5
18D
330
1F
100
AcDbEntity
  8
0
  6
Continuous
 62
     8
370
    15
100
AcDbLine
 10
547.8118756325
 20
326.7642778395
 30
0.0
 11
546.9272290827
 21
327.3167290775
 31
0.0
  0
LINE
  5
18E
330
1F
100
AcDbEntity
  8
0
  6
Continuous
 62
     8
370
    15
100
AcDbLine
 10
495.3302969695
 20
331.2102236835
 30
0.0
 11
495.3302969695
 21
333.5408360747
 31
0.0
  0
LINE
  5
18F
330
1F
100
AcDbEntity
  8
0
  6
Continuous
 62
     8
370
    15
100
AcDbLine
 10
495.3302969695
 20
346.5929866819
 30
0.0
 11
495.3302969695
 21
348.7102256207
 31
0.0
  0
LINE
  5
190
330
1F
100
AcDbEntity
  8
0
  6
Continuous
 62
     8
370
    15
100
AcDbLine
 10
552.5302966596
 20
331.2102236835
 30
0.0
 11
552.5302966596
 21
333.5408360747
 31
0.0
  0
LINE
  5
191
330
1F
100
AcDbEntity
  8
0
  6
Continuous
 62
     8
370
    15
100
AcDbLine
 10
552.5302966596
 20
346.5929866819
 30
0.0
 11
552.5302966596
 21
348.7102256207
 31
0.0
  0
SPLINE
  5
192
330
1F
100
AcDbEntity
  8
0
  6
Continuous
 62
     8
370
    15
100
AcDbSpline
210
0.0
220
0.0
230
1.0
 70
     8
 71
     3
 72
     9
 73
     5
 74
     0
 42
0.00000001
 43
0.00000001
 40
0.0
 40
0.0
 40
0.0
 40
0.0
 40
0.3088372286271346
 40
1.0
 40
1.0
 40
1.0
 40
1.0
 10
499.7474686713388
 20
330.5922017482895
 30
0.0
 10
499.6107801226489
 20
330.5855934797318
 30
0.0
 10
499.1681892170852
 20
330.5641962259513
 30
0.0
 10
498.7385910203105
 20
330.5645413497094
 30
0.0
 10
498.441668740051
 20
330.5647798864026
 30
0.0
  0
SPLINE
  5
193
330
1F
100
AcDbEntity
  8
0
  6
Continuous
 62
     8
370
    15
100
AcDbSpline
210
0.0
220
0.0
230
1.0
 70
     8
 71
     3
 72
     9
 73
     5
 74
     0
 42
0.00000001
 43
0.00000001
 40
0.0
 40
0.0
 40
0.0
 40
0.0
 40
0.7374300973840263
 40
0.9999999999999999
 40
0.9999999999999999
 40
0.9999999999999999
 40
0.9999999999999999
 10
549.4189248891046
 20
330.5647798864026
 30
0.0
 10
549.122312455391
 20
330.5641333881567
 30
0.0
 10
548.7200879804667
 20
330.56325669727
 30
0.0
 10
548.3047406792092
 20
330.5837302842991
 30
0.0
 10
548.1956829787662
 20
330.5891060320515
 30
0.0
  0
ARC
  5
194
330
1F
100
AcDbEntity
  8
0
  6
Continuous
 62
     7
370
    15
100
AcDbCircle
 10
98.4378307023
 20
369.3175891536
 30
0.0
 40
4.0
100
AcDbArc
 50
165.0
 51
180.0
  0
ARC
  5
195
330
1F
100
AcDbEntity
  8
0
  6
Continuous
 62
     7
370
    15
100
AcDbCircle
 10
98.4378307023
 20
369.3175891536
 30
0.0
 40
4.000000000000014
100
AcDbArc
 50
0.0
 51
15.0
  0
LINE
  5
196
330
1F
100
AcDbEntity
  8
0
  6
Continuous
 62
     7
370
    15
100
AcDbLine
 10
102.3015339289
 20
370.3528658537
 30
0.0
 11
102.0741273079
 21
371.2015614895
 31
0.0
  0
LINE
  5
197
330
1F
100
AcDbEntity
  8
0
  6
Continuous
 62
     7
370
    15
100
AcDbLine
 10
94.8015340966
 20
371.2015614895
 30
0.0
 11
94.5741274756
 21
370.3528658537
 31
0.0
  0
ARC
  5
198
330
1F
100
AcDbEntity
  8
0
  6
Continuous
 62
     7
370
    15
100
AcDbCircle
 10
105.9378307023
 20
372.2368345381
 30
0.0
 40
4.000000000000011
100
AcDbArc
 50
180.0
 51
195.0
  0
ARC
  5
199
330
1F
100
AcDbEntity
  8
0
  6
Continuous
 62
     7
370
    15
100
AcDbCircle
 10
90.9378307023
 20
372.2368345381
 30
0.0
 40
4.0
100
AcDbArc
 50
345.0
 51
0.0
  0
LINE
  5
19A
330
1F
100
AcDbEntity
  8
0
  6
Continuous
 62
     7
370
    15
100
AcDbLine
 10
101.9378308103
 20
391.160221496
 30
0.0
 11
101.9378308103
 21
393.1602255491
 31
0.0
  0
LINE
  5
19B
330
1F
100
AcDbEntity
  8
0
  6
Continuous
 62
     7
370
    15
100
AcDbLine
 10
94.9378305942
 20
393.1602255491
 30
0.0
 11
94.9378305942
 21
391.160221496
 31
0.0
  0
LINE
  5
19C
330
1F
100
AcDbEntity
  8
0
  6
Continuous
 62
     7
370
    15
100
AcDbLine
 10
101.9378308103
 20
393.1602255491
 30
0.0
 11
100.3878306494
 21
394.7102219848
 31
0.0
  0
LINE
  5
19D
330
1F
100
AcDbEntity
  8
0
  6
Continuous
 62
     7
370
    15
100
AcDbLine
 10
96.4878307552
 20
394.7102219848
 30
0.0
 11
94.9378305942
 21
393.1602255491
 31
0.0
  0
LINE
  5
19E
330
1F
100
AcDbEntity
  8
0
  6
Continuous
 62
     7
370
    15
100
AcDbLine
 10
101.9378308103
 20
372.2368345646
 30
0.0
 11
101.9378308103
 21
375.2102271704
 31
0.0
  0
LINE
  5
19F
330
1F
100
AcDbEntity
  8
0
  6
Continuous
 62
     7
370
    15
100
AcDbLine
 10
94.9378305942
 20
375.2102271704
 30
0.0
 11
94.9378305942
 21
372.2368345646
 31
0.0
  0
LINE
  5
1A0
330
1F
100
AcDbEntity
  8
0
  6
Continuous
 62
     7
370
    15
100
AcDbLine
 10
101.9378308103
 20
378.2102257995
 30
0.0
 11
101.9378308103
 21
388.1102220205
 31
0.0
  0
LINE
  5
1A1
330
1F
100
AcDbEntity
  8
0
  6
Continuous
 62
     7
370
    15
100
AcDbLine
 10
94.9378305942
 20
388.1102220205
 30
0.0
 11
94.9378305942
 21
378.2102257995
 31
0.0
  0
LINE
  5
1A2
330
1F
100
AcDbEntity
  8
0
  6
Continuous
 62
     7
370
    15
100
AcDbLine
 10
101.4378307283
 20
375.2102271704
 30
0.0
 11
101.4378307283
 21
378.2102257995
 31
0.0
  0
LINE
  5
1A3
330
1F
100
AcDbEntity
  8
0
  6
Continuous
 62
     7
370
    15
100
AcDbLine
 10
95.4378306762
 20
378.2102257995
 30
0.0
 11
95.4378306762
 21
375.2102271704
 31
0.0
  0
LINE
  5
1A4
330
1F
100
AcDbEntity
  8
0
  6
Continuous
 62
     7
370
    15
100
AcDbLine
 10
100.3878306494
 20
388.1102220205
 30
0.0
 11
100.3878306494
 21
391.160221496
 31
0.0
  0
LINE
  5
1A5
330
1F
100
AcDbEntity
  8
0
  6
Continuous
 62
     7
370
    15
100
AcDbLine
 10
96.4878307552
 20
391.160221496
 30
0.0
 11
96.4878307552
 21
388.1102220205
 31
0.0
  0
LINE
  5
1A6
330
1F
100
AcDbEntity
  8
0
  6
Continuous
 62
     7
370
    15
100
AcDbLine
 10
113.417831146
 20
352.2246346859
 30
0.0
 11
113.417831146
 21
361.7102221636
 31
0.0
  0
LINE
  5
1A7
330
1F
100
AcDbEntity
  8
0
  6
Continuous
 62
     7
370
    15
100
AcDbLine
 10
83.4578302585
 20
361.7102221636
 30
0.0
 11
83.4578302585
 21
352.2246346859
 31
0.0
  0
SPLINE
  5
1A8
330
1F
100
AcDbEntity
  8
0
  6
Continuous
 62
     7
370
    15
100
AcDbSpline
210
0.0
220
0.0
230
1.0
 70
     8
 71
     3
 72
     9
 73
     5
 74
     0
 42
0.00000001
 43
0.00000001
 40
0.0
 40
0.0
 40
0.0
 40
0.0
 40
0.2844826372138741
 40
1.0
 40
1.0
 40
1.0
 40
1.0
 10
89.15262007046971
 20
300.764962756433
 30
0.0
 10
88.92056606627712
 20
300.7691828095311
 30
0.0
 10
88.10486073372938
 20
300.7840169419039
 30
0.0
 10
87.30950411566266
 20
300.8220478101076
 30
0.0
 10
86.74041264582905
 20
300.8492595566291
 30
0.0
  0
LINE
  5
1A9
330
1F
100
AcDbEntity
  8
0
  6
Continuous
 62
     7
370
    15
100
AcDbLine
 10
110.9277511843
 20
296.8125660721
 30
0.0
 11
110.9298587673
 21
296.6292861841
 31
0.0
  0
LINE
  5
1AA
330
1F
100
AcDbEntity
  8
0
  6
Continuous
 62
     7
370
    15
100
AcDbLine
 10
40.9378296592
 20
237.7102241902
 30
0.0
 11
40.9378296592
 21
223.7102256207
 31
0.0
  0
LINE
  5
1AB
330
1F
100
AcDbEntity
  8
0
  6
Continuous
 62
     7
370
    15
100
AcDbLine
 10
155.9378317453
 20
223.7102256207
 30
0.0
 11
155.9378317453
 21
237.7102241902
 31
0.0
  0
ARC
  5
1AC
330
1F
100
AcDbEntity
  8
0
  6
Continuous
 62
     7
370
    15
100
AcDbCircle
 10
63.9378307023
 20
221.7102245478
 30
0.0
 40
2.0
100
AcDbArc
 50
0.0
 51
90.0
  0
ARC
  5
1AD
330
1F
100
AcDbEntity
  8
0
  6
Continuous
 62
     7
370
    15
100
AcDbCircle
 10
132.9378307023
 20
221.7102245478
 30
0.0
 40
2.0
100
AcDbArc
 50
90.0
 51
180.0
  0
ARC
  5
1AE
330
1F
100
AcDbEntity
  8
0
  6
Continuous
 62
     7
370
    15
100
AcDbCircle
 10
69.4378307023
 20
241.7102245478
 30
0.0
 40
4.0
100
AcDbArc
 50
270.0
 51
0.0
  0
ARC
  5
1AF
330
1F
100
AcDbEntity
  8
0
  6
Continuous
 62
     7
370
    15
100
AcDbCircle
 10
127.4378307023
 20
241.7102245478
 30
0.0
 40
4.0
100
AcDbArc
 50
180.0
 51
270.0
  0
LINE
  5
1B0
330
1F
100
AcDbEntity
  8
0
  6
Continuous
 62
     7
370
    15
100
AcDbLine
 10
123.4378310748
 20
261.8107774345
 30
0.0
 11
123.4378310748
 21
262.4102250723
 31
0.0
  0
LINE
  5
1B1
330
1F
100
AcDbEntity
  8
0
  6
Continuous
 62
     7
370
    15
100
AcDbLine
 10
123.4378310748
 20
241.7102248458
 30
0.0
 11
123.4378310748
 21
244.9294381825
 31
0.0
  0
LINE
  5
1B2
330
1F
100
AcDbEntity
  8
0
  6
Continuous
 62
     7
370
    15
100
AcDbLine
 10
73.4378303297
 20
244.9294381825
 30
0.0
 11
73.4378303297
 21
241.7102248458
 31
0.0
  0
LINE
  5
1B3
330
1F
100
AcDbEntity
  8
0
  6
Continuous
 62
     7
370
    15
100
AcDbLine
 10
73.4378303297
 20
262.4101878194
 30
0.0
 11
73.4378303297
 21
261.8107774345
 31
0.0
  0
LINE
  5
1B4
330
1F
100
AcDbEntity
  8
0
  6
Continuous
 62
     7
370
    15
100
AcDbLine
 10
63.4378305532
 20
348.7102256207
 30
0.0
 11
63.4378305532
 21
342.3309453813
 31
0.0
  0
LINE
  5
1B5
330
1F
100
AcDbEntity
  8
0
  6
Continuous
 62
     7
370
    15
100
AcDbLine
 10
133.4378308513
 20
342.3309453813
 30
0.0
 11
133.4378308513
 21
348.7102256207
 31
0.0
  0
LINE
  5
1B6
330
1F
100
AcDbEntity
  8
0
  6
Continuous
 62
     7
370
    15
100
AcDbLine
 10
101.9378308103
 20
393.1602255491
 30
0.0
 11
94.9378305942
 21
393.1602255491
 31
0.0
  0
LINE
  5
1B7
330
1F
100
AcDbEntity
  8
0
  6
Continuous
 62
     7
370
    15
100
AcDbLine
 10
101.9378308103
 20
391.160221496
 30
0.0
 11
94.9378305942
 21
391.160221496
 31
0.0
  0
LINE
  5
1B8
330
1F
100
AcDbEntity
  8
0
  6
Continuous
 62
     7
370
    15
100
AcDbLine
 10
100.3878306494
 20
394.7102219848
 30
0.0
 11
96.4878307552
 21
394.7102219848
 31
0.0
  0
LINE
  5
1B9
330
1F
100
AcDbEntity
  8
0
  6
Continuous
 62
     7
370
    15
100
AcDbLine
 10
101.9378308103
 20
375.2102271704
 30
0.0
 11
94.9378305942
 21
375.2102271704
 31
0.0
  0
LINE
  5
1BA
330
1F
100
AcDbEntity
  8
0
  6
Continuous
 62
     7
370
    15
100
AcDbLine
 10
101.9378308103
 20
388.1102220205
 30
0.0
 11
94.9378305942
 21
388.1102220205
 31
0.0
  0
LINE
  5
1BB
330
1F
100
AcDbEntity
  8
0
  6
Continuous
 62
     7
370
    15
100
AcDbLine
 10
101.9378308103
 20
378.2102257995
 30
0.0
 11
94.9378305942
 21
378.2102257995
 31
0.0
  0
LINE
  5
1BC
330
1F
100
AcDbEntity
  8
0
  6
Continuous
 62
     7
370
    15
100
AcDbLine
 10
113.417831146
 20
361.7102221636
 30
0.0
 11
107.4044573017
 21
361.7102221636
 31
0.0
  0
LINE
  5
1BD
330
1F
100
AcDbEntity
  8
0
  6
Continuous
 62
     7
370
    15
100
AcDbLine
 10
89.4712041028
 20
361.7102221636
 30
0.0
 11
83.4578302585
 21
361.7102221636
 31
0.0
  0
LINE
  5
1BE
330
1F
100
AcDbEntity
  8
0
  6
Continuous
 62
     7
370
    15
100
AcDbLine
 10
89.4712041028
 20
361.7102221636
 30
0.0
 11
89.4712041028
 21
354.7102228789
 31
0.0
  0
LINE
  5
1BF
330
1F
100
AcDbEntity
  8
0
  6
Continuous
 62
     7
370
    15
100
AcDbLine
 10
89.4712041028
 20
354.7102228789
 30
0.0
 11
107.4044573017
 21
354.7102228789
 31
0.0
  0
LINE
  5
1C0
330
1F
100
AcDbEntity
  8
0
  6
Continuous
 62
     7
370
    15
100
AcDbLine
 10
107.4044573017
 20
354.7102228789
 30
0.0
 11
107.4044573017
 21
361.7102221636
 31
0.0
  0
LINE
  5
1C1
330
1F
100
AcDbEntity
  8
0
  6
Continuous
 62
     7
370
    15
100
AcDbLine
 10
107.4044573017
 20
361.7102221636
 30
0.0
 11
89.4712041028
 21
361.7102221636
 31
0.0
  0
CIRCLE
  5
1C2
330
1F
100
AcDbEntity
  8
0
  6
Continuous
 62
     7
370
    15
100
AcDbCircle
 10
98.4378305785
 20
296.7102264263
 30
0.0
 40
12.5000003100112
  0
CIRCLE
  5
1C3
330
1F
100
AcDbEntity
  8
0
  6
Continuous
 62
     7
370
    15
100
AcDbCircle
 10
98.4378307023
 20
296.7102245478
 30
0.0
 40
32.49999999999999
  0
CIRCLE
  5
1C4
330
1F
100
AcDbEntity
  8
0
  6
Continuous
 62
     7
370
    15
100
AcDbCircle
 10
98.4378307023
 20
296.7102245478
 30
0.0
 40
34.5
  0
CIRCLE
  5
1C5
330
1F
100
AcDbEntity
  8
0
  6
Continuous
 62
     7
370
    15
100
AcDbCircle
 10
98.4378307023
 20
296.7102245478
 30
0.0
 40
57.49999999999999
  0
CIRCLE
  5
1C6
330
1F
100
AcDbEntity
  8
0
  6
Continuous
 62
     7
370
    15
100
AcDbCircle
 10
128.4028182617
 20
326.6752121072
 30
0.0
 40
7.0
  0
CIRCLE
  5
1C7
330
1F
100
AcDbEntity
  8
0
  6
Continuous
 62
     7
370
    15
100
AcDbCircle
 10
128.4028182617
 20
266.7452369883
 30
0.0
 40
7.0
  0
CIRCLE
  5
1C8
330
1F
100
AcDbEntity
  8
0
  6
Continuous
 62
     7
370
    15
100
AcDbCircle
 10
68.4728431428
 20
266.7452369883
 30
0.0
 40
7.000000000000007
  0
CIRCLE
  5
1C9
330
1F
100
AcDbEntity
  8
0
  6
Continuous
 62
     7
370
    15
100
AcDbCircle
 10
68.4728431428
 20
326.6752121072
 30
0.0
 40
7.0
  0
LINE
  5
1CA
330
1F
100
AcDbEntity
  8
0
  6
Continuous
 62
     7
370
    15
100
AcDbLine
 10
93.437835005
 20
237.7102241902
 30
0.0
 11
98.4378307023
 21
237.7102241902
 31
0.0
  0
SPLINE
  5
1CB
330
1F
100
AcDbEntity
  8
0
  6
Continuous
 62
     7
370
    15
100
AcDbSpline
210
0.0
220
0.0
230
1.0
 70
     8
 71
     3
 72
    13
 73
     9
 74
     0
 42
0.00000001
 43
0.00000001
 40
0.0
 40
0.0
 40
0.0
 40
0.0
 40
0.0123198590064624
 40
0.1627273522100102
 40
0.398996125449404
 40
0.7309534472193139
 40
0.9970907305987258
 40
0.9999999999999999
 40
0.9999999999999999
 40
0.9999999999999999
 40
0.9999999999999999
 10
96.10456753414604
 20
239.3440731851238
 30
0.0
 10
96.09861424806465
 20
239.3298070651695
 30
0.0
 10
96.01998002989176
 20
239.1413724471063
 30
0.0
 10
95.72214725982954
 20
238.7376650754084
 30
0.0
 10
95.1210454508963
 20
238.1612796495033
 30
0.0
 10
94.30864586077999
 20
237.7921662753625
 30
0.0
 10
93.70909256036396
 20
237.7104399079583
 30
0.0
 10
93.44073265848512
 20
237.7102264978122
 30
0.0
 10
93.4378308140162
 20
237.7102241901535
 30
0.0
  0
SPLINE
  5
1CC
330
1F
100
AcDbEntity
  8
0
  6
Continuous
 62
     7
370
    15
100
AcDbSpline
210
0.0
220
0.0
230
1.0
 70
     8
 71
     3
 72
    12
 73
     8
 74
     0
 42
0.00000001
 43
0.00000001
 40
0.0
 40
0.0
 40
0.0
 40
0.0
 40
0.0029449497527731
 40
0.272428161592335
 40
0.6085589138427898
 40
0.8477981029614927
 40
1.0
 40
1.0
 40
1.0
 40
1.0
 10
103.4378263995472
 20
237.7102241901535
 30
0.0
 10
103.4349259888844
 20
237.7102265173773
 30
0.0
 10
103.1666180002697
 20
237.7104418016224
 30
0.0
 10
102.5650678375047
 20
237.7910993689198
 30
0.0
 10
101.7620759614557
 20
238.1654214335348
 30
0.0
 10
101.1375175956352
 20
238.7286567558183
 30
0.0
 10
100.8868567474108
 20
239.1408471324864
 30
0.0
 10
100.7893936604682
 20
239.3011168626923
 30
0.0
  0
LINE
  5
1CD
330
1F
100
AcDbEntity
  8
0
  6
Continuous
 62
     7
370
    15
100
AcDbLine
 10
98.4378307023
 20
237.7102241902
 30
0.0
 11
103.4378263995
 21
237.7102241902
 31
0.0
  0
LINE
  5
1CE
330
1F
100
AcDbEntity
  8
0
  6
Continuous
 62
     7
370
    15
100
AcDbLine
 10
40.9378296592
 20
223.7102256207
 30
0.0
 11
155.9378317453
 21
223.7102256207
 31
0.0
  0
LINE
  5
1CF
330
1F
100
AcDbEntity
  8
0
  6
Continuous
 62
     7
370
    15
100
AcDbLine
 10
103.4378305905
 20
237.7102241902
 30
0.0
 11
155.9378317453
 21
237.7102241902
 31
0.0
  0
LINE
  5
1D0
330
1F
100
AcDbEntity
  8
0
  6
Continuous
 62
     7
370
    15
100
AcDbLine
 10
40.9378296592
 20
237.7102241902
 30
0.0
 11
93.437830814
 21
237.7102241902
 31
0.0
  0
SPLINE
  5
1D1
330
1F
100
AcDbEntity
  8
0
  6
Continuous
 62
     7
370
    15
100
AcDbSpline
210
0.0
220
0.0
230
1.0
 70
     8
 71
     3
 72
     9
 73
     5
 74
     0
 42
0.00000001
 43
0.00000001
 40
0.0
 40
0.0
 40
0.0
 40
0.0
 40
0.8014314705276866
 40
1.0
 40
1.0
 40
1.0
 40
1.0
 10
72.03662012596163
 20
326.3717626271624
 30
0.0
 10
71.55553210921634
 20
325.3786750075281
 30
0.0
 10
70.95524620276383
 20
324.139532727552
 30
0.0
 10
70.57111288150587
 20
322.8213469147204
 30
0.0
 10
70.49483609278235
 20
322.5595966962952
 30
0.0
  0
SPLINE
  5
1D2
330
1F
100
AcDbEntity
  8
0
  6
Continuous
 62
     7
370
    15
100
AcDbSpline
210
0.0
220
0.0
230
1.0
 70
     8
 71
     3
 72
    18
 73
    14
 74
     0
 42
0.00000001
 43
0.00000001
 40
0.0
 40
0.0
 40
0.0
 40
0.0
 40
0.1250000000000001
 40
0.1250000000000001
 40
0.2500000000000002
 40
0.2500000000000002
 40
0.5
 40
0.5
 40
0.625
 40
0.625
 40
0.75
 40
0.75
 40
1.0
 40
1.0
 40
1.0
 40
1.0
 10
73.5636676644783
 20
326.3934345755284
 30
0.0
 10
73.48316769616275
 20
326.3972582859542
 30
0.0
 10
73.40296852246091
 20
326.3999850800377
 30
0.0
 10
73.24154790975405
 20
326.4001576817664
 30
0.0
 10
73.16147387851468
 20
326.3999799643273
 30
0.0
 10
72.92314667239421
 20
326.3986211781067
 30
0.0
 10
72.76678262150566
 20
326.3966145772238
 30
0.0
 10
72.53604099883005
 20
326.3918162629743
 30
0.0
 10
72.45922496292009
 20
326.390298662439
 30
0.0
 10
72.30916157494141
 20
326.3848369682249
 30
0.0
 10
72.24292467344965
 20
326.3812589412642
 30
0.0
 10
72.08813862221969
 20
326.374069981946
 30
0.0
 10
72.03662187120294
 20
326.3717653914146
 30
0.0
 10
72.03662187120291
 20
326.3717653914146
 30
0.0
  0
SPLINE
  5
1D3
330
1F
100
AcDbEntity
  8
0
  6
Continuous
 62
     7
370
    15
100
AcDbSpline
210
0.0
220
0.0
230
1.0
 70
     8
 71
     3
 72
    22
 73
    18
 74
     0
 42
0.00000001
 43
0.00000001
 40
0.0
 40
0.0
 40
0.0
 40
0.0
 40
0.0625
 40
0.0625
 40
0.1249999999999999
 40
0.1249999999999999
 40
0.2499999999999999
 40
0.2499999999999999
 40
0.3749999999999998
 40
0.3749999999999998
 40
0.4999999999999998
 40
0.4999999999999998
 40
0.7499999999999998
 40
0.7499999999999998
 40
0.8749999999999999
 40
0.8749999999999999
 40
1.0
 40
1.0
 40
1.0
 40
1.0
 10
124.8390395333121
 20
326.3717653914144
 30
0.0
 10
124.8390394792722
 20
326.3717654998154
 30
0.0
 10
124.835814957936
 20
326.371910255844
 30
0.0
 10
124.8229234845925
 20
326.3724934289435
 30
0.0
 10
124.8132565836104
 20
326.3729317376423
 30
0.0
 10
124.7745905788171
 20
326.3746944448047
 30
0.0
 10
124.7359300133233
 20
326.3764659371213
 30
0.0
 10
124.6327388181282
 20
326.3812586302863
 30
0.0
 10
124.5664996491197
 20
326.3848370835333
 30
0.0
 10
124.4164354520245
 20
326.3902980401573
 30
0.0
 10
124.3396200680754
 20
326.3918154820273
 30
0.0
 10
124.1088750491247
 20
326.3966129274748
 30
0.0
 10
123.9525055835999
 20
326.3986186522521
 30
0.0
 10
123.7141701924384
 20
326.3999760385038
 30
0.0
 10
123.634093404872
 20
326.4001532750687
 30
0.0
 10
123.4726679699323
 20
326.3999797421589
 30
0.0
 10
123.3924701121775
 20
326.3972453468303
 30
0.0
 10
123.3119687469197
 20
326.3934212003471
 30
0.0
  0
ARC
  5
1D4
330
1F
100
AcDbEntity
  8
0
  6
Continuous
 62
     7
370
    15
100
AcDbCircle
 10
98.4378307023
 20
313.2102245478
 30
0.0
 40
29.50000000000001
100
AcDbArc
 50
12.823660617
 51
26.4971851677
  0
LINE
  5
1D5
330
1F
100
AcDbEntity
  8
0
  6
Continuous
 62
     7
370
    15
100
AcDbLine
 10
65.9378318944
 20
221.7102215675
 30
0.0
 11
130.9378295102
 21
221.7102215675
 31
0.0
  0
ARC
  5
1D6
330
1F
100
AcDbEntity
  8
0
  6
Continuous
 62
     7
370
    15
100
AcDbCircle
 10
98.4378307023
 20
280.2102245478
 30
0.0
 40
29.50000000000002
100
AcDbArc
 50
332.6477670909
 51
347.1323810819
  0
SPLINE
  5
1D7
330
1F
100
AcDbEntity
  8
0
  6
Continuous
 62
     7
370
    15
100
AcDbSpline
210
0.0
220
0.0
230
1.0
 70
     8
 71
     3
 72
     9
 73
     5
 74
     0
 42
0.00000001
 43
0.00000001
 40
0.0
 40
0.0
 40
0.0
 40
0.0
 40
0.6053656097034155
 40
1.0
 40
1.0
 40
1.0
 40
1.0
 10
72.23596786041293
 20
266.656171256103
 30
0.0
 10
71.58993858961199
 20
268.0033471313903
 30
0.0
 10
70.52276651963356
 20
270.2287392806855
 30
0.0
 10
69.98369719186408
 20
272.6326530864586
 30
0.0
 10
69.77096189637217
 20
273.5813201455254
 30
0.0
  0
SPLINE
  5
1D8
330
1F
100
AcDbEntity
  8
0
  6
Continuous
 62
     7
370
    15
100
AcDbSpline
210
0.0
220
0.0
230
1.0
 70
     8
 71
     3
 72
    10
 73
     6
 74
     0
 42
0.00000001
 43
0.00000001
 40
0.0
 40
0.0
 40
0.0
 40
0.0
 40
0.5
 40
0.5
 40
1.0
 40
1.0
 40
1.0
 40
1.0
 10
73.43783070225749
 20
262.4102244825297
 30
0.0
 10
73.43783070225746
 20
263.092266481348
 30
0.0
 10
73.35013684076118
 20
263.7742599874736
 30
0.0
 10
73.00504224682675
 20
265.0939701351369
 30
0.0
 10
72.74766605036446
 20
265.7315929462379
 30
0.0
 10
72.41379743354317
 20
266.3263307328749
 30
0.0
  0
SPLINE
  5
1D9
330
1F
100
AcDbEntity
  8
0
  6
Continuous
 62
     7
370
    15
100
AcDbSpline
210
0.0
220
0.0
230
1.0
 70
     8
 71
     3
 72
    10
 73
     6
 74
     0
 42
0.00000001
 43
0.00000001
 40
0.0
 40
0.0
 40
0.0
 40
0.0
 40
0.5
 40
0.5
 40
1.0
 40
1.0
 40
1.0
 40
1.0
 10
124.4618639709718
 20
266.3263307328748
 30
0.0
 10
124.1279953541505
 20
265.7315929462378
 30
0.0
 10
123.8706191576882
 20
265.0939701351368
 30
0.0
 10
123.5255245637538
 20
263.7742599874735
 30
0.0
 10
123.4378307022575
 20
263.0922664813477
 30
0.0
 10
123.4378307022575
 20
262.4102244825295
 30
0.0
  0
SPLINE
  5
1DA
330
1F
100
AcDbEntity
  8
0
  6
Continuous
 62
     7
370
    15
100
AcDbSpline
210
0.0
220
0.0
230
1.0
 70
     8
 71
     3
 72
     8
 73
     4
 74
     0
 42
0.00000001
 43
0.00000001
 40
0.0
 40
0.0
 40
0.0
 40
0.0
 40
1.0
 40
1.0
 40
1.0
 40
1.0
 10
124.4617868739735
 20
266.3261577745065
 30
0.0
 10
124.5229580949756
 20
266.4351407181898
 30
0.0
 10
124.5822718157937
 20
266.5451662580729
 30
0.0
 10
124.6396935883155
 20
266.6561704937274
 30
0.0
  0
SPLINE
  5
1DB
330
1F
100
AcDbEntity
  8
0
  6
Continuous
 62
     7
370
    15
100
AcDbSpline
210
0.0
220
0.0
230
1.0
 70
     8
 71
     3
 72
    14
 73
    10
 74
     0
 42
0.00000001
 43
0.00000001
 40
0.0
 40
0.0
 40
0.0
 40
0.0
 40
0.4999999999999942
 40
0.7500000000000036
 40
0.8750000000000082
 40
0.9375000000000041
 40
0.9687500000000021
 40
0.9687500000000021
 40
1.0
 40
1.0
 40
1.0
 40
1.0
 10
72.41388973726475
 20
266.3261663106891
 30
0.0
 10
72.3833089274392
 20
266.3806393313607
 30
0.0
 10
72.3381323723111
 20
266.4627435574517
 30
0.0
 10
72.28664374496898
 20
266.5592252172029
 30
0.0
 10
72.26120413393107
 20
266.607639839231
 30
0.0
 10
72.2485605542357
 20
266.631890656315
 30
0.0
 10
72.24315821715824
 20
266.6422931928843
 30
0.0
 10
72.23956029087779
 20
266.6492302911718
 30
0.0
 10
72.23681824052127
 20
266.6545265057813
 30
0.0
 10
72.23596781556982
 20
266.6561704949447
 30
0.0
  0
LINE
  5
1DC
330
1F
100
AcDbEntity
  8
0
  6
Continuous
 62
     7
370
    15
100
AcDbLine
 10
122.978612677
 20
348.7102256207
 30
0.0
 11
127.0378305473
 21
348.7102256207
 31
0.0
  0
LINE
  5
1DD
330
1F
100
AcDbEntity
  8
0
  6
Continuous
 62
     7
370
    15
100
AcDbLine
 10
69.8378308572
 20
348.7102256207
 30
0.0
 11
73.8970487275
 21
348.7102256207
 31
0.0
  0
SPLINE
  5
1DE
330
1F
100
AcDbEntity
  8
0
  6
Continuous
 62
     7
370
    15
100
AcDbSpline
210
0.0
220
0.0
230
1.0
 70
     8
 71
     3
 72
    14
 73
    10
 74
     0
 42
0.00000001
 43
0.00000001
 40
0.0
 40
0.0
 40
0.0
 40
0.0
 40
0.25
 40
0.25
 40
0.5
 40
0.5
 40
0.75
 40
0.75
 40
1.0
 40
1.0
 40
1.0
 40
1.0
 10
69.76091398604484
 20
330.6821912935401
 30
0.0
 10
70.23059488450117
 20
330.61752850926
 30
0.0
 10
70.68427507605368
 20
330.4395400748482
 30
0.0
 10
71.46098088161229
 20
329.8956156501402
 30
0.0
 10
71.7833593911761
 20
329.5301328248762
 30
0.0
 10
72.2260661284096
 20
328.6916005160231
 30
0.0
 10
72.34602551952077
 20
328.2192496469906
 30
0.0
 10
72.35707106976008
 20
327.2710915989827
 30
0.0
 10
72.24814802640181
 20
326.7960743681193
 30
0.0
 10
72.03662187120284
 20
326.3717653914144
 30
0.0
  0
SPLINE
  5
1DF
330
1F
100
AcDbEntity
  8
0
  6
Continuous
 62
     7
370
    15
100
AcDbSpline
210
0.0
220
0.0
230
1.0
 70
     8
 71
     3
 72
    16
 73
    12
 74
     0
 42
0.00000001
 43
0.00000001
 40
0.0
 40
0.0
 40
0.0
 40
0.0
 40
0.2499999999999979
 40
0.2499999999999979
 40
0.3749999999999977
 40
0.3749999999999977
 40
0.4999999999999974
 40
0.4999999999999974
 40
0.7499999999999987
 40
0.7499999999999987
 40
1.0
 40
1.0
 40
1.0
 40
1.0
 10
73.20335190476362
 20
329.1336476413677
 30
0.0
 10
73.04950974401136
 20
329.3946627375513
 30
0.0
 10
72.8627079878808
 20
329.6212960402353
 30
0.0
 10
72.54153375546778
 20
329.9185153763101
 30
0.0
 10
72.42716897040674
 20
330.0103618468227
 30
0.0
 10
72.19154892815591
 20
330.1753477047754
 30
0.0
 10
72.06954909480022
 20
330.2492432851942
 30
0.0
 10
71.69179621129935
 20
330.4468161645001
 30
0.0
 10
71.42317695779523
 20
330.546226423129
 30
0.0
 10
70.87969231106126
 20
330.6771010432903
 30
0.0
 10
70.60034300840738
 20
330.7102245477813
 30
0.0
 10
70.31923577255199
 20
330.7102245477813
 30
0.0
  0
SPLINE
  5
1E0
330
1F
100
AcDbEntity
  8
0
  6
Continuous
 62
     7
370
    15
100
AcDbSpline
210
0.0
220
0.0
230
1.0
 70
     8
 71
     3
 72
    14
 73
    10
 74
     0
 42
0.00000001
 43
0.00000001
 40
0.0
 40
0.0
 40
0.0
 40
0.0
 40
0.2500000000000037
 40
0.2500000000000037
 40
0.375000000000003
 40
0.375000000000003
 40
0.5000000000000023
 40
0.5000000000000023
 40
1.0
 40
1.0
 40
1.0
 40
1.0
 10
73.20335190476362
 20
329.1336476413677
 30
0.0
 10
73.34789947974507
 20
328.8884021312785
 30
0.0
 10
73.45508809532555
 20
328.6422911829578
 30
0.0
 10
73.57383589538837
 20
328.2722013502083
 30
0.0
 10
73.60614156393586
 20
328.1485664804838
 30
0.0
 10
73.65622676761615
 20
327.9078436368117
 30
0.0
 10
73.67433754767157
 20
327.789802041197
 30
0.0
 10
73.73437450075659
 20
327.2096788348942
 30
0.0
 10
73.68522536784842
 20
326.7744554191984
 30
0.0
 10
73.56366766447748
 20
326.393434575527
 30
0.0
  0
ARC
  5
1E1
330
1F
100
AcDbEntity
  8
0
  6
Continuous
 62
     7
370
    15
100
AcDbCircle
 10
73.7524553696
 20
328.7994369663
 30
0.0
 40
0.6428150670732764
100
AcDbArc
 50
117.2551833763
 51
148.6734367688
  0
ARC
  5
1E2
330
1F
100
AcDbEntity
  8
0
  6
Continuous
 62
     7
370
    15
100
AcDbCircle
 10
127.5239098468
 20
327.7102245478
 30
0.0
 40
3.00000000000005
100
AcDbArc
 50
97.8388596989
 51
206.4971851677
  0
SPLINE
  5
1E3
330
1F
100
AcDbEntity
  8
0
  6
Continuous
 62
     7
370
    15
100
AcDbSpline
210
0.0
220
0.0
230
1.0
 70
     8
 71
     3
 72
    14
 73
    10
 74
     0
 42
0.00000001
 43
0.00000001
 40
0.0
 40
0.0
 40
0.0
 40
0.0
 40
0.25
 40
0.25
 40
0.5
 40
0.5
 40
0.75
 40
0.75
 40
1.0
 40
1.0
 40
1.0
 40
1.0
 10
123.6722759630317
 20
329.1336314729598
 30
0.0
 10
123.5278785176121
 20
328.8886379700112
 30
0.0
 10
123.4201775191362
 20
328.6416932257125
 30
0.0
 10
123.2611268093937
 20
328.1448734455327
 30
0.0
 10
123.2131467006247
 20
327.9051563353148
 30
0.0
 10
123.1651625545331
 20
327.4397714742094
 30
0.0
 10
123.1658600129852
 20
327.2136208656788
 30
0.0
 10
123.2087023616567
 20
326.7878610454428
 30
0.0
 10
123.250982049694
 20
326.5845811981169
 30
0.0
 10
123.3119687469158
 20
326.3934212003552
 30
0.0
  0
SPLINE
  5
1E4
330
1F
100
AcDbEntity
  8
0
  6
Continuous
 62
     7
370
    15
100
AcDbSpline
210
0.0
220
0.0
230
1.0
 70
     8
 71
     3
 72
    18
 73
    14
 74
     0
 42
0.00000001
 43
0.00000001
 40
0.0
 40
0.0
 40
0.0
 40
0.0
 40
0.2500000000000017
 40
0.2500000000000017
 40
0.3750000000000022
 40
0.3750000000000022
 40
0.5000000000000028
 40
0.5000000000000028
 40
0.750000000000002
 40
0.750000000000002
 40
0.875000000000001
 40
0.875000000000001
 40
1.0
 40
1.0
 40
1.0
 40
1.0
 10
126.5564124456084
 20
330.7102245477814
 30
0.0
 10
126.2746716498879
 20
330.7102245477813
 30
0.0
 10
125.99856437867
 20
330.6774143158165
 30
0.0
 10
125.5926537499177
 20
330.5801385717868
 30
0.0
 10
125.4587414798927
 20
330.5396085559965
 30
0.0
 10
125.1938816701299
 20
330.4412734020828
 30
0.0
 10
125.0623060065456
 20
330.3830301246462
 30
0.0
 10
124.683380512744
 20
330.1854879876555
 30
0.0
 10
124.4482559932778
 20
330.0230628041517
 30
0.0
 10
124.1258125994649
 20
329.7262789518861
 30
0.0
 10
124.0231538364968
 20
329.6177809944863
 30
0.0
 10
123.8353457377547
 20
329.3871843901732
 30
0.0
 10
123.7494062806139
 20
329.2644954687408
 30
0.0
 10
123.6722759630342
 20
329.1336314729656
 30
0.0
  0
ARC
  5
1E5
330
1F
100
AcDbEntity
  8
0
  6
Continuous
 62
     7
370
    15
100
AcDbCircle
 10
123.1231717911
 20
328.7994100114
 30
0.0
 40
0.6428219458682017
100
AcDbArc
 50
31.3274477881
 51
62.745247416
  0
LINE
  5
1E6
330
1F
100
AcDbEntity
  8
0
  6
Continuous
 62
     7
370
    15
100
AcDbLine
 10
126.857830108
 20
330.7102263955
 30
0.0
 11
126.5564131447
 21
330.7102263955
 31
0.0
  0
LWPOLYLINE
  5
1E7
330
1F
100
AcDbEntity
  8
0
  6
Continuous
 62
     7
370
    15
100
AcDbPolyline
 90
        9
 70
   128
 43
0.0
 10
127.0378305473
 20
331.2102236835
 10
127.0343716152
 20
331.1126806823
 10
127.0241289296
 20
331.0188815979
 10
127.0074955084
 20
330.9324399618
 10
126.985110239
 20
330.8566712824
 10
126.9578336634
 20
330.7944887368
 10
126.9267144509
 20
330.7482839612
 10
126.892946557
 20
330.7198301939
 10
126.857830108
 20
330.7102263955
  0
LINE
  5
1E8
330
1F
100
AcDbEntity
  8
0
  6
Continuous
 62
     7
370
    15
100
AcDbLine
 10
70.3192352213
 20
330.7102263955
 30
0.0
 11
70.0178312965
 21
330.7102263955
 31
0.0
  0
LWPOLYLINE
  5
1E9
330
1F
100
AcDbEntity
  8
0
  6
Continuous
 62
     7
370
    15
100
AcDbPolyline
 90
        9
 70
   128
 43
0.0
 10
70.0178312965
 20
330.7102263955
 10
69.9827148475
 20
330.7198301939
 10
69.9489469536
 20
330.7482839612
 10
69.9178277411
 20
330.7944887368
 10
69.8905511655
 20
330.8566712824
 10
69.8681658961
 20
330.9324399618
 10
69.8515324749
 20
331.0188815979
 10
69.8412897893
 20
331.1126806823
 10
69.8378308572
 20
331.2102236835
  0
SPLINE
  5
1EA
330
1F
100
AcDbEntity
  8
0
  6
Continuous
 62
     7
370
    15
100
AcDbSpline
210
0.0
220
0.0
230
1.0
 70
     8
 71
     3
 72
    10
 73
     6
 74
     0
 42
0.00000001
 43
0.00000001
 40
0.0
 40
0.0
 40
0.0
 40
0.0
 40
0.5
 40
0.5
 40
1.0
 40
1.0
 40
1.0
 40
1.0
 10
69.96461114946123
 20
330.7102245477814
 30
0.0
 10
69.76349389711491
 20
330.7102245477814
 30
0.0
 10
69.56444373267112
 20
330.7407342001329
 30
0.0
 10
69.18686237074508
 20
330.8570831532444
 30
0.0
 10
69.00966619816299
 20
330.941600900597
 30
0.0
 10
68.84410648026135
 20
331.0535805648142
 30
0.0
  0
LINE
  5
1EB
330
1F
100
AcDbEntity
  8
0
  6
Continuous
 62
     7
370
    15
100
AcDbLine
 10
63.4378305532
 20
348.7102256207
 30
0.0
 11
69.8378308572
 21
348.7102256207
 31
0.0
  0
LINE
  5
1EC
330
1F
100
AcDbEntity
  8
0
  6
Continuous
 62
     7
370
    15
100
AcDbLine
 10
127.0378305473
 20
348.7102256207
 30
0.0
 11
133.4378308513
 21
348.7102256207
 31
0.0
  0
SPLINE
  5
1ED
330
1F
100
AcDbEntity
  8
0
  6
Continuous
 62
     7
370
    15
100
AcDbSpline
210
0.0
220
0.0
230
1.0
 70
     8
 71
     3
 72
    10
 73
     6
 74
     0
 42
0.00000001
 43
0.00000001
 40
0.0
 40
0.0
 40
0.0
 40
0.0
 40
0.5
 40
0.5
 40
1.0
 40
1.0
 40
1.0
 40
1.0
 10
128.0315549242536
 20
331.0535805648142
 30
0.0
 10
127.866259423283
 20
330.941779609063
 30
0.0
 10
127.6868877106279
 20
330.8563851989126
 30
0.0
 10
127.3110978689845
 20
330.7408068684979
 30
0.0
 10
127.1118561761768
 20
330.7102245477814
 30
0.0
 10
126.9110502550538
 20
330.7102245477814
 30
0.0
  0
LINE
  5
1EE
330
1F
100
AcDbEntity
  8
0
  6
Continuous
 62
     7
370
    15
100
AcDbLine
 10
126.9110496052
 20
330.7102263955
 30
0.0
 11
126.857830108
 21
330.7102263955
 31
0.0
  0
LINE
  5
1EF
330
1F
100
AcDbEntity
  8
0
  6
Continuous
 62
     7
370
    15
100
AcDbLine
 10
70.0178312965
 20
330.7102263955
 30
0.0
 11
69.9646117993
 21
330.7102263955
 31
0.0
  0
LWPOLYLINE
  5
1F0
330
1F
100
AcDbEntity
  8
0
  6
Continuous
 62
     7
370
    15
100
AcDbPolyline
 90
        5
 70
   128
 43
0.0
 10
131.1052366056
 20
333.1325293569
 10
130.9135592439
 20
333.0028818039
 10
130.0533636369
 20
332.4210734157
 10
129.0873157688
 20
331.7676649479
 10
128.0315554597
 20
331.0535789518
  0
LWPOLYLINE
  5
1F1
330
1F
100
AcDbEntity
  8
0
  6
Continuous
 62
     7
370
    15
100
AcDbPolyline
 90
        5
 70
   128
 43
0.0
 10
68.8441059448
 20
331.0535789518
 10
67.7883456357
 20
331.7676649479
 10
66.8222977676
 20
332.4210734157
 10
65.9621021606
 20
333.0028818039
 10
65.7704247989
 20
333.1325293569
  0
SPLINE
  5
1F2
330
1F
100
AcDbEntity
  8
0
  6
Continuous
 62
     7
370
    15
100
AcDbSpline
210
0.0
220
0.0
230
1.0
 70
     8
 71
     3
 72
     8
 73
     4
 74
     0
 42
0.00000001
 43
0.00000001
 40
0.0
 40
0.0
 40
0.0
 40
0.0
 40
1.0
 40
1.0
 40
1.0
 40
1.0
 10
69.76091398080268
 20
330.6821912554633
 30
0.0
 10
69.4585153694689
 20
330.7238236695204
 30
0.0
 10
69.16603038335315
 20
330.8358408209404
 30
0.0
 10
68.91318426029824
 20
331.0068584109507
 30
0.0
  0
LINE
  5
1F3
330
1F
100
AcDbEntity
  8
0
  6
Continuous
 62
     8
370
    15
100
AcDbLine
 10
102.3015339289
 20
370.3528658537
 30
0.0
 11
94.5741274756
 21
370.3528658537
 31
0.0
  0
LINE
  5
1F4
330
1F
100
AcDbEntity
  8
0
  6
Continuous
 62
     8
370
    15
100
AcDbLine
 10
102.4378308922
 20
369.3175927786
 30
0.0
 11
94.4378305123
 21
369.3175927786
 31
0.0
  0
LINE
  5
1F5
330
1F
100
AcDbEntity
  8
0
  6
Continuous
 62
     8
370
    15
100
AcDbLine
 10
102.0741273079
 20
371.2015614895
 30
0.0
 11
94.8015340966
 21
371.2015614895
 31
0.0
  0
LINE
  5
1F6
330
1F
100
AcDbEntity
  8
0
  6
Continuous
 62
     8
370
    15
100
AcDbLine
 10
101.9378308103
 20
372.2368345646
 30
0.0
 11
94.9378305942
 21
372.2368345646
 31
0.0
  0
SPLINE
  5
1F7
330
1F
100
AcDbEntity
  8
0
  6
Continuous
 62
     8
370
    15
100
AcDbSpline
210
0.0
220
0.0
230
1.0
 70
     8
 71
     3
 72
     9
 73
     5
 74
     0
 42
0.00000001
 43
0.00000001
 40
0.0
 40
0.0
 40
0.0
 40
0.0
 40
0.3807963850161328
 40
1.0
 40
1.0
 40
1.0
 40
1.0
 10
75.12992237587008
 20
328.5363108901162
 30
0.0
 10
74.90017013635065
 20
328.2934686599855
 30
0.0
 10
74.29682344357754
 20
327.6557466655388
 30
0.0
 10
73.8440350937537
 20
326.8761583849891
 30
0.0
 10
73.5636669107202
 20
326.3934345034737
 30
0.0
  0
SPLINE
  5
1F8
330
1F
100
AcDbEntity
  8
0
  6
Continuous
 62
     8
370
    15
100
AcDbSpline
210
0.0
220
0.0
230
1.0
 70
     8
 71
     3
 72
     9
 73
     5
 74
     0
 42
0.00000001
 43
0.00000001
 40
0.0
 40
0.0
 40
0.0
 40
0.0
 40
0.5916574568682057
 40
1.0
 40
1.0
 40
1.0
 40
1.0
 10
123.3119684167627
 20
326.3934214649577
 30
0.0
 10
123.0375531432789
 20
326.8692776979317
 30
0.0
 10
122.5737454614889
 20
327.6735542729162
 30
0.0
 10
121.9435341965177
 20
328.3196330059378
 30
0.0
 10
121.6861921258691
 20
328.5834544388432
 30
0.0
  0
LINE
  5
1F9
330
1F
100
AcDbEntity
  8
0
  6
Continuous
 62
     8
370
    15
100
AcDbLine
 10
121.4033848502
 20
266.6561712561
 30
0.0
 11
124.6396935441
 21
266.6561712561
 31
0.0
  0
LINE
  5
1FA
330
1F
100
AcDbEntity
  8
0
  6
Continuous
 62
     8
370
    15
100
AcDbLine
 10
72.2359678604
 20
266.6561712561
 30
0.0
 11
75.4722765543
 21
266.6561712561
 31
0.0
  0
SPLINE
  5
1FB
330
1F
100
AcDbEntity
  8
0
  6
Continuous
 62
     8
370
    15
100
AcDbSpline
210
0.0
220
0.0
230
1.0
 70
     8
 71
     3
 72
    10
 73
     6
 74
     0
 42
0.00000001
 43
0.00000001
 40
0.0
 40
0.0
 40
0.0
 40
0.0
 40
0.3593007017091174
 40
0.7196537781009231
 40
0.9999999999999999
 40
0.9999999999999999
 40
0.9999999999999999
 40
0.9999999999999999
 10
93.4378308140162
 20
237.7102241901535
 30
0.0
 10
93.49683824881005
 20
237.7572534284998
 30
0.0
 10
93.61502594837047
 20
237.8514496515967
 30
0.0
 10
93.76962782645545
 20
238.4841900204751
 30
0.0
 10
93.83730540350597
 20
239.1295534508674
 30
0.0
 10
93.8669185981575
 20
239.4119405237812
 30
0.0
  0
LINE
  5
1FC
330
1F
100
AcDbEntity
  8
0
  6
Continuous
 62
     8
370
    15
100
AcDbLine
 10
73.4378303297
 20
241.7102248458
 30
0.0
 11
81.6673206993
 21
241.7102248458
 31
0.0
  0
SPLINE
  5
1FD
330
1F
100
AcDbEntity
  8
0
  6
Continuous
 62
     8
370
    15
100
AcDbSpline
210
0.0
220
0.0
230
1.0
 70
     8
 71
     3
 72
    11
 73
     7
 74
     0
 42
0.00000001
 43
0.00000001
 40
0.0
 40
0.0
 40
0.0
 40
0.0
 40
0.0703858737482017
 40
0.411724325629752
 40
0.7568126983702324
 40
1.0
 40
1.0
 40
1.0
 40
1.0
 10
103.001544148517
 20
239.4813017038483
 30
0.0
 10
103.0072821250344
 20
239.3999968771106
 30
0.0
 10
103.0408465945265
 20
238.9244018013317
 30
0.0
 10
103.15044038718
 20
238.299790141481
 30
0.0
 10
103.2973778915094
 20
237.7835315938199
 30
0.0
 10
103.3967508144177
 20
237.7316652286624
 30
0.0
 10
103.4378305904988
 20
237.7102241901535
 30
0.0
  0
LINE
  5
1FE
330
1F
100
AcDbEntity
  8
0
  6
Continuous
 62
     8
370
    15
100
AcDbLine
 10
115.2083407052
 20
241.7102248458
 30
0.0
 11
123.4378310748
 21
241.7102248458
 31
0.0
  0
LINE
  5
1FF
330
1F
100
AcDbEntity
  8
0
  6
Continuous
 62
     8
370
    15
100
AcDbLine
 10
72.4139659562
 20
266.325993189
 30
0.0
 11
75.4602773942
 21
266.325993189
 31
0.0
  0
LINE
  5
200
330
1F
100
AcDbEntity
  8
0
  6
Continuous
 62
     8
370
    15
100
AcDbLine
 10
73.9689654567
 20
262.4101878194
 30
0.0
 11
73.4378303297
 21
262.4101878194
 31
0.0
  0
LINE
  5
201
330
1F
100
AcDbEntity
  8
0
  6
Continuous
 62
     8
370
    15
100
AcDbLine
 10
123.4378310748
 20
262.4101878194
 30
0.0
 11
122.9066959478
 21
262.4101878194
 31
0.0
  0
LINE
  5
202
330
1F
100
AcDbEntity
  8
0
  6
Continuous
 62
     8
370
    15
100
AcDbLine
 10
121.4153840103
 20
266.325993189
 30
0.0
 11
124.4616954484
 21
266.325993189
 31
0.0
  0
LINE
  5
203
330
1F
100
AcDbEntity
  8
0
  6
Continuous
 62
     8
370
    15
100
AcDbLine
 10
127.0378305473
 20
331.2102236835
 30
0.0
 11
127.0378305473
 21
333.5408360747
 31
0.0
  0
LINE
  5
204
330
1F
100
AcDbEntity
  8
0
  6
Continuous
 62
     8
370
    15
100
AcDbLine
 10
127.0378305473
 20
346.5929866819
 30
0.0
 11
127.0378305473
 21
348.7102256207
 31
0.0
  0
LINE
  5
205
330
1F
100
AcDbEntity
  8
0
  6
Continuous
 62
     8
370
    15
100
AcDbLine
 10
122.4997824885
 20
330.4030277816
 30
0.0
 11
123.4175505944
 21
329.3708653239
 31
0.0
  0
LINE
  5
206
330
1F
100
AcDbEntity
  8
0
  6
Continuous
 62
     8
370
    15
100
AcDbLine
 10
73.4580754199
 20
329.3708839504
 30
0.0
 11
74.3269043871
 21
330.3480164198
 31
0.0
  0
LINE
  5
207
330
1F
100
AcDbEntity
  8
0
  6
Continuous
 62
     8
370
    15
100
AcDbLine
 10
69.8378308572
 20
331.2102236835
 30
0.0
 11
69.8378308572
 21
333.5408360747
 31
0.0
  0
LINE
  5
208
330
1F
100
AcDbEntity
  8
0
  6
Continuous
 62
     8
370
    15
100
AcDbLine
 10
69.8378308572
 20
346.5929866819
 30
0.0
 11
69.8378308572
 21
348.7102256207
 31
0.0
  0
LINE
  5
209
330
1F
100
AcDbEntity
  8
0
  6
Continuous
 62
     7
370
    15
100
AcDbLine
 10
375.0901467203
 20
31.6459098082
 30
0.0
 11
389.0901452898
 21
31.6459098082
 31
0.0
  0
LINE
  5
20A
330
1F
100
AcDbEntity
  8
0
  6
Continuous
 62
     7
370
    15
100
AcDbLine
 10
389.0901452898
 20
146.6459118944
 30
0.0
 11
375.0901467203
 21
146.6459118944
 31
0.0
  0
LINE
  5
20B
330
1F
100
AcDbEntity
  8
0
  6
Continuous
 62
     7
370
    15
100
AcDbLine
 10
247.0901406407
 20
146.6459118944
 30
0.0
 11
233.0901420712
 21
146.6459118944
 31
0.0
  0
LINE
  5
20C
330
1F
100
AcDbEntity
  8
0
  6
Continuous
 62
     7
370
    15
100
AcDbLine
 10
233.0901420712
 20
31.6459098082
 30
0.0
 11
247.0901406407
 21
31.6459098082
 31
0.0
  0
LINE
  5
20D
330
1F
100
AcDbEntity
  8
0
  6
Continuous
 62
     7
370
    15
100
AcDbLine
 10
322.4507479965
 20
117.1967023235
 30
0.0
 11
320.9232215806
 21
117.4415656548
 31
0.0
  0
SPLINE
  5
20E
330
1F
100
AcDbEntity
  8
0
  6
Continuous
 62
     7
370
    15
100
AcDbSpline
210
0.0
220
0.0
230
1.0
 70
     8
 71
     3
 72
    12
 73
     8
 74
     0
 42
0.00000001
 43
0.00000001
 40
0.0
 40
0.0
 40
0.0
 40
0.0
 40
0.6452038929069266
 40
0.7412274270758642
 40
0.8372643593862144
 40
0.9337616355825249
 40
1.0
 40
1.0
 40
1.0
 40
1.0
 10
361.6811617314066
 20
110.8916056525294
 30
0.0
 10
354.33586307749
 20
112.0724300568538
 30
0.0
 10
345.8973882291495
 20
113.4289926019159
 30
0.0
 10
336.3435436902947
 20
114.9648920836298
 30
0.0
 10
333.08334040249
 20
115.4890037499914
 30
0.0
 10
330.0371957493901
 20
115.9787232398606
 30
0.0
 10
328.0679920602823
 20
116.2952621933681
 30
0.0
 10
327.2664661555733
 20
116.4241031926457
 30
0.0
  0
SPLINE
  5
20F
330
1F
100
AcDbEntity
  8
0
  6
Continuous
 62
     7
370
    15
100
AcDbSpline
210
0.0
220
0.0
230
1.0
 70
     8
 71
     3
 72
    13
 73
     9
 74
     0
 42
0.00000001
 43
0.00000001
 40
0.0
 40
0.0
 40
0.0
 40
0.0
 40
0.0300513700119634
 40
0.1208872713563013
 40
0.2117724740966205
 40
0.3022245757772873
 40
0.3926644483167643
 40
1.0
 40
1.0
 40
1.0
 40
1.0
 10
325.0185682474818
 20
61.50683287497201
 30
0.0
 10
325.4038616480104
 20
61.56859434969186
 30
0.0
 10
326.9537766050644
 20
61.81704146377856
 30
0.0
 10
329.6806167145728
 20
62.25592851180686
 30
0.0
 10
333.0852268069578
 20
62.80307977012793
 30
0.0
 10
336.3449560489463
 20
63.32716726270527
 30
0.0
 10
345.8957600760513
 20
64.86254180845813
 30
0.0
 10
354.330487375045
 20
66.21851542658331
 30
0.0
 10
361.6719751655306
 20
67.39873897250332
 30
0.0
  0
ARC
  5
210
330
1F
100
AcDbEntity
  8
0
  6
Continuous
 62
     7
370
    15
100
AcDbCircle
 10
391.0901436805
 20
54.6459108513
 30
0.0
 40
2.000000000000057
100
AcDbArc
 50
90.0
 51
180.0
  0
ARC
  5
211
330
1F
100
AcDbEntity
  8
0
  6
Continuous
 62
     7
370
    15
100
AcDbCircle
 10
391.0901436805
 20
123.6459108513
 30
0.0
 40
2.000000000000057
100
AcDbArc
 50
180.0
 51
270.0
  0
ARC
  5
212
330
1F
100
AcDbEntity
  8
0
  6
Continuous
 62
     7
370
    15
100
AcDbCircle
 10
231.0901436805
 20
123.6459108513
 30
0.0
 40
2.000000000000028
100
AcDbArc
 50
270.0
 51
0.0
  0
ARC
  5
213
330
1F
100
AcDbEntity
  8
0
  6
Continuous
 62
     7
370
    15
100
AcDbCircle
 10
231.0901436805
 20
54.6459108513
 30
0.0
 40
2.000000000000028
100
AcDbArc
 50
0.0
 51
90.0
  0
SPLINE
  5
214
330
1F
100
AcDbEntity
  8
0
  6
Continuous
 62
     7
370
    15
100
AcDbSpline
210
0.0
220
0.0
230
1.0
 70
     8
 71
     3
 72
    10
 73
     6
 74
     0
 42
0.00000001
 43
0.00000001
 40
0.0
 40
0.0
 40
0.0
 40
0.0
 40
0.3446559752786226
 40
0.8310217173252644
 40
1.0
 40
1.0
 40
1.0
 40
1.0
 10
321.817221403047
 20
64.1642985117022
 30
0.0
 10
321.8386430596894
 20
64.20344570320388
 30
0.0
 10
321.8902941644658
 20
64.29783596086267
 30
0.0
 10
321.9668339883395
 20
64.36095153213208
 30
0.0
 10
322.1109198290187
 20
64.3767277695594
 30
0.0
 10
322.148071885034
 20
64.38079562004246
 30
0.0
  0
SPLINE
  5
215
330
1F
100
AcDbEntity
  8
0
  6
Continuous
 62
     7
370
    15
100
AcDbSpline
210
0.0
220
0.0
230
1.0
 70
     8
 71
     3
 72
    11
 73
     7
 74
     0
 42
0.00000001
 43
0.00000001
 40
0.0
 40
0.0
 40
0.0
 40
0.0
 40
0.1391093465534941
 40
0.5478713984150683
 40
0.9759533278809125
 40
1.0
 40
1.0
 40
1.0
 40
1.0
 10
322.1686727403845
 20
113.9093906801526
 30
0.0
 10
322.1324173732506
 20
113.9113694994225
 30
0.0
 10
321.9896284148963
 20
113.9191629260143
 30
0.0
 10
321.8994415567562
 20
114.0124529538193
 30
0.0
 10
321.8211034437581
 20
114.0478928585175
 30
0.0
 10
321.8062355832388
 20
114.1624690622736
 30
0.0
 10
321.805444829091
 20
114.1685628515068
 30
0.0
  0
ARC
  5
216
330
1F
100
AcDbEntity
  8
0
  6
Continuous
 62
     7
370
    15
100
AcDbCircle
 10
371.0901441371
 20
116.5367141637
 30
0.0
 40
4.000002594834693
100
AcDbArc
 50
288.2915397217
 51
359.9956362934
  0
ARC
  5
217
330
1F
100
AcDbEntity
  8
0
  6
Continuous
 62
     7
370
    15
100
AcDbCircle
 10
371.090147965
 20
61.7551778076
 30
0.0
 40
3.999998921980799
100
AcDbArc
 50
0.016537321
 51
71.9499955567
  0
ARC
  5
218
330
1F
100
AcDbEntity
  8
0
  6
Continuous
 62
     7
370
    15
100
AcDbCircle
 10
251.0901491832
 20
116.5367189646
 30
0.0
 40
4.000008554473463
100
AcDbArc
 50
180.0044324689
 51
251.7815000024
  0
ARC
  5
219
330
1F
100
AcDbEntity
  8
0
  6
Continuous
 62
     7
370
    15
100
AcDbCircle
 10
251.0901423591
 20
61.7551776248
 30
0.0
 40
4.000001885116773
100
AcDbArc
 50
107.994762933
 51
179.9834600736
  0
SPLINE
  5
21A
330
1F
100
AcDbEntity
  8
0
  6
Continuous
 62
     7
370
    15
100
AcDbSpline
210
0.0
220
0.0
230
1.0
 70
     8
 71
     3
 72
    10
 73
     6
 74
     0
 42
0.00000001
 43
0.00000001
 40
0.0
 40
0.0
 40
0.0
 40
0.0
 40
0.0224744577281805
 40
0.5691017800886449
 40
1.0
 40
1.0
 40
1.0
 40
1.0
 10
364.4653542935099
 20
110.7265697043721
 30
0.0
 10
364.4445061604966
 20
110.7246899235319
 30
0.0
 10
363.91658643256
 20
110.677089815212
 30
0.0
 10
362.9769213328092
 20
110.7206255333568
 30
0.0
 10
362.0769550255174
 20
110.8480255301077
 30
0.0
 10
361.6802453099932
 20
110.9041840952221
 30
0.0
  0
SPLINE
  5
21B
330
1F
100
AcDbEntity
  8
0
  6
Continuous
 62
     7
370
    15
100
AcDbSpline
210
0.0
220
0.0
230
1.0
 70
     8
 71
     3
 72
     9
 73
     5
 74
     0
 42
0.00000001
 43
0.00000001
 40
0.0
 40
0.0
 40
0.0
 40
0.0
 40
0.3376706039538192
 40
0.9999999999999999
 40
0.9999999999999999
 40
0.9999999999999999
 40
0.9999999999999999
 10
361.6754918395724
 20
67.37849574502148
 30
0.0
 10
361.8666150786207
 20
67.41568937036688
 30
0.0
 10
362.4326200456226
 20
67.52583702583313
 30
0.0
 10
363.0131391031446
 20
67.54168514322872
 30
0.0
 10
363.3976339399065
 20
67.55218181725182
 30
0.0
  0
LINE
  5
21C
330
1F
100
AcDbEntity
  8
0
  6
Continuous
 62
     7
370
    15
100
AcDbLine
 10
372.3426147401
 20
112.7379396182
 30
0.0
 11
371.2858653664
 21
112.388786785
 31
0.0
  0
SPLINE
  5
21D
330
1F
100
AcDbEntity
  8
0
  6
Continuous
 62
     7
370
    15
100
AcDbSpline
210
0.0
220
0.0
230
1.0
 70
     8
 71
     3
 72
     9
 73
     5
 74
     0
 42
0.00000001
 43
0.00000001
 40
0.0
 40
0.0
 40
0.0
 40
0.0
 40
0.1486041797711807
 40
1.0
 40
1.0
 40
1.0
 40
1.0
 10
370.2181487380709
 20
66.25578265603222
 30
0.0
 10
370.3220305723682
 20
66.22148808281538
 30
0.0
 10
371.0210811270516
 20
65.99071009750135
 30
0.0
 10
371.7220374651137
 20
65.75902761184925
 30
0.0
 10
372.3188287615027
 20
65.56177411194481
 30
0.0
  0
LINE
  5
21E
330
1F
100
AcDbEntity
  8
0
  6
Continuous
 62
     7
370
    15
100
AcDbLine
 10
251.3976081311
 20
112.2225252163
 30
0.0
 11
249.8466878235
 21
112.7349556607
 31
0.0
  0
SPLINE
  5
21F
330
1F
100
AcDbEntity
  8
0
  6
Continuous
 62
     7
370
    15
100
AcDbSpline
210
0.0
220
0.0
230
1.0
 70
     8
 71
     3
 72
     9
 73
     5
 74
     0
 42
0.00000001
 43
0.00000001
 40
0.0
 40
0.0
 40
0.0
 40
0.0
 40
0.6018954823600601
 40
1.0
 40
1.0
 40
1.0
 40
1.0
 10
249.8592942058291
 20
65.5610663067881
 30
0.0
 10
250.4559007645256
 20
65.7582402829724
 30
0.0
 10
251.4471136514493
 20
66.08582867989995
 30
0.0
 10
252.4356831925005
 20
66.41215269876416
 30
0.0
 10
252.8292371927943
 20
66.54206376488843
 30
0.0
  0
SPLINE
  5
220
330
1F
100
AcDbEntity
  8
0
  6
Continuous
 62
     7
370
    15
100
AcDbSpline
210
0.0
220
0.0
230
1.0
 70
     8
 71
     3
 72
    10
 73
     6
 74
     0
 42
0.00000001
 43
0.00000001
 40
0.0
 40
0.0
 40
0.0
 40
0.0
 40
0.2156953141566137
 40
0.7543232370086311
 40
1.0
 40
1.0
 40
1.0
 40
1.0
 10
257.3561801611628
 20
110.7605741542164
 30
0.0
 10
257.1584426388232
 20
110.7685092211394
 30
0.0
 10
256.466920857219
 20
110.7962595011609
 30
0.0
 10
255.5573810787258
 20
110.9431471651157
 30
0.0
 10
254.8710876698222
 20
111.1340634834263
 30
0.0
 10
254.6561121045794
 20
111.1938663941208
 30
0.0
  0
SPLINE
  5
221
330
1F
100
AcDbEntity
  8
0
  6
Continuous
 62
     7
370
    15
100
AcDbSpline
210
0.0
220
0.0
230
1.0
 70
     8
 71
     3
 72
    10
 73
     6
 74
     0
 42
0.00000001
 43
0.00000001
 40
0.0
 40
0.0
 40
0.0
 40
0.0
 40
0.3472902769574045
 40
0.8526582123392114
 40
1.0
 40
1.0
 40
1.0
 40
1.0
 10
255.1909930109229
 20
67.22511809285321
 30
0.0
 10
255.537852714928
 20
67.30042927802005
 30
0.0
 10
256.3894537955589
 20
67.48533137512474
 30
0.0
 10
257.4207039655564
 20
67.58590960763902
 30
0.0
 10
258.089841683188
 20
67.56618739022848
 30
0.0
 10
258.2408919035639
 20
67.56173532422223
 30
0.0
  0
SPLINE
  5
222
330
1F
100
AcDbEntity
  8
0
  6
Continuous
 62
     7
370
    15
100
AcDbSpline
210
0.0
220
0.0
230
1.0
 70
     8
 71
     3
 72
    13
 73
     9
 74
     0
 42
0.00000001
 43
0.00000001
 40
0.0
 40
0.0
 40
0.0
 40
0.0
 40
0.5829599745385148
 40
0.6786313094633705
 40
0.7743149497361311
 40
0.8704374738827473
 40
0.966497781585125
 40
1.0
 40
1.0
 40
1.0
 40
1.0
 10
262.5953502058234
 20
67.06319089944996
 30
0.0
 10
269.2505205078598
 20
65.99334052246984
 30
0.0
 10
276.9978910547795
 20
64.7479137453834
 30
0.0
 10
285.8582293019184
 20
63.32352302592253
 30
0.0
 10
289.1141785455446
 20
62.80004214870874
 30
0.0
 10
292.5159957211843
 20
62.2533245290966
 30
0.0
 10
295.2609268330257
 20
61.81153224253639
 30
0.0
 10
296.8301244510311
 20
61.55999524527495
 30
0.0
 10
297.2358868493881
 20
61.49495292421022
 30
0.0
  0
SPLINE
  5
223
330
1F
100
AcDbEntity
  8
0
  6
Continuous
 62
     7
370
    15
100
AcDbSpline
210
0.0
220
0.0
230
1.0
 70
     8
 71
     3
 72
    13
 73
     9
 74
     0
 42
0.00000001
 43
0.00000001
 40
0.0
 40
0.0
 40
0.0
 40
0.0
 40
0.0598806543013577
 40
0.1500140620457726
 40
0.2402059373101212
 40
0.3299855882667773
 40
0.4197532961809047
 40
1.0
 40
1.0
 40
1.0
 40
1.0
 10
298.3382822050895
 20
116.9736431163136
 30
0.0
 10
297.5655291935365
 20
116.8497951276057
 30
0.0
 10
295.6296148389978
 20
116.5395289810675
 30
0.0
 10
292.5169594476337
 20
116.0386833086831
 30
0.0
 10
289.115009398476
 20
115.4919040199325
 30
0.0
 10
285.8592900906103
 20
114.9684705254853
 30
0.0
 10
276.5938992205288
 20
113.4789544700339
 30
0.0
 10
268.4423642534138
 20
112.1685602646434
 30
0.0
 10
261.3829619287695
 20
111.0337310653511
 30
0.0
  0
LINE
  5
224
330
1F
100
AcDbEntity
  8
0
  6
Continuous
 62
     7
370
    15
100
AcDbLine
 10
250.8067957162
 20
113.9667918157
 30
0.0
 11
250.7935932874
 21
113.9711559933
 31
0.0
  0
LINE
  5
225
330
1F
100
AcDbEntity
  8
0
  6
Continuous
 62
     7
370
    15
100
AcDbLine
 10
254.2394793629
 20
112.8320609402
 30
0.0
 11
253.3806434869
 21
113.1159690392
 31
0.0
  0
SPLINE
  5
226
330
1F
100
AcDbEntity
  8
0
  6
Continuous
 62
     7
370
    15
100
AcDbSpline
210
0.0
220
0.0
230
1.0
 70
     8
 71
     3
 72
     9
 73
     5
 74
     0
 42
0.00000001
 43
0.00000001
 40
0.0
 40
0.0
 40
0.0
 40
0.0
 40
0.3061214016370385
 40
1.0
 40
1.0
 40
1.0
 40
1.0
 10
252.4049676059927
 20
64.85981207307019
 30
0.0
 10
252.425134328175
 20
64.86647773246197
 30
0.0
 10
252.491012512694
 20
64.88825229430617
 30
0.0
 10
252.55683544833
 20
64.91001103613755
 30
0.0
 10
252.6025085746493
 20
64.92510896142163
 30
0.0
  0
LINE
  5
227
330
1F
100
AcDbEntity
  8
0
  6
Continuous
 62
     7
370
    15
100
AcDbLine
 10
301.8946017175
 20
59.2387010526
 30
0.0
 11
302.4928824081
 21
59.1427655142
 31
0.0
  0
CIRCLE
  5
228
330
1F
100
AcDbEntity
  8
0
  6
Continuous
 62
     7
370
    15
100
AcDbCircle
 10
311.0901436805
 20
89.1459108513
 30
0.0
 40
1.950000000000003
  0
CIRCLE
  5
229
330
1F
100
AcDbEntity
  8
0
  6
Continuous
 62
     7
370
    15
100
AcDbCircle
 10
311.0901436805
 20
89.1459108513
 30
0.0
 40
3.5
  0
CIRCLE
  5
22A
330
1F
100
AcDbEntity
  8
0
  6
Continuous
 62
     7
370
    15
100
AcDbCircle
 10
311.0901436805
 20
89.1459108513
 30
0.0
 40
3.636296694843722
  0
CIRCLE
  5
22B
330
1F
100
AcDbEntity
  8
0
  6
Continuous
 62
     7
370
    15
100
AcDbCircle
 10
311.0901436805
 20
89.1459108513
 30
0.0
 40
3.863703305156278
  0
CIRCLE
  5
22C
330
1F
100
AcDbEntity
  8
0
  6
Continuous
 62
     7
370
    15
100
AcDbCircle
 10
311.0901436805
 20
89.1459108513
 30
0.0
 40
4.000000000000014
  0
LINE
  5
22D
330
1F
100
AcDbEntity
  8
0
  6
Continuous
 62
     7
370
    15
100
AcDbLine
 10
308.9940732381
 20
97.4865638834
 30
0.0
 11
309.5012241312
 21
95.468515921
 31
0.0
  0
ARC
  5
22E
330
1F
100
AcDbEntity
  8
0
  6
Continuous
 62
     7
370
    15
100
AcDbCircle
 10
307.803998312
 20
95.0419899397
 30
0.0
 40
1.750000000000001
100
AcDbArc
 50
235.1138436154
 51
14.106741573
  0
ARC
  5
22F
330
1F
100
AcDbEntity
  8
0
  6
Continuous
 62
     7
370
    15
100
AcDbCircle
 10
305.8021813816
 20
92.170974618
 30
0.0
 40
1.750000000000005
100
AcDbArc
 50
55.1138436154
 51
156.4376359297
  0
ARC
  5
230
330
1F
100
AcDbEntity
  8
0
  6
Continuous
 62
     7
370
    15
100
AcDbCircle
 10
311.0901436805
 20
89.864856014
 30
0.0
 40
7.518945162694256
100
AcDbArc
 50
156.4376359297
 51
23.5623640703
  0
ARC
  5
231
330
1F
100
AcDbEntity
  8
0
  6
Continuous
 62
     7
370
    15
100
AcDbCircle
 10
316.3781059794
 20
92.170974618
 30
0.0
 40
1.750000000000005
100
AcDbArc
 50
23.5623640703
 51
124.8861563846
  0
ARC
  5
232
330
1F
100
AcDbEntity
  8
0
  6
Continuous
 62
     7
370
    15
100
AcDbCircle
 10
314.376289049
 20
95.0419899397
 30
0.0
 40
1.750000000000013
100
AcDbArc
 50
165.893258427
 51
304.8861563846
  0
LINE
  5
233
330
1F
100
AcDbEntity
  8
0
  6
Continuous
 62
     7
370
    15
100
AcDbLine
 10
312.6790632297
 20
95.468515921
 30
0.0
 11
313.1862141228
 21
97.4865638834
 31
0.0
  0
CIRCLE
  5
234
330
1F
100
AcDbEntity
  8
0
  6
Continuous
 62
     7
370
    15
100
AcDbCircle
 10
314.376289049
 20
95.0419899397
 30
0.0
 40
0.8500000000000227
  0
CIRCLE
  5
235
330
1F
100
AcDbEntity
  8
0
  6
Continuous
 62
     7
370
    15
100
AcDbCircle
 10
307.803998312
 20
95.0419899397
 30
0.0
 40
0.8499999999999659
  0
CIRCLE
  5
236
330
1F
100
AcDbEntity
  8
0
  6
Continuous
 62
     7
370
    15
100
AcDbCircle
 10
311.0901436805
 20
89.1459108513
 30
0.0
 40
5.0
  0
ARC
  5
237
330
1F
100
AcDbEntity
  8
0
  6
Continuous
 62
     7
370
    15
100
AcDbCircle
 10
311.0901436805
 20
89.1459108513
 30
0.0
 40
8.5
100
AcDbArc
 50
75.893258427
 51
104.106741573
  0
CIRCLE
  5
238
330
1F
100
AcDbEntity
  8
0
  6
Continuous
 62
     7
370
    15
100
AcDbCircle
 10
311.0901436805
 20
89.1459108513
 30
0.0
 40
4.009999999999991
  0
CIRCLE
  5
239
330
1F
100
AcDbEntity
  8
0
  6
Continuous
 62
     7
370
    15
100
AcDbCircle
 10
311.0901436805
 20
89.1459108513
 30
0.0
 40
8.599999999999994
  0
ARC
  5
23A
330
1F
100
AcDbEntity
  8
0
  6
Continuous
 62
     7
370
    15
100
AcDbCircle
 10
311.0901436805
 20
89.1459108513
 30
0.0
 40
14.98000000000001
100
AcDbArc
 50
216.7677811019
 51
323.2322188981
  0
LINE
  5
23B
330
1F
100
AcDbEntity
  8
0
  6
Continuous
 62
     7
370
    15
100
AcDbLine
 10
299.0901435762
 20
80.1792842519
 30
0.0
 11
299.0901435762
 21
98.1125374507
 31
0.0
  0
ARC
  5
23C
330
1F
100
AcDbEntity
  8
0
  6
Continuous
 62
     7
370
    15
100
AcDbCircle
 10
311.0901436805
 20
89.1459108513
 30
0.0
 40
14.98
100
AcDbArc
 50
36.7677811019
 51
143.2322188981
  0
LINE
  5
23D
330
1F
100
AcDbEntity
  8
0
  6
Continuous
 62
     7
370
    15
100
AcDbLine
 10
323.0901437848
 20
98.1125374507
 30
0.0
 11
323.0901437848
 21
80.1792842519
 31
0.0
  0
ARC
  5
23E
330
1F
100
AcDbEntity
  8
0
  6
Continuous
 62
     7
370
    15
100
AcDbCircle
 10
311.0901436805
 20
89.1459108513
 30
0.0
 40
14.98
100
AcDbArc
 50
323.2322188981
 51
36.7677811019
  0
ARC
  5
23F
330
1F
100
AcDbEntity
  8
0
  6
Continuous
 62
     7
370
    15
100
AcDbCircle
 10
311.0901436805
 20
89.1459108513
 30
0.0
 40
14.98000000000001
100
AcDbArc
 50
143.2322188981
 51
216.7677811019
  0
LINE
  5
240
330
1F
100
AcDbEntity
  8
0
  6
Continuous
 62
     7
370
    15
100
AcDbLine
 10
375.0901467203
 20
31.6459098082
 30
0.0
 11
375.0901467203
 21
146.6459118944
 31
0.0
  0
LINE
  5
241
330
1F
100
AcDbEntity
  8
0
  6
Continuous
 62
     7
370
    15
100
AcDbLine
 10
389.0901452898
 20
31.6459098082
 30
0.0
 11
389.0901452898
 21
146.6459118944
 31
0.0
  0
LINE
  5
242
330
1F
100
AcDbEntity
  8
0
  6
Continuous
 62
     7
370
    15
100
AcDbLine
 10
233.0901420712
 20
146.6459118944
 30
0.0
 11
233.0901420712
 21
31.6459098082
 31
0.0
  0
LINE
  5
243
330
1F
100
AcDbEntity
  8
0
  6
Continuous
 62
     7
370
    15
100
AcDbLine
 10
247.0901406407
 20
146.6459118944
 30
0.0
 11
247.0901406407
 21
31.6459098082
 31
0.0
  0
LINE
  5
244
330
1F
100
AcDbEntity
  8
0
  6
Continuous
 62
     7
370
    15
100
AcDbLine
 10
293.3640501498
 20
82.3059109222
 30
0.0
 11
301.7606207206
 21
60.5459110063
 31
0.0
  0
ARC
  5
245
330
1F
100
AcDbEntity
  8
0
  6
Continuous
 62
     7
370
    15
100
AcDbCircle
 10
311.0901436805
 20
89.1459108513
 30
0.0
 40
18.99999999999995
100
AcDbArc
 50
158.8998039759
 51
201.1001960241
  0
LINE
  5
246
330
1F
100
AcDbEntity
  8
0
  6
Continuous
 62
     7
370
    15
100
AcDbLine
 10
301.7606207206
 20
117.7459106963
 30
0.0
 11
293.3640501498
 21
95.9859107804
 31
0.0
  0
LINE
  5
247
330
1F
100
AcDbEntity
  8
0
  6
Continuous
 62
     7
370
    15
100
AcDbLine
 10
328.8162372112
 20
95.9859107804
 30
0.0
 11
320.4196666404
 21
117.7459106963
 31
0.0
  0
ARC
  5
248
330
1F
100
AcDbEntity
  8
0
  6
Continuous
 62
     7
370
    15
100
AcDbCircle
 10
311.0901436805
 20
89.1459108513
 30
0.0
 40
18.99999999999995
100
AcDbArc
 50
338.8998039759
 51
21.1001960241
  0
LINE
  5
249
330
1F
100
AcDbEntity
  8
0
  6
Continuous
 62
     7
370
    15
100
AcDbLine
 10
320.4196666404
 20
60.5459110063
 30
0.0
 11
328.8162372112
 21
82.3059109222
 31
0.0
  0
ARC
  5
24A
330
1F
100
AcDbEntity
  8
0
  6
Continuous
 62
     7
370
    15
100
AcDbCircle
 10
311.0901436805
 20
64.1459108513
 30
0.0
 40
10.00000000000002
100
AcDbArc
 50
201.1001960241
 51
338.8998039759
  0
CIRCLE
  5
24B
330
1F
100
AcDbEntity
  8
0
  6
Continuous
 62
     7
370
    15
100
AcDbCircle
 10
310.5140002294
 20
64.1525505586
 30
0.0
 40
3.399999999999999
  0
CIRCLE
  5
24C
330
1F
100
AcDbEntity
  8
0
  6
Continuous
 62
     7
370
    15
100
AcDbCircle
 10
311.0901436805
 20
114.1459108513
 30
0.0
 40
3.399999999999991
  0
ARC
  5
24D
330
1F
100
AcDbEntity
  8
0
  6
Continuous
 62
     7
370
    15
100
AcDbCircle
 10
311.0901436805
 20
114.1459108513
 30
0.0
 40
10.00000000000002
100
AcDbArc
 50
21.1001960241
 51
158.8998039759
  0
SPLINE
  5
24E
330
1F
100
AcDbEntity
  8
0
  6
Continuous
 62
     7
370
    15
100
AcDbSpline
210
0.0
220
0.0
230
1.0
 70
     8
 71
     3
 72
    14
 73
    10
 74
     0
 42
0.00000001
 43
0.00000001
 40
0.0
 40
0.0
 40
0.0
 40
0.0
 40
0.25
 40
0.25
 40
0.5
 40
0.5
 40
0.75
 40
0.75
 40
1.0
 40
1.0
 40
1.0
 40
1.0
 10
327.9495163826384
 20
104.3639027268196
 30
0.0
 10
328.193150723269
 20
103.7260352631115
 30
0.0
 10
328.4390612894468
 20
103.0890080034828
 30
0.0
 10
328.9359445845636
 20
101.817085133235
 30
0.0
 10
329.1887745226939
 20
101.1828817001879
 30
0.0
 10
329.6910198569771
 20
99.91330569858664
 30
0.0
 10
329.9379782862341
 20
99.27696122430686
 30
0.0
 10
330.4233486244606
 20
98.00104229635132
 30
0.0
 10
330.660962679739
 20
97.36113995871557
 30
0.0
 10
330.8994819415643
 20
96.72143887141283
 30
0.0
  0
ARC
  5
24F
330
1F
100
AcDbEntity
  8
0
  6
Continuous
 62
     7
370
    15
100
AcDbCircle
 10
323.0024302159
 20
115.7703713813
 30
0.0
 40
20.62099010831817
100
AcDbArc
 50
286.3758070787
 51
292.5172623835
  0
SPLINE
  5
250
330
1F
100
AcDbEntity
  8
0
  6
Continuous
 62
     7
370
    15
100
AcDbSpline
210
0.0
220
0.0
230
1.0
 70
     8
 71
     3
 72
    29
 73
    25
 74
     0
 42
0.00000001
 43
0.00000001
 40
0.0
 40
0.0
 40
0.0
 40
0.0
 40
0.1250000000000001
 40
0.1250000000000001
 40
0.2500000000000002
 40
0.2500000000000002
 40
0.3750000000000002
 40
0.3750000000000002
 40
0.5000000000000003
 40
0.5000000000000003
 40
0.6250000000000004
 40
0.6250000000000004
 40
0.7500000000000004
 40
0.7500000000000004
 40
0.8750000000000002
 40
0.8750000000000002
 40
0.9374999999999999
 40
0.9374999999999999
 40
0.96875
 40
0.984375
 40
0.9921874999999999
 40
0.99609375
 40
0.99609375
 40
1.0
 40
1.0
 40
1.0
 40
1.0
 10
323.3216466740844
 20
114.0200488959874
 30
0.0
 10
323.4395146855961
 20
113.7743703129111
 30
0.0
 10
323.5726774564077
 20
113.4976201249272
 30
0.0
 10
323.8677903744352
 20
112.8862137676646
 30
0.0
 10
324.0276522045862
 20
112.5560736409443
 30
0.0
 10
324.3676009958123
 20
111.8556777177645
 30
0.0
 10
324.547749578558
 20
111.4847805545669
 30
0.0
 10
324.9276080937855
 20
110.7042014963063
 30
0.0
 10
325.1287292991666
 20
110.291803234901
 30
0.0
 10
325.5411528015472
 20
109.4481158103671
 30
0.0
 10
325.7526799866594
 20
109.0156482872641
 30
0.0
 10
326.1860651363773
 20
108.131168136901
 30
0.0
 10
326.4070522121987
 20
107.6790638706364
 30
0.0
 10
326.8435926625333
 20
106.747766987513
 30
0.0
 10
327.0607399330966
 20
106.273728556251
 30
0.0
 10
327.3913281481777
 20
105.5609900736342
 30
0.0
 10
327.5020837308056
 20
105.3226195323079
 30
0.0
 10
327.6691469966601
 20
104.9639354838083
 30
0.0
 10
327.7529113434932
 20
104.7843112000398
 30
0.0
 10
327.8510660745191
 20
104.574266251191
 30
0.0
 10
327.9002538527735
 20
104.4691241337834
 30
0.0
 10
327.9213583150536
 20
104.4240377109425
 30
0.0
 10
327.9354333235315
 20
104.3939744388021
 30
0.0
 10
327.943580944714
 20
104.3794453639077
 30
0.0
 10
327.9495163826384
 20
104.3639027268196
 30
0.0
  0
LWPOLYLINE
  5
251
330
1F
100
AcDbEntity
  8
0
  6
Continuous
 62
     7
370
    15
100
AcDbPolyline
 90
        9
 70
   128
 43
0.0
 10
293.3640501498
 20
95.9859107804
 10
293.3384685814
 20
95.9957818684
 10
293.2622882574
 20
96.0251781341
 10
293.1371762454
 20
96.0734551024
 10
292.9658799469
 20
96.1395533938
 10
292.7521563172
 20
96.2220234048
 10
292.5006936341
 20
96.3190560412
 10
292.2170053273
 20
96.4285227653
 10
291.9073182195
 20
96.5480226275
  0
SPLINE
  5
252
330
1F
100
AcDbEntity
  8
0
  6
Continuous
 62
     7
370
    15
100
AcDbSpline
210
0.0
220
0.0
230
1.0
 70
     8
 71
     3
 72
    18
 73
    14
 74
     0
 42
0.00000001
 43
0.00000001
 40
0.0
 40
0.0
 40
0.0
 40
0.0
 40
0.25
 40
0.25
 40
0.5
 40
0.5
 40
0.625
 40
0.625
 40
0.75
 40
0.75
 40
0.875
 40
0.875
 40
1.0
 40
1.0
 40
1.0
 40
1.0
 10
291.9073180275082
 20
96.54802263299501
 30
0.0
 10
292.4095075884495
 20
97.84946404274729
 30
0.0
 10
292.9308641734813
 20
99.14086682030927
 30
0.0
 10
294.0055086967079
 20
101.7049171612128
 30
0.0
 10
294.5577173814514
 20
102.9754418864325
 30
0.0
 10
295.3885738031628
 20
104.8473641946787
 30
0.0
 10
295.6661315268406
 20
105.4662267591003
 30
0.0
 10
296.2194837008868
 20
106.6919590062427
 30
0.0
 10
296.4930641163631
 20
107.2939460380603
 30
0.0
 10
297.0276810165857
 20
108.466588482026
 30
0.0
 10
297.2890609768892
 20
109.0380075835398
 30
0.0
 10
297.7948437712948
 20
110.1429040846628
 30
0.0
 10
298.033139468424
 20
110.6630569551862
 30
0.0
 10
298.2538171874568
 20
111.1451173616363
 30
0.0
  0
SPLINE
  5
253
330
1F
100
AcDbEntity
  8
0
  6
Continuous
 62
     7
370
    15
100
AcDbSpline
210
0.0
220
0.0
230
1.0
 70
     8
 71
     3
 72
    14
 73
    10
 74
     0
 42
0.00000001
 43
0.00000001
 40
0.0
 40
0.0
 40
0.0
 40
0.0
 40
0.0331922109075561
 40
0.1292115980405538
 40
0.2971701758836758
 40
0.6057645919357926
 40
0.9321204878799728
 40
0.9924528271408036
 40
1.0
 40
1.0
 40
1.0
 40
1.0
 10
299.1024342402067
 20
110.862106941301
 30
0.0
 10
299.1104287465337
 20
110.8820609215917
 30
0.0
 10
299.1415499918446
 20
110.9597383528364
 30
0.0
 10
299.1766699929344
 20
111.0441169804194
 30
0.0
 10
299.1570626788014
 20
111.0896942648496
 30
0.0
 10
298.9237167360481
 20
111.0492436507249
 30
0.0
 10
298.5504803985129
 20
111.0791782068628
 30
0.0
 10
298.3024658709314
 20
111.1333500016101
 30
0.0
 10
298.2586846442925
 20
111.1439398181876
 30
0.0
 10
298.2538168355073
 20
111.1451172452752
 30
0.0
  0
SPLINE
  5
254
330
1F
100
AcDbEntity
  8
0
  6
Continuous
 62
     7
370
    15
100
AcDbSpline
210
0.0
220
0.0
230
1.0
 70
     8
 71
     3
 72
    18
 73
    14
 74
     0
 42
0.00000001
 43
0.00000001
 40
0.0
 40
0.0
 40
0.0
 40
0.0
 40
0.1250000000000001
 40
0.1250000000000001
 40
0.2500000000000001
 40
0.2500000000000001
 40
0.5
 40
0.5
 40
0.625
 40
0.625
 40
0.75
 40
0.75
 40
1.0
 40
1.0
 40
1.0
 40
1.0
 10
330.8994819415643
 20
96.7214388714129
 30
0.0
 10
331.1266602559454
 20
96.11215384508392
 30
0.0
 10
331.3281340535174
 20
95.49223726901437
 30
0.0
 10
331.674627714298
 20
94.24401243793277
 30
0.0
 10
331.8197437413926
 20
93.6160639169188
 30
0.0
 10
332.1701537473184
 20
91.72058988522195
 30
0.0
 10
332.2909108181817
 20
90.44148640008694
 30
0.0
 10
332.2908945150185
 20
88.49788987557426
 30
0.0
 10
332.2601421293876
 20
87.84567714775233
 30
0.0
 10
332.1400363253167
 20
86.55999323805267
 30
0.0
 10
332.0508003113397
 20
85.92304921308595
 30
0.0
 10
331.6992134360741
 20
84.02911670583055
 30
0.0
 10
331.3537921185532
 20
82.78886084928165
 30
0.0
 10
330.8994758822461
 20
81.57038976416985
 30
0.0
  0
ARC
  5
255
330
1F
100
AcDbEntity
  8
0
  6
Continuous
 62
     7
370
    15
100
AcDbCircle
 10
323.0029250594
 20
62.5227309775
 30
0.0
 40
20.61962189032922
100
AcDbArc
 50
67.4826667966
 51
73.6245088756
  0
LWPOLYLINE
  5
256
330
1F
100
AcDbEntity
  8
0
  6
Continuous
 62
     7
370
    15
100
AcDbPolyline
 90
        9
 70
   128
 43
0.0
 10
293.3640501498
 20
82.3059109222
 10
293.3384685814
 20
82.2960398343
 10
293.2622882574
 20
82.2666435685
 10
293.1371762454
 20
82.2183666002
 10
292.9658799469
 20
82.1522683088
 10
292.7521563172
 20
82.0697982978
 10
292.5006936341
 20
81.9727656614
 10
292.2170053273
 20
81.8632989373
 10
291.9073182195
 20
81.7437990751
  0
SPLINE
  5
257
330
1F
100
AcDbEntity
  8
0
  6
Continuous
 62
     7
370
    15
100
AcDbSpline
210
0.0
220
0.0
230
1.0
 70
     8
 71
     3
 72
    14
 73
    10
 74
     0
 42
0.00000001
 43
0.00000001
 40
0.0000000000000001
 40
0.0000000000000001
 40
0.0000000000000001
 40
0.0000000000000001
 40
0.0000674190071641
 40
0.0000674190071641
 40
0.0000674190071641
 40
0.0001941087022648
 40
0.0001941087022648
 40
0.0001941087022648
 40
0.0002129466454733
 40
0.0002129466454733
 40
0.0002129466454733
 40
0.0002129466454733
 10
298.9950144731493
 20
67.70991730791572
 30
0.0
 10
298.9873491362535
 20
67.73045761961883
 30
0.0
 10
298.9796454168145
 20
67.75098612295358
 30
0.0
 10
298.9719043273557
 20
67.77150300355106
 30
0.0
 10
298.9573578003266
 20
67.81005692541825
 30
0.0
 10
298.9426792051319
 20
67.84857014240362
 30
0.0
 10
298.927875021491
 20
67.887043857831
 30
0.0
 10
298.9256737259065
 20
67.8927646744557
 30
0.0
 10
298.9234695835648
 20
67.89848479775226
 30
0.0
 10
298.921262817611
 20
67.90420370713818
 30
0.0
  0
SPLINE
  5
258
330
1F
100
AcDbEntity
  8
0
  6
Continuous
 62
     7
370
    15
100
AcDbSpline
210
0.0
220
0.0
230
1.0
 70
     8
 71
     3
 72
    20
 73
    16
 74
     0
 42
0.00000001
 43
0.00000001
 40
0.0
 40
0.0
 40
0.0
 40
0.0
 40
0.0624999999999998
 40
0.0624999999999998
 40
0.1249999999999996
 40
0.1249999999999996
 40
0.2499999999999994
 40
0.2499999999999994
 40
0.3749999999999993
 40
0.3749999999999993
 40
0.4999999999999992
 40
0.4999999999999992
 40
0.7499999999999996
 40
0.7499999999999996
 40
1.0
 40
1.0
 40
1.0
 40
1.0
 10
298.9950144731495
 20
67.70991730791577
 30
0.0
 10
299.0178759146643
 20
67.64865696918848
 30
0.0
 10
299.03988000684
 20
67.58960790384752
 30
0.0
 10
299.0801623088229
 20
67.48464478921137
 30
0.0
 10
299.0985803094576
 20
67.43841210776083
 30
0.0
 10
299.1443039908389
 20
67.32585481126361
 30
0.0
 10
299.1620590726064
 20
67.28414448363417
 30
0.0
 10
299.1719268990252
 20
67.23419889889514
 30
0.0
 10
299.1646702046788
 20
67.22499398276528
 30
0.0
 10
299.1288039613479
 20
67.21705526749066
 30
0.0
 10
299.1005722546115
 20
67.21872194808923
 30
0.0
 10
298.9889937904791
 20
67.22545601182125
 30
0.0
 10
298.8770512777756
 20
67.23182609982281
 30
0.0
 10
298.6020943496613
 20
67.21437878374596
 30
0.0
 10
298.4372465200256
 20
67.19147702339023
 30
0.0
 10
298.2538171874605
 20
67.14670434099193
 30
0.0
  0
SPLINE
  5
259
330
1F
100
AcDbEntity
  8
0
  6
Continuous
 62
     7
370
    15
100
AcDbSpline
210
0.0
220
0.0
230
1.0
 70
     8
 71
     3
 72
    18
 73
    14
 74
     0
 42
0.00000001
 43
0.00000001
 40
0.0
 40
0.0
 40
0.0
 40
0.0
 40
0.1249999999999999
 40
0.1249999999999999
 40
0.2499999999999999
 40
0.2499999999999999
 40
0.3749999999999998
 40
0.3749999999999998
 40
0.4999999999999998
 40
0.4999999999999998
 40
0.7499999999999999
 40
0.7499999999999999
 40
1.0
 40
1.0
 40
1.0
 40
1.0
 10
298.2538171874604
 20
67.14670434099206
 30
0.0
 10
298.0307675960866
 20
67.63394599432897
 30
0.0
 10
297.7867597847623
 20
68.16656832422731
 30
0.0
 10
297.2829393831848
 20
69.26719615178447
 30
0.0
 10
297.0221092473757
 20
69.83742818183902
 30
0.0
 10
296.4877579351636
 20
71.009541219646
 30
0.0
 10
296.2138418854124
 20
71.61229923507193
 30
0.0
 10
295.659290389145
 20
72.8408108162558
 30
0.0
 10
295.3816712502183
 20
73.45990781681554
 30
0.0
 10
294.5518698619528
 20
75.32976026455451
 30
0.0
 10
294.0029638768036
 20
76.59293283925481
 30
0.0
 10
292.9318881144287
 20
79.14855539065192
 30
0.0
 10
292.4093644742143
 20
80.44272854532024
 30
0.0
 10
291.9073180275082
 20
81.74379906964103
 30
0.0
  0
SPLINE
  5
25A
330
1F
100
AcDbEntity
  8
0
  6
Continuous
 62
     7
370
    15
100
AcDbSpline
210
0.0
220
0.0
230
1.0
 70
     8
 71
     3
 72
    20
 73
    16
 74
     0
 42
0.00000001
 43
0.00000001
 40
0.0
 40
0.0
 40
0.0
 40
0.0
 40
0.2499999999999997
 40
0.2499999999999997
 40
0.4999999999999994
 40
0.4999999999999994
 40
0.7499999999999991
 40
0.7499999999999991
 40
0.8749999999999987
 40
0.9374999999999988
 40
0.968749999999999
 40
0.984374999999999
 40
0.9921874999999994
 40
0.9921874999999994
 40
1.0
 40
1.0
 40
1.0
 40
1.0
 10
330.8994758822461
 20
81.57038976416996
 30
0.0
 10
330.6609550440119
 20
80.93067953292811
 30
0.0
 10
330.4233353698273
 20
80.2907616940031
 30
0.0
 10
329.9379622291906
 20
79.01486697847149
 30
0.0
 10
329.6910159893228
 20
78.37857444310428
 30
0.0
 10
329.1887540715683
 20
77.10901310665709
 30
0.0
 10
328.9359219956644
 20
76.47478540614034
 30
0.0
 10
328.5632655239944
 20
75.5208423423281
 30
0.0
 10
328.3778904781661
 20
75.04348498187765
 30
0.0
 10
328.1631987665711
 20
74.48593701941329
 30
0.0
 10
328.0562352353022
 20
74.20701132708045
 30
0.0
 10
328.0028474952105
 20
74.06751130531433
 30
0.0
 10
327.9799870140434
 20
74.00771769709709
 30
0.0
 10
327.9647511140677
 20
73.96785354858979
 30
0.0
 10
327.9585981366588
 20
73.9473610472894
 30
0.0
 10
327.9495218369811
 20
73.92798679316961
 30
0.0
  0
SPLINE
  5
25B
330
1F
100
AcDbEntity
  8
0
  6
Continuous
 62
     7
370
    15
100
AcDbSpline
210
0.0
220
0.0
230
1.0
 70
     8
 71
     3
 72
    22
 73
    18
 74
     0
 42
0.00000001
 43
0.00000001
 40
0.0
 40
0.0
 40
0.0
 40
0.0
 40
0.1249999999999994
 40
0.1249999999999994
 40
0.2499999999999988
 40
0.2499999999999988
 40
0.3749999999999983
 40
0.3749999999999983
 40
0.4999999999999979
 40
0.4999999999999979
 40
0.6249999999999973
 40
0.6249999999999973
 40
0.687499999999998
 40
0.687499999999998
 40
0.7499999999999986
 40
0.7499999999999986
 40
1.0
 40
1.0
 40
1.0
 40
1.0
 10
327.9495218369811
 20
73.92798679316961
 30
0.0
 10
327.7238354281415
 20
73.44611491957379
 30
0.0
 10
327.4988500316739
 20
72.96269765635749
 30
0.0
 10
327.0574176041351
 20
72.01092770954268
 30
0.0
 10
326.8421057710341
 20
71.54089219166752
 30
0.0
 10
326.4094485426897
 20
70.61787795250743
 30
0.0
 10
326.1887107752869
 20
70.1661089509174
 30
0.0
 10
325.7524517896303
 20
69.27575313192361
 30
0.0
 10
325.5379554543215
 20
68.83720242966093
 30
0.0
 10
325.1265451734233
 20
67.99556991336429
 30
0.0
 10
324.9285981092188
 20
67.58966802914264
 30
0.0
 10
324.6438080976937
 20
67.00444394258554
 30
0.0
 10
324.5508914949303
 20
66.81332587399957
 30
0.0
 10
324.3692312144956
 20
66.43943722493728
 30
0.0
 10
324.2801684174034
 20
66.25600937062698
 30
0.0
 10
323.85067881749
 20
65.37111508890088
 30
0.0
 10
323.557587480462
 20
64.76354634868179
 30
0.0
 10
323.3216401826661
 20
64.2717478135398
 30
0.0
  0
LINE
  5
25C
330
1F
100
AcDbEntity
  8
0
  6
Continuous
 62
     7
370
    15
100
AcDbLine
 10
371.0901423394
 20
87.1459107563
 30
0.0
 11
371.0901423394
 21
91.1459109463
 31
0.0
  0
ARC
  5
25D
330
1F
100
AcDbEntity
  8
0
  6
Continuous
 62
     7
370
    15
100
AcDbCircle
 10
371.0901436805
 20
95.1459108513
 30
0.0
 40
4.0
100
AcDbArc
 50
270.0
 51
0.0
  0
ARC
  5
25E
330
1F
100
AcDbEntity
  8
0
  6
Continuous
 62
     7
370
    15
100
AcDbCircle
 10
371.0901436805
 20
83.1459108513
 30
0.0
 40
4.0
100
AcDbArc
 50
0.0
 51
90.0
  0
LINE
  5
25F
330
1F
100
AcDbEntity
  8
0
  6
Continuous
 62
     7
370
    15
100
AcDbLine
 10
251.0901450216
 20
91.1459109463
 30
0.0
 11
251.0901450216
 21
87.1459107563
 31
0.0
  0
ARC
  5
260
330
1F
100
AcDbEntity
  8
0
  6
Continuous
 62
     7
370
    15
100
AcDbCircle
 10
251.0901436805
 20
83.1459108513
 30
0.0
 40
4.0
100
AcDbArc
 50
90.0
 51
180.0
  0
ARC
  5
261
330
1F
100
AcDbEntity
  8
0
  6
Continuous
 62
     7
370
    15
100
AcDbCircle
 10
251.0901436805
 20
95.1459108513
 30
0.0
 40
4.0
100
AcDbArc
 50
180.0
 51
270.0
  0
ARC
  5
262
330
1F
100
AcDbEntity
  8
0
  6
Continuous
 62
     7
370
    15
100
AcDbCircle
 10
311.0901436805
 20
89.1459108513
 30
0.0
 40
20.56142161576944
100
AcDbArc
 50
158.8998039759
 51
201.1001960241
  0
SPLINE
  5
263
330
1F
100
AcDbEntity
  8
0
  6
Continuous
 62
     7
370
    15
100
AcDbSpline
210
0.0
220
0.0
230
1.0
 70
     8
 71
     3
 72
    15
 73
    11
 74
     0
 42
0.00000001
 43
0.00000001
 40
0.0
 40
0.0
 40
0.0
 40
0.0
 40
0.0624999999999998
 40
0.0624999999999998
 40
0.1249999999999996
 40
0.2499999999999994
 40
0.2499999999999994
 40
0.4999999999999999
 40
0.4999999999999999
 40
1.0
 40
1.0
 40
1.0
 40
1.0
 10
338.5599541814239
 20
94.77829090056241
 30
0.0
 10
339.0599632412922
 20
94.7724444383779
 30
0.0
 10
339.5577019329002
 20
94.76401934271271
 30
0.0
 10
340.5554152064655
 20
94.74733073270043
 30
0.0
 10
342.052711320907
 20
94.72167942885955
 30
0.0
 10
343.5515268306372
 20
94.69466472016626
 30
0.0
 10
346.5494207037937
 20
94.6400335972837
 30
0.0
 10
348.5478998506717
 20
94.60268908575465
 30
0.0
 10
354.5431724053905
 20
94.48999334864504
 30
0.0
 10
358.5401430397637
 20
94.4146515928474
 30
0.0
 10
362.5383168162919
 20
94.3436311471693
 30
0.0
  0
SPLINE
  5
264
330
1F
100
AcDbEntity
  8
0
  6
Continuous
 62
     7
370
    15
100
AcDbSpline
210
0.0
220
0.0
230
1.0
 70
     8
 71
     3
 72
    17
 73
    13
 74
     0
 42
0.00000001
 43
0.00000001
 40
0.0
 40
0.0
 40
0.0
 40
0.0
 40
0.2499999999999999
 40
0.2499999999999999
 40
0.3749999999999999
 40
0.3749999999999999
 40
0.4999999999999999
 40
0.6249999999999999
 40
0.6249999999999999
 40
0.7499999999999998
 40
0.7499999999999998
 40
1.0
 40
1.0
 40
1.0
 40
1.0
 10
338.5599687039573
 20
83.51352484476607
 30
0.0
 10
338.8003604332852
 20
84.43473550470286
 30
0.0
 10
338.9922244971318
 20
85.36485702616456
 30
0.0
 10
339.1913388505238
 20
86.77632343656066
 30
0.0
 10
339.2428598643585
 20
87.25050976810194
 30
0.0
 10
339.3120840616323
 20
88.19820914394965
 30
0.0
 10
339.3476557451211
 20
89.14590845741408
 30
0.0
 10
339.3120809603245
 20
90.09360763899167
 30
0.0
 10
339.2428534174866
 20
91.04130675818531
 30
0.0
 10
339.1913305269059
 20
91.5154929050162
 30
0.0
 10
338.9922108173603
 20
92.92695872555858
 30
0.0
 10
338.8003434410974
 20
93.85707976773642
 30
0.0
 10
338.559954181424
 20
94.77829090056223
 30
0.0
  0
SPLINE
  5
265
330
1F
100
AcDbEntity
  8
0
  6
Continuous
 62
     7
370
    15
100
AcDbSpline
210
0.0
220
0.0
230
1.0
 70
     8
 71
     3
 72
    16
 73
    12
 74
     0
 42
0.00000001
 43
0.00000001
 40
0.0
 40
0.0
 40
0.0
 40
0.0
 40
0.5000000000000007
 40
0.5000000000000007
 40
0.7500000000000006
 40
0.7500000000000006
 40
0.8750000000000002
 40
0.8750000000000002
 40
0.9375000000000001
 40
0.9375000000000001
 40
1.0
 40
1.0
 40
1.0
 40
1.0
 10
362.5390400337548
 20
83.94819538191558
 30
0.0
 10
358.5407534923989
 20
83.87716898251848
 30
0.0
 10
354.5436671590721
 20
83.8018239919822
 30
0.0
 10
348.5482215127152
 20
83.68912539044547
 30
0.0
 10
346.5496847245033
 20
83.65178041031614
 30
0.0
 10
343.5517040033135
 20
83.59714813359308
 30
0.0
 10
342.5524644238799
 20
83.57913783879259
 30
0.0
 10
341.0546150283463
 20
83.55303100813961
 30
0.0
 10
340.5555001717346
 20
83.54448082305707
 30
0.0
 10
339.5577532405488
 20
83.52779192278089
 30
0.0
 10
339.0599956778752
 20
83.51936703016611
 30
0.0
 10
338.5599687039575
 20
83.51352484476588
 30
0.0
  0
SPLINE
  5
266
330
1F
100
AcDbEntity
  8
0
  6
Continuous
 62
     7
370
    15
100
AcDbSpline
210
0.0
220
0.0
230
1.0
 70
     8
 71
     3
 72
    14
 73
    10
 74
     0
 42
0.00000001
 43
0.00000001
 40
0.0
 40
0.0
 40
0.0
 40
0.0
 40
0.25
 40
0.25
 40
0.5
 40
0.5
 40
0.75
 40
0.75
 40
1.0
 40
1.0
 40
1.0
 40
1.0
 10
289.8717752315374
 20
83.64657185461907
 30
0.0
 10
289.4020331235382
 20
83.67463427087617
 30
0.0
 10
288.9524355858191
 20
83.6994785527683
 30
0.0
 10
288.1051446881705
 20
83.74374653414678
 30
0.0
 10
287.7054072333453
 20
83.76328266958008
 30
0.0
 10
286.9549782825925
 20
83.7982758390362
 30
0.0
 10
286.6023492789964
 20
83.81380448245396
 30
0.0
 10
285.9653249264779
 20
83.84081787550679
 30
0.0
 10
285.6793167589931
 20
83.85238366173705
 30
0.0
 10
285.4265239240652
 20
83.8623287617658
 30
0.0
  0
ARC
  5
267
330
1F
100
AcDbEntity
  8
0
  6
Continuous
 62
     7
370
    15
100
AcDbCircle
 10
311.0901436805
 20
89.1459108513
 30
0.0
 40
21.91944089242346
100
AcDbArc
 50
165.4698956962
 51
194.5301043038
  0
SPLINE
  5
268
330
1F
100
AcDbEntity
  8
0
  6
Continuous
 62
     7
370
    15
100
AcDbSpline
210
0.0
220
0.0
230
1.0
 70
     8
 71
     3
 72
    14
 73
    10
 74
     0
 42
0.00000001
 43
0.00000001
 40
0.0
 40
0.0
 40
0.0
 40
0.0
 40
0.250000000000001
 40
0.250000000000001
 40
0.5000000000000007
 40
0.5000000000000007
 40
0.7500000000000003
 40
0.7500000000000003
 40
1.0
 40
1.0
 40
1.0
 40
1.0
 10
285.4265239240652
 20
94.42949294087025
 30
0.0
 10
285.6793167589931
 20
94.43943804089898
 30
0.0
 10
285.9653249264777
 20
94.45100382712926
 30
0.0
 10
286.6023492789961
 20
94.47801722018208
 30
0.0
 10
286.9549782825922
 20
94.49354586359985
 30
0.0
 10
287.7054072333447
 20
94.52853903305592
 30
0.0
 10
288.1051446881697
 20
94.54807516848923
 30
0.0
 10
288.9524355858181
 20
94.5923431498677
 30
0.0
 10
289.4020331235371
 20
94.61718743175982
 30
0.0
 10
289.871775231536
 20
94.64524984801689
 30
0.0
  0
ARC
  5
269
330
1F
100
AcDbEntity
  8
0
  6
Continuous
 62
     7
370
    15
100
AcDbCircle
 10
311.0901436805
 20
89.1459108513
 30
0.0
 40
23.91499149871103
100
AcDbArc
 50
171.9418045202
 51
188.0581954798
  0
SPLINE
  5
26A
330
1F
100
AcDbEntity
  8
0
  6
Continuous
 62
     7
370
    15
100
AcDbSpline
210
0.0
220
0.0
230
1.0
 70
     8
 71
     3
 72
    14
 73
    10
 74
     0
 42
0.00000001
 43
0.00000001
 40
0.0
 40
0.0
 40
0.0
 40
0.0
 40
0.5000000000000017
 40
0.5000000000000017
 40
0.7500000000000019
 40
0.7500000000000019
 40
0.875000000000001
 40
0.875000000000001
 40
1.0
 40
1.0
 40
1.0
 40
1.0
 10
287.4112840377458
 20
92.49828678517255
 30
0.0
 10
287.863046759093
 20
92.83037775501626
 30
0.0
 10
288.2853040565012
 20
93.1819551349306
 30
0.0
 10
288.8955809092146
 20
93.7226326732219
 30
0.0
 10
289.0949633623345
 20
93.90520034042332
 30
0.0
 10
289.3894655207804
 20
94.18130527468146
 30
0.0
 10
289.4868657248805
 20
94.27371909644569
 30
0.0
 10
289.6803258327055
 20
94.45912798496312
 30
0.0
 10
289.7772319733285
 20
94.55293921420576
 30
0.0
 10
289.8717752315374
 20
94.64524984801697
 30
0.0
  0
SPLINE
  5
26B
330
1F
100
AcDbEntity
  8
0
  6
Continuous
 62
     7
370
    15
100
AcDbSpline
210
0.0
220
0.0
230
1.0
 70
     8
 71
     3
 72
    14
 73
    10
 74
     0
 42
0.00000001
 43
0.00000001
 40
0.0
 40
0.0
 40
0.0
 40
0.0
 40
0.4999999999999991
 40
0.4999999999999991
 40
0.7499999999999978
 40
0.7499999999999978
 40
0.8749999999999989
 40
0.8749999999999989
 40
1.0
 40
1.0
 40
1.0
 40
1.0
 10
287.4112840377435
 20
85.79353491747891
 30
0.0
 10
287.8630467590922
 20
85.46144394763377
 30
0.0
 10
288.2853040564955
 20
85.10986656771024
 30
0.0
 10
288.8955809092112
 20
84.5691890294172
 30
0.0
 10
289.0949633623318
 20
84.38662136221518
 30
0.0
 10
289.3894655207788
 20
84.11051642795611
 30
0.0
 10
289.4868657248791
 20
84.01810260619158
 30
0.0
 10
289.6803258327048
 20
83.83269371767354
 30
0.0
 10
289.7772319733319
 20
83.7388824884356
 30
0.0
 10
289.8717752315374
 20
83.64657185461907
 30
0.0
  0
SPLINE
  5
26C
330
1F
100
AcDbEntity
  8
0
  6
Continuous
 62
     7
370
    15
100
AcDbSpline
210
0.0
220
0.0
230
1.0
 70
     8
 71
     3
 72
    12
 73
     8
 74
     0
 42
0.00000001
 43
0.00000001
 40
0.0
 40
0.0
 40
0.0
 40
0.0
 40
0.2499999999999994
 40
0.2499999999999994
 40
0.4999999999999989
 40
0.4999999999999989
 40
1.0
 40
1.0
 40
1.0
 40
1.0
 10
287.4112840377462
 20
92.49828678517197
 30
0.0
 10
287.1173634925268
 20
92.28222566656582
 30
0.0
 10
286.8053552803167
 20
92.09214250270547
 30
0.0
 10
286.1490763323727
 20
91.75831240931014
 30
0.0
 10
285.8098099161342
 20
91.61748649544484
 30
0.0
 10
284.7701389315967
 20
91.27372517975958
 30
0.0
 10
284.0367418803584
 20
91.14591085131802
 30
0.0
 10
283.2987737717701
 20
91.14591085131802
 30
0.0
  0
ARC
  5
26D
330
1F
100
AcDbEntity
  8
0
  6
Continuous
 62
     7
370
    15
100
AcDbCircle
 10
281.7583965325
 20
94.8311556066
 30
0.0
 40
3.690052945823656
100
AcDbArc
 50
272.9252542862
 51
353.7509653294
  0
SPLINE
  5
26E
330
1F
100
AcDbEntity
  8
0
  6
Continuous
 62
     7
370
    15
100
AcDbSpline
210
0.0
220
0.0
230
1.0
 70
     8
 71
     3
 72
    14
 73
    10
 74
     0
 42
0.00000001
 43
0.00000001
 40
0.0
 40
0.0
 40
0.0
 40
0.0
 40
0.25
 40
0.25
 40
0.5
 40
0.5
 40
0.75
 40
0.75
 40
1.0
 40
1.0
 40
1.0
 40
1.0
 10
283.2987737717701
 20
87.14591085131802
 30
0.0
 10
283.6685775758868
 20
87.14591085131802
 30
0.0
 10
284.0335157512824
 20
87.11397951334183
 30
0.0
 10
284.7547974084425
 20
86.9937130131654
 30
0.0
 10
285.113080810024
 20
86.90466859609006
 30
0.0
 10
285.8121343812245
 20
86.67360270862983
 30
0.0
 10
286.1494353047151
 20
86.53315624320217
 30
0.0
 10
286.7997216810965
 20
86.20271392278734
 30
0.0
 10
287.1135675507173
 20
86.01238643451842
 30
0.0
 10
287.4112840377364
 20
85.79353491747125
 30
0.0
  0
ARC
  5
26F
330
1F
100
AcDbEntity
  8
0
  6
Continuous
 62
     7
370
    15
100
AcDbCircle
 10
281.7583965325
 20
83.460666096
 30
0.0
 40
3.690052945823664
100
AcDbArc
 50
6.2490346706
 51
87.0747457138
  0
LINE
  5
270
330
1F
100
AcDbEntity
  8
0
  6
Continuous
 62
     7
370
    15
100
AcDbLine
 10
391.0901418924
 20
56.6459120434
 30
0.0
 11
391.0901418924
 21
121.6459096592
 31
0.0
  0
LINE
  5
271
330
1F
100
AcDbEntity
  8
0
  6
Continuous
 62
     7
370
    15
100
AcDbLine
 10
231.0901454686
 20
121.6459096592
 30
0.0
 11
231.0901454686
 21
56.6459120434
 31
0.0
  0
SPLINE
  5
272
330
1F
100
AcDbEntity
  8
0
  6
Continuous
 62
     7
370
    15
100
AcDbSpline
210
0.0
220
0.0
230
1.0
 70
     8
 71
     3
 72
    14
 73
    10
 74
     0
 42
0.00000001
 43
0.00000001
 40
0.0000000000000001
 40
0.0000000000000001
 40
0.0000000000000001
 40
0.0000000000000001
 40
0.0000551367044481
 40
0.0000551367044481
 40
0.0000551367044481
 40
0.000259494130519
 40
0.000259494130519
 40
0.000259494130519
 40
0.000275207419134
 40
0.000275207419134
 40
0.000275207419134
 40
0.000275207419134
 10
298.9950144731493
 20
67.70991730791572
 30
0.0
 10
299.0017601430829
 20
67.69286004987599
 30
0.0
 10
299.0084912973362
 20
67.67579702555825
 30
0.0
 10
299.0152080506037
 20
67.6587283095404
 30
0.0
 10
299.0401027616404
 20
67.59546548952716
 30
0.0
 10
299.0647998787005
 20
67.53212413593772
 30
0.0
 10
299.0893045324369
 20
67.46870769066027
 30
0.0
 10
299.091188733128
 20
67.46383150219009
 30
0.0
 10
299.0930717983434
 20
67.4589548619145
 30
0.0
 10
299.0949537235782
 20
67.45407778835303
 30
0.0
  0
SPLINE
  5
273
330
1F
100
AcDbEntity
  8
0
  6
Continuous
 62
     7
370
    15
100
AcDbSpline
210
0.0
220
0.0
230
1.0
 70
     8
 71
     3
 72
    22
 73
    18
 74
     0
 42
0.00000001
 43
0.00000001
 40
0.0
 40
0.0
 40
0.0
 40
0.0
 40
0.2500000000000011
 40
0.2500000000000011
 40
0.5000000000000021
 40
0.5000000000000021
 40
0.6250000000000027
 40
0.6250000000000027
 40
0.7500000000000023
 40
0.7500000000000023
 40
0.8125000000000019
 40
0.8125000000000019
 40
0.8750000000000012
 40
0.8750000000000012
 40
0.9375000000000007
 40
0.9375000000000007
 40
1.0
 40
1.0
 40
1.0
 40
1.0
 10
349.7071182108048
 20
91.14591085131802
 30
0.0
 10
348.6853734614118
 20
91.14591085131802
 30
0.0
 10
347.6709302523163
 20
91.19474865326067
 30
0.0
 10
345.6576510905415
 20
91.39681649038246
 30
0.0
 10
344.6586380106507
 20
91.54886177504125
 30
0.0
 10
343.1764350625327
 20
91.88606700036135
 30
0.0
 10
342.6851223679743
 20
92.01689580438487
 30
0.0
 10
341.7103223141105
 20
92.33089472092958
 30
0.0
 10
341.2260474917106
 20
92.51409475813155
 30
0.0
 10
340.5290615411044
 20
92.84539559315249
 30
0.0
 10
340.3001582036788
 20
92.96614899270915
 30
0.0
 10
339.8603733104595
 20
93.23190304238948
 30
0.0
 10
339.6493429527879
 20
93.37659871719418
 30
0.0
 10
339.2540873959053
 20
93.70173793475084
 30
0.0
 10
339.0671230180844
 20
93.88485149837723
 30
0.0
 10
338.7542120483211
 20
94.29488145572195
 30
0.0
 10
338.6259094078519
 20
94.52553963814721
 30
0.0
 10
338.5599541814239
 20
94.77829090056241
 30
0.0
  0
SPLINE
  5
274
330
1F
100
AcDbEntity
  8
0
  6
Continuous
 62
     7
370
    15
100
AcDbSpline
210
0.0
220
0.0
230
1.0
 70
     8
 71
     3
 72
    22
 73
    18
 74
     0
 42
0.00000001
 43
0.00000001
 40
0.0
 40
0.0
 40
0.0
 40
0.0
 40
0.0625000000000003
 40
0.0625000000000003
 40
0.1250000000000006
 40
0.1250000000000006
 40
0.1875000000000009
 40
0.1875000000000009
 40
0.2500000000000011
 40
0.2500000000000011
 40
0.3750000000000016
 40
0.3750000000000016
 40
0.5000000000000012
 40
0.5000000000000012
 40
0.7500000000000006
 40
0.7500000000000006
 40
1.0
 40
1.0
 40
1.0
 40
1.0
 10
338.5599687039576
 20
83.5135248447661
 30
0.0
 10
338.6260067025663
 20
83.76659057397981
 30
0.0
 10
338.7515108470229
 20
83.99274273766254
 30
0.0
 10
339.0652245985337
 20
84.40506902118155
 30
0.0
 10
339.2481814193357
 20
84.58468675108035
 30
0.0
 10
339.6451953985421
 20
84.91229106111177
 30
0.0
 10
339.8591302692729
 20
85.05903457053716
 30
0.0
 10
340.2971369390582
 20
85.32394514505376
 30
0.0
 10
340.5230011081726
 20
85.44326427833644
 30
0.0
 10
341.2152732534319
 20
85.77311518592055
 30
0.0
 10
341.6985399970264
 20
85.95659635024569
 30
0.0
 10
342.6698437233771
 20
86.27050780599286
 30
0.0
 10
343.1602764604646
 20
86.40163169078929
 30
0.0
 10
344.6417593126391
 20
86.73997406586928
 30
0.0
 10
345.6428172901768
 20
86.89311843976299
 30
0.0
 10
347.6639310591721
 20
87.09675889416039
 30
0.0
 10
348.6860493216629
 20
87.14591085131808
 30
0.0
 10
349.7071462744974
 20
87.14591085131808
 30
0.0
  0
LINE
  5
275
330
1F
100
AcDbEntity
  8
0
  6
Continuous
 62
     7
370
    15
100
AcDbLine
 10
371.0901423394
 20
91.1459109463
 30
0.0
 11
349.7071175873
 21
91.1459109463
 31
0.0
  0
LINE
  5
276
330
1F
100
AcDbEntity
  8
0
  6
Continuous
 62
     7
370
    15
100
AcDbLine
 10
371.0901423394
 20
87.1459107563
 30
0.0
 11
349.7071473896
 21
87.1459107563
 31
0.0
  0
LINE
  5
277
330
1F
100
AcDbEntity
  8
0
  6
Continuous
 62
     7
370
    15
100
AcDbLine
 10
283.2987739741
 20
87.1459107563
 30
0.0
 11
251.0901450216
 21
87.1459107563
 31
0.0
  0
LINE
  5
278
330
1F
100
AcDbEntity
  8
0
  6
Continuous
 62
     7
370
    15
100
AcDbLine
 10
283.2987739741
 20
91.1459109463
 30
0.0
 11
251.0901450216
 21
91.1459109463
 31
0.0
  0
LWPOLYLINE
  5
279
330
1F
100
AcDbEntity
  8
0
  6
Continuous
 62
     7
370
    15
100
AcDbPolyline
 90
        9
 70
   128
 43
0.0
 10
371.0981070101
 20
94.2811457623
 10
371.8773371577
 20
94.2980553206
 10
372.6263924538
 20
94.3474652429
 10
373.3165620863
 20
94.4274816845
 10
373.9213815927
 20
94.5350373347
 10
374.4176796674
 20
94.6660092283
 10
374.7864238023
 20
94.8153766055
 10
375.013480246
 20
94.9774141606
 10
375.0901467203
 20
95.1459109035
  0
LWPOLYLINE
  5
27A
330
1F
100
AcDbEntity
  8
0
  6
Continuous
 62
     7
370
    15
100
AcDbPolyline
 90
        9
 70
   128
 43
0.0
 10
375.0901467203
 20
83.1459107992
 10
375.013480246
 20
83.3142883327
 10
374.7864312529
 20
83.4762113352
 10
374.4177020191
 20
83.6254739385
 10
373.9214262962
 20
83.7563540969
 10
373.3166216909
 20
83.863835707
 10
372.6264744102
 20
83.9437985976
 10
371.8774414658
 20
83.9931773205
 10
371.0982262193
 20
84.0100798939
  0
SPLINE
  5
27B
330
1F
100
AcDbEntity
  8
0
  6
Continuous
 62
     7
370
    15
100
AcDbSpline
210
0.0
220
0.0
230
1.0
 70
     8
 71
     3
 72
    10
 73
     6
 74
     0
 42
0.00000001
 43
0.00000001
 40
0.0
 40
0.0
 40
0.0
 40
0.0
 40
0.5
 40
0.5
 40
1.0
 40
1.0
 40
1.0
 40
1.0
 10
362.5383168162919
 20
94.3436311471693
 30
0.0
 10
363.3874919889338
 20
94.3181295398625
 30
0.0
 10
364.2515545749713
 20
94.29830050093867
 30
0.0
 10
366.0081142100163
 20
94.27086476333655
 30
0.0
 10
366.9006103106703
 20
94.26325836880197
 30
0.0
 10
367.8080626133004
 20
94.26240195512247
 30
0.0
  0
SPLINE
  5
27C
330
1F
100
AcDbEntity
  8
0
  6
Continuous
 62
     7
370
    15
100
AcDbSpline
210
0.0
220
0.0
230
1.0
 70
     8
 71
     3
 72
    10
 73
     6
 74
     0
 42
0.00000001
 43
0.00000001
 40
0.0
 40
0.0
 40
0.0
 40
0.0
 40
0.5
 40
0.5
 40
1.0
 40
1.0
 40
1.0
 40
1.0
 10
367.8091376153853
 20
84.02827048243157
 30
0.0
 10
366.9016207063514
 20
84.0276037808071
 30
0.0
 10
366.0090628425299
 20
84.02019789457634
 30
0.0
 10
364.2523856744154
 20
83.99315648080014
 30
0.0
 10
363.3882673161502
 20
83.97352142893578
 30
0.0
 10
362.5390400337548
 20
83.94819538191564
 30
0.0
  0
ARC
  5
27D
330
1F
100
AcDbEntity
  8
0
  6
Continuous
 62
     7
370
    15
100
AcDbCircle
 10
20.1853198666
 20
93.6049681428
 30
0.0
 40
350.9134386098048
100
AcDbArc
 50
359.5984914324
 51
0.1104037164
  0
SPLINE
  5
27E
330
1F
100
AcDbEntity
  8
0
  6
Continuous
 62
     7
370
    15
100
AcDbSpline
210
0.0
220
0.0
230
1.0
 70
     8
 71
     3
 72
     8
 73
     4
 74
     0
 42
0.00000001
 43
0.00000001
 40
0.0000000000000005
 40
0.0000000000000005
 40
0.0000000000000005
 40
0.0000000000000005
 40
0.0032900990794555
 40
0.0032900990794555
 40
0.0032900990794555
 40
0.0032900990794555
 10
367.8080626133007
 20
94.26240195511791
 30
0.0
 10
368.9047466995771
 20
94.26822748235386
 30
0.0
 10
370.0014281154376
 20
94.27454676955118
 30
0.0
 10
371.0981076815368
 20
94.28114565751795
 30
0.0
  0
ARC
  5
27F
330
1F
100
AcDbEntity
  8
0
  6
Continuous
 62
     7
370
    15
100
AcDbCircle
 10
25.2022481062
 20
84.6863181239
 30
0.0
 40
345.8966391466612
100
AcDbArc
 50
359.8879849735
 51
0.4074207403
  0
SPLINE
  5
280
330
1F
100
AcDbEntity
  8
0
  6
Continuous
 62
     7
370
    15
100
AcDbSpline
210
0.0
220
0.0
230
1.0
 70
     8
 71
     3
 72
     8
 73
     4
 74
     0
 42
0.00000001
 43
0.00000001
 40
0.0000000000000001
 40
0.0000000000000001
 40
0.0000000000000001
 40
0.0000000000000001
 40
0.0032891391181057
 40
0.0032891391181057
 40
0.0032891391181057
 40
0.0032891391181057
 10
371.0982256665867
 20
84.01007990792837
 30
0.0
 10
370.0018650606893
 20
84.01649555316986
 30
0.0
 10
368.9055025838553
 20
84.02261957943469
 30
0.0
 10
367.8091376153853
 20
84.02827048243162
 30
0.0
  0
LWPOLYLINE
  5
281
330
1F
100
AcDbEntity
  8
0
  6
Continuous
 62
     7
370
    15
100
AcDbPolyline
 90
        9
 70
   128
 43
0.0
 10
247.0901406407
 20
95.1459109035
 10
247.1124104261
 20
95.0543884371
 10
247.1789739131
 20
94.9638848376
 10
247.2890785932
 20
94.8754082617
 10
247.4415100216
 20
94.7899431173
 10
247.6345620155
 20
94.7084421475
 10
247.8660962581
 20
94.6318115291
 10
248.133527398
 20
94.5609057505
 10
248.4338752031
 20
94.4965131764
  0
LWPOLYLINE
  5
282
330
1F
100
AcDbEntity
  8
0
  6
Continuous
 62
     7
370
    15
100
AcDbPolyline
 90
        9
 70
   128
 43
0.0
 10
248.4338752031
 20
83.7953155112
 10
248.133527398
 20
83.7309224714
 10
247.8660962581
 20
83.6600157615
 10
247.6345620155
 20
83.5833846774
 10
247.4415100216
 20
83.5018823106
 10
247.2890785932
 20
83.4164167006
 10
247.1789739131
 20
83.3279387277
 10
247.1124104261
 20
83.2374341969
 10
247.0901406407
 20
83.1459107992
  0
SPLINE
  5
283
330
1F
100
AcDbEntity
  8
0
  6
Continuous
 62
     7
370
    15
100
AcDbSpline
210
0.0
220
0.0
230
1.0
 70
     8
 71
     3
 72
    11
 73
     7
 74
     0
 42
0.00000001
 43
0.00000001
 40
0.0
 40
0.0
 40
0.0
 40
0.0
 40
0.0036466017362
 40
0.0036466017362
 40
0.0036466017362
 40
0.0086854624308082
 40
0.0086854624308082
 40
0.0086854624308082
 40
0.0086854624308082
 10
254.8624339767644
 20
83.77582917401227
 30
0.0
 10
253.9618330784868
 20
83.78032676998701
 30
0.0
 10
253.0617004285446
 20
83.78394146665178
 30
0.0
 10
252.1619284931801
 20
83.78685716898575
 30
0.0
 10
250.9186271033713
 20
83.79088607522478
 30
0.0
 10
249.6760114498626
 20
83.79358388059902
 30
0.0
 10
248.4338779414347
 20
83.7953156452352
 30
0.0
  0
SPLINE
  5
284
330
1F
100
AcDbEntity
  8
0
  6
Continuous
 62
     7
370
    15
100
AcDbSpline
210
0.0
220
0.0
230
1.0
 70
     8
 71
     3
 72
    11
 73
     7
 74
     0
 42
0.00000001
 43
0.00000001
 40
0.0000000000000028
 40
0.0000000000000028
 40
0.0000000000000028
 40
0.0000000000000028
 40
0.0050388624543651
 40
0.0050388624543651
 40
0.0050388624543651
 40
0.0086854856014046
 40
0.0086854856014046
 40
0.0086854856014046
 40
0.0086854856014046
 10
248.4338759259345
 20
94.49651310233564
 30
0.0
 10
249.6760086823939
 20
94.49825229241095
 30
0.0
 10
250.9186236419382
 20
94.50096096164252
 30
0.0
 10
252.1619249546621
 20
94.50499709852474
 30
0.0
 10
253.0617018042991
 20
94.50791804977881
 30
0.0
 10
253.9618397034921
 20
94.51153606763035
 30
0.0
 10
254.8624461683843
 20
94.5160291369603
 30
0.0
  0
SPLINE
  5
285
330
1F
100
AcDbEntity
  8
0
  6
Continuous
 62
     7
370
    15
100
AcDbSpline
210
0.0
220
0.0
230
1.0
 70
     8
 71
     3
 72
     9
 73
     5
 74
     0
 42
0.00000001
 43
0.00000001
 40
0.0
 40
0.0
 40
0.0
 40
0.0
 40
0.7382796780369513
 40
1.0
 40
1.0
 40
1.0
 40
1.0
 10
251.3975448011603
 20
112.2223315012042
 30
0.0
 10
251.5593148626037
 20
112.1678217140566
 30
0.0
 10
251.7784324494153
 20
112.0939881943633
 30
0.0
 10
252.0213452495984
 20
112.0095272825871
 30
0.0
 10
252.0849204658713
 20
111.9874221455637
 30
0.0
  0
SPLINE
  5
286
330
1F
100
AcDbEntity
  8
0
  6
Continuous
 62
     7
370
    15
100
AcDbSpline
210
0.0
220
0.0
230
1.0
 70
     8
 71
     3
 72
    10
 73
     6
 74
     0
 42
0.00000001
 43
0.00000001
 40
0.0
 40
0.0
 40
0.0
 40
0.0
 40
0.5
 40
0.5
 40
1.0
 40
1.0
 40
1.0
 40
1.0
 10
252.084919195413
 20
111.9874225242144
 30
0.0
 10
252.3183361026861
 20
111.9062683345585
 30
0.0
 10
252.5556370096907
 20
111.8231812894605
 30
0.0
 10
253.0338847810764
 20
111.6555462732662
 30
0.0
 10
253.273161163305
 20
111.5711479789125
 30
0.0
 10
253.512403169772
 20
111.4865263222173
 30
0.0
  0
SPLINE
  5
287
330
1F
100
AcDbEntity
  8
0
  6
Continuous
 62
     7
370
    15
100
AcDbSpline
210
0.0
220
0.0
230
1.0
 70
     8
 71
     3
 72
     8
 73
     4
 74
     0
 42
0.00000001
 43
0.00000001
 40
0.0
 40
0.0
 40
0.0
 40
0.0
 40
0.0003314870388149
 40
0.0003314870388149
 40
0.0003314870388149
 40
0.0003314870388149
 10
253.512403169772
 20
111.4865263222174
 30
0.0
 10
253.6165746541495
 20
111.4496794166359
 30
0.0
 10
253.7207069017485
 20
111.4127213895636
 30
0.0
 10
253.8247990272124
 20
111.3756508888285
 30
0.0
  0
SPLINE
  5
288
330
1F
100
AcDbEntity
  8
0
  6
Continuous
 62
     7
370
    15
100
AcDbSpline
210
0.0
220
0.0
230
1.0
 70
     8
 71
     3
 72
     8
 73
     4
 74
     0
 42
0.00000001
 43
0.00000001
 40
0.0005915723625836
 40
0.0005915723625836
 40
0.0005915723625836
 40
0.0005915723625836
 40
0.0012368182781477
 40
0.0012368182781477
 40
0.0012368182781477
 40
0.0012368182781477
 10
253.8248400814094
 20
66.91574522642243
 30
0.0
 10
253.6222123052512
 20
66.84361749548778
 30
0.0
 10
253.4194329435817
 20
66.77191427269752
 30
0.0
 10
253.2165083059608
 20
66.70062600797603
 30
0.0
  0
LINE
  5
289
330
1F
100
AcDbEntity
  8
0
  6
Continuous
 62
     7
370
    15
100
AcDbLine
 10
253.2165071964
 20
66.7006251585
 30
0.0
 11
252.8088598549
 21
66.6064982485
 31
0.0
  0
LWPOLYLINE
  5
28A
330
1F
100
AcDbEntity
  8
0
  6
Continuous
 62
     7
370
    15
100
AcDbPolyline
 90
        9
 70
   128
 43
0.0
 10
283.8771401941
 20
103.9701243114
 10
283.8808896988
 20
103.968081921
 10
283.8852427005
 20
103.9657107737
 10
283.8901991992
 20
103.9630099383
 10
283.895759195
 20
103.9599812772
 10
283.9019226878
 20
103.9566238594
 10
283.9086896776
 20
103.9529386159
 10
283.9160583019
 20
103.9489236843
 10
283.9240304231
 20
103.9445818585
  0
LINE
  5
28B
330
1F
100
AcDbEntity
  8
0
  6
Continuous
 62
     7
370
    15
100
AcDbLine
 10
284.2580418139
 20
104.6489169073
 30
0.0
 11
284.2483318447
 21
104.6545271945
 31
0.0
  0
LWPOLYLINE
  5
28C
330
1F
100
AcDbEntity
  8
0
  6
Continuous
 62
     7
370
    15
100
AcDbPolyline
 90
        6
 70
   128
 43
0.0
 10
285.0703786164
 20
105.9767370295
 10
285.0667613595
 20
105.9790783745
 10
285.0640176832
 20
105.9808534753
 10
285.0621457248
 20
105.9820641946
 10
285.0611454844
 20
105.9827105325
 10
285.0609629451
 20
105.9828278791
  0
LWPOLYLINE
  5
28D
330
1F
100
AcDbEntity
  8
0
  6
Continuous
 62
     7
370
    15
100
AcDbPolyline
 90
        9
 70
   128
 43
0.0
 10
287.2874106317
 20
108.8942372423
 10
287.2794031202
 20
108.9008812975
 10
287.2720251828
 20
108.9070019495
 10
287.2652730941
 20
108.9126029235
 10
287.2591505795
 20
108.9176823568
 10
287.2536557763
 20
108.9222421121
 10
287.2487905472
 20
108.9262784642
 10
287.2445530295
 20
108.9297951382
 10
287.2409432232
 20
108.932788409
  0
LWPOLYLINE
  5
28E
330
1F
100
AcDbEntity
  8
0
  6
Continuous
 62
     7
370
    15
100
AcDbPolyline
 90
        6
 70
   128
 43
0.0
 10
298.1759536117
 20
117.3278846961
 10
298.1759582683
 20
117.3278753829
 10
298.1761789917
 20
117.3273929578
 10
298.176731266
 20
117.3261878264
 10
298.1776150911
 20
117.3242599886
 10
298.1788295358
 20
117.3216075819
  0
SPLINE
  5
28F
330
1F
100
AcDbEntity
  8
0
  6
Continuous
 62
     7
370
    15
100
AcDbSpline
210
0.0
220
0.0
230
1.0
 70
     8
 71
     3
 72
    12
 73
     8
 74
     0
 42
0.00000001
 43
0.00000001
 40
0.0
 40
0.0
 40
0.0
 40
0.0
 40
0.25
 40
0.25
 40
0.5
 40
0.5
 40
1.0
 40
1.0
 40
1.0
 40
1.0
 10
259.907213366042
 20
83.84636138563909
 30
0.0
 10
259.4393060684199
 20
83.8462793819991
 30
0.0
 10
258.9788583525782
 20
83.84464937008515
 30
0.0
 10
258.0855550708547
 20
83.83842774349142
 30
0.0
 10
257.6520564018975
 20
83.83384696100799
 30
0.0
 10
256.3900829737473
 20
83.8159321385878
 30
0.0
 10
255.5997539637346
 20
83.79844325322553
 30
0.0
 10
254.8624339767644
 20
83.77582917401249
 30
0.0
  0
SPLINE
  5
290
330
1F
100
AcDbEntity
  8
0
  6
Continuous
 62
     7
370
    15
100
AcDbSpline
210
0.0
220
0.0
230
1.0
 70
     8
 71
     3
 72
    12
 73
     8
 74
     0
 42
0.00000001
 43
0.00000001
 40
0.0
 40
0.0
 40
0.0
 40
0.0
 40
0.5
 40
0.5
 40
0.75
 40
0.75
 40
1.0
 40
1.0
 40
1.0
 40
1.0
 10
254.8624461683858
 20
94.51602913696034
 30
0.0
 10
255.5997724632865
 20
94.49340586742738
 30
0.0
 10
256.3901084395711
 20
94.47590745261856
 30
0.0
 10
257.6520933391108
 20
94.45797847982689
 30
0.0
 10
258.0855960051516
 20
94.45339299609805
 30
0.0
 10
258.9789076716937
 20
94.44716202593179
 30
0.0
 10
259.4393596926968
 20
94.44552736652201
 30
0.0
 10
259.9072713337405
 20
94.44544080163259
 30
0.0
  0
LINE
  5
291
330
1F
100
AcDbEntity
  8
0
  6
Continuous
 62
     7
370
    15
100
AcDbLine
 10
258.4931722879
 20
110.4767014455
 30
0.0
 11
257.3518327474
 21
110.6983767074
 31
0.0
  0
SPLINE
  5
292
330
1F
100
AcDbEntity
  8
0
  6
Continuous
 62
     7
370
    15
100
AcDbSpline
210
0.0
220
0.0
230
1.0
 70
     8
 71
     3
 72
     8
 73
     4
 74
     0
 42
0.00000001
 43
0.00000001
 40
0.0
 40
0.0
 40
0.0
 40
0.0
 40
1.0
 40
1.0
 40
1.0
 40
1.0
 10
259.6584368236181
 20
110.4774490945046
 30
0.0
 10
259.2700248147246
 20
110.462442479478
 30
0.0
 10
258.8816033108546
 20
110.4622393558007
 30
0.0
 10
258.4931724005412
 20
110.4767016925473
 30
0.0
  0
SPLINE
  5
293
330
1F
100
AcDbEntity
  8
0
  6
Continuous
 62
     7
370
    15
100
AcDbSpline
210
0.0
220
0.0
230
1.0
 70
     8
 71
     3
 72
     8
 73
     4
 74
     0
 42
0.00000001
 43
0.00000001
 40
0.0
 40
0.0
 40
0.0
 40
0.0
 40
1.0
 40
1.0
 40
1.0
 40
1.0
 10
260.5325805305427
 20
110.8233940959308
 30
0.0
 10
260.2402238874116
 20
110.7256410806084
 30
0.0
 10
259.9488065452874
 20
110.6109761690107
 30
0.0
 10
259.6584368236181
 20
110.4774490945046
 30
0.0
  0
SPLINE
  5
294
330
1F
100
AcDbEntity
  8
0
  6
Continuous
 62
     7
370
    15
100
AcDbSpline
210
0.0
220
0.0
230
1.0
 70
     8
 71
     3
 72
     8
 73
     4
 74
     0
 42
0.00000001
 43
0.00000001
 40
0.0
 40
0.0
 40
0.0
 40
0.0
 40
1.0
 40
1.0
 40
1.0
 40
1.0
 10
254.6341980415668
 20
111.1117827772738
 30
0.0
 10
254.362023104683
 20
111.1924528355336
 30
0.0
 10
254.0922245198942
 20
111.2804122059899
 30
0.0
 10
253.8247990272121
 20
111.3756508888286
 30
0.0
  0
LINE
  5
295
330
1F
100
AcDbEntity
  8
0
  6
Continuous
 62
     7
370
    15
100
AcDbLine
 10
254.3817742764
 20
67.1023846787
 30
0.0
 11
255.1817691921
 21
67.2716227543
 31
0.0
  0
SPLINE
  5
296
330
1F
100
AcDbEntity
  8
0
  6
Continuous
 62
     7
370
    15
100
AcDbSpline
210
0.0
220
0.0
230
1.0
 70
     8
 71
     3
 72
     8
 73
     4
 74
     0
 42
0.00000001
 43
0.00000001
 40
0.0
 40
0.0
 40
0.0
 40
0.0
 40
1.0
 40
1.0
 40
1.0
 40
1.0
 10
253.8248400814094
 20
66.91574522642244
 30
0.0
 10
254.0093259574136
 20
66.98141513544464
 30
0.0
 10
254.1949698619757
 20
67.04362949982186
 30
0.0
 10
254.3817727290377
 20
67.10238553268202
 30
0.0
  0
SPLINE
  5
297
330
1F
100
AcDbEntity
  8
0
  6
Continuous
 62
     7
370
    15
100
AcDbSpline
210
0.0
220
0.0
230
1.0
 70
     8
 71
     3
 72
    10
 73
     6
 74
     0
 42
0.00000001
 43
0.00000001
 40
0.0
 40
0.0
 40
0.0
 40
0.0
 40
0.5
 40
0.5
 40
1.0
 40
1.0
 40
1.0
 40
1.0
 10
259.3625419598069
 20
67.82168223393565
 30
0.0
 10
259.561747199572
 20
67.817817377892
 30
0.0
 10
259.7608201759597
 20
67.80925547568098
 30
0.0
 10
260.1578422929264
 20
67.78238911687018
 30
0.0
 10
260.3556293624533
 20
67.76391348944149
 30
0.0
 10
260.5508067791207
 20
67.73888773062923
 30
0.0
  0
SPLINE
  5
298
330
1F
100
AcDbEntity
  8
0
  6
Continuous
 62
     7
370
    15
100
AcDbSpline
210
0.0
220
0.0
230
1.0
 70
     8
 71
     3
 72
     8
 73
     4
 74
     0
 42
0.00000001
 43
0.00000001
 40
0.0
 40
0.0
 40
0.0
 40
0.0
 40
1.0
 40
1.0
 40
1.0
 40
1.0
 10
258.240747088012
 20
67.80254392219051
 30
0.0
 10
258.6144465898002
 20
67.82252923197562
 30
0.0
 10
258.9883775328958
 20
67.82894857652467
 30
0.0
 10
259.3625419598069
 20
67.82168223393565
 30
0.0
  0
SPLINE
  5
299
330
1F
100
AcDbEntity
  8
0
  6
Continuous
 62
     7
370
    15
100
AcDbSpline
210
0.0
220
0.0
230
1.0
 70
     8
 71
     3
 72
     8
 73
     4
 74
     0
 42
0.00000001
 43
0.00000001
 40
0.0
 40
0.0
 40
0.0
 40
0.0
 40
1.0
 40
1.0
 40
1.0
 40
1.0
 10
277.1960500155709
 20
83.45577650708563
 30
0.0
 10
271.4294873693116
 20
83.59084953860464
 30
0.0
 10
265.6659842702532
 20
83.72717708364264
 30
0.0
 10
259.9072133660396
 20
83.84636138560897
 30
0.0
  0
SPLINE
  5
29A
330
1F
100
AcDbEntity
  8
0
  6
Continuous
 62
     7
370
    15
100
AcDbSpline
210
0.0
220
0.0
230
1.0
 70
     8
 71
     3
 72
     8
 73
     4
 74
     0
 42
0.00000001
 43
0.00000001
 40
0.0
 40
0.0
 40
0.0
 40
0.0
 40
1.0
 40
1.0
 40
1.0
 40
1.0
 10
259.9072713337405
 20
94.4454408016325
 30
0.0
 10
265.6660246174511
 20
94.56462917183453
 30
0.0
 10
271.4295099704407
 20
94.70095542093668
 30
0.0
 10
277.1960511716733
 20
94.8360289919169
 30
0.0
  0
LINE
  5
29B
330
1F
100
AcDbEntity
  8
0
  6
Continuous
 62
     7
370
    15
100
AcDbLine
 10
295.5304889976
 20
62.3371982199
 30
0.0
 11
295.5289504527
 21
62.3345458132
 31
0.0
  0
LINE
  5
29C
330
1F
100
AcDbEntity
  8
0
  6
Continuous
 62
     7
370
    15
100
AcDbLine
 10
301.6171076372
 20
59.6319892627
 30
0.0
 11
301.6161707266
 21
59.6290704977
 31
0.0
  0
SPLINE
  5
29D
330
1F
100
AcDbEntity
  8
0
  6
Continuous
 62
     7
370
    15
100
AcDbSpline
210
0.0
220
0.0
230
1.0
 70
     8
 71
     3
 72
     9
 73
     5
 74
     0
 42
0.00000001
 43
0.00000001
 40
0.0
 40
0.0
 40
0.0
 40
0.0
 40
0.9251683535991113
 40
1.0
 40
1.0
 40
1.0
 40
1.0
 10
301.2747236564006
 20
60.88155034895578
 30
0.0
 10
301.3985933133276
 20
60.86733558394214
 30
0.0
 10
301.5324820876736
 20
60.85197106681578
 30
0.0
 10
301.6985026847361
 20
60.82909117970282
 30
0.0
 10
301.7109262793507
 20
60.82737904008069
 30
0.0
  0
SPLINE
  5
29E
330
1F
100
AcDbEntity
  8
0
  6
Continuous
 62
     7
370
    15
100
AcDbSpline
210
0.0
220
0.0
230
1.0
 70
     8
 71
     3
 72
    16
 73
    12
 74
     0
 42
0.00000001
 43
0.00000001
 40
0.0
 40
0.0
 40
0.0
 40
0.0
 40
0.2500000000000019
 40
0.2500000000000019
 40
0.5000000000000039
 40
0.5000000000000039
 40
0.7499999999999993
 40
0.7499999999999993
 40
0.8749999999999997
 40
0.8749999999999997
 40
1.0
 40
1.0
 40
1.0
 40
1.0
 10
300.6161927605839
 20
60.95375048746332
 30
0.0
 10
300.6366445513792
 20
60.95126108063782
 30
0.0
 10
300.6608610233066
 20
60.94885951991044
 30
0.0
 10
300.7335506041604
 20
60.94136173065674
 30
0.0
 10
300.7782558650965
 20
60.9368693999194
 30
0.0
 10
300.8884531903807
 20
60.92528488791546
 30
0.0
 10
300.9528153906739
 20
60.91839948046123
 30
0.0
 10
301.0639177903562
 20
60.90607991199465
 30
0.0
 10
301.1029139691013
 20
60.90169608132482
 30
0.0
 10
301.1864288832016
 20
60.89198446000517
 30
0.0
 10
301.2305243469087
 20
60.88673959050324
 30
0.0
 10
301.2747237078596
 20
60.88154990951649
 30
0.0
  0
SPLINE
  5
29F
330
1F
100
AcDbEntity
  8
0
  6
Continuous
 62
     7
370
    15
100
AcDbSpline
210
0.0
220
0.0
230
1.0
 70
     8
 71
     3
 72
    10
 73
     6
 74
     0
 42
0.00000001
 43
0.00000001
 40
0.0
 40
0.0
 40
0.0
 40
0.0
 40
0.3752565373641093
 40
0.9065903235464704
 40
1.0
 40
1.0
 40
1.0
 40
1.0
 10
262.5957041084017
 20
67.06539254601635
 30
0.0
 10
262.5817682483573
 20
67.06750617244903
 30
0.0
 10
262.5481003049409
 20
67.07261252791695
 30
0.0
 10
262.3813232609146
 20
67.10919306678498
 30
0.0
 10
262.2144198059784
 20
67.13974968024277
 30
0.0
 10
262.1894649266447
 20
67.14431840892472
 30
0.0
  0
SPLINE
  5
2A0
330
1F
100
AcDbEntity
  8
0
  6
Continuous
 62
     7
370
    15
100
AcDbSpline
210
0.0
220
0.0
230
1.0
 70
     8
 71
     3
 72
    20
 73
    16
 74
     0
 42
0.00000001
 43
0.00000001
 40
0.0
 40
0.0
 40
0.0
 40
0.0
 40
0.1249999999999995
 40
0.1249999999999995
 40
0.2499999999999991
 40
0.2499999999999991
 40
0.4999999999999993
 40
0.4999999999999993
 40
0.6249999999999994
 40
0.6249999999999994
 40
0.7499999999999996
 40
0.7499999999999996
 40
0.8749999999999998
 40
0.8749999999999998
 40
1.0
 40
1.0
 40
1.0
 40
1.0
 10
262.18946503673
 20
67.29498480133151
 30
0.0
 10
262.1876574061893
 20
67.30757018101438
 30
0.0
 10
262.1822883938585
 20
67.32120045287772
 30
0.0
 10
262.1495359484617
 20
67.35164256449504
 30
0.0
 10
262.1261001220612
 20
67.36810627232401
 30
0.0
 10
262.0256564793513
 20
67.42138719355142
 30
0.0
 10
261.922752711163
 20
67.45951066190983
 30
0.0
 10
261.7291963644549
 20
67.51792365736728
 30
0.0
 10
261.6583982983179
 20
67.53703747620706
 30
0.0
 10
261.5077817863844
 20
67.57457545517825
 30
0.0
 10
261.4267816030024
 20
67.59304133295316
 30
0.0
 10
261.2546946730621
 20
67.62829030847222
 30
0.0
 10
261.1652217544017
 20
67.64488897780406
 30
0.0
 10
260.9819761228697
 20
67.67673864979736
 30
0.0
 10
260.8865879147963
 20
67.69148643980554
 30
0.0
 10
260.790025934166
 20
67.70586449721773
 30
0.0
  0
SPLINE
  5
2A1
330
1F
100
AcDbEntity
  8
0
  6
Continuous
 62
     7
370
    15
100
AcDbSpline
210
0.0
220
0.0
230
1.0
 70
     8
 71
     3
 72
     8
 73
     4
 74
     0
 42
0.00000001
 43
0.00000001
 40
0.0
 40
0.0
 40
0.0
 40
0.0
 40
1.0
 40
1.0
 40
1.0
 40
1.0
 10
260.7900259341659
 20
67.70586449721772
 30
0.0
 10
260.7109482734786
 20
67.71736434546959
 30
0.0
 10
260.6314498511019
 20
67.72854763030543
 30
0.0
 10
260.5508067791188
 20
67.73888773062947
 30
0.0
  0
LINE
  5
2A2
330
1F
100
AcDbEntity
  8
0
  6
Continuous
 62
     7
370
    15
100
AcDbLine
 10
260.5325787365
 20
110.8233937245
 30
0.0
 11
261.3844669461
 21
111.0235777866
 31
0.0
  0
LINE
  5
2A3
330
1F
100
AcDbEntity
  8
0
  6
Continuous
 62
     7
370
    15
100
AcDbLine
 10
253.3777861892
 20
113.1475241106
 30
0.0
 11
253.3777861892
 21
113.1069072705
 31
0.0
  0
LINE
  5
2A4
330
1F
100
AcDbEntity
  8
0
  6
Continuous
 62
     7
370
    15
100
AcDbLine
 10
260.2682619392
 20
112.3069831353
 30
0.0
 11
260.2716258764
 21
112.3057128113
 31
0.0
  0
SPLINE
  5
2A5
330
1F
100
AcDbEntity
  8
0
  6
Continuous
 62
     7
370
    15
100
AcDbSpline
210
0.0
220
0.0
230
1.0
 70
     8
 71
     3
 72
     8
 73
     4
 74
     0
 42
0.00000001
 43
0.00000001
 40
0.0
 40
0.0
 40
0.0
 40
0.0
 40
0.0000615039210533
 40
0.0000615039210533
 40
0.0000615039210533
 40
0.0000615039210533
 10
254.3817727290377
 20
65.51891524226228
 30
0.0
 10
254.362419325902
 20
65.51215141372319
 30
0.0
 10
254.3430805821196
 20
65.50534549341421
 30
0.0
 10
254.3237567707707
 20
65.49849758100302
 30
0.0
  0
ARC
  5
2A6
330
1F
100
AcDbEntity
  8
0
  6
Continuous
 62
     7
370
    15
100
AcDbCircle
 10
341.1421818809
 20
119.1979490517
 30
0.0
 40
7.000000000000014
100
AcDbArc
 50
305.6605923087
 51
90.0
  0
ARC
  5
2A7
330
1F
100
AcDbEntity
  8
0
  6
Continuous
 62
     7
370
    15
100
AcDbCircle
 10
341.1421818809
 20
119.1979490517
 30
0.0
 40
7.000000000000014
100
AcDbArc
 50
90.0
 51
216.3687159678
  0
ARC
  5
2A8
330
1F
100
AcDbEntity
  8
0
  6
Continuous
 62
     7
370
    15
100
AcDbCircle
 10
281.0381054801
 20
119.1979490517
 30
0.0
 40
7.000000000000036
100
AcDbArc
 50
323.9336428909
 51
90.0
  0
ARC
  5
2A9
330
1F
100
AcDbEntity
  8
0
  6
Continuous
 62
     7
370
    15
100
AcDbCircle
 10
281.0381054801
 20
119.1979490517
 30
0.0
 40
7.000000000000012
100
AcDbArc
 50
90.0
 51
234.6282038973
  0
ARC
  5
2AA
330
1F
100
AcDbEntity
  8
0
  6
Continuous
 62
     7
370
    15
100
AcDbCircle
 10
311.0901436805
 20
89.1459108513
 30
0.0
 40
57.50000000000001
100
AcDbArc
 50
22.0709564655
 51
156.3449377811
  0
ARC
  5
2AB
330
1F
100
AcDbEntity
  8
0
  6
Continuous
 62
     7
370
    15
100
AcDbCircle
 10
341.1421818809
 20
59.0938726509
 30
0.0
 40
7.000000000000037
100
AcDbArc
 50
143.6405481862
 51
54.1749754655
  0
ARC
  5
2AC
330
1F
100
AcDbEntity
  8
0
  6
Continuous
 62
     7
370
    15
100
AcDbCircle
 10
281.0381054801
 20
59.0938726509
 30
0.0
 40
7.000000000000001
100
AcDbArc
 50
125.3697074549
 51
35.9241127519
  0
LINE
  5
2AD
330
1F
100
AcDbEntity
  8
0
  6
Continuous
 62
     7
370
    15
100
AcDbLine
 10
257.80370301
 20
67.5402366739
 30
0.0
 11
258.2407466172
 21
66.4921858531
 31
0.0
  0
ARC
  5
2AE
330
1F
100
AcDbEntity
  8
0
  6
Continuous
 62
     7
370
    15
100
AcDbCircle
 10
311.0901436805
 20
89.1459108513
 30
0.0
 40
57.50000000000001
100
AcDbArc
 50
203.6705010925
 51
336.3076210537
  0
LINE
  5
2AF
330
1F
100
AcDbEntity
  8
0
  6
Continuous
 62
     8
370
    15
100
AcDbLine
 10
323.3216398432
 20
64.2717470598
 30
0.0
 11
321.7627855986
 21
64.0266490352
 31
0.0
  0
LINE
  5
2B0
330
1F
100
AcDbEntity
  8
0
  6
Continuous
 62
     8
370
    15
100
AcDbLine
 10
321.7627958431
 20
114.2651465904
 30
0.0
 11
323.3216463625
 21
114.0200485658
 31
0.0
  0
ARC
  5
2B1
330
1F
100
AcDbEntity
  8
0
  6
Continuous
 62
     8
370
    15
100
AcDbCircle
 10
311.0901436805
 20
89.1459108513
 30
0.0
 40
26.20186288605797
100
AcDbArc
 50
115.4402887643
 51
168.3665894554
  0
SPLINE
  5
2B2
330
1F
100
AcDbEntity
  8
0
  6
Continuous
 62
     8
370
    15
100
AcDbSpline
210
0.0
220
0.0
230
1.0
 70
     8
 71
     3
 72
     9
 73
     5
 74
     0
 42
0.00000001
 43
0.00000001
 40
0.0
 40
0.0
 40
0.0
 40
0.0
 40
0.6536752432611969
 40
0.9999999999999999
 40
0.9999999999999999
 40
0.9999999999999999
 40
0.9999999999999999
 10
298.2538168355073
 20
111.1451172452752
 30
0.0
 10
298.5400625308828
 20
111.4959679618819
 30
0.0
 10
298.9779645293543
 20
112.0327034742388
 30
0.0
 10
299.5755940442212
 20
112.4687170853939
 30
0.0
 10
299.7825679405775
 20
112.619719393212
 30
0.0
  0
SPLINE
  5
2B3
330
1F
100
AcDbEntity
  8
0
  6
Continuous
 62
     8
370
    15
100
AcDbSpline
210
0.0
220
0.0
230
1.0
 70
     8
 71
     3
 72
     9
 73
     5
 74
     0
 42
0.00000001
 43
0.00000001
 40
0.0
 40
0.0
 40
0.0
 40
0.0
 40
0.5708118894344963
 40
1.0
 40
1.0
 40
1.0
 40
1.0
 10
299.7683485075082
 20
65.70895288105645
 30
0.0
 10
299.4365561759434
 20
65.95655879504217
 30
0.0
 10
298.8552922995137
 20
66.39033727542918
 30
0.0
 10
298.434441146639
 20
66.91956584676988
 30
0.0
 10
298.2538168355073
 20
67.14670445736088
 30
0.0
  0
ARC
  5
2B4
330
1F
100
AcDbEntity
  8
0
  6
Continuous
 62
     8
370
    15
100
AcDbCircle
 10
311.0901436805
 20
89.1459108513
 30
0.0
 40
26.20186288605797
100
AcDbArc
 50
191.6334105446
 51
244.6197604667
  0
LINE
  5
2B5
330
1F
100
AcDbEntity
  8
0
  6
Continuous
 62
     8
370
    15
100
AcDbLine
 10
282.0671576112
 20
94.4294928756
 30
0.0
 11
285.4265238195
 21
94.4294928756
 31
0.0
  0
LINE
  5
2B6
330
1F
100
AcDbEntity
  8
0
  6
Continuous
 62
     8
370
    15
100
AcDbLine
 10
285.4265238195
 20
83.862328827
 30
0.0
 11
282.0671576112
 21
83.862328827
 31
0.0
  0
ARC
  5
2B7
330
1F
100
AcDbEntity
  8
0
  6
Continuous
 62
     8
370
    15
100
AcDbCircle
 10
282.0114150951
 20
66.6036667507
 30
0.0
 40
17.52658933638596
100
AcDbArc
 50
90.0084545433
 51
105.946888012
  0
ARC
  5
2B8
330
1F
100
AcDbEntity
  8
0
  6
Continuous
 62
     8
370
    15
100
AcDbCircle
 10
281.7388056054
 20
109.7430737179
 30
0.0
 40
15.58385669790388
100
AcDbArc
 50
253.0519909566
 51
270.9928065299
  0
LINE
  5
2B9
330
1F
100
AcDbEntity
  8
0
  6
Continuous
 62
     8
370
    15
100
AcDbLine
 10
260.2716258764
 20
112.3057128113
 30
0.0
 11
260.3475286662
 21
112.2770113122
 31
0.0
  0
SPLINE
  5
2BA
330
1F
100
AcDbEntity
  8
0
  6
Continuous
 62
     8
370
    15
100
AcDbSpline
210
0.0
220
0.0
230
1.0
 70
     8
 71
     3
 72
     9
 73
     5
 74
     0
 42
0.00000001
 43
0.00000001
 40
0.0
 40
0.0
 40
0.0
 40
0.0
 40
0.1159679442892373
 40
1.0
 40
1.0
 40
1.0
 40
1.0
 10
254.2290187477316
 20
65.46341899748482
 30
0.0
 10
254.2323816476543
 20
65.45862339361479
 30
0.0
 10
254.2613801777507
 20
65.41727055340162
 30
0.0
 10
254.2944881216268
 20
65.46038427852771
 30
0.0
 10
254.3237566053118
 20
65.49849819358029
 30
0.0
  0
LINE
  5
2BB
330
1F
100
AcDbEntity
  8
0
  6
Continuous
 62
     7
370
    15
100
AcDbLine
 10
322.444010529
 20
117.1761908001
 30
0.0
 11
327.3580610254
 21
116.4094420179
 31
0.0
  0
LINE
  5
2BC
330
1F
100
AcDbEntity
  8
0
  6
Continuous
 62
     7
370
    15
100
AcDbLine
 10
298.1788268397
 20
116.9481925496
 30
0.0
 11
301.6686604723
 21
117.5075929112
 31
0.0
  0
LINE
  5
2BD
330
1F
100
AcDbEntity
  8
0
  6
Continuous
 62
     7
370
    15
100
AcDbLine
 10
297.1582343689
 20
61.5072247178
 30
0.0
 11
300.660351677
 21
60.9459941429
 31
0.0
  0
LINE
  5
2BE
330
1F
100
AcDbEntity
  8
0
  6
Continuous
 62
     7
370
    15
100
AcDbLine
 10
325.1454267375
 20
61.5270453648
 30
0.0
 11
320.5114658438
 21
60.783811438
 31
0.0
  0
LINE
  5
2BF
330
1F
100
AcDbEntity
  8
0
  6
Continuous
 62
     7
370
    15
100
AcDbLine
 10
102.4378307023
 20
369.3175891536
 30
0.0
 11
102.4378307023
 21
361.7102245478
 31
0.0
  0
LINE
  5
2C0
330
1F
100
AcDbEntity
  8
0
  6
Continuous
 62
     7
370
    15
100
AcDbLine
 10
94.4378307023
 20
369.3175891536
 30
0.0
 11
94.4378307023
 21
361.7102245478
 31
0.0
  0
LINE
  5
2C1
330
1F
100
AcDbEntity
  8
0
  6
Continuous
 62
     7
370
    15
100
AcDbLine
 10
527.9302968146
 20
369.3175891536
 30
0.0
 11
527.9302968146
 21
361.7102245478
 31
0.0
  0
LINE
  5
2C2
330
1F
100
AcDbEntity
  8
0
  6
Continuous
 62
     7
370
    15
100
AcDbLine
 10
519.9302968146
 20
369.3175891536
 30
0.0
 11
519.9302968146
 21
361.7102245478
 31
0.0
  0
LINE
  5
2C3
330
1F
100
AcDbEntity
  8
0
  6
Continuous
 62
     7
370
    15
100
AcDbLine
 10
293.6376781612
 20
297.5446113052
 30
0.0
 11
327.3741310804
 21
297.5446113052
 31
0.0
  0
ARC
  5
2C4
330
1F
100
AcDbEntity
  8
0
  6
Continuous
 62
     7
370
    15
100
AcDbCircle
 10
362.6218265172
 20
45.0067360599
 30
0.0
 40
22.57021714863162
100
AcDbArc
 50
69.9484420157
 51
88.2047511879
  0
ARC
  5
2C5
330
1F
100
AcDbEntity
  8
0
  6
Continuous
 62
     7
370
    15
100
AcDbCircle
 10
360.9498749075
 20
139.6203750627
 30
0.0
 40
29.12889965415144
100
AcDbArc
 50
276.9317496635
 51
290.8585152848
  0
ARC
  5
2C6
330
1F
100
AcDbEntity
  8
0
  6
Continuous
 62
     7
370
    15
100
AcDbCircle
 10
262.8815282343
 20
110.1616344752
 30
0.0
 40
4.845237804243182
100
AcDbArc
 50
154.9170518535
 51
174.5128777374
  0
ARC
  5
2C7
330
1F
100
AcDbEntity
  8
0
  6
Continuous
 62
     7
370
    15
100
AcDbCircle
 10
98.3581373024
 20
312.8706337778
 30
0.0
 40
29.49999695397197
100
AcDbArc
 50
160.6712385648
 51
166.4548955113
  0
ARC
  5
2C8
330
1F
100
AcDbEntity
  8
0
  6
Continuous
 62
     7
370
    15
100
AcDbCircle
 10
517.8099541959
 20
310.9591109219
 30
0.0
 40
35.97757704145572
100
AcDbArc
 50
14.1920727214
 51
18.5623469079
  0
ARC
  5
2C9
330
1F
100
AcDbEntity
  8
0
  6
Continuous
 62
     7
370
    15
100
AcDbCircle
 10
296.0207205135
 20
313.7664716934
 30
0.0
 40
16.39596429939113
100
AcDbArc
 50
208.5129070349
 51
261.6428448266
  0
ARC
  5
2CA
330
1F
100
AcDbEntity
  8
0
  6
Continuous
 62
     7
370
    15
100
AcDbCircle
 10
327.3741310804
 20
282.1483088417
 30
0.0
 40
15.39630246347213
100
AcDbArc
 50
23.2133397631
 51
90.0
  0
LINE
  5
2CB
330
1F
100
AcDbEntity
  8
0
  6
Continuous
 62
     7
370
    15
100
AcDbLine
 10
247.0901406407
 20
585.547239767
 30
0.0
 11
233.0901420712
 21
585.547239767
 31
0.0
  0
LINE
  5
2CC
330
1F
100
AcDbEntity
  8
0
  6
Continuous
 62
     7
370
    15
100
AcDbLine
 10
233.0901420712
 20
470.5472376808
 30
0.0
 11
247.0901406407
 21
470.5472376808
 31
0.0
  0
LINE
  5
2CD
330
1F
100
AcDbEntity
  8
0
  6
Continuous
 62
     7
370
    15
100
AcDbLine
 10
375.0901467203
 20
470.5472376808
 30
0.0
 11
389.0901452898
 21
470.5472376808
 31
0.0
  0
LINE
  5
2CE
330
1F
100
AcDbEntity
  8
0
  6
Continuous
 62
     7
370
    15
100
AcDbLine
 10
389.0901452898
 20
585.547239767
 30
0.0
 11
375.0901467203
 21
585.547239767
 31
0.0
  0
SPLINE
  5
2CF
330
1F
100
AcDbEntity
  8
0
  6
Continuous
 62
     7
370
    15
100
AcDbSpline
210
0.0
220
0.0
230
1.0
 70
     8
 71
     3
 72
    10
 73
     6
 74
     0
 42
0.00000001
 43
0.00000001
 40
0.0
 40
0.0
 40
0.0
 40
0.0
 40
0.5821788706315353
 40
0.9214232574427814
 40
1.0
 40
1.0
 40
1.0
 40
1.0
 10
276.9490092097964
 20
503.6570776864515
 30
0.0
 10
278.8246992967916
 20
503.3555526695424
 30
0.0
 10
281.7933822172786
 20
502.8783244888295
 30
0.0
 10
285.0134886040835
 20
502.3606477357887
 30
0.0
 10
286.3599489523696
 20
502.1441840117462
 30
0.0
 10
286.6131684779372
 20
502.1034751698004
 30
0.0
  0
SPLINE
  5
2D0
330
1F
100
AcDbEntity
  8
0
  6
Continuous
 62
     7
370
    15
100
AcDbSpline
210
0.0
220
0.0
230
1.0
 70
     8
 71
     3
 72
    10
 73
     6
 74
     0
 42
0.00000001
 43
0.00000001
 40
0.0
 40
0.0
 40
0.0
 40
0.0
 40
0.0781330353066584
 40
0.4199908963631001
 40
1.0
 40
1.0
 40
1.0
 40
1.0
 10
286.6020969151701
 20
553.9892215892302
 30
0.0
 10
286.3522187201864
 20
553.949050539289
 30
0.0
 10
285.0090408098327
 20
553.7331178648902
 30
0.0
 10
281.8133640166217
 20
553.2193663360042
 30
0.0
 10
278.8657962123584
 20
552.7455313685215
 30
0.0
 10
277.0112811624255
 20
552.4474096163736
 30
0.0
  0
ARC
  5
2D1
330
1F
100
AcDbEntity
  8
0
  6
Continuous
 62
     7
370
    15
100
AcDbCircle
 10
231.0901436805
 20
562.5472387239
 30
0.0
 40
2.000000000000114
100
AcDbArc
 50
270.0
 51
0.0
  0
ARC
  5
2D2
330
1F
100
AcDbEntity
  8
0
  6
Continuous
 62
     7
370
    15
100
AcDbCircle
 10
231.0901436805
 20
493.5472387239
 30
0.0
 40
2.000000000000028
100
AcDbArc
 50
0.0
 51
90.0
  0
ARC
  5
2D3
330
1F
100
AcDbEntity
  8
0
  6
Continuous
 62
     7
370
    15
100
AcDbCircle
 10
391.0901436805
 20
493.5472387239
 30
0.0
 40
2.000000000000057
100
AcDbArc
 50
90.0
 51
180.0
  0
ARC
  5
2D4
330
1F
100
AcDbEntity
  8
0
  6
Continuous
 62
     7
370
    15
100
AcDbCircle
 10
391.0901436805
 20
562.5472387239
 30
0.0
 40
2.000000000000114
100
AcDbArc
 50
180.0
 51
270.0
  0
ARC
  5
2D5
330
1F
100
AcDbEntity
  8
0
  6
Continuous
 62
     7
370
    15
100
AcDbCircle
 10
251.0901489882
 20
500.6564303137
 30
0.0
 40
4.000008359575359
100
AcDbArc
 50
108.1847389798
 51
179.9955632779
  0
ARC
  5
2D6
330
1F
100
AcDbEntity
  8
0
  6
Continuous
 62
     7
370
    15
100
AcDbCircle
 10
251.0901412753
 20
555.4379723045
 30
0.0
 40
4.00000080142661
100
AcDbArc
 50
180.0165450037
 51
251.9363376354
  0
ARC
  5
2D7
330
1F
100
AcDbEntity
  8
0
  6
Continuous
 62
     7
370
    15
100
AcDbCircle
 10
371.0901410115
 20
500.656432719
 30
0.0
 40
4.000005720679872
100
AcDbArc
 50
0.0044022708
 51
71.7025829747
  0
ARC
  5
2D8
330
1F
100
AcDbEntity
  8
0
  6
Continuous
 62
     7
370
    15
100
AcDbCircle
 10
371.0901369968
 20
555.4379784351
 30
0.0
 40
4.000009892074703
100
AcDbArc
 50
287.9787447993
 51
359.9833672195
  0
LINE
  5
2D9
330
1F
100
AcDbEntity
  8
0
  6
Continuous
 62
     7
370
    15
100
AcDbLine
 10
257.8812970816
 20
549.6378478273
 30
0.0
 11
257.2086959182
 21
549.6683356031
 31
0.0
  0
SPLINE
  5
2DA
330
1F
100
AcDbEntity
  8
0
  6
Continuous
 62
     7
370
    15
100
AcDbSpline
210
0.0
220
0.0
230
1.0
 70
     8
 71
     3
 72
     9
 73
     5
 74
     0
 42
0.00000001
 43
0.00000001
 40
0.0
 40
0.0
 40
0.0
 40
0.0
 40
0.0246595918715295
 40
1.0
 40
1.0
 40
1.0
 40
1.0
 10
254.6546890436854
 20
506.0164400055634
 30
0.0
 10
254.6627234771364
 20
506.0189699700815
 30
0.0
 10
254.9885372007715
 20
506.1215655252394
 30
0.0
 10
255.3316241150467
 20
506.1727225481615
 30
0.0
 10
255.6662506460394
 20
506.2226180597769
 30
0.0
  0
LINE
  5
2DB
330
1F
100
AcDbEntity
  8
0
  6
Continuous
 62
     7
370
    15
100
AcDbLine
 10
249.8466878235
 20
504.4581939146
 30
0.0
 11
250.2367629706
 21
504.5870759204
 31
0.0
  0
LINE
  5
2DC
330
1F
100
AcDbEntity
  8
0
  6
Continuous
 62
     7
370
    15
100
AcDbLine
 10
250.3881848454
 20
551.4573317632
 30
0.0
 11
249.8592942058
 21
551.6320832684
 31
0.0
  0
SPLINE
  5
2DD
330
1F
100
AcDbEntity
  8
0
  6
Continuous
 62
     7
370
    15
100
AcDbSpline
210
0.0
220
0.0
230
1.0
 70
     8
 71
     3
 72
     9
 73
     5
 74
     0
 42
0.00000001
 43
0.00000001
 40
0.0
 40
0.0
 40
0.0
 40
0.0
 40
0.5454083488653108
 40
1.0
 40
1.0
 40
1.0
 40
1.0
 10
368.3587967454638
 20
505.770934061669
 30
0.0
 10
369.0821270424783
 20
505.5321730765762
 30
0.0
 10
370.4083449093653
 20
505.0944075279014
 30
0.0
 10
371.7381131843201
 20
504.6549731544285
 30
0.0
 10
372.3426147400584
 20
504.4552099570261
 30
0.0
  0
SPLINE
  5
2DE
330
1F
100
AcDbEntity
  8
0
  6
Continuous
 62
     7
370
    15
100
AcDbSpline
210
0.0
220
0.0
230
1.0
 70
     8
 71
     3
 72
     9
 73
     5
 74
     0
 42
0.00000001
 43
0.00000001
 40
0.0
 40
0.0
 40
0.0
 40
0.0
 40
0.4513567749954789
 40
1.0
 40
1.0
 40
1.0
 40
1.0
 10
372.3188287615027
 20
551.6313754632698
 30
0.0
 10
371.7222538854103
 20
551.4342248153425
 30
0.0
 10
370.4005170485181
 20
550.997429227353
 30
0.0
 10
369.0823742768947
 20
550.5623373925664
 30
0.0
 10
368.3591841756548
 20
550.323627205156
 30
0.0
  0
SPLINE
  5
2DF
330
1F
100
AcDbEntity
  8
0
  6
Continuous
 62
     7
370
    15
100
AcDbSpline
210
0.0
220
0.0
230
1.0
 70
     8
 71
     3
 72
    11
 73
     7
 74
     0
 42
0.00000001
 43
0.00000001
 40
0.0
 40
0.0
 40
0.0
 40
0.0
 40
0.2716812856358805
 40
0.6279118281191733
 40
0.976684454702169
 40
1.0
 40
1.0
 40
1.0
 40
1.0
 10
364.2879596947874
 20
506.4602487399803
 30
0.0
 10
364.6652771002708
 20
506.4486427512123
 30
0.0
 10
365.5373359220762
 20
506.4218189027922
 30
0.0
 10
366.8685488795344
 20
506.1852469359418
 30
0.0
 10
367.8526600549217
 20
505.9595614034675
 30
0.0
 10
368.3260910835739
 20
505.7798324245254
 30
0.0
 10
368.3557569085802
 20
505.7685703649746
 30
0.0
  0
SPLINE
  5
2E0
330
1F
100
AcDbEntity
  8
0
  6
Continuous
 62
     7
370
    15
100
AcDbSpline
210
0.0
220
0.0
230
1.0
 70
     8
 71
     3
 72
    11
 73
     7
 74
     0
 42
0.00000001
 43
0.00000001
 40
0.0
 40
0.0
 40
0.0
 40
0.0
 40
0.2208722018298105
 40
0.6019863953320204
 40
0.9770346245856296
 40
1.0
 40
1.0
 40
1.0
 40
1.0
 10
368.3550416528429
 20
550.3389530494438
 30
0.0
 10
368.0682817982736
 20
550.2436310696962
 30
0.0
 10
367.2867188412876
 20
549.9838313551608
 30
0.0
 10
365.9563619011938
 20
549.7469403598394
 30
0.0
 10
364.8793251991334
 20
549.6110708715121
 30
0.0
 10
364.3292717610021
 20
549.6235790855202
 30
0.0
 10
364.2975336908545
 20
549.6243008091675
 30
0.0
  0
SPLINE
  5
2E1
330
1F
100
AcDbEntity
  8
0
  6
Continuous
 62
     7
370
    15
100
AcDbSpline
210
0.0
220
0.0
230
1.0
 70
     8
 71
     3
 72
    10
 73
     6
 74
     0
 42
0.00000001
 43
0.00000001
 40
0.0
 40
0.0
 40
0.0
 40
0.0
 40
0.5793494448484499
 40
0.9189478794777203
 40
1.0
 40
1.0
 40
1.0
 40
1.0
 10
345.2313079535212
 20
552.4374146625029
 30
0.0
 10
343.3647970977354
 20
552.7374749046538
 30
0.0
 10
340.4041898024352
 20
553.213422065201
 30
0.0
 10
337.1838775847289
 20
553.7311246335297
 30
0.0
 10
335.8282910038749
 20
553.9490523389536
 30
0.0
 10
335.5670928060259
 20
553.9910432561861
 30
0.0
  0
SPLINE
  5
2E2
330
1F
100
AcDbEntity
  8
0
  6
Continuous
 62
     7
370
    15
100
AcDbSpline
210
0.0
220
0.0
230
1.0
 70
     8
 71
     3
 72
    10
 73
     6
 74
     0
 42
0.00000001
 43
0.00000001
 40
0.0
 40
0.0
 40
0.0
 40
0.0
 40
0.0803565690601173
 40
0.4225251776478655
 40
1.0
 40
1.0
 40
1.0
 40
1.0
 10
335.5781569182124
 20
502.1052130177246
 30
0.0
 10
335.8351490426376
 20
502.14652774833
 30
0.0
 10
337.1864466938061
 20
502.3637659168166
 30
0.0
 10
340.3823037451712
 20
502.8775389969455
 30
0.0
 10
343.3226704043485
 20
503.3502304535442
 30
0.0
 10
345.1690248250212
 20
503.6470492049681
 30
0.0
  0
LINE
  5
2E3
330
1F
100
AcDbEntity
  8
0
  6
Continuous
 62
     7
370
    15
100
AcDbLine
 10
253.3806434869
 20
504.0771805361
 30
0.0
 11
254.2899011671
 21
504.3777574464
 31
0.0
  0
LINE
  5
2E4
330
1F
100
AcDbEntity
  8
0
  6
Continuous
 62
     7
370
    15
100
AcDbLine
 10
250.7935932874
 20
503.2219935819
 30
0.0
 11
251.9878580271
 21
503.6167681828
 31
0.0
  0
SPLINE
  5
2E5
330
1F
100
AcDbEntity
  8
0
  6
Continuous
 62
     7
370
    15
100
AcDbSpline
210
0.0
220
0.0
230
1.0
 70
     8
 71
     3
 72
     9
 73
     5
 74
     0
 42
0.00000001
 43
0.00000001
 40
0.0
 40
0.0
 40
0.0
 40
0.0
 40
0.94678104301806
 40
1.0
 40
1.0
 40
1.0
 40
1.0
 10
253.5410842894759
 20
551.9577909871565
 30
0.0
 10
253.1826387374929
 20
552.0762804131447
 30
0.0
 10
252.8040448116573
 20
552.2014301791459
 30
0.0
 10
252.4251329025818
 20
552.3266722497752
 30
0.0
 10
252.4049676059927
 20
552.3333375021444
 30
0.0
  0
CIRCLE
  5
2E6
330
1F
100
AcDbEntity
  8
0
  6
Continuous
 62
     7
370
    15
100
AcDbCircle
 10
311.0901436805
 20
528.0472387239
 30
0.0
 40
3.149999999999977
  0
CIRCLE
  5
2E7
330
1F
100
AcDbEntity
  8
0
  6
Continuous
 62
     7
370
    15
100
AcDbCircle
 10
311.0901436805
 20
528.0472387239
 30
0.0
 40
2.649999999999977
  0
CIRCLE
  5
2E8
330
1F
100
AcDbEntity
  8
0
  6
Continuous
 62
     7
370
    15
100
AcDbCircle
 10
311.0901436805
 20
528.0472387239
 30
0.0
 40
4.0
  0
LINE
  5
2E9
330
1F
100
AcDbEntity
  8
0
  6
Continuous
 62
     7
370
    15
100
AcDbLine
 10
308.9940732381
 20
536.387891756
 30
0.0
 11
309.5012241312
 21
534.3698437936
 31
0.0
  0
ARC
  5
2EA
330
1F
100
AcDbEntity
  8
0
  6
Continuous
 62
     7
370
    15
100
AcDbCircle
 10
307.803998312
 20
533.9433178123
 30
0.0
 40
1.750000000000048
100
AcDbArc
 50
235.1138436154
 51
14.106741573
  0
ARC
  5
2EB
330
1F
100
AcDbEntity
  8
0
  6
Continuous
 62
     7
370
    15
100
AcDbCircle
 10
305.8021813816
 20
531.0723024906
 30
0.0
 40
1.75
100
AcDbArc
 50
55.1138436154
 51
156.4376359297
  0
ARC
  5
2EC
330
1F
100
AcDbEntity
  8
0
  6
Continuous
 62
     7
370
    15
100
AcDbCircle
 10
311.0901436805
 20
528.7661838866
 30
0.0
 40
7.518945162694216
100
AcDbArc
 50
156.4376359297
 51
23.5623640703
  0
ARC
  5
2ED
330
1F
100
AcDbEntity
  8
0
  6
Continuous
 62
     7
370
    15
100
AcDbCircle
 10
316.3781059794
 20
531.0723024906
 30
0.0
 40
1.75
100
AcDbArc
 50
23.5623640703
 51
124.8861563846
  0
ARC
  5
2EE
330
1F
100
AcDbEntity
  8
0
  6
Continuous
 62
     7
370
    15
100
AcDbCircle
 10
314.376289049
 20
533.9433178123
 30
0.0
 40
1.750000000000048
100
AcDbArc
 50
165.893258427
 51
304.8861563846
  0
LINE
  5
2EF
330
1F
100
AcDbEntity
  8
0
  6
Continuous
 62
     7
370
    15
100
AcDbLine
 10
312.6790632297
 20
534.3698437936
 30
0.0
 11
313.1862141228
 21
536.387891756
 31
0.0
  0
CIRCLE
  5
2F0
330
1F
100
AcDbEntity
  8
0
  6
Continuous
 62
     7
370
    15
100
AcDbCircle
 10
314.376289049
 20
533.9433178123
 30
0.0
 40
0.8500000000000227
  0
CIRCLE
  5
2F1
330
1F
100
AcDbEntity
  8
0
  6
Continuous
 62
     7
370
    15
100
AcDbCircle
 10
307.803998312
 20
533.9433178123
 30
0.0
 40
0.8499999999999659
  0
CIRCLE
  5
2F2
330
1F
100
AcDbEntity
  8
0
  6
Continuous
 62
     7
370
    15
100
AcDbCircle
 10
311.0901436805
 20
528.0472387239
 30
0.0
 40
5.0
  0
LWPOLYLINE
  5
2F3
330
1F
100
AcDbEntity
  8
0
  6
Continuous
 62
     7
370
    15
100
AcDbPolyline
 90
        3
 70
   128
 43
0.0
 10
311.0901436805
 20
536.5472391858
 10
312.3277535699
 20
536.4566568896
 10
313.1618411782
 20
536.2909075483
  0
LWPOLYLINE
  5
2F4
330
1F
100
AcDbEntity
  8
0
  6
Continuous
 62
     7
370
    15
100
AcDbPolyline
 90
        3
 70
   128
 43
0.0
 10
309.0184461828
 20
536.2909075483
 10
309.8525337911
 20
536.4566568896
 10
311.0901436805
 20
536.5472391858
  0
CIRCLE
  5
2F5
330
1F
100
AcDbEntity
  8
0
  6
Continuous
 62
     7
370
    15
100
AcDbCircle
 10
311.0901436805
 20
528.0472387239
 30
0.0
 40
4.009999999999991
  0
ARC
  5
2F6
330
1F
100
AcDbEntity
  8
0
  6
Continuous
 62
     7
370
    15
100
AcDbCircle
 10
311.0901436805
 20
528.0472387239
 30
0.0
 40
12.0
100
AcDbArc
 50
79.1941289018
 51
90.0
  0
CIRCLE
  5
2F7
330
1F
100
AcDbEntity
  8
0
  6
Continuous
 62
     7
370
    15
100
AcDbCircle
 10
311.0901436805
 20
528.0472387239
 30
0.0
 40
8.600000000000023
  0
CIRCLE
  5
2F8
330
1F
100
AcDbEntity
  8
0
  6
Continuous
 62
     7
370
    15
100
AcDbCircle
 10
311.0901436805
 20
528.0472387239
 30
0.0
 40
34.50000000000011
  0
CIRCLE
  5
2F9
330
1F
100
AcDbEntity
  8
0
  6
Continuous
 62
     7
370
    15
100
AcDbCircle
 10
311.0901436805
 20
528.0472387239
 30
0.0
 40
32.5
  0
CIRCLE
  5
2FA
330
1F
100
AcDbEntity
  8
0
  6
Continuous
 62
     7
370
    15
100
AcDbCircle
 10
311.0901436805
 20
528.0472387239
 30
0.0
 40
17.5
  0
CIRCLE
  5
2FB
330
1F
100
AcDbEntity
  8
0
  6
Continuous
 62
     7
370
    15
100
AcDbCircle
 10
311.0901436805
 20
528.0472387239
 30
0.0
 40
57.50000000000011
  0
CIRCLE
  5
2FC
330
1F
100
AcDbEntity
  8
0
  6
Continuous
 62
     7
370
    15
100
AcDbCircle
 10
341.1421818809
 20
558.0992769243
 30
0.0
 40
7.0
  0
CIRCLE
  5
2FD
330
1F
100
AcDbEntity
  8
0
  6
Continuous
 62
     7
370
    15
100
AcDbCircle
 10
341.1421818809
 20
497.9952005235
 30
0.0
 40
7.0
  0
CIRCLE
  5
2FE
330
1F
100
AcDbEntity
  8
0
  6
Continuous
 62
     7
370
    15
100
AcDbCircle
 10
281.0381054801
 20
497.9952005235
 30
0.0
 40
7.0
  0
CIRCLE
  5
2FF
330
1F
100
AcDbEntity
  8
0
  6
Continuous
 62
     7
370
    15
100
AcDbCircle
 10
281.0381054801
 20
558.0992769243
 30
0.0
 40
7.0
  0
LINE
  5
300
330
1F
100
AcDbEntity
  8
0
  6
Continuous
 62
     7
370
    15
100
AcDbLine
 10
368.5901447236
 20
533.0472344212
 30
0.0
 11
368.5901447236
 21
528.0472387239
 31
0.0
  0
LINE
  5
301
330
1F
100
AcDbEntity
  8
0
  6
Continuous
 62
     7
370
    15
100
AcDbLine
 10
368.5901447236
 20
528.0472387239
 30
0.0
 11
368.5901447236
 21
523.0472430266
 31
0.0
  0
LINE
  5
302
330
1F
100
AcDbEntity
  8
0
  6
Continuous
 62
     7
370
    15
100
AcDbLine
 10
253.5901426374
 20
523.0472430266
 30
0.0
 11
253.8079491853
 21
523.0472388357
 31
0.0
  0
LINE
  5
303
330
1F
100
AcDbEntity
  8
0
  6
Continuous
 62
     7
370
    15
100
AcDbLine
 10
253.5901426374
 20
528.0472387239
 30
0.0
 11
253.5901426374
 21
523.0472430266
 31
0.0
  0
LINE
  5
304
330
1F
100
AcDbEntity
  8
0
  6
Continuous
 62
     7
370
    15
100
AcDbLine
 10
368.3723381757
 20
523.0472388357
 30
0.0
 11
368.5901447236
 21
523.0472430266
 31
0.0
  0
LINE
  5
305
330
1F
100
AcDbEntity
  8
0
  6
Continuous
 62
     7
370
    15
100
AcDbLine
 10
253.5901426374
 20
533.0472344212
 30
0.0
 11
253.5901426374
 21
528.0472387239
 31
0.0
  0
LINE
  5
306
330
1F
100
AcDbEntity
  8
0
  6
Continuous
 62
     7
370
    15
100
AcDbLine
 10
253.8079491853
 20
533.0472386121
 30
0.0
 11
253.5901426374
 21
533.0472344212
 31
0.0
  0
LINE
  5
307
330
1F
100
AcDbEntity
  8
0
  6
Continuous
 62
     7
370
    15
100
AcDbLine
 10
368.5901447236
 20
533.0472344212
 30
0.0
 11
368.3723381757
 21
533.0472386121
 31
0.0
  0
SPLINE
  5
308
330
1F
100
AcDbEntity
  8
0
  6
Continuous
 62
     7
370
    15
100
AcDbSpline
210
0.0
220
0.0
230
1.0
 70
     8
 71
     3
 72
    22
 73
    18
 74
     0
 42
0.00000001
 43
0.00000001
 40
0.0
 40
0.0
 40
0.0
 40
0.0
 40
0.1250000000000002
 40
0.1250000000000002
 40
0.2500000000000003
 40
0.2500000000000003
 40
0.3750000000000003
 40
0.3750000000000003
 40
0.5000000000000002
 40
0.5000000000000002
 40
0.6250000000000001
 40
0.6250000000000001
 40
0.7500000000000001
 40
0.7500000000000001
 40
0.875
 40
0.875
 40
1.0
 40
1.0
 40
1.0
 40
1.0
 10
375.0901436804975
 20
533.0472387238966
 30
0.0
 10
375.0901436804975
 20
532.8331127289946
 30
0.0
 10
375.0670288460764
 20
532.621351122734
 30
0.0
 10
374.9798225348488
 20
532.2147835259535
 30
0.0
 10
374.9179969849591
 20
532.026982565604
 30
0.0
 10
374.7629445705777
 20
531.6710801784974
 30
0.0
 10
374.671593167709
 20
531.5077476236427
 30
0.0
 10
374.4639138578852
 20
531.2035659091785
 30
0.0
 10
374.3468721876103
 20
531.0619092466819
 30
0.0
 10
374.0853130311893
 20
530.7992049274485
 30
0.0
 10
373.9434015956587
 20
530.6806952483294
 30
0.0
 10
373.6346017943885
 20
530.4685293458756
 30
0.0
 10
373.4667191692657
 20
530.3744003619922
 30
0.0
 10
373.1043442784726
 20
530.2169698087205
 30
0.0
 10
372.9142361457205
 20
530.1553890970987
 30
0.0
 10
372.5136866582816
 20
530.0702378839205
 30
0.0
 10
372.3030651542183
 20
530.0472387238966
 30
0.0
 10
372.0901436804975
 20
530.0472387238966
 30
0.0
  0
LINE
  5
309
330
1F
100
AcDbEntity
  8
0
  6
Continuous
 62
     7
370
    15
100
AcDbLine
 10
375.0901467203
 20
523.0472388357
 30
0.0
 11
375.0901467203
 21
533.0472386121
 31
0.0
  0
SPLINE
  5
30A
330
1F
100
AcDbEntity
  8
0
  6
Continuous
 62
     7
370
    15
100
AcDbSpline
210
0.0
220
0.0
230
1.0
 70
     8
 71
     3
 72
    22
 73
    18
 74
     0
 42
0.00000001
 43
0.00000001
 40
0.0
 40
0.0
 40
0.0
 40
0.0
 40
0.125
 40
0.125
 40
0.25
 40
0.25
 40
0.375
 40
0.375
 40
0.5
 40
0.5
 40
0.625
 40
0.625
 40
0.75
 40
0.75
 40
0.875
 40
0.875
 40
1.0
 40
1.0
 40
1.0
 40
1.0
 10
372.0901436804975
 20
526.0472387238966
 30
0.0
 10
372.3030467619534
 20
526.0472387238966
 30
0.0
 10
372.5088584117968
 20
526.0248654081201
 30
0.0
 10
372.9079405209861
 20
525.9408162715863
 30
0.0
 10
373.1022482255042
 20
525.8781503965599
 30
0.0
 10
373.4619806088679
 20
525.7223985229373
 30
0.0
 10
373.6307183431685
 20
525.6284426057584
 30
0.0
 10
373.94357417542
 20
525.4138352614361
 30
0.0
 10
374.0852598708216
 20
525.2951478162654
 30
0.0
 10
374.3440377093311
 20
525.0355912095579
 30
0.0
 10
374.4615040193094
 20
524.8941930183715
 30
0.0
 10
374.6714717206419
 20
524.5871528681054
 30
0.0
 10
374.7624190197949
 20
524.42418428249
 30
0.0
 10
374.9164489200021
 20
524.0714619678705
 30
0.0
 10
374.9797174942642
 20
523.8796371558557
 30
0.0
 10
375.0664364281591
 20
523.4764303535339
 30
0.0
 10
375.0901436804975
 20
523.2611832663434
 30
0.0
 10
375.0901436804975
 20
523.0472387238966
 30
0.0
  0
SPLINE
  5
30B
330
1F
100
AcDbEntity
  8
0
  6
Continuous
 62
     7
370
    15
100
AcDbSpline
210
0.0
220
0.0
230
1.0
 70
    24
 71
     3
 72
     8
 73
     4
 74
     0
 42
0.00000001
 43
0.00000001
 40
0.0
 40
0.0
 40
0.0
 40
0.0
 40
1.0
 40
1.0
 40
1.0
 40
1.0
 10
372.0901436804975
 20
526.0472387238966
 30
0.0
 10
371.9434738756228
 20
526.0472387238966
 30
0.0
 10
371.7953343770975
 20
526.0472387238966
 30
0.0
 10
371.6456618689917
 20
526.0472387238966
 30
0.0
  0
SPLINE
  5
30C
330
1F
100
AcDbEntity
  8
0
  6
Continuous
 62
     7
370
    15
100
AcDbSpline
210
0.0
220
0.0
230
1.0
 70
     8
 71
     3
 72
     8
 73
     4
 74
     0
 42
0.00000001
 43
0.00000001
 40
0.0
 40
0.0
 40
0.0
 40
0.0
 40
1.0
 40
1.0
 40
1.0
 40
1.0
 10
371.6456618689917
 20
526.0472387238966
 30
0.0
 10
371.6192191359694
 20
527.3804409688468
 30
0.0
 10
371.6192191359694
 20
528.7140364789465
 30
0.0
 10
371.6456618689917
 20
530.0472387238966
 30
0.0
  0
SPLINE
  5
30D
330
1F
100
AcDbEntity
  8
0
  6
Continuous
 62
     7
370
    15
100
AcDbSpline
210
0.0
220
0.0
230
1.0
 70
    24
 71
     3
 72
     8
 73
     4
 74
     0
 42
0.00000001
 43
0.00000001
 40
0.0
 40
0.0
 40
0.0
 40
0.0
 40
1.0
 40
1.0
 40
1.0
 40
1.0
 10
371.6456618689917
 20
530.0472387238966
 30
0.0
 10
371.7952281480012
 20
530.0472387238966
 30
0.0
 10
371.9433710859327
 20
530.0472387238966
 30
0.0
 10
372.0901436804975
 20
530.0472387238966
 30
0.0
  0
LINE
  5
30E
330
1F
100
AcDbEntity
  8
0
  6
Continuous
 62
     7
370
    15
100
AcDbLine
 10
247.0901406407
 20
523.0472388357
 30
0.0
 11
247.0901406407
 21
470.5472376808
 31
0.0
  0
LINE
  5
30F
330
1F
100
AcDbEntity
  8
0
  6
Continuous
 62
     7
370
    15
100
AcDbLine
 10
247.0901406407
 20
585.547239767
 30
0.0
 11
247.0901406407
 21
533.0472386121
 31
0.0
  0
LINE
  5
310
330
1F
100
AcDbEntity
  8
0
  6
Continuous
 62
     7
370
    15
100
AcDbLine
 10
247.0901406407
 20
533.0472386121
 30
0.0
 11
247.0901406407
 21
523.0472388357
 31
0.0
  0
LINE
  5
311
330
1F
100
AcDbEntity
  8
0
  6
Continuous
 62
     7
370
    15
100
AcDbLine
 10
233.0901420712
 20
585.547239767
 30
0.0
 11
233.0901420712
 21
470.5472376808
 31
0.0
  0
SPLINE
  5
312
330
1F
100
AcDbEntity
  8
0
  6
Continuous
 62
     7
370
    15
100
AcDbSpline
210
0.0
220
0.0
230
1.0
 70
     8
 71
     3
 72
    20
 73
    16
 74
     0
 42
0.00000001
 43
0.00000001
 40
0.0
 40
0.0
 40
0.0
 40
0.0
 40
0.0625000000000004
 40
0.0625000000000004
 40
0.1250000000000007
 40
0.1250000000000007
 40
0.2500000000000021
 40
0.2500000000000021
 40
0.5000000000000022
 40
0.5000000000000022
 40
0.7500000000000023
 40
0.7500000000000023
 40
0.8750000000000033
 40
0.8750000000000033
 40
1.0
 40
1.0
 40
1.0
 40
1.0
 10
247.090143680498
 20
523.0472387238966
 30
0.0
 10
247.0901436804981
 20
523.1356790969376
 30
0.0
 10
247.0941687031175
 20
523.220641280951
 30
0.0
 10
247.1070167322392
 20
523.3741762140302
 30
0.0
 10
247.1159960992063
 20
523.4466898353351
 30
0.0
 10
247.1496164457339
 20
523.6585976074853
 30
0.0
 10
247.181116951063
 20
523.7936092190192
 30
0.0
 10
247.3040040332828
 20
524.1941683557567
 30
0.0
 10
247.4244213225943
 20
524.4544257717009
 30
0.0
 10
247.7479281280165
 20
524.944678415336
 30
0.0
 10
247.9546158785499
 20
525.1790286415044
 30
0.0
 10
248.3329770347661
 20
525.4841665419812
 30
0.0
 10
248.4728966539795
 20
525.5796524083951
 30
0.0
 10
248.7677886992357
 20
525.745383330427
 30
0.0
 10
248.9237428313616
 20
525.8168064833907
 30
0.0
 10
249.089723440994
 20
525.8755172364181
 30
0.0
  0
SPLINE
  5
313
330
1F
100
AcDbEntity
  8
0
  6
Continuous
 62
     7
370
    15
100
AcDbSpline
210
0.0
220
0.0
230
1.0
 70
     8
 71
     3
 72
    20
 73
    16
 74
     0
 42
0.00000001
 43
0.00000001
 40
0.0
 40
0.0
 40
0.0
 40
0.0
 40
0.1250000000000001
 40
0.1250000000000001
 40
0.249999999999996
 40
0.249999999999996
 40
0.499999999999997
 40
0.499999999999997
 40
0.7499999999999979
 40
0.7499999999999979
 40
0.8749999999999999
 40
0.8749999999999999
 40
0.9374999999999999
 40
0.9374999999999999
 40
1.0
 40
1.0
 40
1.0
 40
1.0
 10
249.089723440994
 20
530.2189602113751
 30
0.0
 10
248.923870769616
 20
530.2776257100124
 30
0.0
 10
248.7676107342743
 20
530.3491404715919
 30
0.0
 10
248.4716300328307
 20
530.5155908129003
 30
0.0
 10
248.3320255213241
 20
530.6110272113995
 30
0.0
 10
247.9547916763645
 20
530.9154095094874
 30
0.0
 10
247.7478852954874
 20
531.1499966928042
 30
0.0
 10
247.4252886019381
 20
531.6386049613558
 30
0.0
 10
247.3051282154927
 20
531.8973472868723
 30
0.0
 10
247.1815225059638
 20
532.299199134459
 30
0.0
 10
247.1497447837433
 20
532.4353120649052
 30
0.0
 10
247.1161181091657
 20
532.6468990205608
 30
0.0
 10
247.1072163005883
 20
532.7184598458397
 30
0.0
 10
247.0942607934994
 20
532.8722043505289
 30
0.0
 10
247.090143680498
 20
532.9584928885644
 30
0.0
 10
247.090143680498
 20
533.0472387238966
 30
0.0
  0
SPLINE
  5
314
330
1F
100
AcDbEntity
  8
0
  6
Continuous
 62
     7
370
    15
100
AcDbSpline
210
0.0
220
0.0
230
1.0
 70
     8
 71
     3
 72
    17
 73
    13
 74
     0
 42
0.00000001
 43
0.00000001
 40
-0.0001717215109201
 40
-0.0001717215109201
 40
-0.0001717215109201
 40
-0.0001717215109201
 40
0.0
 40
0.0
 40
0.0
 40
0.0020000000228459
 40
0.0020000000228459
 40
0.0020000000228459
 40
0.0040000000456919
 40
0.0040000000456919
 40
0.0040000000456919
 40
0.004171721556612
 40
0.004171721556612
 40
0.004171721556612
 40
0.004171721556612
 10
249.089723440994
 20
530.2189602113751
 30
0.0
 10
249.0897677352069
 20
530.1617197191862
 30
0.0
 10
249.0898067835324
 20
530.1044792227667
 30
0.0
 10
249.089841383008
 20
530.0472387238966
 30
0.0
 10
249.0902443549167
 20
529.3805721714044
 30
0.0
 10
249.090143680498
 20
528.7139053981787
 30
0.0
 10
249.090143680498
 20
528.0472387238966
 30
0.0
 10
249.090143680498
 20
527.3805720496147
 30
0.0
 10
249.0902443549167
 20
526.7139052763888
 30
0.0
 10
249.089841383008
 20
526.0472387238966
 30
0.0
 10
249.0898067835324
 20
525.9899982250265
 30
0.0
 10
249.0897677352069
 20
525.9327577286072
 30
0.0
 10
249.089723440994
 20
525.8755172364181
 30
0.0
  0
LINE
  5
315
330
1F
100
AcDbEntity
  8
0
  6
Continuous
 62
     7
370
    15
100
AcDbLine
 10
375.0901467203
 20
533.0472386121
 30
0.0
 11
375.0901467203
 21
585.547239767
 31
0.0
  0
LINE
  5
316
330
1F
100
AcDbEntity
  8
0
  6
Continuous
 62
     7
370
    15
100
AcDbLine
 10
375.0901467203
 20
470.5472376808
 30
0.0
 11
375.0901467203
 21
523.0472388357
 31
0.0
  0
LINE
  5
317
330
1F
100
AcDbEntity
  8
0
  6
Continuous
 62
     7
370
    15
100
AcDbLine
 10
389.0901452898
 20
470.5472376808
 30
0.0
 11
389.0901452898
 21
585.547239767
 31
0.0
  0
LINE
  5
318
330
1F
100
AcDbEntity
  8
0
  6
Continuous
 62
     7
370
    15
100
AcDbLine
 10
250.090142995
 20
530.0472388189
 30
0.0
 11
253.5901426374
 21
530.0472388189
 31
0.0
  0
LINE
  5
319
330
1F
100
AcDbEntity
  8
0
  6
Continuous
 62
     7
370
    15
100
AcDbLine
 10
250.090142995
 20
526.0472386289
 30
0.0
 11
253.5901426374
 21
526.0472386289
 31
0.0
  0
ARC
  5
31A
330
1F
100
AcDbEntity
  8
0
  6
Continuous
 62
     7
370
    15
100
AcDbCircle
 10
250.0901436805
 20
523.0472387239
 30
0.0
 40
3.000000000000009
100
AcDbArc
 50
90.0
 51
109.479733699
  0
ARC
  5
31B
330
1F
100
AcDbEntity
  8
0
  6
Continuous
 62
     7
370
    15
100
AcDbCircle
 10
250.0901436805
 20
533.0472387239
 30
0.0
 40
3.000000000000009
100
AcDbArc
 50
250.520266301
 51
270.0
  0
LINE
  5
31C
330
1F
100
AcDbEntity
  8
0
  6
Continuous
 62
     7
370
    15
100
AcDbLine
 10
368.5901447236
 20
526.0472386289
 30
0.0
 11
371.645661354
 21
526.0472386289
 31
0.0
  0
LINE
  5
31D
330
1F
100
AcDbEntity
  8
0
  6
Continuous
 62
     7
370
    15
100
AcDbLine
 10
368.5901447236
 20
530.0472388189
 30
0.0
 11
371.645661354
 21
530.0472388189
 31
0.0
  0
CIRCLE
  5
31E
330
1F
100
AcDbEntity
  8
0
  6
Continuous
 62
     7
370
    15
100
AcDbCircle
 10
311.0901436805
 20
528.0472387239
 30
0.0
 40
15.25
  0
LINE
  5
31F
330
1F
100
AcDbEntity
  8
0
  6
Continuous
 62
     7
370
    15
100
AcDbLine
 10
231.0901454686
 20
560.5472375318
 30
0.0
 11
231.0901454686
 21
495.547239916
 31
0.0
  0
LINE
  5
320
330
1F
100
AcDbEntity
  8
0
  6
Continuous
 62
     7
370
    15
100
AcDbLine
 10
391.0901418924
 20
495.547239916
 30
0.0
 11
391.0901418924
 21
560.5472375318
 31
0.0
  0
SPLINE
  5
321
330
1F
100
AcDbEntity
  8
0
  6
Continuous
 62
     7
370
    15
100
AcDbSpline
210
0.0
220
0.0
230
1.0
 70
     8
 71
     3
 72
    22
 73
    18
 74
     0
 42
0.00000001
 43
0.00000001
 40
0.0
 40
0.0
 40
0.0
 40
0.0
 40
0.125
 40
0.125
 40
0.25
 40
0.25
 40
0.375
 40
0.375
 40
0.5
 40
0.5
 40
0.625
 40
0.625
 40
0.75
 40
0.75
 40
0.875
 40
0.875
 40
1.0
 40
1.0
 40
1.0
 40
1.0
 10
251.0870376832493
 20
523.6079872319154
 30
0.0
 10
250.8229691099052
 20
523.6079574115455
 30
0.0
 10
250.5632772582629
 20
523.6041598439338
 30
0.0
 10
250.0522989452872
 20
523.5893604219314
 30
0.0
 10
249.798369025113
 20
523.5781769964432
 30
0.0
 10
249.3146413739179
 20
523.5491389947706
 30
0.0
 10
249.0850614650607
 20
523.5314081745641
 30
0.0
 10
248.6503430749793
 20
523.4896882498516
 30
0.0
 10
248.4449554487896
 20
523.4655423975516
 30
0.0
 10
248.076570766811
 20
523.4130882408131
 30
0.0
 10
247.9110444223663
 20
523.3845759300472
 30
0.0
 10
247.618472921905
 20
523.3229911114994
 30
0.0
 10
247.4950060105467
 20
523.2906120149983
 30
0.0
 10
247.2956769734895
 20
523.2238368420146
 30
0.0
 10
247.2187482513159
 20
523.1890060598986
 30
0.0
 10
247.115984785479
 20
523.1183700676964
 30
0.0
 10
247.0901436804979
 20
523.0828844796848
 30
0.0
 10
247.0901436804978
 20
523.0472387238968
 30
0.0
  0
SPLINE
  5
322
330
1F
100
AcDbEntity
  8
0
  6
Continuous
 62
     7
370
    15
100
AcDbSpline
210
0.0
220
0.0
230
1.0
 70
     8
 71
     3
 72
    20
 73
    16
 74
     0
 42
0.00000001
 43
0.00000001
 40
0.0
 40
0.0
 40
0.0
 40
0.0
 40
0.1250000000000003
 40
0.1250000000000003
 40
0.2500000000000006
 40
0.2500000000000006
 40
0.3750000000000009
 40
0.3750000000000009
 40
0.5000000000000012
 40
0.5000000000000012
 40
0.6250000000000016
 40
0.6250000000000016
 40
0.7500000000000018
 40
0.7500000000000018
 40
1.0
 40
1.0
 40
1.0
 40
1.0
 10
247.0901436804979
 20
533.0472387238973
 30
0.0
 10
247.0901436804975
 20
533.0115945888199
 30
0.0
 10
247.1159974563367
 20
532.9762979704029
 30
0.0
 10
247.2172427075421
 20
532.906388482308
 30
0.0
 10
247.2938195319232
 20
532.8714135078809
 30
0.0
 10
247.4941187865301
 20
532.8041747110781
 30
0.0
 10
247.6166444196736
 20
532.7720821358757
 30
0.0
 10
247.905854076943
 20
532.7110287407971
 30
0.0
 10
248.07446129356
 20
532.6818749423081
 30
0.0
 10
248.442950688874
 20
532.6293554989123
 30
0.0
 10
248.6438107403929
 20
532.6056826325641
 30
0.0
 10
249.0792845659101
 20
532.5637456729904
 30
0.0
 10
249.3127394310162
 20
532.5457015280281
 30
0.0
 10
250.0339354781489
 20
532.5023193033111
 30
0.0
 10
250.5585094252604
 20
532.4867952276069
 30
0.0
 10
251.0868134551875
 20
532.4867312931997
 30
0.0
  0
LINE
  5
323
330
1F
100
AcDbEntity
  8
0
  6
Continuous
 62
     7
370
    15
100
AcDbLine
 10
311.0901436805
 20
512.7972385525
 30
0.0
 11
311.0901436805
 21
515.5472385376
 31
0.0
  0
LINE
  5
324
330
1F
100
AcDbEntity
  8
0
  6
Continuous
 62
     7
370
    15
100
AcDbLine
 10
311.0901436805
 20
540.5472389102
 30
0.0
 11
311.0901436805
 21
543.2972388953
 31
0.0
  0
LINE
  5
325
330
1F
100
AcDbEntity
  8
0
  6
Continuous
 62
     7
370
    15
100
AcDbLine
 10
298.6172645389
 20
528.4403911355
 30
0.0
 11
298.6406528427
 21
527.6788837945
 31
0.0
  0
ARC
  5
326
330
1F
100
AcDbEntity
  8
0
  6
Continuous
 62
     7
370
    15
100
AcDbCircle
 10
311.0901436805
 20
528.0472387239
 30
0.0
 40
12.5
100
AcDbArc
 50
90.0
 51
178.0408491947
  0
ARC
  5
327
330
1F
100
AcDbEntity
  8
0
  6
Continuous
 62
     7
370
    15
100
AcDbCircle
 10
311.0901436805
 20
528.0472387239
 30
0.0
 40
12.50000000000004
100
AcDbArc
 50
181.9560500763
 51
270.0
  0
LWPOLYLINE
  5
328
330
1F
100
AcDbEntity
  8
0
  6
Continuous
 62
     7
370
    15
100
AcDbPolyline
 90
        9
 70
   128
 43
0.0
 10
251.0868146121
 20
532.4867314338
 10
251.0869338214
 20
531.9881776958
 10
251.0871238112
 20
531.5211899723
 10
251.0873771309
 20
531.0996864136
 10
251.0876900553
 20
530.7362300954
 10
251.0880514085
 20
530.4416536964
 10
251.0884500145
 20
530.2247374929
 10
251.0888746976
 20
530.0919464934
 10
251.0893105566
 20
530.0472388189
  0
LWPOLYLINE
  5
329
330
1F
100
AcDbEntity
  8
0
  6
Continuous
 62
     7
370
    15
100
AcDbPolyline
 90
        9
 70
   128
 43
0.0
 10
251.0893664359
 20
526.0472386289
 10
251.0889603793
 20
526.0025360766
 10
251.0885654985
 20
525.8697606768
 10
251.0881929695
 20
525.6528693862
 10
251.0878539681
 20
525.3583255835
 10
251.0875633954
 20
524.9949076824
 10
251.0873249768
 20
524.5734458003
 10
251.0871498882
 20
524.106500452
 10
251.0870381295
 20
523.6079872265
  0
SPLINE
  5
32A
330
1F
100
AcDbEntity
  8
0
  6
Continuous
 62
     7
370
    15
100
AcDbSpline
210
0.0
220
0.0
230
1.0
 70
     8
 71
     3
 72
    14
 73
    10
 74
     0
 42
0.00000001
 43
0.00000001
 40
0.0
 40
0.0
 40
0.0
 40
0.0
 40
0.25
 40
0.25
 40
0.5
 40
0.5
 40
0.75
 40
0.75
 40
1.0
 40
1.0
 40
1.0
 40
1.0
 10
375.0901436804975
 20
523.0472387238965
 30
0.0
 10
375.0901436804975
 20
523.085545815398
 30
0.0
 10
375.0605220973184
 20
523.1234560090044
 30
0.0
 10
374.9444537170636
 20
523.198490467146
 30
0.0
 10
374.8563473807194
 20
523.2360439679211
 30
0.0
 10
374.6280898601152
 20
523.3073899949599
 30
0.0
 10
374.4885592923625
 20
523.3413151182347
 30
0.0
 10
374.1583267889861
 20
523.4054868388522
 30
0.0
 10
373.9677170855744
 20
523.4355732435015
 30
0.0
 10
373.756919542895
 20
523.4625739493878
 30
0.0
  0
SPLINE
  5
32B
330
1F
100
AcDbEntity
  8
0
  6
Continuous
 62
     7
370
    15
100
AcDbSpline
210
0.0
220
0.0
230
1.0
 70
     8
 71
     3
 72
    14
 73
    10
 74
     0
 42
0.00000001
 43
0.00000001
 40
0.0
 40
0.0
 40
0.0
 40
0.0
 40
0.25
 40
0.25
 40
0.5
 40
0.5
 40
0.75
 40
0.75
 40
1.0
 40
1.0
 40
1.0
 40
1.0
 10
373.7569173406249
 20
532.6319039604949
 30
0.0
 10
373.9676728200311
 20
532.6588991922097
 30
0.0
 10
374.154844519263
 20
532.6884276409094
 30
0.0
 10
374.4839535031
 20
532.7521575286476
 30
0.0
 10
374.6270184609042
 20
532.7868074389884
 30
0.0
 10
374.8555238170182
 20
532.8581224524454
 30
0.0
 10
374.9422179219048
 20
532.894849927691
 30
0.0
 10
375.0599724976108
 20
532.9703654706896
 30
0.0
 10
375.0901436804978
 20
533.008939443721
 30
0.0
 10
375.0901436804978
 20
533.0472387239001
 30
0.0
  0
SPLINE
  5
32C
330
1F
100
AcDbEntity
  8
0
  6
Continuous
 62
     7
370
    15
100
AcDbSpline
210
0.0
220
0.0
230
1.0
 70
     8
 71
     3
 72
    51
 73
    47
 74
     0
 42
0.00000001
 43
0.00000001
 40
0.0
 40
0.0
 40
0.0
 40
0.0
 40
0.0625000000000002
 40
0.0625000000000002
 40
0.0937500000000003
 40
0.0937500000000003
 40
0.1250000000000004
 40
0.1250000000000004
 40
0.1875000000000005
 40
0.1875000000000005
 40
0.2187500000000006
 40
0.2187500000000006
 40
0.2500000000000006
 40
0.2812500000000007
 40
0.2812500000000007
 40
0.3125000000000007
 40
0.3125000000000007
 40
0.3750000000000007
 40
0.3750000000000007
 40
0.4062500000000007
 40
0.4062500000000007
 40
0.4375000000000007
 40
0.4375000000000007
 40
0.5000000000000006
 40
0.5000000000000006
 40
0.5312500000000006
 40
0.5312500000000006
 40
0.5625000000000006
 40
0.5625000000000006
 40
0.6250000000000004
 40
0.6250000000000004
 40
0.6875000000000003
 40
0.6875000000000003
 40
0.7187500000000003
 40
0.7187500000000003
 40
0.7500000000000003
 40
0.7500000000000003
 40
0.8125000000000002
 40
0.8125000000000002
 40
0.8750000000000001
 40
0.8750000000000001
 40
0.9375
 40
0.9375
 40
0.96875
 40
0.96875
 40
1.0
 40
1.0
 40
1.0
 40
1.0
 10
311.0901436804976
 20
540.0472387238965
 30
0.0
 10
311.8825881260037
 20
540.0472387238965
 30
0.0
 10
312.6639448096362
 20
539.9695061695616
 30
0.0
 10
313.8197727968334
 20
539.7392638969478
 30
0.0
 10
314.2034967234202
 20
539.6430740113017
 30
0.0
 10
314.9601331873901
 20
539.4129566686216
 30
0.0
 10
315.3298331603594
 20
539.2801418929574
 30
0.0
 10
316.4138920622882
 20
538.8300966535909
 30
0.0
 10
317.1034470461135
 20
538.4617535512577
 30
0.0
 10
318.0868915081356
 20
537.8043389053289
 30
0.0
 10
318.4058053050452
 20
537.5674925116421
 30
0.0
 10
319.0124414827151
 20
537.0689533459038
 30
0.0
 10
319.591654719195
 20
536.5431944036831
 30
0.0
 10
320.1168583503351
 20
535.9638259400567
 30
0.0
 10
320.6146936924345
 20
535.3572919351832
 30
0.0
 10
320.8510512244479
 20
535.0386958081564
 30
0.0
 10
321.5085423866986
 20
534.0539117938243
 30
0.0
 10
321.8764824466298
 20
533.3638883936578
 30
0.0
 10
322.32567427695
 20
532.2799469749301
 30
0.0
 10
322.4581618620776
 20
531.9104233400777
 30
0.0
 10
322.6876100045798
 20
531.1544573543141
 30
0.0
 10
322.7837115049298
 20
530.7701503685364
 30
0.0
 10
323.0129471636139
 20
529.6162709923466
 30
0.0
 10
323.0897524744601
 20
528.8388417567489
 30
0.0
 10
323.0903370688383
 20
527.6603662838538
 30
0.0
 10
323.0709897325294
 20
527.2632816907927
 30
0.0
 10
322.9937535708368
 20
526.4790128693533
 30
0.0
 10
322.9361216773502
 20
526.0913383407602
 30
0.0
 10
322.7075672580038
 20
524.9413679179092
 30
0.0
 10
322.4815287300957
 20
524.191998170036
 30
0.0
 10
321.8764401482942
 20
522.7291242473985
 30
0.0
 10
321.5058595732567
 20
522.0369660278564
 30
0.0
 10
320.8553588931608
 20
521.0620257199695
 30
0.0
 10
320.6224723213941
 20
520.7472763628085
 30
0.0
 10
320.1239240739674
 20
520.1386641624525
 30
0.0
 10
319.8569350389745
 20
519.8436938143068
 30
0.0
 10
319.0227015192922
 20
519.0087850198016
 30
0.0
 10
318.4188545211994
 20
518.5128920816945
 30
0.0
 10
317.1170077755639
 20
517.6409580405837
 30
0.0
 10
316.4128309879972
 20
517.2638345678212
 30
0.0
 10
314.9667737486127
 20
516.6637179731945
 30
0.0
 10
314.219204479064
 20
516.4356136623283
 30
0.0
 10
313.0602987227663
 20
516.2035187161324
 30
0.0
 10
312.6672063299117
 20
516.1447635298425
 30
0.0
 10
311.8810171985224
 20
516.0668146319149
 30
0.0
 10
311.4863659478494
 20
516.0472387238966
 30
0.0
 10
311.0901436804975
 20
516.0472387238966
 30
0.0
  0
LINE
  5
32D
330
1F
100
AcDbEntity
  8
0
  6
Continuous
 62
     7
370
    15
100
AcDbLine
 10
253.2165071964
 20
552.0826999709
 30
0.0
 11
253.7034771442
 21
551.9120351091
 31
0.0
  0
LINE
  5
32E
330
1F
100
AcDbEntity
  8
0
  6
Continuous
 62
     7
370
    15
100
AcDbLine
 10
254.1734336912
 20
551.747334437
 30
0.0
 11
254.2005389034
 21
551.7378349468
 31
0.0
  0
ARC
  5
32F
330
1F
100
AcDbEntity
  8
0
  6
Continuous
 62
     7
370
    15
100
AcDbCircle
 10
311.0901436805
 20
528.0472387239
 30
0.0
 40
12.5
100
AcDbArc
 50
270.0
 51
276.8288459593
  0
ARC
  5
330
330
1F
100
AcDbEntity
  8
0
  6
Continuous
 62
     7
370
    15
100
AcDbCircle
 10
311.0901436805
 20
528.0472387239
 30
0.0
 40
12.5
100
AcDbArc
 50
83.1711540407
 51
90.0
  0
ARC
  5
331
330
1F
100
AcDbEntity
  8
0
  6
Continuous
 62
     7
370
    15
100
AcDbCircle
 10
311.0901436805
 20
528.0472387239
 30
0.0
 40
12.49999999999997
100
AcDbArc
 50
276.8288459593
 51
83.1711540407
  0
ARC
  5
332
330
1F
100
AcDbEntity
  8
0
  6
Continuous
 62
     7
370
    15
100
AcDbCircle
 10
311.0901436805
 20
528.0472387239
 30
0.0
 40
12.0
100
AcDbArc
 50
90.0
 51
270.0
  0
LINE
  5
333
330
1F
100
AcDbEntity
  8
0
  6
Continuous
 62
     8
370
    15
100
AcDbLine
 10
253.5901426374
 20
523.6182676307
 30
0.0
 11
251.0870381295
 21
523.6079872265
 31
0.0
  0
LINE
  5
334
330
1F
100
AcDbEntity
  8
0
  6
Continuous
 62
     8
370
    15
100
AcDbLine
 10
251.0868146121
 20
532.4867314338
 30
0.0
 11
253.5901426374
 21
532.4766233243
 31
0.0
  0
SPLINE
  5
335
330
1F
100
AcDbEntity
  8
0
  6
Continuous
 62
     8
370
    15
100
AcDbSpline
210
0.0
220
0.0
230
1.0
 70
     8
 71
     3
 72
     9
 73
     5
 74
     0
 42
0.00000001
 43
0.00000001
 40
0.0
 40
0.0
 40
0.0
 40
0.0
 40
0.3755350628105168
 40
1.0
 40
1.0
 40
1.0
 40
1.0
 10
368.5901447235789
 20
532.6422553188728
 30
0.0
 10
369.2373013117697
 20
532.640294290654
 30
0.0
 10
370.9605933616452
 20
532.6350723329382
 30
0.0
 10
372.6819749999414
 20
532.6331220299502
 30
0.0
 10
373.7569174765791
 20
532.6319041341172
 30
0.0
  0
SPLINE
  5
336
330
1F
100
AcDbEntity
  8
0
  6
Continuous
 62
     8
370
    15
100
AcDbSpline
210
0.0
220
0.0
230
1.0
 70
     8
 71
     3
 72
     9
 73
     5
 74
     0
 42
0.00000001
 43
0.00000001
 40
0.0
 40
0.0
 40
0.0
 40
0.0
 40
0.6244634740949933
 40
1.0
 40
1.0
 40
1.0
 40
1.0
 10
373.7569174765791
 20
523.4625737793373
 30
0.0
 10
372.6819774517392
 20
523.461357815233
 30
0.0
 10
370.9605957065573
 20
523.4594106010967
 30
0.0
 10
369.2373037849424
 20
523.454179244007
 30
0.0
 10
368.5901447235789
 20
523.4522146783398
 30
0.0
  0
LINE
  5
337
330
1F
100
AcDbEntity
  8
0
  6
Continuous
 62
     8
370
    15
100
AcDbLine
 10
311.0901436805
 20
515.6367321178
 30
0.0
 11
311.0901436805
 21
516.0472386196
 31
0.0
  0
LINE
  5
338
330
1F
100
AcDbEntity
  8
0
  6
Continuous
 62
     8
370
    15
100
AcDbLine
 10
311.0901436805
 20
540.0472388282
 30
0.0
 11
311.0901436805
 21
540.3682731703
 31
0.0
  0
LINE
  5
339
330
1F
100
AcDbEntity
  8
0
  6
Continuous
 62
     8
370
    15
100
AcDbLine
 10
312.5764420758
 20
512.8698407352
 30
0.0
 11
312.5764420758
 21
515.6359162792
 31
0.0
  0
LINE
  5
33A
330
1F
100
AcDbEntity
  8
0
  6
Continuous
 62
     8
370
    15
100
AcDbLine
 10
312.5764420758
 20
543.2246367126
 30
0.0
 11
312.5764420758
 21
540.4585611686
 31
0.0
  0
ARC
  5
33B
330
1F
100
AcDbEntity
  8
0
  6
Continuous
 62
     7
370
    15
100
AcDbCircle
 10
260.9436883896
 20
478.937968003
 30
0.0
 40
27.80210348990511
100
AcDbArc
 50
102.8307977246
 51
112.8650981742
  0
ARC
  5
33C
330
1F
100
AcDbEntity
  8
0
  6
Continuous
 62
     7
370
    15
100
AcDbCircle
 10
257.7294957075
 20
497.2525494112
 30
0.0
 40
9.225007173290512
100
AcDbArc
 50
89.6291718522
 51
103.1329096171
  0
ENDSEC
  0
SECTION
  2
OBJECTS
  0
DICTIONARY
  5
C
330
0
100
AcDbDictionary
281
     1
  3
ACAD_GROUP
350
D
  3
ACAD_LAYOUT
350
1A
  3
ACAD_MLINESTYLE
350
17
  3
ACAD_PLOTSETTINGS
350
19
  3
ACAD_PLOTSTYLENAME
350
E
  0
DICTIONARY
  5
D
102
{ACAD_REACTORS
330
C
102
}
330
C
100
AcDbDictionary
281
     1
  0
DICTIONARY
  5
1A
102
{ACAD_REACTORS
330
C
102
}
330
C
100
AcDbDictionary
281
     1
  3
Layout1
350
1E
  3
Layout2
350
26
  3
Model
350
22
  0
DICTIONARY
  5
17
102
{ACAD_REACTORS
330
C
102
}
330
C
100
AcDbDictionary
281
     1
  3
Standard
350
18
  0
DICTIONARY
  5
19
102
{ACAD_REACTORS
330
C
102
}
330
C
100
AcDbDictionary
281
     1
  0
ACDBDICTIONARYWDFLT
  5
E
102
{ACAD_REACTORS
330
C
102
}
330
C
100
AcDbDictionary
281
     1
  3
Normal
350
F
100
AcDbDictionaryWithDefault
340
F
  0
LAYOUT
  5
1E
102
{ACAD_REACTORS
330
1A
102
}
330
1A
100
AcDbPlotSettings
  1

  2
none_device
  4

  6

 40
0.0
 41
0.0
 42
0.0
 43
0.0
 44
0.0
 45
0.0
 46
0.0
 47
0.0
 48
0.0
 49
0.0
140
0.0
141
0.0
142
1.0
143
1.0
 70
   688
 72
     0
 73
     0
 74
     5
  7

 75
    16
147
1.0
148
0.0
149
0.0
100
AcDbLayout
  1
Layout1
 70
     1
 71
     1
 10
0.0
 20
0.0
 11
420.0
 21
297.0
 12
0.0
 22
0.0
 32
0.0
 14
1.0000000000E+20
 24
1.0000000000E+20
 34
1.0000000000E+20
 15
-1.0000000000E+20
 25
-1.0000000000E+20
 35
-1.0000000000E+20
146
0.0
 13
0.0
 23
0.0
 33
0.0
 16
1.0
 26
0.0
 36
0.0
 17
0.0
 27
1.0
 37
0.0
 76
     0
330
1B
  0
LAYOUT
  5
26
102
{ACAD_REACTORS
330
1A
102
}
330
1A
100
AcDbPlotSettings
  1

  2
none_device
  4

  6

 40
0.0
 41
0.0
 42
0.0
 43
0.0
 44
0.0
 45
0.0
 46
0.0
 47
0.0
 48
0.0
 49
0.0
140
0.0
141
0.0
142
1.0
143
1.0
 70
   688
 72
     0
 73
     0
 74
     5
  7

 75
    16
147
1.0
148
0.0
149
0.0
100
AcDbLayout
  1
Layout2
 70
     1
 71
     2
 10
0.0
 20
0.0
 11
0.0
 21
0.0
 12
0.0
 22
0.0
 32
0.0
 14
0.0
 24
0.0
 34
0.0
 15
0.0
 25
0.0
 35
0.0
146
0.0
 13
0.0
 23
0.0
 33
0.0
 16
1.0
 26
0.0
 36
0.0
 17
0.0
 27
1.0
 37
0.0
 76
     0
330
23
  0
LAYOUT
  5
22
102
{ACAD_REACTORS
330
1A
102
}
330
1A
100
AcDbPlotSettings
  1

  2
none_device
  4

  6

 40
0.0
 41
0.0
 42
0.0
 43
0.0
 44
0.0
 45
0.0
 46
0.0
 47
0.0
 48
0.0
 49
0.0
140
0.0
141
0.0
142
1.0
143
1.0
 70
  1712
 72
     0
 73
     0
 74
     0
  7

 75
     0
147
1.0
148
0.0
149
0.0
100
AcDbLayout
  1
Model
 70
     1
 71
     0
 10
0.0
 20
0.0
 11
600.0
 21
600.0
 12
0.0
 22
0.0
 32
0.0
 14
0.0
 24
0.0
 34
0.0
 15
600.0
 25
600.0
 35
0.0
146
0.0
 13
0.0
 23
0.0
 33
0.0
 16
1.0
 26
0.0
 36
0.0
 17
0.0
 27
1.0
 37
0.0
 76
     0
330
1F
331
29
  0
MLINESTYLE
  5
18
102
{ACAD_REACTORS
330
17
102
}
330
17
100
AcDbMlineStyle
  2
Standard
 70
     0
  3

 62
   256
 51
90.0
 52
90.0
 71
     2
 49
0.5
 62
   256
  6
BYLAYER
 49
-0.5
 62
   256
  6
BYLAYER
  0
ACDBPLACEHOLDER
  5
F
102
{ACAD_REACTORS
330
E
102
}
330
E
  0
ENDSEC
  0
EOF
