  0
SECTION
  2
HEADER
  9
$ACADVER
  1
AC1015
  9
$ACADMAINTVER
 70
     6
  9
$DWGCODEPAGE
  3
ANSI_1252
  9
$INSBASE
 10
0.0
 20
0.0
 30
0.0
  9
$EXTMIN
 10
0.0
 20
0.0
 30
0.0
  9
$EXTMAX
 10
800.0
 20
800.0
 30
0.0
  9
$LIMMIN
 10
0.0
 20
0.0
  9
$LIMMAX
 10
800.0
 20
800.0
  9
$ORTHOMODE
 70
     0
  9
$REGENMODE
 70
     1
  9
$FILLMODE
 70
     1
  9
$QTEXTMODE
 70
     0
  9
$MIRRTEXT
 70
     1
  9
$LTSCALE
 40
1.0
  9
$ATTMODE
 70
     1
  9
$TEXTSIZE
 40
3.5
  9
$TRACEWID
 40
1.0
  9
$TEXTSTYLE
  7
Standard
  9
$CLAYER
  8
0
  9
$CELTYPE
  6
ByLayer
  9
$CECOLOR
 62
   256
  9
$CELTSCALE
 40
1.0
  9
$DISPSILH
 70
     0
  9
$DIMSCALE
 40
1.0
  9
$DIMASZ
 40
4.0
  9
$DIMEXO
 40
0.0
  9
$DIMDLI
 40
3.75
  9
$DIMRND
 40
0.0
  9
$DIMDLE
 40
0.0
  9
$DIMEXE
 40
1.0
  9
$DIMTP
 40
0.0
  9
$DIMTM
 40
0.0
  9
$DIMTXT
 40
3.5
  9
$DIMCEN
 40
2.5
  9
$DIMTSZ
 40
0.0
  9
$DIMTOL
 70
     0
  9
$DIMLIM
 70
     0
  9
$DIMTIH
 70
     1
  9
$DIMTOH
 70
     1
  9
$DIMSE1
 70
     0
  9
$DIMSE2
 70
     0
  9
$DIMTAD
 70
     1
  9
$DIMZIN
 70
     0
  9
$DIMBLK
  1

  9
$DIMASO
 70
     1
  9
$DIMSHO
 70
     1
  9
$DIMPOST
  1

  9
$DIMAPOST
  1

  9
$DIMALT
 70
     0
  9
$DIMALTD
 70
     3
  9
$DIMALTF
 40
0.0393700787
  9
$DIMLFAC
 40
1.0
  9
$DIMTOFL
 70
     1
  9
$DIMTVP
 40
0.0
  9
$DIMTIX
 70
     0
  9
$DIMSOXD
 70
     0
  9
$DIMSAH
 70
     0
  9
$DIMBLK1
  1

  9
$DIMBLK2
  1

  9
$DIMSTYLE
  2
ISO-25
  9
$DIMCLRD
 70
     0
  9
$DIMCLRE
 70
     0
  9
$DIMCLRT
 70
     0
  9
$DIMTFAC
 40
1.0
  9
$DIMGAP
 40
1.524
  9
$DIMJUST
 70
     0
  9
$DIMSD1
 70
     0
  9
$DIMSD2
 70
     0
  9
$DIMTOLJ
 70
     0
  9
$DIMTZIN
 70
     0
  9
$DIMALTZ
 70
     0
  9
$DIMALTTZ
 70
     0
  9
$DIMUPT
 70
     0
  9
$DIMDEC
 70
     1
  9
$DIMTDEC
 70
     1
  9
$DIMALTU
 70
     2
  9
$DIMALTTD
 70
     3
  9
$DIMTXSTY
  7
Standard
  9
$DIMAUNIT
 70
     0
  9
$DIMADEC
 70
     1
  9
$DIMALTRND
 40
0.0
  9
$DIMAZIN
 70
     0
  9
$DIMDSEP
 70
    44
  9
$DIMATFIT
 70
     3
  9
$DIMFRAC
 70
     0
  9
$DIMLDRBLK
  1

  9
$DIMLUNIT
 70
     2
  9
$DIMLWD
 70
    -2
  9
$DIMLWE
 70
    -2
  9
$DIMTMOVE
 70
     0
  9
$LUNITS
 70
     2
  9
$LUPREC
 70
     1
  9
$SKETCHINC
 40
1.0
  9
$FILLETRAD
 40
10.0
  9
$AUNITS
 70
     0
  9
$AUPREC
 70
     1
  9
$MENU
  1
.
  9
$ELEVATION
 40
0.0
  9
$PELEVATION
 40
0.0
  9
$THICKNESS
 40
0.0
  9
$LIMCHECK
 70
     0
  9
$CHAMFERA
 40
10.0
  9
$CHAMFERB
 40
10.0
  9
$CHAMFERC
 40
20.0
  9
$CHAMFERD
 40
0.0
  9
$SKPOLY
 70
     0
  9
$TDCREATE
 40
2455929.355999792
  9
$TDUCREATE
 40
2455929.314333125
  9
$TDUPDATE
 40
2455929.355999803
  9
$TDUUPDATE
 40
2455929.314333137
  9
$TDINDWG
 40
0.0000000116
  9
$TDUSRTIMER
 40
0.0000000116
  9
$USRTIMER
 70
     1
  9
$ANGBASE
 50
0.0
  9
$ANGDIR
 70
     0
  9
$PDMODE
 70
     0
  9
$PDSIZE
 40
-1.0
  9
$PLINEWID
 40
0.0
  9
$SPLFRAME
 70
     0
  9
$SPLINETYPE
 70
     6
  9
$SPLINESEGS
 70
     8
  9
$HANDSEED
  5
35F
  9
$SURFTAB1
 70
     6
  9
$SURFTAB2
 70
     6
  9
$SURFTYPE
 70
     6
  9
$SURFU
 70
     6
  9
$SURFV
 70
     6
  9
$UCSBASE
  2

  9
$UCSNAME
  2

  9
$UCSORG
 10
0.0
 20
0.0
 30
0.0
  9
$UCSXDIR
 10
1.0
 20
0.0
 30
0.0
  9
$UCSYDIR
 10
0.0
 20
1.0
 30
0.0
  9
$UCSORTHOREF
  2

  9
$UCSORTHOVIEW
 70
     0
  9
$UCSORGTOP
 10
0.0
 20
0.0
 30
0.0
  9
$UCSORGBOTTOM
 10
0.0
 20
0.0
 30
0.0
  9
$UCSORGLEFT
 10
0.0
 20
0.0
 30
0.0
  9
$UCSORGRIGHT
 10
0.0
 20
0.0
 30
0.0
  9
$UCSORGFRONT
 10
0.0
 20
0.0
 30
0.0
  9
$UCSORGBACK
 10
0.0
 20
0.0
 30
0.0
  9
$PUCSBASE
  2

  9
$PUCSNAME
  2

  9
$PUCSORG
 10
0.0
 20
0.0
 30
0.0
  9
$PUCSXDIR
 10
1.0
 20
0.0
 30
0.0
  9
$PUCSYDIR
 10
0.0
 20
1.0
 30
0.0
  9
$PUCSORTHOREF
  2

  9
$PUCSORTHOVIEW
 70
     0
  9
$PUCSORGTOP
 10
0.0
 20
0.0
 30
0.0
  9
$PUCSORGBOTTOM
 10
0.0
 20
0.0
 30
0.0
  9
$PUCSORGLEFT
 10
0.0
 20
0.0
 30
0.0
  9
$PUCSORGRIGHT
 10
0.0
 20
0.0
 30
0.0
  9
$PUCSORGFRONT
 10
0.0
 20
0.0
 30
0.0
  9
$PUCSORGBACK
 10
0.0
 20
0.0
 30
0.0
  9
$USERI1
 70
     0
  9
$USERI2
 70
     0
  9
$USERI3
 70
     0
  9
$USERI4
 70
     0
  9
$USERI5
 70
     0
  9
$USERR1
 40
0.0
  9
$USERR2
 40
0.0
  9
$USERR3
 40
0.0
  9
$USERR4
 40
0.0
  9
$USERR5
 40
0.0
  9
$WORLDVIEW
 70
     1
  9
$SHADEDGE
 70
     3
  9
$SHADEDIF
 70
    70
  9
$TILEMODE
 70
     1
  9
$MAXACTVP
 70
    64
  9
$PINSBASE
 10
0.0
 20
0.0
 30
0.0
  9
$PLIMCHECK
 70
     0
  9
$PEXTMIN
 10
1.0000000000E+20
 20
1.0000000000E+20
 30
1.0000000000E+20
  9
$PEXTMAX
 10
-1.0000000000E+20
 20
-1.0000000000E+20
 30
-1.0000000000E+20
  9
$PLIMMIN
 10
0.0
 20
0.0
  9
$PLIMMAX
 10
420.0
 20
297.0
  9
$UNITMODE
 70
     0
  9
$VISRETAIN
 70
     1
  9
$PLINEGEN
 70
     0
  9
$PSLTSCALE
 70
     1
  9
$TREEDEPTH
 70
  3020
  9
$CMLSTYLE
  2
Standard
  9
$CMLJUST
 70
     0
  9
$CMLSCALE
 40
20.0
  9
$PROXYGRAPHICS
 70
     1
  9
$MEASUREMENT
 70
     1
  9
$CELWEIGHT
370
    -1
  9
$ENDCAPS
280
     0
  9
$JOINSTYLE
280
     0
  9
$LWDISPLAY
290
     1
  9
$INSUNITS
 70
     4
  9
$HYPERLINKBASE
  1

  9
$STYLESHEET
  1

  9
$XEDIT
290
     1
  9
$CEPSNTYPE
380
     0
  9
$PSTYLEMODE
290
     1
  9
$FINGERPRINTGUID
  2
{14450873-2708-426A-803D-A0176AEC4980}
  9
$VERSIONGUID
  2
{FAEB1C32-E019-11D5-929B-00C0DF256EC4}
  9
$EXTNAMES
290
     1
  9
$PSVPSCALE
 40
0.0
  9
$OLESTARTUP
290
     0
  0
ENDSEC
  0
SECTION
  2
CLASSES
  0
CLASS
  1
ACDBDICTIONARYWDFLT
  2
AcDbDictionaryWithDefault
  3
ObjectDBX Classes
 90
        0
280
     0
281
     0
  0
CLASS
  1
VISUALSTYLE
  2
AcDbVisualStyle
  3
ObjectDBX Classes
 90
     4095
280
     0
281
     0
  0
CLASS
  1
MATERIAL
  2
AcDbMaterial
  3
ObjectDBX Classes
 90
     1153
280
     0
281
     0
  0
CLASS
  1
ACDBPLACEHOLDER
  2
AcDbPlaceHolder
  3
ObjectDBX Classes
 90
        0
280
     0
281
     0
  0
CLASS
  1
LAYOUT
  2
AcDbLayout
  3
ObjectDBX Classes
 90
        0
280
     0
281
     0
  0
ENDSEC
  0
SECTION
  2
TABLES
  0
TABLE
  2
VPORT
  5
8
330
0
100
AcDbSymbolTable
 70
     1
  0
VPORT
  5
29
330
8
100
AcDbSymbolTableRecord
100
AcDbViewportTableRecord
  2
*Active
 70
     0
 10
0.0
 20
0.0
 11
1.0
 21
1.0
 12
400.0
 22
400.0
 13
0.0
 23
0.0
 14
10.0
 24
10.0
 15
10.0
 25
10.0
 16
0.0
 26
0.0
 36
1.0
 17
0.0
 27
0.0
 37
0.0
 40
800.0
 41
1.0
 42
50.0
 43
0.0
 44
0.0
 50
0.0
 51
0.0
 71
     0
 72
  2000
 73
     1
 74
     3
 75
     0
 76
     0
 77
     0
 78
     0
281
     0
 65
     1
110
0.0
120
0.0
130
0.0
111
1.0
121
0.0
131
0.0
112
0.0
122
1.0
132
0.0
 79
     0
146
0.0
  0
ENDTAB
  0
TABLE
  2
LTYPE
  5
5
330
0
100
AcDbSymbolTable
 70
     6
  0
LTYPE
  5
14
330
5
100
AcDbSymbolTableRecord
100
AcDbLinetypeTableRecord
  2
ByBlock
 70
     0
  3

 72
    65
 73
     0
 40
0.0
  0
LTYPE
  5
15
330
5
100
AcDbSymbolTableRecord
100
AcDbLinetypeTableRecord
  2
ByLayer
 70
     0
  3

 72
    65
 73
     0
 40
0.0
  0
LTYPE
  5
16
330
5
100
AcDbSymbolTableRecord
100
AcDbLinetypeTableRecord
  2
Continuous
 70
     0
  3
Solid line
 72
    65
 73
     0
 40
0.0
  0
LTYPE
  5
3F
330
5
100
AcDbSymbolTableRecord
100
AcDbLinetypeTableRecord
  2
HIDDEN
 70
     0
  3
Hidden __ __ __ __ __ __ __ __ __ __ __ __ __ __
 72
    65
 73
     2
 40
1.905
 49
1.27
 74
     0
 49
-0.635
 74
     0
  0
LTYPE
  5
40
330
5
100
AcDbSymbolTableRecord
100
AcDbLinetypeTableRecord
  2
PHANTOM
 70
     0
  3
Phantom ______  __  __  ______  __  __  ______
 72
    65
 73
     6
 40
12.7
 49
6.35
 74
     0
 49
-1.27
 74
     0
 49
1.27
 74
     0
 49
-1.27
 74
     0
 49
1.27
 74
     0
 49
-1.27
 74
     0
  0
LTYPE
  5
41
330
5
100
AcDbSymbolTableRecord
100
AcDbLinetypeTableRecord
  2
CENTER
 70
     0
  3
Center ____ _ ____ _ ____ _ ____ _ ____ _ ____
 72
    65
 73
     4
 40
10.16
 49
6.35
 74
     0
 49
-1.27
 74
     0
 49
1.27
 74
     0
 49
-1.27
 74
     0
  0
LTYPE
  5
42
330
5
100
AcDbSymbolTableRecord
100
AcDbLinetypeTableRecord
  2
CENTERX2
 70
     0
  3
Center (2x) ________  __  ________  __  _____
 72
    65
 73
     4
 40
20.32
 49
12.7
 74
     0
 49
-2.54
 74
     0
 49
2.54
 74
     0
 49
-2.54
 74
     0
  0
LTYPE
  5
43
330
5
100
AcDbSymbolTableRecord
100
AcDbLinetypeTableRecord
  2
DOT2
 70
     0
  3
Dot (.5x) ........................................
 72
    65
 73
     2
 40
0.635
 49
0.0
 74
     0
 49
-0.635
 74
     0
  0
ENDTAB
  0
TABLE
  2
LAYER
  5
2
330
0
100
AcDbSymbolTable
 70
     6
  0
LAYER
  5
10
330
2
100
AcDbSymbolTableRecord
100
AcDbLayerTableRecord
  2
0
 70
     0
 62
     7
  6
Continuous
370
    -3
390
F
  0
LAYER
  5
44
330
2
100
AcDbSymbolTableRecord
100
AcDbLayerTableRecord
  2
1
 70
     0
 62
   179
  6
Continuous
370
    -3
390
F
  0
LAYER
  5
45
330
2
100
AcDbSymbolTableRecord
100
AcDbLayerTableRecord
  2
FORMAT
 70
     0
 62
     7
  6
Continuous
370
    -3
390
F
  0
LAYER
  5
46
330
2
100
AcDbSymbolTableRecord
100
AcDbLayerTableRecord
  2
SLD-0
 70
     0
 62
   179
  6
Continuous
370
    -3
390
F
  0
LAYER
  5
47
330
2
100
AcDbSymbolTableRecord
100
AcDbLayerTableRecord
  2
GESTRICHELT
 70
     0
 62
     7
  6
HIDDEN
370
    -3
390
F
  0
LAYER
  5
48
330
2
100
AcDbSymbolTableRecord
100
AcDbLayerTableRecord
  2
GESTRICHELT_LÄNGER
 70
     0
 62
     7
  6
Continuous
370
    -3
390
F
  0
ENDTAB
  0
TABLE
  2
STYLE
  5
3
330
0
100
AcDbSymbolTable
 70
     1
  0
STYLE
  5
11
330
3
100
AcDbSymbolTableRecord
100
AcDbTextStyleTableRecord
  2
Standard
 70
     0
 40
0.0
 41
1.0
 50
0.0
 71
     0
 42
2.5
  3
txt
  4

  0
ENDTAB
  0
TABLE
  2
VIEW
  5
6
330
0
100
AcDbSymbolTable
 70
     0
  0
ENDTAB
  0
TABLE
  2
UCS
  5
7
330
0
100
AcDbSymbolTable
 70
     0
  0
ENDTAB
  0
TABLE
  2
APPID
  5
9
330
0
100
AcDbSymbolTable
 70
     1
  0
APPID
  5
12
330
9
100
AcDbSymbolTableRecord
100
AcDbRegAppTableRecord
  2
ACAD
 70
     0
  0
ENDTAB
  0
TABLE
  2
DIMSTYLE
  5
A
330
0
100
AcDbSymbolTable
 70
     1
100
AcDbDimStyleTable
  0
DIMSTYLE
105
27
330
A
100
AcDbSymbolTableRecord
100
AcDbDimStyleTableRecord
  2
ISO-25
 70
     0
 41
2.5
 42
0.625
 43
3.75
 44
1.25
 73
     0
 74
     0
 77
     1
 78
     8
140
2.5
141
2.5
143
0.0393700787
147
0.625
171
     3
172
     1
178
     0
271
     2
272
     2
274
     3
278
    44
283
     0
284
     8
340
11
  0
ENDTAB
  0
TABLE
  2
BLOCK_RECORD
  5
1
330
0
100
AcDbSymbolTable
 70
     1
  0
BLOCK_RECORD
  5
1F
330
1
100
AcDbSymbolTableRecord
100
AcDbBlockTableRecord
  2
*Model_Space
340
22
  0
BLOCK_RECORD
  5
1B
330
1
100
AcDbSymbolTableRecord
100
AcDbBlockTableRecord
  2
*Paper_Space
340
1E
  0
BLOCK_RECORD
  5
23
330
1
100
AcDbSymbolTableRecord
100
AcDbBlockTableRecord
  2
*Paper_Space0
340
26
  0
ENDTAB
  0
ENDSEC
  0
SECTION
  2
BLOCKS
  0
BLOCK
  5
20
330
1F
100
AcDbEntity
  8
0
100
AcDbBlockBegin
  2
*Model_Space
 70
     0
 10
0.0
 20
0.0
 30
0.0
  3
*Model_Space
  1

  0
ENDBLK
  5
21
330
1F
100
AcDbEntity
  8
0
100
AcDbBlockEnd
  0
BLOCK
  5
1C
330
1B
100
AcDbEntity
 67
     1
  8
0
100
AcDbBlockBegin
  2
*Paper_Space
 70
     0
 10
0.0
 20
0.0
 30
0.0
  3
*Paper_Space
  1

  0
ENDBLK
  5
1D
330
1B
100
AcDbEntity
 67
     1
  8
0
100
AcDbBlockEnd
  0
BLOCK
  5
24
330
23
100
AcDbEntity
  8
0
100
AcDbBlockBegin
  2
*Paper_Space0
 70
     0
 10
0.0
 20
0.0
 30
0.0
  3
*Paper_Space0
  1

  0
ENDBLK
  5
25
330
23
100
AcDbEntity
  8
0
100
AcDbBlockEnd
  0
ENDSEC
  0
SECTION
  2
ENTITIES
  0
ARC
  5
49
330
1F
100
AcDbEntity
  8
1
100
AcDbCircle
 10
306.931880929
 20
756.2461379473
 30
0.0
 40
43.38951801079339
100
AcDbArc
 50
270.004080998
 51
283.0221928487
  0
ARC
  5
4A
330
1F
100
AcDbEntity
  8
1
100
AcDbCircle
 10
323.2641623902
 20
691.696491947
 30
0.0
 40
23.04389247725987
100
AcDbArc
 50
94.4854646982
 51
102.7655065235
  0
LINE
  5
4B
330
1F
100
AcDbEntity
  8
0
  6
Continuous
 62
     7
370
    15
100
AcDbLine
 10
382.2774479076
 20
491.9603693532
 30
0.0
 11
382.2774479076
 21
517.5677317428
 31
0.0
  0
LINE
  5
4C
330
1F
100
AcDbEntity
  8
0
  6
Continuous
 62
     7
370
    15
100
AcDbLine
 10
374.2774475276
 20
517.5677317428
 30
0.0
 11
374.2774475276
 21
491.9603693532
 31
0.0
  0
ARC
  5
4D
330
1F
100
AcDbEntity
  8
0
  6
Continuous
 62
     7
370
    15
100
AcDbCircle
 10
378.2774477176
 20
517.5677316345
 30
0.0
 40
4.000000000000067
100
AcDbArc
 50
165.0
 51
180.0
  0
ARC
  5
4E
330
1F
100
AcDbEntity
  8
0
  6
Continuous
 62
     7
370
    15
100
AcDbCircle
 10
378.2774477176
 20
517.5677316345
 30
0.0
 40
4.000000000000012
100
AcDbArc
 50
0.0
 51
15.0
  0
LINE
  5
4F
330
1F
100
AcDbEntity
  8
0
  6
Continuous
 62
     7
370
    15
100
AcDbLine
 10
382.1411509443
 20
518.6030048179
 30
0.0
 11
381.9137443233
 21
519.4517004537
 31
0.0
  0
LINE
  5
50
330
1F
100
AcDbEntity
  8
0
  6
Continuous
 62
     7
370
    15
100
AcDbLine
 10
374.6411511119
 20
519.4517004537
 30
0.0
 11
374.4137444909
 21
518.6030048179
 31
0.0
  0
ARC
  5
51
330
1F
100
AcDbEntity
  8
0
  6
Continuous
 62
     7
370
    15
100
AcDbCircle
 10
385.7774477176
 20
520.486977019
 30
0.0
 40
4.000000000000096
100
AcDbArc
 50
180.0
 51
195.0
  0
ARC
  5
52
330
1F
100
AcDbEntity
  8
0
  6
Continuous
 62
     7
370
    15
100
AcDbCircle
 10
370.7774477176
 20
520.486977019
 30
0.0
 40
4.000000000000042
100
AcDbArc
 50
345.0
 51
0.0
  0
LINE
  5
53
330
1F
100
AcDbEntity
  8
0
  6
Continuous
 62
     7
370
    15
100
AcDbLine
 10
381.7774478256
 20
520.4869735288
 30
0.0
 11
381.7774478256
 21
523.4603661345
 31
0.0
  0
LINE
  5
54
330
1F
100
AcDbEntity
  8
0
  6
Continuous
 62
     7
370
    15
100
AcDbLine
 10
374.7774476096
 20
523.4603661345
 30
0.0
 11
374.7774476096
 21
520.4869735288
 31
0.0
  0
LINE
  5
55
330
1F
100
AcDbEntity
  8
0
  6
Continuous
 62
     7
370
    15
100
AcDbLine
 10
381.7774478256
 20
541.4103645133
 30
0.0
 11
380.2274476647
 21
542.9603683995
 31
0.0
  0
LINE
  5
56
330
1F
100
AcDbEntity
  8
0
  6
Continuous
 62
     7
370
    15
100
AcDbLine
 10
376.3274477705
 20
542.9603683995
 30
0.0
 11
374.7774476096
 21
541.4103645133
 31
0.0
  0
LINE
  5
57
330
1F
100
AcDbEntity
  8
0
  6
Continuous
 62
     7
370
    15
100
AcDbLine
 10
381.7774478256
 20
539.4103679108
 30
0.0
 11
381.7774478256
 21
541.4103645133
 31
0.0
  0
LINE
  5
58
330
1F
100
AcDbEntity
  8
0
  6
Continuous
 62
     7
370
    15
100
AcDbLine
 10
374.7774476096
 20
541.4103645133
 30
0.0
 11
374.7774476096
 21
539.4103679108
 31
0.0
  0
LINE
  5
59
330
1F
100
AcDbEntity
  8
0
  6
Continuous
 62
     7
370
    15
100
AcDbLine
 10
381.7774478256
 20
526.4603647636
 30
0.0
 11
381.7774478256
 21
536.3603684353
 31
0.0
  0
LINE
  5
5A
330
1F
100
AcDbEntity
  8
0
  6
Continuous
 62
     7
370
    15
100
AcDbLine
 10
374.7774476096
 20
536.3603684353
 30
0.0
 11
374.7774476096
 21
526.4603647636
 31
0.0
  0
LINE
  5
5B
330
1F
100
AcDbEntity
  8
0
  6
Continuous
 62
     7
370
    15
100
AcDbLine
 10
381.2774477437
 20
523.4603661345
 30
0.0
 11
381.2774477437
 21
526.4603647636
 31
0.0
  0
LINE
  5
5C
330
1F
100
AcDbEntity
  8
0
  6
Continuous
 62
     7
370
    15
100
AcDbLine
 10
375.2774476915
 20
526.4603647636
 30
0.0
 11
375.2774476915
 21
523.4603661345
 31
0.0
  0
LINE
  5
5D
330
1F
100
AcDbEntity
  8
0
  6
Continuous
 62
     7
370
    15
100
AcDbLine
 10
380.2274476647
 20
536.3603684353
 30
0.0
 11
380.2274476647
 21
539.4103679108
 31
0.0
  0
LINE
  5
5E
330
1F
100
AcDbEntity
  8
0
  6
Continuous
 62
     7
370
    15
100
AcDbLine
 10
376.3274477705
 20
539.4103679108
 30
0.0
 11
376.3274477705
 21
536.3603684353
 31
0.0
  0
LINE
  5
5F
330
1F
100
AcDbEntity
  8
0
  6
Continuous
 62
     7
370
    15
100
AcDbLine
 10
393.2574481614
 20
478.9603653597
 30
0.0
 11
393.2574481614
 21
484.9603700684
 31
0.0
  0
LINE
  5
60
330
1F
100
AcDbEntity
  8
0
  6
Continuous
 62
     7
370
    15
100
AcDbLine
 10
363.2974472739
 20
484.9603700684
 30
0.0
 11
363.2974472739
 21
478.9603653597
 31
0.0
  0
LINE
  5
61
330
1F
100
AcDbEntity
  8
0
  6
Continuous
 62
     7
370
    15
100
AcDbLine
 10
475.2774505786
 20
485.9603646444
 30
0.0
 11
462.2774465851
 21
485.9603646444
 31
0.0
  0
LINE
  5
62
330
1F
100
AcDbEntity
  8
0
  6
Continuous
 62
     7
370
    15
100
AcDbLine
 10
462.2774465851
 20
355.9603694128
 30
0.0
 11
475.2774505786
 21
355.9603694128
 31
0.0
  0
LINE
  5
63
330
1F
100
AcDbEntity
  8
0
  6
Continuous
 62
     7
370
    15
100
AcDbLine
 10
443.2774453334
 20
323.9603641676
 30
0.0
 11
443.2774453334
 21
336.9603681611
 31
0.0
  0
LINE
  5
64
330
1F
100
AcDbEntity
  8
0
  6
Continuous
 62
     7
370
    15
100
AcDbLine
 10
313.2774501018
 20
336.9603681611
 30
0.0
 11
313.2774501018
 21
323.9603641676
 31
0.0
  0
LINE
  5
65
330
1F
100
AcDbEntity
  8
0
  6
Continuous
 62
     7
370
    15
100
AcDbLine
 10
281.2774448566
 20
355.9603694128
 30
0.0
 11
294.2774488501
 21
355.9603694128
 31
0.0
  0
LINE
  5
66
330
1F
100
AcDbEntity
  8
0
  6
Continuous
 62
     7
370
    15
100
AcDbLine
 10
294.2774488501
 20
485.9603646444
 30
0.0
 11
281.2774448566
 21
485.9603646444
 31
0.0
  0
ARC
  5
67
330
1F
100
AcDbEntity
  8
0
  6
Continuous
 62
     7
370
    15
100
AcDbCircle
 10
278.2774477176
 20
378.9603670286
 30
0.0
 40
3.000000000000057
100
AcDbArc
 50
0.0
 51
90.0
  0
ARC
  5
68
330
1F
100
AcDbEntity
  8
0
  6
Continuous
 62
     7
370
    15
100
AcDbCircle
 10
278.2774477176
 20
462.9603670286
 30
0.0
 40
3.000000000000057
100
AcDbArc
 50
270.0
 51
0.0
  0
ARC
  5
69
330
1F
100
AcDbEntity
  8
0
  6
Continuous
 62
     7
370
    15
100
AcDbCircle
 10
478.2774477176
 20
462.9603670286
 30
0.0
 40
3.000000000000057
100
AcDbArc
 50
180.0
 51
270.0
  0
ARC
  5
6A
330
1F
100
AcDbEntity
  8
0
  6
Continuous
 62
     7
370
    15
100
AcDbCircle
 10
478.2774477176
 20
378.9603670286
 30
0.0
 40
3.000000000000057
100
AcDbArc
 50
90.0
 51
180.0
  0
SPLINE
  5
6B
330
1F
100
AcDbEntity
  8
0
  6
Continuous
 62
     7
370
    15
100
AcDbSpline
210
0.0
220
0.0
230
1.0
 70
     8
 71
     3
 72
    16
 73
    12
 74
     0
 42
0.00000001
 43
0.00000001
 40
0.0
 40
0.0
 40
0.0
 40
0.0
 40
0.0470705854537664
 40
0.2260778267802861
 40
0.3891531541578432
 40
0.5362949629080956
 40
0.6673297704182124
 40
0.7843433108831079
 40
0.9067451991890404
 40
0.9642867097903265
 40
1.0
 40
1.0
 40
1.0
 40
1.0
 10
446.1634053759016
 20
453.0409838305897
 30
0.0
 10
445.4781775835044
 20
453.2245614450637
 30
0.0
 10
442.1870604524718
 20
454.1062761661724
 30
0.0
 10
436.522027136391
 20
455.6241078317502
 30
0.0
 10
429.3990362946492
 20
457.5280757601149
 30
0.0
 10
422.9773109286438
 20
459.2550024314369
 30
0.0
 10
417.2160743893152
 20
460.767296821813
 30
0.0
 10
411.8492233339508
 20
462.3025940474209
 30
0.0
 10
407.4496686215372
 20
463.1946597422944
 30
0.0
 10
404.2044305298388
 20
463.4440112591024
 30
0.0
 10
402.7988545281307
 20
463.4509248755746
 30
0.0
 10
402.2605686358847
 20
463.4535725461429
 30
0.0
  0
ARC
  5
6C
330
1F
100
AcDbEntity
  8
0
  6
Continuous
 62
     7
370
    15
100
AcDbCircle
 10
457.2774530815
 20
457.6788825186
 30
0.0
 40
4.999993572869853
100
AcDbArc
 50
273.1887672209
 51
359.9904612353
  0
ARC
  5
6D
330
1F
100
AcDbEntity
  8
0
  6
Continuous
 62
     7
370
    15
100
AcDbCircle
 10
299.2774672312
 20
455.4844687326
 30
0.0
 40
5.000023208747668
100
AcDbArc
 50
182.5037499776
 51
231.2645557372
  0
ARC
  5
6E
330
1F
100
AcDbEntity
  8
0
  6
Continuous
 62
     7
370
    15
100
AcDbCircle
 10
353.1975753096
 20
450.9603670286
 30
0.0
 40
12.50000000000031
100
AcDbArc
 50
90.0
 51
105.4605853652
  0
LWPOLYLINE
  5
6F
330
1F
100
AcDbEntity
  8
0
  6
Continuous
 62
     7
370
    15
100
AcDbPolyline
 90
        3
 70
   128
 43
0.0
 10
457.5631587676
 20
452.6870849775
 10
455.6356116108
 20
452.5753486203
 10
452.4961679153
 20
452.3933607387
  0
SPLINE
  5
70
330
1F
100
AcDbEntity
  8
0
  6
Continuous
 62
     7
370
    15
100
AcDbSpline
210
0.0
220
0.0
230
1.0
 70
     8
 71
     3
 72
    16
 73
    12
 74
     0
 42
0.00000001
 43
0.00000001
 40
0.0
 40
0.0
 40
0.0
 40
0.0
 40
0.0861397966178152
 40
0.1747907975862713
 40
0.2206049293008448
 40
0.2690293677428494
 40
0.3796640429337686
 40
0.5136503073217124
 40
0.6706379952686348
 40
0.8466167476626731
 40
1.0
 40
1.0
 40
1.0
 40
1.0
 10
359.2787093393244
 20
468.6053994344658
 30
0.0
 10
359.268683855746
 20
468.257474092347
 30
0.0
 10
359.2483406190578
 20
467.55148045831
 30
0.0
 10
358.9722950641349
 20
466.6618821134054
 30
0.0
 10
358.6435965055401
 20
465.9960507386162
 30
0.0
 10
358.2227698988744
 20
465.3423196386086
 30
0.0
 10
357.6021748073674
 20
464.6604165267315
 30
0.0
 10
356.8957284693272
 20
464.0895386988764
 30
0.0
 10
356.3124015655019
 20
463.7102699354676
 30
0.0
 10
355.9463400123678
 20
463.5058752307952
 30
0.0
 10
355.9269753902884
 20
463.4836106509462
 30
0.0
 10
355.9179573230185
 20
463.4732420789188
 30
0.0
  0
SPLINE
  5
71
330
1F
100
AcDbEntity
  8
0
  6
Continuous
 62
     7
370
    15
100
AcDbSpline
210
0.0
220
0.0
230
1.0
 70
     8
 71
     3
 72
    13
 73
     9
 74
     0
 42
0.00000001
 43
0.00000001
 40
0.0
 40
0.0
 40
0.0
 40
0.0
 40
0.2390891371363218
 40
0.368124445657416
 40
0.4999997168662305
 40
0.6318755659981768
 40
0.7609108579862734
 40
1.0
 40
1.0
 40
1.0
 40
1.0
 10
402.2608536205925
 20
463.4604308055824
 30
0.0
 10
401.6224302848796
 20
463.5310203764391
 30
0.0
 10
400.6394528089097
 20
463.6397068142757
 30
0.0
 10
399.4621262657662
 20
464.2861311893586
 30
0.0
 10
398.6555100082516
 20
464.9545955361621
 30
0.0
 10
398.0129044036543
 20
465.7819605816924
 30
0.0
 10
397.4040621406683
 20
466.9791562694548
 30
0.0
 10
397.3265370350659
 20
467.9650807039006
 30
0.0
 10
397.2761860958971
 20
468.6054180609173
 30
0.0
  0
ARC
  5
72
330
1F
100
AcDbEntity
  8
0
  6
Continuous
 62
     7
370
    15
100
AcDbCircle
 10
362.2774477176
 20
468.6924178362
 30
0.0
 40
3.0
100
AcDbArc
 50
180.0
 51
181.6642887708
  0
ARC
  5
73
330
1F
100
AcDbEntity
  8
0
  6
Continuous
 62
     7
370
    15
100
AcDbCircle
 10
394.2774477176
 20
468.6924178362
 30
0.0
 40
3.0
100
AcDbArc
 50
358.3222758939
 51
0.0
  0
LINE
  5
74
330
1F
100
AcDbEntity
  8
0
  6
Continuous
 62
     7
370
    15
100
AcDbLine
 10
359.2774483286
 20
478.9603653597
 30
0.0
 11
359.2774483286
 21
468.6924184905
 31
0.0
  0
LINE
  5
75
330
1F
100
AcDbEntity
  8
0
  6
Continuous
 62
     7
370
    15
100
AcDbLine
 10
397.2774471067
 20
468.6924184905
 30
0.0
 11
397.2774471067
 21
478.9603653597
 31
0.0
  0
LINE
  5
76
330
1F
100
AcDbEntity
  8
0
  6
Continuous
 62
     7
370
    15
100
AcDbLine
 10
381.7774478256
 20
523.4603661345
 30
0.0
 11
374.7774476096
 21
523.4603661345
 31
0.0
  0
LINE
  5
77
330
1F
100
AcDbEntity
  8
0
  6
Continuous
 62
     7
370
    15
100
AcDbLine
 10
380.2274476647
 20
542.9603683995
 30
0.0
 11
376.3274477705
 21
542.9603683995
 31
0.0
  0
LINE
  5
78
330
1F
100
AcDbEntity
  8
0
  6
Continuous
 62
     7
370
    15
100
AcDbLine
 10
381.7774478256
 20
541.4103645133
 30
0.0
 11
374.7774476096
 21
541.4103645133
 31
0.0
  0
LINE
  5
79
330
1F
100
AcDbEntity
  8
0
  6
Continuous
 62
     7
370
    15
100
AcDbLine
 10
381.7774478256
 20
539.4103679108
 30
0.0
 11
374.7774476096
 21
539.4103679108
 31
0.0
  0
LINE
  5
7A
330
1F
100
AcDbEntity
  8
0
  6
Continuous
 62
     7
370
    15
100
AcDbLine
 10
381.7774478256
 20
526.4603647636
 30
0.0
 11
374.7774476096
 21
526.4603647636
 31
0.0
  0
LINE
  5
7B
330
1F
100
AcDbEntity
  8
0
  6
Continuous
 62
     7
370
    15
100
AcDbLine
 10
381.7774478256
 20
536.3603684353
 30
0.0
 11
374.7774476096
 21
536.3603684353
 31
0.0
  0
LINE
  5
7C
330
1F
100
AcDbEntity
  8
0
  6
Continuous
 62
     7
370
    15
100
AcDbLine
 10
366.2774476133
 20
484.9603700684
 30
0.0
 11
363.2974472739
 21
484.9603700684
 31
0.0
  0
LINE
  5
7D
330
1F
100
AcDbEntity
  8
0
  6
Continuous
 62
     7
370
    15
100
AcDbLine
 10
366.2774476133
 20
484.9603700684
 30
0.0
 11
366.2774476133
 21
491.9603693532
 31
0.0
  0
LINE
  5
7E
330
1F
100
AcDbEntity
  8
0
  6
Continuous
 62
     7
370
    15
100
AcDbLine
 10
390.2774478219
 20
491.9603693532
 30
0.0
 11
366.2774476133
 21
491.9603693532
 31
0.0
  0
LINE
  5
7F
330
1F
100
AcDbEntity
  8
0
  6
Continuous
 62
     7
370
    15
100
AcDbLine
 10
390.2774478219
 20
491.9603693532
 30
0.0
 11
390.2774478219
 21
484.9603700684
 31
0.0
  0
LINE
  5
80
330
1F
100
AcDbEntity
  8
0
  6
Continuous
 62
     7
370
    15
100
AcDbLine
 10
390.2774478219
 20
484.9603700684
 30
0.0
 11
393.2574481614
 21
484.9603700684
 31
0.0
  0
LINE
  5
81
330
1F
100
AcDbEntity
  8
0
  6
Continuous
 62
     7
370
    15
100
AcDbLine
 10
462.2774465851
 20
355.960384314
 30
0.0
 11
462.2774465851
 21
356.1163249659
 31
0.0
  0
LINE
  5
82
330
1F
100
AcDbEntity
  8
0
  6
Continuous
 62
     7
370
    15
100
AcDbLine
 10
462.2774465851
 20
356.1163249659
 30
0.0
 11
462.2774465851
 21
485.9603646444
 31
0.0
  0
LINE
  5
83
330
1F
100
AcDbEntity
  8
0
  6
Continuous
 62
     7
370
    15
100
AcDbLine
 10
475.2774505786
 20
420.9603670286
 30
0.0
 11
475.2774505786
 21
485.9603646444
 31
0.0
  0
LINE
  5
84
330
1F
100
AcDbEntity
  8
0
  6
Continuous
 62
     7
370
    15
100
AcDbLine
 10
475.2774505786
 20
355.9603694128
 30
0.0
 11
475.2774505786
 21
420.9603670286
 31
0.0
  0
LINE
  5
85
330
1F
100
AcDbEntity
  8
0
  6
Continuous
 62
     7
370
    15
100
AcDbLine
 10
313.4334056549
 20
336.9603681611
 30
0.0
 11
313.277465003
 21
336.9603681611
 31
0.0
  0
LINE
  5
86
330
1F
100
AcDbEntity
  8
0
  6
Continuous
 62
     7
370
    15
100
AcDbLine
 10
443.2774304323
 20
336.9603681611
 30
0.0
 11
443.1214897804
 21
336.9603681611
 31
0.0
  0
LINE
  5
87
330
1F
100
AcDbEntity
  8
0
  6
Continuous
 62
     7
370
    15
100
AcDbLine
 10
443.2774304323
 20
336.9603681611
 30
0.0
 11
443.2774453334
 21
336.9603681611
 31
0.0
  0
LINE
  5
88
330
1F
100
AcDbEntity
  8
0
  6
Continuous
 62
     7
370
    15
100
AcDbLine
 10
443.2774453334
 20
323.9603641676
 30
0.0
 11
313.2774501018
 21
323.9603641676
 31
0.0
  0
LINE
  5
89
330
1F
100
AcDbEntity
  8
0
  6
Continuous
 62
     7
370
    15
100
AcDbLine
 10
443.1214897804
 20
336.9603681611
 30
0.0
 11
313.4334056549
 21
336.9603681611
 31
0.0
  0
LINE
  5
8A
330
1F
100
AcDbEntity
  8
0
  6
Continuous
 62
     7
370
    15
100
AcDbLine
 10
294.2774488501
 20
356.1163249659
 30
0.0
 11
294.2774488501
 21
485.9603646444
 31
0.0
  0
LINE
  5
8B
330
1F
100
AcDbEntity
  8
0
  6
Continuous
 62
     7
370
    15
100
AcDbLine
 10
294.2774488501
 20
355.960384314
 30
0.0
 11
294.2774488501
 21
356.1163249659
 31
0.0
  0
LINE
  5
8C
330
1F
100
AcDbEntity
  8
0
  6
Continuous
 62
     7
370
    15
100
AcDbLine
 10
294.2774488501
 20
355.960384314
 30
0.0
 11
294.2774488501
 21
355.9603694128
 31
0.0
  0
LINE
  5
8D
330
1F
100
AcDbEntity
  8
0
  6
Continuous
 62
     7
370
    15
100
AcDbLine
 10
281.2774448566
 20
420.9603670286
 30
0.0
 11
281.2774448566
 21
485.9603646444
 31
0.0
  0
LINE
  5
8E
330
1F
100
AcDbEntity
  8
0
  6
Continuous
 62
     7
370
    15
100
AcDbLine
 10
281.2774448566
 20
355.9603694128
 30
0.0
 11
281.2774448566
 21
420.9603670286
 31
0.0
  0
LINE
  5
8F
330
1F
100
AcDbEntity
  8
0
  6
Continuous
 62
     7
370
    15
100
AcDbLine
 10
278.2774462275
 20
420.9603670286
 30
0.0
 11
278.2774462275
 21
459.9603678333
 31
0.0
  0
LINE
  5
90
330
1F
100
AcDbEntity
  8
0
  6
Continuous
 62
     7
370
    15
100
AcDbLine
 10
278.2774462275
 20
381.9603662239
 30
0.0
 11
278.2774462275
 21
420.9603670286
 31
0.0
  0
LINE
  5
91
330
1F
100
AcDbEntity
  8
0
  6
Continuous
 62
     7
370
    15
100
AcDbLine
 10
478.2774492077
 20
420.9603670286
 30
0.0
 11
478.2774492077
 21
459.9603678333
 31
0.0
  0
LINE
  5
92
330
1F
100
AcDbEntity
  8
0
  6
Continuous
 62
     7
370
    15
100
AcDbLine
 10
478.2774492077
 20
381.9603662239
 30
0.0
 11
478.2774492077
 21
420.9603670286
 31
0.0
  0
SPLINE
  5
93
330
1F
100
AcDbEntity
  8
0
  6
Continuous
 62
     7
370
    15
100
AcDbSpline
210
0.0
220
0.0
230
1.0
 70
     8
 71
     3
 72
    14
 73
    10
 74
     0
 42
0.00000001
 43
0.00000001
 40
0.0
 40
0.0
 40
0.0
 40
0.0
 40
0.0050000000503129
 40
0.0050000000503129
 40
0.0050000000503129
 40
0.0249999999879484
 40
0.0249999999879484
 40
0.0249999999879484
 40
0.0310514090457456
 40
0.0310514090457456
 40
0.0310514090457456
 40
0.0310514090457456
 10
310.4446516684836
 20
389.4169031173678
 30
0.0
 10
312.0595039097828
 20
389.0046749632615
 30
0.0
 10
313.6743037146173
 20
388.5922456354023
 30
0.0
 10
315.2890727079316
 20
388.1796984445958
 30
0.0
 10
321.7481486292421
 20
386.5295096946412
 30
0.0
 10
328.2067567891628
 20
384.8775292465398
 30
0.0
 10
334.6661371853736
 20
383.228520448989
 30
0.0
 10
336.6205548721567
 20
382.7295791013817
 30
0.0
 10
338.5750488283366
 20
382.2309315277322
 30
0.0
 10
340.529621343259
 20
381.7325870765513
 30
0.0
  0
SPLINE
  5
94
330
1F
100
AcDbEntity
  8
0
  6
Continuous
 62
     7
370
    15
100
AcDbSpline
210
0.0
220
0.0
230
1.0
 70
     8
 71
     3
 72
     8
 73
     4
 74
     0
 42
0.00000001
 43
0.00000001
 40
0.0
 40
0.0
 40
0.0
 40
0.0
 40
1.0
 40
1.0
 40
1.0
 40
1.0
 10
332.2204404799973
 20
432.0928347091441
 30
0.0
 10
324.5748912257523
 20
435.4582277698206
 30
0.0
 10
316.9283662056813
 20
438.8213715356666
 30
0.0
 10
309.2888335416754
 20
442.2004587748054
 30
0.0
  0
SPLINE
  5
95
330
1F
100
AcDbEntity
  8
0
  6
Continuous
 62
     7
370
    15
100
AcDbSpline
210
0.0
220
0.0
230
1.0
 70
     8
 71
     3
 72
     8
 73
     4
 74
     0
 42
0.00000001
 43
0.00000001
 40
0.0
 40
0.0
 40
0.0
 40
0.0
 40
1.0
 40
1.0
 40
1.0
 40
1.0
 10
424.3351021088017
 20
409.8272156576293
 30
0.0
 10
431.982407329265
 20
406.4599234164879
 30
0.0
 10
439.6307741998533
 20
403.0950747914959
 30
0.0
 10
447.2719279978459
 20
399.7137902042779
 30
0.0
  0
SPLINE
  5
96
330
1F
100
AcDbEntity
  8
0
  6
Continuous
 62
     7
370
    15
100
AcDbSpline
210
0.0
220
0.0
230
1.0
 70
     8
 71
     3
 72
    19
 73
    15
 74
     0
 42
0.00000001
 43
0.00000001
 40
0.0
 40
0.0
 40
0.0
 40
0.0
 40
0.0435756906675551
 40
0.092489825818217
 40
0.1467600211726627
 40
0.2068596888252821
 40
0.2749947154462337
 40
0.4051189599787962
 40
0.5250872880671662
 40
0.6204605391389052
 40
0.7156779902057419
 40
0.8107007839507591
 40
0.9054887409423523
 40
1.0
 40
1.0
 40
1.0
 40
1.0
 10
384.7224188875603
 20
461.7633254317286
 30
0.0
 10
384.6338878541292
 20
461.7497773067124
 30
0.0
 10
384.4459798775461
 20
461.7210212800442
 30
0.0
 10
384.1446661628639
 20
461.6781864640677
 30
0.0
 10
383.8077461171628
 20
461.6318606049557
 30
0.0
 10
383.4292549339644
 20
461.5815326113528
 30
0.0
 10
382.8880920007911
 20
461.5159781832705
 30
0.0
 10
382.2118087936827
 20
461.4442451696418
 30
0.0
 10
381.4676261946821
 20
461.3770171756245
 30
0.0
 10
380.7911394650058
 20
461.3292053344098
 30
0.0
 10
380.1646415056404
 20
461.2942543029608
 30
0.0
 10
379.5360228748279
 20
461.2694066851732
 30
0.0
 10
378.9067319950932
 20
461.2537854786932
 30
0.0
 10
378.487004638819
 20
461.2518482589422
 30
0.0
 10
378.2774477176108
 20
461.25088106488
 30
0.0
  0
SPLINE
  5
97
330
1F
100
AcDbEntity
  8
0
  6
Continuous
 62
     7
370
    15
100
AcDbSpline
210
0.0
220
0.0
230
1.0
 70
     8
 71
     3
 72
    23
 73
    19
 74
     0
 42
0.00000001
 43
0.00000001
 40
0.0
 40
0.0
 40
0.0
 40
0.0
 40
0.0587458848175749
 40
0.1176561612693714
 40
0.176813187678736
 40
0.2362959421714206
 40
0.2961800853382047
 40
0.3565380379906544
 40
0.4174390719914082
 40
0.4789494119565272
 40
0.5411323455420175
 40
0.6040483400228156
 40
0.6677551629553322
 40
0.7323080048548882
 40
0.7977596020101696
 40
0.864160357779759
 40
0.9315584609527336
 40
1.0
 40
1.0
 40
1.0
 40
1.0
 10
388.4947303745365
 20
462.6857069110358
 30
0.0
 10
388.4370962922479
 20
462.6656580509446
 30
0.0
 10
388.3216668472506
 20
462.6255042270048
 30
0.0
 10
388.1383065073068
 20
462.5643500622108
 30
0.0
 10
387.947319482474
 20
462.5028085372918
 30
0.0
 10
387.7479857244397
 20
462.4410514890483
 30
0.0
 10
387.5405175416423
 20
462.3793465041998
 30
0.0
 10
387.3248739849384
 20
462.3179194500992
 30
0.0
 10
387.1010810324922
 20
462.2569926752333
 30
0.0
 10
386.8691449699123
 20
462.1967756278328
 30
0.0
 10
386.6290760477635
 20
462.1374680419834
 30
0.0
 10
386.3808815626304
 20
462.0792601707964
 30
0.0
 10
386.1245698315039
 20
462.0223314451476
 30
0.0
 10
385.8601413551967
 20
461.9668580095684
 30
0.0
 10
385.5876209583936
 20
461.9129851507682
 30
0.0
 10
385.3069359119741
 20
461.8609333842287
 30
0.0
 10
385.0183808375609
 20
461.8105944274305
 30
0.0
 10
384.8215767797939
 20
461.7791622444736
 30
0.0
 10
384.7224188875604
 20
461.7633254317286
 30
0.0
  0
SPLINE
  5
98
330
1F
100
AcDbEntity
  8
0
  6
Continuous
 62
     7
370
    15
100
AcDbSpline
210
0.0
220
0.0
230
1.0
 70
     8
 71
     3
 72
    47
 73
    43
 74
     0
 42
0.00000001
 43
0.00000001
 40
0.0
 40
0.0
 40
0.0
 40
0.0
 40
0.0252108797373848
 40
0.050917200789416
 40
0.0771291159045324
 40
0.1038567858868163
 40
0.1311104335522717
 40
0.1589041919683124
 40
0.1872268250846407
 40
0.2160866727480046
 40
0.2454973709380582
 40
0.3613774775024193
 40
0.4940389149494887
 40
0.5433950374000669
 40
0.6191070391397607
 40
0.6902387633762771
 40
0.7438905890277394
 40
0.7597663930854178
 40
0.7749549377533529
 40
0.7788495319035458
 40
0.7827092772671861
 40
0.7834564477476489
 40
0.7842187663516129
 40
0.7844492701310672
 40
0.7846973144975529
 40
0.7849654055596075
 40
0.7854204739832137
 40
0.7858971649843759
 40
0.7863803072967007
 40
0.7874813846297831
 40
0.7898112906573289
 40
0.7966025120322701
 40
0.8035224180336852
 40
0.8210975682892446
 40
0.8395180872671174
 40
0.8587940726888894
 40
0.8847649168444071
 40
0.9146812577238248
 40
0.9324900678722446
 40
0.9473375975651775
 40
0.9734758669586243
 40
1.0
 40
1.0
 40
1.0
 40
1.0
 10
400.6254136862756
 20
463.3887703007358
 30
0.0
 10
400.5523668027431
 20
463.3858503565013
 30
0.0
 10
400.4048375267076
 20
463.3799530856234
 30
0.0
 10
400.1693371934172
 20
463.3707456726477
 30
0.0
 10
399.9208313956296
 20
463.3612284064829
 30
0.0
 10
399.65839641678
 20
463.3514304357561
 30
0.0
 10
399.3822043895902
 20
463.3414203481094
 30
0.0
 10
399.0924128087988
 20
463.3312559403209
 30
0.0
 10
398.7886826278889
 20
463.3209957167089
 30
0.0
 10
398.4710916047278
 20
463.310732334066
 30
0.0
 10
397.8170043513421
 20
463.2906368821296
 30
0.0
 10
396.7150455758296
 20
463.2614480210823
 30
0.0
 10
395.4711687106301
 20
463.2386659693382
 30
0.0
 10
394.3680291588117
 20
463.2260196006279
 30
0.0
 10
393.525768001225
 20
463.2198084200278
 30
0.0
 10
392.6721488029748
 20
463.2173551667287
 30
0.0
 10
392.0839901124556
 20
463.2176520349877
 30
0.0
 10
391.736677210684
 20
463.218326343779
 30
0.0
 10
391.594985568388
 20
463.2186766123115
 30
0.0
 10
391.502335129993
 20
463.218950844522
 30
0.0
 10
391.4685265656821
 20
463.2190355541122
 30
0.0
 10
391.446595126741
 20
463.2191213956505
 30
0.0
 10
391.4395381062218
 20
463.2191467942957
 30
0.0
 10
391.4338531379394
 20
463.2191981438209
 30
0.0
 10
391.4300102604657
 20
463.2192516435664
 30
0.0
 10
391.4236793401291
 20
463.2193957723026
 30
0.0
 10
391.4208426762684
 20
463.2193075679585
 30
0.0
 10
391.4150257587867
 20
463.2193242649313
 30
0.0
 10
391.4061803047242
 20
463.2193572233054
 30
0.0
 10
391.387808966887
 20
463.2194789498499
 30
0.0
 10
391.3408620263923
 20
463.2196030391999
 30
0.0
 10
391.266489985199
 20
463.2192560115446
 30
0.0
 10
391.1222487119406
 20
463.216832027509
 30
0.0
 10
390.9247166689159
 20
463.209303183709
 30
0.0
 10
390.6714288183701
 20
463.1915722870286
 30
0.0
 10
390.3807878513715
 20
463.1614076344969
 30
0.0
 10
390.0393256057695
 20
463.1119049746308
 30
0.0
 10
389.7061385352662
 20
463.0464433672653
 30
0.0
 10
389.4245148210782
 20
462.9785754696234
 30
0.0
 10
389.1639259575175
 20
462.9059331293819
 30
0.0
 10
388.8628464991624
 20
462.8124083899539
 30
0.0
 10
388.6180336735828
 20
462.7281465361964
 30
0.0
 10
388.4947303745367
 20
462.685706911036
 30
0.0
  0
ARC
  5
99
330
1F
100
AcDbEntity
  8
0
  6
Continuous
 62
     7
370
    15
100
AcDbCircle
 10
378.2774477176
 20
440.9603670286
 30
0.0
 40
39.27262363067219
100
AcDbArc
 50
158.1292107902
 51
185.5937254593
  0
ARC
  5
9A
330
1F
100
AcDbEntity
  8
0
  6
Continuous
 62
     7
370
    15
100
AcDbCircle
 10
378.2774477176
 20
400.9603670286
 30
0.0
 40
39.2726236306769
100
AcDbArc
 50
340.4114543577
 51
5.5931503462
  0
SPLINE
  5
9B
330
1F
100
AcDbEntity
  8
0
  6
Continuous
 62
     7
370
    15
100
AcDbSpline
210
0.0
220
0.0
230
1.0
 70
     8
 71
     3
 72
    16
 73
    12
 74
     0
 42
0.00000001
 43
0.00000001
 40
0.0
 40
0.0
 40
0.0
 40
0.0
 40
0.2499999999999974
 40
0.2499999999999974
 40
0.4999999999999949
 40
0.4999999999999949
 40
0.6249999999999956
 40
0.6249999999999956
 40
0.7499999999999963
 40
0.7499999999999963
 40
1.0
 40
1.0
 40
1.0
 40
1.0
 10
460.229956032327
 20
390.7499751358337
 30
0.0
 10
460.5487057047775
 20
390.5168611047837
 30
0.0
 10
460.8337677393893
 20
390.2512153859356
 30
0.0
 10
461.3390373855584
 20
389.6572741071965
 30
0.0
 10
461.5596972628578
 20
389.3256838193393
 30
0.0
 10
461.8240131871614
 20
388.8051121089961
 30
0.0
 10
461.9018171609919
 20
388.6268517777799
 30
0.0
 10
462.0366828760611
 20
388.2607925489476
 30
0.0
 10
462.0939778049361
 20
388.0719371097878
 30
0.0
 10
462.231414921935
 20
387.4984600519323
 30
0.0
 10
462.2774477176108
 20
387.1101022852264
 30
0.0
 10
462.2774477176108
 20
386.7156455131025
 30
0.0
  0
SPLINE
  5
9C
330
1F
100
AcDbEntity
  8
0
  6
Continuous
 62
     7
370
    15
100
AcDbSpline
210
0.0
220
0.0
230
1.0
 70
     8
 71
     3
 72
    22
 73
    18
 74
     0
 42
0.00000001
 43
0.00000001
 40
0.0
 40
0.0
 40
0.0
 40
0.0
 40
0.125
 40
0.125
 40
0.25
 40
0.25
 40
0.375
 40
0.375
 40
0.5
 40
0.5
 40
0.625
 40
0.625
 40
0.75
 40
0.75
 40
0.875
 40
0.875
 40
1.0
 40
1.0
 40
1.0
 40
1.0
 10
294.2774477176107
 20
384.6035108601155
 30
0.0
 10
294.2774477176105
 20
384.9174862969759
 30
0.0
 10
294.3067566708699
 20
385.22644348476
 30
0.0
 10
294.4215446167818
 20
385.8347408949745
 30
0.0
 10
294.508047865517
 20
386.1365499950618
 30
0.0
 10
294.7359766048692
 20
386.7182125596204
 30
0.0
 10
294.8755330479718
 20
386.9947906349225
 30
0.0
 10
295.2046588125484
 20
387.5200987398081
 30
0.0
 10
295.3966972266982
 20
387.771169322031
 30
0.0
 10
295.8196862198186
 20
388.2279681714263
 30
0.0
 10
296.0503612634151
 20
388.4346487874386
 30
0.0
 10
296.5499129086178
 20
388.8047621060021
 30
0.0
 10
296.8209647591734
 20
388.9686671835203
 30
0.0
 10
297.3802946620692
 20
389.2390323756755
 30
0.0
 10
297.6707375843962
 20
389.3475566447424
 30
0.0
 10
298.2735057088606
 20
389.5104880287348
 30
0.0
 10
298.585038347772
 20
389.5641502678286
 30
0.0
 10
298.8986696103549
 20
389.5879653422482
 30
0.0
  0
SPLINE
  5
9D
330
1F
100
AcDbEntity
  8
0
  6
Continuous
 62
     7
370
    15
100
AcDbSpline
210
0.0
220
0.0
230
1.0
 70
     8
 71
     3
 72
     8
 73
     4
 74
     0
 42
0.00000001
 43
0.00000001
 40
0.0
 40
0.0
 40
0.0
 40
0.0
 40
1.0
 40
1.0
 40
1.0
 40
1.0
 10
414.2697830800079
 20
385.6431236728947
 30
0.0
 10
414.6742910333231
 20
386.3277847401931
 30
0.0
 10
415.0101379008199
 20
387.0446167429549
 30
0.0
 10
415.277148469449
 20
387.7937003619456
 30
0.0
  0
LINE
  5
9E
330
1F
100
AcDbEntity
  8
0
  6
Continuous
 62
     7
370
    15
100
AcDbLine
 10
353.1975752584
 20
463.4603674756
 30
0.0
 11
363.9810631893
 21
463.4603674756
 31
0.0
  0
SPLINE
  5
9F
330
1F
100
AcDbEntity
  8
0
  6
Continuous
 62
     7
370
    15
100
AcDbSpline
210
0.0
220
0.0
230
1.0
 70
     8
 71
     3
 72
    21
 73
    17
 74
     0
 42
0.00000001
 43
0.00000001
 40
0.0
 40
0.0
 40
0.0
 40
0.0
 40
0.0544720645989302
 40
0.1022518273974796
 40
0.1434360096713298
 40
0.1781090134069219
 40
0.2063425956453173
 40
0.2281956332400959
 40
0.2437139602137159
 40
0.2529302719659546
 40
0.3840490988188672
 40
0.5016600186054283
 40
0.6326834519546503
 40
0.7593055044140355
 40
0.881686156947207
 40
1.0
 40
1.0
 40
1.0
 40
1.0
 10
368.353345097308
 20
462.5689102132866
 30
0.0
 10
368.2585669589524
 20
462.6012791631731
 30
0.0
 10
368.0806548875898
 20
462.6620402946117
 30
0.0
 10
367.8384900028332
 20
462.7422043822443
 30
0.0
 10
367.6338185029321
 20
462.8084963446877
 30
0.0
 10
367.4647771303398
 20
462.862024409005
 30
0.0
 10
367.329289574618
 20
462.9040853718484
 30
0.0
 10
367.2257144131444
 20
462.9356636182385
 30
0.0
 10
367.1528624260285
 20
462.9575701112415
 30
0.0
 10
366.9096809836013
 20
463.0294243660251
 30
0.0
 10
366.5155932485926
 20
463.1359721434817
 30
0.0
 10
365.9625488092838
 20
463.2619716611356
 30
0.0
 10
365.4348945184332
 20
463.3554208188061
 30
0.0
 10
364.9196659809461
 20
463.4187129145694
 30
0.0
 10
364.4367843152116
 20
463.4544045743837
 30
0.0
 10
364.1312497367045
 20
463.4584020578922
 30
0.0
 10
363.9810636259641
 20
463.4603670286129
 30
0.0
  0
SPLINE
  5
A0
330
1F
100
AcDbEntity
  8
0
  6
Continuous
 62
     7
370
    15
100
AcDbSpline
210
0.0
220
0.0
230
1.0
 70
     8
 71
     3
 72
    21
 73
    17
 74
     0
 42
0.00000001
 43
0.00000001
 40
0.0
 40
0.0
 40
0.0
 40
0.0
 40
0.0752532435416601
 40
0.1498037871358695
 40
0.2236766421563599
 40
0.2968981219939042
 40
0.3694958462179982
 40
0.4414987402003552
 40
0.5129370296378418
 40
0.5838422294209372
 40
0.6542471263155323
 40
0.7241857549620001
 40
0.7936933667472422
 40
0.8628063911737218
 40
0.9315623894340039
 40
1.0
 40
1.0
 40
1.0
 40
1.0
 10
371.7302307152851
 20
461.7677929342413
 30
0.0
 10
371.6322748260861
 20
461.7834613151375
 30
0.0
 10
371.4372777404634
 20
461.8146517686792
 30
0.0
 10
371.1520482964319
 20
461.8644006033691
 30
0.0
 10
370.8741104941867
 20
461.9158974142836
 30
0.0
 10
370.6039867769811
 20
461.9692471812916
 30
0.0
 10
370.3416924137773
 20
462.024255935841
 30
0.0
 10
370.0873717607522
 20
462.080799201105
 30
0.0
 10
369.8411295811177
 20
462.1387244205856
 30
0.0
 10
369.6030772294541
 20
462.1978766480631
 30
0.0
 10
369.3733143718998
 20
462.2580914823615
 30
0.0
 10
369.1519557927808
 20
462.3191972387439
 30
0.0
 10
368.9390425623434
 20
462.3810126015063
 30
0.0
 10
368.7348671665647
 20
462.4433531714914
 30
0.0
 10
368.5387702473911
 20
462.5060072102204
 30
0.0
 10
368.4150577800808
 20
462.547975010743
 30
0.0
 10
368.353345097308
 20
462.5689102132866
 30
0.0
  0
SPLINE
  5
A1
330
1F
100
AcDbEntity
  8
0
  6
Continuous
 62
     7
370
    15
100
AcDbSpline
210
0.0
220
0.0
230
1.0
 70
     8
 71
     3
 72
    25
 73
    21
 74
     0
 42
0.00000001
 43
0.00000001
 40
0.0
 40
0.0
 40
0.0
 40
0.0
 40
0.0545347584535583
 40
0.1091622832546059
 40
0.1638881927776259
 40
0.2187179866546666
 40
0.2736570403654869
 40
0.3287106000757456
 40
0.3838837777746758
 40
0.4391815467630391
 40
0.4946087375414699
 40
0.5501700341480724
 40
0.6058699709932968
 40
0.6617129302388078
 40
0.7177031397659537
 40
0.7738446717778193
 40
0.8301414420777758
 40
0.8865972100655836
 40
0.9432155794906143
 40
1.0
 40
1.0
 40
1.0
 40
1.0
 10
378.2774477176109
 20
461.2507511578985
 30
0.0
 10
378.1538037183907
 20
461.2510774720464
 30
0.0
 10
377.9063053953332
 20
461.2517306554189
 30
0.0
 10
377.5349882763184
 20
461.2570004163163
 30
0.0
 10
377.1635195234638
 20
461.2653973455082
 30
0.0
 10
376.7921211269852
 20
461.2772135990614
 30
0.0
 10
376.4210166539448
 20
461.2923412643448
 30
0.0
 10
376.0504314688047
 20
461.3107709080608
 30
0.0
 10
375.6805929069222
 20
461.3324575531601
 30
0.0
 10
375.3117304564318
 20
461.3573566227163
 30
0.0
 10
374.9440759053425
 20
461.3854141830941
 30
0.0
 10
374.5778635611711
 20
461.4165694913042
 30
0.0
 10
374.2133301454519
 20
461.4507540968355
 30
0.0
 10
373.8507158411408
 20
461.4878923279327
 30
0.0
 10
373.4902609482768
 20
461.5278996338383
 30
0.0
 10
373.1322189135632
 20
461.5706880899176
 30
0.0
 10
372.7768079138883
 20
461.6161452476221
 30
0.0
 10
372.4243926135811
 20
461.6642127816443
 30
0.0
 10
372.0748031508531
 20
461.7145910945884
 30
0.0
 10
371.8452002598602
 20
461.7500416847388
 30
0.0
 10
371.7302307152851
 20
461.7677929342412
 30
0.0
  0
SPLINE
  5
A2
330
1F
100
AcDbEntity
  8
0
  6
Continuous
 62
     7
370
    15
100
AcDbSpline
210
0.0
220
0.0
230
1.0
 70
     8
 71
     3
 72
    20
 73
    16
 74
     0
 42
0.00000001
 43
0.00000001
 40
0.0
 40
0.0
 40
0.0
 40
0.0
 40
0.1250000000000002
 40
0.1250000000000002
 40
0.2500000000000004
 40
0.2500000000000004
 40
0.3750000000000006
 40
0.3750000000000006
 40
0.5000000000000008
 40
0.5000000000000008
 40
0.7500000000000011
 40
0.7500000000000011
 40
0.8750000000000006
 40
0.8750000000000006
 40
1.0
 40
1.0
 40
1.0
 40
1.0
 10
350.2956052201611
 20
463.0316398957132
 30
0.0
 10
349.8211916736944
 20
462.9061534793724
 30
0.0
 10
349.3545821869526
 20
462.7533859197489
 30
0.0
 10
348.449999898445
 20
462.3989386118582
 30
0.0
 10
348.0102444592346
 20
462.1968502196125
 30
0.0
 10
347.1556403060787
 20
461.7432837176467
 30
0.0
 10
346.740789171837
 20
461.4918103572961
 30
0.0
 10
345.9368030627485
 20
460.9378803357212
 30
0.0
 10
345.5483484076445
 20
460.6353011939925
 30
0.0
 10
344.4526175411127
 20
459.6744788809382
 30
0.0
 10
343.803062646657
 20
458.9567868443611
 30
0.0
 10
342.953161249285
 20
457.7616597407095
 30
0.0
 10
342.6921029101845
 20
457.3445592170763
 30
0.0
 10
342.2235501382851
 20
456.4874887512591
 30
0.0
 10
342.0145983074433
 20
456.0455587471345
 30
0.0
 10
341.8314204480133
 20
455.5899966582433
 30
0.0
  0
SPLINE
  5
A3
330
1F
100
AcDbEntity
  8
0
  6
Continuous
 62
     7
370
    15
100
AcDbSpline
210
0.0
220
0.0
230
1.0
 70
     8
 71
     3
 72
    28
 73
    24
 74
     0
 42
0.00000001
 43
0.00000001
 40
0.0
 40
0.0
 40
0.0
 40
0.0
 40
0.0312500000000008
 40
0.0312500000000008
 40
0.0625000000000016
 40
0.0625000000000016
 40
0.1250000000000024
 40
0.1250000000000024
 40
0.2500000000000014
 40
0.2500000000000014
 40
0.5000000000000032
 40
0.5000000000000032
 40
0.6250000000000023
 40
0.6250000000000023
 40
0.7500000000000014
 40
0.7500000000000014
 40
0.8750000000000006
 40
0.8750000000000006
 40
0.9375000000000002
 40
0.9375000000000002
 40
0.9687500000000002
 40
0.9687500000000002
 40
1.0
 40
1.0
 40
1.0
 40
1.0
 10
340.5296374825742
 20
381.7335454071662
 30
0.0
 10
340.6090675113497
 20
381.7131480133856
 30
0.0
 10
340.6900782317165
 20
381.6905626471801
 30
0.0
 10
340.8484041642291
 20
381.642841724201
 30
0.0
 10
340.9268662375666
 20
381.6174116207035
 30
0.0
 10
341.1601772370302
 20
381.5364737364854
 30
0.0
 10
341.3129543999388
 20
381.4763261326379
 30
0.0
 10
341.7630854976334
 20
381.2775167032066
 30
0.0
 10
342.0522967525766
 20
381.1206176694301
 30
0.0
 10
342.8860002568457
 20
380.5739105562591
 30
0.0
 10
343.3698029733528
 20
380.1274735548556
 30
0.0
 10
343.9810954688774
 20
379.3413358992815
 30
0.0
 10
344.1622517313324
 20
379.0632915965922
 30
0.0
 10
344.4746456015508
 20
378.4856159777142
 30
0.0
 10
344.6070058732857
 20
378.1845624494054
 30
0.0
 10
344.822596795635
 20
377.5572745855419
 30
0.0
 10
344.9042537999126
 20
377.2343565992006
 30
0.0
 10
344.9856175788792
 20
376.7470585533179
 30
0.0
 10
345.0060431974317
 20
376.5836001126875
 30
0.0
 10
345.0265682980037
 20
376.3368630804972
 30
0.0
 10
345.0317223182374
 20
376.2543588491392
 30
0.0
 10
345.0386170411143
 20
376.0888274607458
 30
0.0
 10
345.0403578529239
 20
376.004609612101
 30
0.0
 10
345.0403635816827
 20
375.9225082329285
 30
0.0
  0
SPLINE
  5
A4
330
1F
100
AcDbEntity
  8
0
  6
Continuous
 62
     7
370
    15
100
AcDbSpline
210
0.0
220
0.0
230
1.0
 70
     8
 71
     3
 72
    22
 73
    18
 74
     0
 42
0.00000001
 43
0.00000001
 40
0.0
 40
0.0
 40
0.0
 40
0.0
 40
0.0625000000000005
 40
0.0625000000000005
 40
0.125000000000001
 40
0.125000000000001
 40
0.2500000000000002
 40
0.2500000000000002
 40
0.5000000000000004
 40
0.5000000000000004
 40
0.7500000000000008
 40
0.7500000000000008
 40
0.8750000000000009
 40
0.8750000000000009
 40
0.9375000000000004
 40
0.9375000000000004
 40
1.0
 40
1.0
 40
1.0
 40
1.0
 10
411.5132430336793
 20
375.5355244824447
 30
0.0
 10
411.51324303808
 20
375.7556463585335
 30
0.0
 10
411.5169398519891
 20
375.9781059495384
 30
0.0
 10
411.5316569441183
 20
376.4194532792276
 30
0.0
 10
411.5426772458728
 20
376.639716747201
 30
0.0
 10
411.5866553233817
 20
377.2992841916846
 30
0.0
 10
411.6305184820385
 20
377.737366528779
 30
0.0
 10
411.8056276034967
 20
379.0467384446007
 30
0.0
 10
411.981325340016
 20
379.9167396998762
 30
0.0
 10
412.4460376039228
 20
381.6223231021687
 30
0.0
 10
412.7353186806498
 20
382.4599962432304
 30
0.0
 10
413.2508405646897
 20
383.6826231272197
 30
0.0
 10
413.4359005703837
 20
384.0837158633246
 30
0.0
 10
413.7332172789914
 20
384.6757308746876
 30
0.0
 10
413.8356133493453
 20
384.8714638706555
 30
0.0
 10
414.0470019983314
 20
385.2597116667088
 30
0.0
 10
414.156690773284
 20
385.4534098356924
 30
0.0
 10
414.2683039074996
 20
385.6431227553873
 30
0.0
  0
SPLINE
  5
A5
330
1F
100
AcDbEntity
  8
0
  6
Continuous
 62
     7
370
    15
100
AcDbSpline
210
0.0
220
0.0
230
1.0
 70
     8
 71
     3
 72
    18
 73
    14
 74
     0
 42
0.00000001
 43
0.00000001
 40
0.0
 40
0.0
 40
0.0
 40
0.0
 40
0.0677534666174329
 40
0.1351125676395187
 40
0.2020722359509688
 40
0.2686274934515764
 40
0.3347734554469615
 40
0.4005053350724643
 40
0.4658184477474159
 40
0.6005951769926352
 40
0.734551024657473
 40
0.8676845029536758
 40
1.0
 40
1.0
 40
1.0
 40
1.0
 10
369.7283360812626
 20
466.6187092983851
 30
0.0
 10
369.7720320470714
 20
466.6051922547811
 30
0.0
 10
369.8591696421005
 20
466.5782368448308
 30
0.0
 10
369.9986258669631
 20
466.5383564943571
 30
0.0
 10
370.1437306489962
 20
466.4990592481813
 30
0.0
 10
370.2948963634942
 20
466.4604021436618
 30
0.0
 10
370.4517101575116
 20
466.4223876544966
 30
0.0
 10
370.6139174780346
 20
466.3850940506699
 30
0.0
 10
370.8411605162328
 20
466.3352485889997
 30
0.0
 10
371.1411981920501
 20
466.2753746787429
 30
0.0
 10
371.5233693096947
 20
466.2093027928962
 30
0.0
 10
371.9217046182674
 20
466.148502131136
 30
0.0
 10
372.2015131665179
 20
466.1123580008743
 30
0.0
 10
372.3409863255001
 20
466.0943416248281
 30
0.0
  0
ARC
  5
A6
330
1F
100
AcDbEntity
  8
0
  6
Continuous
 62
     7
370
    15
100
AcDbCircle
 10
372.0696328709
 20
468.6768171183
 30
0.0
 40
3.117287050397833
100
AcDbArc
 50
179.7132453637
 51
221.316954232
  0
LINE
  5
A7
330
1F
100
AcDbEntity
  8
0
  6
Continuous
 62
     7
370
    15
100
AcDbLine
 10
368.9523848615
 20
468.6924184905
 30
0.0
 11
387.6025105737
 21
468.6924184905
 31
0.0
  0
ARC
  5
A8
330
1F
100
AcDbEntity
  8
0
  6
Continuous
 62
     7
370
    15
100
AcDbCircle
 10
384.4758564083
 20
468.6790205447
 30
0.0
 40
3.126682870809086
100
AcDbArc
 50
320.9153569692
 51
0.2455151771
  0
SPLINE
  5
A9
330
1F
100
AcDbEntity
  8
0
  6
Continuous
 62
     7
370
    15
100
AcDbSpline
210
0.0
220
0.0
230
1.0
 70
     8
 71
     3
 72
    16
 73
    12
 74
     0
 42
0.00000001
 43
0.00000001
 40
0.0
 40
0.0
 40
0.0
 40
0.0
 40
0.0762986803229263
 40
0.1607692580130041
 40
0.2535953555800257
 40
0.354971328747978
 40
0.4650997856371338
 40
0.6474070391702366
 40
0.7980960047599722
 40
0.9159236053786947
 40
1.0
 40
1.0
 40
1.0
 40
1.0
 10
384.050308279153
 20
466.0943416248281
 30
0.0
 10
384.1391327275598
 20
466.106227786967
 30
0.0
 10
384.3262950821816
 20
466.1312731673013
 30
0.0
 10
384.6129189111543
 20
466.1746154457869
 30
0.0
 10
384.9189720775811
 20
466.2252452361949
 30
0.0
 10
385.240758612488
 20
466.2841329517552
 30
0.0
 10
385.6387353566755
 20
466.3652434787626
 30
0.0
 10
386.0545496599653
 20
466.4616992416472
 30
0.0
 10
386.4347739284835
 20
466.5629079535597
 30
0.0
 10
386.7060608763638
 20
466.6438252028862
 30
0.0
 10
386.8449855120167
 20
466.6889540885002
 30
0.0
 10
386.9028361874126
 20
466.7077465546482
 30
0.0
  0
LINE
  5
AA
330
1F
100
AcDbEntity
  8
0
  6
Continuous
 62
     7
370
    15
100
AcDbLine
 10
387.6025105737
 20
468.6924184905
 30
0.0
 11
387.6025105737
 21
478.9603653597
 31
0.0
  0
LINE
  5
AB
330
1F
100
AcDbEntity
  8
0
  6
Continuous
 62
     7
370
    15
100
AcDbLine
 10
368.9523848615
 20
468.6924184905
 30
0.0
 11
368.9523848615
 21
478.9603653597
 31
0.0
  0
LINE
  5
AC
330
1F
100
AcDbEntity
  8
0
  6
Continuous
 62
     7
370
    15
100
AcDbLine
 10
368.9523848615
 20
478.9603653597
 30
0.0
 11
387.6025105737
 21
478.9603653597
 31
0.0
  0
SPLINE
  5
AD
330
1F
100
AcDbEntity
  8
0
  6
Continuous
 62
     7
370
    15
100
AcDbSpline
210
0.0
220
0.0
230
1.0
 70
     8
 71
     3
 72
    20
 73
    16
 74
     0
 42
0.00000001
 43
0.00000001
 40
0.0
 40
0.0
 40
0.0
 40
0.0
 40
0.0581561855750478
 40
0.1163055071773492
 40
0.1745529547346249
 40
0.2330026680696526
 40
0.2917575906991216
 40
0.3509191465709685
 40
0.4105869472253663
 40
0.470858535251155
 40
0.5751586486842228
 40
0.6799100119385609
 40
0.7854384069719331
 40
0.8920438694768109
 40
1.0
 40
1.0
 40
1.0
 40
1.0
 10
378.2774477176108
 20
465.4739591167584
 30
0.0
 10
378.393293616354
 20
465.4744102548509
 30
0.0
 10
378.624971740951
 20
465.4753124777896
 30
0.0
 10
378.9724233514503
 20
465.4826071563297
 30
0.0
 10
379.3199522904454
 20
465.494252810472
 30
0.0
 10
379.6679233877008
 20
465.5106754982547
 30
0.0
 10
380.0166863989106
 20
465.5317593363033
 30
0.0
 10
380.3665704283063
 20
465.5575379508841
 30
0.0
 10
380.7178758179815
 20
465.5879899330464
 30
0.0
 10
381.1554235184076
 20
465.6315883506131
 30
0.0
 10
381.6765847988482
 20
465.6922121389473
 30
0.0
 10
382.2775549508331
 20
465.7745391250471
 30
0.0
 10
382.8737922728734
 20
465.8689997634251
 30
0.0
 10
383.4668725154601
 20
465.9746784136628
 30
0.0
 10
383.8550152367626
 20
466.0542868424083
 30
0.0
 10
384.0503082791529
 20
466.0943416248281
 30
0.0
  0
SPLINE
  5
AE
330
1F
100
AcDbEntity
  8
0
  6
Continuous
 62
     7
370
    15
100
AcDbSpline
210
0.0
220
0.0
230
1.0
 70
     8
 71
     3
 72
    26
 73
    22
 74
     0
 42
0.00000001
 43
0.00000001
 40
0.0
 40
0.0
 40
0.0
 40
0.0
 40
0.0584549451486621
 40
0.1159678600786707
 40
0.1725853706546188
 40
0.2283554666215085
 40
0.2833275260971111
 40
0.3375523309488113
 40
0.3910820716479416
 40
0.4439703402463175
 40
0.4962721102312872
 40
0.5480437021934419
 40
0.5993427344889946
 40
0.6502280583960892
 40
0.7007596776457489
 40
0.7509986526423887
 40
0.8010069901594206
 40
0.8508475197803174
 40
0.9005837588288707
 40
0.9502797679663175
 40
0.9999999999999999
 40
0.9999999999999999
 40
0.9999999999999999
 40
0.9999999999999999
 10
372.3409863255
 20
466.0943416248281
 30
0.0
 10
372.4479712383213
 20
466.0729734564607
 30
0.0
 10
372.6602169494245
 20
466.0305814782785
 30
0.0
 10
372.9816075378664
 20
465.9705130019507
 30
0.0
 10
373.3016269629134
 20
465.9137210645727
 30
0.0
 10
373.6205591832732
 20
465.8604089428416
 30
0.0
 10
373.9382100476512
 20
465.8105237436446
 30
0.0
 10
374.2545560997617
 20
465.7640796761007
 30
0.0
 10
374.5695727148967
 20
465.7210733869722
 30
0.0
 10
374.8832769833924
 20
465.6815061502057
 30
0.0
 10
375.1957140700529
 20
465.645378041939
 30
0.0
 10
375.506958202086
 20
465.6126894508502
 30
0.0
 10
375.8171096123172
 20
465.5834407219361
 30
0.0
 10
376.1262923555361
 20
465.5576320608317
 30
0.0
 10
376.4346517136415
 20
465.535264215379
 30
0.0
 10
376.74235153883
 20
465.516335824563
 30
0.0
 10
377.0495714547281
 20
465.5008532190338
 30
0.0
 10
377.3565039472259
 20
465.4887940359658
 30
0.0
 10
377.6633513560923
 20
465.480242360903
 30
0.0
 10
377.9703227539584
 20
465.4748856777832
 30
0.0
 10
378.1750561018779
 20
465.4742229418977
 30
0.0
 10
378.2774477176108
 20
465.4738914932167
 30
0.0
  0
SPLINE
  5
AF
330
1F
100
AcDbEntity
  8
0
  6
Continuous
 62
     7
370
    15
100
AcDbSpline
210
0.0
220
0.0
230
1.0
 70
    24
 71
     3
 72
    22
 73
    18
 74
     0
 42
0.00000001
 43
0.00000001
 40
0.0
 40
0.0
 40
0.0
 40
0.0
 40
0.125
 40
0.125
 40
0.25
 40
0.25
 40
0.375
 40
0.375
 40
0.5
 40
0.5
 40
0.625
 40
0.625
 40
0.75
 40
0.75
 40
0.875
 40
0.875
 40
1.0
 40
1.0
 40
1.0
 40
1.0
 10
378.2774477176108
 20
465.4739591167582
 30
0.0
 10
378.2774477176108
 20
465.3859076052248
 30
0.0
 10
378.2774477176108
 20
465.276367294883
 30
0.0
 10
378.2774477176108
 20
465.009906443487
 30
0.0
 10
378.2774477176108
 20
464.8528418560948
 30
0.0
 10
378.2774477176108
 20
464.4953575057286
 30
0.0
 10
378.2774477176108
 20
464.2949212015016
 30
0.0
 10
378.2774477176108
 20
463.8663645095938
 30
0.0
 10
378.2774477176108
 20
463.6384427309616
 30
0.0
 10
378.2774477176108
 20
463.1797019101218
 30
0.0
 10
378.2774477176108
 20
462.9492008661005
 30
0.0
 10
378.2774477176108
 20
462.5108826509562
 30
0.0
 10
378.2774477176108
 20
462.3032816071941
 30
0.0
 10
378.2774477176108
 20
461.9282850087407
 30
0.0
 10
378.2774477176108
 20
461.7608935400937
 30
0.0
 10
378.2774477176108
 20
461.472248367077
 30
0.0
 10
378.2774477176108
 20
461.3508623341851
 30
0.0
 10
378.2774477176108
 20
461.25088106488
 30
0.0
  0
SPLINE
  5
B0
330
1F
100
AcDbEntity
  8
0
  6
Continuous
 62
     7
370
    15
100
AcDbSpline
210
0.0
220
0.0
230
1.0
 70
     8
 71
     3
 72
    11
 73
     7
 74
     0
 42
0.00000001
 43
0.00000001
 40
0.0
 40
0.0
 40
0.0
 40
0.0
 40
0.0080287940138588
 40
0.0080287940138588
 40
0.0080287940138588
 40
0.0110048960492346
 40
0.0110048960492346
 40
0.0110048960492346
 40
0.0110048960492346
 10
305.5143222080087
 20
444.3877558225034
 30
0.0
 10
303.3606533348044
 20
445.9764982575617
 30
0.0
 10
301.2073133066152
 20
447.5656868249076
 30
0.0
 10
299.0541808470629
 20
449.155156248405
 30
0.0
 10
298.2560607241101
 20
449.744338547006
 30
0.0
 10
297.4579696472003
 20
450.3335601811292
 30
0.0
 10
296.6599030919328
 20
450.9228150002675
 30
0.0
  0
SPLINE
  5
B1
330
1F
100
AcDbEntity
  8
0
  6
Continuous
 62
     7
370
    15
100
AcDbSpline
210
0.0
220
0.0
230
1.0
 70
     8
 71
     3
 72
     8
 73
     4
 74
     0
 42
0.00000001
 43
0.00000001
 40
0.0
 40
0.0
 40
0.0
 40
0.0
 40
0.0051310286558088
 40
0.0051310286558088
 40
0.0051310286558088
 40
0.0051310286558088
 10
298.8986696103549
 20
389.5879653422482
 30
0.0
 10
300.6039804678448
 20
389.7190201155904
 30
0.0
 10
302.3093499542874
 20
389.8492984914271
 30
0.0
 10
304.0147973416474
 20
389.978497121367
 30
0.0
  0
LINE
  5
B2
330
1F
100
AcDbEntity
  8
0
  6
Continuous
 62
     7
370
    15
100
AcDbLine
 10
296.9495474271
 20
450.9882054525
 30
0.0
 11
296.3095947079
 21
451.4605219709
 31
0.0
  0
SPLINE
  5
B3
330
1F
100
AcDbEntity
  8
0
  6
Continuous
 62
     7
370
    15
100
AcDbSpline
210
0.0
220
0.0
230
1.0
 70
     8
 71
     3
 72
    11
 73
     7
 74
     0
 42
0.00000001
 43
0.00000001
 40
0.0
 40
0.0
 40
0.0
 40
0.0
 40
0.0057096893308115
 40
0.0057096893308115
 40
0.0057096893308115
 40
0.0114191935679029
 40
0.0114191935679029
 40
0.0114191935679029
 40
0.0114191935679029
 10
451.0410844129458
 20
397.5295486626225
 30
0.0
 10
452.5728374197431
 20
396.3999398448416
 30
0.0
 10
454.1044377765575
 20
395.270123853326
 30
0.0
 10
455.6359288816583
 20
394.140159885131
 30
0.0
 10
457.1673703483855
 20
393.010232541095
 30
0.0
 10
458.6987023197824
 20
391.8801567936105
 30
0.0
 10
460.229956032327
 20
390.7499751358337
 30
0.0
  0
ARC
  5
B4
330
1F
100
AcDbEntity
  8
0
  6
Continuous
 62
     7
370
    15
100
AcDbCircle
 10
451.3387418338
 20
472.3598411905
 30
0.0
 40
20.00000000000002
100
AcDbArc
 50
255.0031331291
 51
273.3176419798
  0
SPLINE
  5
B5
330
1F
100
AcDbEntity
  8
0
  6
Continuous
 62
     7
370
    15
100
AcDbSpline
210
0.0
220
0.0
230
1.0
 70
     8
 71
     3
 72
    10
 73
     6
 74
     0
 42
0.00000001
 43
0.00000001
 40
0.0
 40
0.0
 40
0.0
 40
0.0
 40
0.5
 40
0.5
 40
1.0
 40
1.0
 40
1.0
 40
1.0
 10
304.0147973416474
 20
389.978497121367
 30
0.0
 10
305.0968507007611
 20
390.0604033527263
 30
0.0
 10
306.1743389342996
 20
390.0535845266629
 30
0.0
 10
308.3203991859041
 20
389.8666230037467
 30
0.0
 10
309.3931881091036
 20
389.6849668378279
 30
0.0
 10
310.4446516684836
 20
389.4169031173678
 30
0.0
  0
SPLINE
  5
B6
330
1F
100
AcDbEntity
  8
0
  6
Continuous
 62
     7
370
    15
100
AcDbSpline
210
0.0
220
0.0
230
1.0
 70
     8
 71
     3
 72
     8
 73
     4
 74
     0
 42
0.00000001
 43
0.00000001
 40
0.0
 40
0.0
 40
0.0
 40
0.0
 40
1.0
 40
1.0
 40
1.0
 40
1.0
 10
309.2888335416754
 20
442.2004587748054
 30
0.0
 10
307.9503622719526
 20
442.7910164950697
 30
0.0
 10
306.6922389015581
 20
443.5201954081011
 30
0.0
 10
305.5143222080087
 20
444.3877558225034
 30
0.0
  0
SPLINE
  5
B7
330
1F
100
AcDbEntity
  8
0
  6
Continuous
 62
     7
370
    15
100
AcDbSpline
210
0.0
220
0.0
230
1.0
 70
     8
 71
     3
 72
    22
 73
    18
 74
     0
 42
0.00000001
 43
0.00000001
 40
0.0
 40
0.0
 40
0.0
 40
0.0
 40
0.125
 40
0.125
 40
0.25
 40
0.25
 40
0.375
 40
0.375
 40
0.5
 40
0.5
 40
0.625
 40
0.625
 40
0.75
 40
0.75
 40
0.875
 40
0.875
 40
1.0
 40
1.0
 40
1.0
 40
1.0
 10
388.4947303745365
 20
462.6857069110358
 30
0.0
 10
388.3428928746323
 20
462.7252027514141
 30
0.0
 10
388.18248830621
 20
462.7858056323263
 30
0.0
 10
387.8563286510372
 20
462.9594499893303
 30
0.0
 10
387.6906275751584
 20
463.0727063056299
 30
0.0
 10
387.3730019343675
 20
463.3544446500927
 30
0.0
 10
387.2213057081283
 20
463.5230436346999
 30
0.0
 10
386.9541719641248
 20
463.9048301908187
 30
0.0
 10
386.8390394687246
 20
464.1178672138009
 30
0.0
 10
386.662290644894
 20
464.5644363276016
 30
0.0
 10
386.6008207099711
 20
464.797598544282
 30
0.0
 10
386.5357452112117
 20
465.2551634696713
 30
0.0
 10
386.5320172422748
 20
465.4792553307441
 30
0.0
 10
386.5733420510597
 20
465.8956116893588
 30
0.0
 10
386.6181449006481
 20
466.0878137778424
 30
0.0
 10
386.7403039731258
 20
466.4295921402355
 30
0.0
 10
386.8174720633391
 20
466.5792924427002
 30
0.0
 10
386.9028361874125
 20
466.7077465546483
 30
0.0
  0
SPLINE
  5
B8
330
1F
100
AcDbEntity
  8
0
  6
Continuous
 62
     7
370
    15
100
AcDbSpline
210
0.0
220
0.0
230
1.0
 70
     8
 71
     3
 72
    22
 73
    18
 74
     0
 42
0.00000001
 43
0.00000001
 40
0.0
 40
0.0
 40
0.0
 40
0.0
 40
0.125
 40
0.125
 40
0.25
 40
0.25
 40
0.375
 40
0.375
 40
0.5
 40
0.5
 40
0.625
 40
0.625
 40
0.75
 40
0.75
 40
0.875
 40
0.875
 40
1.0
 40
1.0
 40
1.0
 40
1.0
 10
369.7283360812626
 20
466.618709298385
 30
0.0
 10
369.816880352697
 20
466.4964610486836
 30
0.0
 10
369.8980215076524
 20
466.3533020139398
 30
0.0
 10
370.0304825507748
 20
466.0247991509536
 30
0.0
 10
370.0816317543297
 20
465.8393379933952
 30
0.0
 10
370.1386207982764
 20
465.4355006498342
 30
0.0
 10
370.1442324550814
 20
465.2171737905445
 30
0.0
 10
370.1006213643533
 20
464.7683544967279
 30
0.0
 10
370.0512780193907
 20
464.5381366815527
 30
0.0
 10
369.9001255092173
 20
464.0929430006095
 30
0.0
 10
369.7984319714385
 20
463.8783076955241
 30
0.0
 10
369.5572435504283
 20
463.4882990875337
 30
0.0
 10
369.4180164884332
 20
463.3130847876386
 30
0.0
 10
369.1224362572199
 20
463.0141928892043
 30
0.0
 10
368.9662998042566
 20
462.8904321889013
 30
0.0
 10
368.6555619764656
 20
462.6938514928894
 30
0.0
 10
368.5010275947151
 20
462.6208434209424
 30
0.0
 10
368.353345097308
 20
462.5689102132866
 30
0.0
  0
SPLINE
  5
B9
330
1F
100
AcDbEntity
  8
0
  6
Continuous
 62
     7
370
    15
100
AcDbSpline
210
0.0
220
0.0
230
1.0
 70
     8
 71
     3
 72
    32
 73
    28
 74
     0
 42
0.00000001
 43
0.00000001
 40
0.0
 40
0.0
 40
0.0
 40
0.0
 40
0.1250000000000004
 40
0.1250000000000004
 40
0.1875000000000007
 40
0.1875000000000007
 40
0.2500000000000009
 40
0.2500000000000009
 40
0.3125000000000011
 40
0.3125000000000011
 40
0.3750000000000013
 40
0.3750000000000013
 40
0.4375000000000016
 40
0.4375000000000016
 40
0.5000000000000018
 40
0.5000000000000018
 40
0.6250000000000024
 40
0.6250000000000024
 40
0.6875000000000027
 40
0.6875000000000027
 40
0.7500000000000029
 40
0.7500000000000029
 40
0.8750000000000014
 40
0.8750000000000014
 40
0.9375000000000008
 40
0.9375000000000008
 40
1.0
 40
1.0
 40
1.0
 40
1.0
 10
417.3630966967687
 20
404.7880309003179
 30
0.0
 10
417.3238393399475
 20
405.2212008083857
 30
0.0
 10
417.3410570176054
 20
405.6501746837084
 30
0.0
 10
417.4492511764288
 20
406.2875443626167
 30
0.0
 10
417.4997663517582
 20
406.5004259407129
 30
0.0
 10
417.6267455499356
 20
406.9136060907366
 30
0.0
 10
417.7031072045982
 20
407.1145843354219
 30
0.0
 10
417.8810839850032
 20
407.5055334535311
 30
0.0
 10
417.9826978210767
 20
407.6955048850203
 30
0.0
 10
418.2119734727978
 20
408.0640958884188
 30
0.0
 10
418.3389733649106
 20
408.2412781184391
 30
0.0
 10
418.6118802429768
 20
408.5744436009065
 30
0.0
 10
418.7584855527609
 20
408.731585802776
 30
0.0
 10
419.0720119499633
 20
409.0269779494303
 30
0.0
 10
419.2400988450796
 20
409.1660403275486
 30
0.0
 10
419.7677186785743
 20
409.5473266972323
 30
0.0
 10
420.1456453764797
 20
409.7519625934094
 30
0.0
 10
420.7515261087238
 20
409.9851319284176
 30
0.0
 10
420.9602558819971
 20
410.0501801756291
 30
0.0
 10
421.3790137407661
 20
410.151493665951
 30
0.0
 10
421.5905121502329
 20
410.1883961836439
 30
0.0
 10
422.2313262278921
 20
410.2581410172426
 30
0.0
 10
422.6707342404702
 20
410.2487456691359
 30
0.0
 10
423.3068365829756
 20
410.1521132627298
 30
0.0
 10
423.5164102423509
 20
410.1063611735692
 30
0.0
 10
423.930573060767
 20
409.9873982619232
 30
0.0
 10
424.1358024553396
 20
409.9138153464624
 30
0.0
 10
424.3351021088017
 20
409.8272156576293
 30
0.0
  0
SPLINE
  5
BA
330
1F
100
AcDbEntity
  8
0
  6
Continuous
 62
     7
370
    15
100
AcDbSpline
210
0.0
220
0.0
230
1.0
 70
     8
 71
     3
 72
    32
 73
    28
 74
     0
 42
0.00000001
 43
0.00000001
 40
0.0
 40
0.0
 40
0.0
 40
0.0
 40
0.1250000000000006
 40
0.1250000000000006
 40
0.1875000000000007
 40
0.1875000000000007
 40
0.2500000000000009
 40
0.2500000000000009
 40
0.312500000000001
 40
0.312500000000001
 40
0.3750000000000012
 40
0.3750000000000012
 40
0.4375000000000013
 40
0.4375000000000013
 40
0.5000000000000014
 40
0.5000000000000014
 40
0.6250000000000013
 40
0.6250000000000013
 40
0.6875000000000004
 40
0.6875000000000004
 40
0.7499999999999996
 40
0.7499999999999996
 40
0.8749999999999998
 40
0.8749999999999998
 40
0.9374999999999999
 40
0.9374999999999999
 40
1.0
 40
1.0
 40
1.0
 40
1.0
 10
339.19183716105
 20
437.1323108303179
 30
0.0
 10
339.231094396428
 20
436.6991685056285
 30
0.0
 10
339.2138835141486
 20
436.2702213123073
 30
0.0
 10
339.1057099040786
 20
435.6328902873497
 30
0.0
 10
339.0552034407785
 20
435.420021152372
 30
0.0
 10
338.9282438710896
 20
435.0068617635762
 30
0.0
 10
338.8518934691902
 20
434.8058931840981
 30
0.0
 10
338.6739422694724
 20
434.4149618773239
 30
0.0
 10
338.5723427580763
 20
434.2249985934371
 30
0.0
 10
338.3430993475829
 20
433.8564221310374
 30
0.0
 10
338.2161144456527
 20
433.6792421657015
 30
0.0
 10
337.9432408593794
 20
433.3460813419105
 30
0.0
 10
337.796653305466
 20
433.1889403828074
 30
0.0
 10
337.4831650795574
 20
432.893548139272
 30
0.0
 10
337.315100286272
 20
432.7544853420532
 30
0.0
 10
336.7875333667248
 20
432.3731814474621
 30
0.0
 10
336.4096442441657
 20
432.1685293379482
 30
0.0
 10
335.8038255865893
 20
431.9353246264965
 30
0.0
 10
335.5951118107932
 20
431.8702607258505
 30
0.0
 10
335.1763852867418
 20
431.7689136986156
 30
0.0
 10
334.9649027063515
 20
431.7319930588572
 30
0.0
 10
334.3241368160517
 20
431.6621883941118
 30
0.0
 10
333.8847532841072
 20
431.6715353140162
 30
0.0
 10
333.2486765888303
 20
431.7680884883032
 30
0.0
 10
333.0391110994047
 20
431.8138126835006
 30
0.0
 10
332.6249636279389
 20
431.9327155981437
 30
0.0
 10
332.4197392584607
 20
432.006266835495
 30
0.0
 10
332.2204404799973
 20
432.0928347091442
 30
0.0
  0
LINE
  5
BB
330
1F
100
AcDbEntity
  8
0
  6
Continuous
 62
     7
370
    15
100
AcDbLine
 10
387.6025105737
 20
468.6924184905
 30
0.0
 11
395.9950662128
 21
468.6924184905
 31
0.0
  0
ARC
  5
BC
330
1F
100
AcDbEntity
  8
0
  6
Continuous
 62
     7
370
    15
100
AcDbCircle
 10
392.7835660205
 20
468.6923369269
 30
0.0
 40
3.211500193363471
100
AcDbArc
 50
357.9634943043
 51
0.0014551625
  0
SPLINE
  5
BD
330
1F
100
AcDbEntity
  8
0
  6
Continuous
 62
     7
370
    15
100
AcDbSpline
210
0.0
220
0.0
230
1.0
 70
     8
 71
     3
 72
    26
 73
    22
 74
     0
 42
0.00000001
 43
0.00000001
 40
0.0
 40
0.0
 40
0.0
 40
0.0
 40
0.0176213161299061
 40
0.0388573196097405
 40
0.0637102922487519
 40
0.092181645916883
 40
0.1231535235808729
 40
0.1530281010744534
 40
0.2136452669521576
 40
0.2433576354374999
 40
0.2741051996724491
 40
0.3139124638249466
 40
0.3949877299428828
 40
0.4643805482073846
 40
0.5157830280498964
 40
0.60426997684385
 40
0.6896196033209844
 40
0.7718481212225682
 40
0.8509736763810742
 40
0.9270166467055845
 40
1.0
 40
1.0
 40
1.0
 40
1.0
 10
386.9028361874127
 20
466.7077465546483
 30
0.0
 10
386.9659498312799
 20
466.725402635702
 30
0.0
 10
387.1051237166697
 20
466.7643366165412
 30
0.0
 10
387.3270515384706
 20
466.8235094934055
 30
0.0
 10
387.5830929996129
 20
466.8909375921739
 30
0.0
 10
387.8683093604312
 20
466.9656006434745
 30
0.0
 10
388.1661166181567
 20
467.0429561869802
 30
0.0
 10
388.5643114432992
 20
467.1434265022518
 30
0.0
 10
388.9480929907942
 20
467.23284947477
 30
0.0
 10
389.3273864892543
 20
467.3150297735672
 30
0.0
 10
389.638395028975
 20
467.3798580589734
 30
0.0
 10
390.1114048496407
 20
467.491998091569
 30
0.0
 10
390.6997033321467
 20
467.6402848089699
 30
0.0
 10
391.3141162738956
 20
467.8003959625963
 30
0.0
 10
391.9418190619575
 20
467.9623497248721
 30
0.0
 10
392.6052247307609
 20
468.1215177038583
 30
0.0
 10
393.3464488894587
 20
468.2789213393341
 30
0.0
 10
394.0516340334205
 20
468.4044597513021
 30
0.0
 10
394.7246449740603
 20
468.4966356193713
 30
0.0
 10
395.3684424315604
 20
468.558453899244
 30
0.0
 10
395.7877091411082
 20
468.5717175113037
 30
0.0
 10
395.993038573147
 20
468.5782131616117
 30
0.0
  0
LINE
  5
BE
330
1F
100
AcDbEntity
  8
0
  6
Continuous
 62
     7
370
    15
100
AcDbLine
 10
360.5598292224
 20
468.6924184905
 30
0.0
 11
368.9523848615
 21
468.6924184905
 31
0.0
  0
SPLINE
  5
BF
330
1F
100
AcDbEntity
  8
0
  6
Continuous
 62
     7
370
    15
100
AcDbSpline
210
0.0
220
0.0
230
1.0
 70
     8
 71
     3
 72
    19
 73
    15
 74
     0
 42
0.00000001
 43
0.00000001
 40
0.0
 40
0.0
 40
0.0
 40
0.0
 40
0.0929648286547748
 40
0.1841243492884914
 40
0.2734926099660449
 40
0.3610845202929727
 40
0.4469159150968913
 40
0.5310036231403776
 40
0.6133655412026063
 40
0.6940207138648328
 40
0.7729894193235878
 40
0.85029326153257
 40
0.925955268936142
 40
1.0
 40
1.0
 40
1.0
 40
1.0
 10
366.0043723139104
 20
467.2022083047803
 30
0.0
 10
366.108083433309
 20
467.2013757715635
 30
0.0
 10
366.3134916790895
 20
467.1997268723075
 30
0.0
 10
366.6245372076087
 20
467.1861498496494
 30
0.0
 10
366.9340576135666
 20
467.164472769465
 30
0.0
 10
367.2426606031898
 20
467.1340713181264
 30
0.0
 10
367.5505259126746
 20
467.0953305657975
 30
0.0
 10
367.8580436533903
 20
467.0484498085204
 30
0.0
 10
368.1656342358226
 20
466.9937661128853
 30
0.0
 10
368.473822124655
 20
466.9316613662778
 30
0.0
 10
368.7830881293787
 20
466.8626629349023
 30
0.0
 10
369.0943335036836
 20
466.7871916187483
 30
0.0
 10
369.4071724332193
 20
466.7064995779182
 30
0.0
 10
369.622055322541
 20
466.6477612087554
 30
0.0
 10
369.7283360812626
 20
466.618709298385
 30
0.0
  0
SPLINE
  5
C0
330
1F
100
AcDbEntity
  8
0
  6
Continuous
 62
     7
370
    15
100
AcDbSpline
210
0.0
220
0.0
230
1.0
 70
     8
 71
     3
 72
    28
 73
    24
 74
     0
 42
0.00000001
 43
0.00000001
 40
0.0
 40
0.0
 40
0.0
 40
0.0
 40
0.0335166997955731
 40
0.0676836794448354
 40
0.1025130927601217
 40
0.1380164130065092
 40
0.1742044721192571
 40
0.2110874982810965
 40
0.2486751517711867
 40
0.3640220048472637
 40
0.5001373799616661
 40
0.5640414909906019
 40
0.6061694803260378
 40
0.626521339152886
 40
0.673337290726448
 40
0.7151190192688704
 40
0.7519022821144414
 40
0.7836455505126255
 40
0.8140067797835352
 40
0.8316761829456674
 40
0.8760045532567473
 40
0.9380022766283741
 40
1.0
 40
1.0
 40
1.0
 40
1.0
 10
360.5610061789849
 20
468.605398783343
 30
0.0
 10
360.6181898622017
 20
468.604469833171
 30
0.0
 10
360.7336666874241
 20
468.6025939096451
 30
0.0
 10
360.9088551125645
 20
468.5878417858685
 30
0.0
 10
361.0876972881439
 20
468.5644162837744
 30
0.0
 10
361.270423970998
 20
468.5314164936412
 30
0.0
 10
361.457315698914
 20
468.4891311472792
 30
0.0
 10
361.6487504000983
 20
468.4374475430305
 30
0.0
 10
361.9793399730648
 20
468.3352490422448
 30
0.0
 10
362.4921874147755
 20
468.1343414492783
 30
0.0
 10
363.0805578210328
 20
467.8659459465266
 30
0.0
 10
363.5534947232403
 20
467.653451862751
 30
0.0
 10
363.8048278392354
 20
467.5462416918569
 30
0.0
 10
364.0244511757559
 20
467.4551869963715
 30
0.0
 10
364.2423873161661
 20
467.3755572812884
 30
0.0
 10
364.4911706747747
 20
467.2971281046742
 30
0.0
 10
364.7048800217898
 20
467.2441188016313
 30
0.0
 10
364.8891047612226
 20
467.2135438444136
 30
0.0
 10
365.031442588935
 20
467.201683275982
 30
0.0
 10
365.188366659227
 20
467.2027856251703
 30
0.0
 10
365.400288566492
 20
467.2019104002426
 30
0.0
 10
365.6871367080699
 20
467.2022996480031
 30
0.0
 10
365.8986271119636
 20
467.2022387525212
 30
0.0
 10
366.0043723139105
 20
467.2022083047801
 30
0.0
  0
ARC
  5
C1
330
1F
100
AcDbEntity
  8
0
  6
Continuous
 62
     7
370
    15
100
AcDbCircle
 10
363.7670712066
 20
468.6922884938
 30
0.0
 40
3.207241986878056
100
AcDbArc
 50
179.9976776723
 51
181.5524196758
  0
LINE
  5
C2
330
1F
100
AcDbEntity
  8
0
  6
Continuous
 62
     7
370
    15
100
AcDbLine
 10
387.6025105737
 20
478.9603653597
 30
0.0
 11
395.9950662128
 21
478.9603653597
 31
0.0
  0
LINE
  5
C3
330
1F
100
AcDbEntity
  8
0
  6
Continuous
 62
     7
370
    15
100
AcDbLine
 10
360.5598292224
 20
478.9603653597
 30
0.0
 11
368.9523848615
 21
478.9603653597
 31
0.0
  0
SPLINE
  5
C4
330
1F
100
AcDbEntity
  8
0
  6
Continuous
 62
     7
370
    15
100
AcDbSpline
210
0.0
220
0.0
230
1.0
 70
     8
 71
     3
 72
     8
 73
     4
 74
     0
 42
0.00000001
 43
0.00000001
 40
0.0
 40
0.0
 40
0.0
 40
0.0
 40
1.0
 40
1.0
 40
1.0
 40
1.0
 10
447.271927997846
 20
399.7137902042779
 30
0.0
 10
448.6083883512507
 20
399.123858496861
 30
0.0
 10
449.8647276099315
 20
398.3956995889704
 30
0.0
 10
451.0410844129458
 20
397.5295486626225
 30
0.0
  0
LINE
  5
C5
330
1F
100
AcDbEntity
  8
0
  6
Continuous
 62
     7
370
    15
100
AcDbLine
 10
359.2774483286
 20
478.9603653597
 30
0.0
 11
360.5598292224
 21
478.9603653597
 31
0.0
  0
LINE
  5
C6
330
1F
100
AcDbEntity
  8
0
  6
Continuous
 62
     7
370
    15
100
AcDbLine
 10
395.9950662128
 20
478.9603653597
 30
0.0
 11
397.2774471067
 21
478.9603653597
 31
0.0
  0
LWPOLYLINE
  5
C7
330
1F
100
AcDbEntity
  8
0
  6
Continuous
 62
     7
370
    15
100
AcDbPolyline
 90
        9
 70
   128
 43
0.0
 10
341.8314202599
 20
455.5899950909
 10
341.7477129869
 20
455.6235972094
 10
341.5898240082
 20
455.6869755732
 10
341.3630171589
 20
455.7780142175
 10
341.0748696796
 20
455.893680756
 10
340.734989094
 20
456.0301083373
 10
340.3547226362
 20
456.1827521073
 10
339.946758645
 20
456.3465084182
 10
339.5247093312
 20
456.5159234451
  0
SPLINE
  5
C8
330
1F
100
AcDbEntity
  8
0
  6
Continuous
 62
     7
370
    15
100
AcDbSpline
210
0.0
220
0.0
230
1.0
 70
     8
 71
     3
 72
    12
 73
     8
 74
     0
 42
0.00000001
 43
0.00000001
 40
0.0
 40
0.0
 40
0.0
 40
0.0
 40
0.5
 40
0.5
 40
0.75
 40
0.75
 40
1.0
 40
1.0
 40
1.0
 40
1.0
 10
339.5247098613297
 20
456.5159225841694
 30
0.0
 10
339.8812401550491
 20
457.404127763405
 30
0.0
 10
340.3188538387173
 20
458.2495354023272
 30
0.0
 10
341.0960450547989
 20
459.453901517774
 30
0.0
 10
341.3745190170835
 20
459.8431145922325
 30
0.0
 10
341.9656502176779
 20
460.5912154435546
 30
0.0
 10
342.2789058653497
 20
460.951051688317
 30
0.0
 10
342.6100203466132
 20
461.2965381302814
 30
0.0
  0
SPLINE
  5
C9
330
1F
100
AcDbEntity
  8
0
  6
Continuous
 62
     7
370
    15
100
AcDbSpline
210
0.0
220
0.0
230
1.0
 70
    24
 71
     3
 72
    22
 73
    18
 74
     0
 42
0.00000001
 43
0.00000001
 40
0.0
 40
0.0
 40
0.0
 40
0.0
 40
0.2499999999999999
 40
0.2499999999999999
 40
0.4999999999999998
 40
0.4999999999999998
 40
0.7499999999999997
 40
0.7499999999999997
 40
0.8750000000000003
 40
0.8750000000000003
 40
0.9375000000000002
 40
0.9375000000000002
 40
0.9687500000000002
 40
0.9687500000000002
 40
0.9843750000000001
 40
0.9843750000000001
 40
1.0
 40
1.0
 40
1.0
 40
1.0
 10
342.6100203466132
 20
461.2965381302814
 30
0.0
 10
343.2918453532955
 20
461.4504673096834
 30
0.0
 10
343.9591931992603
 20
461.6011281175129
 30
0.0
 10
345.2770585605687
 20
461.898650108699
 30
0.0
 10
345.9291896289685
 20
462.0458755686595
 30
0.0
 10
347.2130951804755
 20
462.3357307749607
 30
0.0
 10
347.8438043095911
 20
462.4781200064126
 30
0.0
 10
348.7800006349174
 20
462.6894761912171
 30
0.0
 10
349.0905903713971
 20
462.7595950967991
 30
0.0
 10
349.553006601206
 20
462.8639904329911
 30
0.0
 10
349.7065523775137
 20
462.8986550098488
 30
0.0
 10
349.9339878786041
 20
462.9500009706256
 30
0.0
 10
350.0093540526036
 20
462.9670156785121
 30
0.0
 10
350.1202491485618
 20
462.9920514148862
 30
0.0
 10
350.1568581354787
 20
463.0003162794184
 30
0.0
 10
350.2283629897735
 20
463.0164592536962
 30
0.0
 10
350.2635374614747
 20
463.0244002613034
 30
0.0
 10
350.2956052201505
 20
463.0316398957109
 30
0.0
  0
LWPOLYLINE
  5
CA
330
1F
100
AcDbEntity
  8
0
  6
Continuous
 62
     7
370
    15
100
AcDbPolyline
 90
        9
 70
   128
 43
0.0
 10
298.8986714653
 20
389.5879651653
 10
298.9060698919
 20
389.4913348602
 10
298.9193840794
 20
389.3174569355
 10
298.9381893448
 20
389.0719863819
 10
298.9618598394
 20
388.7629027711
 10
298.9896356038
 20
388.4002532112
 10
299.0206076674
 20
387.9958245205
 10
299.0537776522
 20
387.5627669739
 10
299.0880577735
 20
387.1151584434
  0
SPLINE
  5
CB
330
1F
100
AcDbEntity
  8
0
  6
Continuous
 62
     7
370
    15
100
AcDbSpline
210
0.0
220
0.0
230
1.0
 70
     8
 71
     3
 72
    22
 73
    18
 74
     0
 42
0.00000001
 43
0.00000001
 40
0.0
 40
0.0
 40
0.0
 40
0.0
 40
0.125
 40
0.125
 40
0.25
 40
0.25
 40
0.375
 40
0.375
 40
0.5
 40
0.5
 40
0.625
 40
0.625
 40
0.75
 40
0.75
 40
0.875
 40
0.875
 40
1.0
 40
1.0
 40
1.0
 40
1.0
 10
299.0880586639828
 20
387.1151582001473
 30
0.0
 10
298.9307666897325
 20
387.1031114142742
 30
0.0
 10
298.7745439428009
 20
387.0759176587799
 30
0.0
 10
298.472451093594
 20
386.9933860821088
 30
0.0
 10
298.3269637002982
 20
386.9384269244665
 30
0.0
 10
298.0469167910756
 20
386.8015903472987
 30
0.0
 10
297.911291641033
 20
386.7186731533859
 30
0.0
 10
297.661557067303
 20
386.5316541924183
 30
0.0
 10
297.5463194618825
 20
386.4272878927576
 30
0.0
 10
297.3351319290102
 20
386.1968097317316
 30
0.0
 10
297.2393601794542
 20
386.0702702243096
 30
0.0
 10
297.0752813473737
 20
385.8056963942567
 30
0.0
 10
297.0057468006585
 20
385.6664780702011
 30
0.0
 10
296.8922246657725
 20
385.3738808247642
 30
0.0
 10
296.8491745927079
 20
385.2221889913283
 30
0.0
 10
296.7920341528358
 20
384.9164695252658
 30
0.0
 10
296.7774477176105
 20
384.7612308997575
 30
0.0
 10
296.7774477176107
 20
384.6035108601155
 30
0.0
  0
LINE
  5
CC
330
1F
100
AcDbEntity
  8
0
  6
Continuous
 62
     7
370
    15
100
AcDbLine
 10
294.2774488501
 20
384.6035118448
 30
0.0
 11
296.7774464659
 21
384.6035118448
 31
0.0
  0
SPLINE
  5
CD
330
1F
100
AcDbEntity
  8
0
  6
Continuous
 62
     7
370
    15
100
AcDbSpline
210
0.0
220
0.0
230
1.0
 70
     8
 71
     3
 72
    14
 73
    10
 74
     0
 42
0.00000001
 43
0.00000001
 40
0.0
 40
0.0
 40
0.0
 40
0.0
 40
0.25
 40
0.25
 40
0.5
 40
0.5
 40
0.75
 40
0.75
 40
1.0
 40
1.0
 40
1.0
 40
1.0
 10
459.7774477176108
 20
386.7156455131025
 30
0.0
 10
459.7774477176108
 20
386.9141738811413
 30
0.0
 10
459.7544851755395
 20
387.1096848525258
 30
0.0
 10
459.6630639715981
 20
387.4947283701171
 30
0.0
 10
459.5951716637935
 20
387.6804169136283
 30
0.0
 10
459.4191630149822
 20
388.0304153528693
 30
0.0
 10
459.3089117147935
 20
388.1977450161595
 30
0.0
 10
459.0561595235383
 20
388.4977422366929
 30
0.0
 10
458.9134529653062
 20
388.6320425577614
 30
0.0
 10
458.7537018749688
 20
388.7499581626886
 30
0.0
  0
LWPOLYLINE
  5
CE
330
1F
100
AcDbEntity
  8
0
  6
Continuous
 62
     7
370
    15
100
AcDbPolyline
 90
        9
 70
   128
 43
0.0
 10
458.7537019424
 20
388.7499573873
 10
459.0239345006
 20
389.1160714673
 10
459.2851444058
 20
389.4699516939
 10
459.5285995774
 20
389.7997795837
 10
459.7461565308
 20
390.0945320027
 10
459.9305658512
 20
390.3443630086
 10
460.0756510071
 20
390.5409260886
 10
460.1765765719
 20
390.6776516931
 10
460.2299525313
 20
390.749974479
  0
LINE
  5
CF
330
1F
100
AcDbEntity
  8
0
  6
Continuous
 62
     7
370
    15
100
AcDbLine
 10
459.7774489693
 20
386.7156471359
 30
0.0
 11
462.2774465851
 21
386.7156471359
 31
0.0
  0
SPLINE
  5
D0
330
1F
100
AcDbEntity
  8
0
  6
Continuous
 62
     7
370
    15
100
AcDbSpline
210
0.0
220
0.0
230
1.0
 70
    24
 71
     3
 72
    10
 73
     6
 74
     0
 42
0.00000001
 43
0.00000001
 40
0.0
 40
0.0
 40
0.0
 40
0.0
 40
0.5
 40
0.5
 40
1.0
 40
1.0
 40
1.0
 40
1.0
 10
345.0401968723618
 20
375.9238067236512
 30
0.0
 10
344.9933620182317
 20
375.9238067236512
 30
0.0
 10
344.8616093241887
 20
375.9238067236512
 30
0.0
 10
344.4541187580641
 20
375.9238067236512
 30
0.0
 10
344.1786557669942
 20
375.9238067236512
 30
0.0
 10
343.8584986388375
 20
375.9238067236512
 30
0.0
  0
SPLINE
  5
D1
330
1F
100
AcDbEntity
  8
0
  6
Continuous
 62
     7
370
    15
100
AcDbSpline
210
0.0
220
0.0
230
1.0
 70
    24
 71
     3
 72
     8
 73
     4
 74
     0
 42
0.00000001
 43
0.00000001
 40
0.0
 40
0.0
 40
0.0
 40
0.0
 40
1.0
 40
1.0
 40
1.0
 40
1.0
 10
343.8584986388375
 20
375.9238067236512
 30
0.0
 10
343.4695379499797
 20
375.9238067236512
 30
0.0
 10
343.0150044318477
 20
375.9238067236512
 30
0.0
 10
342.5598050182387
 20
375.9238067236512
 30
0.0
  0
SPLINE
  5
D2
330
1F
100
AcDbEntity
  8
0
  6
Continuous
 62
     7
370
    15
100
AcDbSpline
210
0.0
220
0.0
230
1.0
 70
     8
 71
     3
 72
    18
 73
    14
 74
     0
 42
0.00000001
 43
0.00000001
 40
0.0
 40
0.0
 40
0.0
 40
0.0
 40
0.1249999999999991
 40
0.1249999999999991
 40
0.2499999999999982
 40
0.2499999999999982
 40
0.3749999999999973
 40
0.3749999999999973
 40
0.4999999999999964
 40
0.4999999999999964
 40
0.7499999999999982
 40
0.7499999999999982
 40
1.0
 40
1.0
 40
1.0
 40
1.0
 10
342.559955331578
 20
375.9238067920985
 30
0.0
 10
342.559866667281
 20
376.1185174623751
 30
0.0
 10
342.5435149848381
 20
376.3107237856063
 30
0.0
 10
342.4794171037759
 20
376.6903019811
 30
0.0
 10
342.4311993685839
 20
376.8789574555539
 30
0.0
 10
342.3040688582212
 20
377.2451549426228
 30
0.0
 10
342.2260700932609
 20
377.420827593162
 30
0.0
 10
342.0421182761839
 20
377.7577903123727
 30
0.0
 10
341.9354726596014
 20
377.9199469669886
 30
0.0
 10
341.576102437797
 20
378.3779666140618
 30
0.0
 10
341.291934661513
 20
378.6378592339289
 30
0.0
 10
340.6402731334686
 20
379.0618123659698
 30
0.0
 10
340.2887443509192
 20
379.2159745688874
 30
0.0
 10
339.9115001706101
 20
379.312283309608
 30
0.0
  0
SPLINE
  5
D3
330
1F
100
AcDbEntity
  8
0
  6
Continuous
 62
     7
370
    15
100
AcDbSpline
210
0.0
220
0.0
230
1.0
 70
    24
 71
     3
 72
    14
 73
    10
 74
     0
 42
0.00000001
 43
0.00000001
 40
0.0
 40
0.0
 40
0.0
 40
0.0
 40
0.25
 40
0.25
 40
0.5
 40
0.5
 40
0.75
 40
0.75
 40
1.0
 40
1.0
 40
1.0
 40
1.0
 10
340.5296374825742
 20
381.7335454071663
 30
0.0
 10
340.5273034342976
 20
381.7244028711684
 30
0.0
 10
340.5094852032923
 20
381.6546083343503
 30
0.0
 10
340.4454686714273
 20
381.4038536893519
 30
0.0
 10
340.3992937320223
 20
381.2229850886794
 30
0.0
 10
340.2853179281529
 20
380.7765385005083
 30
0.0
 10
340.2175586567038
 20
380.511123434078
 30
0.0
 10
340.0703401601951
 20
379.9344642375588
 30
0.0
 10
339.9909346593557
 20
379.6234305468253
 30
0.0
 10
339.9115001706101
 20
379.3122833096081
 30
0.0
  0
SPLINE
  5
D4
330
1F
100
AcDbEntity
  8
0
  6
Continuous
 62
     7
370
    15
100
AcDbSpline
210
0.0
220
0.0
230
1.0
 70
     8
 71
     3
 72
    24
 73
    20
 74
     0
 42
0.00000001
 43
0.00000001
 40
0.0
 40
0.0
 40
0.0
 40
0.0
 40
0.0312499999999986
 40
0.0312499999999986
 40
0.0624999999999972
 40
0.0624999999999972
 40
0.1249999999999958
 40
0.1249999999999958
 40
0.2499999999999915
 40
0.2499999999999915
 40
0.4999999999999867
 40
0.4999999999999867
 40
0.62499999999999
 40
0.62499999999999
 40
0.7499999999999933
 40
0.7499999999999933
 40
0.8749999999999967
 40
0.8749999999999967
 40
1.0
 40
1.0
 40
1.0
 40
1.0
 10
294.2774477176107
 20
356.1163233545787
 30
0.0
 10
294.2774477176107
 20
356.113397511239
 30
0.0
 10
294.278552474615
 20
356.1255346103044
 30
0.0
 10
294.2821679390786
 20
356.1608436606959
 30
0.0
 10
294.2846678832399
 20
356.1833578849248
 30
0.0
 10
294.2939766690665
 20
356.2544374896289
 30
0.0
 10
294.3025193502127
 20
356.3063125698711
 30
0.0
 10
294.3350394263769
 20
356.4626659852123
 30
0.0
 10
294.3659973199866
 20
356.5695713826062
 30
0.0
 10
294.4877544866118
 20
356.8850819840799
 30
0.0
 10
294.6046631722454
 20
357.0860973660475
 30
0.0
 10
294.8464354151217
 20
357.3640220487634
 30
0.0
 10
294.9393984692001
 20
357.4534677131081
 30
0.0
 10
295.1467627568163
 20
357.6157753506944
 30
0.0
 10
295.2612334193378
 20
357.6891915720789
 30
0.0
 10
295.5170169714342
 20
357.815833575204
 30
0.0
 10
295.6560720509327
 20
357.8676496709238
 30
0.0
 10
295.9531634617785
 20
357.9398607285626
 30
0.0
 10
296.1131732311039
 20
357.9603670286126
 30
0.0
 10
296.277186285658
 20
357.9603670286126
 30
0.0
  0
SPLINE
  5
D5
330
1F
100
AcDbEntity
  8
0
  6
Continuous
 62
     7
370
    15
100
AcDbSpline
210
0.0
220
0.0
230
1.0
 70
     8
 71
     3
 72
    24
 73
    20
 74
     0
 42
0.00000001
 43
0.00000001
 40
0.0
 40
0.0
 40
0.0
 40
0.0
 40
0.0312499999999986
 40
0.0312499999999986
 40
0.0624999999999972
 40
0.0624999999999972
 40
0.1249999999999958
 40
0.1249999999999958
 40
0.2499999999999915
 40
0.2499999999999915
 40
0.4999999999999867
 40
0.4999999999999867
 40
0.62499999999999
 40
0.62499999999999
 40
0.7499999999999933
 40
0.7499999999999933
 40
0.8749999999999967
 40
0.8749999999999967
 40
1.0
 40
1.0
 40
1.0
 40
1.0
 10
443.1214913916446
 20
336.9603670286126
 30
0.0
 10
443.1244172349843
 20
336.9603670286126
 30
0.0
 10
443.1122801359188
 20
336.9614717856168
 30
0.0
 10
443.0769710855274
 20
336.9650872500804
 30
0.0
 10
443.0544568612985
 20
336.9675871942416
 30
0.0
 10
442.9833772565945
 20
336.9768959800683
 30
0.0
 10
442.9315021763522
 20
336.9854386612146
 30
0.0
 10
442.775148761011
 20
337.0179587373786
 30
0.0
 10
442.668243363617
 20
337.0489166309883
 30
0.0
 10
442.3527327621434
 20
337.1706737976136
 30
0.0
 10
442.1517173801758
 20
337.2875824832471
 30
0.0
 10
441.8737926974598
 20
337.5293547261234
 30
0.0
 10
441.7843470331151
 20
337.6223177802019
 30
0.0
 10
441.6220393955288
 20
337.8296820678181
 30
0.0
 10
441.5486231741444
 20
337.9441527303396
 30
0.0
 10
441.4219811710193
 20
338.199936282436
 30
0.0
 10
441.3701650752995
 20
338.3389913619345
 30
0.0
 10
441.2979540176607
 20
338.6360827727803
 30
0.0
 10
441.2774477176108
 20
338.7960925421057
 30
0.0
 10
441.2774477176108
 20
338.9601055966598
 30
0.0
  0
LINE
  5
D6
330
1F
100
AcDbEntity
  8
0
  6
Continuous
 62
     7
370
    15
100
AcDbLine
 10
441.2774487309
 20
339.4603657769
 30
0.0
 11
441.2774487309
 21
338.9601039933
 31
0.0
  0
LINE
  5
D7
330
1F
100
AcDbEntity
  8
0
  6
Continuous
 62
     7
370
    15
100
AcDbLine
 10
296.7774464659
 20
384.6035118448
 30
0.0
 11
296.7774464659
 21
357.9603660153
 31
0.0
  0
LINE
  5
D8
330
1F
100
AcDbEntity
  8
0
  6
Continuous
 62
     7
370
    15
100
AcDbLine
 10
296.7774464659
 20
357.9603660153
 30
0.0
 11
296.2771846823
 21
357.9603660153
 31
0.0
  0
SPLINE
  5
D9
330
1F
100
AcDbEntity
  8
0
  6
Continuous
 62
     7
370
    15
100
AcDbSpline
210
0.0
220
0.0
230
1.0
 70
     8
 71
     3
 72
    12
 73
     8
 74
     0
 42
0.00000001
 43
0.00000001
 40
0.0
 40
0.0
 40
0.0
 40
0.0
 40
0.5
 40
0.5
 40
0.75
 40
0.75
 40
1.0
 40
1.0
 40
1.0
 40
1.0
 10
416.4109880785118
 20
384.3803671614791
 30
0.0
 10
415.619769119033
 20
383.0387355055368
 30
0.0
 10
415.0220870762684
 20
381.6232366978311
 30
0.0
 10
414.4094763641798
 20
379.3916277809712
 30
0.0
 10
414.2530254645655
 20
378.6253670764307
 30
0.0
 10
414.0456905616165
 20
377.0880731174328
 30
0.0
 10
413.9935174860551
 20
376.3143634866975
 30
0.0
 10
413.9935174848874
 20
375.5355244787261
 30
0.0
  0
SPLINE
  5
DA
330
1F
100
AcDbEntity
  8
0
  6
Continuous
 62
     7
370
    15
100
AcDbSpline
210
0.0
220
0.0
230
1.0
 70
     8
 71
     3
 72
     8
 73
     4
 74
     0
 42
0.00000001
 43
0.00000001
 40
0.0
 40
0.0
 40
0.0
 40
0.0
 40
1.0
 40
1.0
 40
1.0
 40
1.0
 10
413.9950904169828
 20
375.5355244787262
 30
0.0
 10
413.5399778589235
 20
375.5355220948844
 30
0.0
 10
413.085530564907
 20
375.5355197110425
 30
0.0
 10
412.6966194535121
 20
375.5355173272006
 30
0.0
  0
SPLINE
  5
DB
330
1F
100
AcDbEntity
  8
0
  6
Continuous
 62
     7
370
    15
100
AcDbSpline
210
0.0
220
0.0
230
1.0
 70
     8
 71
     3
 72
    10
 73
     6
 74
     0
 42
0.00000001
 43
0.00000001
 40
0.0
 40
0.0
 40
0.0
 40
0.0
 40
0.5
 40
0.5
 40
1.0
 40
1.0
 40
1.0
 40
1.0
 10
412.6966194535121
 20
375.5355173272006
 30
0.0
 10
412.3764049300119
 20
375.5355153644365
 30
0.0
 10
412.1008875298561
 20
375.5355134016723
 30
0.0
 10
411.6933169566524
 20
375.535509476144
 30
0.0
 10
411.5615388454616
 20
375.5355075133799
 30
0.0
 10
411.5146985628597
 20
375.5355055506157
 30
0.0
  0
LINE
  5
DC
330
1F
100
AcDbEntity
  8
0
  6
Continuous
 62
     7
370
    15
100
AcDbLine
 10
459.7774489693
 20
357.9603660153
 30
0.0
 11
459.7774489693
 21
386.7156471359
 31
0.0
  0
SPLINE
  5
DD
330
1F
100
AcDbEntity
  8
0
  6
Continuous
 62
     7
370
    15
100
AcDbSpline
210
0.0
220
0.0
230
1.0
 70
     8
 71
     3
 72
    26
 73
    22
 74
     0
 42
0.00000001
 43
0.00000001
 40
0.0
 40
0.0
 40
0.0
 40
0.0
 40
0.125
 40
0.125
 40
0.2500000000000001
 40
0.2500000000000001
 40
0.3750000000000001
 40
0.3750000000000001
 40
0.5000000000000001
 40
0.5000000000000001
 40
0.6250000000000001
 40
0.6250000000000001
 40
0.7500000000000002
 40
0.7500000000000002
 40
0.8750000000000002
 40
0.8750000000000002
 40
0.9375
 40
0.9375
 40
0.96875
 40
0.96875
 40
1.0
 40
1.0
 40
1.0
 40
1.0
 10
460.2777091495635
 20
357.9603670286126
 30
0.0
 10
460.4418744610406
 20
357.9603670286126
 30
0.0
 10
460.5979158086693
 20
357.9405113253664
 30
0.0
 10
460.8958845522048
 20
357.8686347344461
 30
0.0
 10
461.0363520220723
 20
357.8164043269732
 30
0.0
 10
461.2910295590241
 20
357.6906769513666
 30
0.0
 10
461.407930217655
 20
357.6158955455733
 30
0.0
 10
461.6149762908174
 20
357.4539133958706
 30
0.0
 10
461.7063430035062
 20
357.3662278013531
 30
0.0
 10
461.868592214479
 20
357.1801685483302
 30
0.0
 10
461.9394972220509
 20
357.0813448610525
 30
0.0
 10
462.0591826969019
 20
356.8805065225593
 30
0.0
 10
462.1086292223756
 20
356.7777666877975
 30
0.0
 10
462.1889074994152
 20
356.5693511588379
 30
0.0
 10
462.2197250350544
 20
356.4632277983037
 30
0.0
 10
462.2523613305299
 20
356.3064173310901
 30
0.0
 10
462.2609392418977
 20
356.2542970358258
 30
0.0
 10
462.2702350628849
 20
356.1832925637582
 30
0.0
 10
462.2727310734625
 20
356.1608130616199
 30
0.0
 10
462.2763545738869
 20
356.1254168378609
 30
0.0
 10
462.2774477176108
 20
356.1134177208937
 30
0.0
 10
462.2774477176108
 20
356.1163233545788
 30
0.0
  0
LINE
  5
DE
330
1F
100
AcDbEntity
  8
0
  6
Continuous
 62
     7
370
    15
100
AcDbLine
 10
460.2777107529
 20
357.9603660153
 30
0.0
 11
459.7774489693
 21
357.9603660153
 31
0.0
  0
SPLINE
  5
DF
330
1F
100
AcDbEntity
  8
0
  6
Continuous
 62
     7
370
    15
100
AcDbSpline
210
0.0
220
0.0
230
1.0
 70
     8
 71
     3
 72
    26
 73
    22
 74
     0
 42
0.00000001
 43
0.00000001
 40
0.0
 40
0.0
 40
0.0
 40
0.0
 40
0.1249999999999998
 40
0.1249999999999998
 40
0.2499999999999997
 40
0.2499999999999997
 40
0.3749999999999995
 40
0.3749999999999995
 40
0.4999999999999993
 40
0.4999999999999993
 40
0.6249999999999991
 40
0.6249999999999991
 40
0.749999999999999
 40
0.749999999999999
 40
0.8749999999999989
 40
0.8749999999999989
 40
0.9374999999999988
 40
0.9374999999999988
 40
0.9687499999999993
 40
0.9687499999999993
 40
1.0
 40
1.0
 40
1.0
 40
1.0
 10
315.2774477176108
 20
338.9601055966598
 30
0.0
 10
315.2774477176108
 20
338.7959402851827
 30
0.0
 10
315.2575920143647
 20
338.6398989375539
 30
0.0
 10
315.1857154234443
 20
338.3419301940183
 30
0.0
 10
315.1334850159713
 20
338.201462724151
 30
0.0
 10
315.0077576403648
 20
337.9467851871992
 30
0.0
 10
314.9329762345716
 20
337.8298845285682
 30
0.0
 10
314.7709940848688
 20
337.6228384554059
 30
0.0
 10
314.6833084903513
 20
337.5314717427171
 30
0.0
 10
314.4972492373284
 20
337.3692225317443
 30
0.0
 10
314.3984255500508
 20
337.2983175241724
 30
0.0
 10
314.1975872115576
 20
337.1786320493213
 30
0.0
 10
314.0948473767957
 20
337.1291855238476
 30
0.0
 10
313.8864318478361
 20
337.048907246808
 30
0.0
 10
313.7803084873019
 20
337.0180897111689
 30
0.0
 10
313.6234980200884
 20
336.9854534156933
 30
0.0
 10
313.5713777248239
 20
336.9768755043256
 30
0.0
 10
313.5003732527565
 20
336.9675796833383
 30
0.0
 10
313.4778937506181
 20
336.9650836727608
 30
0.0
 10
313.442497526859
 20
336.9614601723364
 30
0.0
 10
313.430498409892
 20
336.9603670286126
 30
0.0
 10
313.4334040435771
 20
336.9603670286126
 30
0.0
  0
LINE
  5
E0
330
1F
100
AcDbEntity
  8
0
  6
Continuous
 62
     7
370
    15
100
AcDbLine
 10
315.2774467043
 20
338.9601039933
 30
0.0
 11
315.2774467043
 21
339.4603657769
 31
0.0
  0
SPLINE
  5
E1
330
1F
100
AcDbEntity
  8
0
  6
Continuous
 62
     7
370
    15
100
AcDbSpline
210
0.0
220
0.0
230
1.0
 70
     8
 71
     3
 72
     8
 73
     4
 74
     0
 42
0.00000001
 43
0.00000001
 40
0.0004938734801754
 40
0.0004938734801754
 40
0.0004938734801754
 40
0.0004938734801754
 40
0.0005935890152954
 40
0.0005935890152954
 40
0.0005935890152954
 40
0.0005935890152954
 10
309.6693872419142
 20
443.3090948331078
 30
0.0
 10
309.6997497989942
 20
443.2955673611178
 30
0.0
 10
309.7301110867546
 20
443.2820367434476
 30
0.0
 10
309.7604708448632
 20
443.2685031172892
 30
0.0
  0
LWPOLYLINE
  5
E2
330
1F
100
AcDbEntity
  8
0
  6
Continuous
 62
     7
370
    15
100
AcDbPolyline
 90
        9
 70
   128
 43
0.0
 10
450.3548710517
 20
396.5989857214
 10
450.4914327435
 20
396.7841736274
 10
450.6162001662
 20
396.9533707248
 10
450.7275937967
 20
397.1044256585
 10
450.8241831235
 20
397.2354105907
 10
450.9047388009
 20
397.344658454
 10
450.96824755
 20
397.4307778524
 10
451.0138898067
 20
397.4926698255
 10
451.0410844259
 20
397.5295483368
  0
SPLINE
  5
E3
330
1F
100
AcDbEntity
  8
0
  6
Continuous
 62
     7
370
    15
100
AcDbSpline
210
0.0
220
0.0
230
1.0
 70
     8
 71
     3
 72
    22
 73
    18
 74
     0
 42
0.00000001
 43
0.00000001
 40
0.0
 40
0.0
 40
0.0
 40
0.0
 40
0.125
 40
0.125
 40
0.25
 40
0.25
 40
0.375
 40
0.375
 40
0.5
 40
0.5
 40
0.625
 40
0.625
 40
0.75
 40
0.75
 40
0.875
 40
0.875
 40
1.0
 40
1.0
 40
1.0
 40
1.0
 10
423.3301017656124
 20
407.5427547756432
 30
0.0
 10
423.1299497848314
 20
407.6308074146535
 30
0.0
 10
422.9202669739529
 20
407.6923298687946
 30
0.0
 10
422.4942475770321
 20
407.760558062767
 30
0.0
 10
422.2734312370118
 20
407.7673286173855
 30
0.0
 10
421.8436582720017
 20
407.7245969570453
 30
0.0
 10
421.630601293177
 20
407.675199089136
 30
0.0
 10
421.2237397358017
 20
407.5222640625747
 30
0.0
 10
421.0334605165629
 20
407.420774879449
 30
0.0
 10
420.6795310397667
 20
407.1671332370978
 30
0.0
 10
420.5207685885001
 20
407.0178527553748
 30
0.0
 10
420.2473312413856
 20
406.6833306812259
 30
0.0
 10
420.131319239675
 20
406.4953356354864
 30
0.0
 10
419.9548134762961
 20
406.1019681250027
 30
0.0
 10
419.891632259767
 20
405.8910276521846
 30
0.0
 10
419.8224620672138
 20
405.4635895684315
 30
0.0
 10
419.8155583804895
 20
405.2479285978096
 30
0.0
 10
419.8368719486141
 20
405.0302881073874
 30
0.0
  0
LWPOLYLINE
  5
E4
330
1F
100
AcDbEntity
  8
0
  6
Continuous
 62
     7
370
    15
100
AcDbPolyline
 90
        9
 70
   128
 43
0.0
 10
419.8368719689
 20
405.0302881049
 10
419.3842566482
 20
404.9859627383
 10
418.9467436544
 20
404.9431181746
 10
418.5389361255
 20
404.9031811999
 10
418.1744425468
 20
404.8674854683
 10
417.865422266
 20
404.8372230725
 10
417.6221906118
 20
404.8134035664
 10
417.4528649918
 20
404.7968222993
 10
417.3630966715
 20
404.7880306142
  0
LWPOLYLINE
  5
E5
330
1F
100
AcDbEntity
  8
0
  6
Continuous
 62
     7
370
    15
100
AcDbPolyline
 90
        9
 70
   128
 43
0.0
 10
423.3301027588
 20
407.5427551987
 10
423.5193028025
 20
407.9728241311
 10
423.7017600707
 20
408.387566288
 10
423.8709702067
 20
408.7722006487
 10
424.0209056906
 20
409.1130190762
 10
424.1462244563
 20
409.3978761928
 10
424.2424561552
 20
409.6166196512
 10
424.3061697952
 20
409.7614533501
 10
424.3351003997
 20
409.8272158997
  0
LWPOLYLINE
  5
E6
330
1F
100
AcDbEntity
  8
0
  6
Continuous
 62
     7
370
    15
100
AcDbPolyline
 90
        9
 70
   128
 43
0.0
 10
332.2204395108
 20
432.0928345667
 10
332.2493775658
 20
432.158633438
 10
332.3130837552
 20
432.3034960078
 10
332.4092931024
 20
432.522261818
 10
332.5345746152
 20
432.8071338358
 10
332.6844653956
 20
433.1479615765
 10
332.8536196522
 20
433.5325987311
 10
333.0360173158
 20
433.947340888
 10
333.2251503043
 20
434.3774079578
  0
SPLINE
  5
E7
330
1F
100
AcDbEntity
  8
0
  6
Continuous
 62
     7
370
    15
100
AcDbSpline
210
0.0
220
0.0
230
1.0
 70
     8
 71
     3
 72
    22
 73
    18
 74
     0
 42
0.00000001
 43
0.00000001
 40
0.0
 40
0.0
 40
0.0
 40
0.0
 40
0.125
 40
0.125
 40
0.25
 40
0.25
 40
0.375
 40
0.375
 40
0.5
 40
0.5
 40
0.625
 40
0.625
 40
0.75
 40
0.75
 40
0.875
 40
0.875
 40
1.0
 40
1.0
 40
1.0
 40
1.0
 10
333.2251516153251
 20
434.3774082733392
 30
0.0
 10
333.4253028611515
 20
434.289385638138
 30
0.0
 10
333.6349764515649
 20
434.2278920084436
 30
0.0
 10
334.0609796091564
 20
434.1597133908756
 30
0.0
 10
334.2817844575991
 20
434.152965649244
 30
0.0
 10
334.7115264065504
 20
434.1957354929733
 30
0.0
 10
334.9245709954351
 20
434.2451508218704
 30
0.0
 10
335.3313916058938
 20
434.3981099174779
 30
0.0
 10
335.5216519815785
 20
434.4996079368017
 30
0.0
 10
335.8755454821504
 20
434.7532637994037
 30
0.0
 10
336.0342849984571
 20
434.902543621082
 30
0.0
 10
336.3076865006109
 20
435.2370643298852
 30
0.0
 10
336.4236807244193
 20
435.4250541919985
 30
0.0
 10
336.6001573580724
 20
435.8184068365965
 30
0.0
 10
336.6633267247851
 20
436.0293381402039
 30
0.0
 10
336.7324799460576
 20
436.4567526326562
 30
0.0
 10
336.7393788472357
 20
436.6724012430585
 30
0.0
 10
336.7180643410144
 20
436.8900287924511
 30
0.0
  0
LWPOLYLINE
  5
E8
330
1F
100
AcDbEntity
  8
0
  6
Continuous
 62
     7
370
    15
100
AcDbPolyline
 90
        9
 70
   128
 43
0.0
 10
339.1918360166
 20
437.1323104249
 10
339.1020676963
 20
437.1235187398
 10
338.9327420763
 20
437.1069356101
 10
338.6895104222
 20
437.0831123786
 10
338.3804938666
 20
437.0528481202
 10
338.0159965627
 20
437.0171486633
 10
337.608192759
 20
436.9772079634
 10
337.1706797652
 20
436.9343578117
 10
336.7180644445
 20
436.8900287198
  0
SPLINE
  5
E9
330
1F
100
AcDbEntity
  8
0
  6
Continuous
 62
     7
370
    15
100
AcDbSpline
210
0.0
220
0.0
230
1.0
 70
     8
 71
     3
 72
     8
 73
     4
 74
     0
 42
0.00000001
 43
0.00000001
 40
0.0
 40
0.0
 40
0.0
 40
0.0
 40
1.0
 40
1.0
 40
1.0
 40
1.0
 10
339.9112724874178
 20
379.311390948394
 30
0.0
 10
329.8818715427024
 20
381.870361450914
 30
0.0
 10
319.8557046779753
 20
384.4419719955019
 30
0.0
 10
309.8282214280446
 20
387.0084375948783
 30
0.0
  0
SPLINE
  5
EA
330
1F
100
AcDbEntity
  8
0
  6
Continuous
 62
     7
370
    15
100
AcDbSpline
210
0.0
220
0.0
230
1.0
 70
     8
 71
     3
 72
     8
 73
     4
 74
     0
 42
0.00000001
 43
0.00000001
 40
0.0
 40
0.0
 40
0.0
 40
0.0
 40
1.0
 40
1.0
 40
1.0
 40
1.0
 10
310.1583466448952
 20
388.2982756831632
 30
0.0
 10
310.1715849449349
 20
388.2949744507723
 30
0.0
 10
310.1848187282805
 20
388.2916586132894
 30
0.0
 10
310.1980479971417
 20
388.288328178316
 30
0.0
  0
SPLINE
  5
EB
330
1F
100
AcDbEntity
  8
0
  6
Continuous
 62
     7
370
    15
100
AcDbSpline
210
0.0
220
0.0
230
1.0
 70
     8
 71
     3
 72
     8
 73
     4
 74
     0
 42
0.00000001
 43
0.00000001
 40
0.0
 40
0.0
 40
0.0
 40
0.0
 40
1.0
 40
1.0
 40
1.0
 40
1.0
 10
417.6189016815907
 20
386.9603670286126
 30
0.0
 10
417.2990675779114
 20
386.0615999810403
 30
0.0
 10
416.896764245254
 20
385.20139581176
 30
0.0
 10
416.4121617402282
 20
384.3796750017512
 30
0.0
  0
SPLINE
  5
EC
330
1F
100
AcDbEntity
  8
0
  6
Continuous
 62
     7
370
    15
100
AcDbSpline
210
0.0
220
0.0
230
1.0
 70
     8
 71
     3
 72
    11
 73
     7
 74
     0
 42
0.00000001
 43
0.00000001
 40
0.0
 40
0.0
 40
0.0
 40
0.0
 40
0.0008273300030121
 40
0.0008273300030121
 40
0.0008273300030121
 40
0.0088551791622042
 40
0.0088551791622042
 40
0.0088551791622042
 40
0.0088551791622042
 10
299.8649466850654
 20
451.6463873618039
 30
0.0
 10
300.0868094745838
 20
451.4825897029115
 30
0.0
 10
300.3086746840345
 20
451.3187953217449
 30
0.0
 10
300.5305424296513
 20
451.1550043760657
 30
0.0
 10
302.6833965039608
 20
449.5656881653657
 30
0.0
 10
304.8364846993305
 20
447.976688973427
 30
0.0
 10
306.9899427973231
 20
446.3881912859703
 30
0.0
  0
SPLINE
  5
ED
330
1F
100
AcDbEntity
  8
0
  6
Continuous
 62
     7
370
    15
100
AcDbSpline
210
0.0
220
0.0
230
1.0
 70
     8
 71
     3
 72
     8
 73
     4
 74
     0
 42
0.00000001
 43
0.00000001
 40
0.0
 40
0.0
 40
0.0
 40
0.0
 40
1.0
 40
1.0
 40
1.0
 40
1.0
 10
306.2005463152894
 20
445.3180403753424
 30
0.0
 10
306.1759461335579
 20
445.336004179009
 30
0.0
 10
306.1513901483609
 20
445.3540299662801
 30
0.0
 10
306.1268783555271
 20
445.3721177317016
 30
0.0
  0
SPLINE
  5
EE
330
1F
100
AcDbEntity
  8
0
  6
Continuous
 62
     7
370
    15
100
AcDbSpline
210
0.0
220
0.0
230
1.0
 70
    24
 71
     3
 72
    20
 73
    16
 74
     0
 42
0.00000001
 43
0.00000001
 40
0.0
 40
0.0
 40
0.0
 40
0.0
 40
0.1249999999999989
 40
0.1249999999999989
 40
0.2499999999999978
 40
0.2499999999999978
 40
0.3749999999999968
 40
0.3749999999999968
 40
0.4999999999999957
 40
0.4999999999999957
 40
0.6249999999999946
 40
0.6249999999999946
 40
0.7499999999999936
 40
0.7499999999999936
 40
1.0
 40
1.0
 40
1.0
 40
1.0
 10
296.6599030919327
 20
450.9228150002675
 30
0.0
 10
296.6847538268199
 20
450.9284253155115
 30
0.0
 10
296.7336793996654
 20
450.9394707790939
 30
0.0
 10
296.8736166427548
 20
450.9710630861895
 30
0.0
 10
296.965493217543
 20
450.9918051910181
 30
0.0
 10
297.1777084416779
 20
451.0397150139016
 30
0.0
 10
297.3003435529596
 20
451.0674011824353
 30
0.0
 10
297.5653564761625
 20
451.1272306421938
 30
0.0
 10
297.7071170378035
 20
451.1592345826639
 30
0.0
 10
298.0063714154438
 20
451.2267944115514
 30
0.0
 10
298.1652480723922
 20
451.2626624908834
 30
0.0
 10
298.4894567590605
 20
451.3358560179684
 30
0.0
 10
298.6549301933175
 20
451.3732133892856
 30
0.0
 10
299.1604428085649
 20
451.4873381885814
 30
0.0
 10
299.5123797802722
 20
451.5667916681769
 30
0.0
 10
299.8649466850654
 20
451.6463873618039
 30
0.0
  0
SPLINE
  5
EF
330
1F
100
AcDbEntity
  8
0
  6
Continuous
 62
     7
370
    15
100
AcDbSpline
210
0.0
220
0.0
230
1.0
 70
     8
 71
     3
 72
     8
 73
     4
 74
     0
 42
0.00000001
 43
0.00000001
 40
0.0
 40
0.0
 40
0.0
 40
0.0
 40
1.0
 40
1.0
 40
1.0
 40
1.0
 10
446.2683514553855
 20
397.4421309450275
 30
0.0
 10
438.6263311986767
 20
400.8182324599927
 30
0.0
 10
430.9773439053824
 20
404.1785120190596
 30
0.0
 10
423.3301017656124
 20
407.5427547756432
 30
0.0
  0
SPLINE
  5
F0
330
1F
100
AcDbEntity
  8
0
  6
Continuous
 62
     7
370
    15
100
AcDbSpline
210
0.0
220
0.0
230
1.0
 70
     8
 71
     3
 72
     8
 73
     4
 74
     0
 42
0.00000001
 43
0.00000001
 40
0.0
 40
0.0
 40
0.0
 40
0.0
 40
1.0
 40
1.0
 40
1.0
 40
1.0
 10
310.2920394060801
 20
444.4722645471264
 30
0.0
 10
317.9324583019352
 20
441.0983348141289
 30
0.0
 10
325.5796353562145
 20
437.7397580095206
 30
0.0
 10
333.2251516153251
 20
434.3774082733391
 30
0.0
  0
SPLINE
  5
F1
330
1F
100
AcDbEntity
  8
0
  6
Continuous
 62
     7
370
    15
100
AcDbSpline
210
0.0
220
0.0
230
1.0
 70
     8
 71
     3
 72
    11
 73
     7
 74
     0
 42
0.00000001
 43
0.00000001
 40
0.0
 40
0.0
 40
0.0
 40
0.0
 40
0.00570903282053
 40
0.00570903282053
 40
0.00570903282053
 40
0.0114180653335637
 40
0.0114180653335637
 40
0.0114180653335637
 40
0.0114180653335637
 10
458.7537018749688
 20
388.7499581626886
 30
0.0
 10
457.2226073101163
 20
389.8800909300708
 30
0.0
 10
455.691423442773
 20
391.0101027302447
 30
0.0
 10
454.1601146033017
 20
392.1399451425258
 30
0.0
 10
452.628805850576
 20
393.2697874908038
 30
0.0
 10
451.0973724124211
 20
394.3994608861713
 30
0.0
 10
449.5657651771764
 20
395.5288985803726
 30
0.0
  0
LWPOLYLINE
  5
F2
330
1F
100
AcDbEntity
  8
0
  6
Continuous
 62
     7
370
    15
100
AcDbPolyline
 90
        9
 70
   128
 43
0.0
 10
449.5657651596
 20
395.5288979458
 10
449.6696858577
 20
395.6698200898
 10
449.7730924658
 20
395.8100493299
 10
449.8754783444
 20
395.9488983499
 10
449.9763517551
 20
396.0856835591
 10
450.0751986079
 20
396.2197344052
 10
450.1715495161
 20
396.3503933745
 10
450.2649276428
 20
396.4770178544
 10
450.3548710517
 20
396.5989857214
  0
ARC
  5
F3
330
1F
100
AcDbEntity
  8
0
  6
Continuous
 62
     7
370
    15
100
AcDbCircle
 10
378.2774477176
 20
400.9603670286
 30
0.0
 40
41.75823272122483
100
AcDbArc
 50
340.4114543577
 51
5.5931503462
  0
ARC
  5
F4
330
1F
100
AcDbEntity
  8
0
  6
Continuous
 62
     7
370
    15
100
AcDbCircle
 10
378.2774477176
 20
440.9603670286
 30
0.0
 40
41.75823272122135
100
AcDbArc
 50
158.1292107902
 51
185.5937254593
  0
LINE
  5
F5
330
1F
100
AcDbEntity
  8
0
  6
Continuous
 62
     7
370
    15
100
AcDbLine
 10
304.099318283
 20
388.8056728291
 30
0.0
 11
304.1031702332
 21
388.8059708523
 31
0.0
  0
SPLINE
  5
F6
330
1F
100
AcDbEntity
  8
0
  6
Continuous
 62
     7
370
    15
100
AcDbSpline
210
0.0
220
0.0
230
1.0
 70
     8
 71
     3
 72
     8
 73
     4
 74
     0
 42
0.00000001
 43
0.00000001
 40
0.0
 40
0.0
 40
0.0
 40
0.0
 40
0.0051279965141992
 40
0.0051279965141992
 40
0.0051279965141992
 40
0.0051279965141992
 10
304.2013058566449
 20
387.5038115114327
 30
0.0
 10
302.4968077047694
 20
387.3753493674552
 30
0.0
 10
300.7923994601321
 20
387.2456914248969
 30
0.0
 10
299.0880586639828
 20
387.1151582001473
 30
0.0
  0
SPLINE
  5
F7
330
1F
100
AcDbEntity
  8
0
  6
Continuous
 62
     7
370
    15
100
AcDbSpline
210
0.0
220
0.0
230
1.0
 70
     8
 71
     3
 72
    10
 73
     6
 74
     0
 42
0.00000001
 43
0.00000001
 40
0.0
 40
0.0
 40
0.0
 40
0.0
 40
0.5
 40
0.5
 40
1.0
 40
1.0
 40
1.0
 40
1.0
 10
309.8282214280446
 20
387.0084375948783
 30
0.0
 10
308.9039594514119
 20
387.2449961119774
 30
0.0
 10
307.9727969300409
 20
387.4031718532758
 30
0.0
 10
306.0971701469032
 20
387.5684298534387
 30
0.0
 10
305.152706163087
 20
387.5755152695224
 30
0.0
 10
304.2013058566449
 20
387.5038115114327
 30
0.0
  0
SPLINE
  5
F8
330
1F
100
AcDbEntity
  8
0
  6
Continuous
 62
     7
370
    15
100
AcDbSpline
210
0.0
220
0.0
230
1.0
 70
     8
 71
     3
 72
     8
 73
     4
 74
     0
 42
0.00000001
 43
0.00000001
 40
0.0
 40
0.0
 40
0.0
 40
0.0
 40
1.0
 40
1.0
 40
1.0
 40
1.0
 10
306.9899427973231
 20
446.3881912859703
 30
0.0
 10
308.020232278979
 20
445.628198574458
 30
0.0
 10
309.1208653212029
 20
444.9894428748261
 30
0.0
 10
310.2920394060801
 20
444.4722645471264
 30
0.0
  0
SPLINE
  5
F9
330
1F
100
AcDbEntity
  8
0
  6
Continuous
 62
     7
370
    15
100
AcDbSpline
210
0.0
220
0.0
230
1.0
 70
     8
 71
     3
 72
     8
 73
     4
 74
     0
 42
0.00000001
 43
0.00000001
 40
0.0
 40
0.0
 40
0.0
 40
0.0
 40
1.0
 40
1.0
 40
1.0
 40
1.0
 10
449.5657651771764
 20
395.5288985803726
 30
0.0
 10
448.5368382596071
 20
396.2876497918709
 30
0.0
 10
447.4377652754907
 20
396.9255058070329
 30
0.0
 10
446.2683514553855
 20
397.4421309450275
 30
0.0
  0
ARC
  5
FA
330
1F
100
AcDbEntity
  8
0
  6
Continuous
 62
     7
370
    15
100
AcDbCircle
 10
310.2774477176
 20
352.9603670286
 30
0.0
 40
5.0
100
AcDbArc
 50
0.0
 51
90.0
  0
LINE
  5
FB
330
1F
100
AcDbEntity
  8
0
  6
Continuous
 62
     7
370
    15
100
AcDbLine
 10
310.2774440221
 20
357.9603660153
 30
0.0
 11
296.7774464659
 21
357.9603660153
 31
0.0
  0
LINE
  5
FC
330
1F
100
AcDbEntity
  8
0
  6
Continuous
 62
     7
370
    15
100
AcDbLine
 10
315.2774467043
 20
339.4603657769
 30
0.0
 11
315.2774467043
 21
352.9603633331
 31
0.0
  0
LINE
  5
FD
330
1F
100
AcDbEntity
  8
0
  6
Continuous
 62
     7
370
    15
100
AcDbLine
 10
459.7774489693
 20
357.9603660153
 30
0.0
 11
446.2774514131
 21
357.9603660153
 31
0.0
  0
ARC
  5
FE
330
1F
100
AcDbEntity
  8
0
  6
Continuous
 62
     7
370
    15
100
AcDbCircle
 10
446.2774477176
 20
352.9603670286
 30
0.0
 40
5.0
100
AcDbArc
 50
90.0
 51
180.0
  0
LINE
  5
FF
330
1F
100
AcDbEntity
  8
0
  6
Continuous
 62
     7
370
    15
100
AcDbLine
 10
441.2774487309
 20
352.9603633331
 30
0.0
 11
441.2774487309
 21
339.4603657769
 31
0.0
  0
LINE
  5
100
330
1F
100
AcDbEntity
  8
0
  6
Continuous
 62
     7
370
    15
100
AcDbLine
 10
342.6100208334
 20
461.2965363311
 30
0.0
 11
299.8649447135
 21
451.6463878797
 31
0.0
  0
LINE
  5
101
330
1F
100
AcDbEntity
  8
0
  6
Continuous
 62
     7
370
    15
100
AcDbLine
 10
443.2774304323
 20
336.9603681611
 30
0.0
 11
442.9251744322
 21
336.9916382479
 31
0.0
  0
LWPOLYLINE
  5
102
330
1F
100
AcDbEntity
  8
0
  6
Continuous
 62
     7
370
    15
100
AcDbPolyline
 90
        3
 70
   128
 43
0.0
 10
441.3681148462
 20
338.3650186705
 10
441.3158788256
 20
338.5701853084
 10
441.2774487309
 20
338.9603647636
  0
LWPOLYLINE
  5
103
330
1F
100
AcDbEntity
  8
0
  6
Continuous
 62
     7
370
    15
100
AcDbPolyline
 90
        3
 70
   128
 43
0.0
 10
295.6820993595
 20
357.8696999
 10
295.8872659974
 20
357.9219359206
 10
296.2774454526
 20
357.9603660153
  0
LINE
  5
104
330
1F
100
AcDbEntity
  8
0
  6
Continuous
 62
     7
370
    15
100
AcDbLine
 10
296.9495474271
 20
450.9882054525
 30
0.0
 11
296.3095947079
 21
451.4605201082
 31
0.0
  0
LINE
  5
105
330
1F
100
AcDbEntity
  8
0
  6
Continuous
 62
     8
370
    15
100
AcDbLine
 10
382.2774479076
 20
517.5677317428
 30
0.0
 11
374.2774475276
 21
517.5677317428
 31
0.0
  0
LINE
  5
106
330
1F
100
AcDbEntity
  8
0
  6
Continuous
 62
     8
370
    15
100
AcDbLine
 10
382.1411509443
 20
518.6030048179
 30
0.0
 11
374.4137444909
 21
518.6030048179
 31
0.0
  0
LINE
  5
107
330
1F
100
AcDbEntity
  8
0
  6
Continuous
 62
     8
370
    15
100
AcDbLine
 10
381.9137443233
 20
519.4517004537
 30
0.0
 11
374.6411511119
 21
519.4517004537
 31
0.0
  0
LINE
  5
108
330
1F
100
AcDbEntity
  8
0
  6
Continuous
 62
     8
370
    15
100
AcDbLine
 10
381.7774478256
 20
520.4869735288
 30
0.0
 11
374.7774476096
 21
520.4869735288
 31
0.0
  0
SPLINE
  5
109
330
1F
100
AcDbEntity
  8
0
  6
Continuous
 62
     8
370
    15
100
AcDbSpline
210
0.0
220
0.0
230
1.0
 70
     8
 71
     3
 72
     9
 73
     5
 74
     0
 42
0.00000001
 43
0.00000001
 40
0.0
 40
0.0
 40
0.0
 40
0.0
 40
0.4984152384560126
 40
1.0
 40
1.0
 40
1.0
 40
1.0
 10
402.2606654934324
 20
463.4604233550018
 30
0.0
 10
402.1931635280745
 20
463.4573416243479
 30
0.0
 10
402.0577303387385
 20
463.4511585656929
 30
0.0
 10
401.1038605015133
 20
463.4096108316659
 30
0.0
 10
400.6254139266647
 20
463.3887711214012
 30
0.0
  0
LINE
  5
10A
330
1F
100
AcDbEntity
  8
0
  6
Continuous
 62
     8
370
    15
100
AcDbLine
 10
404.6327869318
 20
342.9603654193
 30
0.0
 11
353.3144134007
 21
342.9603654193
 31
0.0
  0
LINE
  5
10B
330
1F
100
AcDbEntity
  8
0
  6
Continuous
 62
     8
370
    15
100
AcDbLine
 10
411.514700102
 20
349.960364704
 30
0.0
 11
411.514700102
 21
375.5355070578
 31
0.0
  0
LINE
  5
10C
330
1F
100
AcDbEntity
  8
0
  6
Continuous
 62
     8
370
    15
100
AcDbLine
 10
345.0401953332
 20
375.9238052415
 30
0.0
 11
345.0401953332
 21
349.960364704
 31
0.0
  0
SPLINE
  5
10D
330
1F
100
AcDbEntity
  8
0
  6
Continuous
 62
     8
370
    15
100
AcDbSpline
210
0.0
220
0.0
230
1.0
 70
    24
 71
     3
 72
     8
 73
     4
 74
     0
 42
0.00000001
 43
0.00000001
 40
0.0
 40
0.0
 40
0.0
 40
0.0
 40
1.0
 40
1.0
 40
1.0
 40
1.0
 10
359.2787100357781
 20
468.6053987833431
 30
0.0
 10
359.2787100357781
 20
468.6053987833431
 30
0.0
 10
359.7158907842074
 20
468.6053987833431
 30
0.0
 10
360.5610061789848
 20
468.6053987833431
 30
0.0
  0
SPLINE
  5
10E
330
1F
100
AcDbEntity
  8
0
  6
Continuous
 62
     8
370
    15
100
AcDbSpline
210
0.0
220
0.0
230
1.0
 70
     8
 71
     3
 72
    23
 73
    19
 74
     0
 42
0.00000001
 43
0.00000001
 40
0.0
 40
0.0
 40
0.0
 40
0.0
 40
0.0624992708062619
 40
0.1249987097705234
 40
0.187498296973268
 40
0.2499980142474748
 40
0.3124978450535539
 40
0.3749977743542536
 40
0.4374977884895399
 40
0.4999978750514628
 40
0.5624980227589941
 40
0.6249982213328553
 40
0.6874984613703303
 40
0.7499987342200612
 40
0.8124990318568417
 40
0.8749993467563947
 40
0.9374996717701467
 40
1.0
 40
1.0
 40
1.0
 40
1.0
 10
395.9930385731473
 20
468.5782131616117
 30
0.0
 10
396.0449827969131
 20
468.5792345459628
 30
0.0
 10
396.1488713842037
 20
468.5812773174133
 30
0.0
 10
396.292631339953
 20
468.5840943159056
 30
0.0
 10
396.4274549170648
 20
468.5867303582702
 30
0.0
 10
396.5524095411502
 20
468.589167680242
 30
0.0
 10
396.6676594412905
 20
468.591411018132
 30
0.0
 10
396.7730815324533
 20
468.5934590816806
 30
0.0
 10
396.8686363648459
 20
468.5953121984286
 30
0.0
 10
396.9542686265924
 20
468.5969702626123
 30
0.0
 10
397.0299343456574
 20
468.5984332944121
 30
0.0
 10
397.0955917273048
 20
468.5997012533615
 30
0.0
 10
397.1512107344831
 20
468.600774224831
 30
0.0
 10
397.1967440455413
 20
468.6016518601246
 30
0.0
 10
397.2322337442886
 20
468.6023354291288
 30
0.0
 10
397.2574136875523
 20
468.6028201692088
 30
0.0
 10
397.2731934155452
 20
468.6031238366483
 30
0.0
 10
397.2751446028342
 20
468.6031613800275
 30
0.0
 10
397.2761201965037
 20
468.6031801517177
 30
0.0
  0
LINE
  5
10F
330
1F
100
AcDbEntity
  8
0
  6
Continuous
 62
     8
370
    15
100
AcDbLine
 10
359.2774483286
 20
468.6924184905
 30
0.0
 11
360.5598292224
 21
468.6924184905
 31
0.0
  0
LINE
  5
110
330
1F
100
AcDbEntity
  8
0
  6
Continuous
 62
     8
370
    15
100
AcDbLine
 10
395.9950662128
 20
468.6924184905
 30
0.0
 11
397.2774471067
 21
468.6924184905
 31
0.0
  0
LINE
  5
111
330
1F
100
AcDbEntity
  8
0
  6
Continuous
 62
     8
370
    15
100
AcDbLine
 10
422.6327880196
 20
339.4603657769
 30
0.0
 11
441.2774487309
 21
339.4603657769
 31
0.0
  0
LINE
  5
112
330
1F
100
AcDbEntity
  8
0
  6
Continuous
 62
     8
370
    15
100
AcDbLine
 10
315.2774467043
 20
339.4603657769
 30
0.0
 11
332.5298025183
 21
339.4603657769
 31
0.0
  0
LINE
  5
113
330
1F
100
AcDbEntity
  8
0
  6
Continuous
 62
     8
370
    15
100
AcDbLine
 10
413.995091515
 20
375.5355256843
 30
0.0
 11
413.995091515
 21
349.960364704
 31
0.0
  0
LINE
  5
114
330
1F
100
AcDbEntity
  8
0
  6
Continuous
 62
     8
370
    15
100
AcDbLine
 10
342.5598039202
 20
349.960364704
 30
0.0
 11
342.5598039202
 21
375.9238052415
 31
0.0
  0
LINE
  5
115
330
1F
100
AcDbEntity
  8
1
100
AcDbLine
 10
326.1932486321
 20
339.4603670286
 30
0.0
 11
435.2436489986
 21
339.4603670286
 31
0.0
  0
LINE
  5
116
330
1F
100
AcDbEntity
  8
1
100
AcDbLine
 10
413.995090417
 20
355.9073596114
 30
0.0
 11
413.995090417
 21
336.9603670286
 31
0.0
  0
LINE
  5
117
330
1F
100
AcDbEntity
  8
1
100
AcDbLine
 10
411.5144326469
 20
354.8625720824
 30
0.0
 11
411.5144326469
 21
336.9603670286
 31
0.0
  0
LINE
  5
118
330
1F
100
AcDbEntity
  8
1
100
AcDbLine
 10
345.0402484955
 20
363.3515169221
 30
0.0
 11
345.0402484955
 21
336.9603670286
 31
0.0
  0
LINE
  5
119
330
1F
100
AcDbEntity
  8
1
100
AcDbLine
 10
342.5598050182
 20
358.2581466852
 30
0.0
 11
342.5598050182
 21
336.9603670286
 31
0.0
  0
LINE
  5
11A
330
1F
100
AcDbEntity
  8
1
100
AcDbLine
 10
339.2774477176
 20
320.9603670286
 30
0.0
 11
417.2774477176
 21
320.9603670286
 31
0.0
  0
LINE
  5
11B
330
1F
100
AcDbEntity
  8
1
100
AcDbLine
 10
417.2774477176
 20
320.9603670286
 30
0.0
 11
420.2774477176
 21
323.9603670286
 31
0.0
  0
LINE
  5
11C
330
1F
100
AcDbEntity
  8
1
100
AcDbLine
 10
339.2774477176
 20
320.9603670286
 30
0.0
 11
336.2774477176
 21
323.9603670286
 31
0.0
  0
LINE
  5
11D
330
1F
100
AcDbEntity
  8
0
  6
Continuous
 62
     7
370
    15
100
AcDbLine
 10
622.6214424578
 20
491.9603693532
 30
0.0
 11
622.6214424578
 21
517.5677317428
 31
0.0
  0
LINE
  5
11E
330
1F
100
AcDbEntity
  8
0
  6
Continuous
 62
     7
370
    15
100
AcDbLine
 10
614.6214420778
 20
517.5677317428
 30
0.0
 11
614.6214420778
 21
491.9603693532
 31
0.0
  0
ARC
  5
11F
330
1F
100
AcDbEntity
  8
0
  6
Continuous
 62
     7
370
    15
100
AcDbCircle
 10
618.6214422678
 20
517.5677316345
 30
0.0
 40
4.000000000000122
100
AcDbArc
 50
165.0
 51
180.0
  0
ARC
  5
120
330
1F
100
AcDbEntity
  8
0
  6
Continuous
 62
     7
370
    15
100
AcDbCircle
 10
618.6214422678
 20
517.5677316345
 30
0.0
 40
4.000000000000012
100
AcDbArc
 50
0.0
 51
15.0
  0
LINE
  5
121
330
1F
100
AcDbEntity
  8
0
  6
Continuous
 62
     7
370
    15
100
AcDbLine
 10
622.4851454945
 20
518.6030048179
 30
0.0
 11
622.2577388735
 21
519.4517004537
 31
0.0
  0
LINE
  5
122
330
1F
100
AcDbEntity
  8
0
  6
Continuous
 62
     7
370
    15
100
AcDbLine
 10
614.9851456621
 20
519.4517004537
 30
0.0
 11
614.7577390411
 21
518.6030048179
 31
0.0
  0
ARC
  5
123
330
1F
100
AcDbEntity
  8
0
  6
Continuous
 62
     7
370
    15
100
AcDbCircle
 10
626.1214422678
 20
520.486977019
 30
0.0
 40
4.000000000000042
100
AcDbArc
 50
180.0
 51
195.0
  0
ARC
  5
124
330
1F
100
AcDbEntity
  8
0
  6
Continuous
 62
     7
370
    15
100
AcDbCircle
 10
611.1214422678
 20
520.486977019
 30
0.0
 40
4.000000000000042
100
AcDbArc
 50
345.0
 51
0.0
  0
LINE
  5
125
330
1F
100
AcDbEntity
  8
0
  6
Continuous
 62
     7
370
    15
100
AcDbLine
 10
622.1214423758
 20
520.4869735288
 30
0.0
 11
622.1214423758
 21
523.4603661345
 31
0.0
  0
LINE
  5
126
330
1F
100
AcDbEntity
  8
0
  6
Continuous
 62
     7
370
    15
100
AcDbLine
 10
615.1214421598
 20
523.4603661345
 30
0.0
 11
615.1214421598
 21
520.4869735288
 31
0.0
  0
LINE
  5
127
330
1F
100
AcDbEntity
  8
0
  6
Continuous
 62
     7
370
    15
100
AcDbLine
 10
622.1214423758
 20
541.4103645133
 30
0.0
 11
620.5714422149
 21
542.9603683995
 31
0.0
  0
LINE
  5
128
330
1F
100
AcDbEntity
  8
0
  6
Continuous
 62
     7
370
    15
100
AcDbLine
 10
616.6714423207
 20
542.9603683995
 30
0.0
 11
615.1214421598
 21
541.4103645133
 31
0.0
  0
LINE
  5
129
330
1F
100
AcDbEntity
  8
0
  6
Continuous
 62
     7
370
    15
100
AcDbLine
 10
622.1214423758
 20
539.4103679108
 30
0.0
 11
622.1214423758
 21
541.4103645133
 31
0.0
  0
LINE
  5
12A
330
1F
100
AcDbEntity
  8
0
  6
Continuous
 62
     7
370
    15
100
AcDbLine
 10
615.1214421598
 20
541.4103645133
 30
0.0
 11
615.1214421598
 21
539.4103679108
 31
0.0
  0
LINE
  5
12B
330
1F
100
AcDbEntity
  8
0
  6
Continuous
 62
     7
370
    15
100
AcDbLine
 10
622.1214423758
 20
526.4603647636
 30
0.0
 11
622.1214423758
 21
536.3603684353
 31
0.0
  0
LINE
  5
12C
330
1F
100
AcDbEntity
  8
0
  6
Continuous
 62
     7
370
    15
100
AcDbLine
 10
615.1214421598
 20
536.3603684353
 30
0.0
 11
615.1214421598
 21
526.4603647636
 31
0.0
  0
LINE
  5
12D
330
1F
100
AcDbEntity
  8
0
  6
Continuous
 62
     7
370
    15
100
AcDbLine
 10
621.6214422939
 20
523.4603661345
 30
0.0
 11
621.6214422939
 21
526.4603647636
 31
0.0
  0
LINE
  5
12E
330
1F
100
AcDbEntity
  8
0
  6
Continuous
 62
     7
370
    15
100
AcDbLine
 10
615.6214422417
 20
526.4603647636
 30
0.0
 11
615.6214422417
 21
523.4603661345
 31
0.0
  0
LINE
  5
12F
330
1F
100
AcDbEntity
  8
0
  6
Continuous
 62
     7
370
    15
100
AcDbLine
 10
620.5714422149
 20
536.3603684353
 30
0.0
 11
620.5714422149
 21
539.4103679108
 31
0.0
  0
LINE
  5
130
330
1F
100
AcDbEntity
  8
0
  6
Continuous
 62
     7
370
    15
100
AcDbLine
 10
616.6714423207
 20
539.4103679108
 30
0.0
 11
616.6714423207
 21
536.3603684353
 31
0.0
  0
LINE
  5
131
330
1F
100
AcDbEntity
  8
0
  6
Continuous
 62
     7
370
    15
100
AcDbLine
 10
633.6014427116
 20
484.2106628465
 30
0.0
 11
633.6014427116
 21
491.9603693532
 31
0.0
  0
LINE
  5
132
330
1F
100
AcDbEntity
  8
0
  6
Continuous
 62
     7
370
    15
100
AcDbLine
 10
603.6414418241
 20
491.9603693532
 30
0.0
 11
603.6414418241
 21
484.2106628465
 31
0.0
  0
SPLINE
  5
133
330
1F
100
AcDbEntity
  8
0
  6
Continuous
 62
     7
370
    15
100
AcDbSpline
210
0.0
220
0.0
230
1.0
 70
     8
 71
     3
 72
    10
 73
     6
 74
     0
 42
0.00000001
 43
0.00000001
 40
0.0
 40
0.0
 40
0.0
 40
0.0
 40
0.0600384003785598
 40
0.7971088257683049
 40
1.0
 40
1.0
 40
1.0
 40
1.0
 10
634.8814589773815
 20
415.6439940678066
 30
0.0
 10
634.9412221465061
 20
415.6415670868263
 30
0.0
 10
635.734676823258
 20
415.6093449099009
 30
0.0
 10
636.7246055401783
 20
415.5579755214956
 30
0.0
 10
637.6365471418745
 20
415.5049967512665
 30
0.0
 10
637.8333901857536
 20
415.4935612576193
 30
0.0
  0
SPLINE
  5
134
330
1F
100
AcDbEntity
  8
0
  6
Continuous
 62
     7
370
    15
100
AcDbSpline
210
0.0
220
0.0
230
1.0
 70
     8
 71
     3
 72
    45
 73
    41
 74
     0
 42
0.00000001
 43
0.00000001
 40
0.0
 40
0.0
 40
0.0
 40
0.0
 40
0.0040877001787005
 40
0.0296224250726122
 40
0.048128675129638
 40
0.0551841511489632
 40
0.0612531247026689
 40
0.0669924476890573
 40
0.0765736923105619
 40
0.087070267606234
 40
0.1154238526415619
 40
0.1447932015531851
 40
0.1764141724714098
 40
0.2110364379970493
 40
0.2485392080635443
 40
0.276359210356765
 40
0.307540898030589
 40
0.3426048415014231
 40
0.3976780064125024
 40
0.4260062896202781
 40
0.4548393431720881
 40
0.4918807846169069
 40
0.5232333402517512
 40
0.5489649624878058
 40
0.5736671000102787
 40
0.5998213735894389
 40
0.6317380887540696
 40
0.6600280289175481
 40
0.6920386815488806
 40
0.7265897454441913
 40
0.7571259609851513
 40
0.7826625629322842
 40
0.8031182149691151
 40
0.8184033827455673
 40
0.826465934913991
 40
0.836681667030291
 40
0.8644078264786658
 40
0.9017731263354851
 40
0.9476963211139575
 40
1.0
 40
1.0
 40
1.0
 40
1.0
 10
637.3707705979746
 20
427.83390574624
 30
0.0
 10
637.3700792885502
 20
427.8374754518789
 30
0.0
 10
637.3650695616305
 20
427.8633441147441
 30
0.0
 10
637.462843798519
 20
427.7030741255876
 30
0.0
 10
637.6028521614757
 20
427.2879307036276
 30
0.0
 10
637.7512366128484
 20
426.8129609652964
 30
0.0
 10
637.8626972188496
 20
426.4321435887564
 30
0.0
 10
638.0043605588038
 20
425.9100056619724
 30
0.0
 10
638.1538703034378
 20
425.2887980662112
 30
0.0
 10
638.381709068828
 20
424.1654989484091
 30
0.0
 10
638.6033397076143
 20
422.4783288635601
 30
0.0
 10
638.6519467468313
 20
420.2244797556449
 30
0.0
 10
638.428921020422
 20
417.8215679585424
 30
0.0
 10
637.8648560190668
 20
415.2633183047411
 30
0.0
 10
636.9943897761168
 20
412.8923285980676
 30
0.0
 10
635.8768654046951
 20
410.7294986840117
 30
0.0
 10
634.5525879112562
 20
408.7583661198887
 30
0.0
 10
632.5418425676703
 20
406.4482734380153
 30
0.0
 10
630.2106298566684
 20
404.5469813704971
 30
0.0
 10
627.763364455383
 20
403.1247584012597
 30
0.0
 10
625.5919421610461
 20
402.1582583904252
 30
0.0
 10
623.2409605009562
 20
401.4452331919194
 30
0.0
 10
620.8976554042142
 20
401.0544333771765
 30
0.0
 10
618.8384421142872
 20
400.9348467398282
 30
0.0
 10
616.90836272609
 20
401.0064508768584
 30
0.0
 10
614.8390767965695
 20
401.2823674241188
 30
0.0
 10
612.7225047142323
 20
401.8054412408536
 30
0.0
 10
610.5417281562886
 20
402.615472557549
 30
0.0
 10
608.4065933725828
 20
403.6989900033463
 30
0.0
 10
606.375938255312
 20
405.0738100043363
 30
0.0
 10
604.6539400344233
 20
406.5782489687769
 30
0.0
 10
603.3420334534596
 20
407.9957762700249
 30
0.0
 10
602.3962585407209
 20
409.2121639659898
 30
0.0
 10
601.7761942705763
 20
410.1358768057019
 30
0.0
 10
601.3433381526445
 20
410.8399357893834
 30
0.0
 10
600.8284929953344
 20
411.7335664118769
 30
0.0
 10
600.1480994579712
 20
413.0807119233929
 30
0.0
 10
599.4155321406682
 20
414.8986993256251
 30
0.0
 10
598.5188117619385
 20
416.8996564813622
 30
0.0
 10
598.072107972061
 20
418.1274408210255
 30
0.0
 10
597.8342478965919
 20
418.7812093412614
 30
0.0
  0
SPLINE
  5
135
330
1F
100
AcDbEntity
  8
0
  6
Continuous
 62
     7
370
    15
100
AcDbSpline
210
0.0
220
0.0
230
1.0
 70
     8
 71
     3
 72
     9
 73
     5
 74
     0
 42
0.00000001
 43
0.00000001
 40
0.0
 40
0.0
 40
0.0
 40
0.0
 40
0.5303624342627751
 40
0.9999999999999999
 40
0.9999999999999999
 40
0.9999999999999999
 40
0.9999999999999999
 10
599.2187408601444
 20
415.4779331991559
 30
0.0
 10
599.6947145963811
 20
415.5025857864091
 30
0.0
 10
600.5921645390763
 20
415.5490683154506
 30
0.0
 10
601.5302906061524
 20
415.5923539684709
 30
0.0
 10
601.9708698486488
 20
415.6126825371867
 30
0.0
  0
LINE
  5
136
330
1F
100
AcDbEntity
  8
0
  6
Continuous
 62
     7
370
    15
100
AcDbLine
 10
683.6214398836
 20
323.9603641676
 30
0.0
 11
683.6214398836
 21
336.9603681611
 31
0.0
  0
LINE
  5
137
330
1F
100
AcDbEntity
  8
0
  6
Continuous
 62
     7
370
    15
100
AcDbLine
 10
553.621444652
 20
336.9603681611
 30
0.0
 11
553.621444652
 21
323.9603641676
 31
0.0
  0
LINE
  5
138
330
1F
100
AcDbEntity
  8
0
  6
Continuous
 62
     7
370
    15
100
AcDbLine
 10
585.1214414334
 20
379.9182701158
 30
0.0
 11
585.1214414334
 21
378.8553814637
 31
0.0
  0
LINE
  5
139
330
1F
100
AcDbEntity
  8
0
  6
Continuous
 62
     7
370
    15
100
AcDbLine
 10
585.1214414334
 20
365.2580346214
 30
0.0
 11
585.1214414334
 21
356.7455935525
 31
0.0
  0
LINE
  5
13A
330
1F
100
AcDbEntity
  8
0
  6
Continuous
 62
     7
370
    15
100
AcDbLine
 10
652.1214431023
 20
378.8553814637
 30
0.0
 11
652.1214431023
 21
379.9182887422
 31
0.0
  0
LINE
  5
13B
330
1F
100
AcDbEntity
  8
0
  6
Continuous
 62
     7
370
    15
100
AcDbLine
 10
583.7013160681
 20
478.9603653597
 30
0.0
 11
583.7013160681
 21
475.7835793542
 31
0.0
  0
LINE
  5
13C
330
1F
100
AcDbEntity
  8
0
  6
Continuous
 62
     7
370
    15
100
AcDbLine
 10
653.5415684675
 20
475.7835793542
 30
0.0
 11
653.5415684675
 21
478.9603653597
 31
0.0
  0
LINE
  5
13D
330
1F
100
AcDbEntity
  8
0
  6
Continuous
 62
     7
370
    15
100
AcDbLine
 10
622.1214423758
 20
523.4603661345
 30
0.0
 11
615.1214421598
 21
523.4603661345
 31
0.0
  0
LINE
  5
13E
330
1F
100
AcDbEntity
  8
0
  6
Continuous
 62
     7
370
    15
100
AcDbLine
 10
620.5714422149
 20
542.9603683995
 30
0.0
 11
616.6714423207
 21
542.9603683995
 31
0.0
  0
LINE
  5
13F
330
1F
100
AcDbEntity
  8
0
  6
Continuous
 62
     7
370
    15
100
AcDbLine
 10
622.1214423758
 20
541.4103645133
 30
0.0
 11
615.1214421598
 21
541.4103645133
 31
0.0
  0
LINE
  5
140
330
1F
100
AcDbEntity
  8
0
  6
Continuous
 62
     7
370
    15
100
AcDbLine
 10
622.1214423758
 20
539.4103679108
 30
0.0
 11
615.1214421598
 21
539.4103679108
 31
0.0
  0
LINE
  5
141
330
1F
100
AcDbEntity
  8
0
  6
Continuous
 62
     7
370
    15
100
AcDbLine
 10
622.1214423758
 20
526.4603647636
 30
0.0
 11
615.1214421598
 21
526.4603647636
 31
0.0
  0
LINE
  5
142
330
1F
100
AcDbEntity
  8
0
  6
Continuous
 62
     7
370
    15
100
AcDbLine
 10
622.1214423758
 20
536.3603684353
 30
0.0
 11
615.1214421598
 21
536.3603684353
 31
0.0
  0
LINE
  5
143
330
1F
100
AcDbEntity
  8
0
  6
Continuous
 62
     7
370
    15
100
AcDbLine
 10
609.6548156684
 20
491.9603693532
 30
0.0
 11
603.6414418241
 21
491.9603693532
 31
0.0
  0
LINE
  5
144
330
1F
100
AcDbEntity
  8
0
  6
Continuous
 62
     7
370
    15
100
AcDbLine
 10
609.6548156684
 20
491.9603693532
 30
0.0
 11
609.6548156684
 21
485.3389340686
 31
0.0
  0
LINE
  5
145
330
1F
100
AcDbEntity
  8
0
  6
Continuous
 62
     7
370
    15
100
AcDbLine
 10
627.5880688672
 20
485.3389340686
 30
0.0
 11
627.5880688672
 21
491.9603693532
 31
0.0
  0
LINE
  5
146
330
1F
100
AcDbEntity
  8
0
  6
Continuous
 62
     7
370
    15
100
AcDbLine
 10
633.6014427116
 20
491.9603693532
 30
0.0
 11
627.5880688672
 21
491.9603693532
 31
0.0
  0
LINE
  5
147
330
1F
100
AcDbEntity
  8
0
  6
Continuous
 62
     7
370
    15
100
AcDbLine
 10
627.5880688672
 20
491.9603693532
 30
0.0
 11
609.6548156684
 21
491.9603693532
 31
0.0
  0
LINE
  5
148
330
1F
100
AcDbEntity
  8
0
  6
Continuous
 62
     7
370
    15
100
AcDbLine
 10
656.9800933694
 20
391.810160433
 30
0.0
 11
656.786598066
 21
390.9603676992
 31
0.0
  0
SPLINE
  5
149
330
1F
100
AcDbEntity
  8
0
  6
Continuous
 62
     7
370
    15
100
AcDbSpline
210
0.0
220
0.0
230
1.0
 70
     8
 71
     3
 72
     8
 73
     4
 74
     0
 42
0.00000001
 43
0.00000001
 40
0.0
 40
0.0
 40
0.0
 40
0.0
 40
1.0
 40
1.0
 40
1.0
 40
1.0
 10
656.7865983651872
 20
390.9603670286126
 30
0.0
 10
656.6991985262985
 20
390.6258303501633
 30
0.0
 10
656.6074313521956
 20
390.2924960516782
 30
0.0
 10
656.5112863258837
 20
389.9603670286126
 30
0.0
  0
ARC
  5
14A
330
1F
100
AcDbEntity
  8
0
  6
Continuous
 62
     7
370
    15
100
AcDbCircle
 10
618.6214422678
 20
400.9603670286
 30
0.0
 40
39.49999999999971
100
AcDbArc
 50
340.5287793655
 51
343.8304322989
  0
SPLINE
  5
14B
330
1F
100
AcDbEntity
  8
0
  6
Continuous
 62
     7
370
    15
100
AcDbSpline
210
0.0
220
0.0
230
1.0
 70
     8
 71
     3
 72
     8
 73
     4
 74
     0
 42
0.00000001
 43
0.00000001
 40
0.0
 40
0.0
 40
0.0
 40
0.0
 40
1.0
 40
1.0
 40
1.0
 40
1.0
 10
655.8623994103064
 20
387.7937003619456
 30
0.0
 10
655.3499869379672
 20
386.3443790261235
 30
0.0
 10
654.5673860968175
 20
384.9910839214027
 30
0.0
 10
653.5667929649783
 20
383.824073955381
 30
0.0
  0
CIRCLE
  5
14C
330
1F
100
AcDbEntity
  8
0
  6
Continuous
 62
     7
370
    15
100
AcDbCircle
 10
618.6214422678
 20
420.9603670286
 30
0.0
 40
39.0
  0
CIRCLE
  5
14D
330
1F
100
AcDbEntity
  8
0
  6
Continuous
 62
     7
370
    15
100
AcDbCircle
 10
618.6215351974
 20
420.9603687546
 30
0.0
 40
19.99999272835601
  0
SPLINE
  5
14E
330
1F
100
AcDbEntity
  8
0
  6
Continuous
 62
     7
370
    15
100
AcDbSpline
210
0.0
220
0.0
230
1.0
 70
     8
 71
     3
 72
    19
 73
    15
 74
     0
 42
0.00000001
 43
0.00000001
 40
0.0
 40
0.0
 40
0.0
 40
0.0
 40
0.0039248317678656
 40
0.0750284654173153
 40
0.1487403156156663
 40
0.2224667711492994
 40
0.3522973913312856
 40
0.4846461981663538
 40
0.641989149885785
 40
0.7230080955264513
 40
0.8040238550553997
 40
0.9332287003775941
 40
0.9996287830051277
 40
1.0
 40
1.0
 40
1.0
 40
1.0
 10
601.9704991822641
 20
415.6201051781064
 30
0.0
 10
602.0077289294401
 20
415.622163737813
 30
0.0
 10
602.7194258794497
 20
415.6615158896722
 30
0.0
 10
604.2467778601496
 20
415.817400534301
 30
0.0
 10
606.533878231605
 20
416.0614213426702
 30
0.0
 10
609.5486538459685
 20
416.3876673992111
 30
0.0
 10
613.3222224019037
 20
416.7165209483019
 30
0.0
 10
618.1429077927596
 20
416.8989210471693
 30
0.0
 10
622.4229561793131
 20
416.7937629310568
 30
0.0
 10
626.0372822090558
 20
416.5353378773888
 30
0.0
 10
629.2736775275894
 20
416.2251939280899
 30
0.0
 10
632.218940585994
 20
415.8987483887914
 30
0.0
 10
634.2369708356009
 20
415.687168974659
 30
0.0
 10
634.8780328103081
 20
415.6471636488738
 30
0.0
 10
634.8815968131225
 20
415.646941238094
 30
0.0
  0
CIRCLE
  5
14F
330
1F
100
AcDbEntity
  8
0
  6
Continuous
 62
     7
370
    15
100
AcDbCircle
 10
618.6214422678
 20
420.9603670286
 30
0.0
 40
42.0
  0
CIRCLE
  5
150
330
1F
100
AcDbEntity
  8
0
  6
Continuous
 62
     7
370
    15
100
AcDbCircle
 10
618.6214422678
 20
420.9603670286
 30
0.0
 40
65.0
  0
CIRCLE
  5
151
330
1F
100
AcDbEntity
  8
0
  6
Continuous
 62
     7
370
    15
100
AcDbCircle
 10
653.9767813271
 20
456.3157060879
 30
0.0
 40
7.0
  0
CIRCLE
  5
152
330
1F
100
AcDbEntity
  8
0
  6
Continuous
 62
     7
370
    15
100
AcDbCircle
 10
583.2661032085
 20
456.3157060879
 30
0.0
 40
7.0
  0
CIRCLE
  5
153
330
1F
100
AcDbEntity
  8
0
  6
Continuous
 62
     7
370
    15
100
AcDbCircle
 10
583.2661032085
 20
385.6050279693
 30
0.0
 40
7.0
  0
CIRCLE
  5
154
330
1F
100
AcDbEntity
  8
0
  6
Continuous
 62
     7
370
    15
100
AcDbCircle
 10
653.9767813271
 20
385.6050279693
 30
0.0
 40
7.0
  0
SPLINE
  5
155
330
1F
100
AcDbEntity
  8
0
  6
Continuous
 62
     7
370
    15
100
AcDbSpline
210
0.0
220
0.0
230
1.0
 70
     8
 71
     3
 72
    12
 73
     8
 74
     0
 42
0.00000001
 43
0.00000001
 40
0.0
 40
0.0
 40
0.0
 40
0.0
 40
0.5000000000000008
 40
0.5000000000000008
 40
0.7500000000000003
 40
0.7500000000000003
 40
1.0
 40
1.0
 40
1.0
 40
1.0
 10
581.3804851249552
 20
387.7937003629887
 30
0.0
 10
581.6341943782527
 20
387.0761022290694
 30
0.0
 10
581.9523134815194
 20
386.3840175484622
 30
0.0
 10
582.526264248706
 20
385.3876475678918
 30
0.0
 10
582.7338052073266
 20
385.0625513715129
 30
0.0
 10
583.1821683223619
 20
384.4280865627116
 30
0.0
 10
583.4229785882412
 20
384.1191687002956
 30
0.0
 10
583.6760825688633
 20
383.8240663005307
 30
0.0
  0
SPLINE
  5
156
330
1F
100
AcDbEntity
  8
0
  6
Continuous
 62
     7
370
    15
100
AcDbSpline
210
0.0
220
0.0
230
1.0
 70
     8
 71
     3
 72
    18
 73
    14
 74
     0
 42
0.00000001
 43
0.00000001
 40
0.0
 40
0.0
 40
0.0
 40
0.0
 40
0.5000000000000074
 40
0.7500000000000141
 40
0.8750000000000115
 40
0.9375000000000061
 40
0.9687500000000018
 40
0.9843750000000024
 40
0.992187499999997
 40
0.9960937499999957
 40
0.9980468749999979
 40
0.9980468749999979
 40
1.0
 40
1.0
 40
1.0
 40
1.0
 10
580.683987435526
 20
389.9603651976706
 30
0.0
 10
580.7891445908488
 20
389.5976719951071
 30
0.0
 10
580.9550301423131
 20
389.0547144477135
 30
0.0
 10
581.1629452251583
 20
388.4234326329715
 30
0.0
 10
581.2705104298601
 20
388.1083679717397
 30
0.0
 10
581.3251963956494
 20
387.9509839334784
 30
0.0
 10
581.3527653910737
 20
387.8723295145392
 30
0.0
 10
581.3666064128004
 20
387.8330117708673
 30
0.0
 10
581.3735410572416
 20
387.8133552736904
 30
0.0
 10
581.3770119131763
 20
387.8035276197919
 30
0.0
 10
581.378500180121
 20
387.7993158956646
 30
0.0
 10
581.3794925263678
 20
387.796508107935
 30
0.0
 10
581.3794729117154
 20
387.7965633343723
 30
0.0
 10
581.3804851249552
 20
387.7937003629887
 30
0.0
  0
SPLINE
  5
157
330
1F
100
AcDbEntity
  8
0
  6
Continuous
 62
     7
370
    15
100
AcDbSpline
210
0.0
220
0.0
230
1.0
 70
     8
 71
     3
 72
     8
 73
     4
 74
     0
 42
0.00000001
 43
0.00000001
 40
0.0
 40
0.0
 40
0.0
 40
0.0
 40
1.0
 40
1.0
 40
1.0
 40
1.0
 10
580.4562861704431
 20
390.9603670286126
 30
0.0
 10
580.5436860093321
 20
390.6258303501633
 30
0.0
 10
580.6354531834351
 20
390.2924960516782
 30
0.0
 10
580.7315982097467
 20
389.9603670286126
 30
0.0
  0
LINE
  5
158
330
1F
100
AcDbEntity
  8
0
  6
Continuous
 62
     7
370
    15
100
AcDbLine
 10
580.2475919818
 20
391.8769194977
 30
0.0
 11
580.4562864696
 21
390.9603676992
 31
0.0
  0
LINE
  5
159
330
1F
100
AcDbEntity
  8
0
  6
Continuous
 62
     7
370
    15
100
AcDbLine
 10
616.6214421728
 20
352.9603633331
 30
0.0
 11
616.6214421728
 21
355.9911403107
 31
0.0
  0
LINE
  5
15A
330
1F
100
AcDbEntity
  8
0
  6
Continuous
 62
     7
370
    15
100
AcDbLine
 10
618.5714422691
 20
352.9603633331
 30
0.0
 11
618.5714422691
 21
355.960384314
 31
0.0
  0
LINE
  5
15B
330
1F
100
AcDbEntity
  8
0
  6
Continuous
 62
     7
370
    15
100
AcDbLine
 10
620.6214423628
 20
352.9603633331
 30
0.0
 11
620.6214423628
 21
355.9911403107
 31
0.0
  0
LINE
  5
15C
330
1F
100
AcDbEntity
  8
0
  6
Continuous
 62
     7
370
    15
100
AcDbLine
 10
618.6714422666
 20
352.9603633331
 30
0.0
 11
618.6714422666
 21
355.960384314
 31
0.0
  0
LINE
  5
15D
330
1F
100
AcDbEntity
  8
0
  6
Continuous
 62
     7
370
    15
100
AcDbLine
 10
618.5714422691
 20
336.9603681611
 30
0.0
 11
614.1214424615
 21
336.9603681611
 31
0.0
  0
SPLINE
  5
15E
330
1F
100
AcDbEntity
  8
0
  6
Continuous
 62
     7
370
    15
100
AcDbSpline
210
0.0
220
0.0
230
1.0
 70
     8
 71
     3
 72
    24
 73
    20
 74
     0
 42
0.00000001
 43
0.00000001
 40
0.0
 40
0.0
 40
0.0
 40
0.0
 40
0.0312500000000015
 40
0.0312500000000015
 40
0.062500000000003
 40
0.062500000000003
 40
0.1250000000000051
 40
0.1250000000000051
 40
0.250000000000001
 40
0.250000000000001
 40
0.4999999999999969
 40
0.4999999999999969
 40
0.6249999999999977
 40
0.6249999999999977
 40
0.7499999999999984
 40
0.7499999999999984
 40
0.8749999999999993
 40
0.8749999999999993
 40
1.0
 40
1.0
 40
1.0
 40
1.0
 10
614.1214422678154
 20
336.9603670286126
 30
0.0
 10
614.1636030485494
 20
336.9603670286126
 30
0.0
 10
614.2046643656179
 20
336.9614717856168
 30
0.0
 10
614.2794997886037
 20
336.9650872500804
 30
0.0
 10
614.3143592501933
 20
336.9675871942416
 30
0.0
 10
614.4164755032082
 20
336.9768959800683
 30
0.0
 10
614.4803980824776
 20
336.9854386612146
 30
0.0
 10
614.6701867816244
 20
337.0179587373786
 30
0.0
 10
614.7932117370841
 20
337.0489166309883
 30
0.0
 10
615.1571902429963
 20
337.1706737976136
 30
0.0
 10
615.3874189577784
 20
337.2875824832471
 30
0.0
 10
615.7150588787553
 20
337.5293547261234
 30
0.0
 10
615.8221183722859
 20
337.6223177802019
 30
0.0
 10
616.0218608560583
 20
337.8296820678181
 30
0.0
 10
616.1151182248564
 20
337.9441527303396
 30
0.0
 10
616.2859200233174
 20
338.199936282436
 30
0.0
 10
616.3616476075789
 20
338.3389913619345
 30
0.0
 10
616.4871469864373
 20
338.6360827727803
 30
0.0
 10
616.5373813719807
 20
338.7960925421057
 30
0.0
 10
616.5708786314918
 20
338.9601055966598
 30
0.0
  0
LINE
  5
15F
330
1F
100
AcDbEntity
  8
0
  6
Continuous
 62
     7
370
    15
100
AcDbLine
 10
618.5714422691
 20
338.9603647636
 30
0.0
 11
618.5714422691
 21
336.9603681611
 31
0.0
  0
LINE
  5
160
330
1F
100
AcDbEntity
  8
0
  6
Continuous
 62
     7
370
    15
100
AcDbLine
 10
623.1214420741
 20
336.9603681611
 30
0.0
 11
618.6714422666
 21
336.9603681611
 31
0.0
  0
SPLINE
  5
161
330
1F
100
AcDbEntity
  8
0
  6
Continuous
 62
     7
370
    15
100
AcDbSpline
210
0.0
220
0.0
230
1.0
 70
     8
 71
     3
 72
    26
 73
    22
 74
     0
 42
0.00000001
 43
0.00000001
 40
0.0
 40
0.0
 40
0.0
 40
0.0
 40
0.1249999999999998
 40
0.1249999999999998
 40
0.2499999999999997
 40
0.2499999999999997
 40
0.3749999999999995
 40
0.3749999999999995
 40
0.4999999999999993
 40
0.4999999999999993
 40
0.6249999999999991
 40
0.6249999999999991
 40
0.749999999999999
 40
0.749999999999999
 40
0.8749999999999989
 40
0.8749999999999989
 40
0.9374999999999988
 40
0.9374999999999988
 40
0.9687499999999993
 40
0.9687499999999993
 40
1.0
 40
1.0
 40
1.0
 40
1.0
 10
620.6720059041388
 20
338.9601055966598
 30
0.0
 10
620.7055342598923
 20
338.7959402851827
 30
0.0
 10
620.7543856664497
 20
338.6398989375539
 30
0.0
 10
620.8797411526939
 20
338.3419301940183
 30
0.0
 10
620.9561306877523
 20
338.201462724151
 30
0.0
 10
621.1258259981155
 20
337.9467851871992
 30
0.0
 10
621.2208687955714
 20
337.8298845285682
 30
0.0
 10
621.4202246306515
 20
337.6228384554059
 30
0.0
 10
621.5252040376955
 20
337.5314717427171
 30
0.0
 10
621.744587807655
 20
337.3692225317443
 30
0.0
 10
621.8594652365543
 20
337.2983175241724
 30
0.0
 10
622.0915250034884
 20
337.1786320493213
 30
0.0
 10
622.2094899422816
 20
337.1291855238476
 30
0.0
 10
622.4499320497667
 20
337.048907246808
 30
0.0
 10
622.5720300425348
 20
337.0180897111689
 30
0.0
 10
622.7623521945271
 20
336.9854534156933
 30
0.0
 10
622.8265944486448
 20
336.9768755043256
 30
0.0
 10
622.9286273354071
 20
336.9675796833383
 30
0.0
 10
622.963409816078
 20
336.9650836727608
 30
0.0
 10
623.0385097322888
 20
336.9614601723364
 30
0.0
 10
623.079572703909
 20
336.9603670286126
 30
0.0
 10
623.1214422678154
 20
336.9603670286126
 30
0.0
  0
LWPOLYLINE
  5
162
330
1F
100
AcDbEntity
  8
0
  6
Continuous
 62
     7
370
    15
100
AcDbPolyline
 90
        9
 70
   128
 43
0.0
 10
618.6714422666
 20
336.9603681611
 10
618.6714422666
 20
336.9987982558
 10
618.6714422702
 20
337.112613325
 10
618.6714422702
 20
337.2974324273
 10
618.6714422738
 20
337.54616261
 10
618.6714422738
 20
337.8492298769
 10
618.6714422775
 20
338.1950038718
 10
618.6714422811
 20
338.5701853084
 10
618.6714422666
 20
338.9603647636
  0
LINE
  5
163
330
1F
100
AcDbEntity
  8
0
  6
Continuous
 62
     7
370
    15
100
AcDbLine
 10
614.1214424615
 20
336.9603681611
 30
0.0
 11
553.621444652
 21
336.9603681611
 31
0.0
  0
LINE
  5
164
330
1F
100
AcDbEntity
  8
0
  6
Continuous
 62
     7
370
    15
100
AcDbLine
 10
683.6214398836
 20
336.9603681611
 30
0.0
 11
623.1214420741
 21
336.9603681611
 31
0.0
  0
LINE
  5
165
330
1F
100
AcDbEntity
  8
0
  6
Continuous
 62
     7
370
    15
100
AcDbLine
 10
683.6214398836
 20
323.9603641676
 30
0.0
 11
553.621444652
 21
323.9603641676
 31
0.0
  0
LINE
  5
166
330
1F
100
AcDbEntity
  8
0
  6
Continuous
 62
     7
370
    15
100
AcDbLine
 10
618.6714422666
 20
336.9603681611
 30
0.0
 11
618.5714422691
 21
336.9603681611
 31
0.0
  0
ARC
  5
167
330
1F
100
AcDbEntity
  8
0
  6
Continuous
 62
     7
370
    15
100
AcDbCircle
 10
614.1214422678
 20
339.4603670286
 30
0.0
 40
2.5
100
AcDbArc
 50
348.4569257708
 51
0.0
  0
LINE
  5
168
330
1F
100
AcDbEntity
  8
0
  6
Continuous
 62
     7
370
    15
100
AcDbLine
 10
616.6214421728
 20
339.4603657769
 30
0.0
 11
616.6214421728
 21
352.9603633331
 31
0.0
  0
LINE
  5
169
330
1F
100
AcDbEntity
  8
0
  6
Continuous
 62
     7
370
    15
100
AcDbLine
 10
618.5714422691
 20
338.9603647636
 30
0.0
 11
618.5714422691
 21
352.9603633331
 31
0.0
  0
ARC
  5
16A
330
1F
100
AcDbEntity
  8
0
  6
Continuous
 62
     7
370
    15
100
AcDbCircle
 10
623.1214422678
 20
339.4603670286
 30
0.0
 40
2.500000000000093
100
AcDbArc
 50
180.0
 51
191.5430742292
  0
LINE
  5
16B
330
1F
100
AcDbEntity
  8
0
  6
Continuous
 62
     7
370
    15
100
AcDbLine
 10
620.6214423628
 20
339.4603657769
 30
0.0
 11
620.6214423628
 21
352.9603633331
 31
0.0
  0
LINE
  5
16C
330
1F
100
AcDbEntity
  8
0
  6
Continuous
 62
     7
370
    15
100
AcDbLine
 10
618.6714422666
 20
338.9603647636
 30
0.0
 11
618.6714422666
 21
352.9603633331
 31
0.0
  0
LWPOLYLINE
  5
16D
330
1F
100
AcDbEntity
  8
0
  6
Continuous
 62
     7
370
    15
100
AcDbPolyline
 90
        3
 70
   128
 43
0.0
 10
581.9305179512
 20
455.5899950909
 10
580.8378865813
 20
452.4778726744
 10
580.1776906346
 20
450.0338494079
  0
LINE
  5
16E
330
1F
100
AcDbEntity
  8
0
  6
Continuous
 62
     7
370
    15
100
AcDbLine
 10
655.3123665845
 20
455.5899950909
 30
0.0
 11
655.8642906939
 21
453.9890143322
 31
0.0
  0
LINE
  5
16F
330
1F
100
AcDbEntity
  8
0
  6
Continuous
 62
     7
370
    15
100
AcDbLine
 10
618.5714422691
 20
342.9603654193
 30
0.0
 11
618.6714422666
 21
342.9603654193
 31
0.0
  0
SPLINE
  5
170
330
1F
100
AcDbEntity
  8
0
  6
Continuous
 62
     7
370
    15
100
AcDbSpline
210
0.0
220
0.0
230
1.0
 70
     8
 71
     3
 72
    10
 73
     6
 74
     0
 42
0.00000001
 43
0.00000001
 40
0.0
 40
0.0
 40
0.0
 40
0.0
 40
0.5
 40
0.5
 40
1.0
 40
1.0
 40
1.0
 40
1.0
 10
653.5665809022096
 20
383.82382662924
 30
0.0
 10
653.1148041275326
 20
383.2969389524114
 30
0.0
 10
652.7428934436788
 20
382.6722510996751
 30
0.0
 10
652.2457325029881
 20
381.3286556883633
 30
0.0
 10
652.1214422678154
 20
380.6123426230339
 30
0.0
 10
652.1214422678153
 20
379.9182872375412
 30
0.0
  0
SPLINE
  5
171
330
1F
100
AcDbEntity
  8
0
  6
Continuous
 62
     7
370
    15
100
AcDbSpline
210
0.0
220
0.0
230
1.0
 70
     8
 71
     3
 72
    10
 73
     6
 74
     0
 42
0.00000001
 43
0.00000001
 40
0.0
 40
0.0
 40
0.0
 40
0.0
 40
0.5
 40
0.5
 40
1.0
 40
1.0
 40
1.0
 40
1.0
 10
585.1214422678154
 20
379.9182872375413
 30
0.0
 10
585.1214422678154
 20
380.612342623034
 30
0.0
 10
584.9971520326427
 20
381.3286556883634
 30
0.0
 10
584.499991091952
 20
382.6722510996751
 30
0.0
 10
584.1280804080982
 20
383.2969389524114
 30
0.0
 10
583.6763036334212
 20
383.82382662924
 30
0.0
  0
SPLINE
  5
172
330
1F
100
AcDbEntity
  8
0
  6
Continuous
 62
     7
370
    15
100
AcDbSpline
210
0.0
220
0.0
230
1.0
 70
     8
 71
     3
 72
    10
 73
     6
 74
     0
 42
0.00000001
 43
0.00000001
 40
0.0
 40
0.0
 40
0.0
 40
0.0
 40
0.5
 40
0.5
 40
1.0
 40
1.0
 40
1.0
 40
1.0
 10
586.4452543426588
 20
461.2507657614344
 30
0.0
 10
585.4373561895192
 20
460.5557136561101
 30
0.0
 10
584.5324269708899
 20
459.7116126840895
 30
0.0
 10
583.00563900153
 20
457.7972608456102
 30
0.0
 10
582.383969164848
 20
456.7272468476386
 30
0.0
 10
581.9305178191249
 20
455.5899966582433
 30
0.0
  0
SPLINE
  5
173
330
1F
100
AcDbEntity
  8
0
  6
Continuous
 62
     7
370
    15
100
AcDbSpline
210
0.0
220
0.0
230
1.0
 70
     8
 71
     3
 72
    22
 73
    18
 74
     0
 42
0.00000001
 43
0.00000001
 40
0.0
 40
0.0
 40
0.0
 40
0.0
 40
0.4999999999999957
 40
0.4999999999999957
 40
0.7499999999999946
 40
0.7499999999999946
 40
0.8749999999999941
 40
0.8749999999999941
 40
0.9374999999999944
 40
0.968749999999994
 40
0.9843749999999925
 40
0.9921874999999937
 40
0.9960937499999954
 40
0.9980468749999978
 40
0.9990234374999989
 40
0.9990234374999989
 40
1.0
 40
1.0
 40
1.0
 40
1.0
 10
650.7976991210429
 20
461.2508666252202
 30
0.0
 10
651.8259448448887
 20
460.5417099155066
 30
0.0
 10
652.7261545940387
 20
459.6974663303071
 30
0.0
 10
653.8797362038508
 20
458.2429073811713
 30
0.0
 10
654.2221968474528
 20
457.7371288480413
 30
0.0
 10
654.6758607988709
 20
456.9518236886347
 30
0.0
 10
654.8170617919299
 20
456.6855645699019
 30
0.0
 10
655.0139818025045
 20
456.2796357604009
 30
0.0
 10
655.1087182553741
 20
456.0750326873184
 30
0.0
 10
655.2127224832377
 20
455.8334697086336
 30
0.0
 10
655.2630902928048
 20
455.7119721724812
 30
0.0
 10
655.287865027119
 20
455.651044198382
 30
0.0
 10
655.3001500157427
 20
455.6205353786916
 30
0.0
 10
655.3062669039325
 20
455.6052697563889
 30
0.0
 10
655.3088829391445
 20
455.5987249436801
 30
0.0
 10
655.3106257428539
 20
455.5943612011189
 30
0.0
 10
655.3119401233429
 20
455.5910665484527
 30
0.0
 10
655.3123667165534
 20
455.5899966581238
 30
0.0
  0
LINE
  5
174
330
1F
100
AcDbEntity
  8
0
  6
Continuous
 62
     7
370
    15
100
AcDbLine
 10
651.9504820799
 20
356.7725199508
 30
0.0
 11
651.9504820799
 21
349.960364704
 31
0.0
  0
LINE
  5
175
330
1F
100
AcDbEntity
  8
0
  6
Continuous
 62
     7
370
    15
100
AcDbLine
 10
583.7013160681
 20
478.9603653597
 30
0.0
 11
589.2786400264
 21
478.9603653597
 31
0.0
  0
LINE
  5
176
330
1F
100
AcDbEntity
  8
0
  6
Continuous
 62
     7
370
    15
100
AcDbLine
 10
647.9642445093
 20
478.9603653597
 30
0.0
 11
653.5415684675
 21
478.9603653597
 31
0.0
  0
ARC
  5
177
330
1F
100
AcDbEntity
  8
0
  6
Continuous
 62
     7
370
    15
100
AcDbCircle
 10
618.6214422678
 20
440.9603670286
 30
0.0
 40
39.49188057612606
100
AcDbArc
 50
13.277215395
 51
19.1746228535
  0
SPLINE
  5
178
330
1F
100
AcDbEntity
  8
0
  6
Continuous
 62
     7
370
    15
100
AcDbSpline
210
0.0
220
0.0
230
1.0
 70
     8
 71
     3
 72
     9
 73
     5
 74
     0
 42
0.00000001
 43
0.00000001
 40
0.0
 40
0.0
 40
0.0
 40
0.0
 40
0.5230558192712471
 40
1.0
 40
1.0
 40
1.0
 40
1.0
 10
586.4452047144573
 20
461.2508828984684
 30
0.0
 10
586.5938812733901
 20
461.3651213635157
 30
0.0
 10
586.8781273394029
 20
461.5835272407439
 30
0.0
 10
587.070024163145
 20
461.8859062927235
 30
0.0
 10
587.1615482365291
 20
462.0301242219394
 30
0.0
  0
SPLINE
  5
179
330
1F
100
AcDbEntity
  8
0
  6
Continuous
 62
     7
370
    15
100
AcDbSpline
210
0.0
220
0.0
230
1.0
 70
     8
 71
     3
 72
     9
 73
     5
 74
     0
 42
0.00000001
 43
0.00000001
 40
0.0
 40
0.0
 40
0.0
 40
0.0
 40
0.5006877032123996
 40
1.0
 40
1.0
 40
1.0
 40
1.0
 10
650.0518655275505
 20
462.0713557349628
 30
0.0
 10
650.1521317491574
 20
461.9124105993147
 30
0.0
 10
650.3523887575953
 20
461.5949569557993
 30
0.0
 10
650.6493856304498
 20
461.3654690378598
 30
0.0
 10
650.7976798211735
 20
461.2508828984684
 30
0.0
  0
LINE
  5
17A
330
1F
100
AcDbEntity
  8
0
  6
Continuous
 62
     7
370
    15
100
AcDbLine
 10
584.1323731338
 20
351.1045652675
 30
0.0
 11
584.1242445504
 21
351.1045652675
 31
0.0
  0
LINE
  5
17B
330
1F
100
AcDbEntity
  8
0
  6
Continuous
 62
     7
370
    15
100
AcDbLine
 10
584.1214431321
 20
356.7455935525
 30
0.0
 11
584.1223297512
 21
356.7455935525
 31
0.0
  0
LINE
  5
17C
330
1F
100
AcDbEntity
  8
0
  6
Continuous
 62
     7
370
    15
100
AcDbLine
 10
584.1242445504
 20
352.7712303447
 30
0.0
 11
584.1336173808
 21
352.7712303447
 31
0.0
  0
LINE
  5
17D
330
1F
100
AcDbEntity
  8
0
  6
Continuous
 62
     7
370
    15
100
AcDbLine
 10
584.1360164677
 20
354.9507188844
 30
0.0
 11
584.1242445504
 21
354.9507188844
 31
0.0
  0
LINE
  5
17E
330
1F
100
AcDbEntity
  8
0
  6
Continuous
 62
     8
370
    15
100
AcDbLine
 10
622.6214424578
 20
517.5677317428
 30
0.0
 11
614.6214420778
 21
517.5677317428
 31
0.0
  0
LINE
  5
17F
330
1F
100
AcDbEntity
  8
0
  6
Continuous
 62
     8
370
    15
100
AcDbLine
 10
622.4851454945
 20
518.6030048179
 30
0.0
 11
614.7577390411
 21
518.6030048179
 31
0.0
  0
LINE
  5
180
330
1F
100
AcDbEntity
  8
0
  6
Continuous
 62
     8
370
    15
100
AcDbLine
 10
622.2577388735
 20
519.4517004537
 30
0.0
 11
614.9851456621
 21
519.4517004537
 31
0.0
  0
LINE
  5
181
330
1F
100
AcDbEntity
  8
0
  6
Continuous
 62
     8
370
    15
100
AcDbLine
 10
622.1214423758
 20
520.4869735288
 30
0.0
 11
615.1214421598
 21
520.4869735288
 31
0.0
  0
SPLINE
  5
182
330
1F
100
AcDbEntity
  8
0
  6
Continuous
 62
     8
370
    15
100
AcDbSpline
210
0.0
220
0.0
230
1.0
 70
     8
 71
     3
 72
     9
 73
     5
 74
     0
 42
0.00000001
 43
0.00000001
 40
0.0
 40
0.0
 40
0.0
 40
0.0
 40
0.4241878313475751
 40
1.0
 40
1.0
 40
1.0
 40
1.0
 10
587.6358428841036
 20
461.6612497018761
 30
0.0
 10
587.3255001384205
 20
461.5570412572111
 30
0.0
 10
586.5938838053984
 20
461.3113754531405
 30
0.0
 10
586.4995519481023
 20
461.2729045357059
 30
0.0
 10
586.4452345167797
 20
461.2507525133079
 30
0.0
  0
SPLINE
  5
183
330
1F
100
AcDbEntity
  8
0
  6
Continuous
 62
     8
370
    15
100
AcDbSpline
210
0.0
220
0.0
230
1.0
 70
     8
 71
     3
 72
     9
 73
     5
 74
     0
 42
0.00000001
 43
0.00000001
 40
0.0
 40
0.0
 40
0.0
 40
0.0
 40
0.5659604099982594
 40
1.0
 40
1.0
 40
1.0
 40
1.0
 10
650.7976500188511
 20
461.2507525133079
 30
0.0
 10
650.7421367600805
 20
461.2732920421156
 30
0.0
 10
650.6440499367095
 20
461.3131173168334
 30
0.0
 10
649.8975803221596
 20
461.5637493718078
 30
0.0
 10
649.5735829567116
 20
461.6725336061901
 30
0.0
  0
LINE
  5
184
330
1F
100
AcDbEntity
  8
0
  6
Continuous
 62
     8
370
    15
100
AcDbLine
 10
633.3597579842
 20
407.4443972902
 30
0.0
 11
603.8447541987
 21
407.4443972902
 31
0.0
  0
LINE
  5
185
330
1F
100
AcDbEntity
  8
0
  6
Continuous
 62
     8
370
    15
100
AcDbLine
 10
636.3321335857
 20
411.6705798777
 30
0.0
 11
600.850201944
 21
411.6705798777
 31
0.0
  0
LINE
  5
186
330
1F
100
AcDbEntity
  8
1
100
AcDbLine
 10
585.1225638027
 20
356.7455926207
 30
0.0
 11
585.1225638027
 21
349.9603670286
 31
0.0
  0
LINE
  5
187
330
1F
100
AcDbEntity
  8
1
100
AcDbLine
 10
448.4631563713
 20
186.7834215412
 30
0.0
 11
448.9280642947
 21
127.6399752478
 31
0.0
  0
LINE
  5
188
330
1F
100
AcDbEntity
  8
1
100
AcDbLine
 10
306.5334985606
 20
127.6399752478
 30
0.0
 11
306.5334985606
 21
153.0233766727
 31
0.0
  0
LINE
  5
189
330
1F
100
AcDbEntity
  8
1
100
AcDbLine
 10
306.9875452035
 20
161.7494665591
 30
0.0
 11
306.9875452035
 21
187.020453781
 31
0.0
  0
LINE
  5
18A
330
1F
100
AcDbEntity
  8
1
100
AcDbLine
 10
651.9504810886
 20
351.0047762196
 30
0.0
 11
651.9504810886
 21
336.9603670286
 31
0.0
  0
LINE
  5
18B
330
1F
100
AcDbEntity
  8
1
100
AcDbLine
 10
585.1214422678
 20
357.7539459749
 30
0.0
 11
585.1214422678
 21
336.9603670286
 31
0.0
  0
LINE
  5
18C
330
1F
100
AcDbEntity
  8
1
100
AcDbLine
 10
579.6214422678
 20
320.9603670286
 30
0.0
 11
657.9986808385
 21
320.9603670286
 31
0.0
  0
LINE
  5
18D
330
1F
100
AcDbEntity
  8
1
100
AcDbLine
 10
591.0603318425
 20
326.1328358252
 30
0.0
 11
590.6093319623
 21
326.0078512001
 31
0.0
  0
LINE
  5
18E
330
1F
100
AcDbEntity
  8
1
100
AcDbLine
 10
590.6093319623
 20
326.0078512001
 30
0.0
 11
591.0603318425
 21
326.1328358252
 31
0.0
  0
LINE
  5
18F
330
1F
100
AcDbEntity
  8
1
100
AcDbLine
 10
660.9767813271
 20
323.9603670286
 30
0.0
 11
657.9986808385
 21
320.9603670286
 31
0.0
  0
LINE
  5
190
330
1F
100
AcDbEntity
  8
1
100
AcDbLine
 10
576.6214422678
 20
323.9603670286
 30
0.0
 11
579.6214422678
 21
320.9603670286
 31
0.0
  0
CIRCLE
  5
191
330
1F
100
AcDbEntity
  8
1
100
AcDbCircle
 10
342.9221086583
 20
718.4497829736
 30
0.0
 40
7.002120974873437
  0
ARC
  5
192
330
1F
100
AcDbEntity
  8
0
  6
Continuous
 62
     7
370
    15
100
AcDbCircle
 10
137.4549207155
 20
517.5677316345
 30
0.0
 40
4.000000000000012
100
AcDbArc
 50
165.0
 51
180.0
  0
ARC
  5
193
330
1F
100
AcDbEntity
  8
0
  6
Continuous
 62
     7
370
    15
100
AcDbCircle
 10
137.4549207155
 20
517.5677316345
 30
0.0
 40
4.000000000000039
100
AcDbArc
 50
0.0
 51
15.0
  0
LINE
  5
194
330
1F
100
AcDbEntity
  8
0
  6
Continuous
 62
     7
370
    15
100
AcDbLine
 10
141.4549209055
 20
491.9603693532
 30
0.0
 11
141.4549209055
 21
517.5677317428
 31
0.0
  0
LINE
  5
195
330
1F
100
AcDbEntity
  8
0
  6
Continuous
 62
     7
370
    15
100
AcDbLine
 10
133.4549205255
 20
517.5677317428
 30
0.0
 11
133.4549205255
 21
491.9603693532
 31
0.0
  0
LINE
  5
196
330
1F
100
AcDbEntity
  8
0
  6
Continuous
 62
     7
370
    15
100
AcDbLine
 10
141.3186239422
 20
518.6030048179
 30
0.0
 11
141.0912173212
 21
519.4517004537
 31
0.0
  0
LINE
  5
197
330
1F
100
AcDbEntity
  8
0
  6
Continuous
 62
     7
370
    15
100
AcDbLine
 10
133.8186241098
 20
519.4517004537
 30
0.0
 11
133.5912174888
 21
518.6030048179
 31
0.0
  0
ARC
  5
198
330
1F
100
AcDbEntity
  8
0
  6
Continuous
 62
     7
370
    15
100
AcDbCircle
 10
144.9549207155
 20
520.486977019
 30
0.0
 40
4.000000000000042
100
AcDbArc
 50
180.0
 51
195.0
  0
ARC
  5
199
330
1F
100
AcDbEntity
  8
0
  6
Continuous
 62
     7
370
    15
100
AcDbCircle
 10
129.9549207155
 20
520.486977019
 30
0.0
 40
4.000000000000014
100
AcDbArc
 50
345.0
 51
0.0
  0
LINE
  5
19A
330
1F
100
AcDbEntity
  8
0
  6
Continuous
 62
     7
370
    15
100
AcDbLine
 10
140.9549208235
 20
541.4103645133
 30
0.0
 11
139.4049206626
 21
542.9603683995
 31
0.0
  0
LINE
  5
19B
330
1F
100
AcDbEntity
  8
0
  6
Continuous
 62
     7
370
    15
100
AcDbLine
 10
135.5049207684
 20
542.9603683995
 30
0.0
 11
133.9549206075
 21
541.4103645133
 31
0.0
  0
LINE
  5
19C
330
1F
100
AcDbEntity
  8
0
  6
Continuous
 62
     7
370
    15
100
AcDbLine
 10
140.9549208235
 20
520.4869735288
 30
0.0
 11
140.9549208235
 21
523.4603661345
 31
0.0
  0
LINE
  5
19D
330
1F
100
AcDbEntity
  8
0
  6
Continuous
 62
     7
370
    15
100
AcDbLine
 10
133.9549206075
 20
523.4603661345
 30
0.0
 11
133.9549206075
 21
520.4869735288
 31
0.0
  0
LINE
  5
19E
330
1F
100
AcDbEntity
  8
0
  6
Continuous
 62
     7
370
    15
100
AcDbLine
 10
140.9549208235
 20
539.4103679108
 30
0.0
 11
140.9549208235
 21
541.4103645133
 31
0.0
  0
LINE
  5
19F
330
1F
100
AcDbEntity
  8
0
  6
Continuous
 62
     7
370
    15
100
AcDbLine
 10
133.9549206075
 20
541.4103645133
 30
0.0
 11
133.9549206075
 21
539.4103679108
 31
0.0
  0
LINE
  5
1A0
330
1F
100
AcDbEntity
  8
0
  6
Continuous
 62
     7
370
    15
100
AcDbLine
 10
140.9549208235
 20
526.4603647636
 30
0.0
 11
140.9549208235
 21
536.3603684353
 31
0.0
  0
LINE
  5
1A1
330
1F
100
AcDbEntity
  8
0
  6
Continuous
 62
     7
370
    15
100
AcDbLine
 10
133.9549206075
 20
536.3603684353
 30
0.0
 11
133.9549206075
 21
526.4603647636
 31
0.0
  0
LINE
  5
1A2
330
1F
100
AcDbEntity
  8
0
  6
Continuous
 62
     7
370
    15
100
AcDbLine
 10
140.4549207416
 20
523.4603661345
 30
0.0
 11
140.4549207416
 21
526.4603647636
 31
0.0
  0
LINE
  5
1A3
330
1F
100
AcDbEntity
  8
0
  6
Continuous
 62
     7
370
    15
100
AcDbLine
 10
134.4549206894
 20
526.4603647636
 30
0.0
 11
134.4549206894
 21
523.4603661345
 31
0.0
  0
LINE
  5
1A4
330
1F
100
AcDbEntity
  8
0
  6
Continuous
 62
     7
370
    15
100
AcDbLine
 10
139.4049206626
 20
536.3603684353
 30
0.0
 11
139.4049206626
 21
539.4103679108
 31
0.0
  0
LINE
  5
1A5
330
1F
100
AcDbEntity
  8
0
  6
Continuous
 62
     7
370
    15
100
AcDbLine
 10
135.5049207684
 20
539.4103679108
 30
0.0
 11
135.5049207684
 21
536.3603684353
 31
0.0
  0
LINE
  5
1A6
330
1F
100
AcDbEntity
  8
0
  6
Continuous
 62
     7
370
    15
100
AcDbLine
 10
152.4349211592
 20
484.2106628465
 30
0.0
 11
152.4349211592
 21
491.9603693532
 31
0.0
  0
LINE
  5
1A7
330
1F
100
AcDbEntity
  8
0
  6
Continuous
 62
     7
370
    15
100
AcDbLine
 10
122.4749202717
 20
491.9603693532
 30
0.0
 11
122.4749202717
 21
484.2106628465
 31
0.0
  0
LINE
  5
1A8
330
1F
100
AcDbEntity
  8
0
  6
Continuous
 62
     7
370
    15
100
AcDbLine
 10
202.4549183313
 20
323.9603641676
 30
0.0
 11
202.4549183313
 21
336.9603681611
 31
0.0
  0
LINE
  5
1A9
330
1F
100
AcDbEntity
  8
0
  6
Continuous
 62
     7
370
    15
100
AcDbLine
 10
72.4549230997
 20
336.9603681611
 30
0.0
 11
72.4549230997
 21
323.9603641676
 31
0.0
  0
LINE
  5
1AA
330
1F
100
AcDbEntity
  8
0
  6
Continuous
 62
     7
370
    15
100
AcDbLine
 10
103.954919881
 20
379.9182701158
 30
0.0
 11
103.954919881
 21
378.8553814637
 31
0.0
  0
LINE
  5
1AB
330
1F
100
AcDbEntity
  8
0
  6
Continuous
 62
     7
370
    15
100
AcDbLine
 10
103.954919881
 20
364.7202666151
 30
0.0
 11
103.954919881
 21
356.644787197
 31
0.0
  0
LINE
  5
1AC
330
1F
100
AcDbEntity
  8
0
  6
Continuous
 62
     7
370
    15
100
AcDbLine
 10
170.95492155
 20
356.7455935525
 30
0.0
 11
170.95492155
 21
365.2580346214
 31
0.0
  0
LINE
  5
1AD
330
1F
100
AcDbEntity
  8
0
  6
Continuous
 62
     7
370
    15
100
AcDbLine
 10
170.95492155
 20
378.8553814637
 30
0.0
 11
170.95492155
 21
379.9182887422
 31
0.0
  0
LINE
  5
1AE
330
1F
100
AcDbEntity
  8
0
  6
Continuous
 62
     7
370
    15
100
AcDbLine
 10
172.3750469152
 20
475.7835793542
 30
0.0
 11
172.3750469152
 21
478.9603653597
 31
0.0
  0
LINE
  5
1AF
330
1F
100
AcDbEntity
  8
0
  6
Continuous
 62
     7
370
    15
100
AcDbLine
 10
102.5347945158
 20
478.9603653597
 30
0.0
 11
102.5347945158
 21
475.7835793542
 31
0.0
  0
SPLINE
  5
1B0
330
1F
100
AcDbEntity
  8
0
  6
Continuous
 62
     7
370
    15
100
AcDbSpline
210
0.0
220
0.0
230
1.0
 70
     8
 71
     3
 72
     9
 73
     5
 74
     0
 42
0.00000001
 43
0.00000001
 40
0.0
 40
0.0
 40
0.0
 40
0.0
 40
0.7277860963339642
 40
1.0
 40
1.0
 40
1.0
 40
1.0
 10
169.2103941802153
 20
461.6165722953266
 30
0.0
 10
169.1269553083099
 20
461.7078211847181
 30
0.0
 10
169.0123077871143
 20
461.8331999049919
 30
0.0
 10
168.9115498039325
 20
462.0199410528443
 30
0.0
 10
168.8841220800051
 20
462.0707745896763
 30
0.0
  0
LINE
  5
1B1
330
1F
100
AcDbEntity
  8
0
  6
Continuous
 62
     7
370
    15
100
AcDbLine
 10
139.4049206626
 20
542.9603683995
 30
0.0
 11
135.5049207684
 21
542.9603683995
 31
0.0
  0
LINE
  5
1B2
330
1F
100
AcDbEntity
  8
0
  6
Continuous
 62
     7
370
    15
100
AcDbLine
 10
140.9549208235
 20
541.4103645133
 30
0.0
 11
133.9549206075
 21
541.4103645133
 31
0.0
  0
LINE
  5
1B3
330
1F
100
AcDbEntity
  8
0
  6
Continuous
 62
     7
370
    15
100
AcDbLine
 10
140.9549208235
 20
523.4603661345
 30
0.0
 11
133.9549206075
 21
523.4603661345
 31
0.0
  0
LINE
  5
1B4
330
1F
100
AcDbEntity
  8
0
  6
Continuous
 62
     7
370
    15
100
AcDbLine
 10
140.9549208235
 20
539.4103679108
 30
0.0
 11
133.9549206075
 21
539.4103679108
 31
0.0
  0
LINE
  5
1B5
330
1F
100
AcDbEntity
  8
0
  6
Continuous
 62
     7
370
    15
100
AcDbLine
 10
140.9549208235
 20
536.3603684353
 30
0.0
 11
133.9549206075
 21
536.3603684353
 31
0.0
  0
LINE
  5
1B6
330
1F
100
AcDbEntity
  8
0
  6
Continuous
 62
     7
370
    15
100
AcDbLine
 10
140.9549208235
 20
526.4603647636
 30
0.0
 11
133.9549206075
 21
526.4603647636
 31
0.0
  0
LINE
  5
1B7
330
1F
100
AcDbEntity
  8
0
  6
Continuous
 62
     7
370
    15
100
AcDbLine
 10
152.4349211592
 20
491.9603693532
 30
0.0
 11
146.4215473149
 21
491.9603693532
 31
0.0
  0
LINE
  5
1B8
330
1F
100
AcDbEntity
  8
0
  6
Continuous
 62
     7
370
    15
100
AcDbLine
 10
128.4882941161
 20
491.9603693532
 30
0.0
 11
122.4749202717
 21
491.9603693532
 31
0.0
  0
LINE
  5
1B9
330
1F
100
AcDbEntity
  8
0
  6
Continuous
 62
     7
370
    15
100
AcDbLine
 10
128.4882941161
 20
491.9603693532
 30
0.0
 11
128.4882941161
 21
485.3389340686
 31
0.0
  0
LINE
  5
1BA
330
1F
100
AcDbEntity
  8
0
  6
Continuous
 62
     7
370
    15
100
AcDbLine
 10
146.4215473149
 20
485.3389340686
 30
0.0
 11
146.4215473149
 21
491.9603693532
 31
0.0
  0
LINE
  5
1BB
330
1F
100
AcDbEntity
  8
0
  6
Continuous
 62
     7
370
    15
100
AcDbLine
 10
146.4215473149
 20
491.9603693532
 30
0.0
 11
128.4882941161
 21
491.9603693532
 31
0.0
  0
CIRCLE
  5
1BC
330
1F
100
AcDbEntity
  8
0
  6
Continuous
 62
     7
370
    15
100
AcDbCircle
 10
137.4549029053
 20
420.9603653808
 30
0.0
 40
20.00000120079474
  0
SPLINE
  5
1BD
330
1F
100
AcDbEntity
  8
0
  6
Continuous
 62
     7
370
    15
100
AcDbSpline
210
0.0
220
0.0
230
1.0
 70
     8
 71
     3
 72
    18
 73
    14
 74
     0
 42
0.00000001
 43
0.00000001
 40
0.0
 40
0.0
 40
0.0
 40
0.0
 40
0.074805333472887
 40
0.1791673280383052
 40
0.2819731795123507
 40
0.3878636058294832
 40
0.4890753596355192
 40
0.5936428732724132
 40
0.6885019138494384
 40
0.7858377274296404
 40
0.8857140076939568
 40
0.9883839970920704
 40
1.0
 40
1.0
 40
1.0
 40
1.0
 10
156.7624595824846
 20
426.1788146803266
 30
0.0
 10
156.0771011392513
 20
426.1824185058721
 30
0.0
 10
154.4355892934802
 20
426.1910500801694
 30
0.0
 10
151.2612218820598
 20
426.1384307139272
 30
0.0
 10
147.3966988185494
 20
426.065592933681
 30
0.0
 10
143.2541659655828
 20
425.970653384743
 30
0.0
 10
138.9156287363242
 20
425.8756646178043
 30
0.0
 10
134.6750650116139
 20
425.8956996936172
 30
0.0
 10
130.5879061010188
 20
426.0000140126636
 30
0.0
 10
126.7306070350038
 20
426.0789576141067
 30
0.0
 10
123.1143506753745
 20
426.147437817455
 30
0.0
 10
120.6771028758317
 20
426.1894328049138
 30
0.0
 10
119.6322270531281
 20
426.1839853863997
 30
0.0
 10
119.526026106275
 20
426.1834317119903
 30
0.0
  0
CIRCLE
  5
1BE
330
1F
100
AcDbEntity
  8
0
  6
Continuous
 62
     7
370
    15
100
AcDbCircle
 10
137.4549207155
 20
420.9603670286
 30
0.0
 40
38.99999999999999
  0
CIRCLE
  5
1BF
330
1F
100
AcDbEntity
  8
0
  6
Continuous
 62
     7
370
    15
100
AcDbCircle
 10
137.4549207155
 20
420.9603670286
 30
0.0
 40
41.99999999999999
  0
CIRCLE
  5
1C0
330
1F
100
AcDbEntity
  8
0
  6
Continuous
 62
     7
370
    15
100
AcDbCircle
 10
137.4549207155
 20
420.9603670286
 30
0.0
 40
64.99999999999999
  0
CIRCLE
  5
1C1
330
1F
100
AcDbEntity
  8
0
  6
Continuous
 62
     7
370
    15
100
AcDbCircle
 10
102.0995816562
 20
456.3157060879
 30
0.0
 40
7.0
  0
CIRCLE
  5
1C2
330
1F
100
AcDbEntity
  8
0
  6
Continuous
 62
     7
370
    15
100
AcDbCircle
 10
102.0995816562
 20
385.6050279693
 30
0.0
 40
7.0
  0
CIRCLE
  5
1C3
330
1F
100
AcDbEntity
  8
0
  6
Continuous
 62
     7
370
    15
100
AcDbCircle
 10
172.8102597748
 20
385.6050279693
 30
0.0
 40
7.0
  0
CIRCLE
  5
1C4
330
1F
100
AcDbEntity
  8
0
  6
Continuous
 62
     7
370
    15
100
AcDbCircle
 10
172.8102597748
 20
456.3157060879
 30
0.0
 40
6.999999999999972
  0
LINE
  5
1C5
330
1F
100
AcDbEntity
  8
0
  6
Continuous
 62
     7
370
    15
100
AcDbLine
 10
100.7639963988
 20
455.5899950909
 30
0.0
 11
100.2629299525
 21
454.1365395533
 31
0.0
  0
SPLINE
  5
1C6
330
1F
100
AcDbEntity
  8
0
  6
Continuous
 62
     7
370
    15
100
AcDbSpline
210
0.0
220
0.0
230
1.0
 70
     8
 71
     3
 72
    22
 73
    18
 74
     0
 42
0.00000001
 43
0.00000001
 40
0.0
 40
0.0
 40
0.0
 40
0.0
 40
0.4999999999999957
 40
0.4999999999999957
 40
0.7499999999999946
 40
0.7499999999999946
 40
0.8749999999999941
 40
0.8749999999999941
 40
0.9374999999999944
 40
0.968749999999994
 40
0.9843749999999925
 40
0.9921874999999937
 40
0.9960937499999954
 40
0.9980468749999978
 40
0.9990234374999989
 40
0.9990234374999989
 40
1.0
 40
1.0
 40
1.0
 40
1.0
 10
105.2786638622603
 20
461.2508666252202
 30
0.0
 10
104.2504181384146
 20
460.5417099155066
 30
0.0
 10
103.3502083892645
 20
459.6974663303071
 30
0.0
 10
102.1966267794524
 20
458.2429073811713
 30
0.0
 10
101.8541661358505
 20
457.7371288480413
 30
0.0
 10
101.4005021844323
 20
456.9518236886347
 30
0.0
 10
101.2593011913733
 20
456.6855645699019
 30
0.0
 10
101.0623811807987
 20
456.2796357604009
 30
0.0
 10
100.9676447279292
 20
456.0750326873184
 30
0.0
 10
100.8636405000655
 20
455.8334697086336
 30
0.0
 10
100.8132726904984
 20
455.7119721724812
 30
0.0
 10
100.7884979561842
 20
455.651044198382
 30
0.0
 10
100.7762129675605
 20
455.6205353786916
 30
0.0
 10
100.7700960793707
 20
455.6052697563889
 30
0.0
 10
100.7674800441588
 20
455.5987249436801
 30
0.0
 10
100.7657372404494
 20
455.5943612011189
 30
0.0
 10
100.7644228599603
 20
455.5910665484527
 30
0.0
 10
100.7639962667499
 20
455.5899966581238
 30
0.0
  0
SPLINE
  5
1C7
330
1F
100
AcDbEntity
  8
0
  6
Continuous
 62
     7
370
    15
100
AcDbSpline
210
0.0
220
0.0
230
1.0
 70
     8
 71
     3
 72
    19
 73
    15
 74
     0
 42
0.00000001
 43
0.00000001
 40
0.0
 40
0.0
 40
0.0
 40
0.0
 40
0.0435756906675551
 40
0.092489825818217
 40
0.1467600211726627
 40
0.2068596888252821
 40
0.2749947154462337
 40
0.4051189599787962
 40
0.5250872880671662
 40
0.6204605391389052
 40
0.7156779902057419
 40
0.8107007839507591
 40
0.9054887409423523
 40
1.0
 40
1.0
 40
1.0
 40
1.0
 10
106.6142595894005
 20
461.7633254317286
 30
0.0
 10
106.5780220378985
 20
461.7497773067124
 30
0.0
 10
106.5011074835873
 20
461.7210212800442
 30
0.0
 10
106.3859229553896
 20
461.6781864640677
 30
0.0
 10
106.261841968108
 20
461.6318606049557
 30
0.0
 10
106.1278179254167
 20
461.5815326113528
 30
0.0
 10
105.9516037446408
 20
461.5159781832705
 30
0.0
 10
105.7623939171378
 20
461.4442451696418
 30
0.0
 10
105.5924601941021
 20
461.3770171756245
 30
0.0
 10
105.472165334587
 20
461.3292053344098
 30
0.0
 10
105.3854979608642
 20
461.2942543029608
 30
0.0
 10
105.3242230906579
 20
461.2694066851732
 30
0.0
 10
105.2858299277533
 20
461.2537854786932
 30
0.0
 10
105.2810641866768
 20
461.2518482589422
 30
0.0
 10
105.2786847991712
 20
461.25088106488
 30
0.0
  0
SPLINE
  5
1C8
330
1F
100
AcDbEntity
  8
0
  6
Continuous
 62
     7
370
    15
100
AcDbSpline
210
0.0
220
0.0
230
1.0
 70
     8
 71
     3
 72
    21
 73
    17
 74
     0
 42
0.00000001
 43
0.00000001
 40
0.0
 40
0.0
 40
0.0
 40
0.0
 40
0.0589980766412303
 40
0.1181116627098605
 40
0.1773304204492652
 40
0.2366441562663815
 40
0.2960430287727824
 40
0.3555173206811806
 40
0.4150573584696171
 40
0.4746542890720441
 40
0.5945989892356415
 40
0.7246033123222987
 40
0.8304146213745951
 40
0.9041929903682399
 40
0.9521588202740101
 40
1.0
 40
1.0
 40
1.0
 40
1.0
 10
169.6311566318043
 20
461.2508810648802
 30
0.0
 10
169.6302285338357
 20
461.2512583548793
 30
0.0
 10
169.6283705208213
 20
461.2520136735553
 30
0.0
 10
169.6133974441662
 20
461.2581045138362
 30
0.0
 10
169.5894997806289
 20
461.2678231049302
 30
0.0
 10
169.55578410949
 20
461.2815098960727
 30
0.0
 10
169.5124516642381
 20
461.2990495094259
 30
0.0
 10
169.4594492717042
 20
461.3203997135891
 30
0.0
 10
169.3967324904121
 20
461.3455194832399
 30
0.0
 10
169.3002160980195
 20
461.3837867157185
 30
0.0
 10
169.1479663189599
 20
461.444047045367
 30
0.0
 10
168.9364793348662
 20
461.5242233282334
 30
0.0
 10
168.7204582544587
 20
461.6043632548535
 30
0.0
 10
168.5500998225869
 20
461.6677947129859
 30
0.0
 10
168.4155289412033
 20
461.718333854997
 30
0.0
 10
168.3355295135684
 20
461.7483412532422
 30
0.0
 10
168.2955818415747
 20
461.7633254317286
 30
0.0
  0
SPLINE
  5
1C9
330
1F
100
AcDbEntity
  8
0
  6
Continuous
 62
     7
370
    15
100
AcDbSpline
210
0.0
220
0.0
230
1.0
 70
     8
 71
     3
 72
    10
 73
     6
 74
     0
 42
0.00000001
 43
0.00000001
 40
0.0
 40
0.0
 40
0.0
 40
0.0
 40
0.5
 40
0.5
 40
1.0
 40
1.0
 40
1.0
 40
1.0
 10
169.6311086406444
 20
461.2507657614344
 30
0.0
 10
170.639006793784
 20
460.5557136561101
 30
0.0
 10
171.5439360124133
 20
459.7116126840895
 30
0.0
 10
173.0707239817732
 20
457.7972608456102
 30
0.0
 10
173.6923938184552
 20
456.7272468476386
 30
0.0
 10
174.1458451641783
 20
455.5899966582433
 30
0.0
  0
LWPOLYLINE
  5
1CA
330
1F
100
AcDbEntity
  8
0
  6
Continuous
 62
     7
370
    15
100
AcDbPolyline
 90
        3
 70
   128
 43
0.0
 10
174.1458450321
 20
455.5899950909
 10
175.238476402
 20
452.4778726744
 10
175.8986723487
 20
450.0338494079
  0
LINE
  5
1CB
330
1F
100
AcDbEntity
  8
0
  6
Continuous
 62
     7
370
    15
100
AcDbLine
 10
139.4549208105
 20
355.9911403107
 30
0.0
 11
139.4549208105
 21
352.9603633331
 31
0.0
  0
LINE
  5
1CC
330
1F
100
AcDbEntity
  8
0
  6
Continuous
 62
     7
370
    15
100
AcDbLine
 10
137.5049207142
 20
355.960384314
 30
0.0
 11
137.5049207142
 21
352.9603633331
 31
0.0
  0
LINE
  5
1CD
330
1F
100
AcDbEntity
  8
0
  6
Continuous
 62
     7
370
    15
100
AcDbLine
 10
135.4549206205
 20
355.9911403107
 30
0.0
 11
135.4549206205
 21
352.9603633331
 31
0.0
  0
LINE
  5
1CE
330
1F
100
AcDbEntity
  8
0
  6
Continuous
 62
     7
370
    15
100
AcDbLine
 10
137.4049207168
 20
355.960384314
 30
0.0
 11
137.4049207168
 21
352.9603633331
 31
0.0
  0
LINE
  5
1CF
330
1F
100
AcDbEntity
  8
0
  6
Continuous
 62
     7
370
    15
100
AcDbLine
 10
137.4049207168
 20
336.9603681611
 30
0.0
 11
132.9549209092
 21
336.9603681611
 31
0.0
  0
SPLINE
  5
1D0
330
1F
100
AcDbEntity
  8
0
  6
Continuous
 62
     7
370
    15
100
AcDbSpline
210
0.0
220
0.0
230
1.0
 70
     8
 71
     3
 72
    24
 73
    20
 74
     0
 42
0.00000001
 43
0.00000001
 40
0.0
 40
0.0
 40
0.0
 40
0.0
 40
0.0312499999999986
 40
0.0312499999999986
 40
0.0624999999999972
 40
0.0624999999999972
 40
0.1249999999999958
 40
0.1249999999999958
 40
0.2499999999999915
 40
0.2499999999999915
 40
0.4999999999999867
 40
0.4999999999999867
 40
0.62499999999999
 40
0.62499999999999
 40
0.7499999999999933
 40
0.7499999999999933
 40
0.8749999999999967
 40
0.8749999999999967
 40
1.0
 40
1.0
 40
1.0
 40
1.0
 10
132.9549207154879
 20
336.9603670286126
 30
0.0
 10
132.9970814962218
 20
336.9603670286126
 30
0.0
 10
133.0381428132903
 20
336.9614717856168
 30
0.0
 10
133.1129782362763
 20
336.9650872500804
 30
0.0
 10
133.1478376978658
 20
336.9675871942416
 30
0.0
 10
133.2499539508807
 20
336.9768959800683
 30
0.0
 10
133.31387653015
 20
336.9854386612146
 30
0.0
 10
133.5036652292969
 20
337.0179587373786
 30
0.0
 10
133.6266901847567
 20
337.0489166309883
 30
0.0
 10
133.9906686906688
 20
337.1706737976136
 30
0.0
 10
134.220897405451
 20
337.2875824832471
 30
0.0
 10
134.5485373264277
 20
337.5293547261234
 30
0.0
 10
134.6555968199585
 20
337.6223177802019
 30
0.0
 10
134.8553393037308
 20
337.8296820678181
 30
0.0
 10
134.9485966725288
 20
337.9441527303396
 30
0.0
 10
135.1193984709899
 20
338.199936282436
 30
0.0
 10
135.1951260552515
 20
338.3389913619345
 30
0.0
 10
135.3206254341098
 20
338.6360827727803
 30
0.0
 10
135.3708598196532
 20
338.7960925421057
 30
0.0
 10
135.4043570791643
 20
338.9601055966598
 30
0.0
  0
LINE
  5
1D1
330
1F
100
AcDbEntity
  8
0
  6
Continuous
 62
     7
370
    15
100
AcDbLine
 10
137.4049207168
 20
338.9603647636
 30
0.0
 11
137.4049207168
 21
336.9603681611
 31
0.0
  0
LINE
  5
1D2
330
1F
100
AcDbEntity
  8
0
  6
Continuous
 62
     7
370
    15
100
AcDbLine
 10
141.9549205218
 20
336.9603681611
 30
0.0
 11
137.5049207142
 21
336.9603681611
 31
0.0
  0
SPLINE
  5
1D3
330
1F
100
AcDbEntity
  8
0
  6
Continuous
 62
     7
370
    15
100
AcDbSpline
210
0.0
220
0.0
230
1.0
 70
     8
 71
     3
 72
    26
 73
    22
 74
     0
 42
0.00000001
 43
0.00000001
 40
0.0
 40
0.0
 40
0.0
 40
0.0
 40
0.1249999999999998
 40
0.1249999999999998
 40
0.2499999999999997
 40
0.2499999999999997
 40
0.3749999999999995
 40
0.3749999999999995
 40
0.4999999999999993
 40
0.4999999999999993
 40
0.6249999999999991
 40
0.6249999999999991
 40
0.749999999999999
 40
0.749999999999999
 40
0.8749999999999989
 40
0.8749999999999989
 40
0.9374999999999988
 40
0.9374999999999988
 40
0.9687499999999993
 40
0.9687499999999993
 40
1.0
 40
1.0
 40
1.0
 40
1.0
 10
139.5054843518114
 20
338.9601055966598
 30
0.0
 10
139.5390127075647
 20
338.7959402851827
 30
0.0
 10
139.5878641141222
 20
338.6398989375539
 30
0.0
 10
139.7132196003664
 20
338.3419301940184
 30
0.0
 10
139.7896091354248
 20
338.201462724151
 30
0.0
 10
139.9593044457881
 20
337.9467851871992
 30
0.0
 10
140.0543472432438
 20
337.8298845285682
 30
0.0
 10
140.253703078324
 20
337.6228384554059
 30
0.0
 10
140.358682485368
 20
337.5314717427171
 30
0.0
 10
140.5780662553275
 20
337.3692225317443
 30
0.0
 10
140.6929436842269
 20
337.2983175241724
 30
0.0
 10
140.9250034511608
 20
337.1786320493213
 30
0.0
 10
141.0429683899542
 20
337.1291855238476
 30
0.0
 10
141.2834104974393
 20
337.048907246808
 30
0.0
 10
141.4055084902073
 20
337.0180897111689
 30
0.0
 10
141.5958306421996
 20
336.9854534156933
 30
0.0
 10
141.6600728963172
 20
336.9768755043256
 30
0.0
 10
141.7621057830796
 20
336.9675796833383
 30
0.0
 10
141.7968882637505
 20
336.9650836727608
 30
0.0
 10
141.8719881799613
 20
336.9614601723364
 30
0.0
 10
141.9130511515815
 20
336.9603670286126
 30
0.0
 10
141.9549207154878
 20
336.9603670286126
 30
0.0
  0
LWPOLYLINE
  5
1D4
330
1F
100
AcDbEntity
  8
0
  6
Continuous
 62
     7
370
    15
100
AcDbPolyline
 90
        9
 70
   128
 43
0.0
 10
137.5049207142
 20
336.9603681611
 10
137.5049207142
 20
336.9987982558
 10
137.5049207179
 20
337.112613325
 10
137.5049207179
 20
337.2974324273
 10
137.5049207215
 20
337.54616261
 10
137.5049207215
 20
337.8492298769
 10
137.5049207251
 20
338.1950038718
 10
137.5049207288
 20
338.5701853084
 10
137.5049207142
 20
338.9603647636
  0
LINE
  5
1D5
330
1F
100
AcDbEntity
  8
0
  6
Continuous
 62
     7
370
    15
100
AcDbLine
 10
202.4549183313
 20
336.9603681611
 30
0.0
 11
141.9549205218
 21
336.9603681611
 31
0.0
  0
LINE
  5
1D6
330
1F
100
AcDbEntity
  8
0
  6
Continuous
 62
     7
370
    15
100
AcDbLine
 10
132.9549209092
 20
336.9603681611
 30
0.0
 11
72.4549230997
 21
336.9603681611
 31
0.0
  0
LINE
  5
1D7
330
1F
100
AcDbEntity
  8
0
  6
Continuous
 62
     7
370
    15
100
AcDbLine
 10
202.4549183313
 20
323.9603641676
 30
0.0
 11
72.4549230997
 21
323.9603641676
 31
0.0
  0
LINE
  5
1D8
330
1F
100
AcDbEntity
  8
0
  6
Continuous
 62
     7
370
    15
100
AcDbLine
 10
137.5049207142
 20
336.9603681611
 30
0.0
 11
137.4049207168
 21
336.9603681611
 31
0.0
  0
ARC
  5
1D9
330
1F
100
AcDbEntity
  8
0
  6
Continuous
 62
     7
370
    15
100
AcDbCircle
 10
141.9549207155
 20
339.4603670286
 30
0.0
 40
2.500000000000009
100
AcDbArc
 50
180.0
 51
191.5430742292
  0
LINE
  5
1DA
330
1F
100
AcDbEntity
  8
0
  6
Continuous
 62
     7
370
    15
100
AcDbLine
 10
139.4549208105
 20
352.9603633331
 30
0.0
 11
139.4549208105
 21
339.4603657769
 31
0.0
  0
LINE
  5
1DB
330
1F
100
AcDbEntity
  8
0
  6
Continuous
 62
     7
370
    15
100
AcDbLine
 10
137.5049207142
 20
352.9603633331
 30
0.0
 11
137.5049207142
 21
338.9603647636
 31
0.0
  0
ARC
  5
1DC
330
1F
100
AcDbEntity
  8
0
  6
Continuous
 62
     7
370
    15
100
AcDbCircle
 10
132.9549207155
 20
339.4603670286
 30
0.0
 40
2.5
100
AcDbArc
 50
348.4569257708
 51
0.0
  0
LINE
  5
1DD
330
1F
100
AcDbEntity
  8
0
  6
Continuous
 62
     7
370
    15
100
AcDbLine
 10
135.4549206205
 20
352.9603633331
 30
0.0
 11
135.4549206205
 21
339.4603657769
 31
0.0
  0
LINE
  5
1DE
330
1F
100
AcDbEntity
  8
0
  6
Continuous
 62
     7
370
    15
100
AcDbLine
 10
137.4049207168
 20
352.9603633331
 30
0.0
 11
137.4049207168
 21
338.9603647636
 31
0.0
  0
LINE
  5
1DF
330
1F
100
AcDbEntity
  8
0
  6
Continuous
 62
     7
370
    15
100
AcDbLine
 10
135.0911166862
 20
342.9603654193
 30
0.0
 11
133.2674206112
 21
342.9603654193
 31
0.0
  0
LINE
  5
1E0
330
1F
100
AcDbEntity
  8
0
  6
Continuous
 62
     7
370
    15
100
AcDbLine
 10
135.4549206205
 20
342.9603654193
 30
0.0
 11
135.0911166862
 21
342.9603654193
 31
0.0
  0
LINE
  5
1E1
330
1F
100
AcDbEntity
  8
0
  6
Continuous
 62
     7
370
    15
100
AcDbLine
 10
139.8187247448
 20
342.9603654193
 30
0.0
 11
139.4549208105
 21
342.9603654193
 31
0.0
  0
LINE
  5
1E2
330
1F
100
AcDbEntity
  8
0
  6
Continuous
 62
     7
370
    15
100
AcDbLine
 10
141.6424208198
 20
342.9603654193
 30
0.0
 11
139.8187247448
 21
342.9603654193
 31
0.0
  0
LINE
  5
1E3
330
1F
100
AcDbEntity
  8
0
  6
Continuous
 62
     7
370
    15
100
AcDbLine
 10
175.8264687721
 20
391.8047848391
 30
0.0
 11
175.6157663528
 21
390.9603676992
 31
0.0
  0
ARC
  5
1E4
330
1F
100
AcDbEntity
  8
0
  6
Continuous
 62
     7
370
    15
100
AcDbCircle
 10
137.4549207155
 20
400.9603670286
 30
0.0
 40
39.4493345951484
100
AcDbArc
 50
343.8090948501
 51
345.3158887874
  0
SPLINE
  5
1E5
330
1F
100
AcDbEntity
  8
0
  6
Continuous
 62
     7
370
    15
100
AcDbSpline
210
0.0
220
0.0
230
1.0
 70
     8
 71
     3
 72
    18
 73
    14
 74
     0
 42
0.00000001
 43
0.00000001
 40
0.0
 40
0.0
 40
0.0
 40
0.0
 40
0.5000000000000074
 40
0.7500000000000141
 40
0.8750000000000115
 40
0.9375000000000061
 40
0.9687500000000018
 40
0.9843750000000024
 40
0.992187499999997
 40
0.9960937499999957
 40
0.9980468749999979
 40
0.9980468749999979
 40
1.0
 40
1.0
 40
1.0
 40
1.0
 10
175.3923755477772
 20
389.9603651976706
 30
0.0
 10
175.2872183924545
 20
389.5976719951071
 30
0.0
 10
175.12133284099
 20
389.0547144477135
 30
0.0
 10
174.9134177581449
 20
388.4234326329715
 30
0.0
 10
174.8058525534431
 20
388.1083679717397
 30
0.0
 10
174.7511665876538
 20
387.9509839334784
 30
0.0
 10
174.7235975922295
 20
387.8723295145392
 30
0.0
 10
174.7097565705028
 20
387.8330117708673
 30
0.0
 10
174.7028219260617
 20
387.8133552736904
 30
0.0
 10
174.6993510701269
 20
387.8035276197919
 30
0.0
 10
174.6978628031821
 20
387.7993158956646
 30
0.0
 10
174.6968704569354
 20
387.796508107935
 30
0.0
 10
174.6968900715878
 20
387.7965633343723
 30
0.0
 10
174.6958778583481
 20
387.7937003629887
 30
0.0
  0
ARC
  5
1E6
330
1F
100
AcDbEntity
  8
0
  6
Continuous
 62
     7
370
    15
100
AcDbCircle
 10
137.4549207155
 20
400.9603670286
 30
0.0
 40
39.49999999999967
100
AcDbArc
 50
196.1695677011
 51
199.4712206345
  0
ARC
  5
1E7
330
1F
100
AcDbEntity
  8
0
  6
Continuous
 62
     7
370
    15
100
AcDbCircle
 10
137.4549207155
 20
400.9603670286
 30
0.0
 40
39.44933459514843
100
AcDbArc
 50
194.6841112126
 51
196.1909051499
  0
LINE
  5
1E8
330
1F
100
AcDbEntity
  8
0
  6
Continuous
 62
     7
370
    15
100
AcDbLine
 10
99.0676519338
 20
391.8677813606
 30
0.0
 11
99.2940750782
 21
390.9603676992
 31
0.0
  0
LINE
  5
1E9
330
1F
100
AcDbEntity
  8
0
  6
Continuous
 62
     7
370
    15
100
AcDbLine
 10
137.5049207142
 20
342.9603654193
 30
0.0
 11
137.4049207168
 21
342.9603654193
 31
0.0
  0
SPLINE
  5
1EA
330
1F
100
AcDbEntity
  8
0
  6
Continuous
 62
     7
370
    15
100
AcDbSpline
210
0.0
220
0.0
230
1.0
 70
     8
 71
     3
 72
    12
 73
     8
 74
     0
 42
0.00000001
 43
0.00000001
 40
0.0
 40
0.0
 40
0.0
 40
0.0
 40
0.5000000000000008
 40
0.5000000000000008
 40
0.7500000000000003
 40
0.7500000000000003
 40
1.0
 40
1.0
 40
1.0
 40
1.0
 10
174.6958778583481
 20
387.7937003629887
 30
0.0
 10
174.4421686050505
 20
387.0761022290694
 30
0.0
 10
174.1240495017838
 20
386.3840175484622
 30
0.0
 10
173.5500987345973
 20
385.3876475678918
 30
0.0
 10
173.3425577759766
 20
385.0625513715129
 30
0.0
 10
172.8941946609413
 20
384.4280865627116
 30
0.0
 10
172.653384395062
 20
384.1191687002956
 30
0.0
 10
172.4002804144399
 20
383.8240663005307
 30
0.0
  0
SPLINE
  5
1EB
330
1F
100
AcDbEntity
  8
0
  6
Continuous
 62
     7
370
    15
100
AcDbSpline
210
0.0
220
0.0
230
1.0
 70
     8
 71
     3
 72
     8
 73
     4
 74
     0
 42
0.00000001
 43
0.00000001
 40
0.0
 40
0.0
 40
0.0
 40
0.0
 40
1.0
 40
1.0
 40
1.0
 40
1.0
 10
100.2139635729969
 20
387.7937003619456
 30
0.0
 10
100.726376045336
 20
386.3443790261235
 30
0.0
 10
101.5089768864858
 20
384.9910839214027
 30
0.0
 10
102.5095700183249
 20
383.824073955381
 30
0.0
  0
SPLINE
  5
1EC
330
1F
100
AcDbEntity
  8
0
  6
Continuous
 62
     7
370
    15
100
AcDbSpline
210
0.0
220
0.0
230
1.0
 70
     8
 71
     3
 72
    10
 73
     6
 74
     0
 42
0.00000001
 43
0.00000001
 40
0.0
 40
0.0
 40
0.0
 40
0.0
 40
0.5
 40
0.5
 40
1.0
 40
1.0
 40
1.0
 40
1.0
 10
102.5097820810936
 20
383.82382662924
 30
0.0
 10
102.9615588557707
 20
383.2969389524114
 30
0.0
 10
103.3334695396245
 20
382.6722510996751
 30
0.0
 10
103.8306304803152
 20
381.3286556883633
 30
0.0
 10
103.9549207154878
 20
380.6123426230339
 30
0.0
 10
103.9549207154879
 20
379.9182872375412
 30
0.0
  0
SPLINE
  5
1ED
330
1F
100
AcDbEntity
  8
0
  6
Continuous
 62
     7
370
    15
100
AcDbSpline
210
0.0
220
0.0
230
1.0
 70
     8
 71
     3
 72
    10
 73
     6
 74
     0
 42
0.00000001
 43
0.00000001
 40
0.0
 40
0.0
 40
0.0
 40
0.0
 40
0.5
 40
0.5
 40
1.0
 40
1.0
 40
1.0
 40
1.0
 10
170.9549207154878
 20
379.9182872375413
 30
0.0
 10
170.9549207154879
 20
380.612342623034
 30
0.0
 10
171.0792109506606
 20
381.3286556883634
 30
0.0
 10
171.5763718913513
 20
382.6722510996751
 30
0.0
 10
171.948282575205
 20
383.2969389524114
 30
0.0
 10
172.4000593498821
 20
383.82382662924
 30
0.0
  0
SPLINE
  5
1EE
330
1F
100
AcDbEntity
  8
0
  6
Continuous
 62
     7
370
    15
100
AcDbSpline
210
0.0
220
0.0
230
1.0
 70
     8
 71
     3
 72
    11
 73
     7
 74
     0
 42
0.00000001
 43
0.00000001
 40
0.0
 40
0.0
 40
0.0
 40
0.0
 40
0.2382569252621768
 40
0.5146096914476529
 40
0.791028470047194
 40
1.0
 40
1.0
 40
1.0
 40
1.0
 10
104.0769380394587
 20
349.9603647040313
 30
0.0
 10
104.0750436149201
 20
350.1962715522684
 30
0.0
 10
104.0709518588203
 20
350.7058053265671
 30
0.0
 10
104.0388990424072
 20
351.4016421814108
 30
0.0
 10
104.0023906721619
 20
351.9138443842021
 30
0.0
 10
103.9848235089097
 20
352.1399280093085
 30
0.0
 10
103.9772604469427
 20
352.2372621344513
 30
0.0
  0
SPLINE
  5
1EF
330
1F
100
AcDbEntity
  8
0
  6
Continuous
 62
     7
370
    15
100
AcDbSpline
210
0.0
220
0.0
230
1.0
 70
     8
 71
     3
 72
    22
 73
    18
 74
     0
 42
0.00000001
 43
0.00000001
 40
0.0
 40
0.0
 40
0.0
 40
0.0
 40
0.125
 40
0.125
 40
0.25
 40
0.25
 40
0.375
 40
0.375
 40
0.5
 40
0.5
 40
0.625
 40
0.625
 40
0.75
 40
0.75
 40
0.875
 40
0.875
 40
1.0
 40
1.0
 40
1.0
 40
1.0
 10
103.9772616533795
 20
352.2372633986998
 30
0.0
 10
103.979992162235
 20
352.2959615114584
 30
0.0
 10
103.9829796087994
 20
352.3546632398461
 30
0.0
 10
103.9891507633266
 20
352.4782318829605
 30
0.0
 10
103.9923095344698
 20
352.5434808261737
 30
0.0
 10
103.9986691195914
 20
352.6804386725755
 30
0.0
 10
104.0018898233584
 20
352.751811584966
 30
0.0
 10
104.0081663741639
 20
352.9027196321488
 30
0.0
 10
104.0112341924382
 20
352.9832804038834
 30
0.0
 10
104.016752760632
 20
353.1498911499644
 30
0.0
 10
104.0191890078968
 20
353.2360804614805
 30
0.0
 10
104.0235227620166
 20
353.4126294043032
 30
0.0
 10
104.025459602307
 20
353.5027611184713
 30
0.0
 10
104.0284919735022
 20
353.6886175999276
 30
0.0
 10
104.0295405619379
 20
353.7833547864236
 30
0.0
 10
104.0308280815932
 20
353.9732048974477
 30
0.0
 10
104.0310658087597
 20
354.0687752203232
 30
0.0
 10
104.031302135594
 20
354.164346732033
 30
0.0
  0
SPLINE
  5
1F0
330
1F
100
AcDbEntity
  8
0
  6
Continuous
 62
     7
370
    15
100
AcDbSpline
210
0.0
220
0.0
230
1.0
 70
     8
 71
     3
 72
    26
 73
    22
 74
     0
 42
0.00000001
 43
0.00000001
 40
0.0
 40
0.0
 40
0.0
 40
0.0
 40
0.0625000000000002
 40
0.0625000000000002
 40
0.1250000000000005
 40
0.1250000000000005
 40
0.2500000000000011
 40
0.2500000000000011
 40
0.3750000000000016
 40
0.3750000000000016
 40
0.5000000000000022
 40
0.5000000000000022
 40
0.6250000000000029
 40
0.6250000000000029
 40
0.7500000000000034
 40
0.7500000000000034
 40
0.8750000000000041
 40
0.8750000000000041
 40
0.9375000000000021
 40
0.9375000000000021
 40
1.0
 40
1.0
 40
1.0
 40
1.0
 10
104.031302135594
 20
354.164346732033
 30
0.0
 10
104.0312153746911
 20
354.2357548242171
 30
0.0
 10
104.0311274047317
 20
354.3071606968873
 30
0.0
 10
104.0304415255617
 20
354.4487370511613
 30
0.0
 10
104.0298394017403
 20
354.518896518773
 30
0.0
 10
104.0275167996772
 20
354.7280692268337
 30
0.0
 10
104.0253090873405
 20
354.866126607859
 30
0.0
 10
104.01924912626
 20
355.1365230395294
 30
0.0
 10
104.0154272624014
 20
355.2635084327038
 30
0.0
 10
104.0071015609075
 20
355.5059669324465
 30
0.0
 10
104.0025445936292
 20
355.6211651832798
 30
0.0
 10
103.9931694203203
 20
355.838977838204
 30
0.0
 10
103.9884141225982
 20
355.9375262852184
 30
0.0
 10
103.9794236416562
 20
356.1198332873523
 30
0.0
 10
103.9751059358269
 20
356.2029546696268
 30
0.0
 10
103.9674254314447
 20
356.346540453047
 30
0.0
 10
103.964120863385
 20
356.4072187663316
 30
0.0
 10
103.960230975884
 20
356.4878615957857
 30
0.0
 10
103.9591076015289
 20
356.512774437996
 30
0.0
 10
103.9572292027056
 20
356.5563382647661
 30
0.0
 10
103.9564793920598
 20
356.5752895567381
 30
0.0
 10
103.955943023701
 20
356.5942345525459
 30
0.0
  0
LINE
  5
1F1
330
1F
100
AcDbEntity
  8
0
  6
Continuous
 62
     7
370
    15
100
AcDbLine
 10
103.9559443359
 20
356.5942350077
 30
0.0
 11
103.95586983
 21
356.644787197
 31
0.0
  0
LINE
  5
1F2
330
1F
100
AcDbEntity
  8
0
  6
Continuous
 62
     7
370
    15
100
AcDbLine
 10
170.9275034134
 20
356.7455935525
 30
0.0
 11
170.9275034134
 21
349.960364704
 31
0.0
  0
ELLIPSE
  5
1F3
330
1F
100
AcDbEntity
  8
0
  6
Continuous
 62
     7
370
    15
100
AcDbEllipse
 10
137.4549207155
 20
348.6401205057
 30
0.0
 11
0.0
 21
67.88446372239763
 31
0.0
210
0.0
220
0.0
230
1.0
 40
0.5082164329
 41
1.323907116462231
 42
1.33164805146657
  0
LINE
  5
1F4
330
1F
100
AcDbEntity
  8
0
  6
Continuous
 62
     7
370
    15
100
AcDbLine
 10
166.7977229569
 20
478.9603653597
 30
0.0
 11
172.3750469152
 21
478.9603653597
 31
0.0
  0
LINE
  5
1F5
330
1F
100
AcDbEntity
  8
0
  6
Continuous
 62
     7
370
    15
100
AcDbLine
 10
102.5347945158
 20
478.9603653597
 30
0.0
 11
108.112118474
 21
478.9603653597
 31
0.0
  0
SPLINE
  5
1F6
330
1F
100
AcDbEntity
  8
0
  6
Continuous
 62
     7
370
    15
100
AcDbSpline
210
0.0
220
0.0
230
1.0
 70
     8
 71
     3
 72
     8
 73
     4
 74
     0
 42
0.00000001
 43
0.00000001
 40
0.0
 40
0.0
 40
0.0
 40
0.0
 40
1.0
 40
1.0
 40
1.0
 40
1.0
 10
169.6311566318046
 20
461.25088106488
 30
0.0
 10
169.4861871411269
 20
461.3508626498509
 30
0.0
 10
169.34312548435
 20
461.472249135498
 30
0.0
 10
169.2103942076608
 20
461.6165723205732
 30
0.0
  0
SPLINE
  5
1F7
330
1F
100
AcDbEntity
  8
0
  6
Continuous
 62
     7
370
    15
100
AcDbSpline
210
0.0
220
0.0
230
1.0
 70
     8
 71
     3
 72
     9
 73
     5
 74
     0
 42
0.00000001
 43
0.00000001
 40
0.0
 40
0.0
 40
0.0
 40
0.0
 40
0.4769441807287528
 40
1.0
 40
1.0
 40
1.0
 40
1.0
 10
105.9950266842016
 20
462.0301242219394
 30
0.0
 10
105.9035026108175
 20
461.8859062927235
 30
0.0
 10
105.7116057870754
 20
461.5835272407439
 30
0.0
 10
105.4273597210627
 20
461.3651213635157
 30
0.0
 10
105.2786831621298
 20
461.2508828984684
 30
0.0
  0
LINE
  5
1F8
330
1F
100
AcDbEntity
  8
0
  6
Continuous
 62
     7
370
    15
100
AcDbLine
 10
171.9282989267
 20
356.7455935525
 30
0.0
 11
171.9549198512
 21
356.7455935525
 31
0.0
  0
LINE
  5
1F9
330
1F
100
AcDbEntity
  8
0
  6
Continuous
 62
     8
370
    15
100
AcDbLine
 10
141.3186239422
 20
518.6030048179
 30
0.0
 11
133.5912174888
 21
518.6030048179
 31
0.0
  0
LINE
  5
1FA
330
1F
100
AcDbEntity
  8
0
  6
Continuous
 62
     8
370
    15
100
AcDbLine
 10
141.4549209055
 20
517.5677317428
 30
0.0
 11
133.4549205255
 21
517.5677317428
 31
0.0
  0
LINE
  5
1FB
330
1F
100
AcDbEntity
  8
0
  6
Continuous
 62
     8
370
    15
100
AcDbLine
 10
141.0912173212
 20
519.4517004537
 30
0.0
 11
133.8186241098
 21
519.4517004537
 31
0.0
  0
LINE
  5
1FC
330
1F
100
AcDbEntity
  8
0
  6
Continuous
 62
     8
370
    15
100
AcDbLine
 10
140.9549208235
 20
520.4869735288
 30
0.0
 11
133.9549206075
 21
520.4869735288
 31
0.0
  0
LINE
  5
1FD
330
1F
100
AcDbEntity
  8
0
  6
Continuous
 62
     8
370
    15
100
AcDbLine
 10
133.2674206112
 20
342.9603654193
 30
0.0
 11
112.4918863986
 21
342.9603654193
 31
0.0
  0
LINE
  5
1FE
330
1F
100
AcDbEntity
  8
0
  6
Continuous
 62
     8
370
    15
100
AcDbLine
 10
163.8102599297
 20
342.9603654193
 30
0.0
 11
141.6424208198
 21
342.9603654193
 31
0.0
  0
LINE
  5
1FF
330
1F
100
AcDbEntity
  8
1
100
AcDbLine
 10
361.7555486094
 20
419.6689066709
 30
0.0
 11
392.5274477176
 21
419.6689066709
 31
0.0
  0
LINE
  5
200
330
1F
100
AcDbEntity
  8
1
100
AcDbLine
 10
652.1214422678
 20
365.2580331457
 30
0.0
 11
651.9504810886
 21
356.772519809
 31
0.0
  0
LINE
  5
201
330
1F
100
AcDbEntity
  8
1
100
AcDbLine
 10
170.9275021792
 20
350.0110527536
 30
0.0
 11
170.9275021792
 21
336.9603670286
 31
0.0
  0
LINE
  5
202
330
1F
100
AcDbEntity
  8
1
100
AcDbLine
 10
104.0043165049
 20
351.8829377292
 30
0.0
 11
104.0043165049
 21
336.9603670286
 31
0.0
  0
LINE
  5
203
330
1F
100
AcDbEntity
  8
1
100
AcDbLine
 10
116.4528318021
 20
342.9603670286
 30
0.0
 11
104.0043165049
 21
342.9603670286
 31
0.0
  0
LINE
  5
204
330
1F
100
AcDbEntity
  8
1
100
AcDbLine
 10
148.8539777935
 20
342.9603670286
 30
0.0
 11
170.9275021792
 21
342.9603670286
 31
0.0
  0
LINE
  5
205
330
1F
100
AcDbEntity
  8
1
100
AcDbLine
 10
95.4549207155
 20
323.9603670286
 30
0.0
 11
98.4702698517
 21
320.9450178924
 31
0.0
  0
LINE
  5
206
330
1F
100
AcDbEntity
  8
1
100
AcDbLine
 10
137.4549207155
 20
320.9450178924
 30
0.0
 11
176.4395715793
 21
320.9450178924
 31
0.0
  0
LINE
  5
207
330
1F
100
AcDbEntity
  8
1
100
AcDbLine
 10
137.4549207155
 20
320.9450178924
 30
0.0
 11
98.4702698517
 21
320.9450178924
 31
0.0
  0
LINE
  5
208
330
1F
100
AcDbEntity
  8
1
100
AcDbLine
 10
179.4549207155
 20
323.9603670286
 30
0.0
 11
176.4395715793
 21
320.9450178924
 31
0.0
  0
ARC
  5
209
330
1F
100
AcDbEntity
  8
1
100
AcDbCircle
 10
111.4449045275
 20
448.2627390288
 30
0.0
 40
12.63382105053161
100
AcDbArc
 50
152.2945322155
 51
171.780653102
  0
ARC
  5
20A
330
1F
100
AcDbEntity
  8
1
100
AcDbCircle
 10
362.8754627209
 20
450.1607353823
 30
0.0
 40
30.51238807080757
100
AcDbArc
 50
214.157854809
 51
267.8965668768
  0
ARC
  5
20B
330
1F
100
AcDbEntity
  8
1
100
AcDbCircle
 10
391.1908938947
 20
375.1170868504
 30
0.0
 40
44.57186360746341
100
AcDbArc
 50
50.356135358
 51
88.2816429899
  0
LINE
  5
20C
330
1F
100
AcDbEntity
  8
0
  6
Continuous
 62
     7
370
    15
100
AcDbLine
 10
281.2774448566
 20
618.0944462984
 30
0.0
 11
294.2774488501
 21
618.0944462984
 31
0.0
  0
LINE
  5
20D
330
1F
100
AcDbEntity
  8
0
  6
Continuous
 62
     7
370
    15
100
AcDbLine
 10
294.2774488501
 20
748.09444153
 30
0.0
 11
281.2774448566
 21
748.09444153
 31
0.0
  0
LINE
  5
20E
330
1F
100
AcDbEntity
  8
0
  6
Continuous
 62
     7
370
    15
100
AcDbLine
 10
475.2774505786
 20
748.09444153
 30
0.0
 11
462.2774465851
 21
748.09444153
 31
0.0
  0
LINE
  5
20F
330
1F
100
AcDbEntity
  8
0
  6
Continuous
 62
     7
370
    15
100
AcDbLine
 10
462.2774465851
 20
618.0944462984
 30
0.0
 11
475.2774505786
 21
618.0944462984
 31
0.0
  0
ARC
  5
210
330
1F
100
AcDbEntity
  8
0
  6
Continuous
 62
     7
370
    15
100
AcDbCircle
 10
478.2774477176
 20
725.0944439142
 30
0.0
 40
3.0
100
AcDbArc
 50
180.0
 51
270.0
  0
ARC
  5
211
330
1F
100
AcDbEntity
  8
0
  6
Continuous
 62
     7
370
    15
100
AcDbCircle
 10
478.2774477176
 20
641.0944439142
 30
0.0
 40
3.000000000000114
100
AcDbArc
 50
90.0
 51
180.0
  0
ARC
  5
212
330
1F
100
AcDbEntity
  8
0
  6
Continuous
 62
     7
370
    15
100
AcDbCircle
 10
278.2774477176
 20
641.0944439142
 30
0.0
 40
3.000000000000114
100
AcDbArc
 50
0.0
 51
90.0
  0
ARC
  5
213
330
1F
100
AcDbEntity
  8
0
  6
Continuous
 62
     7
370
    15
100
AcDbCircle
 10
278.2774477176
 20
725.0944439142
 30
0.0
 40
3.0
100
AcDbArc
 50
270.0
 51
0.0
  0
LINE
  5
214
330
1F
100
AcDbEntity
  8
0
  6
Continuous
 62
     7
370
    15
100
AcDbLine
 10
318.1583068244
 20
714.1847463071
 30
0.0
 11
316.6979930274
 21
713.9701863497
 31
0.0
  0
ARC
  5
215
330
1F
100
AcDbEntity
  8
0
  6
Continuous
 62
     7
370
    15
100
AcDbCircle
 10
299.2774324585
 20
719.2209699063
 30
0.0
 40
4.999983647350945
100
AcDbArc
 50
180.0071494549
 51
259.1909274765
  0
ARC
  5
216
330
1F
100
AcDbEntity
  8
0
  6
Continuous
 62
     7
370
    15
100
AcDbCircle
 10
299.2774415205
 20
646.9687319485
 30
0.0
 40
4.999992673373941
100
AcDbArc
 50
100.760226698
 51
179.9980378185
  0
ARC
  5
217
330
1F
100
AcDbEntity
  8
0
  6
Continuous
 62
     7
370
    15
100
AcDbCircle
 10
457.2774541237
 20
646.9677798729
 30
0.0
 40
4.999992513932107
100
AcDbArc
 50
0.0083044845
 51
79.1425992871
  0
ARC
  5
218
330
1F
100
AcDbEntity
  8
0
  6
Continuous
 62
     7
370
    15
100
AcDbCircle
 10
457.2774526261
 20
719.2212330558
 30
0.0
 40
4.999993959031688
100
AcDbArc
 50
280.7345159902
 51
0.0000803812
  0
SPLINE
  5
219
330
1F
100
AcDbEntity
  8
0
  6
Continuous
 62
     7
370
    15
100
AcDbSpline
210
0.0
220
0.0
230
1.0
 70
     8
 71
     3
 72
     9
 73
     5
 74
     0
 42
0.00000001
 43
0.00000001
 40
0.0
 40
0.0
 40
0.0
 40
0.0
 40
0.5605054630379533
 40
1.0
 40
1.0
 40
1.0
 40
1.0
 10
304.1259541086592
 20
652.9736818491799
 30
0.0
 10
304.6193584961884
 20
653.0714912704748
 30
0.0
 10
305.4996432035933
 20
653.2459934435041
 30
0.0
 10
306.4008722207444
 20
653.2753686477893
 30
0.0
 10
306.796957450334
 20
653.2882788895947
 30
0.0
  0
SPLINE
  5
21A
330
1F
100
AcDbEntity
  8
0
  6
Continuous
 62
     7
370
    15
100
AcDbSpline
210
0.0
220
0.0
230
1.0
 70
     8
 71
     3
 72
    10
 73
     6
 74
     0
 42
0.00000001
 43
0.00000001
 40
0.0
 40
0.0
 40
0.0
 40
0.0
 40
0.1326774933295505
 40
0.8259212428252238
 40
1.0
 40
1.0
 40
1.0
 40
1.0
 10
306.9544031195082
 20
712.8838507204634
 30
0.0
 10
306.8285925688407
 20
712.8837404302114
 30
0.0
 10
306.0454182431874
 20
712.8830538701949
 30
0.0
 10
305.0961327579386
 20
712.9941405100868
 30
0.0
 10
304.299445624713
 20
713.17325792437
 30
0.0
 10
304.139543967668
 20
713.2092082619054
 30
0.0
  0
SPLINE
  5
21B
330
1F
100
AcDbEntity
  8
0
  6
Continuous
 62
     7
370
    15
100
AcDbSpline
210
0.0
220
0.0
230
1.0
 70
     8
 71
     3
 72
     9
 73
     5
 74
     0
 42
0.00000001
 43
0.00000001
 40
0.0
 40
0.0
 40
0.0
 40
0.0
 40
0.4441925697401795
 40
1.0
 40
1.0
 40
1.0
 40
1.0
 10
298.3479767016806
 20
651.8813987939936
 30
0.0
 10
299.2016197666071
 20
652.0464085899711
 30
0.0
 10
301.1234057735765
 20
652.417891156809
 30
0.0
 10
303.0512676541616
 20
652.789252141854
 30
0.0
 10
304.1227876119055
 20
652.9956573366505
 30
0.0
  0
SPLINE
  5
21C
330
1F
100
AcDbEntity
  8
0
  6
Continuous
 62
     7
370
    15
100
AcDbSpline
210
0.0
220
0.0
230
1.0
 70
     8
 71
     3
 72
     9
 73
     5
 74
     0
 42
0.00000001
 43
0.00000001
 40
0.0
 40
0.0
 40
0.0
 40
0.0
 40
0.556499942430728
 40
1.0
 40
1.0
 40
1.0
 40
1.0
 10
304.1339262298979
 20
713.1917627274377
 30
0.0
 10
303.0593198655491
 20
713.3989461488961
 30
0.0
 10
301.1283109248204
 20
713.7712434407043
 30
0.0
 10
299.2012396599978
 20
714.143424909455
 30
0.0
 10
298.346583443109
 20
714.3084874122721
 30
0.0
  0
SPLINE
  5
21D
330
1F
100
AcDbEntity
  8
0
  6
Continuous
 62
     7
370
    15
100
AcDbSpline
210
0.0
220
0.0
230
1.0
 70
     8
 71
     3
 72
     9
 73
     5
 74
     0
 42
0.00000001
 43
0.00000001
 40
0.0
 40
0.0
 40
0.0
 40
0.0
 40
0.5536761257335266
 40
1.0
 40
1.0
 40
1.0
 40
1.0
 10
452.4207307867445
 20
652.9970785348994
 30
0.0
 10
453.4928000768315
 20
652.7903414519718
 30
0.0
 10
455.4290751666534
 20
652.4169515344388
 30
0.0
 10
457.361021387521
 20
652.0438920228752
 30
0.0
 10
458.223295109693
 20
651.8773866563422
 30
0.0
  0
SPLINE
  5
21E
330
1F
100
AcDbEntity
  8
0
  6
Continuous
 62
     7
370
    15
100
AcDbSpline
210
0.0
220
0.0
230
1.0
 70
     8
 71
     3
 72
     9
 73
     5
 74
     0
 42
0.00000001
 43
0.00000001
 40
0.0
 40
0.0
 40
0.0
 40
0.0
 40
0.4447315040417928
 40
1.0
 40
1.0
 40
1.0
 40
1.0
 10
458.2070751957335
 20
714.3084520220143
 30
0.0
 10
457.3501994326408
 20
714.1430033897046
 30
0.0
 10
455.4234734073758
 20
713.7709842482539
 30
0.0
 10
453.4925190992491
 20
713.3985947586146
 30
0.0
 10
452.4203210048117
 20
713.1918186067921
 30
0.0
  0
SPLINE
  5
21F
330
1F
100
AcDbEntity
  8
0
  6
Continuous
 62
     7
370
    15
100
AcDbSpline
210
0.0
220
0.0
230
1.0
 70
     8
 71
     3
 72
    10
 73
     6
 74
     0
 42
0.00000001
 43
0.00000001
 40
0.0
 40
0.0
 40
0.0
 40
0.0
 40
0.4999719814998058
 40
0.9954429943712899
 40
1.0
 40
1.0
 40
1.0
 40
1.0
 10
448.4631537370123
 20
653.3343961208445
 30
0.0
 10
449.1255655630006
 20
653.3238411779568
 30
0.0
 10
450.444425891115
 20
653.3028263124394
 30
0.0
 10
451.7717201939016
 20
653.1569307687922
 30
0.0
 10
452.4112294822501
 20
653.0005286014173
 30
0.0
 10
452.4170576505102
 20
652.9991032301766
 30
0.0
  0
LINE
  5
220
330
1F
100
AcDbEntity
  8
0
  6
Continuous
 62
     7
370
    15
100
AcDbLine
 10
435.020212727
 20
651.5080949038
 30
0.0
 11
438.7195675544
 21
652.0516408353
 31
0.0
  0
LWPOLYLINE
  5
221
330
1F
100
AcDbEntity
  8
0
  6
Continuous
 62
     7
370
    15
100
AcDbPolyline
 90
        3
 70
   128
 43
0.0
 10
439.1844763331
 20
714.0689382076
 10
435.3098875753
 20
714.6382389336
 10
434.965249794
 20
714.6888730794
  0
LWPOLYLINE
  5
222
330
1F
100
AcDbEntity
  8
0
  6
Continuous
 62
     7
370
    15
100
AcDbPolyline
 90
        3
 70
   128
 43
0.0
 10
317.8880332879
 20
651.0511619716
 10
319.7166292838
 20
650.7823338478
 10
322.146051275
 20
650.4251604646
  0
SPLINE
  5
223
330
1F
100
AcDbEntity
  8
0
  6
Continuous
 62
     7
370
    15
100
AcDbSpline
210
0.0
220
0.0
230
1.0
 70
     8
 71
     3
 72
    10
 73
     6
 74
     0
 42
0.00000001
 43
0.00000001
 40
0.0
 40
0.0
 40
0.0
 40
0.0
 40
0.3131232924409815
 40
0.8935347390385706
 40
1.0
 40
1.0
 40
1.0
 40
1.0
 10
452.41530676407
 20
713.2224311798198
 30
0.0
 10
452.0571511669543
 20
713.150484530468
 30
0.0
 10
451.0351113643284
 20
712.94517616758
 30
0.0
 10
449.8575818322315
 20
712.8416347980452
 30
0.0
 10
449.0528025654088
 20
712.8715121349612
 30
0.0
 10
448.9280625156798
 20
712.8761430948359
 30
0.0
  0
CIRCLE
  5
224
330
1F
100
AcDbEntity
  8
0
  6
Continuous
 62
     7
370
    15
100
AcDbCircle
 10
378.2774477176
 20
683.0944439142
 30
0.0
 40
65.0
  0
LINE
  5
225
330
1F
100
AcDbEntity
  8
0
  6
Continuous
 62
     7
370
    15
100
AcDbLine
 10
446.2774514131
 20
681.0944438192
 30
0.0
 11
443.2466744356
 21
681.0944438192
 31
0.0
  0
LINE
  5
226
330
1F
100
AcDbEntity
  8
0
  6
Continuous
 62
     7
370
    15
100
AcDbLine
 10
446.2774514131
 20
683.0444439155
 30
0.0
 11
443.2774304323
 21
683.0444439155
 31
0.0
  0
LINE
  5
227
330
1F
100
AcDbEntity
  8
0
  6
Continuous
 62
     7
370
    15
100
AcDbLine
 10
313.3082209997
 20
681.0944438192
 30
0.0
 11
310.2774440221
 21
681.0944438192
 31
0.0
  0
LINE
  5
228
330
1F
100
AcDbEntity
  8
0
  6
Continuous
 62
     7
370
    15
100
AcDbLine
 10
313.277465003
 20
683.0444439155
 30
0.0
 11
310.2774440221
 21
683.0444439155
 31
0.0
  0
LINE
  5
229
330
1F
100
AcDbEntity
  8
0
  6
Continuous
 62
     7
370
    15
100
AcDbLine
 10
313.3082209997
 20
685.0944440092
 30
0.0
 11
310.2774440221
 21
685.0944440092
 31
0.0
  0
LINE
  5
22A
330
1F
100
AcDbEntity
  8
0
  6
Continuous
 62
     7
370
    15
100
AcDbLine
 10
313.277465003
 20
683.144443913
 30
0.0
 11
310.2774440221
 21
683.144443913
 31
0.0
  0
LINE
  5
22B
330
1F
100
AcDbEntity
  8
0
  6
Continuous
 62
     7
370
    15
100
AcDbLine
 10
446.2774514131
 20
685.0944440092
 30
0.0
 11
443.2466744356
 21
685.0944440092
 31
0.0
  0
LINE
  5
22C
330
1F
100
AcDbEntity
  8
0
  6
Continuous
 62
     7
370
    15
100
AcDbLine
 10
446.2774514131
 20
683.144443913
 30
0.0
 11
443.2774304323
 21
683.144443913
 31
0.0
  0
LINE
  5
22D
330
1F
100
AcDbEntity
  8
0
  6
Continuous
 62
     7
370
    15
100
AcDbLine
 10
294.2774488501
 20
683.144443913
 30
0.0
 11
294.2774488501
 21
687.5944437205
 31
0.0
  0
SPLINE
  5
22E
330
1F
100
AcDbEntity
  8
0
  6
Continuous
 62
     7
370
    15
100
AcDbSpline
210
0.0
220
0.0
230
1.0
 70
     8
 71
     3
 72
    24
 73
    20
 74
     0
 42
0.00000001
 43
0.00000001
 40
0.0
 40
0.0
 40
0.0
 40
0.0
 40
0.0312499999999986
 40
0.0312499999999986
 40
0.0624999999999972
 40
0.0624999999999972
 40
0.1249999999999958
 40
0.1249999999999958
 40
0.2499999999999915
 40
0.2499999999999915
 40
0.4999999999999867
 40
0.4999999999999867
 40
0.62499999999999
 40
0.62499999999999
 40
0.7499999999999933
 40
0.7499999999999933
 40
0.8749999999999967
 40
0.8749999999999967
 40
1.0
 40
1.0
 40
1.0
 40
1.0
 10
294.2774477176107
 20
687.594443914233
 30
0.0
 10
294.2774477176107
 20
687.5522831334989
 30
0.0
 10
294.278552474615
 20
687.5112218164305
 30
0.0
 10
294.2821679390786
 20
687.4363863934445
 30
0.0
 10
294.2846678832399
 20
687.401526931855
 30
0.0
 10
294.2939766690665
 20
687.29941067884
 30
0.0
 10
294.3025193502127
 20
687.2354880995707
 30
0.0
 10
294.3350394263769
 20
687.0456994004239
 30
0.0
 10
294.3659973199866
 20
686.9226744449642
 30
0.0
 10
294.4877544866118
 20
686.558695939052
 30
0.0
 10
294.6046631722454
 20
686.3284672242697
 30
0.0
 10
294.8464354151217
 20
686.000827303293
 30
0.0
 10
294.9393984692001
 20
685.8937678097623
 30
0.0
 10
295.1467627568163
 20
685.69402532599
 30
0.0
 10
295.2612334193378
 20
685.600767957192
 30
0.0
 10
295.5170169714342
 20
685.4299661587308
 30
0.0
 10
295.6560720509327
 20
685.3542385744693
 30
0.0
 10
295.9531634617785
 20
685.2287391956108
 30
0.0
 10
296.1131732311039
 20
685.1785048100676
 30
0.0
 10
296.277186285658
 20
685.1450075505564
 30
0.0
  0
LINE
  5
22F
330
1F
100
AcDbEntity
  8
0
  6
Continuous
 62
     7
370
    15
100
AcDbLine
 10
296.2774454526
 20
683.144443913
 30
0.0
 11
294.2774488501
 21
683.144443913
 31
0.0
  0
LINE
  5
230
330
1F
100
AcDbEntity
  8
0
  6
Continuous
 62
     7
370
    15
100
AcDbLine
 10
462.2774465851
 20
678.5944441079
 30
0.0
 11
462.2774465851
 21
683.0444439155
 31
0.0
  0
SPLINE
  5
231
330
1F
100
AcDbEntity
  8
0
  6
Continuous
 62
     7
370
    15
100
AcDbSpline
210
0.0
220
0.0
230
1.0
 70
     8
 71
     3
 72
    24
 73
    20
 74
     0
 42
0.00000001
 43
0.00000001
 40
0.0
 40
0.0
 40
0.0
 40
0.0
 40
0.0312500000000015
 40
0.0312500000000015
 40
0.062500000000003
 40
0.062500000000003
 40
0.1250000000000051
 40
0.1250000000000051
 40
0.250000000000001
 40
0.250000000000001
 40
0.4999999999999969
 40
0.4999999999999969
 40
0.6249999999999977
 40
0.6249999999999977
 40
0.7499999999999984
 40
0.7499999999999984
 40
0.8749999999999993
 40
0.8749999999999993
 40
1.0
 40
1.0
 40
1.0
 40
1.0
 10
462.2774477176108
 20
678.594443914233
 30
0.0
 10
462.2774477176107
 20
678.6366046949669
 30
0.0
 10
462.2763429606065
 20
678.6776660120354
 30
0.0
 10
462.2727274961429
 20
678.7525014350213
 30
0.0
 10
462.2702275519816
 20
678.7873608966108
 30
0.0
 10
462.2609187661549
 20
678.8894771496258
 30
0.0
 10
462.2523760850087
 20
678.9533997288951
 30
0.0
 10
462.2198560088447
 20
679.1431884280419
 30
0.0
 10
462.1888981152349
 20
679.2662133835017
 30
0.0
 10
462.0671409486097
 20
679.6301918894138
 30
0.0
 10
461.9502322629762
 20
679.8604206041961
 30
0.0
 10
461.7084600200998
 20
680.1880605251728
 30
0.0
 10
461.6154969660215
 20
680.2951200187035
 30
0.0
 10
461.4081326784052
 20
680.4948625024758
 30
0.0
 10
461.2936620158836
 20
680.5881198712739
 30
0.0
 10
461.0378784637873
 20
680.758921669735
 30
0.0
 10
460.8988233842888
 20
680.8346492539965
 30
0.0
 10
460.601731973443
 20
680.960148632855
 30
0.0
 10
460.4417222041176
 20
681.0103830183982
 30
0.0
 10
460.2777091495635
 20
681.0438802779094
 30
0.0
  0
LINE
  5
232
330
1F
100
AcDbEntity
  8
0
  6
Continuous
 62
     7
370
    15
100
AcDbLine
 10
460.2774499826
 20
683.0444439155
 30
0.0
 11
462.2774465851
 21
683.0444439155
 31
0.0
  0
LINE
  5
233
330
1F
100
AcDbEntity
  8
0
  6
Continuous
 62
     7
370
    15
100
AcDbLine
 10
294.2774488501
 20
678.5944441079
 30
0.0
 11
294.2774488501
 21
683.0444439155
 31
0.0
  0
SPLINE
  5
234
330
1F
100
AcDbEntity
  8
0
  6
Continuous
 62
     7
370
    15
100
AcDbSpline
210
0.0
220
0.0
230
1.0
 70
     8
 71
     3
 72
    26
 73
    22
 74
     0
 42
0.00000001
 43
0.00000001
 40
0.0
 40
0.0
 40
0.0
 40
0.0
 40
0.1250000000000001
 40
0.1250000000000001
 40
0.2500000000000002
 40
0.2500000000000002
 40
0.3750000000000002
 40
0.3750000000000002
 40
0.5000000000000003
 40
0.5000000000000003
 40
0.6250000000000004
 40
0.6250000000000004
 40
0.7500000000000004
 40
0.7500000000000004
 40
0.8750000000000003
 40
0.8750000000000003
 40
0.9375000000000001
 40
0.9375000000000001
 40
0.9687500000000001
 40
0.9687500000000001
 40
1.0
 40
1.0
 40
1.0
 40
1.0
 10
296.277186285658
 20
681.0438802779094
 30
0.0
 10
296.1130209741809
 20
681.0103519221561
 30
0.0
 10
295.9569796265521
 20
680.9615005155986
 30
0.0
 10
295.6590108830166
 20
680.8361450293544
 30
0.0
 10
295.5185434131492
 20
680.7597554942959
 30
0.0
 10
295.2638658761974
 20
680.5900601839328
 30
0.0
 10
295.1469652175664
 20
680.4950173864769
 30
0.0
 10
294.9399191444041
 20
680.2956615513967
 30
0.0
 10
294.8485524317153
 20
680.1906821443528
 30
0.0
 10
294.6863032207425
 20
679.9712983743933
 30
0.0
 10
294.6153982131706
 20
679.8564209454939
 30
0.0
 10
294.4957127383195
 20
679.62436117856
 30
0.0
 10
294.4462662128458
 20
679.5063962397666
 30
0.0
 10
294.3659879358063
 20
679.2659541322815
 30
0.0
 10
294.3351704001671
 20
679.1438561395134
 30
0.0
 10
294.3025341046915
 20
678.9535339875212
 30
0.0
 10
294.2939561933237
 20
678.8892917334035
 30
0.0
 10
294.2846603723365
 20
678.7872588466412
 30
0.0
 10
294.282164361759
 20
678.7524763659702
 30
0.0
 10
294.2785408613346
 20
678.6773764497594
 30
0.0
 10
294.2774477176107
 20
678.6363134781392
 30
0.0
 10
294.2774477176107
 20
678.594443914233
 30
0.0
  0
LWPOLYLINE
  5
235
330
1F
100
AcDbEntity
  8
0
  6
Continuous
 62
     7
370
    15
100
AcDbPolyline
 90
        9
 70
   128
 43
0.0
 10
294.2774488501
 20
683.0444439155
 10
294.3158789448
 20
683.0444439155
 10
294.429694014
 20
683.0444439119
 10
294.6145131163
 20
683.0444439119
 10
294.863243299
 20
683.0444439082
 10
295.1663105659
 20
683.0444439082
 10
295.5120845608
 20
683.0444439046
 10
295.8872659974
 20
683.0444439009
 10
296.2774454526
 20
683.0444439155
  0
LINE
  5
236
330
1F
100
AcDbEntity
  8
0
  6
Continuous
 62
     7
370
    15
100
AcDbLine
 10
462.2774465851
 20
683.144443913
 30
0.0
 11
462.2774465851
 21
687.5944437205
 31
0.0
  0
SPLINE
  5
237
330
1F
100
AcDbEntity
  8
0
  6
Continuous
 62
     7
370
    15
100
AcDbSpline
210
0.0
220
0.0
230
1.0
 70
     8
 71
     3
 72
    26
 73
    22
 74
     0
 42
0.00000001
 43
0.00000001
 40
0.0
 40
0.0
 40
0.0
 40
0.0
 40
0.125
 40
0.125
 40
0.2500000000000001
 40
0.2500000000000001
 40
0.3750000000000001
 40
0.3750000000000001
 40
0.5000000000000001
 40
0.5000000000000001
 40
0.6250000000000001
 40
0.6250000000000001
 40
0.7500000000000002
 40
0.7500000000000002
 40
0.8750000000000002
 40
0.8750000000000002
 40
0.9375
 40
0.9375
 40
0.96875
 40
0.96875
 40
1.0
 40
1.0
 40
1.0
 40
1.0
 10
460.2777091495635
 20
685.1450075505564
 30
0.0
 10
460.4418744610406
 20
685.1785359063099
 30
0.0
 10
460.5979158086693
 20
685.2273873128672
 30
0.0
 10
460.8958845522048
 20
685.3527427991114
 30
0.0
 10
461.0363520220723
 20
685.4291323341699
 30
0.0
 10
461.2910295590241
 20
685.598827644533
 30
0.0
 10
461.407930217655
 20
685.6938704419889
 30
0.0
 10
461.6149762908174
 20
685.8932262770691
 30
0.0
 10
461.7063430035062
 20
685.998205684113
 30
0.0
 10
461.868592214479
 20
686.2175894540725
 30
0.0
 10
461.9394972220509
 20
686.3324668829719
 30
0.0
 10
462.0591826969019
 20
686.5645266499059
 30
0.0
 10
462.1086292223756
 20
686.6824915886992
 30
0.0
 10
462.1889074994152
 20
686.9229336961843
 30
0.0
 10
462.2197250350544
 20
687.0450316889523
 30
0.0
 10
462.2523613305299
 20
687.2353538409446
 30
0.0
 10
462.2609392418977
 20
687.2995960950623
 30
0.0
 10
462.2702350628849
 20
687.4016289818246
 30
0.0
 10
462.2727310734625
 20
687.4364114624956
 30
0.0
 10
462.2763545738869
 20
687.5115113787064
 30
0.0
 10
462.2774477176108
 20
687.5525743503266
 30
0.0
 10
462.2774477176108
 20
687.594443914233
 30
0.0
  0
LWPOLYLINE
  5
238
330
1F
100
AcDbEntity
  8
0
  6
Continuous
 62
     7
370
    15
100
AcDbPolyline
 90
        9
 70
   128
 43
0.0
 10
462.2774465851
 20
683.144443913
 10
462.2390164904
 20
683.144443913
 10
462.1252014212
 20
683.1444439166
 10
461.9403823189
 20
683.1444439166
 10
461.6916521363
 20
683.1444439202
 10
461.3885848693
 20
683.1444439202
 10
461.0428108744
 20
683.1444439239
 10
460.6676294379
 20
683.1444439275
 10
460.2774499826
 20
683.144443913
  0
LINE
  5
239
330
1F
100
AcDbEntity
  8
0
  6
Continuous
 62
     7
370
    15
100
AcDbLine
 10
294.2774488501
 20
687.5944437205
 30
0.0
 11
294.2774488501
 21
748.09444153
 31
0.0
  0
LINE
  5
23A
330
1F
100
AcDbEntity
  8
0
  6
Continuous
 62
     7
370
    15
100
AcDbLine
 10
294.2774488501
 20
618.0944462984
 30
0.0
 11
294.2774488501
 21
678.5944441079
 31
0.0
  0
LINE
  5
23B
330
1F
100
AcDbEntity
  8
0
  6
Continuous
 62
     7
370
    15
100
AcDbLine
 10
281.2774448566
 20
618.0944462984
 30
0.0
 11
281.2774448566
 21
748.09444153
 31
0.0
  0
LINE
  5
23C
330
1F
100
AcDbEntity
  8
0
  6
Continuous
 62
     7
370
    15
100
AcDbLine
 10
294.2774488501
 20
683.0444439155
 30
0.0
 11
294.2774488501
 21
683.144443913
 31
0.0
  0
LINE
  5
23D
330
1F
100
AcDbEntity
  8
0
  6
Continuous
 62
     7
370
    15
100
AcDbLine
 10
462.2774465851
 20
687.5944437205
 30
0.0
 11
462.2774465851
 21
748.09444153
 31
0.0
  0
LINE
  5
23E
330
1F
100
AcDbEntity
  8
0
  6
Continuous
 62
     7
370
    15
100
AcDbLine
 10
462.2774465851
 20
618.0944462984
 30
0.0
 11
462.2774465851
 21
678.5944441079
 31
0.0
  0
LINE
  5
23F
330
1F
100
AcDbEntity
  8
0
  6
Continuous
 62
     7
370
    15
100
AcDbLine
 10
475.2774505786
 20
618.0944462984
 30
0.0
 11
475.2774505786
 21
748.09444153
 31
0.0
  0
LINE
  5
240
330
1F
100
AcDbEntity
  8
0
  6
Continuous
 62
     7
370
    15
100
AcDbLine
 10
462.2774465851
 20
683.0444439155
 30
0.0
 11
462.2774465851
 21
683.144443913
 31
0.0
  0
ARC
  5
241
330
1F
100
AcDbEntity
  8
0
  6
Continuous
 62
     7
370
    15
100
AcDbCircle
 10
459.7774477176
 20
678.5944439142
 30
0.0
 40
2.499999999999886
100
AcDbArc
 50
78.4569257708
 51
90.0
  0
LINE
  5
242
330
1F
100
AcDbEntity
  8
0
  6
Continuous
 62
     7
370
    15
100
AcDbLine
 10
459.7774489693
 20
681.0944438192
 30
0.0
 11
446.2774514131
 21
681.0944438192
 31
0.0
  0
LINE
  5
243
330
1F
100
AcDbEntity
  8
0
  6
Continuous
 62
     7
370
    15
100
AcDbLine
 10
460.2774499826
 20
683.0444439155
 30
0.0
 11
446.2774514131
 21
683.0444439155
 31
0.0
  0
ARC
  5
244
330
1F
100
AcDbEntity
  8
0
  6
Continuous
 62
     7
370
    15
100
AcDbCircle
 10
296.7774477176
 20
678.5944439142
 30
0.0
 40
2.499999999999886
100
AcDbArc
 50
90.0
 51
101.5430742292
  0
LINE
  5
245
330
1F
100
AcDbEntity
  8
0
  6
Continuous
 62
     7
370
    15
100
AcDbLine
 10
310.2774440221
 20
681.0944438192
 30
0.0
 11
296.7774464659
 21
681.0944438192
 31
0.0
  0
LINE
  5
246
330
1F
100
AcDbEntity
  8
0
  6
Continuous
 62
     7
370
    15
100
AcDbLine
 10
310.2774440221
 20
683.0444439155
 30
0.0
 11
296.2774454526
 21
683.0444439155
 31
0.0
  0
ARC
  5
247
330
1F
100
AcDbEntity
  8
0
  6
Continuous
 62
     7
370
    15
100
AcDbCircle
 10
296.7774477176
 20
687.5944439142
 30
0.0
 40
2.500000000000114
100
AcDbArc
 50
258.4569257708
 51
270.0
  0
LINE
  5
248
330
1F
100
AcDbEntity
  8
0
  6
Continuous
 62
     7
370
    15
100
AcDbLine
 10
310.2774440221
 20
685.0944440092
 30
0.0
 11
296.7774464659
 21
685.0944440092
 31
0.0
  0
LINE
  5
249
330
1F
100
AcDbEntity
  8
0
  6
Continuous
 62
     7
370
    15
100
AcDbLine
 10
310.2774440221
 20
683.144443913
 30
0.0
 11
296.2774454526
 21
683.144443913
 31
0.0
  0
ARC
  5
24A
330
1F
100
AcDbEntity
  8
0
  6
Continuous
 62
     7
370
    15
100
AcDbCircle
 10
459.7774477176
 20
687.5944439142
 30
0.0
 40
2.500000000000114
100
AcDbArc
 50
270.0
 51
281.5430742292
  0
LINE
  5
24B
330
1F
100
AcDbEntity
  8
0
  6
Continuous
 62
     7
370
    15
100
AcDbLine
 10
459.7774489693
 20
685.0944440092
 30
0.0
 11
446.2774514131
 21
685.0944440092
 31
0.0
  0
LINE
  5
24C
330
1F
100
AcDbEntity
  8
0
  6
Continuous
 62
     7
370
    15
100
AcDbLine
 10
460.2774499826
 20
683.144443913
 30
0.0
 11
446.2774514131
 21
683.144443913
 31
0.0
  0
LINE
  5
24D
330
1F
100
AcDbEntity
  8
0
  6
Continuous
 62
     7
370
    15
100
AcDbLine
 10
478.2774492077
 20
644.0944431096
 30
0.0
 11
478.2774492077
 21
722.0944447189
 31
0.0
  0
LINE
  5
24E
330
1F
100
AcDbEntity
  8
0
  6
Continuous
 62
     7
370
    15
100
AcDbLine
 10
278.2774462275
 20
644.0944431096
 30
0.0
 11
278.2774462275
 21
722.0944447189
 31
0.0
  0
SPLINE
  5
24F
330
1F
100
AcDbEntity
  8
0
  6
Continuous
 62
     7
370
    15
100
AcDbSpline
210
0.0
220
0.0
230
1.0
 70
     8
 71
     3
 72
    22
 73
    18
 74
     0
 42
0.00000001
 43
0.00000001
 40
0.0
 40
0.0
 40
0.0
 40
0.0
 40
0.125
 40
0.125
 40
0.25
 40
0.25
 40
0.375
 40
0.375
 40
0.5
 40
0.5
 40
0.625
 40
0.625
 40
0.75
 40
0.75
 40
0.875
 40
0.875
 40
1.0
 40
1.0
 40
1.0
 40
1.0
 10
294.2774477176107
 20
687.5944439142331
 30
0.0
 10
294.2774477176105
 20
687.5758973691667
 30
0.0
 10
294.3067566708699
 20
687.5574164868967
 30
0.0
 10
294.4215446167818
 20
687.5205873768929
 30
0.0
 10
294.508047865517
 20
687.5020853076362
 30
0.0
 10
294.7359766048692
 20
687.4660078312614
 30
0.0
 10
294.8755330479718
 20
687.4486402076429
 30
0.0
 10
295.2046588125484
 20
687.4153123858041
 30
0.0
 10
295.3966972266982
 20
687.3991988124745
 30
0.0
 10
295.8196862198186
 20
687.3696184631102
 30
0.0
 10
296.0503612634151
 20
687.3560952581213
 30
0.0
 10
296.5499129086178
 20
687.3317109125961
 30
0.0
 10
296.8209647591734
 20
687.3208166905192
 30
0.0
 10
297.3802946620692
 20
687.3027604151938
 30
0.0
 10
297.6707375843962
 20
687.2954629163708
 30
0.0
 10
298.2735057088606
 20
687.2844812287985
 30
0.0
 10
298.585038347772
 20
687.2808474531923
 30
0.0
 10
298.8986696103549
 20
687.279235055949
 30
0.0
  0
SPLINE
  5
250
330
1F
100
AcDbEntity
  8
0
  6
Continuous
 62
     7
370
    15
100
AcDbSpline
210
0.0
220
0.0
230
1.0
 70
     8
 71
     3
 72
    22
 73
    18
 74
     0
 42
0.00000001
 43
0.00000001
 40
0.0
 40
0.0
 40
0.0
 40
0.0
 40
0.125
 40
0.125
 40
0.25
 40
0.25
 40
0.375
 40
0.375
 40
0.5
 40
0.5
 40
0.625
 40
0.625
 40
0.75
 40
0.75
 40
0.875
 40
0.875
 40
1.0
 40
1.0
 40
1.0
 40
1.0
 10
298.8996574888458
 20
678.9087332070627
 30
0.0
 10
298.5860469186051
 20
678.9071298399659
 30
0.0
 10
298.2796502181314
 20
678.9035728084954
 30
0.0
 10
297.6806863171229
 20
678.8927635884004
 30
0.0
 10
297.385574739735
 20
678.885424246593
 30
0.0
 10
296.8225260737083
 20
678.8673353528079
 30
0.0
 10
296.5570703182999
 20
678.8567096912316
 30
0.0
 10
296.0576290737588
 20
678.8324895361632
 30
0.0
 10
295.8216832454008
 20
678.8187314124841
 30
0.0
 10
295.3987817494638
 20
678.7892775355534
 30
0.0
 10
295.2102470874094
 20
678.7735523889748
 30
0.0
 10
294.8790323491021
 20
678.7402315546029
 30
0.0
 10
294.7365863753184
 20
678.7225631614551
 30
0.0
 10
294.5099945141329
 20
678.6868730698334
 30
0.0
 10
294.4238763609724
 20
678.6686806821456
 30
0.0
 10
294.3071759995389
 20
678.6316413900155
 30
0.0
 10
294.2774477176107
 20
678.6129345472982
 30
0.0
 10
294.2774477176107
 20
678.5944439142307
 30
0.0
  0
SPLINE
  5
251
330
1F
100
AcDbEntity
  8
0
  6
Continuous
 62
     7
370
    15
100
AcDbSpline
210
0.0
220
0.0
230
1.0
 70
     8
 71
     3
 72
    14
 73
    10
 74
     0
 42
0.00000001
 43
0.00000001
 40
0.0
 40
0.0
 40
0.0
 40
0.0
 40
0.25
 40
0.25
 40
0.5
 40
0.5
 40
0.75
 40
0.75
 40
1.0
 40
1.0
 40
1.0
 40
1.0
 10
462.2774477176108
 20
678.5944439142328
 30
0.0
 10
462.2774477176109
 20
678.6189642598731
 30
0.0
 10
462.2314169571632
 20
678.6433988932273
 30
0.0
 10
462.0506231014155
 20
678.692076534239
 30
0.0
 10
461.9134190095002
 20
678.7164933214126
 30
0.0
 10
461.5615176510518
 20
678.7625073385632
 30
0.0
 10
461.3448088613007
 20
678.7845360957531
 30
0.0
 10
460.8354295391477
 20
678.825456205993
 30
0.0
 10
460.5488716208998
 20
678.8439118092342
 30
0.0
 10
460.2301326391435
 20
678.8601856532118
 30
0.0
  0
SPLINE
  5
252
330
1F
100
AcDbEntity
  8
0
  6
Continuous
 62
     7
370
    15
100
AcDbSpline
210
0.0
220
0.0
230
1.0
 70
     8
 71
     3
 72
    16
 73
    12
 74
     0
 42
0.00000001
 43
0.00000001
 40
0.0
 40
0.0
 40
0.0
 40
0.0
 40
0.2499999999999974
 40
0.2499999999999974
 40
0.4999999999999949
 40
0.4999999999999949
 40
0.6249999999999956
 40
0.6249999999999956
 40
0.7499999999999963
 40
0.7499999999999963
 40
1.0
 40
1.0
 40
1.0
 40
1.0
 10
460.229956032327
 20
687.3287264514748
 30
0.0
 10
460.5487057047775
 20
687.3449975323758
 30
0.0
 10
460.8337677393893
 20
687.3633723164884
 30
0.0
 10
461.3390373855584
 20
687.403868273198
 30
0.0
 10
461.5596972628578
 20
687.4262017048172
 30
0.0
 10
461.8240131871614
 20
687.4607029087512
 30
0.0
 10
461.9018171609919
 20
687.4724308808335
 30
0.0
 10
462.0366828760611
 20
687.4963216671572
 30
0.0
 10
462.0939778049361
 20
687.5085522002036
 30
0.0
 10
462.231414921935
 20
687.5453841856819
 30
0.0
 10
462.2774477176108
 20
687.5699269690922
 30
0.0
 10
462.2774477176108
 20
687.594443914233
 30
0.0
  0
LINE
  5
253
330
1F
100
AcDbEntity
  8
0
  6
Continuous
 62
     7
370
    15
100
AcDbLine
 10
304.102641242
 20
680.7258386842
 30
0.0
 11
304.0990649633
 21
680.7258428752
 31
0.0
  0
SPLINE
  5
254
330
1F
100
AcDbEntity
  8
0
  6
Continuous
 62
     7
370
    15
100
AcDbSpline
210
0.0
220
0.0
230
1.0
 70
     8
 71
     3
 72
     8
 73
     4
 74
     0
 42
0.00000001
 43
0.00000001
 40
0.0000000000000001
 40
0.0000000000000001
 40
0.0000000000000001
 40
0.0000000000000001
 40
0.0051292300825621
 40
0.0051292300825621
 40
0.0051292300825621
 40
0.0051292300825621
 10
304.0139826361225
 20
678.8955116178474
 30
0.0
 10
302.309166659451
 20
678.9007010351515
 30
0.0
 10
300.6043951090754
 20
678.9050405938591
 30
0.0
 10
298.8996574888459
 20
678.9087332070627
 30
0.0
  0
SPLINE
  5
255
330
1F
100
AcDbEntity
  8
0
  6
Continuous
 62
     7
370
    15
100
AcDbSpline
210
0.0
220
0.0
230
1.0
 70
     8
 71
     3
 72
     8
 73
     4
 74
     0
 42
0.00000001
 43
0.00000001
 40
0.0
 40
0.0
 40
0.0
 40
0.0
 40
0.0051310286558088
 40
0.0051310286558088
 40
0.0051310286558088
 40
0.0051310286558088
 10
298.8986696103549
 20
687.2792350559489
 30
0.0
 10
300.6039804678448
 20
687.2827437456837
 30
0.0
 10
302.3093499542874
 20
687.287089923851
 30
0.0
 10
304.0147973416474
 20
687.2925404432071
 30
0.0
  0
LINE
  5
256
330
1F
100
AcDbEntity
  8
0
  6
Continuous
 62
     7
370
    15
100
AcDbLine
 10
304.099318283
 20
685.4625974528
 30
0.0
 11
304.1031702332
 21
685.4626021094
 31
0.0
  0
SPLINE
  5
257
330
1F
100
AcDbEntity
  8
0
  6
Continuous
 62
     7
370
    15
100
AcDbSpline
210
0.0
220
0.0
230
1.0
 70
     8
 71
     3
 72
    10
 73
     6
 74
     0
 42
0.00000001
 43
0.00000001
 40
0.0
 40
0.0
 40
0.0
 40
0.0
 40
0.5
 40
0.5
 40
1.0
 40
1.0
 40
1.0
 40
1.0
 10
304.0147973416474
 20
687.2925404432071
 30
0.0
 10
305.0968507007611
 20
687.295455305197
 30
0.0
 10
306.1743389342996
 20
687.3002740191624
 30
0.0
 10
308.3203991859041
 20
687.3133054510596
 30
0.0
 10
309.3931881091036
 20
687.3215639451021
 30
0.0
 10
310.4446516684836
 20
687.3311805752511
 30
0.0
  0
SPLINE
  5
258
330
1F
100
AcDbEntity
  8
0
  6
Continuous
 62
     7
370
    15
100
AcDbSpline
210
0.0
220
0.0
230
1.0
 70
     8
 71
     3
 72
    10
 73
     6
 74
     0
 42
0.00000001
 43
0.00000001
 40
0.0
 40
0.0
 40
0.0
 40
0.0
 40
0.5
 40
0.5
 40
1.0
 40
1.0
 40
1.0
 40
1.0
 10
310.449240592708
 20
678.8576791182743
 30
0.0
 10
309.3969129245725
 20
678.8671682772737
 30
0.0
 10
308.3336934060779
 20
678.8752198249155
 30
0.0
 10
306.1859062729829
 20
678.8880026394709
 30
0.0
 10
305.0969082905401
 20
678.8927351744933
 30
0.0
 10
304.0139826361225
 20
678.8955116178474
 30
0.0
  0
SPLINE
  5
259
330
1F
100
AcDbEntity
  8
0
  6
Continuous
 62
     7
370
    15
100
AcDbSpline
210
0.0
220
0.0
230
1.0
 70
     8
 71
     3
 72
    11
 73
     7
 74
     0
 42
0.00000001
 43
0.00000001
 40
0.0
 40
0.0
 40
0.0
 40
0.0
 40
0.0057096893308115
 40
0.0057096893308115
 40
0.0057096893308115
 40
0.0114191935679029
 40
0.0114191935679029
 40
0.0114191935679029
 40
0.0114191935679029
 10
451.0410844129458
 20
687.3283003421475
 30
0.0
 10
452.5728374197431
 20
687.32782203329
 30
0.0
 10
454.1044377765575
 20
687.3276763876528
 30
0.0
 10
455.6359288816583
 20
687.3277733323087
 30
0.0
 10
457.1673703483855
 20
687.3278702738223
 30
0.0
 10
458.6987023197824
 20
687.3282102610021
 30
0.0
 10
460.229956032327
 20
687.3287264514748
 30
0.0
  0
SPLINE
  5
25A
330
1F
100
AcDbEntity
  8
0
  6
Continuous
 62
     7
370
    15
100
AcDbSpline
210
0.0
220
0.0
230
1.0
 70
     8
 71
     3
 72
    14
 73
    10
 74
     0
 42
0.00000001
 43
0.00000001
 40
0.0000000000000001
 40
0.0000000000000001
 40
0.0000000000000001
 40
0.0000000000000001
 40
0.0050000000394828
 40
0.0050000000394828
 40
0.0050000000394828
 40
0.0100000001303279
 40
0.0100000001303279
 40
0.0100000001303279
 40
0.0114187042716671
 40
0.0114187042716671
 40
0.0114187042716671
 40
0.0114187042716671
 10
460.2301326391435
 20
678.8601856532118
 30
0.0
 10
458.8892069350372
 20
678.8606550178692
 30
0.0
 10
457.5482101972509
 20
678.8609782053659
 30
0.0
 10
456.2071184902564
 20
678.8611083344656
 30
0.0
 10
454.8660267752796
 20
678.861238463566
 30
0.0
 10
453.5248402225558
 20
678.8611757827555
 30
0.0
 10
452.1835270469948
 20
678.8608594881933
 30
0.0
 10
451.8029417368073
 20
678.8607697425126
 30
0.0
 10
451.4223461726143
 20
678.860659479437
 30
0.0
 10
451.0417394814536
 20
678.8605270588198
 30
0.0
  0
SPLINE
  5
25B
330
1F
100
AcDbEntity
  8
0
  6
Continuous
 62
     7
370
    15
100
AcDbSpline
210
0.0
220
0.0
230
1.0
 70
     8
 71
     3
 72
     8
 73
     4
 74
     0
 42
0.00000001
 43
0.00000001
 40
0.0
 40
0.0
 40
0.0
 40
0.0
 40
1.0
 40
1.0
 40
1.0
 40
1.0
 10
447.271927997846
 20
687.3073928154977
 30
0.0
 10
448.6083883512507
 20
687.3112821408874
 30
0.0
 10
449.8647276099315
 20
687.3183925410463
 30
0.0
 10
451.0410844129458
 20
687.3283003421475
 30
0.0
  0
SPLINE
  5
25C
330
1F
100
AcDbEntity
  8
0
  6
Continuous
 62
     7
370
    15
100
AcDbSpline
210
0.0
220
0.0
230
1.0
 70
     8
 71
     3
 72
     8
 73
     4
 74
     0
 42
0.00000001
 43
0.00000001
 40
0.0
 40
0.0
 40
0.0
 40
0.0
 40
1.0
 40
1.0
 40
1.0
 40
1.0
 10
451.0417394814536
 20
678.8605270588197
 30
0.0
 10
449.8655058302536
 20
678.8704529225672
 30
0.0
 10
448.6093125533623
 20
678.8775864960209
 30
0.0
 10
447.2730207397868
 20
678.8815013119718
 30
0.0
  0
SPLINE
  5
25D
330
1F
100
AcDbEntity
  8
0
  6
Continuous
 62
     7
370
    15
100
AcDbSpline
210
0.0
220
0.0
230
1.0
 70
     8
 71
     3
 72
     8
 73
     4
 74
     0
 42
0.00000001
 43
0.00000001
 40
0.0
 40
0.0
 40
0.0
 40
0.0
 40
1.0
 40
1.0
 40
1.0
 40
1.0
 10
446.0653645880263
 20
712.9925552065816
 30
0.0
 10
444.670462276687
 20
713.1651769496505
 30
0.0
 10
443.2742277012775
 20
713.3263122674648
 30
0.0
 10
441.8767822433931
 20
713.4770076797444
 30
0.0
  0
LINE
  5
25E
330
1F
100
AcDbEntity
  8
0
  6
Continuous
 62
     7
370
    15
100
AcDbLine
 10
319.9672221116
 20
715.4590805739
 30
0.0
 11
319.9672221116
 21
715.4113149016
 31
0.0
  0
SPLINE
  5
25F
330
1F
100
AcDbEntity
  8
0
  6
Continuous
 62
     7
370
    15
100
AcDbSpline
210
0.0
220
0.0
230
1.0
 70
     8
 71
     3
 72
     8
 73
     4
 74
     0
 42
0.00000001
 43
0.00000001
 40
0.0
 40
0.0
 40
0.0
 40
0.0
 40
0.0001695885148124
 40
0.0001695885148124
 40
0.0001695885148124
 40
0.0001695885148124
 10
446.0653645880263
 20
712.9925552065823
 30
0.0
 10
446.1214661410124
 20
712.9856125355533
 30
0.0
 10
446.177596695545
 20
712.9789003347327
 30
0.0
 10
446.2337533972392
 20
712.9724188392802
 30
0.0
  0
LINE
  5
260
330
1F
100
AcDbEntity
  8
0
  6
Continuous
 62
     8
370
    15
100
AcDbLine
 10
313.4904622011
 20
678.8386923007
 30
0.0
 11
310.4492395095
 21
678.857679174
 31
0.0
  0
LINE
  5
261
330
1F
100
AcDbEntity
  8
0
  6
Continuous
 62
     8
370
    15
100
AcDbLine
 10
310.4446499519
 20
687.3311807148
 30
0.0
 11
313.4904622011
 21
687.350145702
 31
0.0
  0
LINE
  5
262
330
1F
100
AcDbEntity
  8
0
  6
Continuous
 62
     8
370
    15
100
AcDbLine
 10
447.2730203442
 20
678.8815014742
 30
0.0
 11
443.0226727299
 21
678.8563944145
 31
0.0
  0
LINE
  5
263
330
1F
100
AcDbEntity
  8
0
  6
Continuous
 62
     8
370
    15
100
AcDbLine
 10
443.0298252873
 20
687.3334605924
 30
0.0
 11
447.2719251089
 21
687.3073928736
 31
0.0
  0
ARC
  5
264
330
1F
100
AcDbEntity
  8
1
100
AcDbCircle
 10
319.1733642775
 20
666.5223119639
 30
0.0
 40
15.52329510148171
100
AcDbArc
 50
246.8839837387
 51
265.3938975146
  0
ARC
  5
265
330
1F
100
AcDbEntity
  8
1
100
AcDbCircle
 10
307.6960363317
 20
639.6349225287
 30
0.0
 40
13.71128660263069
100
AcDbArc
 50
66.8839837387
 51
94.0886451174
  0
ARC
  5
266
330
1F
100
AcDbEntity
  8
1
100
AcDbCircle
 10
451.8516634735
 20
589.5699649977
 30
0.0
 40
63.85119817572054
100
AcDbArc
 50
93.0059444882
 51
101.9337173318
  0
ARC
  5
267
330
1F
100
AcDbEntity
  8
1
100
AcDbCircle
 10
427.6185203263
 20
654.4854587035
 30
0.0
 40
60.69020418087614
100
AcDbArc
 50
76.4122001763
 51
79.0288714145
  0
ARC
  5
268
330
1F
100
AcDbEntity
  8
1
100
AcDbCircle
 10
450.7675667018
 20
785.4518361604
 30
0.0
 40
72.62108094964675
100
AcDbArc
 50
266.4206342287
 51
268.5849254417
  0
CIRCLE
  5
269
330
1F
100
AcDbEntity
  8
1
100
AcDbCircle
 10
413.6327867769
 20
718.4497829736
 30
0.0
 40
6.980093662707202
  0
CIRCLE
  5
26A
330
1F
100
AcDbEntity
  8
1
100
AcDbCircle
 10
413.6327867769
 20
647.7391048549
 30
0.0
 40
7.031852608513854
  0
CIRCLE
  5
26B
330
1F
100
AcDbEntity
  8
1
100
AcDbCircle
 10
342.9221086583
 20
647.7391048549
 30
0.0
 40
7.03185260851563
  0
CIRCLE
  5
26C
330
1F
100
AcDbEntity
  8
1
100
AcDbCircle
 10
378.2774477176
 20
683.0944439142
 30
0.0
 40
20.0105190564047
  0
CIRCLE
  5
26D
330
1F
100
AcDbEntity
  8
1
100
AcDbCircle
 10
378.2774477176
 20
683.0944439142
 30
0.0
 40
42.01528728511285
  0
CIRCLE
  5
26E
330
1F
100
AcDbEntity
  8
1
100
AcDbCircle
 10
378.2774477176
 20
683.0944439142
 30
0.0
 40
38.99999999999998
  0
LINE
  5
26F
330
1F
100
AcDbEntity
  8
0
  6
Continuous
 62
     7
370
    15
100
AcDbLine
 10
281.2774448566
 20
92.249495876
 30
0.0
 11
294.2774488501
 21
92.249495876
 31
0.0
  0
LINE
  5
270
330
1F
100
AcDbEntity
  8
0
  6
Continuous
 62
     7
370
    15
100
AcDbLine
 10
294.2774488501
 20
222.2494911077
 30
0.0
 11
281.2774448566
 21
222.2494911077
 31
0.0
  0
LINE
  5
271
330
1F
100
AcDbEntity
  8
0
  6
Continuous
 62
     7
370
    15
100
AcDbLine
 10
475.2774505786
 20
222.2494911077
 30
0.0
 11
462.2774465851
 21
222.2494911077
 31
0.0
  0
LINE
  5
272
330
1F
100
AcDbEntity
  8
0
  6
Continuous
 62
     7
370
    15
100
AcDbLine
 10
462.2774465851
 20
92.249495876
 30
0.0
 11
475.2774505786
 21
92.249495876
 31
0.0
  0
SPLINE
  5
273
330
1F
100
AcDbEntity
  8
0
  6
Continuous
 62
     7
370
    15
100
AcDbSpline
210
0.0
220
0.0
230
1.0
 70
     8
 71
     3
 72
     9
 73
     5
 74
     0
 42
0.00000001
 43
0.00000001
 40
0.0
 40
0.0
 40
0.0
 40
0.0
 40
0.7037853444849288
 40
1.0
 40
1.0
 40
1.0
 40
1.0
 10
385.4517291210331
 20
118.3812450291635
 30
0.0
 10
385.608147190085
 20
118.4020647912647
 30
0.0
 10
385.8303997139232
 20
118.4316473369436
 30
0.0
 10
386.0522049816516
 20
118.464394094927
 30
0.0
 10
386.1179069526233
 20
118.4740941645623
 30
0.0
  0
SPLINE
  5
274
330
1F
100
AcDbEntity
  8
0
  6
Continuous
 62
     7
370
    15
100
AcDbSpline
210
0.0
220
0.0
230
1.0
 70
     8
 71
     3
 72
    19
 73
    15
 74
     0
 42
0.00000001
 43
0.00000001
 40
0.0
 40
0.0
 40
0.0
 40
0.0
 40
0.0115337656070033
 40
0.0737319922038087
 40
0.1484688248761342
 40
0.2360524608445838
 40
0.3005097048491269
 40
0.3704887432798254
 40
0.4456577489536908
 40
0.5263206338652165
 40
0.6124731037433334
 40
0.7041152743517328
 40
0.8592054342742725
 40
1.0
 40
1.0
 40
1.0
 40
1.0
 10
391.5538039900102
 20
119.2708145501138
 30
0.0
 10
391.7534165693573
 20
119.3001514754481
 30
0.0
 10
393.029481442331
 20
119.4876938639222
 30
0.0
 10
395.5985323390356
 20
119.8671086229403
 30
0.0
 10
399.4848830703632
 20
120.4410450967629
 30
0.0
 10
403.4052562303709
 20
121.0179112473569
 30
0.0
 10
407.2605390883714
 20
121.5842785990335
 30
0.0
 10
410.7705879201418
 20
122.100112851724
 30
0.0
 10
414.4270536764517
 20
122.6374177188554
 30
0.0
 10
418.384568738895
 20
123.2189602108873
 30
0.0
 10
422.5990157245599
 20
123.8382179719778
 30
0.0
 10
428.0311818730653
 20
124.6363292229407
 30
0.0
 10
434.3534778614937
 20
125.5651563325942
 30
0.0
 10
439.1814723393903
 20
126.2745501918674
 30
0.0
 10
441.4788379244246
 20
126.6121100308419
 30
0.0
  0
LINE
  5
275
330
1F
100
AcDbEntity
  8
0
  6
Continuous
 62
     7
370
    15
100
AcDbLine
 10
378.2774477176
 20
117.7494916739
 30
0.0
 11
379.8614963334
 21
117.8316566767
 31
0.0
  0
SPLINE
  5
276
330
1F
100
AcDbEntity
  8
0
  6
Continuous
 62
     7
370
    15
100
AcDbSpline
210
0.0
220
0.0
230
1.0
 70
     8
 71
     3
 72
     9
 73
     5
 74
     0
 42
0.00000001
 43
0.00000001
 40
0.0
 40
0.0
 40
0.0
 40
0.0
 40
0.1800553808085497
 40
1.0
 40
1.0
 40
1.0
 40
1.0
 10
383.2791044287123
 20
196.4143309416295
 30
0.0
 10
382.9810621124449
 20
196.457307583208
 30
0.0
 10
381.3257807488503
 20
196.6959932663881
 30
0.0
 10
379.6508215225668
 20
196.7253908880684
 30
0.0
 10
378.2774477176108
 20
196.7494953097821
 30
0.0
  0
SPLINE
  5
277
330
1F
100
AcDbEntity
  8
0
  6
Continuous
 62
     7
370
    15
100
AcDbSpline
210
0.0
220
0.0
230
1.0
 70
     8
 71
     3
 72
     9
 73
     5
 74
     0
 42
0.00000001
 43
0.00000001
 40
0.0
 40
0.0
 40
0.0
 40
0.0
 40
0.3495345390278043
 40
0.9999999999999999
 40
0.9999999999999999
 40
0.9999999999999999
 40
0.9999999999999999
 10
386.5688151590265
 20
195.958970081997
 30
0.0
 10
386.3528481001473
 20
195.9909107403456
 30
0.0
 10
385.7349776617068
 20
196.0822912901404
 30
0.0
 10
385.115861574952
 20
196.1648592986976
 30
0.0
 10
384.7131479441859
 20
196.2185669364453
 30
0.0
  0
SPLINE
  5
278
330
1F
100
AcDbEntity
  8
0
  6
Continuous
 62
     7
370
    15
100
AcDbSpline
210
0.0
220
0.0
230
1.0
 70
     8
 71
     3
 72
    11
 73
     7
 74
     0
 42
0.00000001
 43
0.00000001
 40
0.0
 40
0.0
 40
0.0
 40
0.0
 40
0.132670730086568
 40
0.5124605127425034
 40
0.8741568898194423
 40
1.0
 40
1.0
 40
1.0
 40
1.0
 10
396.5097336940207
 20
194.49740831275
 30
0.0
 10
396.133736309672
 20
194.5529086922519
 30
0.0
 10
394.6813902477527
 20
194.767287198486
 30
0.0
 10
392.2039343183881
 20
195.1327084569165
 30
0.0
 10
389.7457411711546
 20
195.4946875288149
 30
0.0
 10
388.3637228549196
 20
195.6965978472895
 30
0.0
 10
388.006997937683
 20
195.7487146975518
 30
0.0
  0
LINE
  5
279
330
1F
100
AcDbEntity
  8
0
  6
Continuous
 62
     7
370
    15
100
AcDbLine
 10
398.7508273594
 20
194.166624886
 30
0.0
 11
397.9529335074
 21
194.2843924882
 31
0.0
  0
SPLINE
  5
27A
330
1F
100
AcDbEntity
  8
0
  6
Continuous
 62
     7
370
    15
100
AcDbSpline
210
0.0
220
0.0
230
1.0
 70
     8
 71
     3
 72
     9
 73
     5
 74
     0
 42
0.00000001
 43
0.00000001
 40
0.0
 40
0.0
 40
0.0
 40
0.0
 40
0.3455947031747743
 40
1.0
 40
1.0
 40
1.0
 40
1.0
 10
404.3043187729754
 20
193.3490875782491
 30
0.0
 10
404.1392694441552
 20
193.3733349860452
 30
0.0
 10
403.661688835124
 20
193.4434963848553
 30
0.0
 10
403.1822453745368
 20
193.5141071830866
 30
0.0
 10
402.8684950344004
 20
193.5603152634622
 30
0.0
  0
SPLINE
  5
27B
330
1F
100
AcDbEntity
  8
0
  6
Continuous
 62
     7
370
    15
100
AcDbSpline
210
0.0
220
0.0
230
1.0
 70
     8
 71
     3
 72
    14
 73
    10
 74
     0
 42
0.00000001
 43
0.00000001
 40
0.0
 40
0.0
 40
0.0
 40
0.0
 40
0.1825925130531373
 40
0.4071175386401024
 40
0.613111066643907
 40
0.7330984761237781
 40
0.8457576518749061
 40
0.9510907758500095
 40
1.0
 40
1.0
 40
1.0
 40
1.0
 10
441.2616013459601
 20
187.918793377471
 30
0.0
 10
439.2776294718261
 20
188.2103080519148
 30
0.0
 10
434.8540650407176
 20
188.8602839723538
 30
0.0
 10
428.1937745639863
 20
189.8387689978563
 30
0.0
 10
422.2105169475505
 20
190.7178478667043
 30
0.0
 10
417.449757132903
 20
191.4173925688709
 30
0.0
 10
413.7621351882988
 20
191.9592765818778
 30
0.0
 10
410.9035957834051
 20
192.3793372339348
 30
0.0
 10
409.1662544798662
 20
192.6346369445331
 30
0.0
 10
408.6153550915159
 20
192.7155907871247
 30
0.0
  0
ARC
  5
27C
330
1F
100
AcDbEntity
  8
0
  6
Continuous
 62
     7
370
    15
100
AcDbCircle
 10
478.2774477176
 20
199.2494934918
 30
0.0
 40
3.000000000000028
100
AcDbArc
 50
180.0
 51
270.0
  0
ARC
  5
27D
330
1F
100
AcDbEntity
  8
0
  6
Continuous
 62
     7
370
    15
100
AcDbCircle
 10
478.2774477176
 20
115.2494934918
 30
0.0
 40
3.000000000000028
100
AcDbArc
 50
90.0
 51
180.0
  0
ARC
  5
27E
330
1F
100
AcDbEntity
  8
0
  6
Continuous
 62
     7
370
    15
100
AcDbCircle
 10
278.2774477176
 20
115.2494934918
 30
0.0
 40
3.000000000000028
100
AcDbArc
 50
0.0
 51
90.0
  0
ARC
  5
27F
330
1F
100
AcDbEntity
  8
0
  6
Continuous
 62
     7
370
    15
100
AcDbCircle
 10
278.2774477176
 20
199.2494934918
 30
0.0
 40
3.000000000000028
100
AcDbArc
 50
270.0
 51
0.0
  0
ARC
  5
280
330
1F
100
AcDbEntity
  8
0
  6
Continuous
 62
     7
370
    15
100
AcDbCircle
 10
457.2774506232
 20
193.3761596143
 30
0.0
 40
4.999996014721038
100
AcDbArc
 50
280.8124056268
 51
359.9916716725
  0
ARC
  5
281
330
1F
100
AcDbEntity
  8
0
  6
Continuous
 62
     7
370
    15
100
AcDbCircle
 10
457.2774458409
 20
121.1226971436
 30
0.0
 40
5.000000744179435
100
AcDbArc
 50
0.0000022011
 51
79.3618610717
  0
ARC
  5
282
330
1F
100
AcDbEntity
  8
0
  6
Continuous
 62
     7
370
    15
100
AcDbCircle
 10
299.2774433652
 20
121.1229593234
 30
0.0
 40
4.999994555099487
100
AcDbArc
 50
100.7308714829
 51
179.9927568662
  0
ARC
  5
283
330
1F
100
AcDbEntity
  8
0
  6
Continuous
 62
     7
370
    15
100
AcDbCircle
 10
299.2774396802
 20
193.3752035796
 30
0.0
 40
4.999990832948987
100
AcDbArc
 50
180.0019406625
 51
259.3221660149
  0
ARC
  5
284
330
1F
100
AcDbEntity
  8
0
  6
Continuous
 62
     7
370
    15
100
AcDbCircle
 10
336.5192149964
 20
161.7494934918
 30
0.0
 40
2.5
100
AcDbArc
 50
270.0
 51
302.0959800505
  0
ARC
  5
285
330
1F
100
AcDbEntity
  8
0
  6
Continuous
 62
     7
370
    15
100
AcDbCircle
 10
336.5192149964
 20
161.7494934918
 30
0.0
 40
2.499999999999959
100
AcDbArc
 50
302.0959800505
 51
353.8493601721
  0
ARC
  5
286
330
1F
100
AcDbEntity
  8
0
  6
Continuous
 62
     7
370
    15
100
AcDbCircle
 10
336.5192149964
 20
152.7494934918
 30
0.0
 40
2.500000000000427
100
AcDbArc
 50
6.1506398279
 51
57.9040199496
  0
ARC
  5
287
330
1F
100
AcDbEntity
  8
0
  6
Continuous
 62
     7
370
    15
100
AcDbCircle
 10
336.5192149964
 20
152.7494934918
 30
0.0
 40
2.500000000000427
100
AcDbArc
 50
57.9040199496
 51
90.0
  0
ARC
  5
288
330
1F
100
AcDbEntity
  8
0
  6
Continuous
 62
     7
370
    15
100
AcDbCircle
 10
378.2774477176
 20
157.2494934918
 30
0.0
 40
39.49999999999621
100
AcDbArc
 50
128.9913568094
 51
173.8493601721
  0
ARC
  5
289
330
1F
100
AcDbEntity
  8
0
  6
Continuous
 62
     7
370
    15
100
AcDbCircle
 10
378.2774477176
 20
157.2494934918
 30
0.0
 40
39.49999999999616
100
AcDbArc
 50
117.0668374858
 51
119.4375391985
  0
ARC
  5
28A
330
1F
100
AcDbEntity
  8
0
  6
Continuous
 62
     7
370
    15
100
AcDbCircle
 10
378.2774477176
 20
157.2494934918
 30
0.0
 40
39.49999999999617
100
AcDbArc
 50
108.5191064477
 51
110.2521183787
  0
ARC
  5
28B
330
1F
100
AcDbEntity
  8
0
  6
Continuous
 62
     7
370
    15
100
AcDbCircle
 10
378.2774477176
 20
157.2494934918
 30
0.0
 40
39.49999999999616
100
AcDbArc
 50
96.7465059673
 51
100.3628393989
  0
ARC
  5
28C
330
1F
100
AcDbEntity
  8
0
  6
Continuous
 62
     7
370
    15
100
AcDbCircle
 10
378.2774477176
 20
157.2494934918
 30
0.0
 40
39.49999999999616
100
AcDbArc
 50
90.0
 51
92.2683623894
  0
LWPOLYLINE
  5
28D
330
1F
100
AcDbEntity
  8
0
  6
Continuous
 62
     7
370
    15
100
AcDbPolyline
 90
        3
 70
   128
 43
0.0
 10
367.7594044156
 20
119.175607306
 10
369.2001688204
 20
118.8066396536
 10
369.2973942406
 20
118.7838110747
  0
LINE
  5
28E
330
1F
100
AcDbEntity
  8
0
  6
Continuous
 62
     7
370
    15
100
AcDbLine
 10
370.733291088
 20
118.4766199114
 30
0.0
 11
371.6128651894
 21
118.3157879533
 31
0.0
  0
LWPOLYLINE
  5
28F
330
1F
100
AcDbEntity
  8
0
  6
Continuous
 62
     7
370
    15
100
AcDbPolyline
 90
        3
 70
   128
 43
0.0
 10
375.6563681554
 20
117.8365517082
 10
376.7513052471
 20
117.7789885225
 10
378.2774477176
 20
117.7494916739
  0
ARC
  5
290
330
1F
100
AcDbEntity
  8
0
  6
Continuous
 62
     7
370
    15
100
AcDbCircle
 10
378.2774477176
 20
157.2494934918
 30
0.0
 40
39.4999999999962
100
AcDbArc
 50
186.1506398279
 51
244.8694845599
  0
LINE
  5
291
330
1F
100
AcDbEntity
  8
0
  6
Continuous
 62
     7
370
    15
100
AcDbLine
 10
339.0048227183
 20
157.2994934906
 30
0.0
 11
339.0048227183
 21
157.1994934931
 31
0.0
  0
SPLINE
  5
292
330
1F
100
AcDbEntity
  8
0
  6
Continuous
 62
     7
370
    15
100
AcDbSpline
210
0.0
220
0.0
230
1.0
 70
     8
 71
     3
 72
     9
 73
     5
 74
     0
 42
0.00000001
 43
0.00000001
 40
0.0
 40
0.0
 40
0.0
 40
0.0
 40
0.5552684959582072
 40
1.0
 40
1.0
 40
1.0
 40
1.0
 10
452.4203210048117
 20
127.1521187992812
 30
0.0
 10
453.4925190992491
 20
126.9453426474587
 30
0.0
 10
455.4234734073758
 20
126.5729531578196
 30
0.0
 10
457.3501994326408
 20
126.2009340163688
 30
0.0
 10
458.2070751957335
 20
126.035485384059
 30
0.0
  0
SPLINE
  5
293
330
1F
100
AcDbEntity
  8
0
  6
Continuous
 62
     7
370
    15
100
AcDbSpline
210
0.0
220
0.0
230
1.0
 70
     8
 71
     3
 72
     9
 73
     5
 74
     0
 42
0.00000001
 43
0.00000001
 40
0.0
 40
0.0
 40
0.0
 40
0.0
 40
0.4463238742664733
 40
1.0
 40
1.0
 40
1.0
 40
1.0
 10
458.223295109693
 20
188.4665507497312
 30
0.0
 10
457.361021387521
 20
188.3000453831982
 30
0.0
 10
455.4290751666534
 20
187.9269858716346
 30
0.0
 10
453.4928000768315
 20
187.5535959541016
 30
0.0
 10
452.4207307867445
 20
187.3468588711739
 30
0.0
  0
SPLINE
  5
294
330
1F
100
AcDbEntity
  8
0
  6
Continuous
 62
     7
370
    15
100
AcDbSpline
210
0.0
220
0.0
230
1.0
 70
     8
 71
     3
 72
    11
 73
     7
 74
     0
 42
0.00000001
 43
0.00000001
 40
0.0
 40
0.0
 40
0.0
 40
0.0
 40
0.2048333579520635
 40
0.563148520919749
 40
0.9143099000672785
 40
1.0
 40
1.0
 40
1.0
 40
1.0
 10
452.4171023539938
 20
187.372384560299
 30
0.0
 10
452.0361289261543
 20
187.2947145663796
 30
0.0
 10
450.9887183649909
 20
187.0811763876725
 30
0.0
 10
449.2443030421642
 20
186.9895884050877
 30
0.0
 10
447.7226777094741
 20
186.9956264110148
 30
0.0
 10
446.9014939475108
 20
187.1170588222478
 30
0.0
 10
446.7404155902304
 20
187.1408782573462
 30
0.0
  0
SPLINE
  5
295
330
1F
100
AcDbEntity
  8
0
  6
Continuous
 62
     7
370
    15
100
AcDbSpline
210
0.0
220
0.0
230
1.0
 70
     8
 71
     3
 72
    11
 73
     7
 74
     0
 42
0.00000001
 43
0.00000001
 40
0.0
 40
0.0
 40
0.0
 40
0.0
 40
0.1620705057490784
 40
0.5644708291226391
 40
0.959095384803223
 40
1.0
 40
1.0
 40
1.0
 40
1.0
 10
447.4416865877546
 20
127.402534675789
 30
0.0
 10
447.7104404597294
 20
127.4300825648486
 30
0.0
 10
448.6464757996722
 20
127.5260283367596
 30
0.0
 10
450.2490909415901
 20
127.4475354645123
 30
0.0
 10
451.6471423458249
 20
127.3232392222567
 30
0.0
 10
452.3491238043507
 20
127.1564425842414
 30
0.0
 10
452.4150534443297
 20
127.1407771529675
 30
0.0
  0
SPLINE
  5
296
330
1F
100
AcDbEntity
  8
0
  6
Continuous
 62
     7
370
    15
100
AcDbSpline
210
0.0
220
0.0
230
1.0
 70
     8
 71
     3
 72
     9
 73
     5
 74
     0
 42
0.00000001
 43
0.00000001
 40
0.0
 40
0.0
 40
0.0
 40
0.0
 40
0.555726132193736
 40
1.0
 40
1.0
 40
1.0
 40
1.0
 10
304.1217296294607
 20
187.3484830977441
 30
0.0
 10
303.0505626538061
 20
187.5548207012127
 30
0.0
 10
301.1230539159569
 20
187.9261143862047
 30
0.0
 10
299.2016197086818
 20
188.2975288650181
 30
0.0
 10
298.3479767016806
 20
188.4625386120797
 30
0.0
  0
SPLINE
  5
297
330
1F
100
AcDbEntity
  8
0
  6
Continuous
 62
     7
370
    15
100
AcDbSpline
210
0.0
220
0.0
230
1.0
 70
     8
 71
     3
 72
     9
 73
     5
 74
     0
 42
0.00000001
 43
0.00000001
 40
0.0
 40
0.0
 40
0.0
 40
0.0
 40
0.4435000575692721
 40
1.0
 40
1.0
 40
1.0
 40
1.0
 10
298.346583443109
 20
126.0354499938012
 30
0.0
 10
299.2012396599978
 20
126.2005124966183
 30
0.0
 10
301.1283109248203
 20
126.572693965369
 30
0.0
 10
303.0593198655491
 20
126.9449912571773
 30
0.0
 10
304.1339262298979
 20
127.1521746786357
 30
0.0
  0
SPLINE
  5
298
330
1F
100
AcDbEntity
  8
0
  6
Continuous
 62
     7
370
    15
100
AcDbSpline
210
0.0
220
0.0
230
1.0
 70
     8
 71
     3
 72
    17
 73
    13
 74
     0
 42
0.00000001
 43
0.00000001
 40
0.0
 40
0.0
 40
0.0
 40
0.0
 40
0.0584059768332808
 40
0.185310834592108
 40
0.3162861831993746
 40
0.4513319780735029
 40
0.5905481137799123
 40
0.6871189307620543
 40
0.78510126165936
 40
0.8847626635965495
 40
0.9864579436588937
 40
1.0
 40
1.0
 40
1.0
 40
1.0
 10
324.4544013313688
 20
125.2341288747312
 30
0.0
 10
325.2170451224001
 20
125.1220794886461
 30
0.0
 10
327.6367659296715
 20
124.7665685225299
 30
0.0
 10
331.7676811394147
 20
124.1596642846729
 30
0.0
 10
336.8944635652412
 20
123.4064205755739
 30
0.0
 10
342.201727692468
 20
122.6265580432676
 30
0.0
 10
346.9904860412153
 20
121.9229004080022
 30
0.0
 10
351.5967547223458
 20
121.2458675170712
 30
0.0
 10
355.6754782004044
 20
120.6470383300664
 30
0.0
 10
359.8199486890991
 20
120.0357443056159
 30
0.0
 10
362.7958898310491
 20
119.5939325139288
 30
0.0
 10
364.391892017684
 20
119.3591895374033
 30
0.0
 10
364.5794453941025
 20
119.3316038372041
 30
0.0
  0
LWPOLYLINE
  5
299
330
1F
100
AcDbEntity
  8
0
  6
Continuous
 62
     7
370
    15
100
AcDbPolyline
 90
        3
 70
   128
 43
0.0
 10
315.0881349019
 20
126.6103237541
 10
317.2780319027
 20
126.2885238649
 10
318.1582993738
 20
126.1591855111
  0
SPLINE
  5
29A
330
1F
100
AcDbEntity
  8
0
  6
Continuous
 62
     7
370
    15
100
AcDbSpline
210
0.0
220
0.0
230
1.0
 70
     8
 71
     3
 72
    10
 73
     6
 74
     0
 42
0.00000001
 43
0.00000001
 40
0.0
 40
0.0
 40
0.0
 40
0.0
 40
0.3282253179311974
 40
0.7156273118124196
 40
1.0
 40
1.0
 40
1.0
 40
1.0
 10
304.1334791950621
 20
127.1364483656407
 30
0.0
 10
304.7007759853335
 20
127.2353482471807
 30
0.0
 10
305.9376491174263
 20
127.4509789511469
 30
0.0
 10
307.7075557715463
 20
127.5315329535237
 30
0.0
 10
308.8848768062647
 20
127.4378567566477
 30
0.0
 10
309.3832551412024
 20
127.3982021631719
 30
0.0
  0
SPLINE
  5
29B
330
1F
100
AcDbEntity
  8
0
  6
Continuous
 62
     7
370
    15
100
AcDbSpline
210
0.0
220
0.0
230
1.0
 70
     8
 71
     3
 72
     9
 73
     5
 74
     0
 42
0.00000001
 43
0.00000001
 40
0.0
 40
0.0
 40
0.0
 40
0.0
 40
0.5722371943196451
 40
1.0
 40
1.0
 40
1.0
 40
1.0
 10
307.4379830531515
 20
187.0140526117803
 30
0.0
 10
306.7989647042158
 20
187.0345221739763
 30
0.0
 10
305.6822628273038
 20
187.0702932884709
 30
0.0
 10
304.5911756174904
 20
187.2782671420541
 30
0.0
 10
304.1244490913786
 20
187.3672306211711
 30
0.0
  0
ARC
  5
29C
330
1F
100
AcDbEntity
  8
0
  6
Continuous
 62
     7
370
    15
100
AcDbCircle
 10
378.2774477176
 20
157.2494934918
 30
0.0
 40
40.49999999999613
100
AcDbArc
 50
94.5380953064
 51
96.5791800785
  0
LINE
  5
29D
330
1F
100
AcDbEntity
  8
0
  6
Continuous
 62
     7
370
    15
100
AcDbLine
 10
384.7514723338
 20
197.234237534
 30
0.0
 11
383.2806345917
 21
197.4353771331
 31
0.0
  0
LINE
  5
29E
330
1F
100
AcDbEntity
  8
0
  6
Continuous
 62
     7
370
    15
100
AcDbLine
 10
315.9273049704
 20
188.0117058428
 30
0.0
 11
313.0729242138
 21
187.5922884466
 31
0.0
  0
SPLINE
  5
29F
330
1F
100
AcDbEntity
  8
0
  6
Continuous
 62
     7
370
    15
100
AcDbSpline
210
0.0
220
0.0
230
1.0
 70
     8
 71
     3
 72
    15
 73
    11
 74
     0
 42
0.00000001
 43
0.00000001
 40
0.0
 40
0.0
 40
0.0
 40
0.0
 40
0.0335855676341233
 40
0.1252494548175318
 40
0.2168151575065932
 40
0.3086167991742504
 40
0.4007853893830881
 40
0.4924500810902325
 40
0.5840540916827823
 40
1.0
 40
1.0
 40
1.0
 40
1.0
 10
363.5274476282038
 20
195.0120273651601
 30
0.0
 10
363.0698266336397
 20
194.9444772206112
 30
0.0
 10
361.3632370441287
 20
194.6925648852366
 30
0.0
 10
358.4087566826543
 20
194.2546548132197
 30
0.0
 10
354.6630438958499
 20
193.7034282611423
 30
0.0
 10
350.9007077302047
 20
193.1507739727932
 30
0.0
 10
347.1771357012201
 20
192.6035435983468
 30
0.0
 10
343.6635288009221
 20
192.0872364376769
 30
0.0
 10
335.9518389407098
 20
190.9540334393203
 30
0.0
 10
329.4348991165617
 20
189.9964667241881
 30
0.0
 10
324.0941545836367
 20
189.2117242934228
 30
0.0
  0
LWPOLYLINE
  5
2A0
330
1F
100
AcDbEntity
  8
0
  6
Continuous
 62
     7
370
    15
100
AcDbPolyline
 90
        3
 70
   128
 43
0.0
 10
323.5919370226
 20
190.1313531818
 10
319.7166292838
 20
189.5616035583
 10
317.8880332879
 20
189.2927754344
  0
LINE
  5
2A1
330
1F
100
AcDbEntity
  8
0
  6
Continuous
 62
     7
370
    15
100
AcDbLine
 10
322.6023322813
 20
124.5239656093
 30
0.0
 11
324.4312672786
 21
124.2549437704
 31
0.0
  0
ARC
  5
2A2
330
1F
100
AcDbEntity
  8
0
  6
Continuous
 62
     7
370
    15
100
AcDbCircle
 10
378.2774477176
 20
157.2494934918
 30
0.0
 40
40.50000000000002
100
AcDbArc
 50
80.9875485007
 51
90.0005202582
  0
LINE
  5
2A3
330
1F
100
AcDbEntity
  8
0
  6
Continuous
 62
     7
370
    15
100
AcDbLine
 10
370.1808030627
 20
117.5621803524
 30
0.0
 11
370.733291088
 21
117.4822318973
 31
0.0
  0
LINE
  5
2A4
330
1F
100
AcDbEntity
  8
0
  6
Continuous
 62
     7
370
    15
100
AcDbLine
 10
374.2431990713
 20
117.1042229654
 30
0.0
 11
375.6563681554
 21
117.0025858702
 31
0.0
  0
CIRCLE
  5
2A5
330
1F
100
AcDbEntity
  8
0
  6
Continuous
 62
     7
370
    15
100
AcDbCircle
 10
378.2774477176
 20
157.2494934918
 30
0.0
 40
1.950000000000017
  0
CIRCLE
  5
2A6
330
1F
100
AcDbEntity
  8
0
  6
Continuous
 62
     7
370
    15
100
AcDbCircle
 10
378.2774477176
 20
157.2494934918
 30
0.0
 40
3.5
  0
CIRCLE
  5
2A7
330
1F
100
AcDbEntity
  8
0
  6
Continuous
 62
     7
370
    15
100
AcDbCircle
 10
378.2774477176
 20
157.2494934918
 30
0.0
 40
3.636296694843764
  0
CIRCLE
  5
2A8
330
1F
100
AcDbEntity
  8
0
  6
Continuous
 62
     7
370
    15
100
AcDbCircle
 10
378.2774477176
 20
157.2494934918
 30
0.0
 40
3.863703305156292
  0
CIRCLE
  5
2A9
330
1F
100
AcDbEntity
  8
0
  6
Continuous
 62
     7
370
    15
100
AcDbCircle
 10
378.2774477176
 20
157.2494934918
 30
0.0
 40
4.0
  0
LINE
  5
2AA
330
1F
100
AcDbEntity
  8
0
  6
Continuous
 62
     7
370
    15
100
AcDbLine
 10
376.1813772753
 20
165.5901465239
 30
0.0
 11
376.6885281684
 21
163.5720985616
 31
0.0
  0
ARC
  5
2AB
330
1F
100
AcDbEntity
  8
0
  6
Continuous
 62
     7
370
    15
100
AcDbCircle
 10
372.9894854187
 20
160.2745572586
 30
0.0
 40
1.750000000000011
100
AcDbArc
 50
55.1138436154
 51
156.4376359297
  0
ARC
  5
2AC
330
1F
100
AcDbEntity
  8
0
  6
Continuous
 62
     7
370
    15
100
AcDbCircle
 10
378.2774477176
 20
157.9684386545
 30
0.0
 40
7.518945162694261
100
AcDbArc
 50
156.4376359297
 51
23.5623640703
  0
ARC
  5
2AD
330
1F
100
AcDbEntity
  8
0
  6
Continuous
 62
     7
370
    15
100
AcDbCircle
 10
383.5654100165
 20
160.2745572586
 30
0.0
 40
1.750000000000011
100
AcDbArc
 50
23.5623640703
 51
124.8861563846
  0
LINE
  5
2AE
330
1F
100
AcDbEntity
  8
0
  6
Continuous
 62
     7
370
    15
100
AcDbLine
 10
379.8663672669
 20
163.5720985616
 30
0.0
 11
380.37351816
 21
165.5901465239
 31
0.0
  0
CIRCLE
  5
2AF
330
1F
100
AcDbEntity
  8
0
  6
Continuous
 62
     7
370
    15
100
AcDbCircle
 10
381.5635930862
 20
163.1455725803
 30
0.0
 40
0.8500000000000227
  0
CIRCLE
  5
2B0
330
1F
100
AcDbEntity
  8
0
  6
Continuous
 62
     7
370
    15
100
AcDbCircle
 10
374.9913023491
 20
163.1455725803
 30
0.0
 40
0.849999999999909
  0
ARC
  5
2B1
330
1F
100
AcDbEntity
  8
0
  6
Continuous
 62
     7
370
    15
100
AcDbCircle
 10
374.9913023491
 20
163.1455725803
 30
0.0
 40
1.750000000000048
100
AcDbArc
 50
235.1138436154
 51
14.106741573
  0
ARC
  5
2B2
330
1F
100
AcDbEntity
  8
0
  6
Continuous
 62
     7
370
    15
100
AcDbCircle
 10
381.5635930862
 20
163.1455725803
 30
0.0
 40
1.750000000000048
100
AcDbArc
 50
165.893258427
 51
304.8861563846
  0
CIRCLE
  5
2B3
330
1F
100
AcDbEntity
  8
0
  6
Continuous
 62
     7
370
    15
100
AcDbCircle
 10
378.2774477176
 20
157.2494934918
 30
0.0
 40
4.999999999999972
  0
ARC
  5
2B4
330
1F
100
AcDbEntity
  8
0
  6
Continuous
 62
     7
370
    15
100
AcDbCircle
 10
378.2774477176
 20
157.2494934918
 30
0.0
 40
8.500000000000028
100
AcDbArc
 50
75.893258427
 51
104.106741573
  0
CIRCLE
  5
2B5
330
1F
100
AcDbEntity
  8
0
  6
Continuous
 62
     7
370
    15
100
AcDbCircle
 10
378.2774477176
 20
157.2494934918
 30
0.0
 40
4.009999999999991
  0
CIRCLE
  5
2B6
330
1F
100
AcDbEntity
  8
0
  6
Continuous
 62
     7
370
    15
100
AcDbCircle
 10
378.2774477176
 20
157.2494934918
 30
0.0
 40
8.600000000000023
  0
LINE
  5
2B7
330
1F
100
AcDbEntity
  8
0
  6
Continuous
 62
     7
370
    15
100
AcDbLine
 10
366.2774476133
 20
148.2828668924
 30
0.0
 11
366.2774476133
 21
166.2161200913
 31
0.0
  0
LINE
  5
2B8
330
1F
100
AcDbEntity
  8
0
  6
Continuous
 62
     7
370
    15
100
AcDbLine
 10
390.2774478219
 20
166.2161200913
 30
0.0
 11
390.2774478219
 21
148.2828668924
 31
0.0
  0
ARC
  5
2B9
330
1F
100
AcDbEntity
  8
0
  6
Continuous
 62
     7
370
    15
100
AcDbCircle
 10
378.2774477176
 20
157.2494934918
 30
0.0
 40
14.98000000000006
100
AcDbArc
 50
36.7677811019
 51
143.2322188981
  0
ARC
  5
2BA
330
1F
100
AcDbEntity
  8
0
  6
Continuous
 62
     7
370
    15
100
AcDbCircle
 10
378.2774477176
 20
157.2494934918
 30
0.0
 40
14.98000000000004
100
AcDbArc
 50
216.7677811019
 51
323.2322188981
  0
ARC
  5
2BB
330
1F
100
AcDbEntity
  8
0
  6
Continuous
 62
     7
370
    15
100
AcDbCircle
 10
378.2774477176
 20
157.2494934918
 30
0.0
 40
14.98000000000001
100
AcDbArc
 50
323.2322188981
 51
36.7677811019
  0
ARC
  5
2BC
330
1F
100
AcDbEntity
  8
0
  6
Continuous
 62
     7
370
    15
100
AcDbCircle
 10
378.2774477176
 20
157.2494934918
 30
0.0
 40
14.98000000000006
100
AcDbArc
 50
143.2322188981
 51
216.7677811019
  0
LINE
  5
2BD
330
1F
100
AcDbEntity
  8
0
  6
Continuous
 62
     7
370
    15
100
AcDbLine
 10
294.2774488501
 20
92.249495876
 30
0.0
 11
294.2774488501
 21
222.2494911077
 31
0.0
  0
LINE
  5
2BE
330
1F
100
AcDbEntity
  8
0
  6
Continuous
 62
     7
370
    15
100
AcDbLine
 10
281.2774448566
 20
92.249495876
 30
0.0
 11
281.2774448566
 21
222.2494911077
 31
0.0
  0
LINE
  5
2BF
330
1F
100
AcDbEntity
  8
0
  6
Continuous
 62
     7
370
    15
100
AcDbLine
 10
462.2774465851
 20
92.249495876
 30
0.0
 11
462.2774465851
 21
222.2494911077
 31
0.0
  0
LINE
  5
2C0
330
1F
100
AcDbEntity
  8
0
  6
Continuous
 62
     7
370
    15
100
AcDbLine
 10
475.2774505786
 20
92.249495876
 30
0.0
 11
475.2774505786
 21
222.2494911077
 31
0.0
  0
LINE
  5
2C1
330
1F
100
AcDbEntity
  8
0
  6
Continuous
 62
     7
370
    15
100
AcDbLine
 10
387.6025105737
 20
128.7178266468
 30
0.0
 11
395.9950662128
 21
150.3875702294
 31
0.0
  0
ARC
  5
2C2
330
1F
100
AcDbEntity
  8
0
  6
Continuous
 62
     7
370
    15
100
AcDbCircle
 10
378.2774477176
 20
132.3293658998
 30
0.0
 40
9.999999999999996
100
AcDbArc
 50
201.1710747637
 51
338.8289252363
  0
LINE
  5
2C3
330
1F
100
AcDbEntity
  8
0
  6
Continuous
 62
     7
370
    15
100
AcDbLine
 10
360.5598292224
 20
150.3875702294
 30
0.0
 11
368.9523848615
 21
128.7178266468
 31
0.0
  0
ARC
  5
2C4
330
1F
100
AcDbEntity
  8
0
  6
Continuous
 62
     7
370
    15
100
AcDbCircle
 10
378.2774477176
 20
157.2494934918
 30
0.0
 40
19.00000000000084
100
AcDbArc
 50
158.8289252363
 51
201.1710747637
  0
LINE
  5
2C5
330
1F
100
AcDbEntity
  8
0
  6
Continuous
 62
     7
370
    15
100
AcDbLine
 10
368.9523848615
 20
185.7811603369
 30
0.0
 11
360.5598292224
 21
164.1114167543
 31
0.0
  0
ARC
  5
2C6
330
1F
100
AcDbEntity
  8
0
  6
Continuous
 62
     7
370
    15
100
AcDbCircle
 10
378.2774477176
 20
182.1696210839
 30
0.0
 40
9.999999999999973
100
AcDbArc
 50
21.1710747637
 51
158.8289252363
  0
LINE
  5
2C7
330
1F
100
AcDbEntity
  8
0
  6
Continuous
 62
     7
370
    15
100
AcDbLine
 10
395.9950662128
 20
164.1114167543
 30
0.0
 11
387.6025105737
 21
185.7811603369
 31
0.0
  0
ARC
  5
2C8
330
1F
100
AcDbEntity
  8
0
  6
Continuous
 62
     7
370
    15
100
AcDbCircle
 10
378.2774477176
 20
157.2494934918
 30
0.0
 40
18.99999999999924
100
AcDbArc
 50
338.8289252363
 51
21.1710747637
  0
CIRCLE
  5
2C9
330
1F
100
AcDbEntity
  8
0
  6
Continuous
 62
     7
370
    15
100
AcDbCircle
 10
378.2774477176
 20
182.2494934918
 30
0.0
 40
3.900000000000034
  0
CIRCLE
  5
2CA
330
1F
100
AcDbEntity
  8
0
  6
Continuous
 62
     7
370
    15
100
AcDbCircle
 10
378.2774477176
 20
132.2494934918
 30
0.0
 40
3.900000000000063
  0
CIRCLE
  5
2CB
330
1F
100
AcDbEntity
  8
0
  6
Continuous
 62
     7
370
    15
100
AcDbCircle
 10
378.2774477176
 20
182.2494934918
 30
0.0
 40
3.399999999999977
  0
CIRCLE
  5
2CC
330
1F
100
AcDbEntity
  8
0
  6
Continuous
 62
     7
370
    15
100
AcDbCircle
 10
378.2774477176
 20
132.2494934918
 30
0.0
 40
3.400000000000034
  0
SPLINE
  5
2CD
330
1F
100
AcDbEntity
  8
0
  6
Continuous
 62
     7
370
    15
100
AcDbSpline
210
0.0
220
0.0
230
1.0
 70
     8
 71
     3
 72
    26
 73
    22
 74
     0
 42
0.00000001
 43
0.00000001
 40
0.0
 40
0.0
 40
0.0
 40
0.0
 40
0.0274751014368309
 40
0.0549801921316359
 40
0.0825294786208649
 40
0.1101373257029961
 40
0.1378183314218873
 40
0.1655873058382153
 40
0.1934585067810061
 40
0.221446029336892
 40
0.2495650457444905
 40
0.3739701948876508
 40
0.4998920200712484
 40
0.5000047790816607
 40
0.625359773617591
 40
0.7492216888722159
 40
0.7999867078004319
 40
0.8503615461180174
 40
0.9004312490913293
 40
0.9502822797281315
 40
1.0
 40
1.0
 40
1.0
 40
1.0
 10
400.6254136862759
 20
165.8241803725127
 30
0.0
 10
400.6841637117529
 20
165.6744724146906
 30
0.0
 10
400.801727888755
 20
165.3748930918037
 30
0.0
 10
400.9661054116773
 20
164.920597845074
 30
0.0
 10
401.1217161966522
 20
164.4624290479906
 30
0.0
 10
401.2676305317458
 20
163.9999842388472
 30
0.0
 10
401.4040145686115
 20
163.5332993314772
 30
0.0
 10
401.530741116327
 20
163.0622965235815
 30
0.0
 10
401.6477727415228
 20
162.5869409433661
 30
0.0
 10
401.7550440279243
 20
162.107177113336
 30
0.0
 10
401.9636318078466
 20
161.0712873188553
 30
0.0
 10
402.1924101654175
 20
159.4548237519343
 30
0.0
 10
402.2608226197597
 20
157.9879388642736
 30
0.0
 10
402.2608831727335
 20
156.516346468534
 30
0.0
 10
402.1931881921881
 20
155.0559446380712
 30
0.0
 10
401.9479769183021
 20
153.3143844595509
 30
0.0
 10
401.6780579556319
 20
152.0250172682807
 30
0.0
 10
401.4634908748
 20
151.166056321531
 30
0.0
 10
401.2166146772992
 20
150.321492837691
 30
0.0
 10
400.9406564853227
 20
149.4898773512818
 30
0.0
 10
400.7304007837456
 20
148.9462542429483
 30
0.0
 10
400.625413686276
 20
148.6748066111683
 30
0.0
  0
SPLINE
  5
2CE
330
1F
100
AcDbEntity
  8
0
  6
Continuous
 62
     7
370
    15
100
AcDbSpline
210
0.0
220
0.0
230
1.0
 70
     8
 71
     3
 72
    25
 73
    21
 74
     0
 42
0.00000001
 43
0.00000001
 40
0.0
 40
0.0
 40
0.0
 40
0.0
 40
0.0277731224018034
 40
0.0555214782131204
 40
0.0832568122738791
 40
0.1109908859673838
 40
0.1387354622798114
 40
0.166502290849527
 40
0.1943030931010505
 40
0.2221495475572484
 40
0.2500532754207153
 40
0.3751876788417471
 40
0.500004835660274
 40
0.6247930241907588
 40
0.7499563967498463
 40
0.8001302270069895
 40
0.8501531605559979
 40
0.9000933979183764
 40
0.9500194785131839
 40
1.0
 40
1.0
 40
1.0
 40
1.0
 10
355.9004368191
 20
148.5830168228765
 30
0.0
 10
355.8420690357202
 20
148.7364330535351
 30
0.0
 10
355.7253855182393
 20
149.0431287064335
 30
0.0
 10
355.5624426341197
 20
149.5074674570086
 30
0.0
 10
355.4084872401565
 20
149.9745929250647
 30
0.0
 10
355.264375288103
 20
150.4448363635258
 30
0.0
 10
355.1298776161071
 20
150.9181085514381
 30
0.0
 10
355.0050557822462
 20
151.3944337571295
 30
0.0
 10
354.8898930360255
 20
151.8738025725487
 30
0.0
 10
354.7843949540532
 20
152.3562267943863
 30
0.0
 10
354.5773331070579
 20
153.4050296935157
 30
0.0
 10
354.3491405719273
 20
155.0338971129403
 30
0.0
 10
354.2467019111783
 20
157.2493166943584
 30
0.0
 10
354.349124441849
 20
159.4649408035634
 30
0.0
 10
354.5955878641664
 20
161.2242837594488
 30
0.0
 10
354.8641699964353
 20
162.5290025636387
 30
0.0
 10
355.0748625780112
 20
163.3911725714841
 30
0.0
 10
355.3175061629561
 20
164.2432941218436
 30
0.0
 10
355.5893310810183
 20
165.0864608505773
 30
0.0
 10
355.7966972405648
 20
165.6393666279839
 30
0.0
 10
355.9004368191002
 20
165.9159701608044
 30
0.0
  0
SPLINE
  5
2CF
330
1F
100
AcDbEntity
  8
0
  6
Continuous
 62
     7
370
    15
100
AcDbSpline
210
0.0
220
0.0
230
1.0
 70
     8
 71
     3
 72
    32
 73
    28
 74
     0
 42
0.00000001
 43
0.00000001
 40
0.0
 40
0.0
 40
0.0
 40
0.0
 40
0.0198930973748229
 40
0.0402128600371533
 40
0.0609801067593997
 40
0.082214340168493
 40
0.1039338049593439
 40
0.1261555506920753
 40
0.1488954971805628
 40
0.1721685008429258
 40
0.1959884207193114
 40
0.2203681831596317
 40
0.2453198444401051
 40
0.3052793107053062
 40
0.3731695447579432
 40
0.427519194488545
 40
0.5034568884490339
 40
0.5788594014708148
 40
0.6333011726339547
 40
0.7008797090482161
 40
0.7586114700589702
 40
0.7895799021339601
 40
0.8192223750105364
 40
0.836394691601303
 40
0.8794816928614315
 40
0.9397408464307218
 40
1.0
 40
1.0
 40
1.0
 40
1.0
 10
355.9004368191001
 20
165.9159701608044
 30
0.0
 10
355.9362528167986
 20
166.0057436240184
 30
0.0
 10
356.0086529903564
 20
166.1872160032689
 30
0.0
 10
356.1299001676788
 20
166.4576121617918
 30
0.0
 10
356.261704890049
 20
166.7302273040201
 30
0.0
 10
356.4049515071089
 20
167.0047187161585
 30
0.0
 10
356.5593939525961
 20
167.2811826294974
 30
0.0
 10
356.7250995314356
 20
167.5595936599575
 30
0.0
 10
356.902048616776
 20
167.8399603416296
 30
0.0
 10
357.0902471114729
 20
168.1222807943289
 30
0.0
 10
357.2896892148549
 20
168.4065596665254
 30
0.0
 10
357.5003910105922
 20
168.6927853861142
 30
0.0
 10
357.8243242625118
 20
169.1135345977138
 30
0.0
 10
358.2981910192839
 20
169.6852894194637
 30
0.0
 10
358.8876445560183
 20
170.3458513522595
 30
0.0
 10
359.5473220275786
 20
171.0471950677723
 30
0.0
 10
360.2405758883737
 20
171.7669046075204
 30
0.0
 10
360.9321832769647
 20
172.4888297750245
 30
0.0
 10
361.5807242293617
 20
173.1956735722214
 30
0.0
 10
362.1360424318466
 20
173.8705244783632
 30
0.0
 10
362.5689239001529
 20
174.496086806141
 30
0.0
 10
362.8488411821278
 20
174.998784543238
 30
0.0
 10
363.0086355985084
 20
175.3417620433834
 30
0.0
 10
363.1642401735168
 20
175.7499401992703
 30
0.0
 10
363.3773979130451
 20
176.2952353092957
 30
0.0
 10
363.6636953374959
 20
177.03673329441
 30
0.0
 10
363.8752741964748
 20
177.5826731685242
 30
0.0
 10
363.9810636259643
 20
177.8556431055813
 30
0.0
  0
SPLINE
  5
2D0
330
1F
100
AcDbEntity
  8
0
  6
Continuous
 62
     7
370
    15
100
AcDbSpline
210
0.0
220
0.0
230
1.0
 70
     8
 71
     3
 72
    27
 73
    23
 74
     0
 42
0.00000001
 43
0.00000001
 40
0.0
 40
0.0
 40
0.0
 40
0.0
 40
0.0428963872750209
 40
0.1205203685624254
 40
0.1636238445259726
 40
0.1807807144886409
 40
0.2103859283680872
 40
0.2413926367090225
 40
0.299085980634589
 40
0.3667051725768931
 40
0.421123425367142
 40
0.4965516875242427
 40
0.572468017955236
 40
0.6268412570672289
 40
0.6946997240340386
 40
0.7546931379410072
 40
0.7999922197184388
 40
0.8434056434885694
 40
0.8850146021867605
 40
0.9249113069552878
 40
0.9632003417532904
 40
1.0
 40
1.0
 40
1.0
 40
1.0
 10
363.9810636259642
 20
136.6433438780996
 30
0.0
 10
363.9057684104627
 20
136.837662857307
 30
0.0
 10
363.6942212919362
 20
137.3836154766408
 30
0.0
 10
363.4080338553974
 20
138.1252412072506
 30
0.0
 10
363.1641968312855
 20
138.7491119583645
 30
0.0
 10
363.0086757902372
 20
139.1571257771506
 30
0.0
 10
362.8489176053528
 20
139.5000348077277
 30
0.0
 10
362.5691235904381
 20
140.0025824279031
 30
0.0
 10
362.1361815482179
 20
140.6283256971413
 30
0.0
 10
361.5809231554788
 20
141.3030751638347
 30
0.0
 10
360.9322745975162
 20
142.0100795166261
 30
0.0
 10
360.2407308765016
 20
142.7319138041204
 30
0.0
 10
359.5474017058122
 20
143.4517164145593
 30
0.0
 10
358.887829680531
 20
144.1529370117323
 30
0.0
 10
358.2982805718825
 20
144.8135714931642
 30
0.0
 10
357.76137584392
 20
145.4614809548123
 30
0.0
 10
357.3253154464381
 20
146.0377239275413
 30
0.0
 10
356.9642932762924
 20
146.5580483443219
 30
0.0
 10
356.6408517498028
 20
147.0718527070818
 30
0.0
 10
356.3558592310566
 20
147.5794757563764
 30
0.0
 10
356.1061931062562
 20
148.079719947908
 30
0.0
 10
355.9681092886831
 20
148.4174843721638
 30
0.0
 10
355.9004368191001
 20
148.5830168228765
 30
0.0
  0
SPLINE
  5
2D1
330
1F
100
AcDbEntity
  8
0
  6
Continuous
 62
     7
370
    15
100
AcDbSpline
210
0.0
220
0.0
230
1.0
 70
     8
 71
     3
 72
    44
 73
    40
 74
     0
 42
0.00000001
 43
0.00000001
 40
0.0
 40
0.0
 40
0.0
 40
0.0
 40
0.0177229880026829
 40
0.0352779840565838
 40
0.0526633759030168
 40
0.0675175926288323
 40
0.0853194268446796
 40
0.1152281107804025
 40
0.1412045155544328
 40
0.1604762576445235
 40
0.1788963096991134
 40
0.1964747496874819
 40
0.203365787254316
 40
0.210185629620226
 40
0.2125262387947866
 40
0.2136160317140604
 40
0.2141871366441392
 40
0.2147309284341174
 40
0.2151506668296877
 40
0.2154252903054759
 40
0.2156642444448887
 40
0.2164775182351135
 40
0.2172785718234078
 40
0.2211972013602445
 40
0.2250327720929134
 40
0.2350783878437644
 40
0.2454333956529931
 40
0.256096717910494
 40
0.3097434267252596
 40
0.3808807857470612
 40
0.456588032493858
 40
0.5059518706620042
 40
0.6386132795476519
 40
0.7545005762503934
 40
0.80704226428908
 40
0.8578346864481604
 40
0.9068949578121648
 40
0.9542630898501397
 40
1.0
 40
1.0
 40
1.0
 40
1.0
 10
388.4947303745356
 20
185.4014704335001
 30
0.0
 10
388.5772552742411
 20
185.296429423209
 30
0.0
 10
388.7415228399384
 20
185.0873430611476
 30
0.0
 10
388.98118078921
 20
184.7689163949128
 30
0.0
 10
389.2026873797431
 20
184.4628817288879
 30
0.0
 10
389.424543630436
 20
184.1533960216621
 30
0.0
 10
389.7061062354454
 20
183.7677465415878
 30
0.0
 10
390.0392613141325
 20
183.3122594730055
 30
0.0
 10
390.3806931990744
 20
182.8467664299537
 30
0.0
 10
390.6713351219076
 20
182.4524217848548
 30
0.0
 10
390.9246278526478
 20
182.1102793270031
 30
0.0
 10
391.1220088781187
 20
181.845147164695
 30
0.0
 10
391.2663166549301
 20
181.6519004221296
 30
0.0
 10
391.3406284400571
 20
181.5529871598279
 30
0.0
 10
391.3878557518232
 20
181.4896207487396
 30
0.0
 10
391.4064709145812
 20
181.4650510844563
 30
0.0
 10
391.4161646696832
 20
181.4510402209654
 30
0.0
 10
391.4217943680278
 20
181.4406953406134
 30
0.0
 10
391.4264952654956
 20
181.4322035028747
 30
0.0
 10
391.4322364676609
 20
181.4277122014067
 30
0.0
 10
391.4383207764992
 20
181.4194351002071
 30
0.0
 10
391.445871540222
 20
181.4073263161698
 30
0.0
 10
391.4684845176448
 20
181.3711526775708
 30
0.0
 10
391.5025019465486
 20
181.3146636231561
 30
0.0
 10
391.5743868541236
 20
181.1977914225728
 30
0.0
 10
391.6724419308662
 20
181.0387755522154
 30
0.0
 10
391.7991592840717
 20
180.8356013843557
 30
0.0
 10
392.1056236082902
 20
180.3484393922483
 30
0.0
 10
392.6720760777059
 20
179.4713364104529
 30
0.0
 10
393.5256242764895
 20
178.1829657603517
 30
0.0
 10
394.3679222121703
 20
176.9267986452352
 30
0.0
 10
395.4710513997553
 20
175.2745753562683
 30
0.0
 10
396.7149914164383
 20
173.3440687629653
 30
0.0
 10
397.9086023228285
 20
171.3530685850621
 30
0.0
 10
398.7247870545865
 20
169.873471769833
 30
0.0
 10
399.2669260210976
 20
168.8313625947494
 30
0.0
 10
399.7639258269142
 20
167.8112192318018
 30
0.0
 10
400.218919119679
 20
166.8141701396578
 30
0.0
 10
400.491507434197
 20
166.1502999081923
 30
0.0
 10
400.6254136862758
 20
165.8241803725129
 30
0.0
  0
SPLINE
  5
2D2
330
1F
100
AcDbEntity
  8
0
  6
Continuous
 62
     7
370
    15
100
AcDbSpline
210
0.0
220
0.0
230
1.0
 70
     8
 71
     3
 72
    47
 73
    43
 74
     0
 42
0.00000001
 43
0.00000001
 40
0.0
 40
0.0
 40
0.0
 40
0.0
 40
0.0252108797373848
 40
0.050917200789416
 40
0.0771291159045324
 40
0.1038567858868163
 40
0.1311104335522717
 40
0.1589041919683124
 40
0.1872268250846407
 40
0.2160866727480046
 40
0.2454973709380582
 40
0.3613774775024193
 40
0.4940389149494887
 40
0.5433950374000669
 40
0.6191070391397607
 40
0.6902387633762771
 40
0.7438905890277394
 40
0.7597663930854178
 40
0.7749549377533529
 40
0.7788495319035458
 40
0.7827092772671861
 40
0.7834564477476489
 40
0.7842187663516129
 40
0.7844492701310672
 40
0.7846973144975529
 40
0.7849654055596075
 40
0.7854204739832137
 40
0.7858971649843759
 40
0.7863803072967007
 40
0.7874813846297831
 40
0.7898112906573289
 40
0.7966025120322701
 40
0.8035224180336852
 40
0.8210975682892446
 40
0.8395180872671174
 40
0.8587940726888894
 40
0.8847649168444071
 40
0.9146812577238248
 40
0.9324900678722446
 40
0.9473375975651775
 40
0.9734758669586243
 40
1.0
 40
1.0
 40
1.0
 40
1.0
 10
400.6254136862756
 20
148.6748066111675
 30
0.0
 10
400.5523668027431
 20
148.494740975083
 30
0.0
 10
400.4048375267076
 20
148.1310710737033
 30
0.0
 10
400.1693371934172
 20
147.5851906209902
 30
0.0
 10
399.9208313956296
 20
147.0322935240172
 30
0.0
 10
399.65839641678
 20
146.4726618403345
 30
0.0
 10
399.3822043895902
 20
145.9061017152169
 30
0.0
 10
399.0924128087988
 20
145.3325667874835
 30
0.0
 10
398.7886826278889
 20
144.7522784967582
 30
0.0
 10
398.4710916047278
 20
144.1652485522404
 30
0.0
 10
397.8170043513421
 20
142.9930898345532
 30
0.0
 10
396.7150455758296
 20
141.1550879331963
 30
0.0
 10
395.4711687106301
 20
139.224654277169
 30
0.0
 10
394.3680291588117
 20
137.5724366830974
 30
0.0
 10
393.525768001225
 20
136.31630470097
 30
0.0
 10
392.6721488029748
 20
135.0279188653016
 30
0.0
 10
392.0839901124556
 20
134.11699429399
 30
0.0
 10
391.736677210684
 20
133.5639851717486
 30
0.0
 10
391.594985568388
 20
133.3347615391443
 30
0.0
 10
391.502335129993
 20
133.1841251367345
 30
0.0
 10
391.4685265656821
 20
133.1279768714451
 30
0.0
 10
391.446595126741
 20
133.0928844157252
 30
0.0
 10
391.4395381062218
 20
133.0814675690461
 30
0.0
 10
391.4338531379394
 20
133.0737637545586
 30
0.0
 10
391.4300102604657
 20
133.0694728405193
 30
0.0
 10
391.4236793401291
 20
133.0651085228409
 30
0.0
 10
391.4208426762684
 20
133.0558126868598
 30
0.0
 10
391.4150257587867
 20
133.0466520696409
 30
0.0
 10
391.4061803047242
 20
133.0334272485506
 30
0.0
 10
391.387808966887
 20
133.0094933242376
 30
0.0
 10
391.3408620263923
 20
132.9462062390566
 30
0.0
 10
391.266489985199
 20
132.8474225254927
 30
0.0
 10
391.1222487119406
 20
132.654158523936
 30
0.0
 10
390.9247166689159
 20
132.3888798937083
 30
0.0
 10
390.6714288183701
 20
132.0467151799686
 30
0.0
 10
390.3807878513715
 20
131.6523706791068
 30
0.0
 10
390.0393256057695
 20
131.1868292289938
 30
0.0
 10
389.7061385352662
 20
130.7312781531612
 30
0.0
 10
389.4245148210782
 20
130.3455750250497
 30
0.0
 10
389.1639259575175
 20
129.9819499343687
 30
0.0
 10
388.8628464991624
 20
129.5677381632419
 30
0.0
 10
388.6180336735828
 20
129.2550208600843
 30
0.0
 10
388.4947303745367
 20
129.097516550182
 30
0.0
  0
SPLINE
  5
2D3
330
1F
100
AcDbEntity
  8
0
  6
Continuous
 62
     7
370
    15
100
AcDbSpline
210
0.0
220
0.0
230
1.0
 70
     8
 71
     3
 72
    21
 73
    17
 74
     0
 42
0.00000001
 43
0.00000001
 40
0.0
 40
0.0
 40
0.0
 40
0.0
 40
0.0544720645989302
 40
0.1022518273974796
 40
0.1434360096713298
 40
0.1781090134069219
 40
0.2063425956453173
 40
0.2281956332400959
 40
0.2437139602137159
 40
0.2529302719659546
 40
0.3840490988188672
 40
0.5016600186054283
 40
0.6326834519546503
 40
0.7593055044140355
 40
0.881686156947207
 40
1.0
 40
1.0
 40
1.0
 40
1.0
 10
368.353345097308
 20
129.239846600478
 30
0.0
 10
368.2585669589524
 20
129.361473886534
 30
0.0
 10
368.0806548875898
 20
129.5897856340727
 30
0.0
 10
367.8384900028332
 20
129.9170074389262
 30
0.0
 10
367.6338185029321
 20
130.2026593910898
 30
0.0
 10
367.4647771303398
 20
130.4459792669772
 30
0.0
 10
367.329289574618
 20
130.6459161403498
 30
0.0
 10
367.2257144131444
 20
130.8017381088108
 30
0.0
 10
367.1528624260285
 20
130.9129547983489
 30
0.0
 10
366.9096809836013
 20
131.2856410101054
 30
0.0
 10
366.5155932485926
 20
131.9104402397758
 30
0.0
 10
365.9625488092838
 20
132.8512635357109
 30
0.0
 10
365.4348945184332
 20
133.7954041266961
 30
0.0
 10
364.9196659809461
 20
134.7644380610223
 30
0.0
 10
364.4367843152116
 20
135.7102963163962
 30
0.0
 10
364.1312497367045
 20
136.3358511797552
 30
0.0
 10
363.9810636259641
 20
136.6433438780996
 30
0.0
  0
SPLINE
  5
2D4
330
1F
100
AcDbEntity
  8
0
  6
Continuous
 62
     7
370
    15
100
AcDbSpline
210
0.0
220
0.0
230
1.0
 70
     8
 71
     3
 72
    18
 73
    14
 74
     0
 42
0.00000001
 43
0.00000001
 40
0.0
 40
0.0
 40
0.0
 40
0.0
 40
0.077723585799747
 40
0.1575278890077025
 40
0.2394762556109255
 40
0.3236292413336735
 40
0.4100445975248731
 40
0.4987772222974617
 40
0.5898790747598762
 40
0.6903998478305313
 40
0.8095381884023727
 40
0.9043851503671326
 40
1.0
 40
1.0
 40
1.0
 40
1.0
 10
363.9810636259642
 20
177.8556431055814
 30
0.0
 10
364.0794541094682
 20
178.0577710074402
 30
0.0
 10
364.2788690618969
 20
178.4674379233671
 30
0.0
 10
364.5885563159806
 20
179.0868637324893
 30
0.0
 10
364.9126038553355
 20
179.7195070038809
 30
0.0
 10
365.2528975746002
 20
180.3646300411811
 30
0.0
 10
365.6108223320145
 20
181.0215756896134
 30
0.0
 10
365.9879046526588
 20
181.6894461405952
 30
0.0
 10
366.3959269541278
 20
182.384437956831
 30
0.0
 10
366.8613051001246
 20
183.1441241404994
 30
0.0
 10
367.3530787498923
 20
183.8958654295811
 30
0.0
 10
367.8594620758631
 20
184.6169246893462
 30
0.0
 10
368.1882755294916
 20
185.0444938729429
 30
0.0
 10
368.353345097308
 20
185.2591403832029
 30
0.0
  0
ARC
  5
2D5
330
1F
100
AcDbEntity
  8
0
  6
Continuous
 62
     7
370
    15
100
AcDbCircle
 10
339.4445844982
 20
161.6402515604
 30
0.0
 40
2.392100264821538
100
AcDbArc
 50
271.9195155476
 51
356.1980507573
  0
SPLINE
  5
2D6
330
1F
100
AcDbEntity
  8
0
  6
Continuous
 62
     7
370
    15
100
AcDbSpline
210
0.0
220
0.0
230
1.0
 70
     8
 71
     3
 72
    18
 73
    14
 74
     0
 42
0.00000001
 43
0.00000001
 40
0.0
 40
0.0
 40
0.0
 40
0.0
 40
0.2499999999999978
 40
0.2499999999999978
 40
0.3749999999999979
 40
0.3749999999999979
 40
0.499999999999998
 40
0.499999999999998
 40
0.6249999999999981
 40
0.6249999999999981
 40
0.7499999999999982
 40
0.7499999999999982
 40
1.0
 40
1.0
 40
1.0
 40
1.0
 10
341.8314204480133
 20
161.4816363489833
 30
0.0
 10
342.1979136669621
 20
161.4870260087586
 30
0.0
 10
342.663668158992
 20
161.494034864874
 30
0.0
 10
343.5052707614753
 20
161.5075225780948
 30
0.0
 10
343.8111116515767
 20
161.5125421759204
 30
0.0
 10
344.4675276028063
 20
161.5236950926192
 30
0.0
 10
344.814046479653
 20
161.529758986063
 30
0.0
 10
345.5423625165596
 20
161.5430100238918
 30
0.0
 10
345.9241641428339
 20
161.5501964459062
 30
0.0
 10
346.7231470845644
 20
161.5659148743443
 30
0.0
 10
347.1425739005311
 20
161.5744946227083
 30
0.0
 10
348.4394138513928
 20
161.6023777142688
 30
0.0
 10
349.3464005018331
 20
161.6235716954538
 30
0.0
 10
350.2956052201718
 20
161.6486777770027
 30
0.0
  0
SPLINE
  5
2D7
330
1F
100
AcDbEntity
  8
0
  6
Continuous
 62
     7
370
    15
100
AcDbSpline
210
0.0
220
0.0
230
1.0
 70
     8
 71
     3
 72
    22
 73
    18
 74
     0
 42
0.00000001
 43
0.00000001
 40
0.0
 40
0.0
 40
0.0
 40
0.0
 40
0.0156249999999995
 40
0.0156249999999995
 40
0.0312499999999991
 40
0.0312499999999991
 40
0.0624999999999987
 40
0.0624999999999987
 40
0.124999999999998
 40
0.124999999999998
 40
0.2499999999999978
 40
0.2499999999999978
 40
0.4999999999999986
 40
0.4999999999999986
 40
0.7499999999999992
 40
0.7499999999999992
 40
1.0
 40
1.0
 40
1.0
 40
1.0
 10
350.2956052201718
 20
161.6486777770027
 30
0.0
 10
350.2635008143866
 20
161.6180387751737
 30
0.0
 10
350.228329474979
 20
161.5935575092071
 30
0.0
 10
350.1568557438351
 20
161.5468658844219
 30
0.0
 10
350.1202765422113
 20
161.5252112996701
 30
0.0
 10
350.0094897776574
 20
161.4623540299356
 30
0.0
 10
349.9342209562749
 20
161.423282121173
 30
0.0
 10
349.7071015783504
 20
161.3087024402794
 30
0.0
 10
349.5538007345673
 20
161.2361065295886
 30
0.0
 10
349.092152427522
 20
161.0218239355249
 30
0.0
 10
348.7818494252986
 20
160.8844005839985
 30
0.0
 10
347.8475518595474
 20
160.4851919981323
 30
0.0
 10
347.2188621485632
 20
160.2368516647126
 30
0.0
 10
345.9418173733312
 20
159.8002633915911
 30
0.0
 10
345.2935139702039
 20
159.611857588445
 30
0.0
 10
343.9638770925668
 20
159.3359776067937
 30
0.0
 10
343.2903521042926
 20
159.2494934918405
 30
0.0
 10
342.6100203466132
 20
159.2494934918404
 30
0.0
  0
SPLINE
  5
2D8
330
1F
100
AcDbEntity
  8
0
  6
Continuous
 62
     7
370
    15
100
AcDbSpline
210
0.0
220
0.0
230
1.0
 70
     8
 71
     3
 72
    16
 73
    12
 74
     0
 42
0.00000001
 43
0.00000001
 40
0.0
 40
0.0
 40
0.0
 40
0.0
 40
0.2500000000000001
 40
0.2500000000000001
 40
0.5
 40
0.5
 40
0.75
 40
0.75
 40
0.8750000000000002
 40
0.8750000000000002
 40
1.0
 40
1.0
 40
1.0
 40
1.0
 10
349.0360546724197
 20
157.2994934918405
 30
0.0
 10
349.0378687121799
 20
157.6820236054299
 30
0.0
 10
349.0602361470209
 20
158.065346052594
 30
0.0
 10
349.1499631224648
 20
158.8337253930252
 30
0.0
 10
349.2171258978732
 20
159.2164061814312
 30
0.0
 10
349.4026488338997
 20
159.9648939340926
 30
0.0
 10
349.5199353020885
 20
160.331622128977
 30
0.0
 10
349.7539597756802
 20
160.8617746247866
 30
0.0
 10
349.8408411673502
 20
161.0329728095999
 30
0.0
 10
350.041745486866
 20
161.3584866470886
 30
0.0
 10
350.1560651110897
 20
161.5155069690546
 30
0.0
 10
350.2956052201716
 20
161.6486777770111
 30
0.0
  0
ARC
  5
2D9
330
1F
100
AcDbEntity
  8
0
  6
Continuous
 62
     7
370
    15
100
AcDbCircle
 10
378.2774477176
 20
157.2494934918
 30
0.0
 40
36.69092444869043
100
AcDbArc
 50
90.0
 51
173.3764311907
  0
ARC
  5
2DA
330
1F
100
AcDbEntity
  8
0
  6
Continuous
 62
     7
370
    15
100
AcDbCircle
 10
378.2774477176
 20
157.2494934918
 30
0.0
 40
25.0798724079642
100
AcDbArc
 50
124.7526081207
 51
235.2473918793
  0
ARC
  5
2DB
330
1F
100
AcDbEntity
  8
0
  6
Continuous
 62
     7
370
    15
100
AcDbCircle
 10
378.2774477176
 20
157.2494934918
 30
0.0
 40
36.69092444869042
100
AcDbArc
 50
186.6235688093
 51
270.0
  0
SPLINE
  5
2DC
330
1F
100
AcDbEntity
  8
0
  6
Continuous
 62
     7
370
    15
100
AcDbSpline
210
0.0
220
0.0
230
1.0
 70
     8
 71
     3
 72
    20
 73
    16
 74
     0
 42
0.00000001
 43
0.00000001
 40
0.0
 40
0.0
 40
0.0
 40
0.0
 40
0.1250000000000002
 40
0.1250000000000002
 40
0.2500000000000004
 40
0.2500000000000004
 40
0.3750000000000006
 40
0.3750000000000006
 40
0.5000000000000008
 40
0.5000000000000008
 40
0.7500000000000011
 40
0.7500000000000011
 40
0.8750000000000006
 40
0.8750000000000006
 40
1.0
 40
1.0
 40
1.0
 40
1.0
 10
350.2956052201611
 20
152.8503092066785
 30
0.0
 10
349.8211916736944
 20
152.8628572534332
 30
0.0
 10
349.3545821869526
 20
152.8744832360603
 30
0.0
 10
348.449999898445
 20
152.8959466485099
 30
0.0
 10
348.0102444592346
 20
152.9058313100909
 30
0.0
 10
347.1556403060787
 20
152.9242167637798
 30
0.0
 10
346.740789171837
 20
152.9327165481263
 30
0.0
 10
345.9368030627485
 20
152.9485500656421
 30
0.0
 10
345.5483484076445
 20
152.9558658561495
 30
0.0
 10
344.4526175411127
 20
152.9758082113059
 30
0.0
 10
343.803062646657
 20
152.9866851448441
 30
0.0
 10
342.953161249285
 20
153.0003159234675
 30
0.0
 10
342.6921029101845
 20
153.0043815323949
 30
0.0
 10
342.2235501382851
 20
153.0115404531816
 30
0.0
 10
342.0145983074433
 20
153.0146568158501
 30
0.0
 10
341.8314204480133
 20
153.0173506346976
 30
0.0
  0
SPLINE
  5
2DD
330
1F
100
AcDbEntity
  8
0
  6
Continuous
 62
     7
370
    15
100
AcDbSpline
210
0.0
220
0.0
230
1.0
 70
     8
 71
     3
 72
    16
 73
    12
 74
     0
 42
0.00000001
 43
0.00000001
 40
0.0
 40
0.0
 40
0.0
 40
0.0
 40
0.1250000000000001
 40
0.1250000000000001
 40
0.2500000000000003
 40
0.2500000000000003
 40
0.5000000000000002
 40
0.5000000000000002
 40
0.7500000000000001
 40
0.7500000000000001
 40
1.0
 40
1.0
 40
1.0
 40
1.0
 10
350.2956052201611
 20
152.8503092066797
 30
0.0
 10
350.1544676168483
 20
152.9850045913274
 30
0.0
 10
350.0423236087229
 20
153.1396772027232
 30
0.0
 10
349.8413457652969
 20
153.4650836488625
 30
0.0
 10
349.7538316595004
 20
153.6374303836995
 30
0.0
 10
349.5192419759167
 20
154.1690803476824
 30
0.0
 10
349.4019014126992
 20
154.5364095803376
 30
0.0
 10
349.2161495124532
 20
155.2872254387378
 30
0.0
 10
349.149256094055
 20
155.6704389846006
 30
0.0
 10
349.060330052269
 20
156.4337200964059
 30
0.0
 10
349.0378722898148
 20
156.8162089552295
 30
0.0
 10
349.0360546724189
 20
157.1994934918404
 30
0.0
  0
SPLINE
  5
2DE
330
1F
100
AcDbEntity
  8
0
  6
Continuous
 62
     7
370
    15
100
AcDbSpline
210
0.0
220
0.0
230
1.0
 70
    24
 71
     3
 72
     8
 73
     4
 74
     0
 42
0.00000001
 43
0.00000001
 40
0.0
 40
0.0
 40
0.0
 40
0.0
 40
1.0
 40
1.0
 40
1.0
 40
1.0
 10
349.6393884280326
 20
157.1994934918405
 30
0.0
 10
349.4360274768871
 20
157.1994934918405
 30
0.0
 10
349.2349292813855
 20
157.1994934918405
 30
0.0
 10
349.0360546724199
 20
157.1994934918405
 30
0.0
  0
SPLINE
  5
2DF
330
1F
100
AcDbEntity
  8
0
  6
Continuous
 62
     7
370
    15
100
AcDbSpline
210
0.0
220
0.0
230
1.0
 70
     8
 71
     3
 72
     8
 73
     4
 74
     0
 42
0.00000001
 43
0.00000001
 40
0.0
 40
0.0
 40
0.0
 40
0.0
 40
1.0
 40
1.0
 40
1.0
 40
1.0
 10
349.6393884280326
 20
157.1994934918405
 30
0.0
 10
349.6392818947082
 20
157.2328268251738
 30
0.0
 10
349.6392818947082
 20
157.2661601585071
 30
0.0
 10
349.6393884280326
 20
157.2994934918405
 30
0.0
  0
SPLINE
  5
2E0
330
1F
100
AcDbEntity
  8
0
  6
Continuous
 62
     7
370
    15
100
AcDbSpline
210
0.0
220
0.0
230
1.0
 70
    24
 71
     3
 72
     8
 73
     4
 74
     0
 42
0.00000001
 43
0.00000001
 40
0.0
 40
0.0
 40
0.0
 40
0.0
 40
1.0
 40
1.0
 40
1.0
 40
1.0
 10
349.6393884280326
 20
157.2994934918405
 30
0.0
 10
349.4360274768871
 20
157.2994934918405
 30
0.0
 10
349.2349292813855
 20
157.2994934918405
 30
0.0
 10
349.0360546724199
 20
157.2994934918405
 30
0.0
  0
ARC
  5
2E1
330
1F
100
AcDbEntity
  8
0
  6
Continuous
 62
     7
370
    15
100
AcDbCircle
 10
339.4445844982
 20
152.8587354233
 30
0.0
 40
2.392100264821538
100
AcDbArc
 50
3.8019492427
 51
88.0804844524
  0
SPLINE
  5
2E2
330
1F
100
AcDbEntity
  8
0
  6
Continuous
 62
     7
370
    15
100
AcDbSpline
210
0.0
220
0.0
230
1.0
 70
     8
 71
     3
 72
    22
 73
    18
 74
     0
 42
0.00000001
 43
0.00000001
 40
0.0
 40
0.0
 40
0.0
 40
0.0
 40
0.2499999999999999
 40
0.2499999999999999
 40
0.4999999999999998
 40
0.4999999999999998
 40
0.7499999999999997
 40
0.7499999999999997
 40
0.8750000000000003
 40
0.8750000000000003
 40
0.9375000000000002
 40
0.9375000000000002
 40
0.9687500000000002
 40
0.9687500000000002
 40
0.9843750000000001
 40
0.9843750000000001
 40
1.0
 40
1.0
 40
1.0
 40
1.0
 10
342.6100203466132
 20
155.2494934918404
 30
0.0
 10
343.2918453532955
 20
155.2494934918404
 30
0.0
 10
343.9591931992603
 20
155.1633980649791
 30
0.0
 10
345.2770585605687
 20
154.8911175232746
 30
0.0
 10
345.9291896289685
 20
154.70270817367
 30
0.0
 10
347.2130951804755
 20
154.2644346809104
 30
0.0
 10
347.8438043095911
 20
154.0153392943985
 30
0.0
 10
348.7800006349174
 20
153.6154046611093
 30
0.0
 10
349.0905903713971
 20
153.4778710206311
 30
0.0
 10
349.553006601206
 20
153.263257564557
 30
0.0
 10
349.7065523775137
 20
153.1905534598878
 30
0.0
 10
349.9339878786041
 20
153.075826509689
 30
0.0
 10
350.0093540526036
 20
153.0367076404845
 30
0.0
 10
350.1202491485618
 20
152.9737923848018
 30
0.0
 10
350.1568581354787
 20
152.9521203403139
 30
0.0
 10
350.2283629897735
 20
152.9054067764341
 30
0.0
 10
350.2635374614747
 20
152.880913234138
 30
0.0
 10
350.2956052201505
 20
152.8503092066544
 30
0.0
  0
SPLINE
  5
2E3
330
1F
100
AcDbEntity
  8
0
  6
Continuous
 62
     7
370
    15
100
AcDbSpline
210
0.0
220
0.0
230
1.0
 70
     8
 71
     3
 72
     8
 73
     4
 74
     0
 42
0.00000001
 43
0.00000001
 40
0.0
 40
0.0
 40
0.0
 40
0.0
 40
1.0
 40
1.0
 40
1.0
 40
1.0
 10
296.6597232178671
 20
161.4836954458932
 30
0.0
 10
296.8509055231103
 20
160.0968265682746
 30
0.0
 10
296.9473143018948
 20
158.6970979383609
 30
0.0
 10
296.9495486213887
 20
157.2994934918405
 30
0.0
  0
SPLINE
  5
2E4
330
1F
100
AcDbEntity
  8
0
  6
Continuous
 62
     7
370
    15
100
AcDbSpline
210
0.0
220
0.0
230
1.0
 70
     8
 71
     3
 72
    20
 73
    16
 74
     0
 42
0.00000001
 43
0.00000001
 40
0.0
 40
0.0
 40
0.0
 40
0.0
 40
0.2499999999999999
 40
0.2499999999999999
 40
0.3749999999999999
 40
0.3749999999999999
 40
0.5
 40
0.5
 40
0.6250000000000001
 40
0.6250000000000001
 40
0.75
 40
0.75
 40
0.875
 40
0.875
 40
1.0
 40
1.0
 40
1.0
 40
1.0
 10
299.8646442760572
 20
159.2494934918404
 30
0.0
 10
299.5121671432095
 20
159.2494934918404
 30
0.0
 10
299.1660154706699
 20
159.293125162343
 30
0.0
 10
298.6567798372229
 20
159.4274944844207
 30
0.0
 10
298.4885776703538
 20
159.4842792148677
 30
0.0
 10
298.1655359359002
 20
159.6202751842201
 30
0.0
 10
298.0094818073339
 20
159.699709060613
 30
0.0
 10
297.7097300918081
 20
159.8844255105075
 30
0.0
 10
297.5650903368906
 20
159.9907499050094
 30
0.0
 10
297.3009619464112
 20
160.2262060253921
 30
0.0
 10
297.1802713876177
 20
160.3557399815187
 30
0.0
 10
296.9662751773212
 20
160.643233575145
 30
0.0
 10
296.8753454208647
 20
160.7986075946165
 30
0.0
 10
296.7348342399978
 20
161.1274713777049
 30
0.0
 10
296.6845572750711
 20
161.303544981669
 30
0.0
 10
296.6597232178634
 20
161.4836954459195
 30
0.0
  0
LINE
  5
2E5
330
1F
100
AcDbEntity
  8
0
  6
Continuous
 62
     7
370
    15
100
AcDbLine
 10
342.6100208334
 20
159.2494935868
 30
0.0
 11
299.8646466903
 21
159.2494935868
 31
0.0
  0
LINE
  5
2E6
330
1F
100
AcDbEntity
  8
0
  6
Continuous
 62
     7
370
    15
100
AcDbLine
 10
349.0360553287
 20
157.2994934906
 30
0.0
 11
296.9495474271
 21
157.2994934906
 31
0.0
  0
LINE
  5
2E7
330
1F
100
AcDbEntity
  8
0
  6
Continuous
 62
     7
370
    15
100
AcDbLine
 10
342.6100208334
 20
155.2494933968
 30
0.0
 11
299.8649447135
 21
155.2494933968
 31
0.0
  0
SPLINE
  5
2E8
330
1F
100
AcDbEntity
  8
0
  6
Continuous
 62
     7
370
    15
100
AcDbSpline
210
0.0
220
0.0
230
1.0
 70
     8
 71
     3
 72
    20
 73
    16
 74
     0
 42
0.00000001
 43
0.00000001
 40
0.0
 40
0.0
 40
0.0
 40
0.0
 40
0.1249999999999989
 40
0.1249999999999989
 40
0.2499999999999978
 40
0.2499999999999978
 40
0.3749999999999968
 40
0.3749999999999968
 40
0.4999999999999957
 40
0.4999999999999957
 40
0.6249999999999946
 40
0.6249999999999946
 40
0.7499999999999936
 40
0.7499999999999936
 40
1.0
 40
1.0
 40
1.0
 40
1.0
 10
296.6599030919327
 20
153.0152809845295
 30
0.0
 10
296.6847538268199
 20
153.1955525883679
 30
0.0
 10
296.7336793996654
 20
153.3674838460943
 30
0.0
 10
296.8736166427548
 20
153.6967663000152
 30
0.0
 10
296.965493217543
 20
153.8540567044238
 30
0.0
 10
297.1777084416779
 20
154.1399127701811
 30
0.0
 10
297.3003435529596
 20
154.272002001984
 30
0.0
 10
297.5653564761625
 20
154.5083249351687
 30
0.0
 10
297.7071170378035
 20
154.6125799444675
 30
0.0
 10
298.0063714154438
 20
154.7974470557163
 30
0.0
 10
298.1652480723922
 20
154.8784926799819
 30
0.0
 10
298.4894567590605
 20
155.0149690180841
 30
0.0
 10
298.6549301933175
 20
155.0707743917534
 30
0.0
 10
299.1604428085649
 20
155.2046375861269
 30
0.0
 10
299.5123797802722
 20
155.2494934918392
 30
0.0
 10
299.8649466850654
 20
155.2494934918404
 30
0.0
  0
SPLINE
  5
2E9
330
1F
100
AcDbEntity
  8
0
  6
Continuous
 62
     7
370
    15
100
AcDbSpline
210
0.0
220
0.0
230
1.0
 70
     8
 71
     3
 72
     8
 73
     4
 74
     0
 42
0.00000001
 43
0.00000001
 40
0.0
 40
0.0
 40
0.0
 40
0.0
 40
1.0
 40
1.0
 40
1.0
 40
1.0
 10
296.9495486884999
 20
157.1994934918405
 30
0.0
 10
296.9473181789901
 20
155.8018874714504
 30
0.0
 10
296.8510852564428
 20
154.4021500480977
 30
0.0
 10
296.659903091934
 20
153.0152809845496
 30
0.0
  0
LINE
  5
2EA
330
1F
100
AcDbEntity
  8
0
  6
Continuous
 62
     7
370
    15
100
AcDbLine
 10
349.0360553287
 20
157.1994934931
 30
0.0
 11
296.9495474271
 21
157.1994934931
 31
0.0
  0
LINE
  5
2EB
330
1F
100
AcDbEntity
  8
0
  6
Continuous
 62
     7
370
    15
100
AcDbLine
 10
378.2774477176
 20
193.9404178085
 30
0.0
 11
378.2774477176
 21
196.7494953098
 31
0.0
  0
LINE
  5
2EC
330
1F
100
AcDbEntity
  8
0
  6
Continuous
 62
     7
370
    15
100
AcDbLine
 10
401.5746123068
 20
193.5490984144
 30
0.0
 11
398.7426801495
 21
194.1114309849
 31
0.0
  0
LINE
  5
2ED
330
1F
100
AcDbEntity
  8
0
  6
Continuous
 62
     7
370
    15
100
AcDbLine
 10
402.8678822241
 20
193.3581139566
 30
0.0
 11
401.5746123068
 21
193.5490984144
 31
0.0
  0
LINE
  5
2EE
330
1F
100
AcDbEntity
  8
0
  6
Continuous
 62
     7
370
    15
100
AcDbLine
 10
341.8314202599
 20
157.2994934906
 30
0.0
 11
341.8314202599
 21
157.1994934931
 31
0.0
  0
LINE
  5
2EF
330
1F
100
AcDbEntity
  8
0
  6
Continuous
 62
     7
370
    15
100
AcDbLine
 10
478.2774492077
 20
118.2494926872
 30
0.0
 11
478.2774492077
 21
196.2494942965
 31
0.0
  0
LINE
  5
2F0
330
1F
100
AcDbEntity
  8
0
  6
Continuous
 62
     7
370
    15
100
AcDbLine
 10
278.2774462275
 20
118.2494926872
 30
0.0
 11
278.2774462275
 21
196.2494942965
 31
0.0
  0
LINE
  5
2F1
330
1F
100
AcDbEntity
  8
0
  6
Continuous
 62
     7
370
    15
100
AcDbLine
 10
296.3083802633
 20
157.2994934906
 30
0.0
 11
296.3083802633
 21
157.2494934916
 31
0.0
  0
LINE
  5
2F2
330
1F
100
AcDbEntity
  8
0
  6
Continuous
 62
     7
370
    15
100
AcDbLine
 10
296.3083802633
 20
157.2494934916
 30
0.0
 11
296.3083802633
 21
157.1994934931
 31
0.0
  0
ARC
  5
2F3
330
1F
100
AcDbEntity
  8
0
  6
Continuous
 62
     7
370
    15
100
AcDbCircle
 10
378.2774477176
 20
157.2494934918
 30
0.0
 40
39.26401607611412
100
AcDbArc
 50
114.8120571488
 51
117.2429415803
  0
ARC
  5
2F4
330
1F
100
AcDbEntity
  8
0
  6
Continuous
 62
     7
370
    15
100
AcDbCircle
 10
369.5985568204
 20
180.9557787238
 30
0.0
 40
14.25520003914754
100
AcDbArc
 50
110.5078371093
 51
123.1633057324
  0
SPLINE
  5
2F5
330
1F
100
AcDbEntity
  8
0
  6
Continuous
 62
     7
370
    15
100
AcDbSpline
210
0.0
220
0.0
230
1.0
 70
     8
 71
     3
 72
    24
 73
    20
 74
     0
 42
0.00000001
 43
0.00000001
 40
0.0
 40
0.0
 40
0.0
 40
0.0
 40
0.0624999999999992
 40
0.0624999999999992
 40
0.1249999999999983
 40
0.1249999999999983
 40
0.2499999999999984
 40
0.2499999999999984
 40
0.3124999999999984
 40
0.3124999999999984
 40
0.3749999999999984
 40
0.3749999999999984
 40
0.4999999999999984
 40
0.4999999999999984
 40
0.6249999999999983
 40
0.6249999999999983
 40
0.7499999999999982
 40
0.7499999999999982
 40
1.0
 40
1.0
 40
1.0
 40
1.0
 10
368.4816639157822
 20
195.2719286865144
 30
0.0
 10
368.3652878945314
 20
195.2421424290242
 30
0.0
 10
368.2493648223498
 20
195.2121341660102
 30
0.0
 10
368.0208290290408
 20
195.1541194184679
 30
0.0
 10
367.9076114557482
 20
195.1255113975577
 30
0.0
 10
367.5719539431974
 20
195.0417395078477
 30
0.0
 10
367.3505045508317
 20
194.9882464933899
 30
0.0
 10
367.0503950206461
 20
194.9188811822287
 30
0.0
 10
366.9542849269469
 20
194.8970387222614
 30
0.0
 10
366.7733023434783
 20
194.85749285637
 30
0.0
 10
366.6884722938667
 20
194.8396932598325
 30
0.0
 10
366.4564015359747
 20
194.7928589617513
 30
0.0
 10
366.3276791069675
 20
194.7697436183648
 30
0.0
 10
366.1162872259719
 20
194.734979721
 30
0.0
 10
366.0321509874771
 20
194.7229163417734
 30
0.0
 10
365.9059871681761
 20
194.7090674468307
 30
0.0
 10
365.8605278801781
 20
194.7060076948965
 30
0.0
 10
365.7589432766767
 20
194.7013399975985
 30
0.0
 10
365.7423316099657
 20
194.7062893420084
 30
0.0
 10
365.7396767362951
 20
194.7067184696739
 30
0.0
  0
SPLINE
  5
2F6
330
1F
100
AcDbEntity
  8
0
  6
Continuous
 62
     7
370
    15
100
AcDbSpline
210
0.0
220
0.0
230
1.0
 70
     8
 71
     3
 72
    18
 73
    14
 74
     0
 42
0.00000001
 43
0.00000001
 40
0.0
 40
0.0
 40
0.0
 40
0.0
 40
0.1250000000000008
 40
0.1250000000000008
 40
0.2500000000000016
 40
0.2500000000000016
 40
0.5000000000000021
 40
0.5000000000000021
 40
0.7500000000000027
 40
0.7500000000000027
 40
0.8750000000000013
 40
0.8750000000000013
 40
1.0
 40
1.0
 40
1.0
 40
1.0
 10
370.5185228901412
 20
195.8456141608549
 30
0.0
 10
370.4590970836294
 20
195.8267544546495
 30
0.0
 10
370.3996967422503
 20
195.8074884999157
 30
0.0
 10
370.271530124287
 20
195.7670489484472
 30
0.0
 10
370.2025882537507
 20
195.7458575604832
 30
0.0
 10
369.9836105643301
 20
195.6796565146111
 30
0.0
 10
369.8178490629828
 20
195.6312298758432
 30
0.0
 10
369.4649353182357
 20
195.5318864182164
 30
0.0
 10
369.2751273200024
 20
195.4800249967291
 30
0.0
 10
368.9809716740432
 20
195.4018166912651
 30
0.0
 10
368.8820595793172
 20
195.3758380032858
 30
0.0
 10
368.6825956009926
 20
195.3240281530005
 30
0.0
 10
368.5820784329064
 20
195.2981776375983
 30
0.0
 10
368.4816639157822
 20
195.2719286865144
 30
0.0
  0
SPLINE
  5
2F7
330
1F
100
AcDbEntity
  8
0
  6
Continuous
 62
     7
370
    15
100
AcDbSpline
210
0.0
220
0.0
230
1.0
 70
     8
 71
     3
 72
    16
 73
    12
 74
     0
 42
0.00000001
 43
0.00000001
 40
0.0
 40
0.0
 40
0.0
 40
0.0
 40
0.2500000000000006
 40
0.2500000000000006
 40
0.5000000000000011
 40
0.5000000000000011
 40
0.7500000000000017
 40
0.7500000000000017
 40
0.8750000000000008
 40
0.8750000000000008
 40
1.0
 40
1.0
 40
1.0
 40
1.0
 10
371.1755741721925
 20
196.1058009533103
 30
0.0
 10
371.1734307119566
 20
196.1052119093046
 30
0.0
 10
371.1689845775404
 20
196.1012295782122
 30
0.0
 10
371.1297524277781
 20
196.0817764106315
 30
0.0
 10
371.1012967779806
 20
196.0674797050069
 30
0.0
 10
371.0098811651397
 20
196.0267206458779
 30
0.0
 10
370.9505867213466
 20
196.0010689153885
 30
0.0
 10
370.8218506062635
 20
195.9516254669589
 30
0.0
 10
370.774028505194
 20
195.9336045899291
 30
0.0
 10
370.6602838553795
 20
195.8930750395099
 30
0.0
 10
370.5900047699069
 20
195.8698267301939
 30
0.0
 10
370.5185228901412
 20
195.8456141608549
 30
0.0
  0
SPLINE
  5
2F8
330
1F
100
AcDbEntity
  8
0
  6
Continuous
 62
     7
370
    15
100
AcDbSpline
210
0.0
220
0.0
230
1.0
 70
     8
 71
     3
 72
    24
 73
    20
 74
     0
 42
0.00000001
 43
0.00000001
 40
0.0
 40
0.0
 40
0.0
 40
0.0
 40
0.0624999999999993
 40
0.0624999999999993
 40
0.1249999999999987
 40
0.1249999999999987
 40
0.1874999999999981
 40
0.1874999999999981
 40
0.2499999999999974
 40
0.2499999999999974
 40
0.3749999999999978
 40
0.3749999999999978
 40
0.4999999999999982
 40
0.4999999999999982
 40
0.6249999999999986
 40
0.6249999999999986
 40
0.749999999999999
 40
0.749999999999999
 40
1.0
 40
1.0
 40
1.0
 40
1.0
 10
356.1739716080899
 20
189.7009850184435
 30
0.0
 10
356.0685581286418
 20
189.6293933121399
 30
0.0
 10
355.9635903578716
 20
189.5575108750531
 30
0.0
 10
355.7556695061678
 20
189.415900201638
 30
0.0
 10
355.6524672922514
 20
189.3455842286774
 30
0.0
 10
355.4476694412684
 20
189.2061723940485
 30
0.0
 10
355.3461399852689
 20
189.1372368734093
 30
0.0
 10
355.1449662815575
 20
189.0011959381368
 30
0.0
 10
355.0444481657222
 20
188.9334059015261
 30
0.0
 10
354.7546209938464
 20
188.7396055147199
 30
0.0
 10
354.5729485648667
 20
188.6192347710638
 30
0.0
 10
354.2447970136032
 20
188.4074095166688
 30
0.0
 10
354.1061822605444
 20
188.3209574778365
 30
0.0
 10
353.8679957079668
 20
188.176437511918
 30
0.0
 10
353.7712295030632
 20
188.1200754585837
 30
0.0
 10
353.6231264349576
 20
188.0385953505297
 30
0.0
 10
353.5713692313577
 20
188.0134014646675
 30
0.0
 10
353.4534911071265
 20
187.9582121669163
 30
0.0
 10
353.4348042520843
 20
187.9574342287841
 30
0.0
 10
353.4319844286027
 20
187.9568600050162
 30
0.0
  0
SPLINE
  5
2F9
330
1F
100
AcDbEntity
  8
0
  6
Continuous
 62
     7
370
    15
100
AcDbSpline
210
0.0
220
0.0
230
1.0
 70
     8
 71
     3
 72
    20
 73
    16
 74
     0
 42
0.00000001
 43
0.00000001
 40
0.0
 40
0.0
 40
0.0
 40
0.0
 40
0.1249999999999995
 40
0.1249999999999995
 40
0.249999999999999
 40
0.249999999999999
 40
0.3749999999999985
 40
0.3749999999999985
 40
0.499999999999998
 40
0.499999999999998
 40
0.749999999999997
 40
0.749999999999997
 40
0.8749999999999984
 40
0.8749999999999984
 40
1.0
 40
1.0
 40
1.0
 40
1.0
 10
358.2108305824489
 20
191.1197211545869
 30
0.0
 10
358.1478437999032
 20
191.0740541418484
 30
0.0
 10
358.0849362582943
 20
191.0278503689486
 30
0.0
 10
357.9498297545184
 20
190.9299900301384
 30
0.0
 10
357.877803853446
 20
190.8784184392995
 30
0.0
 10
357.7268870490072
 20
190.7709668432756
 30
0.0
 10
357.647919620548
 20
190.7150517176109
 30
0.0
 10
357.4811202990146
 20
190.597936803382
 30
0.0
 10
357.3941167981891
 20
190.5372940205574
 30
0.0
 10
357.1294885840342
 20
190.3536103202293
 30
0.0
 10
356.9455538349201
 20
190.2271310565333
 30
0.0
 10
356.6593424749544
 20
190.0315748932115
 30
0.0
 10
356.5623535196187
 20
189.9654947666995
 30
0.0
 10
356.3683758724363
 20
189.8336160535213
 30
0.0
 10
356.2710247266235
 20
189.7675193730685
 30
0.0
 10
356.1739716080899
 20
189.7009850184434
 30
0.0
  0
SPLINE
  5
2FA
330
1F
100
AcDbEntity
  8
0
  6
Continuous
 62
     7
370
    15
100
AcDbSpline
210
0.0
220
0.0
230
1.0
 70
     8
 71
     3
 72
    16
 73
    12
 74
     0
 42
0.00000001
 43
0.00000001
 40
0.0
 40
0.0
 40
0.0
 40
0.0
 40
0.2500000000000002
 40
0.2500000000000002
 40
0.5000000000000004
 40
0.5000000000000004
 40
0.7500000000000007
 40
0.7500000000000007
 40
0.8750000000000003
 40
0.8750000000000003
 40
1.0
 40
1.0
 40
1.0
 40
1.0
 10
358.8678818645002
 20
191.6517897929473
 30
0.0
 10
358.8657127428364
 20
191.6503405009648
 30
0.0
 10
358.8610773031476
 20
191.6440622695666
 30
0.0
 10
358.8209204512327
 20
191.6072120513261
 30
0.0
 10
358.7917545935088
 20
191.5802465275614
 30
0.0
 10
358.6986789171398
 20
191.5000091064437
 30
0.0
 10
358.6383301750952
 20
191.4489143739927
 30
0.0
 10
358.5088856759155
 20
191.3459952088647
 30
0.0
 10
358.4610287072171
 20
191.3082795470091
 30
0.0
 10
358.3474125189832
 20
191.221317016534
 30
0.0
 10
358.2792133244572
 20
191.1709646461767
 30
0.0
 10
358.2108305824489
 20
191.1197211545869
 30
0.0
  0
SPLINE
  5
2FB
330
1F
100
AcDbEntity
  8
0
  6
Continuous
 62
     7
370
    15
100
AcDbSpline
210
0.0
220
0.0
230
1.0
 70
     8
 71
     3
 72
    11
 73
     7
 74
     0
 42
0.00000001
 43
0.00000001
 40
0.0
 40
0.0
 40
0.0
 40
0.0
 40
0.005000000041137
 40
0.005000000041137
 40
0.005000000041137
 40
0.0110023715377023
 40
0.0110023715377023
 40
0.0110023715377023
 40
0.0110023715377023
 10
296.6597232178653
 20
161.4836954459199
 30
0.0
 10
298.0004701718342
 20
161.4832642047982
 30
0.0
 10
299.3412890486428
 20
161.4829829568712
 30
0.0
 10
300.6822045738601
 20
161.482899274636
 30
0.0
 10
302.2919391673537
 20
161.4827988162652
 30
0.0
 10
303.9018123186804
 20
161.4829818965402
 30
0.0
 10
305.5118827666296
 20
161.4835572612189
 30
0.0
  0
LINE
  5
2FC
330
1F
100
AcDbEntity
  8
0
  6
Continuous
 62
     7
370
    15
100
AcDbLine
 10
296.9495474271
 20
157.2994934906
 30
0.0
 11
296.3095947079
 21
157.2994934906
 31
0.0
  0
SPLINE
  5
2FD
330
1F
100
AcDbEntity
  8
0
  6
Continuous
 62
     7
370
    15
100
AcDbSpline
210
0.0
220
0.0
230
1.0
 70
     8
 71
     3
 72
    11
 73
     7
 74
     0
 42
0.00000001
 43
0.00000001
 40
0.0
 40
0.0
 40
0.0
 40
0.0
 40
0.0080287940138588
 40
0.0080287940138588
 40
0.0080287940138588
 40
0.0110048960492346
 40
0.0110048960492346
 40
0.0110048960492346
 40
0.0110048960492346
 10
305.5143222080087
 20
153.0155796299528
 30
0.0
 10
303.3606533348044
 20
153.0162507567579
 30
0.0
 10
301.2073133066152
 20
153.0162767143579
 30
0.0
 10
299.0541808470629
 20
153.015884076788
 30
0.0
 10
298.2560607241101
 20
153.0157385344437
 30
0.0
 10
297.4579696472003
 20
153.0155345895836
 30
0.0
 10
296.6599030919328
 20
153.0152809845295
 30
0.0
  0
LINE
  5
2FE
330
1F
100
AcDbEntity
  8
0
  6
Continuous
 62
     7
370
    15
100
AcDbLine
 10
296.9495474271
 20
157.1994934931
 30
0.0
 11
296.3095947079
 21
157.1994934931
 31
0.0
  0
ARC
  5
2FF
330
1F
100
AcDbEntity
  8
0
  6
Continuous
 62
     7
370
    15
100
AcDbCircle
 10
307.035116424
 20
154.1514040959
 30
0.0
 40
1.099018110118958
100
AcDbArc
 50
92.3557491131
 51
139.40942046
  0
ARC
  5
300
330
1F
100
AcDbEntity
  8
0
  6
Continuous
 62
     7
370
    15
100
AcDbCircle
 10
308.5294916174
 20
152.9503652422
 30
0.0
 40
3.015871687368291
100
AcDbArc
 50
140.5545385058
 51
178.7609569993
  0
ARC
  5
301
330
1F
100
AcDbEntity
  8
0
  6
Continuous
 62
     7
370
    15
100
AcDbCircle
 10
308.5271145427
 20
161.5486824486
 30
0.0
 40
3.015936459223822
100
AcDbArc
 50
181.237320718
 51
219.446744478
  0
ARC
  5
302
330
1F
100
AcDbEntity
  8
0
  6
Continuous
 62
     7
370
    15
100
AcDbCircle
 10
307.0327129765
 20
160.3476022916
 30
0.0
 40
1.099037318245873
100
AcDbArc
 50
220.5932914983
 51
267.6445195996
  0
SPLINE
  5
303
330
1F
100
AcDbEntity
  8
0
  6
Continuous
 62
     7
370
    15
100
AcDbSpline
210
0.0
220
0.0
230
1.0
 70
     8
 71
     3
 72
     9
 73
     5
 74
     0
 42
0.00000001
 43
0.00000001
 40
0.0
 40
0.0
 40
0.0
 40
0.0
 40
0.8211485306829309
 40
1.0
 40
1.0
 40
1.0
 40
1.0
 10
312.6595287494101
 20
127.4104527803184
 30
0.0
 10
313.3229893847682
 20
127.0878901325857
 30
0.0
 10
314.1309560443522
 20
126.6950712506419
 30
0.0
 10
314.9496901301242
 20
126.66523599648
 30
0.0
 10
315.0961219243445
 20
126.6598999174357
 30
0.0
  0
SPLINE
  5
304
330
1F
100
AcDbEntity
  8
0
  6
Continuous
 62
     7
370
    15
100
AcDbSpline
210
0.0
220
0.0
230
1.0
 70
     8
 71
     3
 72
     8
 73
     4
 74
     0
 42
0.00000001
 43
0.00000001
 40
0.0
 40
0.0
 40
0.0
 40
0.0
 40
0.0016715304148097
 40
0.0016715304148097
 40
0.0016715304148097
 40
0.0016715304148097
 10
310.9948678230465
 20
127.561811388134
 30
0.0
 10
311.5496031673745
 20
127.5097087038207
 30
0.0
 10
312.1044980997742
 20
127.4592804015012
 30
0.0
 10
312.659531284585
 20
127.4104525844498
 30
0.0
  0
SPLINE
  5
305
330
1F
100
AcDbEntity
  8
0
  6
Continuous
 62
     7
370
    15
100
AcDbSpline
210
0.0
220
0.0
230
1.0
 70
     8
 71
     3
 72
     8
 73
     4
 74
     0
 42
0.00000001
 43
0.00000001
 40
0.0
 40
0.0
 40
0.0
 40
0.0
 40
1.0
 40
1.0
 40
1.0
 40
1.0
 10
310.5051657306747
 20
127.4531346737235
 30
0.0
 10
310.6686845849121
 20
127.4785220167926
 30
0.0
 10
310.8319187931011
 20
127.5147408378183
 30
0.0
 10
310.9948678230465
 20
127.561811388134
 30
0.0
  0
SPLINE
  5
306
330
1F
100
AcDbEntity
  8
0
  6
Continuous
 62
     7
370
    15
100
AcDbSpline
210
0.0
220
0.0
230
1.0
 70
     8
 71
     3
 72
     8
 73
     4
 74
     0
 42
0.00000001
 43
0.00000001
 40
0.0
 40
0.0
 40
0.0
 40
0.0
 40
1.0
 40
1.0
 40
1.0
 40
1.0
 10
332.2204404799973
 20
152.8953672877382
 30
0.0
 10
324.5748912257523
 20
152.942802456383
 30
0.0
 10
316.9283662056813
 20
152.9927863158237
 30
0.0
 10
309.2888335416754
 20
153.0366807590956
 30
0.0
  0
SPLINE
  5
307
330
1F
100
AcDbEntity
  8
0
  6
Continuous
 62
     7
370
    15
100
AcDbSpline
210
0.0
220
0.0
230
1.0
 70
     8
 71
     3
 72
    20
 73
    16
 74
     0
 42
0.00000001
 43
0.00000001
 40
0.0
 40
0.0
 40
0.0
 40
0.0
 40
0.0625000000000001
 40
0.0625000000000001
 40
0.1250000000000002
 40
0.1250000000000002
 40
0.2500000000000003
 40
0.2500000000000003
 40
0.3750000000000003
 40
0.3750000000000003
 40
0.5000000000000002
 40
0.5000000000000002
 40
0.7500000000000001
 40
0.7500000000000001
 40
1.0
 40
1.0
 40
1.0
 40
1.0
 10
340.9589160384087
 20
134.464430644337
 30
0.0
 10
340.6862539417421
 20
134.7894532361825
 30
0.0
 10
340.4160266287542
 20
135.1183714843452
 30
0.0
 10
339.8856621579037
 20
135.7789923669989
 30
0.0
 10
339.6244973266918
 20
136.1114842284007
 30
0.0
 10
338.853371602275
 20
137.1167006532934
 30
0.0
 10
338.3564761790695
 20
137.797707492447
 30
0.0
 10
337.4025024982949
 20
139.1906130006371
 30
0.0
 10
336.9507433265471
 20
139.9064407030976
 30
0.0
 10
336.0904959975462
 20
141.3739309536746
 30
0.0
 10
335.6844603421764
 20
142.1250970886587
 30
0.0
 10
334.5520055183027
 20
144.4193776709572
 30
0.0
 10
333.9072108360669
 20
146.0098501417135
 30
0.0
 10
332.8636157691296
 20
149.3473369710267
 30
0.0
 10
332.4654149445936
 20
151.1067096629798
 30
0.0
 10
332.2204404799973
 20
152.8953672877383
 30
0.0
  0
SPLINE
  5
308
330
1F
100
AcDbEntity
  8
0
  6
Continuous
 62
     7
370
    15
100
AcDbSpline
210
0.0
220
0.0
230
1.0
 70
     8
 71
     3
 72
     8
 73
     4
 74
     0
 42
0.00000001
 43
0.00000001
 40
0.0
 40
0.0
 40
0.0
 40
0.0
 40
1.0
 40
1.0
 40
1.0
 40
1.0
 10
309.2888335416754
 20
153.0366807590956
 30
0.0
 10
307.9503622719526
 20
153.0327467777994
 30
0.0
 10
306.6922389015581
 20
153.0255745355384
 30
0.0
 10
305.5143222080087
 20
153.0155796299528
 30
0.0
  0
LINE
  5
309
330
1F
100
AcDbEntity
  8
0
  6
Continuous
 62
     7
370
    15
100
AcDbLine
 10
310.5051635675
 20
127.4531352939
 30
0.0
 11
309.3890218906
 21
127.4962778809
 31
0.0
  0
SPLINE
  5
30A
330
1F
100
AcDbEntity
  8
0
  6
Continuous
 62
     7
370
    15
100
AcDbSpline
210
0.0
220
0.0
230
1.0
 70
     8
 71
     3
 72
     8
 73
     4
 74
     0
 42
0.00000001
 43
0.00000001
 40
0.0
 40
0.0
 40
0.0
 40
0.0
 40
1.0
 40
1.0
 40
1.0
 40
1.0
 10
305.5118827666296
 20
161.4835572612189
 30
0.0
 10
306.6898960775574
 20
161.4735175568535
 30
0.0
 10
307.9481305219562
 20
161.4662885629056
 30
0.0
 10
309.2867280302401
 20
161.4622941271483
 30
0.0
  0
LINE
  5
30B
330
1F
100
AcDbEntity
  8
0
  6
Continuous
 62
     7
370
    15
100
AcDbLine
 10
361.7396770887
 20
194.1750999214
 30
0.0
 11
361.7396770887
 21
194.2191030504
 31
0.0
  0
ARC
  5
30C
330
1F
100
AcDbEntity
  8
0
  6
Continuous
 62
     7
370
    15
100
AcDbCircle
 10
378.4823682176
 20
185.486064333
 30
0.0
 40
12.26627287341731
100
AcDbArc
 50
98.2887653539
 51
102.3603178565
  0
ARC
  5
30D
330
1F
100
AcDbEntity
  8
0
  6
Continuous
 62
     7
370
    15
100
AcDbCircle
 10
378.2774477176
 20
157.2494934918
 30
0.0
 40
40.29130931906688
100
AcDbArc
 50
93.4445214436
 51
96.6134089937
  0
LINE
  5
30E
330
1F
100
AcDbEntity
  8
0
  6
Continuous
 62
     7
370
    15
100
AcDbLine
 10
375.0730100464
 20
197.5271943631
 30
0.0
 11
375.0730100464
 21
197.6225245418
 31
0.0
  0
ARC
  5
30F
330
1F
100
AcDbEntity
  8
0
  6
Continuous
 62
     7
370
    15
100
AcDbCircle
 10
378.2774477176
 20
157.2494934918
 30
0.0
 40
40.40496922433474
100
AcDbArc
 50
92.2175311287
 51
94.5487911692
  0
SPLINE
  5
310
330
1F
100
AcDbEntity
  8
0
  6
Continuous
 62
     7
370
    15
100
AcDbSpline
210
0.0
220
0.0
230
1.0
 70
     8
 71
     3
 72
     8
 73
     4
 74
     0
 42
0.00000001
 43
0.00000001
 40
0.0
 40
0.0
 40
0.0
 40
0.0
 40
1.0
 40
1.0
 40
1.0
 40
1.0
 10
381.0217280183463
 20
197.5824990593895
 30
0.0
 10
381.7759143286313
 20
197.5317690442272
 30
0.0
 10
382.5281033114204
 20
197.4602055847123
 30
0.0
 10
383.2781382747566
 20
197.366174280293
 30
0.0
  0
LINE
  5
311
330
1F
100
AcDbEntity
  8
0
  6
Continuous
 62
     7
370
    15
100
AcDbLine
 10
401.4319839798
 20
194.7227362217
 30
0.0
 11
401.4319839798
 21
194.7610173048
 31
0.0
  0
SPLINE
  5
312
330
1F
100
AcDbEntity
  8
0
  6
Continuous
 62
     7
370
    15
100
AcDbSpline
210
0.0
220
0.0
230
1.0
 70
    24
 71
     3
 72
     8
 73
     4
 74
     0
 42
0.00000001
 43
0.00000001
 40
0.0
 40
0.0
 40
0.0
 40
0.0
 40
1.0
 40
1.0
 40
1.0
 40
1.0
 10
407.1755741721925
 20
193.9157622436685
 30
0.0
 10
407.1755741721925
 20
193.8991806636774
 30
0.0
 10
407.1755741721925
 20
193.8732469865914
 30
0.0
 10
407.1755741721925
 20
193.8377966813612
 30
0.0
  0
SPLINE
  5
313
330
1F
100
AcDbEntity
  8
0
  6
Continuous
 62
     7
370
    15
100
AcDbSpline
210
0.0
220
0.0
230
1.0
 70
     8
 71
     3
 72
     8
 73
     4
 74
     0
 42
0.00000001
 43
0.00000001
 40
0.0
 40
0.0
 40
0.0
 40
0.0
 40
1.0
 40
1.0
 40
1.0
 40
1.0
 10
309.2867280302401
 20
161.4622941271483
 30
0.0
 10
316.9269586535227
 20
161.5061914303879
 30
0.0
 10
324.5741897026604
 20
161.5561801749501
 30
0.0
 10
332.220440479975
 20
161.6036196960753
 30
0.0
  0
LWPOLYLINE
  5
314
330
1F
100
AcDbEntity
  8
0
  6
Continuous
 62
     7
370
    15
100
AcDbPolyline
 90
        9
 70
   128
 43
0.0
 10
333.2251503043
 20
159.2494935868
 10
333.0360173158
 20
159.2940361844
 10
332.8536196522
 20
159.4260774693
 10
332.6844653956
 20
159.6409117011
 10
332.5345746152
 20
159.9308834085
 10
332.4092931024
 20
160.2856602659
 10
332.3130837552
 20
160.6925993366
 10
332.2493775658
 20
161.1372001609
 10
332.2204395108
 20
161.6036197776
  0
LWPOLYLINE
  5
315
330
1F
100
AcDbEntity
  8
0
  6
Continuous
 62
     7
370
    15
100
AcDbPolyline
 90
        9
 70
   128
 43
0.0
 10
332.2204395108
 20
152.8953672061
 10
332.2493775658
 20
153.3617868228
 10
332.3130837552
 20
153.8063876471
 10
332.4092931024
 20
154.2133267177
 10
332.5345746152
 20
154.5681035752
 10
332.6844653956
 20
154.8580752825
 10
332.8536196522
 20
155.0729095144
 10
333.0360173158
 20
155.2049507992
 10
333.2251503043
 20
155.2494933968
  0
SPLINE
  5
316
330
1F
100
AcDbEntity
  8
0
  6
Continuous
 62
     7
370
    15
100
AcDbSpline
210
0.0
220
0.0
230
1.0
 70
     8
 71
     3
 72
    28
 73
    24
 74
     0
 42
0.00000001
 43
0.00000001
 40
0.0
 40
0.0
 40
0.0
 40
0.0
 40
0.1250000000000002
 40
0.1250000000000002
 40
0.2500000000000004
 40
0.2500000000000004
 40
0.5000000000000006
 40
0.5000000000000006
 40
0.6250000000000007
 40
0.6250000000000007
 40
0.7500000000000007
 40
0.7500000000000007
 40
0.8750000000000008
 40
0.8750000000000008
 40
0.9375000000000008
 40
0.9375000000000008
 40
0.9687500000000007
 40
0.9843750000000001
 40
0.9921875
 40
0.9960937499999999
 40
0.998046875
 40
0.998046875
 40
1.0
 40
1.0
 40
1.0
 40
1.0
 10
332.2204404799769
 20
161.6036196960768
 30
0.0
 10
332.3432609177485
 20
162.500381376514
 30
0.0
 10
332.5043174622861
 20
163.3902796192777
 30
0.0
 10
332.893722751476
 20
165.1277227400026
 30
0.0
 10
333.1221257599215
 20
165.9773921242849
 30
0.0
 10
333.9022313652306
 20
168.4751739689746
 30
0.0
 10
334.5483324219809
 20
170.072909885219
 30
0.0
 10
335.690699105816
 20
172.3861560706335
 30
0.0
 10
336.0964309699607
 20
173.1355967259167
 30
0.0
 10
336.9541127723507
 20
174.5978733905395
 30
0.0
 10
337.404780110917
 20
175.3117917301223
 30
0.0
 10
338.3572030948789
 20
176.7022493561898
 30
0.0
 10
338.8535884187029
 20
177.3825689257889
 30
0.0
 10
339.6243487728237
 20
178.3873058712275
 30
0.0
 10
339.8854531013258
 20
178.7197276139838
 30
0.0
 10
340.2832286072607
 20
179.2152054066135
 30
0.0
 10
340.4837334161661
 20
179.462090413899
 30
0.0
 10
340.72041569486
 20
179.7487569169981
 30
0.0
 10
340.8394396148493
 20
179.8917630790957
 30
0.0
 10
340.8991214246777
 20
179.963186127668
 30
0.0
 10
340.9247356538903
 20
179.9937790369511
 30
0.0
 10
340.9418198665273
 20
180.0141705587918
 30
0.0
 10
340.9488513571036
 20
180.0254935232749
 30
0.0
 10
340.9589160956383
 20
180.0345563820617
 30
0.0
  0
LINE
  5
317
330
1F
100
AcDbEntity
  8
0
  6
Continuous
 62
     7
370
    15
100
AcDbLine
 10
332.2204395108
 20
157.2994934906
 30
0.0
 11
332.2204395108
 21
157.1994934931
 31
0.0
  0
SPLINE
  5
318
330
1F
100
AcDbEntity
  8
0
  6
Continuous
 62
     7
370
    15
100
AcDbSpline
210
0.0
220
0.0
230
1.0
 70
     8
 71
     3
 72
    20
 73
    16
 74
     0
 42
0.00000001
 43
0.00000001
 40
0.0
 40
0.0
 40
0.0
 40
0.0
 40
0.1250000000000004
 40
0.1250000000000004
 40
0.2500000000000007
 40
0.2500000000000007
 40
0.3750000000000011
 40
0.3750000000000011
 40
0.5000000000000014
 40
0.5000000000000014
 40
0.6250000000000018
 40
0.6250000000000018
 40
0.7500000000000022
 40
0.7500000000000022
 40
1.0
 40
1.0
 40
1.0
 40
1.0
 10
367.8614963531065
 20
118.1815563173645
 30
0.0
 10
367.8592129593802
 20
118.1867538447067
 30
0.0
 10
367.8535676001828
 20
118.1930285542016
 30
0.0
 10
367.8141726472958
 20
118.2131221564819
 30
0.0
 10
367.7838252682603
 20
118.2261697483847
 30
0.0
 10
367.7011404636668
 20
118.2573663339714
 30
0.0
 10
367.6491748328032
 20
118.2756130343035
 30
0.0
 10
367.5335349802295
 20
118.3143354994941
 30
0.0
 10
367.4674635867449
 20
118.3354439084448
 30
0.0
 10
367.3309449724636
 20
118.3780398206662
 30
0.0
 10
367.25809301269
 20
118.3999304082303
 30
0.0
 10
367.1120202778368
 20
118.4435937229899
 30
0.0
 10
367.0386627212266
 20
118.4654010241157
 30
0.0
 10
366.8183011696273
 20
118.5311588327618
 30
0.0
 10
366.6707386152601
 20
118.5752804151668
 30
0.0
 10
366.5233553274655
 20
118.6202020937019
 30
0.0
  0
LINE
  5
319
330
1F
100
AcDbEntity
  8
0
  6
Continuous
 62
     7
370
    15
100
AcDbLine
 10
446.2318464093
 20
126.3779513212
 30
0.0
 11
446.2431861929
 21
126.3835616084
 31
0.0
  0
ARC
  5
31A
330
1F
100
AcDbEntity
  8
0
  6
Continuous
 62
     7
370
    15
100
AcDbCircle
 10
364.0274477176
 20
196.7494934918
 30
0.0
 40
0.5
100
AcDbArc
 50
90.0
 51
180.0000000028
  0
LINE
  5
31B
330
1F
100
AcDbEntity
  8
0
  6
Continuous
 62
     7
370
    15
100
AcDbLine
 10
364.0274477102
 20
196.7494953098
 30
0.0
 11
364.0274477102
 21
197.2494925978
 31
0.0
  0
LINE
  5
31C
330
1F
100
AcDbEntity
  8
0
  6
Continuous
 62
     7
370
    15
100
AcDbLine
 10
363.5274476282
 20
196.7494953098
 30
0.0
 11
364.0274477102
 21
196.7494953098
 31
0.0
  0
LINE
  5
31D
330
1F
100
AcDbEntity
  8
0
  6
Continuous
 62
     7
370
    15
100
AcDbLine
 10
364.0274477102
 20
197.2494925978
 30
0.0
 11
373.6371125005
 21
197.2494925978
 31
0.0
  0
LINE
  5
31E
330
1F
100
AcDbEntity
  8
0
  6
Continuous
 62
     7
370
    15
100
AcDbLine
 10
376.7140356967
 20
197.2494925978
 30
0.0
 11
381.0217279851
 21
197.2494925978
 31
0.0
  0
LINE
  5
31F
330
1F
100
AcDbEntity
  8
0
  6
Continuous
 62
     7
370
    15
100
AcDbLine
 10
384.6399245694
 20
197.2494925978
 30
0.0
 11
392.5274477251
 21
197.2494925978
 31
0.0
  0
LINE
  5
320
330
1F
100
AcDbEntity
  8
0
  6
Continuous
 62
     7
370
    15
100
AcDbLine
 10
392.5274477251
 20
196.7494953098
 30
0.0
 11
392.5274477251
 21
197.2494925978
 31
0.0
  0
ARC
  5
321
330
1F
100
AcDbEntity
  8
0
  6
Continuous
 62
     7
370
    15
100
AcDbCircle
 10
392.5274477176
 20
196.7494934918
 30
0.0
 40
0.5000000000245564
100
AcDbArc
 50
0.0
 51
90.0
  0
LINE
  5
322
330
1F
100
AcDbEntity
  8
0
  6
Continuous
 62
     7
370
    15
100
AcDbLine
 10
392.5274477251
 20
196.7494953098
 30
0.0
 11
393.027447807
 21
196.7494953098
 31
0.0
  0
LINE
  5
323
330
1F
100
AcDbEntity
  8
0
  6
Continuous
 62
     7
370
    15
100
AcDbLine
 10
393.027447807
 20
196.7494953098
 30
0.0
 11
393.027447807
 21
196.0208583297
 31
0.0
  0
LINE
  5
324
330
1F
100
AcDbEntity
  8
0
  6
Continuous
 62
     7
370
    15
100
AcDbLine
 10
363.5274476282
 20
194.9680242362
 30
0.0
 11
363.5274476282
 21
196.7494953098
 31
0.0
  0
SPLINE
  5
325
330
1F
100
AcDbEntity
  8
0
  6
Continuous
 62
     7
370
    15
100
AcDbSpline
210
0.0
220
0.0
230
1.0
 70
     8
 71
     3
 72
     9
 73
     5
 74
     0
 42
0.00000001
 43
0.00000001
 40
0.0
 40
0.0
 40
0.0
 40
0.0
 40
0.3585687539523983
 40
1.0
 40
1.0
 40
1.0
 40
1.0
 10
372.2536817103364
 20
197.2494925977708
 30
0.0
 10
372.4179436228418
 20
197.2755562501756
 30
0.0
 10
372.8760479910973
 20
197.3482442691889
 30
0.0
 10
373.3397070759526
 20
197.3688007216253
 30
0.0
 10
373.6371125004925
 20
197.3819862725259
 30
0.0
  0
LINE
  5
326
330
1F
100
AcDbEntity
  8
0
  6
Continuous
 62
     7
370
    15
100
AcDbLine
 10
375.0863503109
 20
197.4813323142
 30
0.0
 11
378.2774477176
 21
197.7000813605
 31
0.0
  0
LINE
  5
327
330
1F
100
AcDbEntity
  8
0
  6
Continuous
 62
     7
370
    15
100
AcDbLine
 10
377.2217196556
 20
197.6863536658
 30
0.0
 11
377.4447598871
 21
197.6700741472
 31
0.0
  0
SPLINE
  5
328
330
1F
100
AcDbEntity
  8
0
  6
Continuous
 62
     7
370
    15
100
AcDbSpline
210
0.0
220
0.0
230
1.0
 70
     8
 71
     3
 72
     8
 73
     4
 74
     0
 42
0.00000001
 43
0.00000001
 40
0.0
 40
0.0
 40
0.0
 40
0.0
 40
1.0
 40
1.0
 40
1.0
 40
1.0
 10
378.2774477176108
 20
197.7000899179769
 30
0.0
 10
377.9254787817609
 20
197.7000899179769
 30
0.0
 10
377.5735697697492
 20
197.6954842559892
 30
0.0
 10
377.2217196276099
 20
197.6863539383453
 30
0.0
  0
ARC
  5
329
330
1F
100
AcDbEntity
  8
0
  6
Continuous
 62
     7
370
    15
100
AcDbCircle
 10
378.2774477176
 20
157.2494934918
 30
0.0
 40
40.45058714036144
100
AcDbArc
 50
83.9538775948
 51
90.0
  0
SPLINE
  5
32A
330
1F
100
AcDbEntity
  8
0
  6
Continuous
 62
     7
370
    15
100
AcDbSpline
210
0.0
220
0.0
230
1.0
 70
     8
 71
     3
 72
     8
 73
     4
 74
     0
 42
0.00000001
 43
0.00000001
 40
0.0
 40
0.0
 40
0.0
 40
0.0
 40
1.0
 40
1.0
 40
1.0
 40
1.0
 10
378.2774477176108
 20
116.7988970657045
 30
0.0
 10
377.9254787817609
 20
116.7988970657045
 30
0.0
 10
377.5735697697492
 20
116.803502727692
 30
0.0
 10
377.2217196276098
 20
116.8126330453359
 30
0.0
  0
LINE
  5
32B
330
1F
100
AcDbEntity
  8
0
  6
Continuous
 62
     7
370
    15
100
AcDbLine
 10
377.2217196556
 20
116.8126333179
 30
0.0
 11
377.4457019198
 21
116.8289798917
 31
0.0
  0
ARC
  5
32C
330
1F
100
AcDbEntity
  8
0
  6
Continuous
 62
     7
370
    15
100
AcDbCircle
 10
378.2774477176
 20
157.2494934918
 30
0.0
 40
65.00000000000003
100
AcDbArc
 50
29.1353270745
 51
149.7898109194
  0
ARC
  5
32D
330
1F
100
AcDbEntity
  8
0
  6
Continuous
 62
     7
370
    15
100
AcDbCircle
 10
378.2774477176
 20
157.2494934918
 30
0.0
 40
64.99999999999999
100
AcDbArc
 50
210.1275336627
 51
330.8664921035
  0
SPLINE
  5
32E
330
1F
100
AcDbEntity
  8
0
  6
Continuous
 62
     8
370
    15
100
AcDbSpline
210
0.0
220
0.0
230
1.0
 70
     8
 71
     3
 72
    14
 73
    10
 74
     0
 42
0.00000001
 43
0.00000001
 40
0.0
 40
0.0
 40
0.0
 40
0.0
 40
0.2499999999999999
 40
0.2499999999999999
 40
0.4999999999999999
 40
0.4999999999999999
 40
0.7499999999999999
 40
0.7499999999999999
 40
1.0
 40
1.0
 40
1.0
 40
1.0
 10
400.6254136862759
 20
165.8241803725126
 30
0.0
 10
400.2079660632662
 20
165.6623142445316
 30
0.0
 10
399.7660523124213
 20
165.4919450491486
 30
0.0
 10
398.8844755740828
 20
165.1545464991279
 30
0.0
 10
398.4455404461189
 20
164.9878104787209
 30
0.0
 10
397.6394965676322
 20
164.6845928574827
 30
0.0
 10
397.2735062795351
 20
164.5485414614116
 30
0.0
 10
396.6713508350393
 20
164.32837013466
 30
0.0
 10
396.4356979439664
 20
164.2444308134777
 30
0.0
 10
396.2740294238527
 20
164.1893665038392
 30
0.0
  0
SPLINE
  5
32F
330
1F
100
AcDbEntity
  8
0
  6
Continuous
 62
     8
370
    15
100
AcDbSpline
210
0.0
220
0.0
230
1.0
 70
     8
 71
     3
 72
    14
 73
    10
 74
     0
 42
0.00000001
 43
0.00000001
 40
0.0
 40
0.0
 40
0.0
 40
0.0
 40
0.2500000000000001
 40
0.2500000000000001
 40
0.5000000000000001
 40
0.5000000000000001
 40
0.75
 40
0.75
 40
1.0
 40
1.0
 40
1.0
 40
1.0
 10
400.6254136862757
 20
148.6748066111675
 30
0.0
 10
400.2079660632604
 20
148.8366727391506
 30
0.0
 10
399.7660523124093
 20
149.0070419345361
 30
0.0
 10
398.8844755740591
 20
149.3444404845611
 30
0.0
 10
398.4455404460898
 20
149.5111765049701
 30
0.0
 10
397.6394965675963
 20
149.8143941262107
 30
0.0
 10
397.2735062794977
 20
149.9504455222822
 30
0.0
 10
396.671350835004
 20
150.1706168490327
 30
0.0
 10
396.4356979439347
 20
150.2545561702134
 30
0.0
 10
396.2740294238265
 20
150.3096204798498
 30
0.0
  0
SPLINE
  5
330
330
1F
100
AcDbEntity
  8
0
  6
Continuous
 62
     8
370
    15
100
AcDbSpline
210
0.0
220
0.0
230
1.0
 70
     8
 71
     3
 72
    12
 73
     8
 74
     0
 42
0.00000001
 43
0.00000001
 40
0.0
 40
0.0
 40
0.0
 40
0.0
 40
0.1417305039597419
 40
0.3208818271991473
 40
0.5000326645442916
 40
0.6753111738090785
 40
1.0
 40
1.0
 40
1.0
 40
1.0
 10
360.1923647246994
 20
164.2537330882669
 30
0.0
 10
360.0870512202494
 20
164.294520452735
 30
0.0
 10
359.848618499046
 20
164.3868641872982
 30
0.0
 10
359.2662485341317
 20
164.612412856411
 30
0.0
 10
358.5171564704455
 20
164.9025307678153
 30
0.0
 10
357.4146557320627
 20
165.329521865124
 30
0.0
 10
356.4966249228443
 20
165.6850697750765
 30
0.0
 10
355.9004372827448
 20
165.9159697266341
 30
0.0
  0
SPLINE
  5
331
330
1F
100
AcDbEntity
  8
0
  6
Continuous
 62
     8
370
    15
100
AcDbSpline
210
0.0
220
0.0
230
1.0
 70
     8
 71
     3
 72
    12
 73
     8
 74
     0
 42
0.00000001
 43
0.00000001
 40
0.0
 40
0.0
 40
0.0
 40
0.0
 40
0.1417158066935291
 40
0.3208701977743317
 40
0.5000241029525528
 40
0.6753056137395002
 40
1.0
 40
1.0
 40
1.0
 40
1.0
 10
360.192321883861
 20
150.2452375972689
 30
0.0
 10
360.0870211589608
 20
150.2044550609124
 30
0.0
 10
359.8486012874389
 20
150.1121160282258
 30
0.0
 10
359.2662477319724
 20
149.8865738466035
 30
0.0
 10
358.5171566750549
 20
149.5964562874561
 30
0.0
 10
357.4146556287624
 20
149.1694650824133
 30
0.0
 10
356.4966248821723
 20
148.8139171943737
 30
0.0
 10
355.9004372827448
 20
148.5830172570468
 30
0.0
  0
SPLINE
  5
332
330
1F
100
AcDbEntity
  8
0
  6
Continuous
 62
     8
370
    15
100
AcDbSpline
210
0.0
220
0.0
230
1.0
 70
     8
 71
     3
 72
    11
 73
     7
 74
     0
 42
0.00000001
 43
0.00000001
 40
0.0
 40
0.0
 40
0.0
 40
0.0
 40
0.0428609442664759
 40
0.389179489948745
 40
0.7103720856931957
 40
1.0
 40
1.0
 40
1.0
 40
1.0
 10
365.6348238609471
 20
177.2151514561892
 30
0.0
 10
365.6187614639275
 20
177.2213727371976
 30
0.0
 10
365.4729141060023
 20
177.2778622758925
 30
0.0
 10
365.0851266897244
 20
177.428044671825
 30
0.0
 10
364.5374747342638
 20
177.6401504347523
 30
0.0
 10
364.1600321462374
 20
177.7863297797734
 30
0.0
 10
363.9810631893315
 20
177.8556424798489
 30
0.0
  0
SPLINE
  5
333
330
1F
100
AcDbEntity
  8
0
  6
Continuous
 62
     8
370
    15
100
AcDbSpline
210
0.0
220
0.0
230
1.0
 70
     8
 71
     3
 72
    11
 73
     7
 74
     0
 42
0.00000001
 43
0.00000001
 40
0.0
 40
0.0
 40
0.0
 40
0.0
 40
0.0428609442664759
 40
0.389179489948745
 40
0.7103720856931957
 40
1.0
 40
1.0
 40
1.0
 40
1.0
 10
365.6348238609471
 20
137.2838355274916
 30
0.0
 10
365.6187614639275
 20
137.2776142464834
 30
0.0
 10
365.4729141060023
 20
137.2211247077885
 30
0.0
 10
365.0851266897244
 20
137.070942311856
 30
0.0
 10
364.5374747342638
 20
136.8588365489287
 30
0.0
 10
364.1600321462374
 20
136.7126572039076
 30
0.0
 10
363.9810631893315
 20
136.6433445038319
 30
0.0
  0
SPLINE
  5
334
330
1F
100
AcDbEntity
  8
0
  6
Continuous
 62
     8
370
    15
100
AcDbSpline
210
0.0
220
0.0
230
1.0
 70
     8
 71
     3
 72
     9
 73
     5
 74
     0
 42
0.00000001
 43
0.00000001
 40
0.0
 40
0.0
 40
0.0
 40
0.0
 40
0.7536491589599921
 40
1.0
 40
1.0
 40
1.0
 40
1.0
 10
388.4947306386866
 20
185.4014712991238
 30
0.0
 10
388.3318060369672
 20
185.3075394239792
 30
0.0
 10
388.1156250729438
 20
185.1829033462659
 30
0.0
 10
387.9231275866867
 20
185.0969405801297
 30
0.0
 10
387.8757056690492
 20
185.0757635803939
 30
0.0
  0
SPLINE
  5
335
330
1F
100
AcDbEntity
  8
0
  6
Continuous
 62
     8
370
    15
100
AcDbSpline
210
0.0
220
0.0
230
1.0
 70
     8
 71
     3
 72
     9
 73
     5
 74
     0
 42
0.00000001
 43
0.00000001
 40
0.0
 40
0.0
 40
0.0
 40
0.0
 40
0.7536491589599921
 40
1.0
 40
1.0
 40
1.0
 40
1.0
 10
388.4947306386866
 20
129.097515684557
 30
0.0
 10
388.3318060369672
 20
129.1914475597017
 30
0.0
 10
388.1156250729438
 20
129.3160836374149
 30
0.0
 10
387.9231275866867
 20
129.4020464035513
 30
0.0
 10
387.8757056690492
 20
129.423223403287
 30
0.0
  0
LINE
  5
336
330
1F
100
AcDbEntity
  8
0
  6
Continuous
 62
     8
370
    15
100
AcDbLine
 10
368.6814640559
 20
129.4173523458
 30
0.0
 11
368.353345143
 21
129.2398459883
 31
0.0
  0
LINE
  5
337
330
1F
100
AcDbEntity
  8
0
  6
Continuous
 62
     8
370
    15
100
AcDbLine
 10
368.353345143
 20
185.2591409953
 30
0.0
 11
368.6814640559
 21
185.0816346379
 31
0.0
  0
LINE
  5
338
330
1F
100
AcDbEntity
  8
0
  6
Continuous
 62
     8
370
    15
100
AcDbLine
 10
388.4947306387
 20
129.0975156846
 30
0.0
 11
387.1393573381
 21
127.8676464828
 31
0.0
  0
LINE
  5
339
330
1F
100
AcDbEntity
  8
0
  6
Continuous
 62
     8
370
    15
100
AcDbLine
 10
387.0840516783
 20
186.681138319
 30
0.0
 11
388.4947306387
 21
185.4014712991
 31
0.0
  0
LINE
  5
33A
330
1F
100
AcDbEntity
  8
0
  6
Continuous
 62
     8
370
    15
100
AcDbLine
 10
368.353345143
 20
185.2591409953
 30
0.0
 11
369.0403696991
 21
185.9426684352
 31
0.0
  0
LINE
  5
33B
330
1F
100
AcDbEntity
  8
0
  6
Continuous
 62
     8
370
    15
100
AcDbLine
 10
369.0522207789
 20
128.5445261421
 30
0.0
 11
368.353345143
 21
129.2398459883
 31
0.0
  0
SPLINE
  5
33C
330
1F
100
AcDbEntity
  8
0
  6
Continuous
 62
     8
370
    15
100
AcDbSpline
210
0.0
220
0.0
230
1.0
 70
    24
 71
     3
 72
     9
 73
     5
 74
     0
 42
0.00000001
 43
0.00000001
 40
0.0
 40
0.0
 40
0.0
 40
0.0
 40
0.4840382514991415
 40
1.0
 40
1.0
 40
1.0
 40
1.0
 10
378.277447717611
 20
192.1358015062333
 30
0.0
 10
378.277447717611
 20
192.4836166177593
 30
0.0
 10
378.277447717611
 20
193.2021860912436
 30
0.0
 10
378.277447717611
 20
193.6891586141134
 30
0.0
 10
378.277447717611
 20
193.9404178084851
 30
0.0
  0
SPLINE
  5
33D
330
1F
100
AcDbEntity
  8
0
  6
Continuous
 62
     8
370
    15
100
AcDbSpline
210
0.0
220
0.0
230
1.0
 70
    24
 71
     3
 72
     9
 73
     5
 74
     0
 42
0.00000001
 43
0.00000001
 40
0.0
 40
0.0
 40
0.0
 40
0.0
 40
0.4840382514991415
 40
1.0
 40
1.0
 40
1.0
 40
1.0
 10
378.2774477176109
 20
122.3631854774476
 30
0.0
 10
378.2774477176109
 20
122.0153703659216
 30
0.0
 10
378.2774477176109
 20
121.2968008924373
 30
0.0
 10
378.2774477176109
 20
120.8098283695676
 30
0.0
 10
378.2774477176109
 20
120.5585691751958
 30
0.0
  0
SPLINE
  5
33E
330
1F
100
AcDbEntity
  8
0
  6
Continuous
 62
     8
370
    15
100
AcDbSpline
210
0.0
220
0.0
230
1.0
 70
    24
 71
     3
 72
    10
 73
     6
 74
     0
 42
0.00000001
 43
0.00000001
 40
0.0
 40
0.0
 40
0.0
 40
0.0
 40
0.5
 40
0.5
 40
1.0
 40
1.0
 40
1.0
 40
1.0
 10
378.2774477176108
 20
120.5585690431025
 30
0.0
 10
378.2774477176108
 20
119.6228269152751
 30
0.0
 10
378.2774477176108
 20
118.9223194921316
 30
0.0
 10
378.2774477176108
 20
117.9858192630638
 30
0.0
 10
378.2774477176112
 20
117.7494934635942
 30
0.0
 10
378.2774477176109
 20
117.7494934918445
 30
0.0
  0
LINE
  5
33F
330
1F
100
AcDbEntity
  8
0
  6
Continuous
 62
     8
370
    15
100
AcDbLine
 10
339.0048227183
 20
161.4816365438
 30
0.0
 11
341.8314202599
 21
161.4816365438
 31
0.0
  0
LINE
  5
340
330
1F
100
AcDbEntity
  8
0
  6
Continuous
 62
     8
370
    15
100
AcDbLine
 10
341.8314202599
 20
153.0173504399
 30
0.0
 11
339.0048227183
 21
153.0173504399
 31
0.0
  0
LWPOLYLINE
  5
341
330
1F
100
AcDbEntity
  8
0
  6
Continuous
 62
     8
370
    15
100
AcDbPolyline
 90
        8
 70
   128
 43
0.0
 10
351.2034497134
 20
128.5503208311
 10
349.5370398186
 20
129.135506195
 10
347.8717810385
 20
129.8278811993
 10
345.4874685876
 20
131.1424001725
 10
343.2050465516
 20
132.665490699
 10
340.958957272
 20
134.4643942686
 10
340.9589162938
 20
134.4644315215
 10
340.9589162938
 20
134.4644315215
  0
SPLINE
  5
342
330
1F
100
AcDbEntity
  8
0
  6
Continuous
 62
     8
370
    15
100
AcDbSpline
210
0.0
220
0.0
230
1.0
 70
     8
 71
     3
 72
    14
 73
    10
 74
     0
 42
0.00000001
 43
0.00000001
 40
0.0
 40
0.0
 40
0.0
 40
0.0
 40
0.000004552572062
 40
0.2272348792613218
 40
0.4532100559877678
 40
0.679268652423915
 40
0.834993969544596
 40
0.9919203980735865
 40
1.0
 40
1.0
 40
1.0
 40
1.0
 10
340.9589162938036
 20
180.0345554621936
 30
0.0
 10
340.9589299531964
 20
180.0345678798351
 30
0.0
 10
341.6407182777531
 20
180.6543760294831
 30
0.0
 10
343.0741529318765
 20
181.7837306047761
 30
0.0
 10
345.3206409408655
 20
183.2740234110769
 30
0.0
 10
347.3651474427896
 20
184.4644874801465
 30
0.0
 10
349.3536340444778
 20
185.3344697681455
 30
0.0
 10
350.6425783682312
 20
185.7224522755064
 30
0.0
 10
351.2950432498135
 20
185.9819751356991
 30
0.0
 10
351.3269915155806
 20
185.9946828009606
 30
0.0
  0
LINE
  5
343
330
1F
100
AcDbEntity
  8
0
  6
Continuous
 62
     8
370
    15
100
AcDbLine
 10
392.5274477251
 20
196.7494953098
 30
0.0
 11
387.9960865624
 21
196.7494953098
 31
0.0
  0
LINE
  5
344
330
1F
100
AcDbEntity
  8
0
  6
Continuous
 62
     8
370
    15
100
AcDbLine
 10
386.5601892493
 20
196.7494953098
 30
0.0
 11
384.7140354946
 21
196.7494953098
 31
0.0
  0
LINE
  5
345
330
1F
100
AcDbEntity
  8
0
  6
Continuous
 62
     8
370
    15
100
AcDbLine
 10
381.0217279851
 20
196.7494953098
 30
0.0
 11
376.7140356967
 21
196.7494953098
 31
0.0
  0
LINE
  5
346
330
1F
100
AcDbEntity
  8
0
  6
Continuous
 62
     8
370
    15
100
AcDbLine
 10
373.6371125005
 20
196.7494953098
 30
0.0
 11
371.1755743161
 21
196.7494953098
 31
0.0
  0
LINE
  5
347
330
1F
100
AcDbEntity
  8
0
  6
Continuous
 62
     8
370
    15
100
AcDbLine
 10
369.5106987752
 20
196.7494953098
 30
0.0
 11
364.0274477102
 21
196.7494953098
 31
0.0
  0
LINE
  5
348
330
1F
100
AcDbEntity
  8
0
  6
Continuous
 62
     8
370
    15
100
AcDbLine
 10
392.5274477251
 20
196.0945669236
 30
0.0
 11
392.5274477251
 21
196.7494953098
 31
0.0
  0
LINE
  5
349
330
1F
100
AcDbEntity
  8
0
  6
Continuous
 62
     8
370
    15
100
AcDbLine
 10
364.0274477102
 20
196.7494953098
 30
0.0
 11
364.0274477102
 21
195.1597500267
 31
0.0
  0
SPLINE
  5
34A
330
1F
100
AcDbEntity
  8
0
  6
Continuous
 62
     8
370
    15
100
AcDbSpline
210
0.0
220
0.0
230
1.0
 70
    24
 71
     3
 72
     9
 73
     5
 74
     0
 42
0.00000001
 43
0.00000001
 40
0.0
 40
0.0
 40
0.0
 40
0.0
 40
0.599109616279432
 40
1.0
 40
1.0
 40
1.0
 40
1.0
 10
378.2774477176105
 20
197.700081360531
 30
0.0
 10
378.2774477176105
 20
197.7198252826435
 30
0.0
 10
378.2774477176105
 20
197.7527807244793
 30
0.0
 10
378.2774477176105
 20
197.736292491349
 30
0.0
 10
378.2774477176105
 20
197.7296825172425
 30
0.0
  0
SPLINE
  5
34B
330
1F
100
AcDbEntity
  8
0
  6
Continuous
 62
     8
370
    15
100
AcDbSpline
210
0.0
220
0.0
230
1.0
 70
    24
 71
     3
 72
     9
 73
     5
 74
     0
 42
0.00000001
 43
0.00000001
 40
0.0
 40
0.0
 40
0.0
 40
0.0
 40
0.5995799106595516
 40
1.0
 40
1.0
 40
1.0
 40
1.0
 10
378.2774477176108
 20
116.79890562315
 30
0.0
 10
378.2774477176108
 20
116.7791569227137
 30
0.0
 10
378.2774477176108
 20
116.7462193607888
 30
0.0
 10
378.2774477176108
 20
116.7626878148501
 30
0.0
 10
378.2774477176108
 20
116.7692821146966
 30
0.0
  0
LINE
  5
34C
330
1F
100
AcDbEntity
  8
1
100
AcDbLine
 10
369.5088621928
 20
196.7494934918
 30
0.0
 11
392.5274477176
 21
196.7494934918
 31
0.0
  0
LINE
  5
34D
330
1F
100
AcDbEntity
  8
1
100
AcDbLine
 10
363.5105100696
 20
194.9501840966
 30
0.0
 11
373.6371126337
 21
196.4759805931
 31
0.0
  0
LINE
  5
34E
330
1F
100
AcDbEntity
  8
1
100
AcDbLine
 10
392.5274477176
 20
196.0647326377
 30
0.0
 11
392.5274477176
 21
195.0849611942
 31
0.0
  0
LINE
  5
34F
330
1F
100
AcDbEntity
  8
1
100
AcDbLine
 10
393.0343231191
 20
195.990094744
 30
0.0
 11
393.0343231191
 21
195.0102451685
 31
0.0
  0
LINE
  5
350
330
1F
100
AcDbEntity
  8
1
100
AcDbLine
 10
402.8678818645
 20
193.3581135436
 30
0.0
 11
408.6114716081
 21
192.7161604978
 31
0.0
  0
LINE
  5
351
330
1F
100
AcDbEntity
  8
1
100
AcDbLine
 10
331.7314016163
 20
124.2456778239
 30
0.0
 11
352.8382407442
 21
121.0693990199
 31
0.0
  0
LINE
  5
352
330
1F
100
AcDbEntity
  8
1
100
AcDbLine
 10
404.6594353971
 20
121.2020814498
 30
0.0
 11
422.1403588215
 21
123.7708171751
 31
0.0
  0
LINE
  5
353
330
1F
100
AcDbEntity
  8
1
100
AcDbLine
 10
402.8678818645
 20
193.3581135436
 30
0.0
 11
425.8007375245
 21
190.1903651269
 31
0.0
  0
LINE
  5
354
330
1F
100
AcDbEntity
  8
1
100
AcDbLine
 10
354.7207830164
 20
193.7120803941
 30
0.0
 11
333.5327418823
 21
190.5986556868
 31
0.0
  0
ARC
  5
355
330
1F
100
AcDbEntity
  8
1
100
AcDbCircle
 10
307.5997937435
 20
212.3639345837
 30
0.0
 40
25.36924482701363
100
AcDbArc
 50
269.6345513257
 51
282.472947198
  0
ARC
  5
356
330
1F
100
AcDbEntity
  8
1
100
AcDbCircle
 10
460.2606705647
 20
299.7490219043
 30
0.0
 40
113.4327264140584
100
AcDbArc
 50
260.3556952878
 51
263.1439101475
  0
ARC
  5
357
330
1F
100
AcDbEntity
  8
1
100
AcDbCircle
 10
328.2806884893
 20
132.6444792202
 30
0.0
 40
56.72233069608249
100
AcDbArc
 50
94.2304255387
 51
102.5840303257
  0
ARC
  5
358
330
1F
100
AcDbEntity
  8
1
100
AcDbCircle
 10
448.4173400233
 20
97.3577447644
 30
0.0
 40
30.06624864804444
100
AcDbArc
 50
91.8417302986
 51
103.349841555
  0
ARC
  5
359
330
1F
100
AcDbEntity
  8
1
100
AcDbCircle
 10
331.7426297083
 20
197.3009482123
 30
0.0
 40
72.42649539140852
100
AcDbArc
 50
259.2008810608
 51
264.2428747411
  0
ARC
  5
35A
330
1F
100
AcDbEntity
  8
1
100
AcDbCircle
 10
379.7434096516
 20
163.8265609087
 30
0.0
 40
46.10038162671257
100
AcDbArc
 50
246.6917600139
 51
284.9083370262
  0
ARC
  5
35B
330
1F
100
AcDbEntity
  8
1
100
AcDbCircle
 10
342.9221086583
 20
192.6048325512
 30
0.0
 40
6.958877729767178
100
AcDbArc
 50
3.2492886513
 51
193.4694410041
  0
ARC
  5
35C
330
1F
100
AcDbEntity
  8
1
100
AcDbCircle
 10
413.6327867769
 20
192.6048325512
 30
0.0
 40
6.991429313667338
100
AcDbArc
 50
346.1684897732
 51
178.1023479996
  0
ARC
  5
35D
330
1F
100
AcDbEntity
  8
1
100
AcDbCircle
 10
413.6327867769
 20
121.8941544325
 30
0.0
 40
6.963351575381656
100
AcDbArc
 50
183.2524184077
 51
13.4665957138
  0
ARC
  5
35E
330
1F
100
AcDbEntity
  8
1
100
AcDbCircle
 10
342.9221086583
 20
121.8941544325
 30
0.0
 40
6.980981749211765
100
AcDbArc
 50
166.0166163568
 51
356.8674167845
  0
ENDSEC
  0
SECTION
  2
OBJECTS
  0
DICTIONARY
  5
C
330
0
100
AcDbDictionary
281
     1
  3
ACAD_GROUP
350
D
  3
ACAD_LAYOUT
350
1A
  3
ACAD_MLINESTYLE
350
17
  3
ACAD_PLOTSETTINGS
350
19
  3
ACAD_PLOTSTYLENAME
350
E
  0
DICTIONARY
  5
D
102
{ACAD_REACTORS
330
C
102
}
330
C
100
AcDbDictionary
281
     1
  0
DICTIONARY
  5
1A
102
{ACAD_REACTORS
330
C
102
}
330
C
100
AcDbDictionary
281
     1
  3
Layout1
350
1E
  3
Layout2
350
26
  3
Model
350
22
  0
DICTIONARY
  5
17
102
{ACAD_REACTORS
330
C
102
}
330
C
100
AcDbDictionary
281
     1
  3
Standard
350
18
  0
DICTIONARY
  5
19
102
{ACAD_REACTORS
330
C
102
}
330
C
100
AcDbDictionary
281
     1
  0
ACDBDICTIONARYWDFLT
  5
E
102
{ACAD_REACTORS
330
C
102
}
330
C
100
AcDbDictionary
281
     1
  3
Normal
350
F
100
AcDbDictionaryWithDefault
340
F
  0
LAYOUT
  5
1E
102
{ACAD_REACTORS
330
1A
102
}
330
1A
100
AcDbPlotSettings
  1

  2
none_device
  4

  6

 40
0.0
 41
0.0
 42
0.0
 43
0.0
 44
0.0
 45
0.0
 46
0.0
 47
0.0
 48
0.0
 49
0.0
140
0.0
141
0.0
142
1.0
143
1.0
 70
   688
 72
     0
 73
     0
 74
     5
  7

 75
    16
147
1.0
148
0.0
149
0.0
100
AcDbLayout
  1
Layout1
 70
     1
 71
     1
 10
0.0
 20
0.0
 11
420.0
 21
297.0
 12
0.0
 22
0.0
 32
0.0
 14
1.0000000000E+20
 24
1.0000000000E+20
 34
1.0000000000E+20
 15
-1.0000000000E+20
 25
-1.0000000000E+20
 35
-1.0000000000E+20
146
0.0
 13
0.0
 23
0.0
 33
0.0
 16
1.0
 26
0.0
 36
0.0
 17
0.0
 27
1.0
 37
0.0
 76
     0
330
1B
  0
LAYOUT
  5
26
102
{ACAD_REACTORS
330
1A
102
}
330
1A
100
AcDbPlotSettings
  1

  2
none_device
  4

  6

 40
0.0
 41
0.0
 42
0.0
 43
0.0
 44
0.0
 45
0.0
 46
0.0
 47
0.0
 48
0.0
 49
0.0
140
0.0
141
0.0
142
1.0
143
1.0
 70
   688
 72
     0
 73
     0
 74
     5
  7

 75
    16
147
1.0
148
0.0
149
0.0
100
AcDbLayout
  1
Layout2
 70
     1
 71
     2
 10
0.0
 20
0.0
 11
0.0
 21
0.0
 12
0.0
 22
0.0
 32
0.0
 14
0.0
 24
0.0
 34
0.0
 15
0.0
 25
0.0
 35
0.0
146
0.0
 13
0.0
 23
0.0
 33
0.0
 16
1.0
 26
0.0
 36
0.0
 17
0.0
 27
1.0
 37
0.0
 76
     0
330
23
  0
LAYOUT
  5
22
102
{ACAD_REACTORS
330
1A
102
}
330
1A
100
AcDbPlotSettings
  1

  2
none_device
  4

  6

 40
0.0
 41
0.0
 42
0.0
 43
0.0
 44
0.0
 45
0.0
 46
0.0
 47
0.0
 48
0.0
 49
0.0
140
0.0
141
0.0
142
1.0
143
1.0
 70
  1712
 72
     0
 73
     0
 74
     0
  7

 75
     0
147
1.0
148
0.0
149
0.0
100
AcDbLayout
  1
Model
 70
     1
 71
     0
 10
0.0
 20
0.0
 11
800.0
 21
800.0
 12
0.0
 22
0.0
 32
0.0
 14
0.0
 24
0.0
 34
0.0
 15
800.0
 25
800.0
 35
0.0
146
0.0
 13
0.0
 23
0.0
 33
0.0
 16
1.0
 26
0.0
 36
0.0
 17
0.0
 27
1.0
 37
0.0
 76
     0
330
1F
331
29
  0
MLINESTYLE
  5
18
102
{ACAD_REACTORS
330
17
102
}
330
17
100
AcDbMlineStyle
  2
Standard
 70
     0
  3

 62
   256
 51
90.0
 52
90.0
 71
     2
 49
0.5
 62
   256
  6
BYLAYER
 49
-0.5
 62
   256
  6
BYLAYER
  0
ACDBPLACEHOLDER
  5
F
102
{ACAD_REACTORS
330
E
102
}
330
E
  0
ENDSEC
  0
EOF
