  0
SECTION
  2
HEADER
  9
$ACADVER
  1
AC1015
  9
$ACADMAINTVER
 70
     6
  9
$DWGCODEPAGE
  3
ANSI_1252
  9
$INSBASE
 10
0.0
 20
0.0
 30
0.0
  9
$EXTMIN
 10
0.0
 20
0.0
 30
0.0
  9
$EXTMAX
 10
800.0
 20
800.0
 30
0.0
  9
$LIMMIN
 10
0.0
 20
0.0
  9
$LIMMAX
 10
800.0
 20
800.0
  9
$ORTHOMODE
 70
     0
  9
$REGENMODE
 70
     1
  9
$FILLMODE
 70
     1
  9
$QTEXTMODE
 70
     0
  9
$MIRRTEXT
 70
     1
  9
$LTSCALE
 40
1.0
  9
$ATTMODE
 70
     1
  9
$TEXTSIZE
 40
3.5
  9
$TRACEWID
 40
1.0
  9
$TEXTSTYLE
  7
Standard
  9
$CLAYER
  8
0
  9
$CELTYPE
  6
ByLayer
  9
$CECOLOR
 62
   256
  9
$CELTSCALE
 40
1.0
  9
$DISPSILH
 70
     0
  9
$DIMSCALE
 40
1.0
  9
$DIMASZ
 40
4.0
  9
$DIMEXO
 40
0.0
  9
$DIMDLI
 40
3.75
  9
$DIMRND
 40
0.0
  9
$DIMDLE
 40
0.0
  9
$DIMEXE
 40
1.0
  9
$DIMTP
 40
0.0
  9
$DIMTM
 40
0.0
  9
$DIMTXT
 40
3.5
  9
$DIMCEN
 40
2.5
  9
$DIMTSZ
 40
0.0
  9
$DIMTOL
 70
     0
  9
$DIMLIM
 70
     0
  9
$DIMTIH
 70
     1
  9
$DIMTOH
 70
     1
  9
$DIMSE1
 70
     0
  9
$DIMSE2
 70
     0
  9
$DIMTAD
 70
     1
  9
$DIMZIN
 70
     0
  9
$DIMBLK
  1

  9
$DIMASO
 70
     1
  9
$DIMSHO
 70
     1
  9
$DIMPOST
  1

  9
$DIMAPOST
  1

  9
$DIMALT
 70
     0
  9
$DIMALTD
 70
     3
  9
$DIMALTF
 40
0.0393700787
  9
$DIMLFAC
 40
1.0
  9
$DIMTOFL
 70
     1
  9
$DIMTVP
 40
0.0
  9
$DIMTIX
 70
     0
  9
$DIMSOXD
 70
     0
  9
$DIMSAH
 70
     0
  9
$DIMBLK1
  1

  9
$DIMBLK2
  1

  9
$DIMSTYLE
  2
ISO-25
  9
$DIMCLRD
 70
     0
  9
$DIMCLRE
 70
     0
  9
$DIMCLRT
 70
     0
  9
$DIMTFAC
 40
1.0
  9
$DIMGAP
 40
1.524
  9
$DIMJUST
 70
     0
  9
$DIMSD1
 70
     0
  9
$DIMSD2
 70
     0
  9
$DIMTOLJ
 70
     0
  9
$DIMTZIN
 70
     0
  9
$DIMALTZ
 70
     0
  9
$DIMALTTZ
 70
     0
  9
$DIMUPT
 70
     0
  9
$DIMDEC
 70
     1
  9
$DIMTDEC
 70
     1
  9
$DIMALTU
 70
     2
  9
$DIMALTTD
 70
     3
  9
$DIMTXSTY
  7
Standard
  9
$DIMAUNIT
 70
     0
  9
$DIMADEC
 70
     1
  9
$DIMALTRND
 40
0.0
  9
$DIMAZIN
 70
     0
  9
$DIMDSEP
 70
    44
  9
$DIMATFIT
 70
     3
  9
$DIMFRAC
 70
     0
  9
$DIMLDRBLK
  1

  9
$DIMLUNIT
 70
     2
  9
$DIMLWD
 70
    -2
  9
$DIMLWE
 70
    -2
  9
$DIMTMOVE
 70
     0
  9
$LUNITS
 70
     2
  9
$LUPREC
 70
     1
  9
$SKETCHINC
 40
1.0
  9
$FILLETRAD
 40
10.0
  9
$AUNITS
 70
     0
  9
$AUPREC
 70
     1
  9
$MENU
  1
.
  9
$ELEVATION
 40
0.0
  9
$PELEVATION
 40
0.0
  9
$THICKNESS
 40
0.0
  9
$LIMCHECK
 70
     0
  9
$CHAMFERA
 40
10.0
  9
$CHAMFERB
 40
10.0
  9
$CHAMFERC
 40
20.0
  9
$CHAMFERD
 40
0.0
  9
$SKPOLY
 70
     0
  9
$TDCREATE
 40
2455929.355348681
  9
$TDUCREATE
 40
2455929.313682014
  9
$TDUPDATE
 40
2455929.355348692
  9
$TDUUPDATE
 40
2455929.313682025
  9
$TDINDWG
 40
0.0000000116
  9
$TDUSRTIMER
 40
0.0000000116
  9
$USRTIMER
 70
     1
  9
$ANGBASE
 50
0.0
  9
$ANGDIR
 70
     0
  9
$PDMODE
 70
     0
  9
$PDSIZE
 40
-1.0
  9
$PLINEWID
 40
0.0
  9
$SPLFRAME
 70
     0
  9
$SPLINETYPE
 70
     6
  9
$SPLINESEGS
 70
     8
  9
$HANDSEED
  5
33D
  9
$SURFTAB1
 70
     6
  9
$SURFTAB2
 70
     6
  9
$SURFTYPE
 70
     6
  9
$SURFU
 70
     6
  9
$SURFV
 70
     6
  9
$UCSBASE
  2

  9
$UCSNAME
  2

  9
$UCSORG
 10
0.0
 20
0.0
 30
0.0
  9
$UCSXDIR
 10
1.0
 20
0.0
 30
0.0
  9
$UCSYDIR
 10
0.0
 20
1.0
 30
0.0
  9
$UCSORTHOREF
  2

  9
$UCSORTHOVIEW
 70
     0
  9
$UCSORGTOP
 10
0.0
 20
0.0
 30
0.0
  9
$UCSORGBOTTOM
 10
0.0
 20
0.0
 30
0.0
  9
$UCSORGLEFT
 10
0.0
 20
0.0
 30
0.0
  9
$UCSORGRIGHT
 10
0.0
 20
0.0
 30
0.0
  9
$UCSORGFRONT
 10
0.0
 20
0.0
 30
0.0
  9
$UCSORGBACK
 10
0.0
 20
0.0
 30
0.0
  9
$PUCSBASE
  2

  9
$PUCSNAME
  2

  9
$PUCSORG
 10
0.0
 20
0.0
 30
0.0
  9
$PUCSXDIR
 10
1.0
 20
0.0
 30
0.0
  9
$PUCSYDIR
 10
0.0
 20
1.0
 30
0.0
  9
$PUCSORTHOREF
  2

  9
$PUCSORTHOVIEW
 70
     0
  9
$PUCSORGTOP
 10
0.0
 20
0.0
 30
0.0
  9
$PUCSORGBOTTOM
 10
0.0
 20
0.0
 30
0.0
  9
$PUCSORGLEFT
 10
0.0
 20
0.0
 30
0.0
  9
$PUCSORGRIGHT
 10
0.0
 20
0.0
 30
0.0
  9
$PUCSORGFRONT
 10
0.0
 20
0.0
 30
0.0
  9
$PUCSORGBACK
 10
0.0
 20
0.0
 30
0.0
  9
$USERI1
 70
     0
  9
$USERI2
 70
     0
  9
$USERI3
 70
     0
  9
$USERI4
 70
     0
  9
$USERI5
 70
     0
  9
$USERR1
 40
0.0
  9
$USERR2
 40
0.0
  9
$USERR3
 40
0.0
  9
$USERR4
 40
0.0
  9
$USERR5
 40
0.0
  9
$WORLDVIEW
 70
     1
  9
$SHADEDGE
 70
     3
  9
$SHADEDIF
 70
    70
  9
$TILEMODE
 70
     1
  9
$MAXACTVP
 70
    64
  9
$PINSBASE
 10
0.0
 20
0.0
 30
0.0
  9
$PLIMCHECK
 70
     0
  9
$PEXTMIN
 10
1.0000000000E+20
 20
1.0000000000E+20
 30
1.0000000000E+20
  9
$PEXTMAX
 10
-1.0000000000E+20
 20
-1.0000000000E+20
 30
-1.0000000000E+20
  9
$PLIMMIN
 10
0.0
 20
0.0
  9
$PLIMMAX
 10
420.0
 20
297.0
  9
$UNITMODE
 70
     0
  9
$VISRETAIN
 70
     1
  9
$PLINEGEN
 70
     0
  9
$PSLTSCALE
 70
     1
  9
$TREEDEPTH
 70
  3020
  9
$CMLSTYLE
  2
Standard
  9
$CMLJUST
 70
     0
  9
$CMLSCALE
 40
20.0
  9
$PROXYGRAPHICS
 70
     1
  9
$MEASUREMENT
 70
     1
  9
$CELWEIGHT
370
    -1
  9
$ENDCAPS
280
     0
  9
$JOINSTYLE
280
     0
  9
$LWDISPLAY
290
     1
  9
$INSUNITS
 70
     4
  9
$HYPERLINKBASE
  1

  9
$STYLESHEET
  1

  9
$XEDIT
290
     1
  9
$CEPSNTYPE
380
     0
  9
$PSTYLEMODE
290
     1
  9
$FINGERPRINTGUID
  2
{C9BC74E5-D873-4D7B-A320-7EFBE292AB98}
  9
$VERSIONGUID
  2
{FAEB1C32-E019-11D5-929B-00C0DF256EC4}
  9
$EXTNAMES
290
     1
  9
$PSVPSCALE
 40
0.0
  9
$OLESTARTUP
290
     0
  0
ENDSEC
  0
SECTION
  2
CLASSES
  0
CLASS
  1
ACDBDICTIONARYWDFLT
  2
AcDbDictionaryWithDefault
  3
ObjectDBX Classes
 90
        0
280
     0
281
     0
  0
CLASS
  1
VISUALSTYLE
  2
AcDbVisualStyle
  3
ObjectDBX Classes
 90
     4095
280
     0
281
     0
  0
CLASS
  1
MATERIAL
  2
AcDbMaterial
  3
ObjectDBX Classes
 90
     1153
280
     0
281
     0
  0
CLASS
  1
ACDBPLACEHOLDER
  2
AcDbPlaceHolder
  3
ObjectDBX Classes
 90
        0
280
     0
281
     0
  0
CLASS
  1
LAYOUT
  2
AcDbLayout
  3
ObjectDBX Classes
 90
        0
280
     0
281
     0
  0
ENDSEC
  0
SECTION
  2
TABLES
  0
TABLE
  2
VPORT
  5
8
330
0
100
AcDbSymbolTable
 70
     1
  0
VPORT
  5
29
330
8
100
AcDbSymbolTableRecord
100
AcDbViewportTableRecord
  2
*Active
 70
     0
 10
0.0
 20
0.0
 11
1.0
 21
1.0
 12
400.0
 22
400.0
 13
0.0
 23
0.0
 14
10.0
 24
10.0
 15
10.0
 25
10.0
 16
0.0
 26
0.0
 36
1.0
 17
0.0
 27
0.0
 37
0.0
 40
800.0
 41
1.0
 42
50.0
 43
0.0
 44
0.0
 50
0.0
 51
0.0
 71
     0
 72
  2000
 73
     1
 74
     3
 75
     0
 76
     0
 77
     0
 78
     0
281
     0
 65
     1
110
0.0
120
0.0
130
0.0
111
1.0
121
0.0
131
0.0
112
0.0
122
1.0
132
0.0
 79
     0
146
0.0
  0
ENDTAB
  0
TABLE
  2
LTYPE
  5
5
330
0
100
AcDbSymbolTable
 70
     6
  0
LTYPE
  5
14
330
5
100
AcDbSymbolTableRecord
100
AcDbLinetypeTableRecord
  2
ByBlock
 70
     0
  3

 72
    65
 73
     0
 40
0.0
  0
LTYPE
  5
15
330
5
100
AcDbSymbolTableRecord
100
AcDbLinetypeTableRecord
  2
ByLayer
 70
     0
  3

 72
    65
 73
     0
 40
0.0
  0
LTYPE
  5
16
330
5
100
AcDbSymbolTableRecord
100
AcDbLinetypeTableRecord
  2
Continuous
 70
     0
  3
Solid line
 72
    65
 73
     0
 40
0.0
  0
LTYPE
  5
3F
330
5
100
AcDbSymbolTableRecord
100
AcDbLinetypeTableRecord
  2
HIDDEN
 70
     0
  3
Hidden __ __ __ __ __ __ __ __ __ __ __ __ __ __
 72
    65
 73
     2
 40
1.905
 49
1.27
 74
     0
 49
-0.635
 74
     0
  0
LTYPE
  5
40
330
5
100
AcDbSymbolTableRecord
100
AcDbLinetypeTableRecord
  2
PHANTOM
 70
     0
  3
Phantom ______  __  __  ______  __  __  ______
 72
    65
 73
     6
 40
12.7
 49
6.35
 74
     0
 49
-1.27
 74
     0
 49
1.27
 74
     0
 49
-1.27
 74
     0
 49
1.27
 74
     0
 49
-1.27
 74
     0
  0
LTYPE
  5
41
330
5
100
AcDbSymbolTableRecord
100
AcDbLinetypeTableRecord
  2
CENTER
 70
     0
  3
Center ____ _ ____ _ ____ _ ____ _ ____ _ ____
 72
    65
 73
     4
 40
10.16
 49
6.35
 74
     0
 49
-1.27
 74
     0
 49
1.27
 74
     0
 49
-1.27
 74
     0
  0
LTYPE
  5
42
330
5
100
AcDbSymbolTableRecord
100
AcDbLinetypeTableRecord
  2
CENTERX2
 70
     0
  3
Center (2x) ________  __  ________  __  _____
 72
    65
 73
     4
 40
20.32
 49
12.7
 74
     0
 49
-2.54
 74
     0
 49
2.54
 74
     0
 49
-2.54
 74
     0
  0
LTYPE
  5
43
330
5
100
AcDbSymbolTableRecord
100
AcDbLinetypeTableRecord
  2
DOT2
 70
     0
  3
Dot (.5x) ........................................
 72
    65
 73
     2
 40
0.635
 49
0.0
 74
     0
 49
-0.635
 74
     0
  0
ENDTAB
  0
TABLE
  2
LAYER
  5
2
330
0
100
AcDbSymbolTable
 70
     6
  0
LAYER
  5
10
330
2
100
AcDbSymbolTableRecord
100
AcDbLayerTableRecord
  2
0
 70
     0
 62
     7
  6
Continuous
370
    -3
390
F
  0
LAYER
  5
44
330
2
100
AcDbSymbolTableRecord
100
AcDbLayerTableRecord
  2
1
 70
     0
 62
   179
  6
Continuous
370
    -3
390
F
  0
LAYER
  5
45
330
2
100
AcDbSymbolTableRecord
100
AcDbLayerTableRecord
  2
FORMAT
 70
     0
 62
     7
  6
Continuous
370
    -3
390
F
  0
LAYER
  5
46
330
2
100
AcDbSymbolTableRecord
100
AcDbLayerTableRecord
  2
SLD-0
 70
     0
 62
   179
  6
Continuous
370
    -3
390
F
  0
LAYER
  5
47
330
2
100
AcDbSymbolTableRecord
100
AcDbLayerTableRecord
  2
GESTRICHELT
 70
     0
 62
     7
  6
HIDDEN
370
    -3
390
F
  0
LAYER
  5
48
330
2
100
AcDbSymbolTableRecord
100
AcDbLayerTableRecord
  2
GESTRICHELT_LÄNGER
 70
     0
 62
     7
  6
Continuous
370
    -3
390
F
  0
ENDTAB
  0
TABLE
  2
STYLE
  5
3
330
0
100
AcDbSymbolTable
 70
     1
  0
STYLE
  5
11
330
3
100
AcDbSymbolTableRecord
100
AcDbTextStyleTableRecord
  2
Standard
 70
     0
 40
0.0
 41
1.0
 50
0.0
 71
     0
 42
2.5
  3
txt
  4

  0
ENDTAB
  0
TABLE
  2
VIEW
  5
6
330
0
100
AcDbSymbolTable
 70
     0
  0
ENDTAB
  0
TABLE
  2
UCS
  5
7
330
0
100
AcDbSymbolTable
 70
     0
  0
ENDTAB
  0
TABLE
  2
APPID
  5
9
330
0
100
AcDbSymbolTable
 70
     1
  0
APPID
  5
12
330
9
100
AcDbSymbolTableRecord
100
AcDbRegAppTableRecord
  2
ACAD
 70
     0
  0
ENDTAB
  0
TABLE
  2
DIMSTYLE
  5
A
330
0
100
AcDbSymbolTable
 70
     1
100
AcDbDimStyleTable
  0
DIMSTYLE
105
27
330
A
100
AcDbSymbolTableRecord
100
AcDbDimStyleTableRecord
  2
ISO-25
 70
     0
 41
2.5
 42
0.625
 43
3.75
 44
1.25
 73
     0
 74
     0
 77
     1
 78
     8
140
2.5
141
2.5
143
0.0393700787
147
0.625
171
     3
172
     1
178
     0
271
     2
272
     2
274
     3
278
    44
283
     0
284
     8
340
11
  0
ENDTAB
  0
TABLE
  2
BLOCK_RECORD
  5
1
330
0
100
AcDbSymbolTable
 70
     1
  0
BLOCK_RECORD
  5
1F
330
1
100
AcDbSymbolTableRecord
100
AcDbBlockTableRecord
  2
*Model_Space
340
22
  0
BLOCK_RECORD
  5
1B
330
1
100
AcDbSymbolTableRecord
100
AcDbBlockTableRecord
  2
*Paper_Space
340
1E
  0
BLOCK_RECORD
  5
23
330
1
100
AcDbSymbolTableRecord
100
AcDbBlockTableRecord
  2
*Paper_Space0
340
26
  0
ENDTAB
  0
ENDSEC
  0
SECTION
  2
BLOCKS
  0
BLOCK
  5
20
330
1F
100
AcDbEntity
  8
0
100
AcDbBlockBegin
  2
*Model_Space
 70
     0
 10
0.0
 20
0.0
 30
0.0
  3
*Model_Space
  1

  0
ENDBLK
  5
21
330
1F
100
AcDbEntity
  8
0
100
AcDbBlockEnd
  0
BLOCK
  5
1C
330
1B
100
AcDbEntity
 67
     1
  8
0
100
AcDbBlockBegin
  2
*Paper_Space
 70
     0
 10
0.0
 20
0.0
 30
0.0
  3
*Paper_Space
  1

  0
ENDBLK
  5
1D
330
1B
100
AcDbEntity
 67
     1
  8
0
100
AcDbBlockEnd
  0
BLOCK
  5
24
330
23
100
AcDbEntity
  8
0
100
AcDbBlockBegin
  2
*Paper_Space0
 70
     0
 10
0.0
 20
0.0
 30
0.0
  3
*Paper_Space0
  1

  0
ENDBLK
  5
25
330
23
100
AcDbEntity
  8
0
100
AcDbBlockEnd
  0
ENDSEC
  0
SECTION
  2
ENTITIES
  0
ARC
  5
49
330
1F
100
AcDbEntity
  8
0
  6
Continuous
 62
     7
370
    15
100
AcDbCircle
 10
388.9598985817
 20
522.0487461212
 30
0.0
 40
4.000000000000012
100
AcDbArc
 50
165.0
 51
180.0
  0
ARC
  5
4A
330
1F
100
AcDbEntity
  8
0
  6
Continuous
 62
     7
370
    15
100
AcDbCircle
 10
388.9598985817
 20
522.0487461212
 30
0.0
 40
4.000000000000012
100
AcDbArc
 50
0.0
 51
15.0
  0
LINE
  5
4B
330
1F
100
AcDbEntity
  8
0
  6
Continuous
 62
     7
370
    15
100
AcDbLine
 10
392.9598987717
 20
496.4413852108
 30
0.0
 11
392.9598987717
 21
522.0487476004
 31
0.0
  0
LINE
  5
4C
330
1F
100
AcDbEntity
  8
0
  6
Continuous
 62
     7
370
    15
100
AcDbLine
 10
384.9598983917
 20
522.0487476004
 30
0.0
 11
384.9598983917
 21
496.4413852108
 31
0.0
  0
LINE
  5
4D
330
1F
100
AcDbEntity
  8
0
  6
Continuous
 62
     7
370
    15
100
AcDbLine
 10
392.8236018084
 20
523.0840206755
 30
0.0
 11
392.5961951874
 21
523.9327163113
 31
0.0
  0
LINE
  5
4E
330
1F
100
AcDbEntity
  8
0
  6
Continuous
 62
     7
370
    15
100
AcDbLine
 10
385.323601976
 20
523.9327163113
 30
0.0
 11
385.096195355
 21
523.0840206755
 31
0.0
  0
ARC
  5
4F
330
1F
100
AcDbEntity
  8
0
  6
Continuous
 62
     7
370
    15
100
AcDbCircle
 10
396.4598985817
 20
524.9679915057
 30
0.0
 40
4.000000000000012
100
AcDbArc
 50
180.0
 51
195.0
  0
ARC
  5
50
330
1F
100
AcDbEntity
  8
0
  6
Continuous
 62
     7
370
    15
100
AcDbCircle
 10
381.4598985817
 20
524.9679915057
 30
0.0
 40
4.000000000000012
100
AcDbArc
 50
345.0
 51
0.0
  0
LINE
  5
51
330
1F
100
AcDbEntity
  8
0
  6
Continuous
 62
     7
370
    15
100
AcDbLine
 10
392.4598986897
 20
545.8913803709
 30
0.0
 11
390.9098985288
 21
547.4413842572
 31
0.0
  0
LINE
  5
52
330
1F
100
AcDbEntity
  8
0
  6
Continuous
 62
     7
370
    15
100
AcDbLine
 10
387.0098986346
 20
547.4413842572
 30
0.0
 11
385.4598984737
 21
545.8913803709
 31
0.0
  0
LINE
  5
53
330
1F
100
AcDbEntity
  8
0
  6
Continuous
 62
     7
370
    15
100
AcDbLine
 10
392.4598986897
 20
524.9679893864
 30
0.0
 11
392.4598986897
 21
527.9413819922
 31
0.0
  0
LINE
  5
54
330
1F
100
AcDbEntity
  8
0
  6
Continuous
 62
     7
370
    15
100
AcDbLine
 10
385.4598984737
 20
527.9413819922
 30
0.0
 11
385.4598984737
 21
524.9679893864
 31
0.0
  0
LINE
  5
55
330
1F
100
AcDbEntity
  8
0
  6
Continuous
 62
     7
370
    15
100
AcDbLine
 10
392.4598986897
 20
543.8913837684
 30
0.0
 11
392.4598986897
 21
545.8913803709
 31
0.0
  0
LINE
  5
56
330
1F
100
AcDbEntity
  8
0
  6
Continuous
 62
     7
370
    15
100
AcDbLine
 10
385.4598984737
 20
545.8913803709
 30
0.0
 11
385.4598984737
 21
543.8913837684
 31
0.0
  0
LINE
  5
57
330
1F
100
AcDbEntity
  8
0
  6
Continuous
 62
     7
370
    15
100
AcDbLine
 10
392.4598986897
 20
530.9413806213
 30
0.0
 11
392.4598986897
 21
540.8413842929
 31
0.0
  0
LINE
  5
58
330
1F
100
AcDbEntity
  8
0
  6
Continuous
 62
     7
370
    15
100
AcDbLine
 10
385.4598984737
 20
540.8413842929
 30
0.0
 11
385.4598984737
 21
530.9413806213
 31
0.0
  0
LINE
  5
59
330
1F
100
AcDbEntity
  8
0
  6
Continuous
 62
     7
370
    15
100
AcDbLine
 10
391.9598986078
 20
527.9413819922
 30
0.0
 11
391.9598986078
 21
530.9413806213
 31
0.0
  0
LINE
  5
5A
330
1F
100
AcDbEntity
  8
0
  6
Continuous
 62
     7
370
    15
100
AcDbLine
 10
385.9598985556
 20
530.9413806213
 30
0.0
 11
385.9598985556
 21
527.9413819922
 31
0.0
  0
LINE
  5
5B
330
1F
100
AcDbEntity
  8
0
  6
Continuous
 62
     7
370
    15
100
AcDbLine
 10
390.9098985288
 20
540.8413842929
 30
0.0
 11
390.9098985288
 21
543.8913837684
 31
0.0
  0
LINE
  5
5C
330
1F
100
AcDbEntity
  8
0
  6
Continuous
 62
     7
370
    15
100
AcDbLine
 10
387.0098986346
 20
543.8913837684
 30
0.0
 11
387.0098986346
 21
540.8413842929
 31
0.0
  0
LINE
  5
5D
330
1F
100
AcDbEntity
  8
0
  6
Continuous
 62
     7
370
    15
100
AcDbLine
 10
403.9398990255
 20
483.4413812173
 30
0.0
 11
403.9398990255
 21
489.4413822008
 31
0.0
  0
LINE
  5
5E
330
1F
100
AcDbEntity
  8
0
  6
Continuous
 62
     7
370
    15
100
AcDbLine
 10
373.9798981379
 20
489.4413822008
 30
0.0
 11
373.9798981379
 21
483.4413812173
 31
0.0
  0
LINE
  5
5F
330
1F
100
AcDbEntity
  8
0
  6
Continuous
 62
     7
370
    15
100
AcDbLine
 10
462.9598995354
 20
368.4413828564
 30
0.0
 11
475.9598960783
 21
368.4413828564
 31
0.0
  0
LINE
  5
60
330
1F
100
AcDbEntity
  8
0
  6
Continuous
 62
     7
370
    15
100
AcDbLine
 10
475.9598960783
 20
488.4413801742
 30
0.0
 11
462.9598995354
 21
488.4413801742
 31
0.0
  0
LINE
  5
61
330
1F
100
AcDbEntity
  8
0
  6
Continuous
 62
     7
370
    15
100
AcDbLine
 10
314.959897628
 20
488.4413801742
 30
0.0
 11
301.9599010851
 21
488.4413801742
 31
0.0
  0
LINE
  5
62
330
1F
100
AcDbEntity
  8
0
  6
Continuous
 62
     7
370
    15
100
AcDbLine
 10
301.9599010851
 20
368.4413828564
 30
0.0
 11
314.959897628
 21
368.4413828564
 31
0.0
  0
LINE
  5
63
330
1F
100
AcDbEntity
  8
0
  6
Continuous
 62
     7
370
    15
100
AcDbLine
 10
328.9598999228
 20
349.4413778795
 30
0.0
 11
328.9598999228
 21
336.4413813365
 31
0.0
  0
LINE
  5
64
330
1F
100
AcDbEntity
  8
0
  6
Continuous
 62
     7
370
    15
100
AcDbLine
 10
448.9598972406
 20
336.4413813365
 30
0.0
 11
448.9598972406
 21
349.4413778795
 31
0.0
  0
ARC
  5
65
330
1F
100
AcDbEntity
  8
0
  6
Continuous
 62
     7
370
    15
100
AcDbCircle
 10
298.9598985817
 20
465.9413815153
 30
0.0
 40
3.000000000000057
100
AcDbArc
 50
270.0
 51
0.0
  0
ARC
  5
66
330
1F
100
AcDbEntity
  8
0
  6
Continuous
 62
     7
370
    15
100
AcDbCircle
 10
298.9598985817
 20
390.9413815153
 30
0.0
 40
3.0
100
AcDbArc
 50
0.0
 51
90.0
  0
ARC
  5
67
330
1F
100
AcDbEntity
  8
0
  6
Continuous
 62
     7
370
    15
100
AcDbCircle
 10
478.9598985817
 20
390.9413815153
 30
0.0
 40
3.0
100
AcDbArc
 50
90.0
 51
180.0
  0
ARC
  5
68
330
1F
100
AcDbEntity
  8
0
  6
Continuous
 62
     7
370
    15
100
AcDbCircle
 10
478.9598985817
 20
465.9413815153
 30
0.0
 40
3.000000000000057
100
AcDbArc
 50
180.0
 51
270.0
  0
SPLINE
  5
69
330
1F
100
AcDbEntity
  8
0
  6
Continuous
 62
     7
370
    15
100
AcDbSpline
210
0.0
220
0.0
230
1.0
 70
     8
 71
     3
 72
    10
 73
     6
 74
     0
 42
0.00000001
 43
0.00000001
 40
0.0
 40
0.0
 40
0.0
 40
0.0
 40
0.2343964717830275
 40
0.6501012975274231
 40
1.0
 40
1.0
 40
1.0
 40
1.0
 10
420.413705488632
 20
466.4444499326499
 30
0.0
 10
419.6735386288871
 20
466.5735915172687
 30
0.0
 10
417.6206773710078
 20
466.9317671804377
 30
0.0
 10
414.2712664595314
 20
467.0716093313299
 30
0.0
 10
411.737792442188
 20
467.0071175387125
 30
0.0
 10
410.5799356158474
 20
466.9776432824881
 30
0.0
  0
ARC
  5
6A
330
1F
100
AcDbEntity
  8
0
  6
Continuous
 62
     7
370
    15
100
AcDbCircle
 10
368.3383079544
 20
455.4413815153
 30
0.0
 40
12.00000000000002
100
AcDbArc
 50
101.4627005567
 51
111.177112455
  0
ARC
  5
6B
330
1F
100
AcDbEntity
  8
0
  6
Continuous
 62
     7
370
    15
100
AcDbCircle
 10
364.9598985817
 20
472.1023043622
 30
0.0
 40
5.0
100
AcDbArc
 50
281.4627005567
 51
0.0
  0
LINE
  5
6C
330
1F
100
AcDbEntity
  8
0
  6
Continuous
 62
     7
370
    15
100
AcDbLine
 10
369.9598991926
 20
483.4413812173
 30
0.0
 11
369.9598991926
 21
472.102305354
 31
0.0
  0
LINE
  5
6D
330
1F
100
AcDbEntity
  8
0
  6
Continuous
 62
     7
370
    15
100
AcDbLine
 10
407.9598979707
 20
472.4418171359
 30
0.0
 11
407.9598979707
 21
483.4413812173
 31
0.0
  0
LINE
  5
6E
330
1F
100
AcDbEntity
  8
0
  6
Continuous
 62
     7
370
    15
100
AcDbLine
 10
390.9098985288
 20
547.4413842572
 30
0.0
 11
387.0098986346
 21
547.4413842572
 31
0.0
  0
LINE
  5
6F
330
1F
100
AcDbEntity
  8
0
  6
Continuous
 62
     7
370
    15
100
AcDbLine
 10
392.4598986897
 20
545.8913803709
 30
0.0
 11
385.4598984737
 21
545.8913803709
 31
0.0
  0
LINE
  5
70
330
1F
100
AcDbEntity
  8
0
  6
Continuous
 62
     7
370
    15
100
AcDbLine
 10
392.4598986897
 20
527.9413819922
 30
0.0
 11
385.4598984737
 21
527.9413819922
 31
0.0
  0
LINE
  5
71
330
1F
100
AcDbEntity
  8
0
  6
Continuous
 62
     7
370
    15
100
AcDbLine
 10
392.4598986897
 20
543.8913837684
 30
0.0
 11
385.4598984737
 21
543.8913837684
 31
0.0
  0
LINE
  5
72
330
1F
100
AcDbEntity
  8
0
  6
Continuous
 62
     7
370
    15
100
AcDbLine
 10
392.4598986897
 20
540.8413842929
 30
0.0
 11
385.4598984737
 21
540.8413842929
 31
0.0
  0
LINE
  5
73
330
1F
100
AcDbEntity
  8
0
  6
Continuous
 62
     7
370
    15
100
AcDbLine
 10
392.4598986897
 20
530.9413806213
 30
0.0
 11
385.4598984737
 21
530.9413806213
 31
0.0
  0
LINE
  5
74
330
1F
100
AcDbEntity
  8
0
  6
Continuous
 62
     7
370
    15
100
AcDbLine
 10
376.9598984774
 20
489.4413822008
 30
0.0
 11
373.9798981379
 21
489.4413822008
 31
0.0
  0
LINE
  5
75
330
1F
100
AcDbEntity
  8
0
  6
Continuous
 62
     7
370
    15
100
AcDbLine
 10
376.9598984774
 20
489.4413822008
 30
0.0
 11
376.9598984774
 21
496.4413852108
 31
0.0
  0
LINE
  5
76
330
1F
100
AcDbEntity
  8
0
  6
Continuous
 62
     7
370
    15
100
AcDbLine
 10
400.959898686
 20
496.4413852108
 30
0.0
 11
376.9598984774
 21
496.4413852108
 31
0.0
  0
LINE
  5
77
330
1F
100
AcDbEntity
  8
0
  6
Continuous
 62
     7
370
    15
100
AcDbLine
 10
400.959898686
 20
496.4413852108
 30
0.0
 11
400.959898686
 21
489.4413822008
 31
0.0
  0
LINE
  5
78
330
1F
100
AcDbEntity
  8
0
  6
Continuous
 62
     7
370
    15
100
AcDbLine
 10
400.959898686
 20
489.4413822008
 30
0.0
 11
403.9398990255
 21
489.4413822008
 31
0.0
  0
LINE
  5
79
330
1F
100
AcDbEntity
  8
0
  6
Continuous
 62
     7
370
    15
100
AcDbLine
 10
388.9598985817
 20
333.4413827074
 30
0.0
 11
415.1581627931
 21
333.4413827074
 31
0.0
  0
LINE
  5
7A
330
1F
100
AcDbEntity
  8
0
  6
Continuous
 62
     7
370
    15
100
AcDbLine
 10
426.4012453761
 20
333.4413827074
 30
0.0
 11
426.4599000718
 21
333.4413827074
 31
0.0
  0
LINE
  5
7B
330
1F
100
AcDbEntity
  8
0
  6
Continuous
 62
     7
370
    15
100
AcDbLine
 10
351.4598970916
 20
333.4413827074
 30
0.0
 11
351.5185517873
 21
333.4413827074
 31
0.0
  0
LINE
  5
7C
330
1F
100
AcDbEntity
  8
0
  6
Continuous
 62
     7
370
    15
100
AcDbLine
 10
362.7616343703
 20
333.4413827074
 30
0.0
 11
388.9598985817
 21
333.4413827074
 31
0.0
  0
LINE
  5
7D
330
1F
100
AcDbEntity
  8
0
  6
Continuous
 62
     7
370
    15
100
AcDbLine
 10
462.9598995354
 20
368.7321678413
 30
0.0
 11
462.9598995354
 21
488.4413801742
 31
0.0
  0
LINE
  5
7E
330
1F
100
AcDbEntity
  8
0
  6
Continuous
 62
     7
370
    15
100
AcDbLine
 10
475.9598960783
 20
428.4413815153
 30
0.0
 11
475.9598960783
 21
488.4413801742
 31
0.0
  0
LINE
  5
7F
330
1F
100
AcDbEntity
  8
0
  6
Continuous
 62
     7
370
    15
100
AcDbLine
 10
475.9598960783
 20
368.4413828564
 30
0.0
 11
475.9598960783
 21
428.4413815153
 31
0.0
  0
LINE
  5
80
330
1F
100
AcDbEntity
  8
0
  6
Continuous
 62
     7
370
    15
100
AcDbLine
 10
314.959897628
 20
368.7321678413
 30
0.0
 11
314.959897628
 21
368.4419006718
 31
0.0
  0
LINE
  5
81
330
1F
100
AcDbEntity
  8
0
  6
Continuous
 62
     7
370
    15
100
AcDbLine
 10
314.959897628
 20
368.4419006718
 30
0.0
 11
314.959897628
 21
368.4413828564
 31
0.0
  0
LINE
  5
82
330
1F
100
AcDbEntity
  8
0
  6
Continuous
 62
     7
370
    15
100
AcDbLine
 10
314.959897628
 20
488.4413801742
 30
0.0
 11
314.959897628
 21
368.7321678413
 31
0.0
  0
LINE
  5
83
330
1F
100
AcDbEntity
  8
0
  6
Continuous
 62
     7
370
    15
100
AcDbLine
 10
301.9599010851
 20
488.4413801742
 30
0.0
 11
301.9599010851
 21
368.4413828564
 31
0.0
  0
LINE
  5
84
330
1F
100
AcDbEntity
  8
0
  6
Continuous
 62
     7
370
    15
100
AcDbLine
 10
448.6691122558
 20
349.4413778795
 30
0.0
 11
448.9593794252
 21
349.4413778795
 31
0.0
  0
LINE
  5
85
330
1F
100
AcDbEntity
  8
0
  6
Continuous
 62
     7
370
    15
100
AcDbLine
 10
448.9593794252
 20
349.4413778795
 30
0.0
 11
448.9598972406
 21
349.4413778795
 31
0.0
  0
LINE
  5
86
330
1F
100
AcDbEntity
  8
0
  6
Continuous
 62
     7
370
    15
100
AcDbLine
 10
329.2506849076
 20
349.4413778795
 30
0.0
 11
448.6691122558
 21
349.4413778795
 31
0.0
  0
LINE
  5
87
330
1F
100
AcDbEntity
  8
0
  6
Continuous
 62
     7
370
    15
100
AcDbLine
 10
388.9598985817
 20
336.4413813365
 30
0.0
 11
448.9598972406
 21
336.4413813365
 31
0.0
  0
LINE
  5
88
330
1F
100
AcDbEntity
  8
0
  6
Continuous
 62
     7
370
    15
100
AcDbLine
 10
328.9598999228
 20
336.4413813365
 30
0.0
 11
388.9598985817
 21
336.4413813365
 31
0.0
  0
LINE
  5
89
330
1F
100
AcDbEntity
  8
0
  6
Continuous
 62
     7
370
    15
100
AcDbLine
 10
298.9598950054
 20
462.9413806511
 30
0.0
 11
298.9598950054
 21
393.9413823796
 31
0.0
  0
LINE
  5
8A
330
1F
100
AcDbEntity
  8
0
  6
Continuous
 62
     7
370
    15
100
AcDbLine
 10
478.959902158
 20
428.4413815153
 30
0.0
 11
478.959902158
 21
462.9413806511
 31
0.0
  0
LINE
  5
8B
330
1F
100
AcDbEntity
  8
0
  6
Continuous
 62
     7
370
    15
100
AcDbLine
 10
478.959902158
 20
393.9413823796
 30
0.0
 11
478.959902158
 21
428.4413815153
 31
0.0
  0
SPLINE
  5
8C
330
1F
100
AcDbEntity
  8
0
  6
Continuous
 62
     7
370
    15
100
AcDbSpline
210
0.0
220
0.0
230
1.0
 70
     8
 71
     3
 72
     8
 73
     4
 74
     0
 42
0.00000001
 43
0.00000001
 40
0.0
 40
0.0
 40
0.0
 40
0.0
 40
1.0
 40
1.0
 40
1.0
 40
1.0
 10
415.966174969269
 20
467.3191225019964
 30
0.0
 10
417.5547750885147
 20
467.189434972805
 30
0.0
 10
419.1213830666243
 20
466.9601643251441
 30
0.0
 10
420.6769634982103
 20
466.6309997049574
 30
0.0
  0
LINE
  5
8D
330
1F
100
AcDbEntity
  8
0
  6
Continuous
 62
     7
370
    15
100
AcDbLine
 10
420.4131317939
 20
466.4422222091
 30
0.0
 11
419.6780277099
 21
466.6310012949
 31
0.0
  0
SPLINE
  5
8E
330
1F
100
AcDbEntity
  8
0
  6
Continuous
 62
     7
370
    15
100
AcDbSpline
210
0.0
220
0.0
230
1.0
 70
     8
 71
     3
 72
    11
 73
     7
 74
     0
 42
0.00000001
 43
0.00000001
 40
0.0
 40
0.0
 40
0.0
 40
0.0
 40
0.0167771644434302
 40
0.0167771644434302
 40
0.0167771644434302
 40
0.0204555425183177
 40
0.0204555425183177
 40
0.0204555425183177
 40
0.0204555425183177
 10
429.7645193244925
 20
418.771462948039
 30
0.0
 10
434.9030468340422
 20
416.5650604203192
 30
0.0
 10
440.0411053972081
 20
414.3575444666838
 30
0.0
 10
445.1787253942298
 20
412.149004582542
 30
0.0
 10
446.3051439415675
 20
411.6647842062832
 30
0.0
 10
447.4315415660191
 20
411.1805149779469
 30
0.0
 10
448.5579188451584
 20
410.6961984695963
 30
0.0
  0
SPLINE
  5
8F
330
1F
100
AcDbEntity
  8
0
  6
Continuous
 62
     7
370
    15
100
AcDbSpline
210
0.0
220
0.0
230
1.0
 70
     8
 71
     3
 72
     8
 73
     4
 74
     0
 42
0.00000001
 43
0.00000001
 40
0.0
 40
0.0
 40
0.0
 40
0.0
 40
1.0
 40
1.0
 40
1.0
 40
1.0
 10
401.7835796576311
 20
464.522822284106
 30
0.0
 10
401.6290067572705
 20
464.495723714667
 30
0.0
 10
401.4738735866999
 20
464.4685614408395
 30
0.0
 10
401.3181765013397
 20
464.4413815153396
 30
0.0
  0
SPLINE
  5
90
330
1F
100
AcDbEntity
  8
0
  6
Continuous
 62
     7
370
    15
100
AcDbSpline
210
0.0
220
0.0
230
1.0
 70
     8
 71
     3
 72
    10
 73
     6
 74
     0
 42
0.00000001
 43
0.00000001
 40
0.0
 40
0.0
 40
0.0
 40
0.0
 40
0.5
 40
0.5
 40
1.0
 40
1.0
 40
1.0
 40
1.0
 10
401.7835796576325
 20
464.522822284105
 30
0.0
 10
402.2596617363751
 20
464.6062854476958
 30
0.0
 10
402.6834631073762
 20
464.7322560076763
 30
0.0
 10
403.4804204989887
 20
464.9852599326491
 30
0.0
 10
403.8553642479675
 20
465.1132066426107
 30
0.0
 10
404.2226398766409
 20
465.2284057731715
 30
0.0
  0
SPLINE
  5
91
330
1F
100
AcDbEntity
  8
0
  6
Continuous
 62
     7
370
    15
100
AcDbSpline
210
0.0
220
0.0
230
1.0
 70
     8
 71
     3
 72
    10
 73
     6
 74
     0
 42
0.00000001
 43
0.00000001
 40
0.0
 40
0.0
 40
0.0
 40
0.0
 40
0.5
 40
0.5
 40
1.0
 40
1.0
 40
1.0
 40
1.0
 10
406.2104571881096
 20
465.9604560702372
 30
0.0
 10
405.8708252682677
 20
465.9096987110049
 30
0.0
 10
405.533415750613
 20
465.8239810305051
 30
0.0
 10
404.8697534291924
 20
465.5810574010292
 30
0.0
 10
404.5429506040735
 20
465.4241510773327
 30
0.0
 10
404.2226398766551
 20
465.2284057731799
 30
0.0
  0
LINE
  5
92
330
1F
100
AcDbEntity
  8
0
  6
Continuous
 62
     7
370
    15
100
AcDbLine
 10
411.2674342151
 20
467.1060763908
 30
0.0
 11
410.5792203601
 21
466.9526167823
 31
0.0
  0
SPLINE
  5
93
330
1F
100
AcDbEntity
  8
0
  6
Continuous
 62
     7
370
    15
100
AcDbSpline
210
0.0
220
0.0
230
1.0
 70
     8
 71
     3
 72
    12
 73
     8
 74
     0
 42
0.00000001
 43
0.00000001
 40
0.0
 40
0.0
 40
0.0
 40
0.0
 40
0.4999999999999999
 40
0.4999999999999999
 40
0.7499999999999999
 40
0.7499999999999999
 40
1.0
 40
1.0
 40
1.0
 40
1.0
 10
412.9431277964536
 20
467.4418459309445
 30
0.0
 10
412.9430568976866
 20
467.4418368412562
 30
0.0
 10
412.8112369785506
 20
467.4099121576031
 30
0.0
 10
412.3979134624982
 20
467.3206160880843
 30
0.0
 10
412.2196754489709
 20
467.2840483010483
 30
0.0
 10
411.791996023015
 20
467.2012481318117
 30
0.0
 10
411.5442922707105
 20
467.1549332505369
 30
0.0
 10
411.2674337421888
 20
467.1060757722948
 30
0.0
  0
LINE
  5
94
330
1F
100
AcDbEntity
  8
0
  6
Continuous
 62
     7
370
    15
100
AcDbLine
 10
412.9431275334
 20
467.441844256
 30
0.0
 11
412.9439973887
 21
467.441844256
 31
0.0
  0
SPLINE
  5
95
330
1F
100
AcDbEntity
  8
0
  6
Continuous
 62
     7
370
    15
100
AcDbSpline
210
0.0
220
0.0
230
1.0
 70
     8
 71
     3
 72
     8
 73
     4
 74
     0
 42
0.00000001
 43
0.00000001
 40
0.0
 40
0.0
 40
0.0
 40
0.0
 40
0.0002963137869245
 40
0.0002963137869245
 40
0.0002963137869245
 40
0.0002963137869245
 10
397.598211915044
 20
467.2994924538886
 30
0.0
 10
397.5651215818496
 20
467.3401848443449
 30
0.0
 10
397.5320474208222
 20
467.3809540446849
 30
0.0
 10
397.4989891886647
 20
467.4217981763236
 30
0.0
  0
SPLINE
  5
96
330
1F
100
AcDbEntity
  8
0
  6
Continuous
 62
     7
370
    15
100
AcDbSpline
210
0.0
220
0.0
230
1.0
 70
     8
 71
     3
 72
     8
 73
     4
 74
     0
 42
0.00000001
 43
0.00000001
 40
0.0
 40
0.0
 40
0.0
 40
0.0
 40
0.0002963137869245
 40
0.0002963137869245
 40
0.0002963137869245
 40
0.0002963137869245
 10
380.4208495505842
 20
467.4217981763236
 30
0.0
 10
380.3877911973525
 20
467.3809540446849
 30
0.0
 10
380.3547169152071
 20
467.3401848443449
 30
0.0
 10
380.3216264608499
 20
467.2994924538886
 30
0.0
  0
SPLINE
  5
97
330
1F
100
AcDbEntity
  8
0
  6
Continuous
 62
     7
370
    15
100
AcDbSpline
210
0.0
220
0.0
230
1.0
 70
     8
 71
     3
 72
    38
 73
    34
 74
     0
 42
0.00000001
 43
0.00000001
 40
0.0
 40
0.0
 40
0.0
 40
0.0
 40
0.0625000000000007
 40
0.0625000000000007
 40
0.1250000000000014
 40
0.1250000000000014
 40
0.1875000000000015
 40
0.1875000000000015
 40
0.2500000000000015
 40
0.2500000000000015
 40
0.3125000000000015
 40
0.3125000000000015
 40
0.3750000000000016
 40
0.3750000000000016
 40
0.4375000000000017
 40
0.4375000000000017
 40
0.5000000000000018
 40
0.5000000000000018
 40
0.5625000000000019
 40
0.5625000000000019
 40
0.6250000000000019
 40
0.6250000000000019
 40
0.6875000000000019
 40
0.6875000000000019
 40
0.7187500000000021
 40
0.7187500000000021
 40
0.7500000000000022
 40
0.7500000000000022
 40
0.8125000000000018
 40
0.8125000000000018
 40
0.8750000000000012
 40
0.8750000000000012
 40
1.0
 40
1.0
 40
1.0
 40
1.0
 10
397.4989891886647
 20
467.4217981763236
 30
0.0
 10
397.3394183112748
 20
467.6189513057095
 30
0.0
 10
397.1494328792314
 20
467.808548036485
 30
0.0
 10
396.7117101815047
 20
468.1688952913318
 30
0.0
 10
396.4654898034364
 20
468.3386780552741
 30
0.0
 10
395.917525848778
 20
468.6586625020688
 30
0.0
 10
395.6153551828066
 20
468.80905941167
 30
0.0
 10
394.9529914665966
 20
469.0894285857621
 30
0.0
 10
394.5998076117045
 20
469.2164933040611
 30
0.0
 10
393.8494337471845
 20
469.4456979236587
 30
0.0
 10
393.4522629581646
 20
469.5478426622993
 30
0.0
 10
392.6108726855365
 20
469.7266268232353
 30
0.0
 10
392.1775141113698
 20
469.8009548214612
 30
0.0
 10
391.2862156470654
 20
469.9207811492022
 30
0.0
 10
390.828229888863
 20
469.9662946652
 30
0.0
 10
389.8861926666565
 20
470.0274472052539
 30
0.0
 10
389.4153793582039
 20
470.0422259342648
 30
0.0
 10
388.4743222138048
 20
470.0415761228951
 30
0.0
 10
388.0040485129813
 20
470.0261484753875
 30
0.0
 10
387.0640286721753
 20
469.9638415327912
 30
0.0
 10
386.6052296476527
 20
469.9175897221991
 30
0.0
 10
385.717202237457
 20
469.7969105496067
 30
0.0
 10
385.2865254958263
 20
469.7223805371966
 30
0.0
 10
384.660597766788
 20
469.5885756853811
 30
0.0
 10
384.4545355562327
 20
469.5400557774218
 30
0.0
 10
384.0563405488672
 20
469.4372245238901
 30
0.0
 10
383.8634918654627
 20
469.3827960678328
 30
0.0
 10
383.3029426369196
 20
469.2106195382989
 30
0.0
 10
382.9531462865376
 20
469.0840318033441
 30
0.0
 10
382.2999010465044
 20
468.8067015641573
 30
0.0
 10
381.9942674689963
 20
468.6545061482516
 30
0.0
 10
381.1705318980347
 20
468.1718272481887
 30
0.0
 10
380.739792147975
 20
467.8158569287885
 30
0.0
 10
380.4208495505842
 20
467.4217981763236
 30
0.0
  0
SPLINE
  5
98
330
1F
100
AcDbEntity
  8
0
  6
Continuous
 62
     7
370
    15
100
AcDbSpline
210
0.0
220
0.0
230
1.0
 70
     8
 71
     3
 72
    40
 73
    36
 74
     0
 42
0.00000001
 43
0.00000001
 40
0.0
 40
0.0
 40
0.0
 40
0.0
 40
0.1249999999999998
 40
0.1249999999999998
 40
0.15625
 40
0.15625
 40
0.1875000000000002
 40
0.1875000000000002
 40
0.2500000000000007
 40
0.2500000000000007
 40
0.2812500000000007
 40
0.2812500000000007
 40
0.3125000000000008
 40
0.3125000000000008
 40
0.3750000000000007
 40
0.3750000000000007
 40
0.4375000000000006
 40
0.4375000000000006
 40
0.5000000000000004
 40
0.5000000000000004
 40
0.5625000000000003
 40
0.5625000000000003
 40
0.6250000000000002
 40
0.6250000000000002
 40
0.6875000000000001
 40
0.6875000000000001
 40
0.75
 40
0.75
 40
0.8124999999999999
 40
0.8124999999999999
 40
0.8749999999999998
 40
0.8749999999999998
 40
0.9374999999999999
 40
0.9374999999999999
 40
1.0
 40
1.0
 40
1.0
 40
1.0
 10
379.6303962515472
 20
468.2878235801081
 30
0.0
 10
379.9767954871456
 20
468.6836411598048
 30
0.0
 10
380.4469510554247
 20
469.0405230874098
 30
0.0
 10
381.19757961618
 20
469.4433246915498
 30
0.0
 10
381.3567423580082
 20
469.5220007666769
 30
0.0
 10
381.6884087131301
 20
469.6730717976038
 30
0.0
 10
381.8606763670573
 20
469.7454261330223
 30
0.0
 10
382.3965899466846
 20
469.9533130029194
 30
0.0
 10
382.7792405208755
 20
470.0797224583555
 30
0.0
 10
383.3923678682915
 20
470.2515466478018
 30
0.0
 10
383.603294411271
 20
470.3058432416154
 30
0.0
 10
384.0387780763841
 20
470.4083917549408
 30
0.0
 10
384.2640548993994
 20
470.4567458652522
 30
0.0
 10
384.9481561314322
 20
470.5900380118561
 30
0.0
 10
385.4187688792704
 20
470.6642335430908
 30
0.0
 10
386.3889127921333
 20
470.7843265402527
 30
0.0
 10
386.8900912815919
 20
470.8303289244157
 30
0.0
 10
387.9163675018291
 20
470.8922688146033
 30
0.0
 10
388.4297907935313
 20
470.9076039219739
 30
0.0
 10
389.4571884386281
 20
470.9082490314826
 30
0.0
 10
389.971162774625
 20
470.893560063934
 30
0.0
 10
390.9996846590716
 20
470.8327642853828
 30
0.0
 10
391.4999445137119
 20
470.7874975809614
 30
0.0
 10
392.4736167099751
 20
470.668259344879
 30
0.0
 10
392.9470742980047
 20
470.594281491135
 30
0.0
 10
393.8667169549447
 20
470.4161767676429
 30
0.0
 10
394.3011683781824
 20
470.3143116512317
 30
0.0
 10
395.1218517510815
 20
470.0856023604827
 30
0.0
 10
395.5081832008494
 20
469.958731263812
 30
0.0
 10
396.232687141819
 20
469.6785319545253
 30
0.0
 10
396.5633742164019
 20
469.5280213396004
 30
0.0
 10
397.1624799697433
 20
469.2076439294582
 30
0.0
 10
397.431496639704
 20
469.0375331120703
 30
0.0
 10
397.9091561340595
 20
468.676155878427
 30
0.0
 10
398.1161426481385
 20
468.4858474352887
 30
0.0
 10
398.2894423150474
 20
468.2878235801081
 30
0.0
  0
LINE
  5
99
330
1F
100
AcDbEntity
  8
0
  6
Continuous
 62
     7
370
    15
100
AcDbLine
 10
398.2894420307
 20
468.2878241552
 30
0.0
 11
398.2894420307
 21
483.4413812173
 31
0.0
  0
LINE
  5
9A
330
1F
100
AcDbEntity
  8
0
  6
Continuous
 62
     7
370
    15
100
AcDbLine
 10
379.6303961109
 20
468.2878241552
 30
0.0
 11
379.6303961109
 21
483.4413812173
 31
0.0
  0
LINE
  5
9B
330
1F
100
AcDbEntity
  8
0
  6
Continuous
 62
     7
370
    15
100
AcDbLine
 10
379.6303961109
 20
483.4413812173
 30
0.0
 11
398.2894420307
 21
483.4413812173
 31
0.0
  0
SPLINE
  5
9C
330
1F
100
AcDbEntity
  8
0
  6
Continuous
 62
     7
370
    15
100
AcDbSpline
210
0.0
220
0.0
230
1.0
 70
     8
 71
     3
 72
    16
 73
    12
 74
     0
 42
0.00000001
 43
0.00000001
 40
0.0
 40
0.0
 40
0.0
 40
0.0
 40
0.5
 40
0.5
 40
0.7499999999999997
 40
0.7499999999999997
 40
0.875
 40
0.875
 40
0.9375
 40
0.9375
 40
1.0
 40
1.0
 40
1.0
 40
1.0
 10
330.9899997050532
 20
400.5862110966013
 30
0.0
 10
335.1115699688663
 20
399.1125030109744
 30
0.0
 10
339.231790707886
 20
397.6352102122325
 30
0.0
 10
345.4135035610048
 20
395.4233915267903
 30
0.0
 10
347.4743061179137
 20
394.6868131263405
 30
0.0
 10
350.5663018053068
 20
393.5842375438396
 30
0.0
 10
351.5967079858638
 20
393.2160241639735
 30
0.0
 10
353.1438178501112
 20
392.6678402663813
 30
0.0
 10
353.6607025100524
 20
392.488435242357
 30
0.0
 10
354.7033296076634
 20
392.1549116325925
 30
0.0
 10
355.2295366765877
 20
392.0021362543738
 30
0.0
 10
355.7599188344724
 20
391.8613270924645
 30
0.0
  0
SPLINE
  5
9D
330
1F
100
AcDbEntity
  8
0
  6
Continuous
 62
     7
370
    15
100
AcDbSpline
210
0.0
220
0.0
230
1.0
 70
     8
 71
     3
 72
     8
 73
     4
 74
     0
 42
0.00000001
 43
0.00000001
 40
0.0
 40
0.0
 40
0.0
 40
0.0
 40
1.0
 40
1.0
 40
1.0
 40
1.0
 10
348.1515668518501
 20
437.4666099937668
 30
0.0
 10
341.868012379229
 20
440.2934501770141
 30
0.0
 10
335.5903675275584
 20
443.1336605878981
 30
0.0
 10
329.3093572642665
 20
445.9668124170934
 30
0.0
  0
ARC
  5
9E
330
1F
100
AcDbEntity
  8
0
  6
Continuous
 62
     7
370
    15
100
AcDbCircle
 10
388.9598985817
 20
410.4413815153
 30
0.0
 40
34.09034640685906
100
AcDbArc
 50
338.9103567992
 51
5.5537146802
  0
ARC
  5
9F
330
1F
100
AcDbEntity
  8
0
  6
Continuous
 62
     7
370
    15
100
AcDbCircle
 10
388.9598985817
 20
446.4413815153
 30
0.0
 40
34.09034640685912
100
AcDbArc
 50
156.1209866224
 51
186.5548862433
  0
SPLINE
  5
A0
330
1F
100
AcDbEntity
  8
0
  6
Continuous
 62
     7
370
    15
100
AcDbSpline
210
0.0
220
0.0
230
1.0
 70
     8
 71
     3
 72
    17
 73
    13
 74
     0
 42
0.00000001
 43
0.00000001
 40
0.0
 40
0.0
 40
0.0
 40
0.0
 40
0.2500000000000043
 40
0.2500000000000043
 40
0.3750000000000036
 40
0.3750000000000036
 40
0.5000000000000029
 40
0.6250000000000022
 40
0.6250000000000022
 40
0.7500000000000014
 40
0.7500000000000014
 40
1.0
 40
1.0
 40
1.0
 40
1.0
 10
460.5803860934157
 20
403.4466386473651
 30
0.0
 10
460.9456986526561
 20
403.2244031057019
 30
0.0
 10
461.274618114833
 20
402.9612495776725
 30
0.0
 10
461.715165489747
 20
402.5070675039271
 30
0.0
 10
461.8539797474003
 20
402.3443558077848
 30
0.0
 10
462.1072266222799
 20
402.0055221980645
 30
0.0
 10
462.3366531002878
 20
401.6534146320005
 30
0.0
 10
462.5195372860107
 20
401.2753565940779
 30
0.0
 10
462.678553541898
 20
400.8839843215557
 30
0.0
 10
462.7457465779289
 20
400.6819267035298
 30
0.0
 10
462.9056734624991
 20
400.073090258882
 30
0.0
 10
462.9598985816934
 20
399.6581066310115
 30
0.0
 10
462.9598985816935
 20
399.2337063587879
 30
0.0
  0
SPLINE
  5
A1
330
1F
100
AcDbEntity
  8
0
  6
Continuous
 62
     7
370
    15
100
AcDbSpline
210
0.0
220
0.0
230
1.0
 70
     8
 71
     3
 72
    24
 73
    20
 74
     0
 42
0.00000001
 43
0.00000001
 40
0.0
 40
0.0
 40
0.0
 40
0.0
 40
0.1249999999999999
 40
0.1249999999999999
 40
0.1875000000000005
 40
0.1875000000000005
 40
0.250000000000001
 40
0.250000000000001
 40
0.3750000000000008
 40
0.3750000000000008
 40
0.5000000000000007
 40
0.5000000000000007
 40
0.6250000000000004
 40
0.6250000000000004
 40
0.7500000000000003
 40
0.7500000000000003
 40
0.8750000000000001
 40
0.8750000000000001
 40
1.0
 40
1.0
 40
1.0
 40
1.0
 10
462.9598985816935
 20
460.168923399035
 30
0.0
 10
462.9598985816937
 20
459.8305773194552
 30
0.0
 10
462.9253224473628
 20
459.4981806808051
 30
0.0
 10
462.8237406956306
 20
459.008137887643
 30
0.0
 10
462.7815283091928
 20
458.8462268497185
 30
0.0
 10
462.6799730325716
 20
458.5253498886575
 30
0.0
 10
462.6204322860651
 20
458.3662277256702
 30
0.0
 10
462.4200814314768
 20
457.9043025297623
 30
0.0
 10
462.2567294987665
 20
457.6129974829478
 30
0.0
 10
461.8706555475883
 20
457.0635439175192
 30
0.0
 10
461.6464807210081
 20
456.8052629923515
 30
0.0
 10
461.1579658378728
 20
456.3460140079797
 30
0.0
 10
460.891590447557
 20
456.1416010991803
 30
0.0
 10
460.3130189926134
 20
455.7849765118255
 30
0.0
 10
460.0083484927002
 20
455.6377294139999
 30
0.0
 10
459.3766524325396
 20
455.4067053096963
 30
0.0
 10
459.0450738686391
 20
455.3218349182011
 30
0.0
 10
458.3734855835149
 20
455.2210543608374
 30
0.0
 10
458.0350773763333
 20
455.2045608885505
 30
0.0
 10
457.6940105350879
 20
455.2225406460864
 30
0.0
  0
SPLINE
  5
A2
330
1F
100
AcDbEntity
  8
0
  6
Continuous
 62
     7
370
    15
100
AcDbSpline
210
0.0
220
0.0
230
1.0
 70
     8
 71
     3
 72
    26
 73
    22
 74
     0
 42
0.00000001
 43
0.00000001
 40
0.0
 40
0.0
 40
0.0
 40
0.0
 40
0.1250000000000021
 40
0.1250000000000021
 40
0.1875000000000032
 40
0.1875000000000032
 40
0.2500000000000043
 40
0.2500000000000043
 40
0.3750000000000032
 40
0.3750000000000032
 40
0.5000000000000021
 40
0.5000000000000021
 40
0.6250000000000011
 40
0.6250000000000011
 40
0.6875000000000009
 40
0.6875000000000009
 40
0.7500000000000008
 40
0.7500000000000008
 40
0.8750000000000004
 40
0.8750000000000004
 40
1.0
 40
1.0
 40
1.0
 40
1.0
 10
314.9598985816935
 20
396.8837170403555
 30
0.0
 10
314.9598985816932
 20
397.2148882860453
 30
0.0
 10
314.9930946120436
 20
397.5403390093734
 30
0.0
 10
315.0905986829753
 20
398.0202961195137
 30
0.0
 10
315.1311123022099
 20
398.1789016367908
 30
0.0
 10
315.2285386211274
 20
398.4932892857967
 30
0.0
 10
315.2857435789152
 20
398.6495380772579
 30
0.0
 10
315.4784169871273
 20
399.103669118451
 30
0.0
 10
315.6355352158421
 20
399.3903846154785
 30
0.0
 10
316.0065486397615
 20
399.932076484076
 30
0.0
 10
316.2226004516065
 20
400.1882440519648
 30
0.0
 10
316.6940656372495
 20
400.6458514449012
 30
0.0
 10
316.9510658797442
 20
400.8503731190642
 30
0.0
 10
317.3691958660656
 20
401.1199243819282
 30
0.0
 10
317.514206541736
 20
401.2034705750813
 30
0.0
 10
317.8086879384711
 20
401.3542296268937
 30
0.0
 10
317.9589470866651
 20
401.4219901315824
 30
0.0
 10
318.4186338958812
 20
401.6027876300956
 30
0.0
 10
318.7387454047132
 20
401.6938832761068
 30
0.0
 10
319.3956239904675
 20
401.8117515156114
 30
0.0
 10
319.7271094113325
 20
401.8379707798924
 30
0.0
 10
320.0616634574414
 20
401.8312362732549
 30
0.0
  0
SPLINE
  5
A3
330
1F
100
AcDbEntity
  8
0
  6
Continuous
 62
     7
370
    15
100
AcDbSpline
210
0.0
220
0.0
230
1.0
 70
     8
 71
     3
 72
    17
 73
    13
 74
     0
 42
0.00000001
 43
0.00000001
 40
0.0
 40
0.0
 40
0.0
 40
0.0
 40
0.2499999999999952
 40
0.2499999999999952
 40
0.3749999999999957
 40
0.3749999999999957
 40
0.4999999999999961
 40
0.6249999999999964
 40
0.6249999999999964
 40
0.749999999999997
 40
0.749999999999997
 40
1.0
 40
1.0
 40
1.0
 40
1.0
 10
317.2900825301563
 20
453.4290061558534
 30
0.0
 10
316.9316229308071
 20
453.6527219519502
 30
0.0
 10
316.6092040253116
 20
453.9159983078224
 30
0.0
 10
316.1778503565162
 20
454.3683445426446
 30
0.0
 10
316.0420258259761
 20
454.5300651553144
 30
0.0
 10
315.7940060343891
 20
454.8668231954981
 30
0.0
 10
315.569455983052
 20
455.2162917118955
 30
0.0
 10
315.3906798955331
 20
455.5905646507024
 30
0.0
 10
315.235307649333
 20
455.977526085913
 30
0.0
 10
315.1694826286428
 20
456.1776500316947
 30
0.0
 10
315.0128900012787
 20
456.7804595650986
 30
0.0
 10
314.9598985816935
 20
457.190936201771
 30
0.0
 10
314.9598985816935
 20
457.6102880951518
 30
0.0
  0
SPLINE
  5
A4
330
1F
100
AcDbEntity
  8
0
  6
Continuous
 62
     7
370
    15
100
AcDbSpline
210
0.0
220
0.0
230
1.0
 70
     8
 71
     3
 72
    18
 73
    14
 74
     0
 42
0.00000001
 43
0.00000001
 40
0.0
 40
0.0
 40
0.0
 40
0.0
 40
0.2499999999999987
 40
0.2499999999999987
 40
0.4999999999999973
 40
0.4999999999999973
 40
0.624999999999998
 40
0.624999999999998
 40
0.7499999999999987
 40
0.7499999999999987
 40
0.8749999999999993
 40
0.8749999999999993
 40
1.0
 40
1.0
 40
1.0
 40
1.0
 10
355.7599188344724
 20
391.8613270924645
 30
0.0
 10
356.2823800013387
 20
391.7159321528505
 30
0.0
 10
356.7680123928852
 20
391.4905234692383
 30
0.0
 10
357.6661260579205
 20
390.8805798023358
 30
0.0
 10
358.0574339852231
 20
390.5095685163089
 30
0.0
 10
358.5511957909014
 20
389.861405113946
 30
0.0
 10
358.6982129920751
 20
389.6317881646287
 30
0.0
 10
358.9515159544104
 20
389.1564383997795
 30
0.0
 10
359.0589685791138
 20
388.9092147665168
 30
0.0
 10
359.2345561831239
 20
388.3952114519134
 30
0.0
 10
359.3018125581352
 20
388.1297624468329
 30
0.0
 10
359.3921316191243
 20
387.5965985047699
 30
0.0
 10
359.4159441917619
 20
387.3268689228633
 30
0.0
 10
359.4177479498958
 20
387.053893826569
 30
0.0
  0
SPLINE
  5
A5
330
1F
100
AcDbEntity
  8
0
  6
Continuous
 62
     7
370
    15
100
AcDbSpline
210
0.0
220
0.0
230
1.0
 70
     8
 71
     3
 72
     8
 73
     4
 74
     0
 42
0.00000001
 43
0.00000001
 40
0.0
 40
0.0
 40
0.0
 40
0.0
 40
1.0
 40
1.0
 40
1.0
 40
1.0
 10
419.3849970044459
 20
395.6037217759386
 30
0.0
 10
419.9515594028549
 20
396.4036973756438
 30
0.0
 10
420.4124537127933
 20
397.2605484467553
 30
0.0
 10
420.7668256106999
 20
398.1747148486725
 30
0.0
  0
SPLINE
  5
A6
330
1F
100
AcDbEntity
  8
0
  6
Continuous
 62
     7
370
    15
100
AcDbSpline
210
0.0
220
0.0
230
1.0
 70
     8
 71
     3
 72
    16
 73
    12
 74
     0
 42
0.00000001
 43
0.00000001
 40
0.0
 40
0.0
 40
0.0
 40
0.0
 40
0.2499999999999998
 40
0.2499999999999998
 40
0.3749999999999998
 40
0.3749999999999998
 40
0.4999999999999999
 40
0.4999999999999999
 40
0.7499999999999999
 40
0.7499999999999999
 40
1.0
 40
1.0
 40
1.0
 40
1.0
 10
375.5326421147047
 20
464.5713402471019
 30
0.0
 10
374.8656886436855
 20
465.2564848850047
 30
0.0
 10
374.1640204738762
 20
465.7325372524163
 30
0.0
 10
373.0939150170311
 20
466.2628588279713
 30
0.0
 10
372.7347993134077
 20
466.407760905224
 30
0.0
 10
372.0246534760643
 20
466.6478675992181
 30
0.0
 10
371.6724400026496
 20
466.7436531711951
 30
0.0
 10
370.6304263826472
 20
466.9790089498049
 30
0.0
 10
369.9556407360922
 20
467.0680540029804
 30
0.0
 10
368.6726920827857
 20
467.1796387627091
 30
0.0
 10
368.0647923140677
 20
467.2020329366827
 30
0.0
 10
367.4960771843992
 20
467.2020329366827
 30
0.0
  0
SPLINE
  5
A7
330
1F
100
AcDbEntity
  8
0
  6
Continuous
 62
     7
370
    15
100
AcDbSpline
210
0.0
220
0.0
230
1.0
 70
     8
 71
     3
 72
     8
 73
     4
 74
     0
 42
0.00000001
 43
0.00000001
 40
0.0
 40
0.0
 40
0.0
 40
0.0
 40
1.0
 40
1.0
 40
1.0
 40
1.0
 10
376.1330704815311
 20
464.4413815153392
 30
0.0
 10
375.9201131252381
 20
464.4731105760659
 30
0.0
 10
375.7219032857573
 20
464.5194158622012
 30
0.0
 10
375.5326421146738
 20
464.5713402471022
 30
0.0
  0
SPLINE
  5
A8
330
1F
100
AcDbEntity
  8
0
  6
Continuous
 62
     7
370
    15
100
AcDbSpline
210
0.0
220
0.0
230
1.0
 70
     8
 71
     3
 72
    16
 73
    12
 74
     0
 42
0.00000001
 43
0.00000001
 40
0.0
 40
0.0
 40
0.0
 40
0.0
 40
0.2500000000000003
 40
0.2500000000000003
 40
0.5000000000000006
 40
0.5000000000000006
 40
0.7500000000000009
 40
0.7500000000000009
 40
0.8750000000000004
 40
0.8750000000000004
 40
1.0
 40
1.0
 40
1.0
 40
1.0
 10
364.6361747788874
 20
466.6309997049574
 30
0.0
 10
363.8803035897313
 20
466.3491775088371
 30
0.0
 10
363.1618222982522
 20
465.9990060683053
 30
0.0
 10
361.7995538662459
 20
465.1624662708567
 30
0.0
 10
361.1512656060301
 20
464.670452770884
 30
0.0
 10
359.9824059476422
 20
463.5838488073219
 30
0.0
 10
359.4557373897378
 20
462.987075577307
 30
0.0
 10
358.7546237597404
 20
462.0096814745557
 30
0.0
 10
358.5352994735705
 20
461.6688798903087
 30
0.0
 10
358.1343684019282
 20
460.9697861807111
 30
0.0
 10
357.9518932961669
 20
460.6105044661045
 30
0.0
 10
357.787607710799
 20
460.2413815153392
 30
0.0
  0
SPLINE
  5
A9
330
1F
100
AcDbEntity
  8
0
  6
Continuous
 62
     7
370
    15
100
AcDbSpline
210
0.0
220
0.0
230
1.0
 70
     8
 71
     3
 72
    12
 73
     8
 74
     0
 42
0.00000001
 43
0.00000001
 40
0.0
 40
0.0
 40
0.0
 40
0.0
 40
0.5
 40
0.5
 40
0.75
 40
0.75
 40
1.0
 40
1.0
 40
1.0
 40
1.0
 10
418.5020492134901
 20
392.7546968845216
 30
0.0
 10
418.5020492134901
 20
393.2639844767318
 30
0.0
 10
418.5773849835894
 20
393.7604617818479
 30
0.0
 10
418.8018090991538
 20
394.4862348694291
 30
0.0
 10
418.8952409361197
 20
394.7231138614288
 30
0.0
 10
419.1147241775989
 20
395.1764420054799
 30
0.0
 10
419.2412384793521
 20
395.3945030809282
 30
0.0
 10
419.3849970044459
 20
395.6037217759386
 30
0.0
  0
SPLINE
  5
AA
330
1F
100
AcDbEntity
  8
0
  6
Continuous
 62
     7
370
    15
100
AcDbSpline
210
0.0
220
0.0
230
1.0
 70
     8
 71
     3
 72
     8
 73
     4
 74
     0
 42
0.00000001
 43
0.00000001
 40
0.0
 40
0.0
 40
0.0
 40
0.0
 40
1.0
 40
1.0
 40
1.0
 40
1.0
 10
397.9528011399486
 20
466.9658232990752
 30
0.0
 10
397.839557265212
 20
467.0979001639179
 30
0.0
 10
397.7209980915325
 20
467.2078353277673
 30
0.0
 10
397.598211915044
 20
467.2994924538886
 30
0.0
  0
SPLINE
  5
AB
330
1F
100
AcDbEntity
  8
0
  6
Continuous
 62
     7
370
    15
100
AcDbSpline
210
0.0
220
0.0
230
1.0
 70
     8
 71
     3
 72
    16
 73
    12
 74
     0
 42
0.00000001
 43
0.00000001
 40
0.0
 40
0.0
 40
0.0
 40
0.0
 40
0.2499999999999996
 40
0.2499999999999996
 40
0.4999999999999991
 40
0.4999999999999991
 40
0.6249999999999989
 40
0.6249999999999989
 40
0.7499999999999987
 40
0.7499999999999987
 40
1.0
 40
1.0
 40
1.0
 40
1.0
 10
401.7835796576325
 20
464.522822284105
 30
0.0
 10
401.3877167689821
 20
464.5886906872091
 30
0.0
 10
400.9904358995122
 20
464.7028159924677
 30
0.0
 10
400.2371754442892
 20
465.0255534586881
 30
0.0
 10
399.8767256314629
 20
465.2341500514008
 30
0.0
 10
399.3810967595664
 20
465.5843146864839
 30
0.0
 10
399.2233950202661
 20
465.7069484912232
 30
0.0
 10
398.9230618104806
 20
465.9594226660496
 30
0.0
 10
398.7797635785159
 20
466.0899579115238
 30
0.0
 10
398.3779794201907
 20
466.4799895242035
 30
0.0
 10
398.1488952491069
 20
466.7371178153379
 30
0.0
 10
397.9528011399476
 20
466.9658232990765
 30
0.0
  0
LINE
  5
AC
330
1F
100
AcDbEntity
  8
0
  6
Continuous
 62
     7
370
    15
100
AcDbLine
 10
401.3181766178
 20
464.4413799656
 30
0.0
 11
376.9233124014
 21
464.4413799656
 31
0.0
  0
SPLINE
  5
AD
330
1F
100
AcDbEntity
  8
0
  6
Continuous
 62
     7
370
    15
100
AcDbSpline
210
0.0
220
0.0
230
1.0
 70
     8
 71
     3
 72
    14
 73
    10
 74
     0
 42
0.00000001
 43
0.00000001
 40
0.0
 40
0.0
 40
0.0
 40
0.0
 40
0.25
 40
0.25
 40
0.5
 40
0.5
 40
0.75
 40
0.75
 40
1.0
 40
1.0
 40
1.0
 40
1.0
 10
379.8693066087466
 20
466.8442013864463
 30
0.0
 10
379.7147611120596
 20
466.638991327765
 30
0.0
 10
379.5369915472442
 20
466.4163951607867
 30
0.0
 10
379.129408983434
 20
465.9625053110145
 30
0.0
 10
378.898900137644
 20
465.7306270463424
 30
0.0
 10
378.4001671719665
 20
465.293734350421
 30
0.0
 10
378.1283376865688
 20
465.0849549361512
 30
0.0
 10
377.5502636748674
 20
464.7177131686736
 30
0.0
 10
377.2447512576811
 20
464.5596450071121
 30
0.0
 10
376.9233124332802
 20
464.4413815153392
 30
0.0
  0
SPLINE
  5
AE
330
1F
100
AcDbEntity
  8
0
  6
Continuous
 62
     7
370
    15
100
AcDbSpline
210
0.0
220
0.0
230
1.0
 70
     8
 71
     3
 72
     8
 73
     4
 74
     0
 42
0.00000001
 43
0.00000001
 40
0.0
 40
0.0
 40
0.0
 40
0.0
 40
1.0
 40
1.0
 40
1.0
 40
1.0
 10
380.3216264608499
 20
467.2994924538886
 30
0.0
 10
380.1625041045789
 20
467.1807114692525
 30
0.0
 10
380.010798072964
 20
467.0320779166423
 30
0.0
 10
379.8693066087466
 20
466.8442013864463
 30
0.0
  0
SPLINE
  5
AF
330
1F
100
AcDbEntity
  8
0
  6
Continuous
 62
     7
370
    15
100
AcDbSpline
210
0.0
220
0.0
230
1.0
 70
     8
 71
     3
 72
     8
 73
     4
 74
     0
 42
0.00000001
 43
0.00000001
 40
0.0
 40
0.0
 40
0.0
 40
0.0
 40
0.0002947421871502
 40
0.0002947421871502
 40
0.0002947421871502
 40
0.0002947421871502
 10
379.5338554623023
 20
468.1655178576731
 30
0.0
 10
379.5660478086277
 20
468.2062127576751
 30
0.0
 10
379.5982279974415
 20
468.2469819436549
 30
0.0
 10
379.6303962515472
 20
468.2878235801081
 30
0.0
  0
SPLINE
  5
B0
330
1F
100
AcDbEntity
  8
0
  6
Continuous
 62
     7
370
    15
100
AcDbSpline
210
0.0
220
0.0
230
1.0
 70
     8
 71
     3
 72
     8
 73
     4
 74
     0
 42
0.00000001
 43
0.00000001
 40
0.0
 40
0.0
 40
0.0
 40
0.0
 40
0.0002947421871501
 40
0.0002947421871501
 40
0.0002947421871501
 40
0.0002947421871501
 10
398.2894423150474
 20
468.2878235801081
 30
0.0
 10
398.3216104484686
 20
468.2469819436549
 30
0.0
 10
398.3537905165531
 20
468.2062127576751
 30
0.0
 10
398.3859827421036
 20
468.1655178576731
 30
0.0
  0
SPLINE
  5
B1
330
1F
100
AcDbEntity
  8
0
  6
Continuous
 62
     7
370
    15
100
AcDbSpline
210
0.0
220
0.0
230
1.0
 70
     8
 71
     3
 72
     8
 73
     4
 74
     0
 42
0.00000001
 43
0.00000001
 40
0.0
 40
0.0
 40
0.0
 40
0.0
 40
1.0
 40
1.0
 40
1.0
 40
1.0
 10
379.1636708705213
 20
467.5281103632539
 30
0.0
 10
379.2766364582327
 20
467.7873152237208
 30
0.0
 10
379.4006293626396
 20
467.9971044482053
 30
0.0
 10
379.5338554623023
 20
468.1655178576731
 30
0.0
  0
SPLINE
  5
B2
330
1F
100
AcDbEntity
  8
0
  6
Continuous
 62
     7
370
    15
100
AcDbSpline
210
0.0
220
0.0
230
1.0
 70
     8
 71
     3
 72
    22
 73
    18
 74
     0
 42
0.00000001
 43
0.00000001
 40
0.0
 40
0.0
 40
0.0
 40
0.0
 40
0.2499999999999998
 40
0.2499999999999998
 40
0.4999999999999994
 40
0.4999999999999994
 40
0.6249999999999994
 40
0.6249999999999994
 40
0.6874999999999993
 40
0.6874999999999993
 40
0.7499999999999991
 40
0.7499999999999991
 40
0.8749999999999996
 40
0.8749999999999996
 40
0.9374999999999998
 40
0.9374999999999998
 40
1.0
 40
1.0
 40
1.0
 40
1.0
 10
371.2338097723812
 20
472.1023043622424
 30
0.0
 10
371.9190490137941
 20
472.1023043622424
 30
0.0
 10
372.6028525882915
 20
472.0602150785921
 30
0.0
 10
373.9660240478739
 20
471.8459959093774
 30
0.0
 10
374.6453540653857
 20
471.6727558644748
 30
0.0
 10
375.6579511938735
 20
471.2253293557044
 30
0.0
 10
375.9944033311614
 20
471.0445179459099
 30
0.0
 10
376.4969441908869
 20
470.7106404956214
 30
0.0
 10
376.6640037294704
 20
470.588864731376
 30
0.0
 10
376.9941601903662
 20
470.3242071520713
 30
0.0
 10
377.1576250270525
 20
470.1810952658763
 30
0.0
 10
377.6427318727332
 20
469.7164195701395
 30
0.0
 10
377.9591082121374
 20
469.3596627253312
 30
0.0
 10
378.4210737707921
 20
468.7403225341324
 30
0.0
 10
378.5729580716966
 20
468.5198122853542
 30
0.0
 10
378.8720876882455
 20
468.0477871892253
 30
0.0
 10
379.019697289231
 20
467.7955749635756
 30
0.0
 10
379.1636708705213
 20
467.5281103632541
 30
0.0
  0
LINE
  5
B3
330
1F
100
AcDbEntity
  8
0
  6
Continuous
 62
     7
370
    15
100
AcDbLine
 10
371.233810639
 20
472.102305354
 30
0.0
 11
371.233810639
 21
483.4413812173
 31
0.0
  0
LINE
  5
B4
330
1F
100
AcDbEntity
  8
0
  6
Continuous
 62
     7
370
    15
100
AcDbLine
 10
371.233810639
 20
483.4413812173
 30
0.0
 11
379.6303961109
 21
483.4413812173
 31
0.0
  0
LINE
  5
B5
330
1F
100
AcDbEntity
  8
0
  6
Continuous
 62
     7
370
    15
100
AcDbLine
 10
406.6859977003
 20
472.0887378467
 30
0.0
 11
406.6859977003
 21
483.4413812173
 31
0.0
  0
SPLINE
  5
B6
330
1F
100
AcDbEntity
  8
0
  6
Continuous
 62
     7
370
    15
100
AcDbSpline
210
0.0
220
0.0
230
1.0
 70
     8
 71
     3
 72
    20
 73
    16
 74
     0
 42
0.00000001
 43
0.00000001
 40
0.0
 40
0.0
 40
0.0
 40
0.0
 40
0.0625000000000004
 40
0.0625000000000004
 40
0.1250000000000008
 40
0.1250000000000008
 40
0.2500000000000013
 40
0.2500000000000013
 40
0.3750000000000017
 40
0.3750000000000017
 40
0.4375000000000018
 40
0.4375000000000018
 40
0.5000000000000019
 40
0.5000000000000019
 40
1.0
 40
1.0
 40
1.0
 40
1.0
 10
398.6768157857737
 20
467.6983810409172
 30
0.0
 10
398.8210685337875
 20
467.9603406324493
 30
0.0
 10
398.968752120707
 20
468.2064181680005
 30
0.0
 10
399.270765920987
 20
468.667804643982
 30
0.0
 10
399.4254624289785
 20
468.8835483457674
 30
0.0
 10
399.8943797971802
 20
469.4798275869394
 30
0.0
 10
400.214516512354
 20
469.8118706769259
 30
0.0
 10
400.8687617896265
 20
470.3543874592972
 30
0.0
 10
401.2030467976209
 20
470.5649549576016
 30
0.0
 10
401.7141713703874
 20
470.7914712687144
 30
0.0
 10
401.8851462864554
 20
470.8496778678809
 30
0.0
 10
402.2278679722505
 20
470.9438396161279
 30
0.0
 10
402.3992080442284
 20
470.9915192865082
 30
0.0
 10
403.9411808044707
 20
471.4231699940288
 30
0.0
 10
405.3113565249775
 20
471.8203147657674
 30
0.0
 10
406.6859972930317
 20
472.0887385273628
 30
0.0
  0
SPLINE
  5
B7
330
1F
100
AcDbEntity
  8
0
  6
Continuous
 62
     7
370
    15
100
AcDbSpline
210
0.0
220
0.0
230
1.0
 70
     8
 71
     3
 72
     8
 73
     4
 74
     0
 42
0.00000001
 43
0.00000001
 40
0.0
 40
0.0
 40
0.0
 40
0.0
 40
1.0
 40
1.0
 40
1.0
 40
1.0
 10
398.3859827421036
 20
468.1655178576731
 30
0.0
 10
398.4883922400447
 20
468.0360597600517
 30
0.0
 10
398.5855714320462
 20
467.8814756614524
 30
0.0
 10
398.6768157857776
 20
467.6983810409325
 30
0.0
  0
LINE
  5
B8
330
1F
100
AcDbEntity
  8
0
  6
Continuous
 62
     7
370
    15
100
AcDbLine
 10
398.2894420307
 20
483.4413812173
 30
0.0
 11
406.6859977003
 21
483.4413812173
 31
0.0
  0
ARC
  5
B9
330
1F
100
AcDbEntity
  8
0
  6
Continuous
 62
     7
370
    15
100
AcDbCircle
 10
380.234296544
 20
467.9267636687
 30
0.0
 40
1.14243714065057
100
AcDbArc
 50
200.423075103
 51
251.3682921118
  0
ARC
  5
BA
330
1F
100
AcDbEntity
  8
0
  6
Continuous
 62
     7
370
    15
100
AcDbCircle
 10
397.5883657261
 20
468.0500710721
 30
0.0
 40
1.143856400477297
100
AcDbArc
 50
288.5784459128
 51
342.0938628071
  0
SPLINE
  5
BB
330
1F
100
AcDbEntity
  8
0
  6
Continuous
 62
     7
370
    15
100
AcDbSpline
210
0.0
220
0.0
230
1.0
 70
     8
 71
     3
 72
    24
 73
    20
 74
     0
 42
0.00000001
 43
0.00000001
 40
0.0
 40
0.0
 40
0.0
 40
0.0
 40
0.1250000000000006
 40
0.1250000000000006
 40
0.2500000000000011
 40
0.2500000000000011
 40
0.3750000000000017
 40
0.3750000000000017
 40
0.5000000000000022
 40
0.5000000000000022
 40
0.5625000000000019
 40
0.5625000000000019
 40
0.6250000000000017
 40
0.6250000000000017
 40
0.7500000000000011
 40
0.7500000000000011
 40
0.8750000000000006
 40
0.8750000000000006
 40
1.0
 40
1.0
 40
1.0
 40
1.0
 10
398.6768157857645
 20
467.6983810409268
 30
0.0
 10
398.7793929558792
 20
467.5195437684883
 30
0.0
 10
398.8989240925305
 20
467.3161329458863
 30
0.0
 10
399.183890333017
 20
466.8804205512466
 30
0.0
 10
399.351290826252
 20
466.6456856320749
 30
0.0
 10
399.7293170811166
 20
466.1889270215731
 30
0.0
 10
399.941353022908
 20
465.964171533208
 30
0.0
 10
400.4177529788025
 20
465.5557903662826
 30
0.0
 10
400.6767425201982
 20
465.3775825675133
 30
0.0
 10
401.0950711694155
 20
465.1750343871872
 30
0.0
 10
401.241064260842
 20
465.1179347638875
 30
0.0
 10
401.53231770117
 20
465.0303086153802
 30
0.0
 10
401.6773325801623
 20
464.9994271550769
 30
0.0
 10
402.108597723553
 20
464.938234058334
 30
0.0
 10
402.3924459224272
 20
464.9389028425268
 30
0.0
 10
402.9421224383865
 20
464.9807707042404
 30
0.0
 10
403.2062413922437
 20
465.0211697464705
 30
0.0
 10
403.7224835593238
 20
465.1161996358455
 30
0.0
 10
403.9744959907118
 20
465.1712593890691
 30
0.0
 10
404.2226398766638
 20
465.228405773177
 30
0.0
  0
SPLINE
  5
BC
330
1F
100
AcDbEntity
  8
0
  6
Continuous
 62
     7
370
    15
100
AcDbSpline
210
0.0
220
0.0
230
1.0
 70
     8
 71
     3
 72
    22
 73
    18
 74
     0
 42
0.00000001
 43
0.00000001
 40
0.0
 40
0.0
 40
0.0
 40
0.0
 40
0.125
 40
0.125
 40
0.25
 40
0.25
 40
0.3125
 40
0.3125
 40
0.375
 40
0.375
 40
0.5000000000000004
 40
0.5000000000000004
 40
0.6250000000000009
 40
0.6250000000000009
 40
0.7500000000000013
 40
0.7500000000000013
 40
1.0
 40
1.0
 40
1.0
 40
1.0
 10
375.5326421147047
 20
464.571340247102
 30
0.0
 10
375.7291157643833
 20
464.5532843255508
 30
0.0
 10
375.9337890517522
 20
464.5507583634144
 30
0.0
 10
376.3489635094577
 20
464.6044343565795
 30
0.0
 10
376.5565649920281
 20
464.6610212592707
 30
0.0
 10
376.8629277117498
 20
464.7962883604526
 30
0.0
 10
376.9636401454899
 20
464.8494521790128
 30
0.0
 10
377.1562378017589
 20
464.9661948950862
 30
0.0
 10
377.2490588876781
 20
465.0301377509631
 30
0.0
 10
377.518187260564
 20
465.2348808264318
 30
0.0
 10
377.6858654790619
 20
465.3890225359532
 30
0.0
 10
377.9976814216498
 20
465.7144253588814
 30
0.0
 10
378.1404215223312
 20
465.8841089054607
 30
0.0
 10
378.4040878548632
 20
466.2285538442006
 30
0.0
 10
378.5256663024083
 20
466.4045510861242
 30
0.0
 10
378.8564428698094
 20
466.9230724158225
 30
0.0
 10
379.0272481293353
 20
467.2480762703226
 30
0.0
 10
379.1636708705212
 20
467.528110363254
 30
0.0
  0
SPLINE
  5
BD
330
1F
100
AcDbEntity
  8
0
  6
Continuous
 62
     7
370
    15
100
AcDbSpline
210
0.0
220
0.0
230
1.0
 70
    24
 71
     3
 72
     8
 73
     4
 74
     0
 42
0.00000001
 43
0.00000001
 40
0.0
 40
0.0
 40
0.0
 40
0.0
 40
1.0
 40
1.0
 40
1.0
 40
1.0
 10
376.9233124332802
 20
464.4413815153392
 30
0.0
 10
376.6514807134494
 20
464.4413815153392
 30
0.0
 10
376.392468332721
 20
464.4413815153392
 30
0.0
 10
376.1330704815311
 20
464.4413815153392
 30
0.0
  0
SPLINE
  5
BE
330
1F
100
AcDbEntity
  8
0
  6
Continuous
 62
     7
370
    15
100
AcDbSpline
210
0.0
220
0.0
230
1.0
 70
     8
 71
     3
 72
     8
 73
     4
 74
     0
 42
0.00000001
 43
0.00000001
 40
0.0
 40
0.0
 40
0.0
 40
0.0
 40
1.0
 40
1.0
 40
1.0
 40
1.0
 10
448.5579188451584
 20
410.6961984695963
 30
0.0
 10
449.494919047793
 20
410.2960881482738
 30
0.0
 10
450.3957980058583
 20
409.8267213447176
 30
0.0
 10
451.2606159333397
 20
409.2882063591242
 30
0.0
  0
SPLINE
  5
BF
330
1F
100
AcDbEntity
  8
0
  6
Continuous
 62
     7
370
    15
100
AcDbSpline
210
0.0
220
0.0
230
1.0
 70
     8
 71
     3
 72
    10
 73
     6
 74
     0
 42
0.00000001
 43
0.00000001
 40
0.0
 40
0.0
 40
0.0
 40
0.0
 40
0.5
 40
0.5
 40
1.0
 40
1.0
 40
1.0
 40
1.0
 10
453.0835514996746
 20
455.4686105428236
 30
0.0
 10
452.0435548149752
 20
455.5247745265412
 30
0.0
 10
451.0207447506572
 20
455.6614425672167
 30
0.0
 10
449.0081758955709
 20
456.0896623146976
 30
0.0
 10
448.0184180321665
 20
456.381218423496
 30
0.0
 10
447.0457388388763
 20
456.7528527236903
 30
0.0
  0
ARC
  5
C0
330
1F
100
AcDbEntity
  8
0
  6
Continuous
 62
     7
370
    15
100
AcDbCircle
 10
411.6863975295
 20
472.088893688
 30
0.0
 40
5.000399831612424
100
AcDbArc
 50
180.0017856673
 51
265.1937833794
  0
ARC
  5
C1
330
1F
100
AcDbEntity
  8
0
  6
Continuous
 62
     7
370
    15
100
AcDbCircle
 10
366.3095309204
 20
471.9827163251
 30
0.0
 40
4.9257316494672
100
AcDbArc
 50
283.9389244561
 51
1.39118824
  0
SPLINE
  5
C2
330
1F
100
AcDbEntity
  8
0
  6
Continuous
 62
     7
370
    15
100
AcDbSpline
210
0.0
220
0.0
230
1.0
 70
     8
 71
     3
 72
    27
 73
    23
 74
     0
 42
0.00000001
 43
0.00000001
 40
0.0
 40
0.0
 40
0.0
 40
0.0
 40
0.1249999999999995
 40
0.1249999999999995
 40
0.1874999999999991
 40
0.1874999999999991
 40
0.2499999999999986
 40
0.3124999999999981
 40
0.3124999999999981
 40
0.3749999999999977
 40
0.3749999999999977
 40
0.4999999999999963
 40
0.4999999999999963
 40
0.624999999999995
 40
0.624999999999995
 40
0.6874999999999952
 40
0.6874999999999952
 40
0.7499999999999954
 40
0.7499999999999954
 40
0.8749999999999977
 40
0.8749999999999977
 40
1.0
 40
1.0
 40
1.0
 40
1.0
 10
422.8902216894495
 20
413.7406074765195
 30
0.0
 10
422.8611694550555
 20
414.1616268994326
 30
0.0
 10
422.8864041763002
 20
414.5784223866317
 30
0.0
 10
423.0032126924348
 20
415.1975726142819
 30
0.0
 10
423.056018579603
 20
415.4043825990487
 30
0.0
 10
423.1864668398418
 20
415.8064327347396
 30
0.0
 10
423.3414301203501
 20
416.1976736234926
 30
0.0
 10
423.5443238732058
 20
416.5678013968571
 30
0.0
 10
423.7718153626087
 20
416.9271026605049
 30
0.0
 10
423.8978647021136
 20
417.1008990021886
 30
0.0
 10
424.3023166809393
 20
417.5911766223797
 30
0.0
 10
424.6109982357541
 20
417.8832458139306
 30
0.0
 10
425.3014555810498
 20
418.3891432012153
 30
0.0
 10
425.6711252726723
 20
418.5945944645284
 30
0.0
 10
426.2616781108976
 20
418.8327444773485
 30
0.0
 10
426.4655173835653
 20
418.9003819245391
 30
0.0
 10
426.874689015344
 20
419.0081089711671
 30
0.0
 10
427.0812094036816
 20
419.0487953028076
 30
0.0
 10
427.7065309000498
 20
419.1317309905286
 30
0.0
 10
428.1353842454118
 20
419.1338603217146
 30
0.0
 10
428.9649787620651
 20
419.0316407595033
 30
0.0
 10
429.3733559061007
 20
418.9276651471014
 30
0.0
 10
429.7645193244926
 20
418.7714629480389
 30
0.0
  0
SPLINE
  5
C3
330
1F
100
AcDbEntity
  8
0
  6
Continuous
 62
     7
370
    15
100
AcDbSpline
210
0.0
220
0.0
230
1.0
 70
     8
 71
     3
 72
     8
 73
     4
 74
     0
 42
0.00000001
 43
0.00000001
 40
0.0
 40
0.0
 40
0.0
 40
0.0
 40
0.004688143332756
 40
0.004688143332756
 40
0.004688143332756
 40
0.004688143332756
 10
320.0616634574414
 20
401.8312362732555
 30
0.0
 10
321.6240454033093
 20
401.7990139845909
 30
0.0
 10
323.1864146429982
 20
401.7661700895241
 30
0.0
 10
324.7487632040738
 20
401.7324741541663
 30
0.0
  0
SPLINE
  5
C4
330
1F
100
AcDbEntity
  8
0
  6
Continuous
 62
     7
370
    15
100
AcDbSpline
210
0.0
220
0.0
230
1.0
 70
     8
 71
     3
 72
    11
 73
     7
 74
     0
 42
0.00000001
 43
0.00000001
 40
0.0000000000000001
 40
0.0000000000000001
 40
0.0000000000000001
 40
0.0000000000000001
 40
0.0039000000158817
 40
0.0039000000158817
 40
0.0039000000158817
 40
0.0112015586186814
 40
0.0112015586186814
 40
0.0112015586186814
 40
0.0112015586186814
 10
326.7105749584575
 20
447.3686065417651
 30
0.0
 10
325.6171982224756
 20
448.0718264040244
 30
0.0
 10
324.5238599092774
 20
448.7751055518281
 30
0.0
 10
323.4305477793208
 20
449.4784250135926
 30
0.0
 10
321.3836548226574
 20
450.7951758417641
 30
0.0
 10
319.336852293453
 20
452.1120659417683
 30
0.0
 10
317.2900825301563
 20
453.4290061558535
 30
0.0
  0
SPLINE
  5
C5
330
1F
100
AcDbEntity
  8
0
  6
Continuous
 62
     7
370
    15
100
AcDbSpline
210
0.0
220
0.0
230
1.0
 70
     8
 71
     3
 72
    11
 73
     7
 74
     0
 42
0.00000001
 43
0.00000001
 40
0.0000000000000001
 40
0.0000000000000001
 40
0.0000000000000001
 40
0.0000000000000001
 40
0.0054998846297144
 40
0.0054998846297144
 40
0.0054998846297144
 40
0.0109991887711899
 40
0.0109991887711899
 40
0.0109991887711899
 40
0.0109991887711899
 10
451.2606159333397
 20
409.2882063591242
 30
0.0
 10
452.8144625821484
 20
408.3153128161021
 30
0.0
 10
454.3680287985691
 20
407.3419690100728
 30
0.0
 10
455.9213845600776
 20
406.368288839511
 30
0.0
 10
457.4745764074657
 20
405.3947114142011
 30
0.0
 10
459.0275578451883
 20
404.4207971609857
 30
0.0
 10
460.5803860934155
 20
403.4466386473651
 30
0.0
  0
SPLINE
  5
C6
330
1F
100
AcDbEntity
  8
0
  6
Continuous
 62
     7
370
    15
100
AcDbSpline
210
0.0
220
0.0
230
1.0
 70
     8
 71
     3
 72
     8
 73
     4
 74
     0
 42
0.00000001
 43
0.00000001
 40
0.0
 40
0.0
 40
0.0
 40
0.0
 40
0.0046171970879558
 40
0.0046171970879558
 40
0.0046171970879558
 40
0.0046171970879558
 10
457.6940105350879
 20
455.2225406460861
 30
0.0
 10
456.1571252941886
 20
455.3035617405511
 30
0.0
 10
454.6202973466413
 20
455.3854890351157
 30
0.0
 10
453.0835514996746
 20
455.4686105428237
 30
0.0
  0
SPLINE
  5
C7
330
1F
100
AcDbEntity
  8
0
  6
Continuous
 62
     7
370
    15
100
AcDbSpline
210
0.0
220
0.0
230
1.0
 70
     8
 71
     3
 72
    10
 73
     6
 74
     0
 42
0.00000001
 43
0.00000001
 40
0.0
 40
0.0
 40
0.0
 40
0.0
 40
0.5
 40
0.5
 40
1.0
 40
1.0
 40
1.0
 40
1.0
 10
324.7487632040738
 20
401.7324741541663
 30
0.0
 10
325.8199820181017
 20
401.709709897054
 30
0.0
 10
326.8753740612747
 20
401.6010822596819
 30
0.0
 10
328.9557610554626
 20
401.2188776451809
 30
0.0
 10
329.9807552927588
 20
400.9452966674734
 30
0.0
 10
330.9899997050532
 20
400.5862110966013
 30
0.0
  0
SPLINE
  5
C8
330
1F
100
AcDbEntity
  8
0
  6
Continuous
 62
     7
370
    15
100
AcDbSpline
210
0.0
220
0.0
230
1.0
 70
     8
 71
     3
 72
     8
 73
     4
 74
     0
 42
0.00000001
 43
0.00000001
 40
0.0
 40
0.0
 40
0.0
 40
0.0
 40
1.0
 40
1.0
 40
1.0
 40
1.0
 10
329.3093572642665
 20
445.9668124170934
 30
0.0
 10
328.4082517794264
 20
446.3695812559061
 30
0.0
 10
327.5420177058561
 20
446.8368912912577
 30
0.0
 10
326.7105749584575
 20
447.3686065417651
 30
0.0
  0
SPLINE
  5
C9
330
1F
100
AcDbEntity
  8
0
  6
Continuous
 62
     7
370
    15
100
AcDbSpline
210
0.0
220
0.0
230
1.0
 70
     8
 71
     3
 72
    32
 73
    28
 74
     0
 42
0.00000001
 43
0.00000001
 40
0.0
 40
0.0
 40
0.0
 40
0.0
 40
0.1250000000000016
 40
0.1250000000000016
 40
0.1875000000000023
 40
0.1875000000000023
 40
0.2500000000000031
 40
0.2500000000000031
 40
0.3125000000000038
 40
0.3125000000000038
 40
0.3750000000000046
 40
0.3750000000000046
 40
0.4375000000000054
 40
0.4375000000000054
 40
0.5000000000000061
 40
0.5000000000000061
 40
0.625000000000006
 40
0.625000000000006
 40
0.687500000000005
 40
0.687500000000005
 40
0.750000000000004
 40
0.750000000000004
 40
0.812500000000003
 40
0.812500000000003
 40
0.875000000000002
 40
0.875000000000002
 40
1.0
 40
1.0
 40
1.0
 40
1.0
 10
355.0924022254504
 20
442.5497997418813
 30
0.0
 10
355.1288108020901
 20
442.1231984347707
 30
0.0
 10
355.1091568556141
 20
441.7000054573714
 30
0.0
 10
354.9980620174539
 20
441.0700618419991
 30
0.0
 10
354.9467025226571
 20
440.859459401381
 30
0.0
 10
354.8183822465331
 20
440.4503191030176
 30
0.0
 10
354.7415153234716
 20
440.2510985703531
 30
0.0
 10
354.5628851906408
 20
439.8631266381373
 30
0.0
 10
354.4611230392719
 20
439.6743748205957
 30
0.0
 10
354.2319534283882
 20
439.3076449036766
 30
0.0
 10
354.1050320216872
 20
439.130838318057
 30
0.0
 10
353.832720010934
 20
438.797954425409
 30
0.0
 10
353.6865924996243
 20
438.6406515075861
 30
0.0
 10
353.3744035750934
 20
438.3443139633654
 30
0.0
 10
353.2072403244752
 20
438.2044962839394
 30
0.0
 10
352.6824154502335
 20
437.8196113269787
 30
0.0
 10
352.3067667977732
 20
437.611228131878
 30
0.0
 10
351.704789193584
 20
437.3706668411124
 30
0.0
 10
351.4978824299205
 20
437.302994701999
 30
0.0
 10
351.0824853839919
 20
437.195825594713
 30
0.0
 10
350.8725908156517
 20
437.1557180076894
 30
0.0
 10
350.448404457867
 20
437.1024123213007
 30
0.0
 10
350.2327553853298
 20
437.0892435886113
 30
0.0
 10
349.8035936986151
 20
437.0910181942232
 30
0.0
 10
349.591289900154
 20
437.1057553061461
 30
0.0
 10
348.9609973027548
 20
437.1904068644683
 30
0.0
 10
348.5459105473805
 20
437.3019334457087
 30
0.0
 10
348.1515668518497
 20
437.4666099937673
 30
0.0
  0
SPLINE
  5
CA
330
1F
100
AcDbEntity
  8
0
  6
Continuous
 62
     7
370
    15
100
AcDbSpline
210
0.0
220
0.0
230
1.0
 70
     8
 71
     3
 72
    10
 73
     6
 74
     0
 42
0.00000001
 43
0.00000001
 40
0.0
 40
0.0
 40
0.0
 40
0.0
 40
0.5
 40
0.5
 40
1.0
 40
1.0
 40
1.0
 40
1.0
 10
406.6859972930317
 20
472.0887385273628
 30
0.0
 10
407.1097782855022
 20
472.1932660970241
 30
0.0
 10
407.4254180963999
 20
472.2840144624228
 30
0.0
 10
407.8504821596049
 20
472.4084436868511
 30
0.0
 10
407.9598947043976
 20
472.4418080261906
 30
0.0
 10
407.9598985815913
 20
472.4418178048345
 30
0.0
  0
ARC
  5
CB
330
1F
100
AcDbEntity
  8
0
  6
Continuous
 62
     7
370
    15
100
AcDbCircle
 10
412.9598985816
 20
472.4418178048
 30
0.0
 40
4.999999999999973
100
AcDbArc
 50
179.9998121486
 51
269.8078205985
  0
LWPOLYLINE
  5
CC
330
1F
100
AcDbEntity
  8
0
  6
Continuous
 62
     7
370
    15
100
AcDbPolyline
 90
        9
 70
   128
 43
0.0
 10
355.7599177267
 20
391.8613255633
 10
355.7262038495
 20
391.734792353
 10
355.6594839003
 20
391.4843820644
 10
355.5620377566
 20
391.1186442388
 10
355.4371921029
 20
390.650077225
 10
355.2892123963
 20
390.094681145
 10
355.1231501307
 20
389.4714289022
 10
354.9446826484
 20
388.8016105307
 10
354.7599045243
 20
388.1081030381
  0
SPLINE
  5
CD
330
1F
100
AcDbEntity
  8
0
  6
Continuous
 62
     7
370
    15
100
AcDbSpline
210
0.0
220
0.0
230
1.0
 70
     8
 71
     3
 72
    17
 73
    13
 74
     0
 42
0.00000001
 43
0.00000001
 40
0.0
 40
0.0
 40
0.0
 40
0.0
 40
0.0624999999999999
 40
0.0624999999999999
 40
0.1249999999999997
 40
0.1249999999999997
 40
0.1874999999999996
 40
0.1874999999999996
 40
0.2499999999999994
 40
0.4999999999999997
 40
0.4999999999999997
 40
1.0
 40
1.0
 40
1.0
 40
1.0
 10
354.7599053756273
 20
388.1081017491491
 30
0.0
 10
354.2229250466297
 20
388.2511753743683
 30
0.0
 10
353.6897498266051
 20
388.4050145308343
 30
0.0
 10
352.6325945368534
 20
388.7387080455783
 30
0.0
 10
352.1083465267326
 20
388.9178043386596
 30
0.0
 10
351.063547365446
 20
389.2864561917924
 30
0.0
 10
350.5422913946165
 20
389.4740176543904
 30
0.0
 10
349.4990557812232
 20
389.8470931452745
 30
0.0
 10
346.8911979138436
 20
390.7804358947297
 30
0.0
 10
344.2843658177513
 20
391.716680787836
 30
0.0
 10
338.028930826387
 20
393.9663903623223
 30
0.0
 10
333.859918105131
 20
395.4698104453016
 30
0.0
 10
329.689517773963
 20
396.969304659673
 30
0.0
  0
LINE
  5
CE
330
1F
100
AcDbEntity
  8
0
  6
Continuous
 62
     7
370
    15
100
AcDbLine
 10
369.9598991926
 20
483.4413812173
 30
0.0
 11
371.233810639
 21
483.4413812173
 31
0.0
  0
LINE
  5
CF
330
1F
100
AcDbEntity
  8
0
  6
Continuous
 62
     7
370
    15
100
AcDbLine
 10
406.6859977003
 20
483.4413812173
 30
0.0
 11
407.9598979707
 21
483.4413812173
 31
0.0
  0
SPLINE
  5
D0
330
1F
100
AcDbEntity
  8
0
  6
Continuous
 62
     7
370
    15
100
AcDbSpline
210
0.0
220
0.0
230
1.0
 70
     8
 71
     3
 72
    11
 73
     7
 74
     0
 42
0.00000001
 43
0.00000001
 40
0.0
 40
0.0
 40
0.0
 40
0.0
 40
0.0125603783868879
 40
0.0125603783868879
 40
0.0125603783868879
 40
0.0174440201051738
 40
0.0174440201051738
 40
0.0174440201051738
 40
0.0174440201051738
 10
432.1595364393703
 20
466.6309997049574
 30
0.0
 10
436.0649259564228
 20
465.1219713309267
 30
0.0
 10
439.9717280264958
 20
463.6166007951443
 30
0.0
 10
443.8783191582551
 20
462.1106859095038
 30
0.0
 10
445.3972536344022
 20
461.5251662170675
 30
0.0
 10
446.9161553001254
 20
460.9395613159604
 30
0.0
 10
448.4349251411676
 20
460.3536147117381
 30
0.0
  0
SPLINE
  5
D1
330
1F
100
AcDbEntity
  8
0
  6
Continuous
 62
     7
370
    15
100
AcDbSpline
210
0.0
220
0.0
230
1.0
 70
    24
 71
     3
 72
    22
 73
    18
 74
     0
 42
0.00000001
 43
0.00000001
 40
0.0
 40
0.0
 40
0.0
 40
0.0
 40
0.0312499999999992
 40
0.0312499999999992
 40
0.0624999999999983
 40
0.0624999999999983
 40
0.1249999999999978
 40
0.1249999999999978
 40
0.2499999999999981
 40
0.2499999999999981
 40
0.3749999999999984
 40
0.3749999999999984
 40
0.4999999999999988
 40
0.4999999999999988
 40
0.7499999999999994
 40
0.7499999999999994
 40
1.0
 40
1.0
 40
1.0
 40
1.0
 10
419.6780285209828
 20
466.6309997049574
 30
0.0
 10
419.7287694593921
 20
466.6309997049574
 30
0.0
 10
419.8077035533711
 20
466.6309997049574
 30
0.0
 10
419.9920600774428
 20
466.6309997049574
 30
0.0
 10
420.0957873646125
 20
466.6309997049574
 30
0.0
 10
420.4201968379924
 20
466.6309997049574
 30
0.0
 10
420.6575186049042
 20
466.6309997049574
 30
0.0
 10
421.3882551526451
 20
466.6309997049574
 30
0.0
 10
421.8955890938051
 20
466.6309997049574
 30
0.0
 10
422.9253508712428
 20
466.6309997049574
 30
0.0
 10
423.4489734808083
 20
466.6309997049574
 30
0.0
 10
424.5085076768541
 20
466.6309997049574
 30
0.0
 10
425.0456771209533
 20
466.6309997049574
 30
0.0
 10
426.6612230519122
 20
466.6309997049574
 30
0.0
 10
427.747165041175
 20
466.6309997049574
 30
0.0
 10
429.9399373449907
 20
466.6309997049574
 30
0.0
 10
431.0456844956899
 20
466.6309997049574
 30
0.0
 10
432.1595364393704
 20
466.6309997049574
 30
0.0
  0
LWPOLYLINE
  5
D2
330
1F
100
AcDbEntity
  8
0
  6
Continuous
 62
     7
370
    15
100
AcDbPolyline
 90
        9
 70
   128
 43
0.0
 10
357.7876081373
 20
460.241383375
 10
357.6359962728
 20
460.308498205
 10
357.3789326157
 20
460.4223020983
 10
357.0244563426
 20
460.5792299522
 10
356.5836501922
 20
460.7743755592
 10
356.0702977385
 20
461.0016368938
 10
355.5004549827
 20
461.2539061023
 10
354.8919399883
 20
461.5232967449
 10
354.2637852635
 20
461.8013822151
  0
SPLINE
  5
D3
330
1F
100
AcDbEntity
  8
0
  6
Continuous
 62
     7
370
    15
100
AcDbSpline
210
0.0
220
0.0
230
1.0
 70
     8
 71
     3
 72
    12
 73
     8
 74
     0
 42
0.00000001
 43
0.00000001
 40
0.0
 40
0.0
 40
0.0
 40
0.0
 40
0.25
 40
0.25
 40
0.5
 40
0.5
 40
1.0
 40
1.0
 40
1.0
 40
1.0
 10
354.2637835253936
 20
461.8013815153392
 30
0.0
 10
354.4634366129563
 20
462.2523702195984
 30
0.0
 10
354.6835071080264
 20
462.6923868866559
 30
0.0
 10
355.1640605149341
 20
463.5507031374429
 30
0.0
 10
355.4253954146839
 20
463.9701413349433
 30
0.0
 10
356.2628379217026
 20
465.1841848540222
 30
0.0
 10
356.892006762753
 20
465.9362927464257
 30
0.0
 10
357.5922307643282
 20
466.6309997049574
 30
0.0
  0
SPLINE
  5
D4
330
1F
100
AcDbEntity
  8
0
  6
Continuous
 62
     7
370
    15
100
AcDbSpline
210
0.0
220
0.0
230
1.0
 70
    24
 71
     3
 72
    20
 73
    16
 74
     0
 42
0.00000001
 43
0.00000001
 40
0.0
 40
0.0
 40
0.0
 40
0.0
 40
0.2499999999999999
 40
0.2499999999999999
 40
0.4999999999999999
 40
0.4999999999999999
 40
0.6249999999999999
 40
0.6249999999999999
 40
0.7499999999999998
 40
0.7499999999999998
 40
0.8749999999999998
 40
0.8749999999999998
 40
0.9374999999999999
 40
0.9374999999999999
 40
1.0
 40
1.0
 40
1.0
 40
1.0
 10
357.5922307643282
 20
466.6309997049574
 30
0.0
 10
358.2889067514818
 20
466.6309997049574
 30
0.0
 10
358.9702237636429
 20
466.6309997049574
 30
0.0
 10
360.3096198774111
 20
466.6309997049574
 30
0.0
 10
360.9707709310918
 20
466.6309997049574
 30
0.0
 10
361.9094585346276
 20
466.6309997049574
 30
0.0
 10
362.2150097782023
 20
466.6309997049574
 30
0.0
 10
362.8095338970745
 20
466.6309997049574
 30
0.0
 10
363.0995962968086
 20
466.6309997049574
 30
0.0
 10
363.6521240463929
 20
466.6309997049574
 30
0.0
 10
363.9132856406269
 20
466.6309997049574
 30
0.0
 10
364.2524476264852
 20
466.6309997049574
 30
0.0
 10
364.3550794948196
 20
466.6309997049574
 30
0.0
 10
364.5275640305957
 20
466.6309997049574
 30
0.0
 10
364.5968750989973
 20
466.6309997049574
 30
0.0
 10
364.6361747788873
 20
466.6309997049574
 30
0.0
  0
SPLINE
  5
D5
330
1F
100
AcDbEntity
  8
0
  6
Continuous
 62
     7
370
    15
100
AcDbSpline
210
0.0
220
0.0
230
1.0
 70
     8
 71
     3
 72
    10
 73
     6
 74
     0
 42
0.00000001
 43
0.00000001
 40
0.0
 40
0.0
 40
0.0
 40
0.0
 40
0.4999999999999998
 40
0.4999999999999998
 40
1.0
 40
1.0
 40
1.0
 40
1.0
 10
448.4349251411676
 20
460.3536147117381
 30
0.0
 10
449.2179112949954
 20
460.0515359730179
 30
0.0
 10
450.014818137389
 20
459.8140442255202
 30
0.0
 10
451.6356522641656
 20
459.4644258689906
 30
0.0
 10
452.4595782469939
 20
459.3522932212137
 30
0.0
 10
453.2975965746837
 20
459.3055439881699
 30
0.0
  0
SPLINE
  5
D6
330
1F
100
AcDbEntity
  8
0
  6
Continuous
 62
     7
370
    15
100
AcDbSpline
210
0.0
220
0.0
230
1.0
 70
     8
 71
     3
 72
    10
 73
     6
 74
     0
 42
0.00000001
 43
0.00000001
 40
0.0
 40
0.0
 40
0.0
 40
0.0
 40
0.499999999999998
 40
0.499999999999998
 40
1.0
 40
1.0
 40
1.0
 40
1.0
 10
329.689517773963
 20
396.969304659673
 30
0.0
 10
328.8774138880074
 20
397.2613018258343
 30
0.0
 10
328.0524451678926
 20
397.484103554731
 30
0.0
 10
326.3776007675092
 20
397.7957411970735
 30
0.0
 10
325.5277260052238
 20
397.8845820480309
 30
0.0
 10
324.6648497243698
 20
397.9034922841561
 30
0.0
  0
LINE
  5
D7
330
1F
100
AcDbEntity
  8
0
  6
Continuous
 62
     7
370
    15
100
AcDbLine
 10
462.9598995354
 20
399.2337067289
 30
0.0
 11
459.0599005725
 21
399.2337067289
 31
0.0
  0
SPLINE
  5
D8
330
1F
100
AcDbEntity
  8
0
  6
Continuous
 62
     7
370
    15
100
AcDbSpline
210
0.0
220
0.0
230
1.0
 70
     8
 71
     3
 72
    14
 73
    10
 74
     0
 42
0.00000001
 43
0.00000001
 40
0.0
 40
0.0
 40
0.0
 40
0.0
 40
0.25
 40
0.25
 40
0.5
 40
0.5
 40
0.75
 40
0.75
 40
1.0
 40
1.0
 40
1.0
 40
1.0
 10
459.0598985816935
 20
399.2337063587879
 30
0.0
 10
459.0598985816935
 20
399.3292754510425
 30
0.0
 10
459.0480768027674
 20
399.4228233510632
 30
0.0
 10
459.0015181808622
 20
399.6060013186197
 30
0.0
 10
458.9662894099226
 20
399.6957161383445
 30
0.0
 10
458.8759199141596
 20
399.8611686470877
 30
0.0
 10
458.8195300124109
 20
399.9392304008576
 30
0.0
 10
458.6900677454236
 20
400.0771559957997
 30
0.0
 10
458.6173961079046
 20
400.1372495398455
 30
0.0
 10
458.5364058342745
 20
400.188051470716
 30
0.0
  0
LWPOLYLINE
  5
D9
330
1F
100
AcDbEntity
  8
0
  6
Continuous
 62
     7
370
    15
100
AcDbPolyline
 90
        9
 70
   128
 43
0.0
 10
460.5803852584
 20
403.4466393901
 10
460.4892125036
 20
403.3012897385
 10
460.3379582669
 20
403.0601479722
 10
460.13126426
 20
402.7306330068
 10
459.8755007293
 20
402.3228850824
 10
459.5785354878
 20
401.8494472516
 10
459.2494954969
 20
401.3248891247
 10
458.8985209968
 20
400.7653523845
 10
458.5364078786
 20
400.1880515976
  0
LWPOLYLINE
  5
DA
330
1F
100
AcDbEntity
  8
0
  6
Continuous
 62
     7
370
    15
100
AcDbPolyline
 90
        9
 70
   128
 43
0.0
 10
320.06166034
 20
401.83123617
 10
320.0578456428
 20
401.6472515327
 10
320.0517957713
 20
401.3551831854
 10
320.0436746385
 20
400.9636942906
 10
320.0337355639
 20
400.4843965781
 10
320.0222691204
 20
399.9315076185
 10
320.0096180346
 20
399.3214224143
 10
319.996162286
 20
398.6722402883
 10
319.9822893049
 20
398.003213541
  0
SPLINE
  5
DB
330
1F
100
AcDbEntity
  8
0
  6
Continuous
 62
     7
370
    15
100
AcDbSpline
210
0.0
220
0.0
230
1.0
 70
     8
 71
     3
 72
    14
 73
    10
 74
     0
 42
0.00000001
 43
0.00000001
 40
0.0
 40
0.0
 40
0.0
 40
0.0
 40
0.2499999999999987
 40
0.2499999999999987
 40
0.4999999999999973
 40
0.4999999999999973
 40
0.749999999999996
 40
0.749999999999996
 40
1.0
 40
1.0
 40
1.0
 40
1.0
 10
319.9822868543581
 20
398.0032132185443
 30
0.0
 10
319.833808351813
 20
398.0062920190098
 30
0.0
 10
319.6857676471495
 20
397.9782291362176
 30
0.0
 10
319.4148621720704
 20
397.8675323716439
 30
0.0
 10
319.2895646122969
 20
397.7836295344634
 30
0.0
 10
319.0829780393726
 20
397.575530374948
 30
0.0
 10
319.0002925122187
 20
397.4504911202991
 30
0.0
 10
318.888673746756
 20
397.1777868459639
 30
0.0
 10
318.8598985816928
 20
397.0321517086866
 30
0.0
 10
318.8598985816935
 20
396.8837170403554
 30
0.0
  0
LINE
  5
DC
330
1F
100
AcDbEntity
  8
0
  6
Continuous
 62
     7
370
    15
100
AcDbLine
 10
314.959897628
 20
396.8837172402
 30
0.0
 11
318.8598965909
 21
396.8837172402
 31
0.0
  0
SPLINE
  5
DD
330
1F
100
AcDbEntity
  8
0
  6
Continuous
 62
     7
370
    15
100
AcDbSpline
210
0.0
220
0.0
230
1.0
 70
     8
 71
     3
 72
    14
 73
    10
 74
     0
 42
0.00000001
 43
0.00000001
 40
0.0
 40
0.0
 40
0.0
 40
0.0
 40
0.25
 40
0.25
 40
0.5
 40
0.5
 40
0.75
 40
0.75
 40
1.0
 40
1.0
 40
1.0
 40
1.0
 10
457.9014032114403
 20
459.0526334184223
 30
0.0
 10
458.0526215810104
 20
459.0444452140515
 30
0.0
 10
458.2043847262529
 20
459.068564079314
 30
0.0
 10
458.4835052578323
 20
459.174299150361
 30
0.0
 10
458.6132556629476
 20
459.2571780112467
 30
0.0
 10
458.8274088544268
 20
459.4654452263206
 30
0.0
 10
458.9136177244934
 20
459.592106436281
 30
0.0
 10
459.0298007968251
 20
459.8688983314402
 30
0.0
 10
459.0598985816938
 20
460.0175537495365
 30
0.0
 10
459.0598985816935
 20
460.168923399035
 30
0.0
  0
LINE
  5
DE
330
1F
100
AcDbEntity
  8
0
  6
Continuous
 62
     7
370
    15
100
AcDbLine
 10
459.0599005725
 20
460.1689227534
 30
0.0
 11
462.9598995354
 21
460.1689227534
 31
0.0
  0
LWPOLYLINE
  5
DF
330
1F
100
AcDbEntity
  8
0
  6
Continuous
 62
     7
370
    15
100
AcDbPolyline
 90
        9
 70
   128
 43
0.0
 10
457.9014023449
 20
459.0526339275
 10
457.8649764564
 20
458.3798967911
 10
457.8296458032
 20
457.7273879809
 10
457.7964683678
 20
457.1147267384
 10
457.7664499785
 20
456.5603346241
 10
457.7404847052
 20
456.0808841748
 10
457.7193623092
 20
455.6907866759
 10
457.7037160899
 20
455.4017767919
 10
457.6940079834
 20
455.2225400371
  0
LINE
  5
E0
330
1F
100
AcDbEntity
  8
0
  6
Continuous
 62
     7
370
    15
100
AcDbLine
 10
314.959897628
 20
457.6102872057
 30
0.0
 11
318.8598965909
 21
457.6102872057
 31
0.0
  0
SPLINE
  5
E1
330
1F
100
AcDbEntity
  8
0
  6
Continuous
 62
     7
370
    15
100
AcDbSpline
210
0.0
220
0.0
230
1.0
 70
     8
 71
     3
 72
    14
 73
    10
 74
     0
 42
0.00000001
 43
0.00000001
 40
0.0
 40
0.0
 40
0.0
 40
0.0
 40
0.25
 40
0.25
 40
0.5
 40
0.5
 40
0.75
 40
0.75
 40
1.0
 40
1.0
 40
1.0
 40
1.0
 10
318.8598985816935
 20
457.6102880951523
 30
0.0
 10
318.8598985816935
 20
457.5157865005968
 30
0.0
 10
318.8714508900609
 20
457.4231880958436
 30
0.0
 10
318.9170339851918
 20
457.2416945125233
 30
0.0
 10
318.9514518509183
 20
457.1529522205229
 30
0.0
 10
319.0398479209882
 20
456.9888289521737
 30
0.0
 10
319.0950621300719
 20
456.9111989041606
 30
0.0
 10
319.2218221930711
 20
456.773717786102
 30
0.0
 10
319.2930600021401
 20
456.7135440124401
 30
0.0
 10
319.3725390503553
 20
456.6623550854863
 30
0.0
  0
LWPOLYLINE
  5
E2
330
1F
100
AcDbEntity
  8
0
  6
Continuous
 62
     7
370
    15
100
AcDbPolyline
 90
        9
 70
   128
 43
0.0
 10
317.2900816109
 20
453.4290064735
 10
317.3832585718
 20
453.5736818475
 10
317.537560096
 20
453.8132571293
 10
317.7482401635
 20
454.1403711451
 10
318.0088242199
 20
454.5449730618
 10
318.3113103415
 20
455.0146315856
 10
318.6464076545
 20
455.5349149419
 10
319.0038045551
 20
456.0898397727
 10
319.3725412395
 20
456.6623554242
  0
LINE
  5
E3
330
1F
100
AcDbEntity
  8
0
  6
Continuous
 62
     7
370
    15
100
AcDbLine
 10
459.0599005725
 20
460.1689227534
 30
0.0
 11
459.0599005725
 21
466.6310012949
 31
0.0
  0
LINE
  5
E4
330
1F
100
AcDbEntity
  8
0
  6
Continuous
 62
     7
370
    15
100
AcDbLine
 10
459.0599005725
 20
466.6310012949
 30
0.0
 11
462.9598995354
 21
466.6310012949
 31
0.0
  0
SPLINE
  5
E5
330
1F
100
AcDbEntity
  8
0
  6
Continuous
 62
     7
370
    15
100
AcDbSpline
210
0.0
220
0.0
230
1.0
 70
     8
 71
     3
 72
    22
 73
    18
 74
     0
 42
0.00000001
 43
0.00000001
 40
0.0
 40
0.0
 40
0.0
 40
0.0
 40
0.062499999999998
 40
0.062499999999998
 40
0.1249999999999959
 40
0.1249999999999959
 40
0.2499999999999957
 40
0.2499999999999957
 40
0.4999999999999971
 40
0.4999999999999971
 40
0.6249999999999978
 40
0.6249999999999978
 40
0.7499999999999986
 40
0.7499999999999986
 40
0.8749999999999992
 40
0.8749999999999992
 40
1.0
 40
1.0
 40
1.0
 40
1.0
 10
314.9598985816935
 20
368.7321694957522
 30
0.0
 10
314.9598985816935
 20
368.7226601667204
 30
0.0
 10
314.9635644875109
 20
368.7405984408938
 30
0.0
 10
314.9765060141982
 20
368.8043385415331
 30
0.0
 10
314.9855849397458
 20
368.8472255985295
 30
0.0
 10
315.0199492188706
 20
368.9839572101224
 30
0.0
 10
315.0524345123073
 20
369.0862786669487
 30
0.0
 10
315.1769169508232
 20
369.3869239085908
 30
0.0
 10
315.2957561645916
 20
369.585332749238
 30
0.0
 10
315.5392791171954
 20
369.8581803988536
 30
0.0
 10
315.6320298662201
 20
369.9454278795243
 30
0.0
 10
315.8379562129977
 20
370.1037134769255
 30
0.0
 10
315.951536886653
 20
370.1754374682945
 30
0.0
 10
316.2038457827609
 20
370.2988654497638
 30
0.0
 10
316.3418457052083
 20
370.3498506115861
 30
0.0
 10
316.6351121022734
 20
370.4207260106259
 30
0.0
 10
316.7914337221938
 20
370.4413815153392
 30
0.0
 10
316.9592268316599
 20
370.4413815153392
 30
0.0
  0
LINE
  5
E6
330
1F
100
AcDbEntity
  8
0
  6
Continuous
 62
     7
370
    15
100
AcDbLine
 10
318.8598965909
 20
396.8837172402
 30
0.0
 11
318.8598965909
 21
370.4413831843
 31
0.0
  0
LINE
  5
E7
330
1F
100
AcDbEntity
  8
0
  6
Continuous
 62
     7
370
    15
100
AcDbLine
 10
318.8598965909
 20
370.4413831843
 30
0.0
 11
316.9592236783
 21
370.4413831843
 31
0.0
  0
SPLINE
  5
E8
330
1F
100
AcDbEntity
  8
0
  6
Continuous
 62
     7
370
    15
100
AcDbSpline
210
0.0
220
0.0
230
1.0
 70
     8
 71
     3
 72
    20
 73
    16
 74
     0
 42
0.00000001
 43
0.00000001
 40
0.0
 40
0.0
 40
0.0
 40
0.0
 40
0.1250000000000002
 40
0.1250000000000002
 40
0.2500000000000003
 40
0.2500000000000003
 40
0.5000000000000004
 40
0.5000000000000004
 40
0.7500000000000003
 40
0.7500000000000003
 40
0.874999999999999
 40
0.874999999999999
 40
0.9374999999999994
 40
0.9374999999999994
 40
1.0
 40
1.0
 40
1.0
 40
1.0
 10
446.9598985816935
 20
351.4407097653056
 30
0.0
 10
446.9598985816935
 20
351.2728160329265
 30
0.0
 10
446.9805754187749
 20
351.1164746446684
 30
0.0
 10
447.0514553216514
 20
350.8232538785865
 30
0.0
 10
447.1024113067497
 20
350.6853307381783
 30
0.0
 10
447.2876031868837
 20
350.3067797953664
 30
0.0
 10
447.4498491419921
 20
350.1042607482284
 30
0.0
 10
447.8157647167938
 20
349.7771335492417
 30
0.0
 10
448.0147069040569
 20
349.6582318039949
 30
0.0
 10
448.3151062083635
 20
349.5338855115866
 30
0.0
 10
448.4167661290342
 20
349.5015792037271
 30
0.0
 10
448.5540957478704
 20
349.4670539539507
 30
0.0
 10
448.5971363430804
 20
349.4579484770186
 30
0.0
 10
448.660912012362
 20
349.4450015787293
 30
0.0
 10
448.678564972843
 20
349.4413815153392
 30
0.0
 10
448.6691106012806
 20
349.4413815153392
 30
0.0
  0
LWPOLYLINE
  5
E9
330
1F
100
AcDbEntity
  8
0
  6
Continuous
 62
     7
370
    15
100
AcDbPolyline
 90
        3
 70
   128
 43
0.0
 10
448.9593794252
 20
349.4413778795
 10
448.5692707505
 20
349.4798973811
 10
448.3302300479
 20
349.5430857552
  0
LINE
  5
EA
330
1F
100
AcDbEntity
  8
0
  6
Continuous
 62
     7
370
    15
100
AcDbLine
 10
446.9598969128
 20
353.3413842929
 30
0.0
 11
446.9598969128
 21
351.4407113803
 31
0.0
  0
LINE
  5
EB
330
1F
100
AcDbEntity
  8
0
  6
Continuous
 62
     7
370
    15
100
AcDbLine
 10
318.8598965909
 20
466.6310012949
 30
0.0
 11
318.8598965909
 21
457.6102872057
 31
0.0
  0
LINE
  5
EC
330
1F
100
AcDbEntity
  8
0
  6
Continuous
 62
     7
370
    15
100
AcDbLine
 10
314.959897628
 20
466.6310012949
 30
0.0
 11
318.8598965909
 21
466.6310012949
 31
0.0
  0
SPLINE
  5
ED
330
1F
100
AcDbEntity
  8
0
  6
Continuous
 62
     7
370
    15
100
AcDbSpline
210
0.0
220
0.0
230
1.0
 70
     8
 71
     3
 72
    20
 73
    16
 74
     0
 42
0.00000001
 43
0.00000001
 40
0.0
 40
0.0
 40
0.0
 40
0.0
 40
0.1249999999999994
 40
0.1249999999999994
 40
0.2499999999999988
 40
0.2499999999999988
 40
0.4999999999999992
 40
0.4999999999999992
 40
0.7499999999999998
 40
0.7499999999999998
 40
0.8749999999999999
 40
0.8749999999999999
 40
0.9375
 40
0.9375
 40
1.0
 40
1.0
 40
1.0
 40
1.0
 10
330.9598985816935
 20
351.4407097653056
 30
0.0
 10
330.9598985816935
 20
351.2728160329265
 30
0.0
 10
330.939221744612
 20
351.1164746446684
 30
0.0
 10
330.8683418417356
 20
350.8232538785865
 30
0.0
 10
330.8173858566373
 20
350.6853307381784
 30
0.0
 10
330.6321939765033
 20
350.3067797953664
 30
0.0
 10
330.4699480213949
 20
350.1042607482285
 30
0.0
 10
330.1040324465933
 20
349.7771335492418
 30
0.0
 10
329.9050902593302
 20
349.6582318039949
 30
0.0
 10
329.6046909550236
 20
349.5338855115866
 30
0.0
 10
329.5030310343528
 20
349.5015792037271
 30
0.0
 10
329.3657014155166
 20
349.4670539539507
 30
0.0
 10
329.3226608203066
 20
349.4579484770186
 30
0.0
 10
329.2588851510249
 20
349.4450015787294
 30
0.0
 10
329.2412321905439
 20
349.4413815153392
 30
0.0
 10
329.2506865621064
 20
349.4413815153392
 30
0.0
  0
LINE
  5
EE
330
1F
100
AcDbEntity
  8
0
  6
Continuous
 62
     7
370
    15
100
AcDbLine
 10
330.9599002506
 20
351.4407113803
 30
0.0
 11
330.9599002506
 21
353.3413842929
 31
0.0
  0
LINE
  5
EF
330
1F
100
AcDbEntity
  8
0
  6
Continuous
 62
     7
370
    15
100
AcDbLine
 10
460.9605734851
 20
370.4413831843
 30
0.0
 11
459.0599005725
 21
370.4413831843
 31
0.0
  0
LINE
  5
F0
330
1F
100
AcDbEntity
  8
0
  6
Continuous
 62
     7
370
    15
100
AcDbLine
 10
459.0599005725
 20
370.4413831843
 30
0.0
 11
459.0599005725
 21
399.2337067289
 31
0.0
  0
SPLINE
  5
F1
330
1F
100
AcDbEntity
  8
0
  6
Continuous
 62
     7
370
    15
100
AcDbSpline
210
0.0
220
0.0
230
1.0
 70
     8
 71
     3
 72
    22
 73
    18
 74
     0
 42
0.00000001
 43
0.00000001
 40
0.0
 40
0.0
 40
0.0
 40
0.0
 40
0.0624999999999989
 40
0.0624999999999989
 40
0.1249999999999977
 40
0.1249999999999977
 40
0.2499999999999966
 40
0.2499999999999966
 40
0.4999999999999962
 40
0.4999999999999962
 40
0.6249999999999971
 40
0.6249999999999971
 40
0.7499999999999981
 40
0.7499999999999981
 40
0.874999999999999
 40
0.874999999999999
 40
1.0
 40
1.0
 40
1.0
 40
1.0
 10
462.9598985816935
 20
368.7321694957521
 30
0.0
 10
462.9598985816935
 20
368.7226601667203
 30
0.0
 10
462.9562326758761
 20
368.7405984408938
 30
0.0
 10
462.9432911491888
 20
368.804338541533
 30
0.0
 10
462.9342122236412
 20
368.8472255985295
 30
0.0
 10
462.8998479445164
 20
368.9839572101224
 30
0.0
 10
462.8673626510796
 20
369.0862786669487
 30
0.0
 10
462.7428802125638
 20
369.3869239085908
 30
0.0
 10
462.6240409987954
 20
369.585332749238
 30
0.0
 10
462.3805180461916
 20
369.8581803988536
 30
0.0
 10
462.2877672971669
 20
369.9454278795243
 30
0.0
 10
462.0818409503894
 20
370.1037134769255
 30
0.0
 10
461.968260276734
 20
370.1754374682945
 30
0.0
 10
461.7159513806261
 20
370.2988654497638
 30
0.0
 10
461.5779514581787
 20
370.3498506115861
 30
0.0
 10
461.2846850611136
 20
370.420726010626
 30
0.0
 10
461.1283634411932
 20
370.4413815153392
 30
0.0
 10
460.9605703317271
 20
370.4413815153392
 30
0.0
  0
LINE
  5
F2
330
1F
100
AcDbEntity
  8
0
  6
Continuous
 62
     7
370
    15
100
AcDbLine
 10
359.4177486058
 20
387.0538943125
 30
0.0
 11
355.5772667434
 21
387.0538943125
 31
0.0
  0
SPLINE
  5
F3
330
1F
100
AcDbEntity
  8
0
  6
Continuous
 62
     7
370
    15
100
AcDbSpline
210
0.0
220
0.0
230
1.0
 70
     8
 71
     3
 72
    10
 73
     6
 74
     0
 42
0.00000001
 43
0.00000001
 40
0.0
 40
0.0
 40
0.0
 40
0.0
 40
0.5
 40
0.5
 40
1.0
 40
1.0
 40
1.0
 40
1.0
 10
355.5772683677635
 20
387.0538938265693
 30
0.0
 10
355.5772683677634
 20
387.2952342623603
 30
0.0
 10
355.495615105646
 20
387.5310879262909
 30
0.0
 10
355.2001725897157
 20
387.9099420442373
 30
0.0
 10
354.9930322060691
 20
388.0459871818811
 30
0.0
 10
354.7599053756273
 20
388.1081017491491
 30
0.0
  0
LWPOLYLINE
  5
F4
330
1F
100
AcDbEntity
  8
0
  6
Continuous
 62
     7
370
    15
100
AcDbPolyline
 90
        9
 70
   128
 43
0.0
 10
420.766825756
 20
398.1747147305
 10
420.921522161
 20
398.1150542063
 10
421.1838198509
 20
398.0138976736
 10
421.5455157365
 20
397.874406041
 10
421.9952961113
 20
397.7009434862
 10
422.5190980043
 20
397.4989340318
 10
423.1005413141
 20
397.2746939076
 10
423.7214428987
 20
397.0352359725
 10
424.3623902704
 20
396.78804806
  0
SPLINE
  5
F5
330
1F
100
AcDbEntity
  8
0
  6
Continuous
 62
     7
370
    15
100
AcDbSpline
210
0.0
220
0.0
230
1.0
 70
     8
 71
     3
 72
     8
 73
     4
 74
     0
 42
0.00000001
 43
0.00000001
 40
0.0
 40
0.0
 40
0.0
 40
0.0
 40
1.0
 40
1.0
 40
1.0
 40
1.0
 10
424.3623912748484
 20
396.7880481820059
 30
0.0
 10
423.8955813767535
 20
395.5776306522401
 30
0.0
 10
423.2883742532312
 20
394.4422550509684
 30
0.0
 10
422.5415912697258
 20
393.3814823606334
 30
0.0
  0
LWPOLYLINE
  5
F6
330
1F
100
AcDbEntity
  8
0
  6
Continuous
 62
     7
370
    15
100
AcDbPolyline
 90
        9
 70
   128
 43
0.0
 10
429.7645194139
 20
418.7714629484
 10
429.704694977
 20
418.6317291719
 10
429.5974252429
 20
418.3811708031
 10
429.4461859073
 20
418.0279173566
 10
429.255886903
 20
417.583426894
 10
429.0327010359
 20
417.0621209455
 10
428.7838702704
 20
416.4809095351
 10
428.5174635853
 20
415.8586482195
 10
428.2421236541
 20
415.2155234156
  0
SPLINE
  5
F7
330
1F
100
AcDbEntity
  8
0
  6
Continuous
 62
     7
370
    15
100
AcDbSpline
210
0.0
220
0.0
230
1.0
 70
     8
 71
     3
 72
    22
 73
    18
 74
     0
 42
0.00000001
 43
0.00000001
 40
0.0
 40
0.0
 40
0.0
 40
0.0
 40
0.125
 40
0.125
 40
0.25
 40
0.25
 40
0.375
 40
0.375
 40
0.5
 40
0.5
 40
0.625
 40
0.625
 40
0.75
 40
0.75
 40
0.875
 40
0.875
 40
1.0
 40
1.0
 40
1.0
 40
1.0
 10
428.2421222581101
 20
415.2155233936835
 30
0.0
 10
428.1544786775261
 20
415.2530460590519
 30
0.0
 10
428.0630166048729
 20
415.2793890836837
 30
0.0
 10
427.8770305801646
 20
415.3086990478055
 30
0.0
 10
427.7807433506129
 20
415.3116451224523
 30
0.0
 10
427.5933034952598
 20
415.2930532136984
 30
0.0
 10
427.5001084197387
 20
415.2714619490793
 30
0.0
 10
427.3229986098837
 20
415.2046178781986
 30
0.0
 10
427.2401012568494
 20
415.1601346160454
 30
0.0
 10
427.0859530098843
 20
415.0483977969234
 30
0.0
 10
427.0175917960204
 20
414.9830974137122
 30
0.0
 10
426.8995726187629
 20
414.8360056355874
 30
0.0
 10
426.8499171375809
 20
414.7535718664702
 30
0.0
 10
426.7747360902434
 20
414.5813567400772
 30
0.0
 10
426.7480581348031
 20
414.4890335649886
 30
0.0
 10
426.7192119610886
 20
414.3025241797132
 30
0.0
 10
426.7165968014066
 20
414.208453154207
 30
0.0
 10
426.7258234320815
 20
414.1135634547302
 30
0.0
  0
LWPOLYLINE
  5
F8
330
1F
100
AcDbEntity
  8
0
  6
Continuous
 62
     7
370
    15
100
AcDbPolyline
 90
        9
 70
   128
 43
0.0
 10
422.8902225997
 20
413.7406074119
 10
423.0552455093
 20
413.7566540999
 10
423.3350557889
 20
413.7838608263
 10
423.720895281
 20
413.8213782249
 10
424.2007014956
 20
413.8680328292
 10
424.7594726886
 20
413.9223643256
 10
425.3797335233
 20
413.9826758442
 10
426.0420864131
 20
414.0470805255
 10
426.7258224692
 20
414.1135639188
  0
LWPOLYLINE
  5
F9
330
1F
100
AcDbEntity
  8
0
  6
Continuous
 62
     7
370
    15
100
AcDbPolyline
 90
        9
 70
   128
 43
0.0
 10
348.1515673604
 20
437.4666097251
 10
348.2138057854
 20
437.6055416328
 10
348.3252999987
 20
437.8544115139
 10
348.4824252929
 20
438.2051503894
 10
348.6800966467
 20
438.6463886736
 10
348.9119028356
 20
439.1638193888
 10
349.1703262236
 20
439.740667553
 10
349.4469886329
 20
440.3582312775
 10
349.7329232897
 20
440.996487127
  0
SPLINE
  5
FA
330
1F
100
AcDbEntity
  8
0
  6
Continuous
 62
     7
370
    15
100
AcDbSpline
210
0.0
220
0.0
230
1.0
 70
     8
 71
     3
 72
    16
 73
    12
 74
     0
 42
0.00000001
 43
0.00000001
 40
0.0
 40
0.0
 40
0.0
 40
0.0
 40
0.2499999999999995
 40
0.2499999999999995
 40
0.499999999999999
 40
0.499999999999999
 40
0.7499999999999984
 40
0.7499999999999984
 40
0.8749999999999992
 40
0.8749999999999992
 40
1.0
 40
1.0
 40
1.0
 40
1.0
 10
349.7329224250041
 20
440.9964872784964
 30
0.0
 10
349.9098822290696
 20
440.9172107626832
 30
0.0
 10
350.1053564342636
 20
440.8835727417856
 30
0.0
 10
350.4874409875791
 20
440.91792254155
 30
0.0
 10
350.6734527928666
 20
440.9861661414558
 30
0.0
 10
350.9861820461687
 20
441.2130201150648
 30
0.0
 10
351.1092912991232
 20
441.3697360781741
 30
0.0
 10
351.2212522656002
 20
441.6335950464164
 30
0.0
 10
351.2472006644932
 20
441.727760402978
 30
0.0
 10
351.27384266619
 20
441.9178802051348
 30
0.0
 10
351.2749697531287
 20
442.0135673662577
 30
0.0
 10
351.263902637337
 20
442.1098818022767
 30
0.0
  0
LWPOLYLINE
  5
FB
330
1F
100
AcDbEntity
  8
0
  6
Continuous
 62
     7
370
    15
100
AcDbPolyline
 90
        9
 70
   128
 43
0.0
 10
355.0924015846
 20
442.5498000024
 10
354.9276841487
 20
442.5308727337
 10
354.6483954098
 20
442.4987802891
 10
354.2632674481
 20
442.4545275656
 10
353.7843478527
 20
442.399496646
 10
353.2266122903
 20
442.3354095457
 10
352.6074988451
 20
442.2642695395
 10
351.9463715758
 20
442.1883015571
 10
351.2639021184
 20
442.1098814023
  0
SPLINE
  5
FC
330
1F
100
AcDbEntity
  8
0
  6
Continuous
 62
     7
370
    15
100
AcDbSpline
210
0.0
220
0.0
230
1.0
 70
     8
 71
     3
 72
     8
 73
     4
 74
     0
 42
0.00000001
 43
0.00000001
 40
0.0
 40
0.0
 40
0.0
 40
0.0
 40
1.0
 40
1.0
 40
1.0
 40
1.0
 10
422.5415912697258
 20
393.3814823606334
 30
0.0
 10
422.4123606945723
 20
393.1979159592733
 30
0.0
 10
422.3425287956236
 20
392.9792159792157
 30
0.0
 10
422.3425287956236
 20
392.7546968845216
 30
0.0
  0
SPLINE
  5
FD
330
1F
100
AcDbEntity
  8
0
  6
Continuous
 62
     7
370
    15
100
AcDbSpline
210
0.0
220
0.0
230
1.0
 70
     8
 71
     3
 72
     8
 73
     4
 74
     0
 42
0.00000001
 43
0.00000001
 40
0.0
 40
0.0
 40
0.0
 40
0.0
 40
1.0
 40
1.0
 40
1.0
 40
1.0
 10
449.2192536078022
 20
406.0259311559636
 30
0.0
 10
448.5237274700983
 20
406.4611552757926
 30
0.0
 10
447.7989202970969
 20
406.8404047136281
 30
0.0
 10
447.044716251589
 20
407.163458030888
 30
0.0
  0
LWPOLYLINE
  5
FE
330
1F
100
AcDbEntity
  8
0
  6
Continuous
 62
     7
370
    15
100
AcDbPolyline
 90
        9
 70
   128
 43
0.0
 10
326.7105733659
 20
447.3686073584
 10
326.8056837525
 20
447.5163467837
 10
326.9611140396
 20
447.7577996118
 10
327.1721480097
 20
448.0856214327
 10
327.4323632624
 20
448.4898452324
 10
327.7338510062
 20
448.9581794155
 10
328.0674395766
 20
449.4763840599
 10
328.4229924585
 20
450.0287049127
 10
328.7896914091
 20
450.5983446402
  0
SPLINE
  5
FF
330
1F
100
AcDbEntity
  8
0
  6
Continuous
 62
     7
370
    15
100
AcDbSpline
210
0.0
220
0.0
230
1.0
 70
     8
 71
     3
 72
     8
 73
     4
 74
     0
 42
0.00000001
 43
0.00000001
 40
0.0
 40
0.0
 40
0.0
 40
0.0
 40
1.0
 40
1.0
 40
1.0
 40
1.0
 10
328.7896923082085
 20
450.5983439401334
 30
0.0
 10
329.4582143084204
 20
450.167988305018
 30
0.0
 10
330.1550273807458
 20
449.7897724296095
 30
0.0
 10
330.8802882016311
 20
449.4639850647978
 30
0.0
  0
LWPOLYLINE
  5
100
330
1F
100
AcDbEntity
  8
0
  6
Continuous
 62
     7
370
    15
100
AcDbPolyline
 90
        9
 70
   128
 43
0.0
 10
329.3093582298
 20
445.9668122841
 10
329.3834356274
 20
446.131723435
 10
329.502350619
 20
446.3964462889
 10
329.6625343766
 20
446.7530497027
 10
329.8591961767
 20
447.1908551318
 10
330.0864426102
 20
447.6967458291
 10
330.3374675717
 20
448.2555710388
 10
330.6047534253
 20
448.8505911691
 10
330.8802870717
 20
449.4639844311
  0
LINE
  5
101
330
1F
100
AcDbEntity
  8
0
  6
Continuous
 62
     7
370
    15
100
AcDbLine
 10
447.0447180476
 20
407.1634583784
 30
0.0
 11
428.2421236541
 21
415.2155234156
 31
0.0
  0
SPLINE
  5
102
330
1F
100
AcDbEntity
  8
0
  6
Continuous
 62
     7
370
    15
100
AcDbSpline
210
0.0
220
0.0
230
1.0
 70
     8
 71
     3
 72
    11
 73
     7
 74
     0
 42
0.00000001
 43
0.00000001
 40
0.0
 40
0.0
 40
0.0
 40
0.0
 40
0.0157348923174815
 40
0.0157348923174815
 40
0.0157348923174815
 40
0.0206668907700415
 40
0.0206668907700415
 40
0.0206668907700415
 40
0.0206668907700415
 10
330.8802882016311
 20
449.4639850647978
 30
0.0
 10
335.6647145453166
 20
447.3148194049978
 30
0.0
 10
340.4477227996917
 20
445.162496659418
 30
0.0
 10
345.2327390909782
 20
443.0146448108169
 30
0.0
 10
346.732570994218
 20
442.34141476731
 30
0.0
 10
348.2325984122126
 20
441.6686199187524
 30
0.0
 10
349.7329224250041
 20
440.9964872784964
 30
0.0
  0
ARC
  5
103
330
1F
100
AcDbEntity
  8
0
  6
Continuous
 62
     7
370
    15
100
AcDbCircle
 10
388.9598985817
 20
410.4413815153
 30
0.0
 40
37.94403773980837
100
AcDbArc
 50
338.9103567992
 51
5.5537146802
  0
ARC
  5
104
330
1F
100
AcDbEntity
  8
0
  6
Continuous
 62
     7
370
    15
100
AcDbCircle
 10
388.9598985817
 20
446.4413815153
 30
0.0
 40
37.94403773980839
100
AcDbArc
 50
156.1209866224
 51
186.5548862433
  0
SPLINE
  5
105
330
1F
100
AcDbEntity
  8
0
  6
Continuous
 62
     7
370
    15
100
AcDbSpline
210
0.0
220
0.0
230
1.0
 70
     8
 71
     3
 72
    11
 73
     7
 74
     0
 42
0.00000001
 43
0.00000001
 40
0.0
 40
0.0
 40
0.0
 40
0.0
 40
0.0054975042610118
 40
0.0054975042610118
 40
0.0054975042610118
 40
0.0109950068346933
 40
0.0109950068346933
 40
0.0109950068346933
 40
0.0109950068346933
 10
458.5364058342745
 20
400.188051470716
 30
0.0
 10
456.9840263413791
 20
401.1617964915382
 30
0.0
 10
455.4314524672189
 20
402.135231743919
 30
0.0
 10
453.8786178083977
 20
403.1082507457385
 30
0.0
 10
452.3257836471878
 20
404.0812694357507
 30
0.0
 10
450.7726887178967
 20
405.0538721752123
 30
0.0
 10
449.2192536078022
 20
406.0259311559635
 30
0.0
  0
LWPOLYLINE
  5
106
330
1F
100
AcDbEntity
  8
0
  6
Continuous
 62
     7
370
    15
100
AcDbPolyline
 90
        3
 70
   128
 43
0.0
 10
319.3725412395
 20
456.6623554242
 10
324.0809505488
 20
453.6300939185
 10
328.7896914091
 20
450.5983446402
  0
SPLINE
  5
107
330
1F
100
AcDbEntity
  8
0
  6
Continuous
 62
     7
370
    15
100
AcDbSpline
210
0.0
220
0.0
230
1.0
 70
     8
 71
     3
 72
     8
 73
     4
 74
     0
 42
0.00000001
 43
0.00000001
 40
0.0
 40
0.0
 40
0.0
 40
0.0
 40
0.0046107482369929
 40
0.0046107482369929
 40
0.0046107482369929
 40
0.0046107482369929
 10
453.2975965746837
 20
459.3055439881699
 30
0.0
 10
454.8321267665236
 20
459.2199395244243
 30
0.0
 10
456.3667353309834
 20
459.135732940538
 30
0.0
 10
457.9014032114402
 20
459.0526334184223
 30
0.0
  0
SPLINE
  5
108
330
1F
100
AcDbEntity
  8
0
  6
Continuous
 62
     7
370
    15
100
AcDbSpline
210
0.0
220
0.0
230
1.0
 70
     8
 71
     3
 72
     8
 73
     4
 74
     0
 42
0.00000001
 43
0.00000001
 40
0.0
 40
0.0
 40
0.0
 40
0.0
 40
0.0046836245896068
 40
0.0046836245896068
 40
0.0046836245896068
 40
0.0046836245896068
 10
324.6648497243699
 20
397.9034922841561
 30
0.0
 10
323.1040163033969
 20
397.9376984956344
 30
0.0
 10
321.5431595244648
 20
397.9708474859904
 30
0.0
 10
319.9822868543581
 20
398.0032132185443
 30
0.0
  0
ARC
  5
109
330
1F
100
AcDbEntity
  8
0
  6
Continuous
 62
     7
370
    15
100
AcDbCircle
 10
448.9598985817
 20
368.4413815153
 30
0.0
 40
2.0
100
AcDbArc
 50
90.0
 51
180.0
  0
LINE
  5
10A
330
1F
100
AcDbEntity
  8
0
  6
Continuous
 62
     7
370
    15
100
AcDbLine
 10
448.9598972406
 20
370.4413831843
 30
0.0
 11
459.0599005725
 21
370.4413831843
 31
0.0
  0
LINE
  5
10B
330
1F
100
AcDbEntity
  8
0
  6
Continuous
 62
     7
370
    15
100
AcDbLine
 10
446.9598969128
 20
353.3413842929
 30
0.0
 11
446.9598969128
 21
368.4413828564
 31
0.0
  0
ARC
  5
10C
330
1F
100
AcDbEntity
  8
0
  6
Continuous
 62
     7
370
    15
100
AcDbCircle
 10
328.9598985817
 20
368.4413815153
 30
0.0
 40
2.0
100
AcDbArc
 50
0.0
 51
90.0
  0
LINE
  5
10D
330
1F
100
AcDbEntity
  8
0
  6
Continuous
 62
     7
370
    15
100
AcDbLine
 10
328.9598999228
 20
370.4413831843
 30
0.0
 11
318.8598965909
 21
370.4413831843
 31
0.0
  0
LINE
  5
10E
330
1F
100
AcDbEntity
  8
0
  6
Continuous
 62
     7
370
    15
100
AcDbLine
 10
330.9599002506
 20
353.3413842929
 30
0.0
 11
330.9599002506
 21
368.4413828564
 31
0.0
  0
LINE
  5
10F
330
1F
100
AcDbEntity
  8
0
  6
Continuous
 62
     7
370
    15
100
AcDbLine
 10
357.5922315623
 20
466.6310012949
 30
0.0
 11
318.8598965909
 21
466.6310012949
 31
0.0
  0
LINE
  5
110
330
1F
100
AcDbEntity
  8
0
  6
Continuous
 62
     7
370
    15
100
AcDbLine
 10
432.1595346238
 20
466.6310012949
 30
0.0
 11
459.0599005725
 21
466.6310012949
 31
0.0
  0
LINE
  5
111
330
1F
100
AcDbEntity
  8
0
  6
Continuous
 62
     7
370
    15
100
AcDbLine
 10
419.9355179127
 20
466.5648736668
 30
0.0
 11
420.3654406275
 21
466.4520569754
 31
0.0
  0
LINE
  5
112
330
1F
100
AcDbEntity
  8
0
  6
Continuous
 62
     7
370
    15
100
AcDbLine
 10
415.1484993901
 20
467.376744808
 30
0.0
 11
415.1557581182
 21
467.3763126744
 31
0.0
  0
LINE
  5
113
330
1F
100
AcDbEntity
  8
0
  6
Continuous
 62
     7
370
    15
100
AcDbLine
 10
412.9431275334
 20
467.441844256
 30
0.0
 11
412.9439973887
 21
467.441844256
 31
0.0
  0
LINE
  5
114
330
1F
100
AcDbEntity
  8
0
  6
Continuous
 62
     8
370
    15
100
AcDbLine
 10
392.8236018084
 20
523.0840206755
 30
0.0
 11
385.096195355
 21
523.0840206755
 31
0.0
  0
LINE
  5
115
330
1F
100
AcDbEntity
  8
0
  6
Continuous
 62
     8
370
    15
100
AcDbLine
 10
392.9598987717
 20
522.0487476004
 30
0.0
 11
384.9598983917
 21
522.0487476004
 31
0.0
  0
LINE
  5
116
330
1F
100
AcDbEntity
  8
0
  6
Continuous
 62
     8
370
    15
100
AcDbLine
 10
392.5961951874
 20
523.9327163113
 30
0.0
 11
385.323601976
 21
523.9327163113
 31
0.0
  0
LINE
  5
117
330
1F
100
AcDbEntity
  8
0
  6
Continuous
 62
     8
370
    15
100
AcDbLine
 10
392.4598986897
 20
524.9679893864
 30
0.0
 11
385.4598984737
 21
524.9679893864
 31
0.0
  0
SPLINE
  5
118
330
1F
100
AcDbEntity
  8
0
  6
Continuous
 62
     8
370
    15
100
AcDbSpline
210
0.0
220
0.0
230
1.0
 70
     8
 71
     3
 72
    12
 73
     8
 74
     0
 42
0.00000001
 43
0.00000001
 40
0.0
 40
0.0
 40
0.0
 40
0.0
 40
0.2749807265652261
 40
0.5645650858072649
 40
0.7094055540189484
 40
0.8541732535980497
 40
1.0
 40
1.0
 40
1.0
 40
1.0
 10
447.0457387771109
 20
456.7528520388158
 30
0.0
 10
444.6192847443889
 20
457.6860560568554
 30
0.0
 10
439.6375129442255
 20
459.6020245434511
 30
0.0
 10
433.3657359340641
 20
461.9833327313713
 30
0.0
 10
428.2779557534419
 20
464.0008369883693
 30
0.0
 10
424.4400144376837
 20
465.5143944256314
 30
0.0
 10
421.7586833031807
 20
466.1321957730329
 30
0.0
 10
420.4131317939261
 20
466.4422222090514
 30
0.0
  0
LWPOLYLINE
  5
119
330
1F
100
AcDbEntity
  8
0
  6
Continuous
 62
     8
370
    15
100
AcDbPolyline
 90
        5
 70
   128
 43
0.0
 10
410.5792203601
 20
466.9526167823
 10
407.3501629438
 20
466.2325889481
 10
406.2104811575
 20
465.9604602171
 10
406.2104569431
 20
465.9604564918
 10
406.2104569431
 20
465.9604564918
  0
LINE
  5
11A
330
1F
100
AcDbEntity
  8
0
  6
Continuous
 62
     8
370
    15
100
AcDbLine
 10
367.5323975887
 20
354.4413805617
 30
0.0
 11
411.779704472
 21
354.4413805617
 31
0.0
  0
LINE
  5
11B
330
1F
100
AcDbEntity
  8
0
  6
Continuous
 62
     8
370
    15
100
AcDbLine
 10
367.4960778709
 20
467.2020324183
 30
0.0
 11
365.9535487797
 21
467.2020324183
 31
0.0
  0
LINE
  5
11C
330
1F
100
AcDbEntity
  8
0
  6
Continuous
 62
     8
370
    15
100
AcDbLine
 10
359.4177486058
 20
387.0538943125
 30
0.0
 11
359.4177486058
 21
362.441381873
 31
0.0
  0
LINE
  5
11D
330
1F
100
AcDbEntity
  8
0
  6
Continuous
 62
     8
370
    15
100
AcDbLine
 10
418.5020485576
 20
362.441381873
 30
0.0
 11
418.5020485576
 21
392.7546986056
 31
0.0
  0
LINE
  5
11E
330
1F
100
AcDbEntity
  8
0
  6
Continuous
 62
     8
370
    15
100
AcDbLine
 10
369.9598991926
 20
472.102305354
 30
0.0
 11
371.233810639
 21
472.102305354
 31
0.0
  0
LINE
  5
11F
330
1F
100
AcDbEntity
  8
0
  6
Continuous
 62
     8
370
    15
100
AcDbLine
 10
429.7797036972
 20
353.3413842929
 30
0.0
 11
446.9598969128
 21
353.3413842929
 31
0.0
  0
LINE
  5
120
330
1F
100
AcDbEntity
  8
0
  6
Continuous
 62
     8
370
    15
100
AcDbLine
 10
330.9599002506
 20
353.3413842929
 30
0.0
 11
346.7477885689
 21
353.3413842929
 31
0.0
  0
LINE
  5
121
330
1F
100
AcDbEntity
  8
0
  6
Continuous
 62
     8
370
    15
100
AcDbLine
 10
355.5772667434
 20
362.441381873
 30
0.0
 11
355.5772667434
 21
387.0538943125
 31
0.0
  0
LINE
  5
122
330
1F
100
AcDbEntity
  8
0
  6
Continuous
 62
     8
370
    15
100
AcDbLine
 10
422.34253042
 20
392.7546986056
 30
0.0
 11
422.34253042
 21
362.441381873
 31
0.0
  0
LINE
  5
123
330
1F
100
AcDbEntity
  8
1
100
AcDbLine
 10
368.7447755804
 20
427.3882113182
 30
0.0
 11
406.4966114282
 21
427.3882113182
 31
0.0
  0
LINE
  5
124
330
1F
100
AcDbEntity
  8
1
100
AcDbLine
 10
339.8313210427
 20
353.3413815153
 30
0.0
 11
431.8025213518
 21
353.3413815153
 31
0.0
  0
LINE
  5
125
330
1F
100
AcDbEntity
  8
1
100
AcDbLine
 10
422.3425287956
 20
365.7017468291
 30
0.0
 11
422.3425287956
 21
349.4413815153
 31
0.0
  0
LINE
  5
126
330
1F
100
AcDbEntity
  8
1
100
AcDbLine
 10
418.5020492135
 20
367.7527615063
 30
0.0
 11
418.5020492135
 21
349.4413815153
 31
0.0
  0
LINE
  5
127
330
1F
100
AcDbEntity
  8
1
100
AcDbLine
 10
359.4177479499
 20
372.2507460808
 30
0.0
 11
359.4177479499
 21
349.4413815153
 31
0.0
  0
LINE
  5
128
330
1F
100
AcDbEntity
  8
1
100
AcDbLine
 10
355.5772683678
 20
364.453608684
 30
0.0
 11
355.5772683678
 21
349.4413815153
 31
0.0
  0
LINE
  5
129
330
1F
100
AcDbEntity
  8
1
100
AcDbLine
 10
374.3086332686
 20
333.4413815153
 30
0.0
 11
354.4598985817
 21
333.4413815153
 31
0.0
  0
LINE
  5
12A
330
1F
100
AcDbEntity
  8
1
100
AcDbLine
 10
379.8305812881
 20
333.4413815153
 30
0.0
 11
423.4598985817
 21
333.4413815153
 31
0.0
  0
LINE
  5
12B
330
1F
100
AcDbEntity
  8
1
100
AcDbLine
 10
423.4598985817
 20
333.4413815153
 30
0.0
 11
426.4598985817
 21
336.4413815153
 31
0.0
  0
LINE
  5
12C
330
1F
100
AcDbEntity
  8
1
100
AcDbLine
 10
354.4598985817
 20
333.4413815153
 30
0.0
 11
351.4598985817
 21
336.4413815153
 31
0.0
  0
ARC
  5
12D
330
1F
100
AcDbEntity
  8
1
100
AcDbCircle
 10
411.6096565967
 20
397.3048792855
 30
0.0
 40
70.14965535487218
100
AcDbArc
 50
86.439456972
 51
88.9100911012
  0
ARC
  5
12E
330
1F
100
AcDbEntity
  8
1
100
AcDbCircle
 10
368.9234105241
 20
445.1991041976
 30
0.0
 40
17.81178866937758
100
AcDbArc
 50
204.3659108795
 51
269.4253693371
  0
ARC
  5
12F
330
1F
100
AcDbEntity
  8
1
100
AcDbCircle
 10
408.263266401
 20
408.2645667291
 30
0.0
 40
19.20507360472174
100
AcDbArc
 50
30.5327129246
 51
95.2780415386
  0
LINE
  5
130
330
1F
100
AcDbEntity
  8
0
  6
Continuous
 62
     7
370
    15
100
AcDbLine
 10
617.9563412835
 20
496.4413852108
 30
0.0
 11
617.9563412835
 21
522.0487476004
 31
0.0
  0
LINE
  5
131
330
1F
100
AcDbEntity
  8
0
  6
Continuous
 62
     7
370
    15
100
AcDbLine
 10
609.9563409035
 20
522.0487476004
 30
0.0
 11
609.9563409035
 21
496.4413852108
 31
0.0
  0
ARC
  5
132
330
1F
100
AcDbEntity
  8
0
  6
Continuous
 62
     7
370
    15
100
AcDbCircle
 10
613.9563410935
 20
522.0487461212
 30
0.0
 40
4.000000000000012
100
AcDbArc
 50
165.0
 51
180.0
  0
ARC
  5
133
330
1F
100
AcDbEntity
  8
0
  6
Continuous
 62
     7
370
    15
100
AcDbCircle
 10
613.9563410935
 20
522.0487461212
 30
0.0
 40
4.000000000000012
100
AcDbArc
 50
0.0
 51
15.0
  0
LINE
  5
134
330
1F
100
AcDbEntity
  8
0
  6
Continuous
 62
     7
370
    15
100
AcDbLine
 10
617.8200443202
 20
523.0840206755
 30
0.0
 11
617.5926376992
 21
523.9327163113
 31
0.0
  0
LINE
  5
135
330
1F
100
AcDbEntity
  8
0
  6
Continuous
 62
     7
370
    15
100
AcDbLine
 10
610.3200444878
 20
523.9327163113
 30
0.0
 11
610.0926378668
 21
523.0840206755
 31
0.0
  0
ARC
  5
136
330
1F
100
AcDbEntity
  8
0
  6
Continuous
 62
     7
370
    15
100
AcDbCircle
 10
621.4563410935
 20
524.9679915057
 30
0.0
 40
4.0
100
AcDbArc
 50
180.0
 51
195.0
  0
ARC
  5
137
330
1F
100
AcDbEntity
  8
0
  6
Continuous
 62
     7
370
    15
100
AcDbCircle
 10
606.4563410935
 20
524.9679915057
 30
0.0
 40
4.0
100
AcDbArc
 50
345.0
 51
0.0
  0
LINE
  5
138
330
1F
100
AcDbEntity
  8
0
  6
Continuous
 62
     7
370
    15
100
AcDbLine
 10
617.4563412015
 20
545.8913803709
 30
0.0
 11
615.9063410406
 21
547.4413842572
 31
0.0
  0
LINE
  5
139
330
1F
100
AcDbEntity
  8
0
  6
Continuous
 62
     7
370
    15
100
AcDbLine
 10
612.0063411464
 20
547.4413842572
 30
0.0
 11
610.4563409855
 21
545.8913803709
 31
0.0
  0
LINE
  5
13A
330
1F
100
AcDbEntity
  8
0
  6
Continuous
 62
     7
370
    15
100
AcDbLine
 10
617.4563412015
 20
524.9679893864
 30
0.0
 11
617.4563412015
 21
527.9413819922
 31
0.0
  0
LINE
  5
13B
330
1F
100
AcDbEntity
  8
0
  6
Continuous
 62
     7
370
    15
100
AcDbLine
 10
610.4563409855
 20
527.9413819922
 30
0.0
 11
610.4563409855
 21
524.9679893864
 31
0.0
  0
LINE
  5
13C
330
1F
100
AcDbEntity
  8
0
  6
Continuous
 62
     7
370
    15
100
AcDbLine
 10
617.4563412015
 20
543.8913837684
 30
0.0
 11
617.4563412015
 21
545.8913803709
 31
0.0
  0
LINE
  5
13D
330
1F
100
AcDbEntity
  8
0
  6
Continuous
 62
     7
370
    15
100
AcDbLine
 10
610.4563409855
 20
545.8913803709
 30
0.0
 11
610.4563409855
 21
543.8913837684
 31
0.0
  0
LINE
  5
13E
330
1F
100
AcDbEntity
  8
0
  6
Continuous
 62
     7
370
    15
100
AcDbLine
 10
617.4563412015
 20
530.9413806213
 30
0.0
 11
617.4563412015
 21
540.8413842929
 31
0.0
  0
LINE
  5
13F
330
1F
100
AcDbEntity
  8
0
  6
Continuous
 62
     7
370
    15
100
AcDbLine
 10
610.4563409855
 20
540.8413842929
 30
0.0
 11
610.4563409855
 21
530.9413806213
 31
0.0
  0
LINE
  5
140
330
1F
100
AcDbEntity
  8
0
  6
Continuous
 62
     7
370
    15
100
AcDbLine
 10
616.9563411196
 20
527.9413819922
 30
0.0
 11
616.9563411196
 21
530.9413806213
 31
0.0
  0
LINE
  5
141
330
1F
100
AcDbEntity
  8
0
  6
Continuous
 62
     7
370
    15
100
AcDbLine
 10
610.9563410674
 20
530.9413806213
 30
0.0
 11
610.9563410674
 21
527.9413819922
 31
0.0
  0
LINE
  5
142
330
1F
100
AcDbEntity
  8
0
  6
Continuous
 62
     7
370
    15
100
AcDbLine
 10
615.9063410406
 20
540.8413842929
 30
0.0
 11
615.9063410406
 21
543.8913837684
 31
0.0
  0
LINE
  5
143
330
1F
100
AcDbEntity
  8
0
  6
Continuous
 62
     7
370
    15
100
AcDbLine
 10
612.0063411464
 20
543.8913837684
 30
0.0
 11
612.0063411464
 21
540.8413842929
 31
0.0
  0
LINE
  5
144
330
1F
100
AcDbEntity
  8
0
  6
Continuous
 62
     7
370
    15
100
AcDbLine
 10
628.9363415372
 20
486.5412921322
 30
0.0
 11
628.9363415372
 21
496.4413852108
 31
0.0
  0
LINE
  5
145
330
1F
100
AcDbEntity
  8
0
  6
Continuous
 62
     7
370
    15
100
AcDbLine
 10
598.9763406497
 20
496.4413852108
 30
0.0
 11
598.9763406497
 21
486.5412921322
 31
0.0
  0
SPLINE
  5
146
330
1F
100
AcDbEntity
  8
0
  6
Continuous
 62
     7
370
    15
100
AcDbSpline
210
0.0
220
0.0
230
1.0
 70
     8
 71
     3
 72
    40
 73
    36
 74
     0
 42
0.00000001
 43
0.00000001
 40
0.0
 40
0.0
 40
0.0
 40
0.0
 40
0.0120046973163917
 40
0.0321357838312995
 40
0.0499170838915885
 40
0.0656065339583436
 40
0.0795174252730445
 40
0.0980009502300133
 40
0.1157303357158586
 40
0.1617673246137588
 40
0.1846553339729091
 40
0.2077811752253072
 40
0.2553521791911992
 40
0.3065095392331695
 40
0.3609123254082025
 40
0.3959963584424974
 40
0.4271188943498881
 40
0.4542542665482803
 40
0.4889565745083641
 40
0.5222522556493663
 40
0.5483757502304705
 40
0.5789596154512145
 40
0.6125086169472213
 40
0.6613549705403816
 40
0.7081217380284774
 40
0.7545539890211083
 40
0.8040558560462822
 40
0.8578085458782687
 40
0.8715711615454995
 40
0.8847396047819284
 40
0.8977989836084873
 40
0.9112756237191403
 40
0.9410298948136449
 40
0.9765856004462047
 40
1.0
 40
1.0
 40
1.0
 40
1.0
 10
630.0855591353823
 20
430.4881866233052
 30
0.0
 10
630.0801534070055
 20
430.4918536230415
 30
0.0
 10
630.0656826282773
 20
430.501669939749
 30
0.0
 10
630.0602586716167
 20
430.3441795330624
 30
0.0
 10
630.0631876029113
 20
430.0427358728833
 30
0.0
 10
630.0722349639763
 20
429.6148775173091
 30
0.0
 10
630.0801243879553
 20
429.0253773731967
 30
0.0
 10
630.073759536804
 20
428.1566955140528
 30
0.0
 10
629.9763598140917
 20
426.6321845927732
 30
0.0
 10
629.6892720023991
 20
424.9340173414502
 30
0.0
 10
629.1375146780895
 20
423.12683385326
 30
0.0
 10
628.4149169433515
 20
421.3219940251717
 30
0.0
 10
627.1496425700186
 20
419.1160518527411
 30
0.0
 10
625.0490953389059
 20
416.7063267947955
 30
0.0
 10
622.7099381595399
 20
414.9251476276989
 30
0.0
 10
620.4820126468821
 20
413.7717477653233
 30
0.0
 10
618.6586499401245
 20
413.106158900297
 30
0.0
 10
616.7813615089589
 20
412.6513474632742
 30
0.0
 10
614.8155626719955
 20
412.4177445985423
 30
0.0
 10
612.8577422901677
 20
412.4432217555827
 30
0.0
 10
611.0029551804195
 20
412.6809818061709
 30
0.0
 10
609.1786531243937
 20
413.1217760296449
 30
0.0
 10
606.980214650675
 20
413.9509136869752
 30
0.0
 10
604.6400180283288
 20
415.2901185282068
 30
0.0
 10
602.3841402096498
 20
417.2095033208127
 30
0.0
 10
600.4966445004503
 20
419.5105719709301
 30
0.0
 10
599.0121822818905
 20
422.2569106219481
 30
0.0
 10
598.3042086967157
 20
424.59125546892
 30
0.0
 10
598.0301520935993
 20
426.241608255997
 30
0.0
 10
597.9353591071834
 20
427.0331425721151
 30
0.0
 10
597.8779890424156
 20
427.7527330368161
 30
0.0
 10
597.8359672866674
 20
428.6350753994168
 30
0.0
 10
597.8254953668304
 20
429.5129720778104
 30
0.0
 10
597.8087391640643
 20
429.9787923583726
 30
0.0
 10
597.772142071156
 20
429.9524227437812
 30
0.0
 10
597.7576109972645
 20
429.9419525455313
 30
0.0
  0
LINE
  5
147
330
1F
100
AcDbEntity
  8
0
  6
Continuous
 62
     7
370
    15
100
AcDbLine
 10
553.9563424346
 20
349.4413778795
 30
0.0
 11
553.9563424346
 21
336.4413813365
 31
0.0
  0
LINE
  5
148
330
1F
100
AcDbEntity
  8
0
  6
Continuous
 62
     7
370
    15
100
AcDbLine
 10
673.9563397524
 20
336.4413813365
 30
0.0
 11
673.9563397524
 21
349.4413778795
 31
0.0
  0
ARC
  5
149
330
1F
100
AcDbEntity
  8
0
  6
Continuous
 62
     7
370
    15
100
AcDbCircle
 10
634.5779317208
 20
455.4413815153
 30
0.0
 40
12.0000000000001
100
AcDbArc
 50
32.5582110056
 51
48.5903778907
  0
ARC
  5
14A
330
1F
100
AcDbEntity
  8
0
  6
Continuous
 62
     7
370
    15
100
AcDbCircle
 10
634.5779317208
 20
455.4413815153
 30
0.0
 40
12.0000000000001
100
AcDbArc
 50
23.5781784782
 51
32.5582110056
  0
ARC
  5
14B
330
1F
100
AcDbEntity
  8
0
  6
Continuous
 62
     7
370
    15
100
AcDbCircle
 10
593.3347504662
 20
455.4413815153
 30
0.0
 40
12.00000000000008
100
AcDbArc
 50
151.9890080012
 51
156.4218215218
  0
ARC
  5
14C
330
1F
100
AcDbEntity
  8
0
  6
Continuous
 62
     7
370
    15
100
AcDbCircle
 10
593.3347504662
 20
455.4413815153
 30
0.0
 40
12.00000000000006
100
AcDbArc
 50
131.4096221093
 51
151.9890080012
  0
LINE
  5
14D
330
1F
100
AcDbEntity
  8
0
  6
Continuous
 62
     7
370
    15
100
AcDbLine
 10
583.956341764
 20
392.7546986056
 30
0.0
 11
583.956341764
 21
389.8622640086
 31
0.0
  0
LINE
  5
14E
330
1F
100
AcDbEntity
  8
0
  6
Continuous
 62
     7
370
    15
100
AcDbLine
 10
583.956341764
 20
376.4798589659
 30
0.0
 11
583.956341764
 21
365.9062594784
 31
0.0
  0
LINE
  5
14F
330
1F
100
AcDbEntity
  8
0
  6
Continuous
 62
     7
370
    15
100
AcDbLine
 10
643.9563404229
 20
366.0745867205
 30
0.0
 11
643.9563404229
 21
376.4798589659
 31
0.0
  0
LINE
  5
150
330
1F
100
AcDbEntity
  8
0
  6
Continuous
 62
     7
370
    15
100
AcDbLine
 10
643.9563404229
 20
389.8622640086
 30
0.0
 11
643.9563404229
 21
392.7546986056
 31
0.0
  0
ARC
  5
151
330
1F
100
AcDbEntity
  8
0
  6
Continuous
 62
     7
370
    15
100
AcDbCircle
 10
613.9563410935
 20
410.4413815153
 30
0.0
 40
34.50000000000007
100
AcDbArc
 50
339.172503068
 51
339.6455936018
  0
ARC
  5
152
330
1F
100
AcDbEntity
  8
0
  6
Continuous
 62
     7
370
    15
100
AcDbCircle
 10
613.9563410935
 20
410.4413815153
 30
0.0
 40
34.50000000000013
100
AcDbArc
 50
200.3544063982
 51
200.827496932
  0
ARC
  5
153
330
1F
100
AcDbEntity
  8
0
  6
Continuous
 62
     7
370
    15
100
AcDbCircle
 10
582.9563410935
 20
465.1344289444
 30
0.0
 40
2.50000000000006
100
AcDbArc
 50
343.9057058658
 51
38.3378288677
  0
ARC
  5
154
330
1F
100
AcDbEntity
  8
0
  6
Continuous
 62
     7
370
    15
100
AcDbCircle
 10
644.9563410935
 20
465.1344289444
 30
0.0
 40
2.500000000000014
100
AcDbArc
 50
141.6621711322
 51
196.0942941342
  0
LINE
  5
155
330
1F
100
AcDbEntity
  8
0
  6
Continuous
 62
     7
370
    15
100
AcDbLine
 10
578.9563409445
 20
483.4413812173
 30
0.0
 11
578.9563409445
 21
477.1753535283
 31
0.0
  0
LINE
  5
156
330
1F
100
AcDbEntity
  8
0
  6
Continuous
 62
     7
370
    15
100
AcDbLine
 10
648.9563412425
 20
477.1753535283
 30
0.0
 11
648.9563412425
 21
483.4413812173
 31
0.0
  0
ARC
  5
157
330
1F
100
AcDbEntity
  8
0
  6
Continuous
 62
     7
370
    15
100
AcDbCircle
 10
634.9860819383
 20
402.4413815153
 30
0.0
 40
12.00000000000002
100
AcDbArc
 50
325.2633725835
 51
339.172503068
  0
ARC
  5
158
330
1F
100
AcDbEntity
  8
0
  6
Continuous
 62
     7
370
    15
100
AcDbCircle
 10
592.9266002487
 20
402.4413815153
 30
0.0
 40
12.00000000000002
100
AcDbArc
 50
200.827496932
 51
214.7366274165
  0
LINE
  5
159
330
1F
100
AcDbEntity
  8
0
  6
Continuous
 62
     7
370
    15
100
AcDbLine
 10
615.9063410406
 20
547.4413842572
 30
0.0
 11
612.0063411464
 21
547.4413842572
 31
0.0
  0
LINE
  5
15A
330
1F
100
AcDbEntity
  8
0
  6
Continuous
 62
     7
370
    15
100
AcDbLine
 10
617.4563412015
 20
545.8913803709
 30
0.0
 11
610.4563409855
 21
545.8913803709
 31
0.0
  0
LINE
  5
15B
330
1F
100
AcDbEntity
  8
0
  6
Continuous
 62
     7
370
    15
100
AcDbLine
 10
617.4563412015
 20
527.9413819922
 30
0.0
 11
610.4563409855
 21
527.9413819922
 31
0.0
  0
LINE
  5
15C
330
1F
100
AcDbEntity
  8
0
  6
Continuous
 62
     7
370
    15
100
AcDbLine
 10
617.4563412015
 20
543.8913837684
 30
0.0
 11
610.4563409855
 21
543.8913837684
 31
0.0
  0
LINE
  5
15D
330
1F
100
AcDbEntity
  8
0
  6
Continuous
 62
     7
370
    15
100
AcDbLine
 10
617.4563412015
 20
540.8413842929
 30
0.0
 11
610.4563409855
 21
540.8413842929
 31
0.0
  0
LINE
  5
15E
330
1F
100
AcDbEntity
  8
0
  6
Continuous
 62
     7
370
    15
100
AcDbLine
 10
617.4563412015
 20
530.9413806213
 30
0.0
 11
610.4563409855
 21
530.9413806213
 31
0.0
  0
LINE
  5
15F
330
1F
100
AcDbEntity
  8
0
  6
Continuous
 62
     7
370
    15
100
AcDbLine
 10
604.9897144941
 20
496.4413852108
 30
0.0
 11
598.9763406497
 21
496.4413852108
 31
0.0
  0
LINE
  5
160
330
1F
100
AcDbEntity
  8
0
  6
Continuous
 62
     7
370
    15
100
AcDbLine
 10
604.9897144941
 20
496.4413852108
 30
0.0
 11
604.9897144941
 21
489.4413822008
 31
0.0
  0
LINE
  5
161
330
1F
100
AcDbEntity
  8
0
  6
Continuous
 62
     7
370
    15
100
AcDbLine
 10
622.9229676929
 20
489.4413822008
 30
0.0
 11
604.9897144941
 21
489.4413822008
 31
0.0
  0
LINE
  5
162
330
1F
100
AcDbEntity
  8
0
  6
Continuous
 62
     7
370
    15
100
AcDbLine
 10
622.9229676929
 20
489.4413822008
 30
0.0
 11
622.9229676929
 21
496.4413852108
 31
0.0
  0
LINE
  5
163
330
1F
100
AcDbEntity
  8
0
  6
Continuous
 62
     7
370
    15
100
AcDbLine
 10
628.9363415372
 20
496.4413852108
 30
0.0
 11
622.9229676929
 21
496.4413852108
 31
0.0
  0
LINE
  5
164
330
1F
100
AcDbEntity
  8
0
  6
Continuous
 62
     7
370
    15
100
AcDbLine
 10
622.9229676929
 20
496.4413852108
 30
0.0
 11
604.9897144941
 21
496.4413852108
 31
0.0
  0
LINE
  5
165
330
1F
100
AcDbEntity
  8
0
  6
Continuous
 62
     7
370
    15
100
AcDbLine
 10
576.4563396034
 20
333.4413827074
 30
0.0
 11
576.5149942991
 21
333.4413827074
 31
0.0
  0
LINE
  5
166
330
1F
100
AcDbEntity
  8
0
  6
Continuous
 62
     7
370
    15
100
AcDbLine
 10
587.7580768821
 20
333.4413827074
 30
0.0
 11
640.1546053049
 21
333.4413827074
 31
0.0
  0
LINE
  5
167
330
1F
100
AcDbEntity
  8
0
  6
Continuous
 62
     7
370
    15
100
AcDbLine
 10
651.3976878879
 20
333.4413827074
 30
0.0
 11
651.4563425836
 21
333.4413827074
 31
0.0
  0
CIRCLE
  5
168
330
1F
100
AcDbEntity
  8
0
  6
Continuous
 62
     7
370
    15
100
AcDbCircle
 10
613.9563410935
 20
428.4413815153
 30
0.0
 40
34.5
  0
CIRCLE
  5
169
330
1F
100
AcDbEntity
  8
0
  6
Continuous
 62
     7
370
    15
100
AcDbCircle
 10
613.9564362877
 20
428.4413858732
 30
0.0
 40
16.00000511806228
  0
SPLINE
  5
16A
330
1F
100
AcDbEntity
  8
0
  6
Continuous
 62
     7
370
    15
100
AcDbSpline
210
0.0
220
0.0
230
1.0
 70
     8
 71
     3
 72
    13
 73
     9
 74
     0
 42
0.00000001
 43
0.00000001
 40
0.0
 40
0.0
 40
0.0
 40
0.0
 40
0.1595382921432919
 40
0.3190932707851828
 40
0.4852287929845885
 40
0.6513884413529599
 40
0.9247885959825612
 40
0.9999999999999999
 40
0.9999999999999999
 40
0.9999999999999999
 40
0.9999999999999999
 10
613.9563410934854
 20
424.6701164779814
 30
0.0
 10
614.7808690173038
 20
424.6578365565116
 30
0.0
 10
616.4300111043244
 20
424.6332754291852
 30
0.0
 10
618.9102961690284
 20
424.4487361660815
 30
0.0
 10
621.3757318594232
 20
424.1703908648974
 30
0.0
 10
624.3064523028288
 20
423.7637033907075
 30
0.0
 10
626.7475787472908
 20
423.402371965029
 30
0.0
 10
628.2033529869287
 20
423.2231887619105
 30
0.0
 10
628.5174298492122
 20
423.1845307772608
 30
0.0
  0
SPLINE
  5
16B
330
1F
100
AcDbEntity
  8
0
  6
Continuous
 62
     7
370
    15
100
AcDbSpline
210
0.0
220
0.0
230
1.0
 70
     8
 71
     3
 72
    13
 73
     9
 74
     0
 42
0.00000001
 43
0.00000001
 40
0.0
 40
0.0
 40
0.0
 40
0.0
 40
0.0494763336084322
 40
0.3315285661750236
 40
0.6105409989585615
 40
0.7544337453819611
 40
0.8983084911052877
 40
1.0
 40
1.0
 40
1.0
 40
1.0
 10
598.8739966806818
 20
423.1161232715102
 30
0.0
 10
599.0836419788524
 20
423.1403882180066
 30
0.0
 10
600.4884228111971
 20
423.3029815698897
 30
0.0
 10
603.468221414834
 20
423.7437343205864
 30
0.0
 10
607.0264796057738
 20
424.2472384767332
 30
0.0
 10
610.0106438549722
 20
424.5315206282528
 30
0.0
 10
612.0907551679148
 20
424.652194161443
 30
0.0
 10
613.4100199808199
 20
424.6648680786562
 30
0.0
 10
613.9563410934854
 20
424.6701164779814
 30
0.0
  0
CIRCLE
  5
16C
330
1F
100
AcDbEntity
  8
0
  6
Continuous
 62
     7
370
    15
100
AcDbCircle
 10
613.9563410935
 20
428.4413815153
 30
0.0
 40
37.5
  0
CIRCLE
  5
16D
330
1F
100
AcDbEntity
  8
0
  6
Continuous
 62
     7
370
    15
100
AcDbCircle
 10
582.1365359401
 20
460.2611866687
 30
0.0
 40
7.0
  0
CIRCLE
  5
16E
330
1F
100
AcDbEntity
  8
0
  6
Continuous
 62
     7
370
    15
100
AcDbCircle
 10
582.1365359401
 20
396.6215763619
 30
0.0
 40
7.0
  0
CIRCLE
  5
16F
330
1F
100
AcDbEntity
  8
0
  6
Continuous
 62
     7
370
    15
100
AcDbCircle
 10
645.7761462469
 20
396.6215763619
 30
0.0
 40
7.0
  0
CIRCLE
  5
170
330
1F
100
AcDbEntity
  8
0
  6
Continuous
 62
     7
370
    15
100
AcDbCircle
 10
645.7761462469
 20
460.2611866687
 30
0.0
 40
7.0
  0
CIRCLE
  5
171
330
1F
100
AcDbEntity
  8
0
  6
Continuous
 62
     7
370
    15
100
AcDbCircle
 10
613.9563410935
 20
428.4413815153
 30
0.0
 40
60.00000000000011
  0
SPLINE
  5
172
330
1F
100
AcDbEntity
  8
0
  6
Continuous
 62
     7
370
    15
100
AcDbSpline
210
0.0
220
0.0
230
1.0
 70
     8
 71
     3
 72
     8
 73
     4
 74
     0
 42
0.00000001
 43
0.00000001
 40
0.0
 40
0.0
 40
0.0
 40
0.0
 40
1.0
 40
1.0
 40
1.0
 40
1.0
 10
646.1930320508238
 20
398.1747148486725
 30
0.0
 10
646.2268334700698
 20
398.2635278396355
 30
0.0
 10
646.2602507501498
 20
398.3524156574573
 30
0.0
 10
646.2932755066848
 20
398.4413815153392
 30
0.0
  0
LINE
  5
173
330
1F
100
AcDbEntity
  8
0
  6
Continuous
 62
     7
370
    15
100
AcDbLine
 10
608.0563408715
 20
349.4413778795
 30
0.0
 11
613.7063410816
 21
349.4413778795
 31
0.0
  0
SPLINE
  5
174
330
1F
100
AcDbEntity
  8
0
  6
Continuous
 62
     7
370
    15
100
AcDbSpline
210
0.0
220
0.0
230
1.0
 70
     8
 71
     3
 72
    22
 73
    18
 74
     0
 42
0.00000001
 43
0.00000001
 40
0.0
 40
0.0
 40
0.0
 40
0.0
 40
0.0624999999999998
 40
0.0624999999999998
 40
0.1249999999999996
 40
0.1249999999999996
 40
0.2499999999999982
 40
0.2499999999999982
 40
0.4999999999999973
 40
0.4999999999999973
 40
0.624999999999998
 40
0.624999999999998
 40
0.7499999999999986
 40
0.7499999999999986
 40
0.8749999999999992
 40
0.8749999999999992
 40
1.0
 40
1.0
 40
1.0
 40
1.0
 10
608.0563410934853
 20
349.4413815153392
 30
0.0
 10
608.1525774567608
 20
349.4413815153392
 30
0.0
 10
608.247772089986
 20
349.4450474211566
 30
0.0
 10
608.426918165945
 20
349.4579889478438
 30
0.0
 10
608.510891080886
 20
349.4670678733915
 30
0.0
 10
608.7581077497666
 20
349.5014321525163
 30
0.0
 10
608.915820719705
 20
349.5339174459531
 30
0.0
 10
609.3783084822223
 20
349.6583998844688
 30
0.0
 10
609.6740834718706
 20
349.7772390982373
 30
0.0
 10
610.1084221749851
 20
350.0207620508411
 30
0.0
 10
610.2518997044799
 20
350.1135127998658
 30
0.0
 10
610.5276723903627
 20
350.3194391466433
 30
0.0
 10
610.6609217348075
 20
350.4330198202987
 30
0.0
 10
610.9177728322502
 20
350.6853287164067
 30
0.0
 10
611.0402184812966
 20
350.823328638854
 30
0.0
 10
611.2648360171615
 20
351.1165950359191
 30
0.0
 10
611.3681952060116
 20
351.2729166558395
 30
0.0
 10
611.4618435378575
 20
351.4407097653056
 30
0.0
  0
SPLINE
  5
175
330
1F
100
AcDbEntity
  8
0
  6
Continuous
 62
     7
370
    15
100
AcDbSpline
210
0.0
220
0.0
230
1.0
 70
     8
 71
     3
 72
    20
 73
    16
 74
     0
 42
0.00000001
 43
0.00000001
 40
0.0
 40
0.0
 40
0.0
 40
0.0
 40
0.1249999999999994
 40
0.1249999999999994
 40
0.2499999999999988
 40
0.2499999999999988
 40
0.4999999999999992
 40
0.4999999999999992
 40
0.7499999999999998
 40
0.7499999999999998
 40
0.8749999999999999
 40
0.8749999999999999
 40
0.9375
 40
0.9375
 40
1.0
 40
1.0
 40
1.0
 40
1.0
 10
616.4508386491133
 20
351.4407097653056
 30
0.0
 10
616.5445431404045
 20
351.2728160329265
 30
0.0
 10
616.6479310507577
 20
351.1164746446684
 30
0.0
 10
616.8725282993482
 20
350.8232538785865
 30
0.0
 10
616.9949047415911
 20
350.6853307381784
 30
0.0
 10
617.3802782291112
 20
350.3067797953664
 30
0.0
 10
617.6557332827833
 20
350.1042607482285
 30
0.0
 10
618.2383911456957
 20
349.7771335492418
 30
0.0
 10
618.5349045728045
 20
349.6582318039949
 30
0.0
 10
618.9970269774606
 20
349.5338855115866
 30
0.0
 10
619.1536064150453
 20
349.5015792037271
 30
0.0
 10
619.4018464266284
 20
349.4670539539507
 30
0.0
 10
619.4861327719784
 20
349.4579484770186
 30
0.0
 10
619.6657374366036
 20
349.4450015787294
 30
0.0
 10
619.7606609110439
 20
349.4413815153392
 30
0.0
 10
619.8563410934854
 20
349.4413815153392
 30
0.0
  0
LINE
  5
176
330
1F
100
AcDbEntity
  8
0
  6
Continuous
 62
     7
370
    15
100
AcDbLine
 10
614.2063411054
 20
349.4413778795
 30
0.0
 11
619.8563413155
 21
349.4413778795
 31
0.0
  0
LINE
  5
177
330
1F
100
AcDbEntity
  8
0
  6
Continuous
 62
     7
370
    15
100
AcDbLine
 10
613.7063410816
 20
349.4413778795
 30
0.0
 11
614.2063411054
 21
349.4413778795
 31
0.0
  0
LINE
  5
178
330
1F
100
AcDbEntity
  8
0
  6
Continuous
 62
     7
370
    15
100
AcDbLine
 10
619.8563413155
 20
349.4413778795
 30
0.0
 11
673.9563397524
 21
349.4413778795
 31
0.0
  0
LINE
  5
179
330
1F
100
AcDbEntity
  8
0
  6
Continuous
 62
     7
370
    15
100
AcDbLine
 10
553.9563424346
 20
349.4413778795
 30
0.0
 11
608.0563408715
 21
349.4413778795
 31
0.0
  0
LINE
  5
17A
330
1F
100
AcDbEntity
  8
0
  6
Continuous
 62
     7
370
    15
100
AcDbLine
 10
553.9563424346
 20
336.4413813365
 30
0.0
 11
673.9563397524
 21
336.4413813365
 31
0.0
  0
LINE
  5
17B
330
1F
100
AcDbEntity
  8
0
  6
Continuous
 62
     7
370
    15
100
AcDbLine
 10
613.7063410816
 20
368.4413828564
 30
0.0
 11
611.9563409985
 21
368.4413828564
 31
0.0
  0
LINE
  5
17C
330
1F
100
AcDbEntity
  8
0
  6
Continuous
 62
     7
370
    15
100
AcDbLine
 10
615.9563411885
 20
368.4413828564
 30
0.0
 11
614.2063411054
 21
368.4413828564
 31
0.0
  0
ARC
  5
17D
330
1F
100
AcDbEntity
  8
0
  6
Continuous
 62
     7
370
    15
100
AcDbCircle
 10
608.0563410935
 20
353.3413815153
 30
0.0
 40
3.900000000000091
100
AcDbArc
 50
330.8333333563
 51
0.0
  0
LINE
  5
17E
330
1F
100
AcDbEntity
  8
0
  6
Continuous
 62
     7
370
    15
100
AcDbLine
 10
611.9563409985
 20
353.3413842929
 30
0.0
 11
611.9563409985
 21
368.4413828564
 31
0.0
  0
ARC
  5
17F
330
1F
100
AcDbEntity
  8
0
  6
Continuous
 62
     7
370
    15
100
AcDbCircle
 10
619.8563410935
 20
353.3413815153
 30
0.0
 40
3.90000000000005
100
AcDbArc
 50
180.0
 51
209.1666666437
  0
LINE
  5
180
330
1F
100
AcDbEntity
  8
0
  6
Continuous
 62
     7
370
    15
100
AcDbLine
 10
615.9563411885
 20
353.3413842929
 30
0.0
 11
615.9563411885
 21
368.4413828564
 31
0.0
  0
SPLINE
  5
181
330
1F
100
AcDbEntity
  8
0
  6
Continuous
 62
     7
370
    15
100
AcDbSpline
210
0.0
220
0.0
230
1.0
 70
     8
 71
     3
 72
     8
 73
     4
 74
     0
 42
0.00000001
 43
0.00000001
 40
0.0
 40
0.0
 40
0.0
 40
0.0
 40
0.0000687902257159
 40
0.0000687902257159
 40
0.0000687902257159
 40
0.0000687902257159
 10
644.8774599113458
 20
395.6602793182769
 30
0.0
 10
644.8645049605105
 20
395.6413614039788
 30
0.0
 10
644.8514493762643
 20
395.6224554456113
 30
0.0
 10
644.8384038553925
 20
395.6037217759386
 30
0.0
  0
SPLINE
  5
182
330
1F
100
AcDbEntity
  8
0
  6
Continuous
 62
     7
370
    15
100
AcDbSpline
210
0.0
220
0.0
230
1.0
 70
     8
 71
     3
 72
    14
 73
    10
 74
     0
 42
0.00000001
 43
0.00000001
 40
0.0
 40
0.0
 40
0.0
 40
0.0
 40
0.5000000000000002
 40
0.5000000000000002
 40
0.7500000000000034
 40
0.7500000000000034
 40
0.8750000000000018
 40
0.8750000000000018
 40
1.0
 40
1.0
 40
1.0
 40
1.0
 10
644.8384038553925
 20
395.6037217759386
 30
0.0
 10
644.5462323722649
 20
395.1841567691867
 30
0.0
 10
644.3237104114942
 20
394.7313708756089
 30
0.0
 10
644.0931311398934
 20
394.0030478339796
 30
0.0
 10
644.0354189844688
 20
393.7570663014875
 30
0.0
 10
643.9767615985069
 20
393.3842054966153
 30
0.0
 10
643.9618685898405
 20
393.2592255659637
 30
0.0
 10
643.9414700591461
 20
393.007870413223
 30
0.0
 10
643.9359643893698
 20
392.8802434804063
 30
0.0
 10
643.9352706966147
 20
392.7546968845236
 30
0.0
  0
SPLINE
  5
183
330
1F
100
AcDbEntity
  8
0
  6
Continuous
 62
     7
370
    15
100
AcDbSpline
210
0.0
220
0.0
230
1.0
 70
     8
 71
     3
 72
    26
 73
    22
 74
     0
 42
0.00000001
 43
0.00000001
 40
0.0
 40
0.0
 40
0.0
 40
0.0
 40
0.1249999999999974
 40
0.1249999999999974
 40
0.1874999999999955
 40
0.1874999999999955
 40
0.2499999999999936
 40
0.2499999999999936
 40
0.3749999999999923
 40
0.3749999999999923
 40
0.499999999999991
 40
0.499999999999991
 40
0.6249999999999897
 40
0.6249999999999897
 40
0.6874999999999912
 40
0.6874999999999912
 40
0.7499999999999928
 40
0.7499999999999928
 40
0.8749999999999964
 40
0.8749999999999964
 40
1.0
 40
1.0
 40
1.0
 40
1.0
 10
608.0563410934853
 20
349.4413815153392
 30
0.0
 10
608.099739519731
 20
349.4413815153392
 30
0.0
 10
608.1426759370581
 20
349.4737427660956
 30
0.0
 10
608.2064012945384
 20
349.5687944507536
 30
0.0
 10
608.22752858745
 20
349.6082876493646
 30
0.0
 10
608.269540822031
 20
349.703239513515
 30
0.0
 10
608.2905042587228
 20
349.7590162360235
 30
0.0
 10
608.3516717077794
 20
349.9470205172044
 30
0.0
 10
608.3905650496017
 20
350.1003638854959
 30
0.0
 10
608.4645030982433
 20
350.4623551143581
 30
0.0
 10
608.4997678430077
 20
350.6733447793223
 30
0.0
 10
608.5632431012473
 20
351.1343731345249
 30
0.0
 10
608.5918349314319
 20
351.385703488714
 30
0.0
 10
608.6298024128821
 20
351.7944519772596
 30
0.0
 10
608.6416607872983
 20
351.9365781898407
 30
0.0
 10
608.6631788893707
 20
352.2254912474208
 30
0.0
 10
608.6729075070635
 20
352.3729205022925
 30
0.0
 10
608.6990377259124
 20
352.8239537313098
 30
0.0
 10
608.7124338665865
 20
353.1369786729933
 30
0.0
 10
608.730556561271
 20
353.7841426112203
 30
0.0
 10
608.7351021554323
 20
354.1110797718791
 30
0.0
 10
608.7351021554323
 20
354.4413815153392
 30
0.0
  0
SPLINE
  5
184
330
1F
100
AcDbEntity
  8
0
  6
Continuous
 62
     7
370
    15
100
AcDbSpline
210
0.0
220
0.0
230
1.0
 70
     8
 71
     3
 72
    22
 73
    18
 74
     0
 42
0.00000001
 43
0.00000001
 40
0.0
 40
0.0
 40
0.0
 40
0.0
 40
0.125
 40
0.125
 40
0.25
 40
0.25
 40
0.375
 40
0.375
 40
0.5
 40
0.5
 40
0.625
 40
0.625
 40
0.75
 40
0.75
 40
0.875
 40
0.875
 40
1.0
 40
1.0
 40
1.0
 40
1.0
 10
619.1775800315386
 20
354.4413815153392
 30
0.0
 10
619.1775800315386
 20
354.1111803472684
 30
0.0
 10
619.1821222700738
 20
353.7864354306969
 30
0.0
 10
619.1998961961691
 20
353.1474229787996
 30
0.0
 10
619.2133462826148
 20
352.8298461367012
 30
0.0
 10
619.2483151544222
 20
352.224767871955
 30
0.0
 10
619.2696817220135
 20
351.9375962230873
 30
0.0
 10
619.3199978602194
 20
351.3938193825234
 30
0.0
 10
619.3491464102636
 20
351.1368174124073
 30
0.0
 10
619.4125224167768
 20
350.6758762732402
 30
0.0
 10
619.4469937072435
 20
350.4687762113199
 30
0.0
 10
619.5215112940193
 20
350.1027270587928
 30
0.0
 10
619.5607551130295
 20
349.9481126299926
 30
0.0
 10
619.6417213101007
 20
349.6986446244062
 30
0.0
 10
619.6839784553534
 20
349.6023833445619
 30
0.0
 10
619.7698030632534
 20
349.4737276074244
 30
0.0
 10
619.8129558242999
 20
349.4413815153392
 30
0.0
 10
619.8563410934854
 20
349.4413815153392
 30
0.0
  0
SPLINE
  5
185
330
1F
100
AcDbEntity
  8
0
  6
Continuous
 62
     7
370
    15
100
AcDbSpline
210
0.0
220
0.0
230
1.0
 70
     8
 71
     3
 72
    10
 73
     6
 74
     0
 42
0.00000001
 43
0.00000001
 40
0.0
 40
0.0
 40
0.0
 40
0.0
 40
0.4375900377068448
 40
0.8786277260510974
 40
1.0
 40
1.0
 40
1.0
 40
1.0
 10
582.3370009121347
 20
460.2413833750041
 30
0.0
 10
581.9598929809888
 20
459.3018965321569
 30
0.0
 10
581.2027059898159
 20
457.4155208899883
 30
0.0
 10
580.523282623538
 20
455.1933057534731
 30
0.0
 10
580.2970067807474
 20
453.9112445259838
 30
0.0
 10
580.2481747624327
 20
453.6345661295207
 30
0.0
  0
LINE
  5
186
330
1F
100
AcDbEntity
  8
0
  6
Continuous
 62
     7
370
    15
100
AcDbLine
 10
645.5756589231
 20
460.241383375
 30
0.0
 11
645.7449994442
 21
459.800223322
 31
0.0
  0
SPLINE
  5
187
330
1F
100
AcDbEntity
  8
0
  6
Continuous
 62
     7
370
    15
100
AcDbSpline
210
0.0
220
0.0
230
1.0
 70
     8
 71
     3
 72
    14
 73
    10
 74
     0
 42
0.00000001
 43
0.00000001
 40
0.0
 40
0.0
 40
0.0
 40
0.0
 40
0.5000000000000071
 40
0.5000000000000071
 40
0.750000000000007
 40
0.750000000000007
 40
0.8750000000000036
 40
0.8750000000000036
 40
1.0
 40
1.0
 40
1.0
 40
1.0
 10
583.0742783315783
 20
395.6037217759386
 30
0.0
 10
583.3665771830051
 20
395.1839738653635
 30
0.0
 10
583.5883901973657
 20
394.7320882548455
 30
0.0
 10
583.8183246236335
 20
394.0074759843582
 30
0.0
 10
583.8769091794716
 20
393.7589390146985
 30
0.0
 10
583.9358251540327
 20
393.384999658719
 30
0.0
 10
583.950764433065
 20
393.2597360631075
 30
0.0
 10
583.9712116634198
 20
393.0079712177852
 30
0.0
 10
583.9767194391212
 20
392.8799463921517
 30
0.0
 10
583.977411490356
 20
392.7546968845175
 30
0.0
  0
SPLINE
  5
188
330
1F
100
AcDbEntity
  8
0
  6
Continuous
 62
     7
370
    15
100
AcDbSpline
210
0.0
220
0.0
230
1.0
 70
     8
 71
     3
 72
     8
 73
     4
 74
     0
 42
0.00000001
 43
0.00000001
 40
0.0
 40
0.0
 40
0.0
 40
0.0
 40
0.0000687902257158
 40
0.0000687902257158
 40
0.0000687902257158
 40
0.0000687902257158
 10
583.0742783315783
 20
395.6037217759386
 30
0.0
 10
583.0612328107064
 20
395.6224554456113
 30
0.0
 10
583.0481772264603
 20
395.6413614039787
 30
0.0
 10
583.035222275625
 20
395.6602793182768
 30
0.0
  0
SPLINE
  5
189
330
1F
100
AcDbEntity
  8
0
  6
Continuous
 62
     7
370
    15
100
AcDbSpline
210
0.0
220
0.0
230
1.0
 70
     8
 71
     3
 72
    14
 73
    10
 74
     0
 42
0.00000001
 43
0.00000001
 40
0.0
 40
0.0
 40
0.0
 40
0.0
 40
0.2500000000000001
 40
0.2500000000000001
 40
0.5000000000000001
 40
0.5000000000000001
 40
0.7500000000000002
 40
0.7500000000000002
 40
1.0
 40
1.0
 40
1.0
 40
1.0
 10
583.990725316068
 20
364.033688429809
 30
0.0
 10
583.9904583837078
 20
363.8813044881807
 30
0.0
 10
583.9899942643348
 20
363.729584343771
 30
0.0
 10
583.9866590976479
 20
363.4356502774966
 30
0.0
 10
583.9841155577415
 20
363.2901303317802
 30
0.0
 10
583.9781625714194
 20
363.0261941815673
 30
0.0
 10
583.97466066164
 20
362.9065116582513
 30
0.0
 10
583.9680277316031
 20
362.6832899167144
 30
0.0
 10
583.9648848115153
 20
362.5863972381409
 30
0.0
 10
583.9624581460916
 20
362.4920217631423
 30
0.0
  0
SPLINE
  5
18A
330
1F
100
AcDbEntity
  8
0
  6
Continuous
 62
     7
370
    15
100
AcDbSpline
210
0.0
220
0.0
230
1.0
 70
     8
 71
     3
 72
    11
 73
     7
 74
     0
 42
0.00000001
 43
0.00000001
 40
0.0
 40
0.0
 40
0.0
 40
0.0
 40
0.242601831188616
 40
0.55867541813961
 40
0.8271563246428415
 40
1.0
 40
1.0
 40
1.0
 40
1.0
 10
583.9578728583504
 20
365.9062594784053
 30
0.0
 10
583.9584496900555
 20
365.8365578937517
 30
0.0
 10
583.9597780464513
 20
365.676045659526
 30
0.0
 10
583.9775533788941
 20
365.1517840611453
 30
0.0
 10
583.9892731440024
 20
364.5535490214517
 30
0.0
 10
583.9903172657899
 20
364.1799925997293
 30
0.0
 10
583.9907261934925
 20
364.0336901558192
 30
0.0
  0
LINE
  5
18B
330
1F
100
AcDbEntity
  8
0
  6
Continuous
 62
     7
370
    15
100
AcDbLine
 10
643.9389191029
 20
362.441381873
 30
0.0
 11
643.9389191029
 21
366.0745867205
 31
0.0
  0
LINE
  5
18C
330
1F
100
AcDbEntity
  8
0
  6
Continuous
 62
     7
370
    15
100
AcDbLine
 10
637.9354983029
 20
483.4413812173
 30
0.0
 11
642.5563483891
 21
483.4413812173
 31
0.0
  0
LINE
  5
18D
330
1F
100
AcDbEntity
  8
0
  6
Continuous
 62
     7
370
    15
100
AcDbLine
 10
585.3563412485
 20
483.4413812173
 30
0.0
 11
589.9771838841
 21
483.4413812173
 31
0.0
  0
LINE
  5
18E
330
1F
100
AcDbEntity
  8
0
  6
Continuous
 62
     7
370
    15
100
AcDbLine
 10
587.7513359693
 20
464.4413799656
 30
0.0
 11
585.3583584932
 21
464.4413799656
 31
0.0
  0
LINE
  5
18F
330
1F
100
AcDbEntity
  8
0
  6
Continuous
 62
     7
370
    15
100
AcDbLine
 10
642.5543236938
 20
464.4413799656
 30
0.0
 11
640.1613462177
 21
464.4413799656
 31
0.0
  0
LINE
  5
190
330
1F
100
AcDbEntity
  8
0
  6
Continuous
 62
     7
370
    15
100
AcDbLine
 10
578.9563409445
 20
483.4413812173
 30
0.0
 11
585.3563412485
 21
483.4413812173
 31
0.0
  0
LINE
  5
191
330
1F
100
AcDbEntity
  8
0
  6
Continuous
 62
     7
370
    15
100
AcDbLine
 10
642.5563483891
 20
483.4413812173
 30
0.0
 11
648.9563412425
 21
483.4413812173
 31
0.0
  0
LINE
  5
192
330
1F
100
AcDbEntity
  8
0
  6
Continuous
 62
     7
370
    15
100
AcDbLine
 10
645.5563395676
 20
366.0745867205
 30
0.0
 11
645.539803004
 21
366.0745867205
 31
0.0
  0
LINE
  5
193
330
1F
100
AcDbEntity
  8
0
  6
Continuous
 62
     8
370
    15
100
AcDbLine
 10
617.9563412835
 20
522.0487476004
 30
0.0
 11
609.9563409035
 21
522.0487476004
 31
0.0
  0
LINE
  5
194
330
1F
100
AcDbEntity
  8
0
  6
Continuous
 62
     8
370
    15
100
AcDbLine
 10
617.8200443202
 20
523.0840206755
 30
0.0
 11
610.0926378668
 21
523.0840206755
 31
0.0
  0
LINE
  5
195
330
1F
100
AcDbEntity
  8
0
  6
Continuous
 62
     8
370
    15
100
AcDbLine
 10
617.5926376992
 20
523.9327163113
 30
0.0
 11
610.3200444878
 21
523.9327163113
 31
0.0
  0
LINE
  5
196
330
1F
100
AcDbEntity
  8
0
  6
Continuous
 62
     8
370
    15
100
AcDbLine
 10
617.4563412015
 20
524.9679893864
 30
0.0
 11
610.4563409855
 21
524.9679893864
 31
0.0
  0
LINE
  5
197
330
1F
100
AcDbEntity
  8
0
  6
Continuous
 62
     8
370
    15
100
AcDbLine
 10
608.735102268
 20
354.4413805617
 30
0.0
 11
608.735102268
 21
368.6689906431
 31
0.0
  0
LINE
  5
198
330
1F
100
AcDbEntity
  8
0
  6
Continuous
 62
     8
370
    15
100
AcDbLine
 10
619.177579919
 20
368.6689906431
 30
0.0
 11
619.177579919
 21
354.4413805617
 31
0.0
  0
LINE
  5
199
330
1F
100
AcDbEntity
  8
0
  6
Continuous
 62
     8
370
    15
100
AcDbLine
 10
583.977412006
 20
392.7546986056
 30
0.0
 11
583.956341764
 21
392.7546986056
 31
0.0
  0
LINE
  5
19A
330
1F
100
AcDbEntity
  8
0
  6
Continuous
 62
     8
370
    15
100
AcDbLine
 10
643.9563404229
 20
392.7546986056
 30
0.0
 11
643.935270181
 21
392.7546986056
 31
0.0
  0
LINE
  5
19B
330
1F
100
AcDbEntity
  8
0
  6
Continuous
 62
     8
370
    15
100
AcDbLine
 10
642.5563483891
 20
481.1864257468
 30
0.0
 11
642.5563483891
 21
483.4413812173
 31
0.0
  0
LINE
  5
19C
330
1F
100
AcDbEntity
  8
0
  6
Continuous
 62
     8
370
    15
100
AcDbLine
 10
585.3563412485
 20
481.186429472
 30
0.0
 11
585.3563412485
 21
483.4413812173
 31
0.0
  0
LINE
  5
19D
330
1F
100
AcDbEntity
  8
0
  6
Continuous
 62
     8
370
    15
100
AcDbLine
 10
646.1930326578
 20
398.1747147305
 30
0.0
 11
646.2019435522
 21
398.1747147305
 31
0.0
  0
LINE
  5
19E
330
1F
100
AcDbEntity
  8
0
  6
Continuous
 62
     8
370
    15
100
AcDbLine
 10
581.7107386348
 20
398.1747147305
 30
0.0
 11
581.7196495292
 21
398.1747147305
 31
0.0
  0
LINE
  5
19F
330
1F
100
AcDbEntity
  8
0
  6
Continuous
 62
     8
370
    15
100
AcDbLine
 10
583.0652411488
 20
395.6037223948
 30
0.0
 11
583.074278703
 21
395.6037223948
 31
0.0
  0
LINE
  5
1A0
330
1F
100
AcDbEntity
  8
0
  6
Continuous
 62
     8
370
    15
100
AcDbLine
 10
644.8384034839
 20
395.6037223948
 30
0.0
 11
644.8474410382
 21
395.6037223948
 31
0.0
  0
LINE
  5
1A1
330
1F
100
AcDbEntity
  8
1
100
AcDbLine
 10
583.9719028751
 20
362.8137244643
 30
0.0
 11
583.5755853072
 21
349.4413815153
 31
0.0
  0
LINE
  5
1A2
330
1F
100
AcDbEntity
  8
1
100
AcDbLine
 10
643.9389195007
 20
364.2991077571
 30
0.0
 11
643.9389195007
 21
349.4413815153
 31
0.0
  0
LINE
  5
1A3
330
1F
100
AcDbEntity
  8
1
100
AcDbLine
 10
638.3223399874
 20
333.4413815153
 30
0.0
 11
648.4563410935
 21
333.4413815153
 31
0.0
  0
LINE
  5
1A4
330
1F
100
AcDbEntity
  8
1
100
AcDbLine
 10
613.9563410935
 20
333.4413815153
 30
0.0
 11
579.4563410935
 21
333.4413815153
 31
0.0
  0
LINE
  5
1A5
330
1F
100
AcDbEntity
  8
1
100
AcDbLine
 10
576.4563410935
 20
336.4413815153
 30
0.0
 11
579.4563410935
 21
333.4413815153
 31
0.0
  0
LINE
  5
1A6
330
1F
100
AcDbEntity
  8
1
100
AcDbLine
 10
651.4563410935
 20
336.4413815153
 30
0.0
 11
648.4563410935
 21
333.4413815153
 31
0.0
  0
ARC
  5
1A7
330
1F
100
AcDbEntity
  8
0
  6
Continuous
 62
     7
370
    15
100
AcDbCircle
 10
163.4934635501
 20
522.0487461212
 30
0.0
 40
4.000000000000012
100
AcDbArc
 50
165.0
 51
180.0
  0
ARC
  5
1A8
330
1F
100
AcDbEntity
  8
0
  6
Continuous
 62
     7
370
    15
100
AcDbCircle
 10
163.4934635501
 20
522.0487461212
 30
0.0
 40
4.000000000000012
100
AcDbArc
 50
0.0
 51
15.0
  0
LINE
  5
1A9
330
1F
100
AcDbEntity
  8
0
  6
Continuous
 62
     7
370
    15
100
AcDbLine
 10
167.4934637401
 20
496.4413852108
 30
0.0
 11
167.4934637401
 21
522.0487476004
 31
0.0
  0
LINE
  5
1AA
330
1F
100
AcDbEntity
  8
0
  6
Continuous
 62
     7
370
    15
100
AcDbLine
 10
159.4934633601
 20
522.0487476004
 30
0.0
 11
159.4934633601
 21
496.4413852108
 31
0.0
  0
LINE
  5
1AB
330
1F
100
AcDbEntity
  8
0
  6
Continuous
 62
     7
370
    15
100
AcDbLine
 10
167.3571667767
 20
523.0840206755
 30
0.0
 11
167.1297601558
 21
523.9327163113
 31
0.0
  0
LINE
  5
1AC
330
1F
100
AcDbEntity
  8
0
  6
Continuous
 62
     7
370
    15
100
AcDbLine
 10
159.8571669444
 20
523.9327163113
 30
0.0
 11
159.6297603234
 21
523.0840206755
 31
0.0
  0
ARC
  5
1AD
330
1F
100
AcDbEntity
  8
0
  6
Continuous
 62
     7
370
    15
100
AcDbCircle
 10
170.9934635501
 20
524.9679915057
 30
0.0
 40
4.000000000000012
100
AcDbArc
 50
180.0
 51
195.0
  0
ARC
  5
1AE
330
1F
100
AcDbEntity
  8
0
  6
Continuous
 62
     7
370
    15
100
AcDbCircle
 10
155.9934635501
 20
524.9679915057
 30
0.0
 40
4.000000000000039
100
AcDbArc
 50
345.0
 51
0.0
  0
LINE
  5
1AF
330
1F
100
AcDbEntity
  8
0
  6
Continuous
 62
     7
370
    15
100
AcDbLine
 10
166.9934636581
 20
543.8913837684
 30
0.0
 11
166.9934636581
 21
545.8913803709
 31
0.0
  0
LINE
  5
1B0
330
1F
100
AcDbEntity
  8
0
  6
Continuous
 62
     7
370
    15
100
AcDbLine
 10
159.993463442
 20
545.8913803709
 30
0.0
 11
159.993463442
 21
543.8913837684
 31
0.0
  0
LINE
  5
1B1
330
1F
100
AcDbEntity
  8
0
  6
Continuous
 62
     7
370
    15
100
AcDbLine
 10
166.9934636581
 20
545.8913803709
 30
0.0
 11
165.4434634972
 21
547.4413842572
 31
0.0
  0
LINE
  5
1B2
330
1F
100
AcDbEntity
  8
0
  6
Continuous
 62
     7
370
    15
100
AcDbLine
 10
161.543463603
 20
547.4413842572
 30
0.0
 11
159.993463442
 21
545.8913803709
 31
0.0
  0
LINE
  5
1B3
330
1F
100
AcDbEntity
  8
0
  6
Continuous
 62
     7
370
    15
100
AcDbLine
 10
166.9934636581
 20
524.9679893864
 30
0.0
 11
166.9934636581
 21
527.9413819922
 31
0.0
  0
LINE
  5
1B4
330
1F
100
AcDbEntity
  8
0
  6
Continuous
 62
     7
370
    15
100
AcDbLine
 10
159.993463442
 20
527.9413819922
 30
0.0
 11
159.993463442
 21
524.9679893864
 31
0.0
  0
LINE
  5
1B5
330
1F
100
AcDbEntity
  8
0
  6
Continuous
 62
     7
370
    15
100
AcDbLine
 10
166.9934636581
 20
530.9413806213
 30
0.0
 11
166.9934636581
 21
540.8413842929
 31
0.0
  0
LINE
  5
1B6
330
1F
100
AcDbEntity
  8
0
  6
Continuous
 62
     7
370
    15
100
AcDbLine
 10
159.993463442
 20
540.8413842929
 30
0.0
 11
159.993463442
 21
530.9413806213
 31
0.0
  0
LINE
  5
1B7
330
1F
100
AcDbEntity
  8
0
  6
Continuous
 62
     7
370
    15
100
AcDbLine
 10
166.4934635761
 20
527.9413819922
 30
0.0
 11
166.4934635761
 21
530.9413806213
 31
0.0
  0
LINE
  5
1B8
330
1F
100
AcDbEntity
  8
0
  6
Continuous
 62
     7
370
    15
100
AcDbLine
 10
160.493463524
 20
530.9413806213
 30
0.0
 11
160.493463524
 21
527.9413819922
 31
0.0
  0
LINE
  5
1B9
330
1F
100
AcDbEntity
  8
0
  6
Continuous
 62
     7
370
    15
100
AcDbLine
 10
165.4434634972
 20
540.8413842929
 30
0.0
 11
165.4434634972
 21
543.8913837684
 31
0.0
  0
LINE
  5
1BA
330
1F
100
AcDbEntity
  8
0
  6
Continuous
 62
     7
370
    15
100
AcDbLine
 10
161.543463603
 20
543.8913837684
 30
0.0
 11
161.543463603
 21
540.8413842929
 31
0.0
  0
LINE
  5
1BB
330
1F
100
AcDbEntity
  8
0
  6
Continuous
 62
     7
370
    15
100
AcDbLine
 10
178.4734639938
 20
486.5412921322
 30
0.0
 11
178.4734639938
 21
496.4413852108
 31
0.0
  0
LINE
  5
1BC
330
1F
100
AcDbEntity
  8
0
  6
Continuous
 62
     7
370
    15
100
AcDbLine
 10
148.5134631063
 20
496.4413852108
 30
0.0
 11
148.5134631063
 21
486.5412921322
 31
0.0
  0
SPLINE
  5
1BD
330
1F
100
AcDbEntity
  8
0
  6
Continuous
 62
     7
370
    15
100
AcDbSpline
210
0.0
220
0.0
230
1.0
 70
     8
 71
     3
 72
    19
 73
    15
 74
     0
 42
0.00000001
 43
0.00000001
 40
0.0
 40
0.0
 40
0.0
 40
0.0
 40
0.0015793254838984
 40
0.0272817344626022
 40
0.0988845397476626
 40
0.1857723116269058
 40
0.2653952401458465
 40
0.3427156134166979
 40
0.4238405279500473
 40
0.5256651494212212
 40
0.6395811953596848
 40
0.761898082287548
 40
0.8929578595908311
 40
1.0
 40
1.0
 40
1.0
 40
1.0
 10
161.8528023961223
 20
432.4559373458476
 30
0.0
 10
161.8473549240651
 20
432.456004768769
 30
0.0
 10
161.7532536842182
 20
432.4571694522083
 30
0.0
 10
161.5324592098025
 20
432.4607015027909
 30
0.0
 10
161.2151068413972
 20
432.4666474643396
 30
0.0
 10
160.8671808867021
 20
432.4746521260214
 30
0.0
 10
160.1062331207973
 20
432.4968300569196
 30
0.0
 10
159.0690805066909
 20
432.5396778731732
 30
0.0
 10
157.6968776218365
 20
432.6156938521513
 30
0.0
 10
155.9987055261549
 20
432.740751739591
 30
0.0
 10
154.0679318028799
 20
432.9269017889304
 30
0.0
 10
152.0467289641879
 20
433.1831062380706
 30
0.0
 10
150.142880309273
 20
433.4693065692212
 30
0.0
 10
148.9492672978547
 20
433.6522849086637
 30
0.0
 10
148.4126614074445
 20
433.7345454519244
 30
0.0
  0
SPLINE
  5
1BE
330
1F
100
AcDbEntity
  8
0
  6
Continuous
 62
     7
370
    15
100
AcDbSpline
210
0.0
220
0.0
230
1.0
 70
     8
 71
     3
 72
    37
 73
    33
 74
     0
 42
0.00000001
 43
0.00000001
 40
0.0
 40
0.0
 40
0.0
 40
0.0
 40
0.0388264957756515
 40
0.0696392388699845
 40
0.0925760190430206
 40
0.1078331584827674
 40
0.1201777198194129
 40
0.1373098186778308
 40
0.1607905025562371
 40
0.1833242690437252
 40
0.2149043927254085
 40
0.2564513853001036
 40
0.3081446432802576
 40
0.3658320548739096
 40
0.4194049587645271
 40
0.4678596796264919
 40
0.512813251261439
 40
0.5546003612503779
 40
0.5923959099871438
 40
0.6257283390966295
 40
0.656445798199213
 40
0.6915237160251085
 40
0.7312657810406026
 40
0.7749583903594782
 40
0.7982497424967483
 40
0.8213716441625405
 40
0.8451946556675316
 40
0.8733857889384257
 40
0.9082578656120477
 40
0.9500221820226494
 40
0.9876155061038873
 40
1.0
 40
1.0
 40
1.0
 40
1.0
 10
158.3493675704337
 20
443.6320834470542
 30
0.0
 10
158.9260335654993
 20
443.7967208041893
 30
0.0
 10
159.9603422296296
 20
444.0920145207972
 30
0.0
 10
161.3809985141298
 20
444.3176375858059
 30
0.0
 10
162.4545064428836
 20
444.4158066400158
 30
0.0
 10
163.2523766289656
 20
444.4440770226497
 30
0.0
 10
163.9794154586804
 20
444.4400687985066
 30
0.0
 10
164.8185148538566
 20
444.398133818721
 30
0.0
 10
165.8027762478331
 20
444.2900428165466
 30
0.0
 10
166.9893115878234
 20
444.0773667538866
 30
0.0
 10
168.4025076503419
 20
443.7045753762822
 30
0.0
 10
170.1722259989504
 20
443.0305321187686
 30
0.0
 10
172.1797038789469
 20
441.9543692511673
 30
0.0
 10
174.1408502623985
 20
440.4731192040189
 30
0.0
 10
175.8545992666473
 20
438.6888132032544
 30
0.0
 10
177.1929611616851
 20
436.7972477848294
 30
0.0
 10
178.1933293750395
 20
434.8672937120081
 30
0.0
 10
178.880270714373
 20
432.9630199724324
 30
0.0
 10
179.2888521703326
 20
431.1762261867484
 30
0.0
 10
179.4810754944864
 20
429.5345207436574
 30
0.0
 10
179.5116526413537
 20
427.9265638469101
 30
0.0
 10
179.3725784744016
 20
426.2188744835598
 30
0.0
 10
178.9998194330364
 20
424.3315254815992
 30
0.0
 10
178.448703211588
 20
422.6835076204786
 30
0.0
 10
177.8509540498538
 20
421.3578409125351
 30
0.0
 10
177.2987751178307
 20
420.337747100038
 30
0.0
 10
176.7334227419767
 20
419.4493803675848
 30
0.0
 10
176.2241758745418
 20
418.738237001726
 30
0.0
 10
175.7405459255446
 20
418.1454065828021
 30
0.0
 10
175.4243421567509
 20
417.7243157665968
 30
0.0
 10
175.2906519214942
 20
417.3990951292856
 30
0.0
 10
175.351532303757
 20
417.381266341391
 30
0.0
 10
175.3666184510327
 20
417.3768483711036
 30
0.0
  0
SPLINE
  5
1BF
330
1F
100
AcDbEntity
  8
0
  6
Continuous
 62
     7
370
    15
100
AcDbSpline
210
0.0
220
0.0
230
1.0
 70
     8
 71
     3
 72
    20
 73
    16
 74
     0
 42
0.00000001
 43
0.00000001
 40
0.0
 40
0.0
 40
0.0
 40
0.0
 40
0.0127204903071366
 40
0.1499989688989998
 40
0.310311894370796
 40
0.4521858021181688
 40
0.5400528771363216
 40
0.6121195055868038
 40
0.6752641263383997
 40
0.7371234538989782
 40
0.804607216420395
 40
0.8696808625440445
 40
0.9361660034422246
 40
0.9765452930806146
 40
1.0
 40
1.0
 40
1.0
 40
1.0
 10
178.5406263212896
 20
433.7781634790452
 30
0.0
 10
178.4688481914564
 20
433.7642068663929
 30
0.0
 10
177.6224464251316
 20
433.5996316451063
 30
0.0
 10
175.6762868781119
 20
433.2701212280992
 30
0.0
 10
172.9188890835966
 20
432.9172493620073
 30
0.0
 10
170.4405332222738
 20
432.6929478527186
 30
0.0
 10
168.5204067614331
 20
432.5703049475827
 30
0.0
 10
167.0871670251711
 20
432.5039099037101
 30
0.0
 10
165.857793103896
 20
432.466232657218
 30
0.0
 10
164.8659048912245
 20
432.4488289486507
 30
0.0
 10
164.168938271592
 20
432.4440301536472
 30
0.0
 10
163.7264656047711
 20
432.4439335630164
 30
0.0
 10
163.4645967965073
 20
432.444704451068
 30
0.0
 10
163.1903066655747
 20
432.4454473388391
 30
0.0
 10
162.9875166085315
 20
432.4464128011975
 30
0.0
 10
162.9130048810727
 20
432.446767543778
 30
0.0
  0
LINE
  5
1C0
330
1F
100
AcDbEntity
  8
0
  6
Continuous
 62
     7
370
    15
100
AcDbLine
 10
103.4934648912
 20
349.4413778795
 30
0.0
 11
103.4934648912
 21
336.4413813365
 31
0.0
  0
LINE
  5
1C1
330
1F
100
AcDbEntity
  8
0
  6
Continuous
 62
     7
370
    15
100
AcDbLine
 10
223.493462209
 20
336.4413813365
 30
0.0
 11
223.493462209
 21
349.4413778795
 31
0.0
  0
ARC
  5
1C2
330
1F
100
AcDbEntity
  8
0
  6
Continuous
 62
     7
370
    15
100
AcDbCircle
 10
163.4934635501
 20
410.4413815153
 30
0.0
 40
34.50000000000004
100
AcDbArc
 50
339.172503068
 51
339.6455936018
  0
ARC
  5
1C3
330
1F
100
AcDbEntity
  8
0
  6
Continuous
 62
     7
370
    15
100
AcDbCircle
 10
163.4934635501
 20
410.4413815153
 30
0.0
 40
34.50000000000004
100
AcDbArc
 50
200.3544063982
 51
200.827496932
  0
ARC
  5
1C4
330
1F
100
AcDbEntity
  8
0
  6
Continuous
 62
     7
370
    15
100
AcDbCircle
 10
184.5232043949
 20
402.4413815153
 30
0.0
 40
12.00000000000001
100
AcDbArc
 50
325.2633725835
 51
339.172503068
  0
ARC
  5
1C5
330
1F
100
AcDbEntity
  8
0
  6
Continuous
 62
     7
370
    15
100
AcDbCircle
 10
142.4637227053
 20
402.4413815153
 30
0.0
 40
12.00000000000001
100
AcDbArc
 50
200.827496932
 51
214.7366274165
  0
ARC
  5
1C6
330
1F
100
AcDbEntity
  8
0
  6
Continuous
 62
     7
370
    15
100
AcDbCircle
 10
128.4934635501
 20
392.7546968845
 30
0.0
 40
5.000000000000023
100
AcDbArc
 50
0.0
 51
34.7366274165
  0
ARC
  5
1C7
330
1F
100
AcDbEntity
  8
0
  6
Continuous
 62
     7
370
    15
100
AcDbCircle
 10
198.4934635501
 20
392.7546968845
 30
0.0
 40
5.0
100
AcDbArc
 50
145.2633725835
 51
180.0
  0
LINE
  5
1C8
330
1F
100
AcDbEntity
  8
0
  6
Continuous
 62
     7
370
    15
100
AcDbLine
 10
193.4934628795
 20
389.8622640086
 30
0.0
 11
193.4934628795
 21
392.7546986056
 31
0.0
  0
LINE
  5
1C9
330
1F
100
AcDbEntity
  8
0
  6
Continuous
 62
     7
370
    15
100
AcDbLine
 10
133.4934642206
 20
392.7546986056
 30
0.0
 11
133.4934642206
 21
389.8622640086
 31
0.0
  0
LINE
  5
1CA
330
1F
100
AcDbEntity
  8
0
  6
Continuous
 62
     7
370
    15
100
AcDbLine
 10
133.4934642206
 20
376.4798589659
 30
0.0
 11
133.4934642206
 21
366.0745867205
 31
0.0
  0
ARC
  5
1CB
330
1F
100
AcDbEntity
  8
0
  6
Continuous
 62
     7
370
    15
100
AcDbCircle
 10
132.4934635501
 20
465.1344289444
 30
0.0
 40
2.500000000000014
100
AcDbArc
 50
343.9057058658
 51
38.3378288678
  0
ARC
  5
1CC
330
1F
100
AcDbEntity
  8
0
  6
Continuous
 62
     7
370
    15
100
AcDbCircle
 10
194.4934635501
 20
465.1344289444
 30
0.0
 40
2.500000000000015
100
AcDbArc
 50
141.6621711323
 51
196.0942941342
  0
LINE
  5
1CD
330
1F
100
AcDbEntity
  8
0
  6
Continuous
 62
     7
370
    15
100
AcDbLine
 10
128.4934634011
 20
483.4413812173
 30
0.0
 11
128.4934634011
 21
477.1753535283
 31
0.0
  0
LINE
  5
1CE
330
1F
100
AcDbEntity
  8
0
  6
Continuous
 62
     7
370
    15
100
AcDbLine
 10
198.4934636991
 20
477.1753535283
 30
0.0
 11
198.4934636991
 21
483.4413812173
 31
0.0
  0
LINE
  5
1CF
330
1F
100
AcDbEntity
  8
0
  6
Continuous
 62
     7
370
    15
100
AcDbLine
 10
195.0433829467
 20
366.1202289773
 30
0.0
 11
195.0424478988
 21
366.1202289773
 31
0.0
  0
ARC
  5
1D0
330
1F
100
AcDbEntity
  8
0
  6
Continuous
 62
     7
370
    15
100
AcDbCircle
 10
184.1150541774
 20
455.4413815153
 30
0.0
 40
12.00000000000005
100
AcDbArc
 50
32.5751192873
 51
48.5903778907
  0
ARC
  5
1D1
330
1F
100
AcDbEntity
  8
0
  6
Continuous
 62
     7
370
    15
100
AcDbCircle
 10
184.1150541774
 20
455.4413815153
 30
0.0
 40
12.00000000000005
100
AcDbArc
 50
23.5781784782
 51
32.5751192873
  0
ARC
  5
1D2
330
1F
100
AcDbEntity
  8
0
  6
Continuous
 62
     7
370
    15
100
AcDbCircle
 10
142.8718729228
 20
455.4413815153
 30
0.0
 40
12.00000000000003
100
AcDbArc
 50
154.4110456065
 51
156.4218215218
  0
ARC
  5
1D3
330
1F
100
AcDbEntity
  8
0
  6
Continuous
 62
     7
370
    15
100
AcDbCircle
 10
142.8718729228
 20
455.4413815153
 30
0.0
 40
12.00000000000004
100
AcDbArc
 50
131.4096221093
 51
154.4110456065
  0
LINE
  5
1D4
330
1F
100
AcDbEntity
  8
0
  6
Continuous
 62
     7
370
    15
100
AcDbLine
 10
166.9934636581
 20
545.8913803709
 30
0.0
 11
159.993463442
 21
545.8913803709
 31
0.0
  0
LINE
  5
1D5
330
1F
100
AcDbEntity
  8
0
  6
Continuous
 62
     7
370
    15
100
AcDbLine
 10
166.9934636581
 20
543.8913837684
 30
0.0
 11
159.993463442
 21
543.8913837684
 31
0.0
  0
LINE
  5
1D6
330
1F
100
AcDbEntity
  8
0
  6
Continuous
 62
     7
370
    15
100
AcDbLine
 10
165.4434634972
 20
547.4413842572
 30
0.0
 11
161.543463603
 21
547.4413842572
 31
0.0
  0
LINE
  5
1D7
330
1F
100
AcDbEntity
  8
0
  6
Continuous
 62
     7
370
    15
100
AcDbLine
 10
166.9934636581
 20
527.9413819922
 30
0.0
 11
159.993463442
 21
527.9413819922
 31
0.0
  0
LINE
  5
1D8
330
1F
100
AcDbEntity
  8
0
  6
Continuous
 62
     7
370
    15
100
AcDbLine
 10
166.9934636581
 20
540.8413842929
 30
0.0
 11
159.993463442
 21
540.8413842929
 31
0.0
  0
LINE
  5
1D9
330
1F
100
AcDbEntity
  8
0
  6
Continuous
 62
     7
370
    15
100
AcDbLine
 10
166.9934636581
 20
530.9413806213
 30
0.0
 11
159.993463442
 21
530.9413806213
 31
0.0
  0
LINE
  5
1DA
330
1F
100
AcDbEntity
  8
0
  6
Continuous
 62
     7
370
    15
100
AcDbLine
 10
178.4734639938
 20
496.4413852108
 30
0.0
 11
172.4600901495
 21
496.4413852108
 31
0.0
  0
LINE
  5
1DB
330
1F
100
AcDbEntity
  8
0
  6
Continuous
 62
     7
370
    15
100
AcDbLine
 10
154.5268369506
 20
496.4413852108
 30
0.0
 11
148.5134631063
 21
496.4413852108
 31
0.0
  0
LINE
  5
1DC
330
1F
100
AcDbEntity
  8
0
  6
Continuous
 62
     7
370
    15
100
AcDbLine
 10
154.5268369506
 20
496.4413852108
 30
0.0
 11
154.5268369506
 21
489.4413822008
 31
0.0
  0
LINE
  5
1DD
330
1F
100
AcDbEntity
  8
0
  6
Continuous
 62
     7
370
    15
100
AcDbLine
 10
154.5268369506
 20
489.4413822008
 30
0.0
 11
172.4600901495
 21
489.4413822008
 31
0.0
  0
LINE
  5
1DE
330
1F
100
AcDbEntity
  8
0
  6
Continuous
 62
     7
370
    15
100
AcDbLine
 10
172.4600901495
 20
489.4413822008
 30
0.0
 11
172.4600901495
 21
496.4413852108
 31
0.0
  0
LINE
  5
1DF
330
1F
100
AcDbEntity
  8
0
  6
Continuous
 62
     7
370
    15
100
AcDbLine
 10
172.4600901495
 20
496.4413852108
 30
0.0
 11
154.5268369506
 21
496.4413852108
 31
0.0
  0
LINE
  5
1E0
330
1F
100
AcDbEntity
  8
0
  6
Continuous
 62
     7
370
    15
100
AcDbLine
 10
125.9934620599
 20
333.4413827074
 30
0.0
 11
126.0521167557
 21
333.4413827074
 31
0.0
  0
LINE
  5
1E1
330
1F
100
AcDbEntity
  8
0
  6
Continuous
 62
     7
370
    15
100
AcDbLine
 10
137.2951993386
 20
333.4413827074
 30
0.0
 11
189.6917277615
 21
333.4413827074
 31
0.0
  0
LINE
  5
1E2
330
1F
100
AcDbEntity
  8
0
  6
Continuous
 62
     7
370
    15
100
AcDbLine
 10
200.9348103444
 20
333.4413827074
 30
0.0
 11
200.9934650402
 21
333.4413827074
 31
0.0
  0
SPLINE
  5
1E3
330
1F
100
AcDbEntity
  8
0
  6
Continuous
 62
     7
370
    15
100
AcDbSpline
210
0.0
220
0.0
230
1.0
 70
     8
 71
     3
 72
    10
 73
     6
 74
     0
 42
0.00000001
 43
0.00000001
 40
0.0
 40
0.0
 40
0.0
 40
0.0
 40
0.2813414848325199
 40
0.9354023557788848
 40
1.0
 40
1.0
 40
1.0
 40
1.0
 10
166.4075851573832
 20
432.4856064891072
 30
0.0
 10
165.986668788769
 20
432.4748457969386
 30
0.0
 10
164.5872087588274
 20
432.4390687169594
 30
0.0
 10
163.0317885177399
 20
432.4328332566787
 30
0.0
 10
161.9500882150216
 20
432.4565573920214
 30
0.0
 10
161.8528580426461
 20
432.4586898697169
 30
0.0
  0
CIRCLE
  5
1E4
330
1F
100
AcDbEntity
  8
0
  6
Continuous
 62
     7
370
    15
100
AcDbCircle
 10
163.4933739245
 20
428.441377461
 30
0.0
 40
16.00000481458397
  0
CIRCLE
  5
1E5
330
1F
100
AcDbEntity
  8
0
  6
Continuous
 62
     7
370
    15
100
AcDbCircle
 10
163.4934635501
 20
428.4413815153
 30
0.0
 40
34.5
  0
CIRCLE
  5
1E6
330
1F
100
AcDbEntity
  8
0
  6
Continuous
 62
     7
370
    15
100
AcDbCircle
 10
163.4934635501
 20
428.4413815153
 30
0.0
 40
37.5
  0
CIRCLE
  5
1E7
330
1F
100
AcDbEntity
  8
0
  6
Continuous
 62
     7
370
    15
100
AcDbCircle
 10
163.4934635501
 20
428.4413815153
 30
0.0
 40
59.99999999999999
  0
CIRCLE
  5
1E8
330
1F
100
AcDbEntity
  8
0
  6
Continuous
 62
     7
370
    15
100
AcDbCircle
 10
195.3132687035
 20
460.2611866687
 30
0.0
 40
7.0
  0
CIRCLE
  5
1E9
330
1F
100
AcDbEntity
  8
0
  6
Continuous
 62
     7
370
    15
100
AcDbCircle
 10
195.3132687035
 20
396.6215763619
 30
0.0
 40
7.0
  0
CIRCLE
  5
1EA
330
1F
100
AcDbEntity
  8
0
  6
Continuous
 62
     7
370
    15
100
AcDbCircle
 10
131.6736583967
 20
396.6215763619
 30
0.0
 40
6.999999999999986
  0
CIRCLE
  5
1EB
330
1F
100
AcDbEntity
  8
0
  6
Continuous
 62
     7
370
    15
100
AcDbCircle
 10
131.6736583967
 20
460.2611866687
 30
0.0
 40
6.999999999999943
  0
SPLINE
  5
1EC
330
1F
100
AcDbEntity
  8
0
  6
Continuous
 62
     7
370
    15
100
AcDbSpline
210
0.0
220
0.0
230
1.0
 70
     8
 71
     3
 72
    14
 73
    10
 74
     0
 42
0.00000001
 43
0.00000001
 40
0.0
 40
0.0
 40
0.0
 40
0.0
 40
0.4999999999999996
 40
0.4999999999999996
 40
0.7499999999999993
 40
0.7499999999999993
 40
0.8749999999999997
 40
0.8749999999999997
 40
1.0
 40
1.0
 40
1.0
 40
1.0
 10
192.0509729148019
 20
464.4413815153392
 30
0.0
 10
192.7063528862811
 20
463.8635314007835
 30
0.0
 10
193.2908372398176
 20
463.2224429413336
 30
0.0
 10
194.061915744077
 20
462.1670186326592
 30
0.0
 10
194.3021203015419
 20
461.7976521836761
 30
0.0
 10
194.6300885132695
 20
461.2266950800696
 30
0.0
 10
194.7340870567369
 20
461.0335611415904
 30
0.0
 10
194.9314466180053
 20
460.6416819025509
 30
0.0
 10
195.0248003559252
 20
460.4429687310003
 30
0.0
 10
195.1128054385248
 20
460.2413815153392
 30
0.0
  0
SPLINE
  5
1ED
330
1F
100
AcDbEntity
  8
0
  6
Continuous
 62
     7
370
    15
100
AcDbSpline
210
0.0
220
0.0
230
1.0
 70
     8
 71
     3
 72
    10
 73
     6
 74
     0
 42
0.00000001
 43
0.00000001
 40
0.0
 40
0.0
 40
0.0
 40
0.0
 40
0.4343742985592094
 40
0.8687481098361306
 40
1.0
 40
1.0
 40
1.0
 40
1.0
 10
195.1128037314153
 20
460.2413833750041
 30
0.0
 10
195.4913434508914
 20
459.2981413739047
 30
0.0
 10
196.2484224651967
 20
457.4116584298373
 30
0.0
 10
196.933496212465
 20
455.1638048862285
 30
0.0
 10
197.1628213179605
 20
453.8595802696622
 30
0.0
 10
197.2160355787016
 20
453.5569385302813
 30
0.0
  0
LINE
  5
1EE
330
1F
100
AcDbEntity
  8
0
  6
Continuous
 62
     7
370
    15
100
AcDbLine
 10
131.8741457205
 20
460.241383375
 30
0.0
 11
131.7049504857
 21
459.8002344979
 31
0.0
  0
SPLINE
  5
1EF
330
1F
100
AcDbEntity
  8
0
  6
Continuous
 62
     7
370
    15
100
AcDbSpline
210
0.0
220
0.0
230
1.0
 70
     8
 71
     3
 72
    14
 73
    10
 74
     0
 42
0.00000001
 43
0.00000001
 40
0.0
 40
0.0
 40
0.0
 40
0.0
 40
0.4999999999999984
 40
0.4999999999999984
 40
0.7499999999999992
 40
0.7499999999999992
 40
0.8749999999999996
 40
0.8749999999999996
 40
1.0
 40
1.0
 40
1.0
 40
1.0
 10
134.9360010796348
 20
464.4413815153393
 30
0.0
 10
134.2806178774832
 20
463.8635305519575
 30
0.0
 10
133.6961311370155
 20
463.2224428816464
 30
0.0
 10
132.9250454743017
 20
462.1670158635937
 30
0.0
 10
132.6848384743516
 20
461.7976483231749
 30
0.0
 10
132.3568679149754
 20
461.2266921048474
 30
0.0
 10
132.2528686552162
 20
461.0335586558913
 30
0.0
 10
132.0555076682246
 20
460.6416806587841
 30
0.0
 10
131.9621531641963
 20
460.4429687251348
 30
0.0
 10
131.8741472520873
 20
460.2413815153392
 30
0.0
  0
LINE
  5
1F0
330
1F
100
AcDbEntity
  8
0
  6
Continuous
 62
     7
370
    15
100
AcDbLine
 10
163.7434635619
 20
349.4413778795
 30
0.0
 11
169.3934637721
 21
349.4413778795
 31
0.0
  0
SPLINE
  5
1F1
330
1F
100
AcDbEntity
  8
0
  6
Continuous
 62
     7
370
    15
100
AcDbSpline
210
0.0
220
0.0
230
1.0
 70
     8
 71
     3
 72
    22
 73
    18
 74
     0
 42
0.00000001
 43
0.00000001
 40
0.0
 40
0.0
 40
0.0
 40
0.0
 40
0.0624999999999993
 40
0.0624999999999993
 40
0.1249999999999986
 40
0.1249999999999986
 40
0.2499999999999978
 40
0.2499999999999978
 40
0.4999999999999983
 40
0.4999999999999983
 40
0.6249999999999988
 40
0.6249999999999988
 40
0.7499999999999991
 40
0.7499999999999991
 40
0.8749999999999996
 40
0.8749999999999996
 40
1.0
 40
1.0
 40
1.0
 40
1.0
 10
169.3934635500646
 20
349.4413815153392
 30
0.0
 10
169.2972271867893
 20
349.4413815153392
 30
0.0
 10
169.2020325535641
 20
349.4450474211566
 30
0.0
 10
169.0228864776051
 20
349.4579889478438
 30
0.0
 10
168.938913562664
 20
349.4670678733915
 30
0.0
 10
168.6916968937835
 20
349.5014321525163
 30
0.0
 10
168.533983923845
 20
349.5339174459531
 30
0.0
 10
168.0714961613278
 20
349.6583998844688
 30
0.0
 10
167.7757211716795
 20
349.7772390982373
 30
0.0
 10
167.341382468565
 20
350.0207620508411
 30
0.0
 10
167.1979049390702
 20
350.1135127998658
 30
0.0
 10
166.9221322531874
 20
350.3194391466433
 30
0.0
 10
166.7888829087426
 20
350.4330198202987
 30
0.0
 10
166.5320318112998
 20
350.6853287164066
 30
0.0
 10
166.4095861622534
 20
350.823328638854
 30
0.0
 10
166.1849686263885
 20
351.1165950359191
 30
0.0
 10
166.0816094375385
 20
351.2729166558395
 30
0.0
 10
165.9879611056926
 20
351.4407097653056
 30
0.0
  0
SPLINE
  5
1F2
330
1F
100
AcDbEntity
  8
0
  6
Continuous
 62
     7
370
    15
100
AcDbSpline
210
0.0
220
0.0
230
1.0
 70
     8
 71
     3
 72
    20
 73
    16
 74
     0
 42
0.00000001
 43
0.00000001
 40
0.0
 40
0.0
 40
0.0
 40
0.0
 40
0.1250000000000002
 40
0.1250000000000002
 40
0.2500000000000003
 40
0.2500000000000003
 40
0.5000000000000004
 40
0.5000000000000004
 40
0.7500000000000003
 40
0.7500000000000003
 40
0.874999999999999
 40
0.874999999999999
 40
0.9374999999999994
 40
0.9374999999999994
 40
1.0
 40
1.0
 40
1.0
 40
1.0
 10
160.9989659944367
 20
351.4407097653056
 30
0.0
 10
160.9052615031455
 20
351.2728160329265
 30
0.0
 10
160.8018735927923
 20
351.1164746446684
 30
0.0
 10
160.5772763442018
 20
350.8232538785865
 30
0.0
 10
160.4548999019589
 20
350.6853307381783
 30
0.0
 10
160.0695264144387
 20
350.3067797953664
 30
0.0
 10
159.7940713607667
 20
350.1042607482284
 30
0.0
 10
159.2114134978544
 20
349.7771335492417
 30
0.0
 10
158.9149000707455
 20
349.6582318039949
 30
0.0
 10
158.4527776660894
 20
349.5338855115866
 30
0.0
 10
158.2961982285048
 20
349.5015792037271
 30
0.0
 10
158.0479582169217
 20
349.4670539539507
 30
0.0
 10
157.9636718715716
 20
349.4579484770186
 30
0.0
 10
157.7840672069464
 20
349.4450015787293
 30
0.0
 10
157.689143732506
 20
349.4413815153392
 30
0.0
 10
157.5934635500647
 20
349.4413815153392
 30
0.0
  0
LINE
  5
1F3
330
1F
100
AcDbEntity
  8
0
  6
Continuous
 62
     7
370
    15
100
AcDbLine
 10
157.593463328
 20
349.4413778795
 30
0.0
 11
163.2434635382
 21
349.4413778795
 31
0.0
  0
LINE
  5
1F4
330
1F
100
AcDbEntity
  8
0
  6
Continuous
 62
     7
370
    15
100
AcDbLine
 10
103.4934648912
 20
349.4413778795
 30
0.0
 11
157.593463328
 21
349.4413778795
 31
0.0
  0
LINE
  5
1F5
330
1F
100
AcDbEntity
  8
0
  6
Continuous
 62
     7
370
    15
100
AcDbLine
 10
163.2434635382
 20
349.4413778795
 30
0.0
 11
163.7434635619
 21
349.4413778795
 31
0.0
  0
LINE
  5
1F6
330
1F
100
AcDbEntity
  8
0
  6
Continuous
 62
     7
370
    15
100
AcDbLine
 10
169.3934637721
 20
349.4413778795
 30
0.0
 11
223.493462209
 21
349.4413778795
 31
0.0
  0
LINE
  5
1F7
330
1F
100
AcDbEntity
  8
0
  6
Continuous
 62
     7
370
    15
100
AcDbLine
 10
103.4934648912
 20
336.4413813365
 30
0.0
 11
223.493462209
 21
336.4413813365
 31
0.0
  0
LINE
  5
1F8
330
1F
100
AcDbEntity
  8
0
  6
Continuous
 62
     7
370
    15
100
AcDbLine
 10
163.7434635619
 20
368.4413828564
 30
0.0
 11
165.4934636451
 21
368.4413828564
 31
0.0
  0
LINE
  5
1F9
330
1F
100
AcDbEntity
  8
0
  6
Continuous
 62
     7
370
    15
100
AcDbLine
 10
161.4934634551
 20
368.4413828564
 30
0.0
 11
163.2434635382
 21
368.4413828564
 31
0.0
  0
ARC
  5
1FA
330
1F
100
AcDbEntity
  8
0
  6
Continuous
 62
     7
370
    15
100
AcDbCircle
 10
169.3934635501
 20
353.3413815153
 30
0.0
 40
3.900000000000006
100
AcDbArc
 50
180.0
 51
209.1666666437
  0
LINE
  5
1FB
330
1F
100
AcDbEntity
  8
0
  6
Continuous
 62
     7
370
    15
100
AcDbLine
 10
165.4934636451
 20
353.3413842929
 30
0.0
 11
165.4934636451
 21
368.4413828564
 31
0.0
  0
ARC
  5
1FC
330
1F
100
AcDbEntity
  8
0
  6
Continuous
 62
     7
370
    15
100
AcDbCircle
 10
157.5934635501
 20
353.3413815153
 30
0.0
 40
3.899999999999977
100
AcDbArc
 50
330.8333333563
 51
0.0
  0
LINE
  5
1FD
330
1F
100
AcDbEntity
  8
0
  6
Continuous
 62
     7
370
    15
100
AcDbLine
 10
161.4934634551
 20
353.3413842929
 30
0.0
 11
161.4934634551
 21
368.4413828564
 31
0.0
  0
SPLINE
  5
1FE
330
1F
100
AcDbEntity
  8
0
  6
Continuous
 62
     7
370
    15
100
AcDbSpline
210
0.0
220
0.0
230
1.0
 70
     8
 71
     3
 72
    26
 73
    22
 74
     0
 42
0.00000001
 43
0.00000001
 40
0.0
 40
0.0
 40
0.0
 40
0.0
 40
0.1250000000000031
 40
0.1250000000000031
 40
0.1875000000000033
 40
0.1875000000000033
 40
0.2500000000000036
 40
0.2500000000000036
 40
0.375000000000004
 40
0.375000000000004
 40
0.5000000000000044
 40
0.5000000000000044
 40
0.6250000000000058
 40
0.6250000000000058
 40
0.6875000000000047
 40
0.6875000000000047
 40
0.7500000000000036
 40
0.7500000000000036
 40
0.8750000000000018
 40
0.8750000000000018
 40
1.0
 40
1.0
 40
1.0
 40
1.0
 10
157.5934635500647
 20
349.4413815153392
 30
0.0
 10
157.6368619763102
 20
349.4413815153392
 30
0.0
 10
157.6797983936375
 20
349.4737427660956
 30
0.0
 10
157.7435237511176
 20
349.5687944507537
 30
0.0
 10
157.7646510440293
 20
349.6082876493647
 30
0.0
 10
157.8066632786102
 20
349.703239513515
 30
0.0
 10
157.8276267153021
 20
349.7590162360236
 30
0.0
 10
157.8887941643587
 20
349.9470205172045
 30
0.0
 10
157.927687506181
 20
350.100363885496
 30
0.0
 10
158.0016255548225
 20
350.4623551143582
 30
0.0
 10
158.036890299587
 20
350.6733447793225
 30
0.0
 10
158.1003655578266
 20
351.134373134525
 30
0.0
 10
158.1289573880111
 20
351.3857034887141
 30
0.0
 10
158.1669248694614
 20
351.7944519772597
 30
0.0
 10
158.1787832438775
 20
351.9365781898408
 30
0.0
 10
158.20030134595
 20
352.2254912474209
 30
0.0
 10
158.2100299636427
 20
352.3729205022926
 30
0.0
 10
158.2361601824916
 20
352.8239537313098
 30
0.0
 10
158.2495563231657
 20
353.1369786729933
 30
0.0
 10
158.2676790178502
 20
353.7841426112203
 30
0.0
 10
158.2722246120115
 20
354.1110797718791
 30
0.0
 10
158.2722246120115
 20
354.4413815153392
 30
0.0
  0
SPLINE
  5
1FF
330
1F
100
AcDbEntity
  8
0
  6
Continuous
 62
     7
370
    15
100
AcDbSpline
210
0.0
220
0.0
230
1.0
 70
     8
 71
     3
 72
    22
 73
    18
 74
     0
 42
0.00000001
 43
0.00000001
 40
0.0
 40
0.0
 40
0.0
 40
0.0
 40
0.125
 40
0.125
 40
0.25
 40
0.25
 40
0.375
 40
0.375
 40
0.5
 40
0.5
 40
0.625
 40
0.625
 40
0.75
 40
0.75
 40
0.875
 40
0.875
 40
1.0
 40
1.0
 40
1.0
 40
1.0
 10
168.7147024881177
 20
354.4413815153392
 30
0.0
 10
168.7147024881177
 20
354.1111803472684
 30
0.0
 10
168.7192447266531
 20
353.7864354306969
 30
0.0
 10
168.7370186527484
 20
353.1474229787996
 30
0.0
 10
168.7504687391941
 20
352.8298461367012
 30
0.0
 10
168.7854376110014
 20
352.224767871955
 30
0.0
 10
168.8068041785927
 20
351.9375962230873
 30
0.0
 10
168.8571203167986
 20
351.3938193825234
 30
0.0
 10
168.8862688668429
 20
351.1368174124073
 30
0.0
 10
168.949644873356
 20
350.6758762732402
 30
0.0
 10
168.9841161638226
 20
350.4687762113199
 30
0.0
 10
169.0586337505986
 20
350.1027270587928
 30
0.0
 10
169.0978775696087
 20
349.9481126299926
 30
0.0
 10
169.17884376668
 20
349.6986446244062
 30
0.0
 10
169.2211009119326
 20
349.6023833445619
 30
0.0
 10
169.3069255198327
 20
349.4737276074244
 30
0.0
 10
169.3500782808792
 20
349.4413815153392
 30
0.0
 10
169.3934635500646
 20
349.4413815153392
 30
0.0
  0
SPLINE
  5
200
330
1F
100
AcDbEntity
  8
0
  6
Continuous
 62
     7
370
    15
100
AcDbSpline
210
0.0
220
0.0
230
1.0
 70
     8
 71
     3
 72
    14
 73
    10
 74
     0
 42
0.00000001
 43
0.00000001
 40
0.0
 40
0.0
 40
0.0
 40
0.0
 40
0.25
 40
0.25
 40
0.5
 40
0.5
 40
0.75
 40
0.75
 40
1.0
 40
1.0
 40
1.0
 40
1.0
 10
133.6972237331184
 20
363.9880476870053
 30
0.0
 10
133.6965704541327
 20
363.8354987891603
 30
0.0
 10
133.6954585670939
 20
363.6836216534056
 30
0.0
 10
133.6871119876942
 20
363.389451319164
 30
0.0
 10
133.6806735749281
 20
363.2438925364957
 30
0.0
 10
133.6645991431393
 20
362.9800394439883
 30
0.0
 10
133.6546732076284
 20
362.8603307281045
 30
0.0
 10
133.6336003465062
 20
362.6374101420741
 30
0.0
 10
133.6223478707661
 20
362.5406538989336
 30
0.0
 10
133.6116624178896
 20
362.4463810203387
 30
0.0
  0
SPLINE
  5
201
330
1F
100
AcDbEntity
  8
0
  6
Continuous
 62
     7
370
    15
100
AcDbSpline
210
0.0
220
0.0
230
1.0
 70
     8
 71
     3
 72
    24
 73
    20
 74
     0
 42
0.00000001
 43
0.00000001
 40
0.0
 40
0.0
 40
0.0
 40
0.0
 40
0.125
 40
0.125
 40
0.25
 40
0.25
 40
0.375
 40
0.375
 40
0.5
 40
0.5
 40
0.625
 40
0.625
 40
0.75
 40
0.75
 40
0.875
 40
0.875
 40
0.9375
 40
0.9375
 40
1.0
 40
1.0
 40
1.0
 40
1.0
 10
133.5531343375362
 20
365.9319579434156
 30
0.0
 10
133.56006629883
 20
365.9016750703285
 30
0.0
 10
133.5675304462553
 20
365.8684490939075
 30
0.0
 10
133.5829458430261
 20
365.7826989454675
 30
0.0
 10
133.5910258769642
 20
365.7343496222635
 30
0.0
 10
133.6075175432133
 20
365.6201653221404
 30
0.0
 10
133.61589522946
 20
365.5534824660244
 30
0.0
 10
133.632061042518
 20
365.4078633747299
 30
0.0
 10
133.6400234930261
 20
365.3293584847376
 30
0.0
 10
133.6549981895922
 20
365.1565617825513
 30
0.0
 10
133.6621039895337
 20
365.0631533021887
 30
0.0
 10
133.6745821273039
 20
364.8689900086936
 30
0.0
 10
133.6801007129809
 20
364.7677583410308
 30
0.0
 10
133.6887154058971
 20
364.5538072616853
 30
0.0
 10
133.6918979987816
 20
364.4413680085994
 30
0.0
 10
133.6951758018326
 20
364.2728592102651
 30
0.0
 10
133.6960204981706
 20
364.2163978747843
 30
0.0
 10
133.6969814710181
 20
364.1026362628075
 30
0.0
 10
133.6971031748358
 20
364.045342510732
 30
0.0
 10
133.6972237331184
 20
363.9880476870054
 30
0.0
  0
SPLINE
  5
202
330
1F
100
AcDbEntity
  8
0
  6
Continuous
 62
     7
370
    15
100
AcDbSpline
210
0.0
220
0.0
230
1.0
 70
     8
 71
     3
 72
    12
 73
     8
 74
     0
 42
0.00000001
 43
0.00000001
 40
0.0
 40
0.0
 40
0.0
 40
0.0
 40
0.25
 40
0.25
 40
0.5
 40
0.5
 40
1.0
 40
1.0
 40
1.0
 40
1.0
 10
133.4945885289951
 20
366.0745861485438
 30
0.0
 10
133.495775360104
 20
366.0746017882999
 30
0.0
 10
133.4979012493508
 20
366.0738848089396
 30
0.0
 10
133.50402729562
 20
366.064527459556
 30
0.0
 10
133.5080261892531
 20
366.0580056119335
 30
0.0
 10
133.5228203628641
 20
366.0332956024114
 30
0.0
 10
133.5363583887079
 20
366.0001836076494
 30
0.0
 10
133.5531343375363
 20
365.9319579434156
 30
0.0
  0
LINE
  5
203
330
1F
100
AcDbEntity
  8
0
  6
Continuous
 62
     7
370
    15
100
AcDbLine
 10
134.8934711556
 20
483.4413812173
 30
0.0
 11
139.5143063407
 21
483.4413812173
 31
0.0
  0
LINE
  5
204
330
1F
100
AcDbEntity
  8
0
  6
Continuous
 62
     7
370
    15
100
AcDbLine
 10
187.4726207595
 20
483.4413812173
 30
0.0
 11
192.0934633951
 21
483.4413812173
 31
0.0
  0
LINE
  5
205
330
1F
100
AcDbEntity
  8
0
  6
Continuous
 62
     7
370
    15
100
AcDbLine
 10
137.2884584259
 20
464.4413799656
 30
0.0
 11
134.8954809497
 21
464.4413799656
 31
0.0
  0
LINE
  5
206
330
1F
100
AcDbEntity
  8
0
  6
Continuous
 62
     7
370
    15
100
AcDbLine
 10
192.0914461504
 20
464.4413799656
 30
0.0
 11
189.6984686743
 21
464.4413799656
 31
0.0
  0
LINE
  5
207
330
1F
100
AcDbEntity
  8
0
  6
Continuous
 62
     7
370
    15
100
AcDbLine
 10
128.4934634011
 20
483.4413812173
 30
0.0
 11
134.8934711556
 21
483.4413812173
 31
0.0
  0
LINE
  5
208
330
1F
100
AcDbEntity
  8
0
  6
Continuous
 62
     7
370
    15
100
AcDbLine
 10
192.0934633951
 20
483.4413812173
 30
0.0
 11
198.4934636991
 21
483.4413812173
 31
0.0
  0
LINE
  5
209
330
1F
100
AcDbEntity
  8
0
  6
Continuous
 62
     7
370
    15
100
AcDbLine
 10
131.894530509
 20
366.0745867205
 30
0.0
 11
131.8934650759
 21
366.0745867205
 31
0.0
  0
LINE
  5
20A
330
1F
100
AcDbEntity
  8
0
  6
Continuous
 62
     7
370
    15
100
AcDbLine
 10
131.9034674804
 20
362.8950998796
 30
0.0
 11
131.8961696367
 21
362.8950998796
 31
0.0
  0
LINE
  5
20B
330
1F
100
AcDbEntity
  8
0
  6
Continuous
 62
     7
370
    15
100
AcDbLine
 10
131.8961696367
 20
364.6386922015
 30
0.0
 11
131.9052779715
 21
364.6386922015
 31
0.0
  0
LINE
  5
20C
330
1F
100
AcDbEntity
  8
0
  6
Continuous
 62
     7
370
    15
100
AcDbLine
 10
195.0921209197
 20
365.9084350479
 30
0.0
 11
195.0930410664
 21
365.9775987876
 31
0.0
  0
LINE
  5
20D
330
1F
100
AcDbEntity
  8
0
  6
Continuous
 62
     8
370
    15
100
AcDbLine
 10
167.3571667767
 20
523.0840206755
 30
0.0
 11
159.6297603234
 21
523.0840206755
 31
0.0
  0
LINE
  5
20E
330
1F
100
AcDbEntity
  8
0
  6
Continuous
 62
     8
370
    15
100
AcDbLine
 10
167.4934637401
 20
522.0487476004
 30
0.0
 11
159.4934633601
 21
522.0487476004
 31
0.0
  0
LINE
  5
20F
330
1F
100
AcDbEntity
  8
0
  6
Continuous
 62
     8
370
    15
100
AcDbLine
 10
167.1297601558
 20
523.9327163113
 30
0.0
 11
159.8571669444
 21
523.9327163113
 31
0.0
  0
LINE
  5
210
330
1F
100
AcDbEntity
  8
0
  6
Continuous
 62
     8
370
    15
100
AcDbLine
 10
166.9934636581
 20
524.9679893864
 30
0.0
 11
159.993463442
 21
524.9679893864
 31
0.0
  0
LINE
  5
211
330
1F
100
AcDbEntity
  8
0
  6
Continuous
 62
     8
370
    15
100
AcDbLine
 10
168.7147023755
 20
368.6689906431
 30
0.0
 11
168.7147023755
 21
354.4413805617
 31
0.0
  0
LINE
  5
212
330
1F
100
AcDbEntity
  8
0
  6
Continuous
 62
     8
370
    15
100
AcDbLine
 10
158.2722247246
 20
354.4413805617
 30
0.0
 11
158.2722247246
 21
368.6689906431
 31
0.0
  0
LINE
  5
213
330
1F
100
AcDbEntity
  8
0
  6
Continuous
 62
     8
370
    15
100
AcDbLine
 10
134.8934711556
 20
481.1864331973
 30
0.0
 11
134.8934711556
 21
483.4413812173
 31
0.0
  0
LINE
  5
214
330
1F
100
AcDbEntity
  8
0
  6
Continuous
 62
     8
370
    15
100
AcDbLine
 10
192.0934633951
 20
481.186429472
 30
0.0
 11
192.0934633951
 21
483.4413812173
 31
0.0
  0
LINE
  5
215
330
1F
100
AcDbEntity
  8
1
100
AcDbLine
 10
133.6116624179
 20
362.4463810203
 30
0.0
 11
133.6116624179
 21
349.4413815153
 31
0.0
  0
LINE
  5
216
330
1F
100
AcDbEntity
  8
1
100
AcDbLine
 10
195.0683496174
 20
362.9407397119
 30
0.0
 11
195.0683496174
 21
349.4413815153
 31
0.0
  0
LINE
  5
217
330
1F
100
AcDbEntity
  8
1
100
AcDbLine
 10
125.6758163264
 20
336.4413815153
 30
0.0
 11
128.6758163264
 21
333.4413815153
 31
0.0
  0
LINE
  5
218
330
1F
100
AcDbEntity
  8
1
100
AcDbLine
 10
200.9934635501
 20
336.6575951337
 30
0.0
 11
197.7772499317
 21
333.4413815153
 31
0.0
  0
LINE
  5
219
330
1F
100
AcDbEntity
  8
1
100
AcDbLine
 10
182.9243876321
 20
333.4413815153
 30
0.0
 11
197.7772499317
 21
333.4413815153
 31
0.0
  0
LINE
  5
21A
330
1F
100
AcDbEntity
  8
1
100
AcDbLine
 10
150.0031226866
 20
333.4413815153
 30
0.0
 11
128.6758163264
 21
333.4413815153
 31
0.0
  0
ARC
  5
21B
330
1F
100
AcDbEntity
  8
1
100
AcDbCircle
 10
213.0764105551
 20
420.9398959792
 30
0.0
 40
90.21316051933621
100
AcDbArc
 50
154.1732522079
 51
158.6579570368
  0
ARC
  5
21C
330
1F
100
AcDbEntity
  8
1
100
AcDbCircle
 10
629.6703266652
 20
405.2956602831
 30
0.0
 40
17.98064419346384
100
AcDbArc
 50
337.591769597
 51
353.9260271332
  0
ARC
  5
21D
330
1F
100
AcDbEntity
  8
1
100
AcDbCircle
 10
590.5916386849
 20
403.4007461185
 30
0.0
 40
10.25164593672514
100
AcDbArc
 50
180.0762032487
 51
208.9314440202
  0
ARC
  5
21E
330
1F
100
AcDbEntity
  8
1
100
AcDbCircle
 10
629.4480209912
 20
453.3786368574
 30
0.0
 40
17.52651354991451
100
AcDbArc
 50
359.9538819871
 51
21.4933201548
  0
LINE
  5
21F
330
1F
100
AcDbEntity
  8
0
  6
Continuous
 62
     7
370
    15
100
AcDbLine
 10
462.9598995354
 20
622.389696091
 30
0.0
 11
475.9598960783
 21
622.389696091
 31
0.0
  0
LINE
  5
220
330
1F
100
AcDbEntity
  8
0
  6
Continuous
 62
     7
370
    15
100
AcDbLine
 10
475.9598960783
 20
742.3896934088
 30
0.0
 11
462.9598995354
 21
742.3896934088
 31
0.0
  0
LINE
  5
221
330
1F
100
AcDbEntity
  8
0
  6
Continuous
 62
     7
370
    15
100
AcDbLine
 10
314.959897628
 20
742.3896934088
 30
0.0
 11
301.9599010851
 21
742.3896934088
 31
0.0
  0
LINE
  5
222
330
1F
100
AcDbEntity
  8
0
  6
Continuous
 62
     7
370
    15
100
AcDbLine
 10
301.9599010851
 20
622.389696091
 30
0.0
 11
314.959897628
 21
622.389696091
 31
0.0
  0
SPLINE
  5
223
330
1F
100
AcDbEntity
  8
0
  6
Continuous
 62
     7
370
    15
100
AcDbSpline
210
0.0
220
0.0
230
1.0
 70
     8
 71
     3
 72
     9
 73
     5
 74
     0
 42
0.00000001
 43
0.00000001
 40
0.0
 40
0.0
 40
0.0
 40
0.0
 40
0.0836779266926599
 40
1.0
 40
1.0
 40
1.0
 40
1.0
 10
334.5339027847746
 20
707.3839917029622
 30
0.0
 10
334.4371200200277
 20
707.3703256344129
 30
0.0
 10
333.2805095664438
 20
707.2070081492705
 30
0.0
 10
332.1189920496747
 20
707.0936336497666
 30
0.0
 10
331.0546679105261
 20
706.9897460933212
 30
0.0
  0
LINE
  5
224
330
1F
100
AcDbEntity
  8
0
  6
Continuous
 62
     7
370
    15
100
AcDbLine
 10
331.0569664146
 20
657.8164878483
 30
0.0
 11
334.4690119531
 21
657.4039566513
 31
0.0
  0
ARC
  5
225
330
1F
100
AcDbEntity
  8
0
  6
Continuous
 62
     7
370
    15
100
AcDbCircle
 10
478.9598985817
 20
644.8896947499
 30
0.0
 40
3.0
100
AcDbArc
 50
90.0
 51
180.0
  0
ARC
  5
226
330
1F
100
AcDbEntity
  8
0
  6
Continuous
 62
     7
370
    15
100
AcDbCircle
 10
478.9598985817
 20
719.8896947499
 30
0.0
 40
3.0
100
AcDbArc
 50
180.0
 51
270.0
  0
ARC
  5
227
330
1F
100
AcDbEntity
  8
0
  6
Continuous
 62
     7
370
    15
100
AcDbCircle
 10
298.9598985817
 20
719.8896947499
 30
0.0
 40
3.0
100
AcDbArc
 50
270.0
 51
0.0
  0
ARC
  5
228
330
1F
100
AcDbEntity
  8
0
  6
Continuous
 62
     7
370
    15
100
AcDbCircle
 10
298.9598985817
 20
644.8896947499
 30
0.0
 40
3.0
100
AcDbArc
 50
0.0
 51
90.0
  0
ARC
  5
229
330
1F
100
AcDbEntity
  8
0
  6
Continuous
 62
     7
370
    15
100
AcDbCircle
 10
319.9598891133
 20
713.4354974104
 30
0.0
 40
4.999987226247983
100
AcDbArc
 50
180.1182136319
 51
258.0913125985
  0
ARC
  5
22A
330
1F
100
AcDbEntity
  8
0
  6
Continuous
 62
     7
370
    15
100
AcDbCircle
 10
319.9598898482
 20
651.3441969581
 30
0.0
 40
4.999990872392517
100
AcDbArc
 50
101.8961227014
 51
179.8339252718
  0
ARC
  5
22B
330
1F
100
AcDbEntity
  8
0
  6
Continuous
 62
     7
370
    15
100
AcDbCircle
 10
457.9598890268
 20
650.8315677698
 30
0.0
 40
5.000010669154806
100
AcDbArc
 50
0.0145229322
 51
84.8441986476
  0
ARC
  5
22C
330
1F
100
AcDbEntity
  8
0
  6
Continuous
 62
     7
370
    15
100
AcDbCircle
 10
457.9598993587
 20
713.9459504027
 30
0.0
 40
5.00000049496257
100
AcDbArc
 50
275.2109017776
 51
359.9795574236
  0
SPLINE
  5
22D
330
1F
100
AcDbEntity
  8
0
  6
Continuous
 62
     7
370
    15
100
AcDbSpline
210
0.0
220
0.0
230
1.0
 70
     8
 71
     3
 72
    11
 73
     7
 74
     0
 42
0.00000001
 43
0.00000001
 40
0.0
 40
0.0
 40
0.0
 40
0.0
 40
0.2433530452049908
 40
0.5673094924666469
 40
0.8853190841731539
 40
1.0
 40
1.0
 40
1.0
 40
1.0
 10
325.0177120472887
 20
657.5136664505485
 30
0.0
 10
325.4987366108754
 20
657.6135775319768
 30
0.0
 10
326.6201107066976
 20
657.8464922458612
 30
0.0
 10
328.4162971224956
 20
657.9597267765057
 30
0.0
 10
329.9572799076072
 20
657.9546786728098
 30
0.0
 10
330.8245104133841
 20
657.8324141832486
 30
0.0
 10
331.0543624367216
 20
657.8000090266946
 30
0.0
  0
SPLINE
  5
22E
330
1F
100
AcDbEntity
  8
0
  6
Continuous
 62
     7
370
    15
100
AcDbSpline
210
0.0
220
0.0
230
1.0
 70
     8
 71
     3
 72
     9
 73
     5
 74
     0
 42
0.00000001
 43
0.00000001
 40
0.0
 40
0.0
 40
0.0
 40
0.0
 40
0.0900580081475527
 40
1.0
 40
1.0
 40
1.0
 40
1.0
 10
327.4663490857581
 20
706.8829587842706
 30
0.0
 10
327.405978153218
 20
706.884797525118
 30
0.0
 10
326.7356220818165
 20
706.9052148193167
 30
0.0
 10
326.0758746586997
 20
707.028405116617
 30
0.0
 10
325.4755427743891
 20
707.1405011411193
 30
0.0
  0
LINE
  5
22F
330
1F
100
AcDbEntity
  8
0
  6
Continuous
 62
     7
370
    15
100
AcDbLine
 10
331.0607922878
 20
706.9499264653
 30
0.0
 11
329.2790343668
 21
706.8256712701
 31
0.0
  0
LINE
  5
230
330
1F
100
AcDbEntity
  8
0
  6
Continuous
 62
     7
370
    15
100
AcDbLine
 10
324.5596503522
 20
657.437620237
 30
0.0
 11
325.0142326261
 21
657.5345411147
 31
0.0
  0
SPLINE
  5
231
330
1F
100
AcDbEntity
  8
0
  6
Continuous
 62
     7
370
    15
100
AcDbSpline
210
0.0
220
0.0
230
1.0
 70
     8
 71
     3
 72
     9
 73
     5
 74
     0
 42
0.00000001
 43
0.00000001
 40
0.0
 40
0.0
 40
0.0
 40
0.0
 40
0.8145439281325131
 40
1.0
 40
1.0
 40
1.0
 40
1.0
 10
318.9300214554766
 20
656.236901431847
 30
0.0
 10
319.9535346114124
 20
656.4553260956009
 30
0.0
 10
321.2100821352303
 20
656.723481877272
 30
0.0
 10
322.4687988525499
 20
656.9918354520188
 30
0.0
 10
322.7022355105379
 20
657.0416032518629
 30
0.0
  0
LINE
  5
232
330
1F
100
AcDbEntity
  8
0
  6
Continuous
 62
     7
370
    15
100
AcDbLine
 10
321.512914231
 20
707.9917951669
 30
0.0
 11
318.9292540457
 21
708.5429183389
 31
0.0
  0
SPLINE
  5
233
330
1F
100
AcDbEntity
  8
0
  6
Continuous
 62
     7
370
    15
100
AcDbSpline
210
0.0
220
0.0
230
1.0
 70
     8
 71
     3
 72
     9
 73
     5
 74
     0
 42
0.00000001
 43
0.00000001
 40
0.0
 40
0.0
 40
0.0
 40
0.0
 40
0.5994707161896818
 40
1.0
 40
1.0
 40
1.0
 40
1.0
 10
452.1725466157893
 20
656.3870045538429
 30
0.0
 10
453.4207860019196
 20
656.2719763768096
 30
0.0
 10
455.5030218016338
 20
656.0800934809034
 30
0.0
 10
457.5813481919181
 20
655.8877744066021
 30
0.0
 10
458.4137787725428
 20
655.8107449855092
 30
0.0
  0
SPLINE
  5
234
330
1F
100
AcDbEntity
  8
0
  6
Continuous
 62
     7
370
    15
100
AcDbSpline
210
0.0
220
0.0
230
1.0
 70
     8
 71
     3
 72
     9
 73
     5
 74
     0
 42
0.00000001
 43
0.00000001
 40
0.0
 40
0.0
 40
0.0
 40
0.0
 40
0.4021783821081284
 40
0.9999999999999999
 40
0.9999999999999999
 40
0.9999999999999999
 40
0.9999999999999999
 10
458.4207152630785
 20
708.9674058552268
 30
0.0
 10
457.5875685758462
 20
708.8898918519698
 30
0.0
 10
455.5159836167911
 20
708.6971564720849
 30
0.0
 10
453.4396157634795
 20
708.5049282563107
 30
0.0
 10
452.198318174074
 20
708.3900100733522
 30
0.0
  0
SPLINE
  5
235
330
1F
100
AcDbEntity
  8
0
  6
Continuous
 62
     7
370
    15
100
AcDbSpline
210
0.0
220
0.0
230
1.0
 70
     8
 71
     3
 72
     9
 73
     5
 74
     0
 42
0.00000001
 43
0.00000001
 40
0.0
 40
0.0
 40
0.0
 40
0.0
 40
0.0126062040811557
 40
1.0
 40
1.0
 40
1.0
 40
1.0
 10
448.8536482359866
 20
708.3510547127012
 30
0.0
 10
448.8490211273755
 20
708.3512075611603
 30
0.0
 10
448.4819710160778
 20
708.3633324211221
 30
0.0
 10
448.1205476440053
 20
708.4319558936642
 30
0.0
 10
447.7636804487208
 20
708.4997142847064
 30
0.0
  0
SPLINE
  5
236
330
1F
100
AcDbEntity
  8
0
  6
Continuous
 62
     7
370
    15
100
AcDbSpline
210
0.0
220
0.0
230
1.0
 70
     8
 71
     3
 72
     9
 73
     5
 74
     0
 42
0.00000001
 43
0.00000001
 40
0.0
 40
0.0
 40
0.0
 40
0.0
 40
0.8848084250536118
 40
0.9999999999999999
 40
0.9999999999999999
 40
0.9999999999999999
 40
0.9999999999999999
 10
452.1963363196352
 20
708.3880077298168
 30
0.0
 10
451.7243583091152
 20
708.3320727710227
 30
0.0
 10
451.190934352973
 20
708.2688557432343
 30
0.0
 10
450.6543693598619
 20
708.2901350810321
 30
0.0
 10
450.5925615932444
 20
708.2925862814668
 30
0.0
  0
SPLINE
  5
237
330
1F
100
AcDbEntity
  8
0
  6
Continuous
 62
     7
370
    15
100
AcDbSpline
210
0.0
220
0.0
230
1.0
 70
     8
 71
     3
 72
    11
 73
     7
 74
     0
 42
0.00000001
 43
0.00000001
 40
0.0
 40
0.0
 40
0.0
 40
0.0
 40
0.0143929865343829
 40
0.4527190214202939
 40
0.8831933733463784
 40
1.0
 40
1.0
 40
1.0
 40
1.0
 10
447.7512603308657
 20
656.2641519303802
 30
0.0
 10
447.7720598972593
 20
656.2683355689398
 30
0.0
 10
448.4262923820328
 20
656.3999283242124
 30
0.0
 10
449.738395023682
 20
656.4617152152169
 30
0.0
 10
451.1995315888096
 20
656.4925387731417
 30
0.0
 10
451.998915886504
 20
656.3921324805958
 30
0.0
 10
452.1695291306475
 20
656.3707026834968
 30
0.0
  0
SPLINE
  5
238
330
1F
100
AcDbEntity
  8
0
  6
Continuous
 62
     7
370
    15
100
AcDbSpline
210
0.0
220
0.0
230
1.0
 70
     8
 71
     3
 72
     9
 73
     5
 74
     0
 42
0.00000001
 43
0.00000001
 40
0.0
 40
0.0
 40
0.0
 40
0.0
 40
0.2404966278507395
 40
1.0
 40
1.0
 40
1.0
 40
1.0
 10
442.5238137747744
 20
655.4860300566438
 30
0.0
 10
442.9426670057704
 20
655.5484041065463
 30
0.0
 10
444.6842849017848
 20
655.8077593019176
 30
0.0
 10
446.4256339458749
 20
656.0670681500526
 30
0.0
 10
447.7481944169501
 20
656.2640140946392
 30
0.0
  0
LWPOLYLINE
  5
239
330
1F
100
AcDbEntity
  8
0
  6
Continuous
 62
     7
370
    15
100
AcDbPolyline
 90
        4
 70
   128
 43
0.0
 10
447.765621325
 20
708.5118848081
 10
447.6541643645
 20
708.5284753885
 10
442.6060942616
 20
709.2798552658
 10
442.5315847303
 20
709.290945455
  0
CIRCLE
  5
23A
330
1F
100
AcDbEntity
  8
0
  6
Continuous
 62
     7
370
    15
100
AcDbCircle
 10
388.9598985817
 20
682.3896947499
 30
0.0
 40
60.0
  0
SPLINE
  5
23B
330
1F
100
AcDbEntity
  8
0
  6
Continuous
 62
     7
370
    15
100
AcDbSpline
210
0.0
220
0.0
230
1.0
 70
     8
 71
     3
 72
    22
 73
    18
 74
     0
 42
0.00000001
 43
0.00000001
 40
0.0
 40
0.0
 40
0.0
 40
0.0
 40
0.0624999999999989
 40
0.0624999999999989
 40
0.1249999999999977
 40
0.1249999999999977
 40
0.2499999999999966
 40
0.2499999999999966
 40
0.4999999999999962
 40
0.4999999999999962
 40
0.6249999999999971
 40
0.6249999999999971
 40
0.7499999999999981
 40
0.7499999999999981
 40
0.874999999999999
 40
0.874999999999999
 40
1.0
 40
1.0
 40
1.0
 40
1.0
 10
462.9598985816935
 20
688.2896947498803
 30
0.0
 10
462.9598985816935
 20
688.1934583866048
 30
0.0
 10
462.9562326758761
 20
688.0982637533796
 30
0.0
 10
462.9432911491888
 20
687.9191176774207
 30
0.0
 10
462.9342122236412
 20
687.8351447624797
 30
0.0
 10
462.8998479445164
 20
687.587928093599
 30
0.0
 10
462.8673626510796
 20
687.4302151236606
 30
0.0
 10
462.7428802125638
 20
686.9677273611434
 30
0.0
 10
462.6240409987954
 20
686.6719523714951
 30
0.0
 10
462.3805180461916
 20
686.2376136683806
 30
0.0
 10
462.2877672971669
 20
686.0941361388857
 30
0.0
 10
462.0818409503894
 20
685.8183634530029
 30
0.0
 10
461.968260276734
 20
685.6851141085582
 30
0.0
 10
461.7159513806261
 20
685.4282630111154
 30
0.0
 10
461.5779514581787
 20
685.305817362069
 30
0.0
 10
461.2846850611136
 20
685.081199826204
 30
0.0
 10
461.1283634411932
 20
684.977840637354
 30
0.0
 10
460.9605703317271
 20
684.8841923055081
 30
0.0
  0
LINE
  5
23C
330
1F
100
AcDbEntity
  8
0
  6
Continuous
 62
     7
370
    15
100
AcDbLine
 10
462.9598995354
 20
682.6396947618
 30
0.0
 11
462.9598995354
 21
688.2896949719
 31
0.0
  0
LINE
  5
23D
330
1F
100
AcDbEntity
  8
0
  6
Continuous
 62
     7
370
    15
100
AcDbLine
 10
460.9598954823
 20
682.6396947618
 30
0.0
 11
462.9598995354
 21
682.6396947618
 31
0.0
  0
SPLINE
  5
23E
330
1F
100
AcDbEntity
  8
0
  6
Continuous
 62
     7
370
    15
100
AcDbSpline
210
0.0
220
0.0
230
1.0
 70
     8
 71
     3
 72
    22
 73
    18
 74
     0
 42
0.00000001
 43
0.00000001
 40
0.0
 40
0.0
 40
0.0
 40
0.0
 40
0.062499999999998
 40
0.062499999999998
 40
0.1249999999999959
 40
0.1249999999999959
 40
0.2499999999999957
 40
0.2499999999999957
 40
0.4999999999999971
 40
0.4999999999999971
 40
0.6249999999999978
 40
0.6249999999999978
 40
0.7499999999999986
 40
0.7499999999999986
 40
0.8749999999999992
 40
0.8749999999999992
 40
1.0
 40
1.0
 40
1.0
 40
1.0
 10
314.9598985816935
 20
688.2896947498803
 30
0.0
 10
314.9598985816935
 20
688.1934583866048
 30
0.0
 10
314.9635644875109
 20
688.0982637533796
 30
0.0
 10
314.9765060141982
 20
687.9191176774207
 30
0.0
 10
314.9855849397458
 20
687.8351447624796
 30
0.0
 10
315.0199492188706
 20
687.587928093599
 30
0.0
 10
315.0524345123073
 20
687.4302151236606
 30
0.0
 10
315.1769169508232
 20
686.9677273611433
 30
0.0
 10
315.2957561645916
 20
686.6719523714951
 30
0.0
 10
315.5392791171954
 20
686.2376136683805
 30
0.0
 10
315.6320298662201
 20
686.0941361388857
 30
0.0
 10
315.8379562129977
 20
685.8183634530029
 30
0.0
 10
315.951536886653
 20
685.6851141085582
 30
0.0
 10
316.2038457827609
 20
685.4282630111154
 30
0.0
 10
316.3418457052083
 20
685.305817362069
 30
0.0
 10
316.6351121022734
 20
685.081199826204
 30
0.0
 10
316.7914337221938
 20
684.977840637354
 30
0.0
 10
316.9592268316599
 20
684.8841923055081
 30
0.0
  0
LINE
  5
23F
330
1F
100
AcDbEntity
  8
0
  6
Continuous
 62
     7
370
    15
100
AcDbLine
 10
314.959897628
 20
688.2896949719
 30
0.0
 11
314.959897628
 21
682.6396947618
 31
0.0
  0
LWPOLYLINE
  5
240
330
1F
100
AcDbEntity
  8
0
  6
Continuous
 62
     7
370
    15
100
AcDbPolyline
 90
        9
 70
   128
 43
0.0
 10
314.959897628
 20
682.6396947618
 10
314.9984171297
 20
682.6396947909
 10
315.1122918035
 20
682.6396949073
 10
315.2971407082
 20
682.639695111
 10
315.5458708908
 20
682.6396953729
 10
315.8489232566
 20
682.6396957222
 10
316.194652548
 20
682.6396961005
 10
316.5697818305
 20
682.639696508
 10
316.9599016811
 20
682.6396947618
  0
SPLINE
  5
241
330
1F
100
AcDbEntity
  8
0
  6
Continuous
 62
     7
370
    15
100
AcDbSpline
210
0.0
220
0.0
230
1.0
 70
     8
 71
     3
 72
    20
 73
    16
 74
     0
 42
0.00000001
 43
0.00000001
 40
0.0
 40
0.0
 40
0.0
 40
0.0
 40
0.125
 40
0.125
 40
0.2499999999999999
 40
0.2499999999999999
 40
0.4999999999999999
 40
0.4999999999999999
 40
0.75
 40
0.75
 40
0.8750000000000013
 40
0.8750000000000013
 40
0.9375000000000007
 40
0.9375000000000007
 40
1.0
 40
1.0
 40
1.0
 40
1.0
 10
316.9592268316599
 20
679.8951971942523
 30
0.0
 10
316.7913330992807
 20
679.8014927029611
 30
0.0
 10
316.6349917110227
 20
679.6981047926079
 30
0.0
 10
316.3417709449408
 20
679.4735075440174
 30
0.0
 10
316.2038478045326
 20
679.3511311017745
 30
0.0
 10
315.8252968617207
 20
678.9657576142542
 30
0.0
 10
315.6227778145828
 20
678.6903025605823
 30
0.0
 10
315.2956506155961
 20
678.1076446976699
 30
0.0
 10
315.1767488703492
 20
677.8111312705612
 30
0.0
 10
315.0524025779409
 20
677.349008865905
 30
0.0
 10
315.0200962700814
 20
677.1924294283203
 30
0.0
 10
314.985571020305
 20
676.9441894167372
 30
0.0
 10
314.976465543373
 20
676.8599030713872
 30
0.0
 10
314.9635186450836
 20
676.680298406762
 30
0.0
 10
314.9598985816935
 20
676.5853749323215
 30
0.0
 10
314.9598985816935
 20
676.4896947498802
 30
0.0
  0
LINE
  5
242
330
1F
100
AcDbEntity
  8
0
  6
Continuous
 62
     7
370
    15
100
AcDbLine
 10
314.959897628
 20
682.139694738
 30
0.0
 11
314.959897628
 21
676.4896945279
 31
0.0
  0
LWPOLYLINE
  5
243
330
1F
100
AcDbEntity
  8
0
  6
Continuous
 62
     7
370
    15
100
AcDbPolyline
 90
        9
 70
   128
 43
0.0
 10
314.959897628
 20
682.139694738
 10
314.9984171297
 20
682.1396947089
 10
315.1122918035
 20
682.1396945925
 10
315.2971407082
 20
682.1396943888
 10
315.5458708908
 20
682.1396941268
 10
315.8489232566
 20
682.1396937776
 10
316.194652548
 20
682.1396933992
 10
316.5697818305
 20
682.1396929918
 10
316.9599016811
 20
682.139694738
  0
LINE
  5
244
330
1F
100
AcDbEntity
  8
0
  6
Continuous
 62
     7
370
    15
100
AcDbLine
 10
462.9598995354
 20
676.4896945279
 30
0.0
 11
462.9598995354
 21
682.139694738
 31
0.0
  0
SPLINE
  5
245
330
1F
100
AcDbEntity
  8
0
  6
Continuous
 62
     7
370
    15
100
AcDbSpline
210
0.0
220
0.0
230
1.0
 70
     8
 71
     3
 72
    20
 73
    16
 74
     0
 42
0.00000001
 43
0.00000001
 40
0.0
 40
0.0
 40
0.0
 40
0.0
 40
0.1249999999999999
 40
0.1249999999999999
 40
0.2499999999999998
 40
0.2499999999999998
 40
0.499999999999998
 40
0.499999999999998
 40
0.7499999999999967
 40
0.7499999999999967
 40
0.8749999999999972
 40
0.8749999999999972
 40
0.9374999999999987
 40
0.9374999999999987
 40
1.0
 40
1.0
 40
1.0
 40
1.0
 10
460.9605703317271
 20
679.8951971942523
 30
0.0
 10
461.1284640641063
 20
679.8014927029611
 30
0.0
 10
461.2848054523643
 20
679.6981047926079
 30
0.0
 10
461.5780262184462
 20
679.4735075440174
 30
0.0
 10
461.7159493588543
 20
679.3511311017745
 30
0.0
 10
462.0945003016663
 20
678.9657576142542
 30
0.0
 10
462.2970193488042
 20
678.6903025605823
 30
0.0
 10
462.624146547791
 20
678.1076446976699
 30
0.0
 10
462.7430482930378
 20
677.8111312705612
 30
0.0
 10
462.867394585446
 20
677.349008865905
 30
0.0
 10
462.8997008933056
 20
677.1924294283203
 30
0.0
 10
462.934226143082
 20
676.9441894167372
 30
0.0
 10
462.9433316200141
 20
676.8599030713872
 30
0.0
 10
462.9562785183033
 20
676.680298406762
 30
0.0
 10
462.9598985816935
 20
676.5853749323215
 30
0.0
 10
462.9598985816935
 20
676.4896947498802
 30
0.0
  0
LINE
  5
246
330
1F
100
AcDbEntity
  8
0
  6
Continuous
 62
     7
370
    15
100
AcDbLine
 10
460.9598954823
 20
682.139694738
 30
0.0
 11
462.9598995354
 21
682.139694738
 31
0.0
  0
LINE
  5
247
330
1F
100
AcDbEntity
  8
0
  6
Continuous
 62
     7
370
    15
100
AcDbLine
 10
462.9598995354
 20
682.139694738
 30
0.0
 11
462.9598995354
 21
682.6396947618
 31
0.0
  0
LINE
  5
248
330
1F
100
AcDbEntity
  8
0
  6
Continuous
 62
     7
370
    15
100
AcDbLine
 10
462.9598995354
 20
688.2896949719
 30
0.0
 11
462.9598995354
 21
742.3896934088
 31
0.0
  0
LINE
  5
249
330
1F
100
AcDbEntity
  8
0
  6
Continuous
 62
     7
370
    15
100
AcDbLine
 10
462.9598995354
 20
622.389696091
 30
0.0
 11
462.9598995354
 21
676.4896945279
 31
0.0
  0
LINE
  5
24A
330
1F
100
AcDbEntity
  8
0
  6
Continuous
 62
     7
370
    15
100
AcDbLine
 10
475.9598960783
 20
622.389696091
 30
0.0
 11
475.9598960783
 21
742.3896934088
 31
0.0
  0
LINE
  5
24B
330
1F
100
AcDbEntity
  8
0
  6
Continuous
 62
     7
370
    15
100
AcDbLine
 10
314.959897628
 20
682.6396947618
 30
0.0
 11
314.959897628
 21
682.139694738
 31
0.0
  0
LINE
  5
24C
330
1F
100
AcDbEntity
  8
0
  6
Continuous
 62
     7
370
    15
100
AcDbLine
 10
314.959897628
 20
676.4896945279
 30
0.0
 11
314.959897628
 21
622.389696091
 31
0.0
  0
LINE
  5
24D
330
1F
100
AcDbEntity
  8
0
  6
Continuous
 62
     7
370
    15
100
AcDbLine
 10
314.959897628
 20
742.3896934088
 30
0.0
 11
314.959897628
 21
688.2896949719
 31
0.0
  0
LINE
  5
24E
330
1F
100
AcDbEntity
  8
0
  6
Continuous
 62
     7
370
    15
100
AcDbLine
 10
301.9599010851
 20
742.3896934088
 30
0.0
 11
301.9599010851
 21
622.389696091
 31
0.0
  0
LINE
  5
24F
330
1F
100
AcDbEntity
  8
0
  6
Continuous
 62
     7
370
    15
100
AcDbLine
 10
448.9598972406
 20
682.139694738
 30
0.0
 11
448.9598972406
 21
680.3896946549
 31
0.0
  0
LINE
  5
250
330
1F
100
AcDbEntity
  8
0
  6
Continuous
 62
     7
370
    15
100
AcDbLine
 10
328.9598999228
 20
682.139694738
 30
0.0
 11
328.9598999228
 21
680.3896946549
 31
0.0
  0
LINE
  5
251
330
1F
100
AcDbEntity
  8
0
  6
Continuous
 62
     7
370
    15
100
AcDbLine
 10
328.9598999228
 20
684.3896948449
 30
0.0
 11
328.9598999228
 21
682.6396947618
 31
0.0
  0
LINE
  5
252
330
1F
100
AcDbEntity
  8
0
  6
Continuous
 62
     7
370
    15
100
AcDbLine
 10
448.9598972406
 20
684.3896948449
 30
0.0
 11
448.9598972406
 21
682.6396947618
 31
0.0
  0
ARC
  5
253
330
1F
100
AcDbEntity
  8
0
  6
Continuous
 62
     7
370
    15
100
AcDbCircle
 10
318.8598985817
 20
676.4896947499
 30
0.0
 40
3.900000000000078
100
AcDbArc
 50
90.0
 51
119.1666666437
  0
LINE
  5
254
330
1F
100
AcDbEntity
  8
0
  6
Continuous
 62
     7
370
    15
100
AcDbLine
 10
328.9598999228
 20
680.3896946549
 30
0.0
 11
318.8598965909
 21
680.3896946549
 31
0.0
  0
LINE
  5
255
330
1F
100
AcDbEntity
  8
0
  6
Continuous
 62
     7
370
    15
100
AcDbLine
 10
328.9598999228
 20
682.139694738
 30
0.0
 11
316.9599016811
 21
682.139694738
 31
0.0
  0
ARC
  5
256
330
1F
100
AcDbEntity
  8
0
  6
Continuous
 62
     7
370
    15
100
AcDbCircle
 10
459.0598985817
 20
676.4896947499
 30
0.0
 40
3.90000000000005
100
AcDbArc
 50
60.8333333563
 51
90.0
  0
LINE
  5
257
330
1F
100
AcDbEntity
  8
0
  6
Continuous
 62
     7
370
    15
100
AcDbLine
 10
448.9598972406
 20
680.3896946549
 30
0.0
 11
459.0599005725
 21
680.3896946549
 31
0.0
  0
LINE
  5
258
330
1F
100
AcDbEntity
  8
0
  6
Continuous
 62
     7
370
    15
100
AcDbLine
 10
448.9598972406
 20
682.139694738
 30
0.0
 11
460.9598954823
 21
682.139694738
 31
0.0
  0
ARC
  5
259
330
1F
100
AcDbEntity
  8
0
  6
Continuous
 62
     7
370
    15
100
AcDbCircle
 10
318.8598985817
 20
688.2896947499
 30
0.0
 40
3.900000000000091
100
AcDbArc
 50
240.8333333563
 51
270.0
  0
LINE
  5
25A
330
1F
100
AcDbEntity
  8
0
  6
Continuous
 62
     7
370
    15
100
AcDbLine
 10
328.9598999228
 20
684.3896948449
 30
0.0
 11
318.8598965909
 21
684.3896948449
 31
0.0
  0
LINE
  5
25B
330
1F
100
AcDbEntity
  8
0
  6
Continuous
 62
     7
370
    15
100
AcDbLine
 10
328.9598999228
 20
682.6396947618
 30
0.0
 11
316.9599016811
 21
682.6396947618
 31
0.0
  0
ARC
  5
25C
330
1F
100
AcDbEntity
  8
0
  6
Continuous
 62
     7
370
    15
100
AcDbCircle
 10
459.0598985817
 20
688.2896947499
 30
0.0
 40
3.900000000000091
100
AcDbArc
 50
270.0
 51
299.1666666437
  0
LINE
  5
25D
330
1F
100
AcDbEntity
  8
0
  6
Continuous
 62
     7
370
    15
100
AcDbLine
 10
448.9598972406
 20
684.3896948449
 30
0.0
 11
459.0599005725
 21
684.3896948449
 31
0.0
  0
LINE
  5
25E
330
1F
100
AcDbEntity
  8
0
  6
Continuous
 62
     7
370
    15
100
AcDbLine
 10
448.9598972406
 20
682.6396947618
 30
0.0
 11
460.9598954823
 21
682.6396947618
 31
0.0
  0
LINE
  5
25F
330
1F
100
AcDbEntity
  8
0
  6
Continuous
 62
     7
370
    15
100
AcDbLine
 10
478.959902158
 20
647.8896956141
 30
0.0
 11
478.959902158
 21
716.8896938856
 31
0.0
  0
LINE
  5
260
330
1F
100
AcDbEntity
  8
0
  6
Continuous
 62
     7
370
    15
100
AcDbLine
 10
298.9598950054
 20
716.8896938856
 30
0.0
 11
298.9598950054
 21
647.8896956141
 31
0.0
  0
SPLINE
  5
261
330
1F
100
AcDbEntity
  8
0
  6
Continuous
 62
     7
370
    15
100
AcDbSpline
210
0.0
220
0.0
230
1.0
 70
     8
 71
     3
 72
    26
 73
    22
 74
     0
 42
0.00000001
 43
0.00000001
 40
0.0
 40
0.0
 40
0.0
 40
0.0
 40
0.1250000000000021
 40
0.1250000000000021
 40
0.1875000000000032
 40
0.1875000000000032
 40
0.2500000000000043
 40
0.2500000000000043
 40
0.3750000000000032
 40
0.3750000000000032
 40
0.5000000000000021
 40
0.5000000000000021
 40
0.6250000000000011
 40
0.6250000000000011
 40
0.6875000000000009
 40
0.6875000000000009
 40
0.7500000000000008
 40
0.7500000000000008
 40
0.8750000000000004
 40
0.8750000000000004
 40
1.0
 40
1.0
 40
1.0
 40
1.0
 10
314.9598985816935
 20
688.289694749881
 30
0.0
 10
314.9598985816932
 20
688.2418054826027
 30
0.0
 10
314.9930946120436
 20
688.1944048011358
 30
0.0
 10
315.0905986829753
 20
688.1240242909303
 30
0.0
 10
315.1311123022099
 20
688.1006856752373
 30
0.0
 10
315.2285386211274
 20
688.0542675356317
 30
0.0
 10
315.2857435789152
 20
688.0311178258479
 30
0.0
 10
315.4784169871273
 20
687.9636155218114
 30
0.0
 10
315.6355352158421
 20
687.9207029158711
 30
0.0
 10
316.0065486397615
 20
687.8391733166229
 30
0.0
 10
316.2226004516065
 20
687.8003740224593
 30
0.0
 10
316.6940656372495
 20
687.7307412908368
 30
0.0
 10
316.9510658797442
 20
687.6994466878505
 30
0.0
 10
317.3691958660656
 20
687.6580597126916
 30
0.0
 10
317.514206541736
 20
687.6452044882732
 30
0.0
 10
317.8086879384711
 20
687.621972041896
 30
0.0
 10
317.9589470866651
 20
687.6115108001492
 30
0.0
 10
318.4186338958812
 20
687.5835656883212
 30
0.0
 10
318.7387454047132
 20
687.569438260863
 30
0.0
 10
319.3956239904675
 20
687.551146924495
 30
0.0
 10
319.7271094113325
 20
687.5470698268168
 30
0.0
 10
320.0616634574414
 20
687.5481161313329
 30
0.0
  0
SPLINE
  5
262
330
1F
100
AcDbEntity
  8
0
  6
Continuous
 62
     7
370
    15
100
AcDbSpline
210
0.0
220
0.0
230
1.0
 70
     8
 71
     3
 72
    22
 73
    18
 74
     0
 42
0.00000001
 43
0.00000001
 40
0.0
 40
0.0
 40
0.0
 40
0.0
 40
0.125
 40
0.125
 40
0.25
 40
0.25
 40
0.375
 40
0.375
 40
0.5
 40
0.5
 40
0.625
 40
0.625
 40
0.75
 40
0.75
 40
0.875
 40
0.875
 40
1.0
 40
1.0
 40
1.0
 40
1.0
 10
320.0624245335871
 20
677.2302876322898
 30
0.0
 10
319.7279440425257
 20
677.231340055052
 30
0.0
 10
319.3983651530615
 20
677.2272732814056
 30
0.0
 10
318.7486244368303
 20
677.2093375995752
 30
0.0
 10
318.4250265099815
 20
677.1952242478183
 30
0.0
 10
317.8085347200232
 20
677.1579057437228
 30
0.0
 10
317.5153966018785
 20
677.1348429968284
 30
0.0
 10
316.9593091036974
 20
677.0800883045947
 30
0.0
 10
316.6968109457329
 20
677.0482700206709
 30
0.0
 10
316.2252949305528
 20
676.9788271896783
 30
0.0
 10
316.0129796648841
 20
676.9409180136882
 30
0.0
 10
315.6370778787014
 20
676.8586735770018
 30
0.0
 10
315.4796194840314
 20
676.815672664502
 30
0.0
 10
315.2237058055268
 20
676.726346958086
 30
0.0
 10
315.1246522134097
 20
676.6795205148294
 30
0.0
 10
314.993084757677
 20
676.5850486387312
 30
0.0
 10
314.9598985816935
 20
676.5375161855256
 30
0.0
 10
314.9598985816935
 20
676.4896947498802
 30
0.0
  0
SPLINE
  5
263
330
1F
100
AcDbEntity
  8
0
  6
Continuous
 62
     7
370
    15
100
AcDbSpline
210
0.0
220
0.0
230
1.0
 70
     8
 71
     3
 72
    17
 73
    13
 74
     0
 42
0.00000001
 43
0.00000001
 40
0.0
 40
0.0
 40
0.0
 40
0.0
 40
0.2499999999999974
 40
0.2499999999999974
 40
0.3749999999999972
 40
0.3749999999999972
 40
0.4999999999999969
 40
0.6249999999999966
 40
0.6249999999999966
 40
0.7499999999999963
 40
0.7499999999999963
 40
1.0
 40
1.0
 40
1.0
 40
1.0
 10
462.9598985816935
 20
676.4896947498796
 30
0.0
 10
462.9598985816938
 20
676.552464552372
 30
0.0
 10
462.9056585296085
 20
676.6144328087535
 30
0.0
 10
462.7456169122003
 20
676.706164557711
 30
0.0
 10
462.678351871922
 20
676.7367534095021
 30
0.0
 10
462.5193465361987
 20
676.7961984647137
 30
0.0
 10
462.336505512961
 20
676.853873513137
 30
0.0
 10
462.107209296073
 20
676.9080199107243
 30
0.0
 10
461.8541518272891
 20
676.9603122056211
 30
0.0
 10
461.7152379108318
 20
676.9855650419388
 30
0.0
 10
461.2743226175843
 20
677.0562740418624
 30
0.0
 10
460.9452023018028
 20
677.097538306237
 30
0.0
 10
460.5798091425359
 20
677.1325185090793
 30
0.0
  0
SPLINE
  5
264
330
1F
100
AcDbEntity
  8
0
  6
Continuous
 62
     7
370
    15
100
AcDbSpline
210
0.0
220
0.0
230
1.0
 70
     8
 71
     3
 72
    17
 73
    13
 74
     0
 42
0.00000001
 43
0.00000001
 40
0.0
 40
0.0
 40
0.0
 40
0.0
 40
0.2500000000000043
 40
0.2500000000000043
 40
0.3750000000000036
 40
0.3750000000000036
 40
0.5000000000000029
 40
0.6250000000000022
 40
0.6250000000000022
 40
0.7500000000000014
 40
0.7500000000000014
 40
1.0
 40
1.0
 40
1.0
 40
1.0
 10
460.5803860934157
 20
687.6464573812366
 30
0.0
 10
460.9456986526561
 20
687.6814643232194
 30
0.0
 10
461.274618114833
 20
687.7227452688501
 30
0.0
 10
461.715165489747
 20
687.7934470137085
 30
0.0
 10
461.8539797474003
 20
687.8186945079839
 30
0.0
 10
462.1072266222799
 20
687.8710605532311
 30
0.0
 10
462.3366531002878
 20
687.9252796315592
 30
0.0
 10
462.5195372860107
 20
687.9830234240179
 30
0.0
 10
462.678553541898
 20
688.0425339892716
 30
0.0
 10
462.7457465779289
 20
688.0731266399239
 30
0.0
 10
462.9056734624991
 20
688.1648880270681
 30
0.0
 10
462.9598985816934
 20
688.2268854077041
 30
0.0
 10
462.9598985816935
 20
688.2896947498803
 30
0.0
  0
SPLINE
  5
265
330
1F
100
AcDbEntity
  8
0
  6
Continuous
 62
     7
370
    15
100
AcDbSpline
210
0.0
220
0.0
230
1.0
 70
     8
 71
     3
 72
     8
 73
     4
 74
     0
 42
0.00000001
 43
0.00000001
 40
0.0
 40
0.0
 40
0.0
 40
0.0
 40
0.0046861069141457
 40
0.0046861069141457
 40
0.0046861069141457
 40
0.0046861069141457
 10
324.7474922530156
 20
677.2252688758972
 30
0.0
 10
323.1858137778906
 20
677.2276989197193
 30
0.0
 10
321.6241233399298
 20
677.2292365044301
 30
0.0
 10
320.0624245335872
 20
677.2302876322898
 30
0.0
  0
SPLINE
  5
266
330
1F
100
AcDbEntity
  8
0
  6
Continuous
 62
     7
370
    15
100
AcDbSpline
210
0.0
220
0.0
230
1.0
 70
     8
 71
     3
 72
     8
 73
     4
 74
     0
 42
0.00000001
 43
0.00000001
 40
0.0
 40
0.0
 40
0.0
 40
0.0
 40
0.004688143332756
 40
0.004688143332756
 40
0.004688143332756
 40
0.004688143332756
 10
320.0616634574414
 20
687.5481161313354
 30
0.0
 10
321.6240454033093
 20
687.5490181364385
 30
0.0
 10
323.1864146429982
 20
687.550758814659
 30
0.0
 10
324.7487632040738
 20
687.5535858129307
 30
0.0
  0
LINE
  5
267
330
1F
100
AcDbEntity
  8
0
  6
Continuous
 62
     7
370
    15
100
AcDbLine
 10
325.4803856518
 20
707.1709144111
 30
0.0
 11
325.0099112894
 21
707.2459007795
 31
0.0
  0
LINE
  5
268
330
1F
100
AcDbEntity
  8
0
  6
Continuous
 62
     7
370
    15
100
AcDbLine
 10
327.7741325702
 20
706.8619313832
 30
0.0
 11
327.4663490858
 21
706.8829699601
 31
0.0
  0
SPLINE
  5
269
330
1F
100
AcDbEntity
  8
0
  6
Continuous
 62
     7
370
    15
100
AcDbSpline
210
0.0
220
0.0
230
1.0
 70
     8
 71
     3
 72
     8
 73
     4
 74
     0
 42
0.00000001
 43
0.00000001
 40
0.0
 40
0.0
 40
0.0
 40
0.0
 40
1.0
 40
1.0
 40
1.0
 40
1.0
 10
329.3077859839098
 20
706.8384650518536
 30
0.0
 10
328.7962841589332
 20
706.827734393977
 30
0.0
 10
328.2850661026019
 20
706.8355495030123
 30
0.0
 10
327.7741321377559
 20
706.8619314782501
 30
0.0
  0
SPLINE
  5
26A
330
1F
100
AcDbEntity
  8
0
  6
Continuous
 62
     7
370
    15
100
AcDbSpline
210
0.0
220
0.0
230
1.0
 70
     8
 71
     3
 72
    10
 73
     6
 74
     0
 42
0.00000001
 43
0.00000001
 40
0.0
 40
0.0
 40
0.0
 40
0.0
 40
0.4439648256503104
 40
0.8109081842656862
 40
1.0
 40
1.0
 40
1.0
 40
1.0
 10
324.5595758463839
 20
657.4379517878774
 30
0.0
 10
324.2586460942981
 20
657.3742489716409
 30
0.0
 10
323.7089935435627
 20
657.2578948551377
 30
0.0
 10
323.0503071351819
 20
657.1165127130473
 30
0.0
 10
322.7904826880143
 20
657.061024548239
 30
0.0
 10
322.702123751829
 20
657.042154594827
 30
0.0
  0
SPLINE
  5
26B
330
1F
100
AcDbEntity
  8
0
  6
Continuous
 62
     7
370
    15
100
AcDbSpline
210
0.0
220
0.0
230
1.0
 70
     8
 71
     3
 72
    11
 73
     7
 74
     0
 42
0.00000001
 43
0.00000001
 40
0.0
 40
0.0
 40
0.0
 40
0.0
 40
0.0055042859714199
 40
0.0055042859714199
 40
0.0055042859714199
 40
0.0110088050851867
 40
0.0110088050851867
 40
0.0110088050851867
 40
0.0110088050851867
 10
460.5798091425359
 20
677.1325185090792
 30
0.0
 10
459.0254530531881
 20
677.1315744329742
 30
0.0
 10
457.4709802440153
 20
677.1302510481686
 30
0.0
 10
455.9163714220036
 20
677.128481844461
 30
0.0
 10
454.3616967658994
 20
677.1267125658319
 30
0.0
 10
452.8068861193162
 20
677.1244975520364
 30
0.0
 10
451.2519121907541
 20
677.1217554607965
 30
0.0
  0
SPLINE
  5
26C
330
1F
100
AcDbEntity
  8
0
  6
Continuous
 62
     7
370
    15
100
AcDbSpline
210
0.0
220
0.0
230
1.0
 70
     8
 71
     3
 72
    11
 73
     7
 74
     0
 42
0.00000001
 43
0.00000001
 40
0.0000000000000001
 40
0.0000000000000001
 40
0.0000000000000001
 40
0.0000000000000001
 40
0.0054998846297144
 40
0.0054998846297144
 40
0.0054998846297144
 40
0.0109991887711899
 40
0.0109991887711899
 40
0.0109991887711899
 40
0.0109991887711899
 10
451.2606159333397
 20
687.6569227888076
 30
0.0
 10
452.8144625821484
 20
687.6539478273824
 30
0.0
 10
454.3680287985691
 20
687.6516691662198
 30
0.0
 10
455.9213845600776
 20
687.6499638491235
 30
0.0
 10
457.4745764074657
 20
687.6482587119766
 30
0.0
 10
459.0275578451883
 20
687.6471261161572
 30
0.0
 10
460.5803860934155
 20
687.6464573812366
 30
0.0
  0
SPLINE
  5
26D
330
1F
100
AcDbEntity
  8
0
  6
Continuous
 62
     7
370
    15
100
AcDbSpline
210
0.0
220
0.0
230
1.0
 70
     8
 71
     3
 72
     8
 73
     4
 74
     0
 42
0.00000001
 43
0.00000001
 40
0.0
 40
0.0
 40
0.0
 40
0.0
 40
0.0015554918111035
 40
0.0015554918111035
 40
0.0015554918111035
 40
0.0015554918111035
 10
321.512914189038
 20
707.819145789935
 30
0.0
 10
322.0239080944663
 20
707.7312558132932
 30
0.0
 10
322.5345999421071
 20
707.6415905696712
 30
0.0
 10
323.0449654710893
 20
707.5501222898926
 30
0.0
  0
SPLINE
  5
26E
330
1F
100
AcDbEntity
  8
0
  6
Continuous
 62
     7
370
    15
100
AcDbSpline
210
0.0
220
0.0
230
1.0
 70
     8
 71
     3
 72
     8
 73
     4
 74
     0
 42
0.00000001
 43
0.00000001
 40
0.0
 40
0.0
 40
0.0
 40
0.0
 40
1.0
 40
1.0
 40
1.0
 40
1.0
 10
323.0449654710893
 20
707.5501222898926
 30
0.0
 10
323.2523395136994
 20
707.5649757471452
 30
0.0
 10
323.4596043905319
 20
707.5570479242057
 30
0.0
 10
323.6667603428842
 20
707.5263891762668
 30
0.0
  0
SPLINE
  5
26F
330
1F
100
AcDbEntity
  8
0
  6
Continuous
 62
     7
370
    15
100
AcDbSpline
210
0.0
220
0.0
230
1.0
 70
     8
 71
     3
 72
     8
 73
     4
 74
     0
 42
0.00000001
 43
0.00000001
 40
0.0
 40
0.0
 40
0.0
 40
0.0
 40
1.0
 40
1.0
 40
1.0
 40
1.0
 10
323.6667603428842
 20
707.5263891762669
 30
0.0
 10
324.1147985018267
 20
707.4343977528429
 30
0.0
 10
324.5625182057404
 20
707.3409161460431
 30
0.0
 10
325.0099101324579
 20
707.2459007335725
 30
0.0
  0
SPLINE
  5
270
330
1F
100
AcDbEntity
  8
0
  6
Continuous
 62
     7
370
    15
100
AcDbSpline
210
0.0
220
0.0
230
1.0
 70
     8
 71
     3
 72
     8
 73
     4
 74
     0
 42
0.00000001
 43
0.00000001
 40
0.0
 40
0.0
 40
0.0
 40
0.0
 40
1.0
 40
1.0
 40
1.0
 40
1.0
 10
448.5579188451584
 20
687.6263977549145
 30
0.0
 10
449.494919047793
 20
687.633009008628
 30
0.0
 10
450.3957980058583
 20
687.643295997311
 30
0.0
 10
451.2606159333397
 20
687.6569227888075
 30
0.0
  0
SPLINE
  5
271
330
1F
100
AcDbEntity
  8
0
  6
Continuous
 62
     7
370
    15
100
AcDbSpline
210
0.0
220
0.0
230
1.0
 70
     8
 71
     3
 72
     8
 73
     4
 74
     0
 42
0.00000001
 43
0.00000001
 40
0.0
 40
0.0
 40
0.0
 40
0.0
 40
1.0
 40
1.0
 40
1.0
 40
1.0
 10
451.2519121907541
 20
677.1217554607965
 30
0.0
 10
450.3869328314309
 20
677.1359744616784
 30
0.0
 10
449.4858723891687
 20
677.1468256306623
 30
0.0
 10
448.5486647076961
 20
677.1539869366229
 30
0.0
  0
SPLINE
  5
272
330
1F
100
AcDbEntity
  8
0
  6
Continuous
 62
     7
370
    15
100
AcDbSpline
210
0.0
220
0.0
230
1.0
 70
     8
 71
     3
 72
     8
 73
     4
 74
     0
 42
0.00000001
 43
0.00000001
 40
0.0
 40
0.0
 40
0.0
 40
0.0
 40
1.0
 40
1.0
 40
1.0
 40
1.0
 10
450.3856976830994
 20
708.299279200533
 30
0.0
 10
449.8744962363132
 20
708.2954198378948
 30
0.0
 10
449.3638119082361
 20
708.3098437806086
 30
0.0
 10
448.8536464010481
 20
708.3426112111323
 30
0.0
  0
LINE
  5
273
330
1F
100
AcDbEntity
  8
0
  6
Continuous
 62
     7
370
    15
100
AcDbLine
 10
450.5926808025
 20
708.2964605834
 30
0.0
 11
450.385696223
 21
708.2992787655
 31
0.0
  0
SPLINE
  5
274
330
1F
100
AcDbEntity
  8
0
  6
Continuous
 62
     8
370
    15
100
AcDbSpline
210
0.0
220
0.0
230
1.0
 70
     8
 71
     3
 72
     9
 73
     5
 74
     0
 42
0.00000001
 43
0.00000001
 40
0.0
 40
0.0
 40
0.0
 40
0.0
 40
0.2961955701920683
 40
1.0
 40
1.0
 40
1.0
 40
1.0
 10
329.2691772486666
 20
677.1787270154241
 30
0.0
 10
328.8339999182126
 20
677.1864158313368
 30
0.0
 10
327.364776964703
 20
677.2123744096766
 30
0.0
 10
325.8286367078082
 20
677.2199424849003
 30
0.0
 10
324.7474943901995
 20
677.2252689297679
 30
0.0
  0
SPLINE
  5
275
330
1F
100
AcDbEntity
  8
0
  6
Continuous
 62
     8
370
    15
100
AcDbSpline
210
0.0
220
0.0
230
1.0
 70
     8
 71
     3
 72
     9
 73
     5
 74
     0
 42
0.00000001
 43
0.00000001
 40
0.0
 40
0.0
 40
0.0
 40
0.0
 40
0.6834643499779748
 40
1.0
 40
1.0
 40
1.0
 40
1.0
 10
324.748760988901
 20
687.5535859908346
 30
0.0
 10
325.8011389835743
 20
687.5588241254858
 30
0.0
 10
327.3409091189257
 20
687.5664882189403
 30
0.0
 10
328.8143539182866
 20
687.5926298652107
 30
0.0
 10
329.2807517256239
 20
687.6009046282056
 30
0.0
  0
CIRCLE
  5
276
330
1F
100
AcDbEntity
  8
1
100
AcDbCircle
 10
357.1400934283
 20
714.2094999033
 30
0.0
 40
7.040148240901257
  0
CIRCLE
  5
277
330
1F
100
AcDbEntity
  8
1
100
AcDbCircle
 10
420.7797037351
 20
714.2094999033
 30
0.0
 40
6.966526294996984
  0
CIRCLE
  5
278
330
1F
100
AcDbEntity
  8
1
100
AcDbCircle
 10
420.7797037351
 20
650.5698895965
 30
0.0
 40
7.018924190618114
  0
CIRCLE
  5
279
330
1F
100
AcDbEntity
  8
1
100
AcDbCircle
 10
357.1400934283
 20
650.5698895965
 30
0.0
 40
6.965471846693104
  0
CIRCLE
  5
27A
330
1F
100
AcDbEntity
  8
1
100
AcDbCircle
 10
388.9598985817
 20
682.3896947499
 30
0.0
 40
16.00000000000001
  0
CIRCLE
  5
27B
330
1F
100
AcDbEntity
  8
1
100
AcDbCircle
 10
388.9598985817
 20
682.3896947499
 30
0.0
 40
34.50000000000004
  0
CIRCLE
  5
27C
330
1F
100
AcDbEntity
  8
1
100
AcDbCircle
 10
388.9598985817
 20
682.3896947499
 30
0.0
 40
37.50000000000006
  0
LINE
  5
27D
330
1F
100
AcDbEntity
  8
0
  6
Continuous
 62
     7
370
    15
100
AcDbLine
 10
462.9598995354
 20
114.9211520976
 30
0.0
 11
475.9598960783
 21
114.9211520976
 31
0.0
  0
LINE
  5
27E
330
1F
100
AcDbEntity
  8
0
  6
Continuous
 62
     7
370
    15
100
AcDbLine
 10
475.9598960783
 20
234.9211494154
 30
0.0
 11
462.9598995354
 21
234.9211494154
 31
0.0
  0
LINE
  5
27F
330
1F
100
AcDbEntity
  8
0
  6
Continuous
 62
     7
370
    15
100
AcDbLine
 10
314.959897628
 20
234.9211494154
 30
0.0
 11
301.9599010851
 21
234.9211494154
 31
0.0
  0
LINE
  5
280
330
1F
100
AcDbEntity
  8
0
  6
Continuous
 62
     7
370
    15
100
AcDbLine
 10
301.9599010851
 20
114.9211520976
 30
0.0
 11
314.959897628
 21
114.9211520976
 31
0.0
  0
SPLINE
  5
281
330
1F
100
AcDbEntity
  8
0
  6
Continuous
 62
     7
370
    15
100
AcDbSpline
210
0.0
220
0.0
230
1.0
 70
     8
 71
     3
 72
     9
 73
     5
 74
     0
 42
0.00000001
 43
0.00000001
 40
0.0
 40
0.0
 40
0.0
 40
0.0
 40
0.7713795340913325
 40
0.9999999999999999
 40
0.9999999999999999
 40
0.9999999999999999
 40
0.9999999999999999
 10
393.4373845960596
 20
209.1148192710323
 30
0.0
 10
393.2161402062049
 20
209.1549457670247
 30
0.0
 10
392.9293236910177
 20
209.206964901859
 30
0.0
 10
392.6385598957478
 20
209.2175373384551
 30
0.0
 10
392.5720853414038
 20
209.2199544138355
 30
0.0
  0
LINE
  5
282
330
1F
100
AcDbEntity
  8
0
  6
Continuous
 62
     7
370
    15
100
AcDbLine
 10
402.0584663059
 20
207.8471886641
 30
0.0
 11
400.7963584419
 21
208.0348166353
 31
0.0
  0
LINE
  5
283
330
1F
100
AcDbEntity
  8
0
  6
Continuous
 62
     7
370
    15
100
AcDbLine
 10
398.2072388436
 20
208.421151591
 30
0.0
 11
397.9245638158
 21
208.4633516795
 31
0.0
  0
SPLINE
  5
284
330
1F
100
AcDbEntity
  8
0
  6
Continuous
 62
     7
370
    15
100
AcDbSpline
210
0.0
220
0.0
230
1.0
 70
     8
 71
     3
 72
     9
 73
     5
 74
     0
 42
0.00000001
 43
0.00000001
 40
0.0
 40
0.0
 40
0.0
 40
0.0
 40
0.4870965952230051
 40
1.0
 40
1.0
 40
1.0
 40
1.0
 10
408.7842190321186
 20
206.84825207061
 30
0.0
 10
408.595630510051
 20
206.876288481062
 30
0.0
 10
408.2084618787833
 20
206.9338466958533
 30
0.0
 10
407.8212781391809
 20
206.9912965750878
 30
0.0
 10
407.6226902808646
 20
207.0207628137512
 30
0.0
  0
SPLINE
  5
285
330
1F
100
AcDbEntity
  8
0
  6
Continuous
 62
     7
370
    15
100
AcDbSpline
210
0.0
220
0.0
230
1.0
 70
     8
 71
     3
 72
    15
 73
    11
 74
     0
 42
0.00000001
 43
0.00000001
 40
0.0
 40
0.0
 40
0.0
 40
0.0
 40
0.1411287763201739
 40
0.2825336605356172
 40
0.4216397769218772
 40
0.558444803650698
 40
0.6930273891394506
 40
0.8260006284283813
 40
0.9407976251734994
 40
0.9999999999999999
 40
0.9999999999999999
 40
0.9999999999999999
 40
0.9999999999999999
 10
447.7482614721754
 20
201.0468016094608
 30
0.0
 10
446.1941492185949
 20
201.278225198992
 30
0.0
 10
443.0828842070482
 20
201.7415251409981
 30
0.0
 10
438.4393904563714
 20
202.4329900521744
 30
0.0
 10
433.8471081090167
 20
203.1168389325197
 30
0.0
 10
429.3211515666054
 20
203.7908248203463
 30
0.0
 10
424.9011344360714
 20
204.4490369779446
 30
0.0
 10
420.5178239334743
 20
205.1018431162378
 30
0.0
 10
416.8734565430083
 20
205.6446776268152
 30
0.0
 10
414.7924817654479
 20
205.95455143017
 30
0.0
 10
414.0844409968356
 20
206.0599843687458
 30
0.0
  0
SPLINE
  5
286
330
1F
100
AcDbEntity
  8
0
  6
Continuous
 62
     7
370
    15
100
AcDbSpline
210
0.0
220
0.0
230
1.0
 70
     8
 71
     3
 72
    19
 73
    15
 74
     0
 42
0.00000001
 43
0.00000001
 40
0.0
 40
0.0
 40
0.0
 40
0.0
 40
0.0153222554024299
 40
0.0730213510416614
 40
0.1596314574678015
 40
0.2462769187653676
 40
0.3333267162379169
 40
0.4206840206409754
 40
0.5363240869657081
 40
0.6516206642315002
 40
0.7669065250798303
 40
0.8821881187331921
 40
0.9974684218770834
 40
0.9999999999999999
 40
0.9999999999999999
 40
0.9999999999999999
 40
0.9999999999999999
 10
402.3792929630378
 20
142.0491072065277
 30
0.0
 10
402.622516385672
 20
142.0852536858655
 30
0.0
 10
403.781647496547
 20
142.2575171475638
 30
0.0
 10
406.3157783590655
 20
142.632993156837
 30
0.0
 10
409.9821699042473
 20
143.1762568847003
 30
0.0
 10
414.1140916114803
 20
143.7908764393224
 30
0.0
 10
418.2580671285172
 20
144.4075787605623
 30
0.0
 10
422.7815964942137
 20
145.0806811730376
 30
0.0
 10
427.4616665594659
 20
145.7771254426214
 30
0.0
 10
432.5073635815168
 20
146.5279962646635
 30
0.0
 10
437.5583952240117
 20
147.2797129604775
 30
0.0
 10
442.6059631970136
 20
148.0309577690284
 30
0.0
 10
446.0083623553729
 20
148.5373995551516
 30
0.0
 10
447.7280716339405
 20
148.79337089996
 30
0.0
 10
447.7650252785185
 20
148.7988712913437
 30
0.0
  0
SPLINE
  5
287
330
1F
100
AcDbEntity
  8
0
  6
Continuous
 62
     7
370
    15
100
AcDbSpline
210
0.0
220
0.0
230
1.0
 70
     8
 71
     3
 72
    12
 73
     8
 74
     0
 42
0.00000001
 43
0.00000001
 40
0.0
 40
0.0
 40
0.0
 40
0.0
 40
0.1044479708616544
 40
0.3430140740508531
 40
0.6142219464960683
 40
0.8696959056875228
 40
1.0
 40
1.0
 40
1.0
 40
1.0
 10
400.071998095105
 20
201.1727275974197
 30
0.0
 10
399.9901418002747
 20
201.2059740207926
 30
0.0
 10
399.7213202909162
 20
201.3151574834743
 30
0.0
 10
399.3806679321603
 20
201.5232183060097
 30
0.0
 10
399.060158861531
 20
201.814137376554
 30
0.0
 10
398.8265797413694
 20
202.1461135475157
 30
0.0
 10
398.7179191012185
 20
202.436395664828
 30
0.0
 10
398.6812168415287
 20
202.5344441360874
 30
0.0
  0
SPLINE
  5
288
330
1F
100
AcDbEntity
  8
0
  6
Continuous
 62
     7
370
    15
100
AcDbSpline
210
0.0
220
0.0
230
1.0
 70
     8
 71
     3
 72
    12
 73
     8
 74
     0
 42
0.00000001
 43
0.00000001
 40
0.0
 40
0.0
 40
0.0
 40
0.0
 40
0.0244732109094246
 40
0.2617052953509605
 40
0.5259897402191616
 40
0.80725787493733
 40
1.0
 40
1.0
 40
1.0
 40
1.0
 10
398.689065096865
 20
147.3449463672085
 30
0.0
 10
398.6952928696143
 20
147.3643891308843
 30
0.0
 10
398.7618898156695
 20
147.5723011302151
 30
0.0
 10
398.9406768955119
 20
147.8597073524555
 30
0.0
 10
399.2221223388401
 20
148.2001372882141
 30
0.0
 10
399.5737689613404
 20
148.4509956120268
 30
0.0
 10
399.9087644925578
 20
148.5992878142121
 30
0.0
 10
400.0449804272154
 20
148.6595864123745
 30
0.0
  0
SPLINE
  5
289
330
1F
100
AcDbEntity
  8
0
  6
Continuous
 62
     7
370
    15
100
AcDbSpline
210
0.0
220
0.0
230
1.0
 70
     8
 71
     3
 72
    11
 73
     7
 74
     0
 42
0.00000001
 43
0.00000001
 40
0.0
 40
0.0
 40
0.0
 40
0.0
 40
0.1372357483583609
 40
0.4216191640138652
 40
0.7613797220261188
 40
1.0
 40
1.0
 40
1.0
 40
1.0
 10
379.1239810790518
 20
202.2422454035921
 30
0.0
 10
379.0943079519412
 20
202.16761807537
 30
0.0
 10
379.0031454145141
 20
201.9383460954818
 30
0.0
 10
378.8001020037374
 20
201.6873018133992
 30
0.0
 10
378.5591486610107
 20
201.474504576401
 30
0.0
 10
378.2808100827037
 20
201.3535018816513
 30
0.0
 10
378.1659770439962
 20
201.3035802817983
 30
0.0
  0
SPLINE
  5
28A
330
1F
100
AcDbEntity
  8
0
  6
Continuous
 62
     7
370
    15
100
AcDbSpline
210
0.0
220
0.0
230
1.0
 70
     8
 71
     3
 72
    12
 73
     8
 74
     0
 42
0.00000001
 43
0.00000001
 40
0.0
 40
0.0
 40
0.0
 40
0.0
 40
0.1235699324471996
 40
0.3973121920194031
 40
0.7243050690285217
 40
0.9886574407697819
 40
1.0
 40
1.0
 40
1.0
 40
1.0
 10
378.1470106597641
 20
148.5434113717718
 30
0.0
 10
378.2164620308084
 20
148.5169715315711
 30
0.0
 10
378.439767781017
 20
148.4319599866206
 30
0.0
 10
378.7010603642115
 20
148.2562133049937
 30
0.0
 10
378.9410675211719
 20
147.9805741985494
 30
0.0
 10
379.1038847044757
 20
147.7193439025623
 30
0.0
 10
379.1605573337173
 20
147.535662805965
 30
0.0
 10
379.1628889422515
 20
147.5281058526678
 30
0.0
  0
ARC
  5
28B
330
1F
100
AcDbEntity
  8
0
  6
Continuous
 62
     7
370
    15
100
AcDbCircle
 10
298.9598985817
 20
212.4211507565
 30
0.0
 40
3.0
100
AcDbArc
 50
270.0
 51
0.0
  0
ARC
  5
28C
330
1F
100
AcDbEntity
  8
0
  6
Continuous
 62
     7
370
    15
100
AcDbCircle
 10
298.9598985817
 20
137.4211507565
 30
0.0
 40
3.0
100
AcDbArc
 50
0.0
 51
90.0
  0
ARC
  5
28D
330
1F
100
AcDbEntity
  8
0
  6
Continuous
 62
     7
370
    15
100
AcDbCircle
 10
478.9598985817
 20
137.4211507565
 30
0.0
 40
3.0
100
AcDbArc
 50
90.0
 51
180.0
  0
ARC
  5
28E
330
1F
100
AcDbEntity
  8
0
  6
Continuous
 62
     7
370
    15
100
AcDbCircle
 10
478.9598985817
 20
212.4211507565
 30
0.0
 40
3.0
100
AcDbArc
 50
180.0
 51
270.0
  0
ARC
  5
28F
330
1F
100
AcDbEntity
  8
0
  6
Continuous
 62
     7
370
    15
100
AcDbCircle
 10
457.9598994492
 20
206.4792696012
 30
0.0
 40
5.000000244762846
100
AcDbArc
 50
275.1008310978
 51
359.9855702621
  0
ARC
  5
290
330
1F
100
AcDbEntity
  8
0
  6
Continuous
 62
     7
370
    15
100
AcDbCircle
 10
457.9599067876
 20
143.3649006157
 30
0.0
 40
4.999993064035551
100
AcDbArc
 50
0.0203794437
 51
84.7811170996
  0
ARC
  5
291
330
1F
100
AcDbEntity
  8
0
  6
Continuous
 62
     7
370
    15
100
AcDbCircle
 10
388.9598985817
 20
174.9211507565
 30
0.0
 40
34.50000000000001
100
AcDbArc
 50
104.4776462267
 51
107.719485582
  0
ARC
  5
292
330
1F
100
AcDbEntity
  8
0
  6
Continuous
 62
     7
370
    15
100
AcDbCircle
 10
388.9598985817
 20
174.9211507565
 30
0.0
 40
34.50000000000004
100
AcDbArc
 50
96.0946694984
 51
99.2974155778
  0
ARC
  5
293
330
1F
100
AcDbEntity
  8
0
  6
Continuous
 62
     7
370
    15
100
AcDbCircle
 10
319.9598876882
 20
143.8753506606
 30
0.0
 40
4.999985795895107
100
AcDbArc
 50
101.8342553627
 51
179.8818157224
  0
ARC
  5
294
330
1F
100
AcDbEntity
  8
0
  6
Continuous
 62
     7
370
    15
100
AcDbCircle
 10
319.9598892999
 20
205.9666491511
 30
0.0
 40
4.999990325846972
100
AcDbArc
 50
180.1660816531
 51
258.031366773
  0
SPLINE
  5
295
330
1F
100
AcDbEntity
  8
0
  6
Continuous
 62
     7
370
    15
100
AcDbSpline
210
0.0
220
0.0
230
1.0
 70
     8
 71
     3
 72
     9
 73
     5
 74
     0
 42
0.00000001
 43
0.00000001
 40
0.0
 40
0.0
 40
0.0
 40
0.0
 40
0.3678577745882087
 40
0.9999999999999999
 40
0.9999999999999999
 40
0.9999999999999999
 40
0.9999999999999999
 10
447.7643025722006
 20
148.8136215782804
 30
0.0
 10
447.9494179717759
 20
148.8485050038359
 30
0.0
 10
448.4526434365155
 20
148.9433335706494
 30
0.0
 10
448.9669190135414
 20
148.9579588590551
 30
0.0
 10
449.2920143212775
 20
148.9672041214151
 30
0.0
  0
LINE
  5
296
330
1F
100
AcDbEntity
  8
0
  6
Continuous
 62
     7
370
    15
100
AcDbLine
 10
449.0374168064
 20
200.9118101276
 30
0.0
 11
447.7461008038
 21
201.0576720066
 31
0.0
  0
LINE
  5
297
330
1F
100
AcDbEntity
  8
0
  6
Continuous
 62
     7
370
    15
100
AcDbLine
 10
458.4137787725
 20
201.5001005209
 30
0.0
 11
456.8322887327
 21
201.3538363106
 31
0.0
  0
LINE
  5
298
330
1F
100
AcDbEntity
  8
0
  6
Continuous
 62
     7
370
    15
100
AcDbLine
 10
456.6485201623
 20
148.5082111037
 30
0.0
 11
458.4207152631
 21
148.3434396512
 31
0.0
  0
LINE
  5
299
330
1F
100
AcDbEntity
  8
0
  6
Continuous
 62
     7
370
    15
100
AcDbLine
 10
322.0010613706
 20
200.4187400169
 30
0.0
 11
318.9300214555
 21
201.0739440746
 31
0.0
  0
SPLINE
  5
29A
330
1F
100
AcDbEntity
  8
0
  6
Continuous
 62
     7
370
    15
100
AcDbSpline
210
0.0
220
0.0
230
1.0
 70
     8
 71
     3
 72
     9
 73
     5
 74
     0
 42
0.00000001
 43
0.00000001
 40
0.0
 40
0.0
 40
0.0
 40
0.0
 40
0.8448620079823705
 40
1.0
 40
1.0
 40
1.0
 40
1.0
 10
318.9292540456751
 20
148.7679271674795
 30
0.0
 10
319.9526495685419
 20
148.9862507257664
 30
0.0
 10
321.1639663435862
 20
149.2446640006256
 30
0.0
 10
322.3765308205123
 20
149.5032502765853
 30
0.0
 10
322.5646456386546
 20
149.543366832201
 30
0.0
  0
SPLINE
  5
29B
330
1F
100
AcDbEntity
  8
0
  6
Continuous
 62
     7
370
    15
100
AcDbSpline
210
0.0
220
0.0
230
1.0
 70
     8
 71
     3
 72
    17
 73
    13
 74
     0
 42
0.00000001
 43
0.00000001
 40
0.0
 40
0.0
 40
0.0
 40
0.0
 40
0.1034177329542217
 40
0.2200551904197143
 40
0.3351411288519103
 40
0.4486457504555225
 40
0.5611241684563215
 40
0.6579695971156369
 40
0.7531803264828824
 40
0.846951666875438
 40
0.9393848348743784
 40
1.0
 40
1.0
 40
1.0
 40
1.0
 10
335.5129128005007
 20
149.8001417792482
 30
0.0
 10
336.8693260493998
 20
149.6187809955511
 30
0.0
 10
339.7555406979693
 20
149.2328763672916
 30
0.0
 10
344.1425959349487
 20
148.5664535628122
 30
0.0
 10
348.6595488138564
 20
147.8314479371898
 30
0.0
 10
353.1086395675396
 20
147.0578094576817
 30
0.0
 10
357.3492121193507
 20
146.2830614704089
 30
0.0
 10
361.6079489094557
 20
145.5188708197334
 30
0.0
 10
365.6428658164692
 20
144.7856205084646
 30
0.0
 10
369.604599535692
 20
144.0460523502147
 30
0.0
 10
373.079019510359
 20
143.3863164335976
 30
0.0
 10
375.231804900744
 20
142.9701739914212
 30
0.0
 10
376.0844207983116
 20
142.8053597635669
 30
0.0
  0
LINE
  5
29C
330
1F
100
AcDbEntity
  8
0
  6
Continuous
 62
     7
370
    15
100
AcDbLine
 10
373.7835380863
 20
206.5946864612
 30
0.0
 11
373.1553340014
 21
206.4740131325
 31
0.0
  0
SPLINE
  5
29D
330
1F
100
AcDbEntity
  8
0
  6
Continuous
 62
     7
370
    15
100
AcDbSpline
210
0.0
220
0.0
230
1.0
 70
     8
 71
     3
 72
    15
 73
    11
 74
     0
 42
0.00000001
 43
0.00000001
 40
0.0
 40
0.0
 40
0.0
 40
0.0
 40
0.0996161980771942
 40
0.2464314713249933
 40
0.3505355525404329
 40
0.459066874256729
 40
0.5708744001258108
 40
0.6865576583884491
 40
0.8061137628873267
 40
1.0
 40
1.0
 40
1.0
 40
1.0
 10
370.6021597291926
 20
205.9889523959799
 30
0.0
 10
369.3997367145797
 20
205.7614995000192
 30
0.0
 10
366.4251715498212
 20
205.1988244241719
 30
0.0
 10
362.1778759871058
 20
204.4261033111405
 30
0.0
 10
357.8643051122144
 20
203.6516170636778
 30
0.0
 10
354.1649306583962
 20
202.9774720546536
 30
0.0
 10
350.4168034682421
 20
202.312452803037
 30
0.0
 10
346.5208671605955
 20
201.6594425036967
 30
0.0
 10
341.7075402390236
 20
200.8903572021434
 30
0.0
 10
338.1819131511417
 20
200.4149027733544
 30
0.0
 10
336.0010636653403
 20
200.1208006120367
 30
0.0
  0
CIRCLE
  5
29E
330
1F
100
AcDbEntity
  8
0
  6
Continuous
 62
     7
370
    15
100
AcDbCircle
 10
388.9598985817
 20
174.9211507565
 30
0.0
 40
1.950000000000017
  0
CIRCLE
  5
29F
330
1F
100
AcDbEntity
  8
0
  6
Continuous
 62
     7
370
    15
100
AcDbCircle
 10
388.9598985817
 20
174.9211507565
 30
0.0
 40
3.500000000000028
  0
CIRCLE
  5
2A0
330
1F
100
AcDbEntity
  8
0
  6
Continuous
 62
     7
370
    15
100
AcDbCircle
 10
388.9598985817
 20
174.9211507565
 30
0.0
 40
3.636296694843736
  0
CIRCLE
  5
2A1
330
1F
100
AcDbEntity
  8
0
  6
Continuous
 62
     7
370
    15
100
AcDbCircle
 10
388.9598985817
 20
174.9211507565
 30
0.0
 40
3.863703305156292
  0
CIRCLE
  5
2A2
330
1F
100
AcDbEntity
  8
0
  6
Continuous
 62
     7
370
    15
100
AcDbCircle
 10
388.9598985817
 20
174.9211507565
 30
0.0
 40
4.000000000000028
  0
LINE
  5
2A3
330
1F
100
AcDbEntity
  8
0
  6
Continuous
 62
     7
370
    15
100
AcDbLine
 10
386.8638281393
 20
183.2618037886
 30
0.0
 11
387.3709790324
 21
181.2437558263
 31
0.0
  0
ARC
  5
2A4
330
1F
100
AcDbEntity
  8
0
  6
Continuous
 62
     7
370
    15
100
AcDbCircle
 10
385.6737532132
 20
180.817229845
 30
0.0
 40
1.750000000000001
100
AcDbArc
 50
235.1138436154
 51
14.106741573
  0
ARC
  5
2A5
330
1F
100
AcDbEntity
  8
0
  6
Continuous
 62
     7
370
    15
100
AcDbCircle
 10
383.6719362828
 20
177.9462145233
 30
0.0
 40
1.750000000000022
100
AcDbArc
 50
55.1138436154
 51
156.4376359297
  0
ARC
  5
2A6
330
1F
100
AcDbEntity
  8
0
  6
Continuous
 62
     7
370
    15
100
AcDbCircle
 10
388.9598985817
 20
175.6400959192
 30
0.0
 40
7.518945162694261
100
AcDbArc
 50
156.4376359297
 51
23.5623640703
  0
ARC
  5
2A7
330
1F
100
AcDbEntity
  8
0
  6
Continuous
 62
     7
370
    15
100
AcDbCircle
 10
394.2478608806
 20
177.9462145233
 30
0.0
 40
1.750000000000022
100
AcDbArc
 50
23.5623640703
 51
124.8861563846
  0
CIRCLE
  5
2A8
330
1F
100
AcDbEntity
  8
0
  6
Continuous
 62
     7
370
    15
100
AcDbCircle
 10
392.2460439502
 20
180.817229845
 30
0.0
 40
0.8500000000000227
  0
CIRCLE
  5
2A9
330
1F
100
AcDbEntity
  8
0
  6
Continuous
 62
     7
370
    15
100
AcDbCircle
 10
385.6737532132
 20
180.817229845
 30
0.0
 40
0.8499999999999659
  0
LINE
  5
2AA
330
1F
100
AcDbEntity
  8
0
  6
Continuous
 62
     7
370
    15
100
AcDbLine
 10
390.5488181309
 20
181.2437558263
 30
0.0
 11
391.055969024
 21
183.2618037886
 31
0.0
  0
ARC
  5
2AB
330
1F
100
AcDbEntity
  8
0
  6
Continuous
 62
     7
370
    15
100
AcDbCircle
 10
392.2460439502
 20
180.817229845
 30
0.0
 40
1.750000000000001
100
AcDbArc
 50
165.893258427
 51
304.8861563846
  0
CIRCLE
  5
2AC
330
1F
100
AcDbEntity
  8
0
  6
Continuous
 62
     7
370
    15
100
AcDbCircle
 10
388.9598985817
 20
174.9211507565
 30
0.0
 40
5.0
  0
ARC
  5
2AD
330
1F
100
AcDbEntity
  8
0
  6
Continuous
 62
     7
370
    15
100
AcDbCircle
 10
388.9598985817
 20
174.9211507565
 30
0.0
 40
8.500000000000014
100
AcDbArc
 50
75.893258427
 51
104.106741573
  0
CIRCLE
  5
2AE
330
1F
100
AcDbEntity
  8
0
  6
Continuous
 62
     7
370
    15
100
AcDbCircle
 10
388.9598985817
 20
174.9211507565
 30
0.0
 40
4.009999999999962
  0
CIRCLE
  5
2AF
330
1F
100
AcDbEntity
  8
0
  6
Continuous
 62
     7
370
    15
100
AcDbCircle
 10
388.9598985817
 20
174.9211507565
 30
0.0
 40
8.599999999999994
  0
ARC
  5
2B0
330
1F
100
AcDbEntity
  8
0
  6
Continuous
 62
     7
370
    15
100
AcDbCircle
 10
388.9598985817
 20
174.9211507565
 30
0.0
 40
14.98
100
AcDbArc
 50
216.7677811019
 51
323.2322188981
  0
LINE
  5
2B1
330
1F
100
AcDbEntity
  8
0
  6
Continuous
 62
     7
370
    15
100
AcDbLine
 10
376.9598984774
 20
165.9545241571
 30
0.0
 11
376.9598984774
 21
183.887777356
 31
0.0
  0
ARC
  5
2B2
330
1F
100
AcDbEntity
  8
0
  6
Continuous
 62
     7
370
    15
100
AcDbCircle
 10
388.9598985817
 20
174.9211507565
 30
0.0
 40
14.98000000000001
100
AcDbArc
 50
36.7677811019
 51
143.2322188981
  0
LINE
  5
2B3
330
1F
100
AcDbEntity
  8
0
  6
Continuous
 62
     7
370
    15
100
AcDbLine
 10
400.959898686
 20
183.887777356
 30
0.0
 11
400.959898686
 21
165.9545241571
 31
0.0
  0
ARC
  5
2B4
330
1F
100
AcDbEntity
  8
0
  6
Continuous
 62
     7
370
    15
100
AcDbCircle
 10
388.9598985817
 20
174.9211507565
 30
0.0
 40
14.98000000000001
100
AcDbArc
 50
323.2322188981
 51
36.7677811019
  0
ARC
  5
2B5
330
1F
100
AcDbEntity
  8
0
  6
Continuous
 62
     7
370
    15
100
AcDbCircle
 10
388.9598985817
 20
174.9211507565
 30
0.0
 40
14.98000000000001
100
AcDbArc
 50
143.2322188981
 51
216.7677811019
  0
LINE
  5
2B6
330
1F
100
AcDbEntity
  8
0
  6
Continuous
 62
     7
370
    15
100
AcDbLine
 10
411.779704472
 20
143.4438819713
 30
0.0
 11
411.779704472
 21
143.1013452537
 31
0.0
  0
LINE
  5
2B7
330
1F
100
AcDbEntity
  8
0
  6
Continuous
 62
     7
370
    15
100
AcDbLine
 10
462.9598995354
 20
114.9211520976
 30
0.0
 11
462.9598995354
 21
234.9211494154
 31
0.0
  0
LINE
  5
2B8
330
1F
100
AcDbEntity
  8
0
  6
Continuous
 62
     7
370
    15
100
AcDbLine
 10
475.9598960783
 20
114.9211520976
 30
0.0
 11
475.9598960783
 21
234.9211494154
 31
0.0
  0
LINE
  5
2B9
330
1F
100
AcDbEntity
  8
0
  6
Continuous
 62
     7
370
    15
100
AcDbLine
 10
301.9599010851
 20
234.9211494154
 30
0.0
 11
301.9599010851
 21
114.9211520976
 31
0.0
  0
LINE
  5
2BA
330
1F
100
AcDbEntity
  8
0
  6
Continuous
 62
     7
370
    15
100
AcDbLine
 10
314.959897628
 20
234.9211494154
 30
0.0
 11
314.959897628
 21
114.9211520976
 31
0.0
  0
LINE
  5
2BB
330
1F
100
AcDbEntity
  8
0
  6
Continuous
 62
     7
370
    15
100
AcDbLine
 10
398.2894420307
 20
146.3211583621
 30
0.0
 11
406.6859977003
 21
168.0811634003
 31
0.0
  0
ARC
  5
2BC
330
1F
100
AcDbEntity
  8
0
  6
Continuous
 62
     7
370
    15
100
AcDbCircle
 10
388.9599166775
 20
149.9211507565
 30
0.0
 40
10.00000000000003
100
AcDbArc
 50
201.1002374966
 51
338.8998454484
  0
LINE
  5
2BD
330
1F
100
AcDbEntity
  8
0
  6
Continuous
 62
     7
370
    15
100
AcDbLine
 10
371.233810639
 20
168.081137789
 30
0.0
 11
379.6303961109
 21
146.3211434609
 31
0.0
  0
ARC
  5
2BE
330
1F
100
AcDbEntity
  8
0
  6
Continuous
 62
     7
370
    15
100
AcDbCircle
 10
388.9598985817
 20
174.9211507565
 30
0.0
 40
19.00000000000003
100
AcDbArc
 50
158.8998039759
 51
201.1002374966
  0
LINE
  5
2BF
330
1F
100
AcDbEntity
  8
0
  6
Continuous
 62
     7
370
    15
100
AcDbLine
 10
379.6303756218
 20
203.5211506016
 30
0.0
 11
371.233805051
 21
181.7611506856
 31
0.0
  0
ARC
  5
2C0
330
1F
100
AcDbEntity
  8
0
  6
Continuous
 62
     7
370
    15
100
AcDbCircle
 10
388.9598985817
 20
199.9211507565
 30
0.0
 40
9.999999999999979
100
AcDbArc
 50
21.1001960241
 51
158.8998039759
  0
LINE
  5
2C1
330
1F
100
AcDbEntity
  8
0
  6
Continuous
 62
     7
370
    15
100
AcDbLine
 10
406.6859921123
 20
181.7611506856
 30
0.0
 11
398.2894215416
 21
203.5211506016
 31
0.0
  0
ARC
  5
2C2
330
1F
100
AcDbEntity
  8
0
  6
Continuous
 62
     7
370
    15
100
AcDbCircle
 10
388.9598985817
 20
174.9211507565
 30
0.0
 40
19.0
100
AcDbArc
 50
338.8998454484
 51
21.1001960241
  0
CIRCLE
  5
2C3
330
1F
100
AcDbEntity
  8
0
  6
Continuous
 62
     7
370
    15
100
AcDbCircle
 10
388.9598985817
 20
199.9211507565
 30
0.0
 40
3.899999999999949
  0
CIRCLE
  5
2C4
330
1F
100
AcDbEntity
  8
0
  6
Continuous
 62
     7
370
    15
100
AcDbCircle
 10
388.9598985817
 20
149.9211507565
 30
0.0
 40
3.899999999999977
  0
CIRCLE
  5
2C5
330
1F
100
AcDbEntity
  8
0
  6
Continuous
 62
     7
370
    15
100
AcDbCircle
 10
388.9598985817
 20
199.9211507565
 30
0.0
 40
3.400000000000034
  0
CIRCLE
  5
2C6
330
1F
100
AcDbEntity
  8
0
  6
Continuous
 62
     7
370
    15
100
AcDbCircle
 10
388.9598985817
 20
149.9211507565
 30
0.0
 40
3.399999999999977
  0
LWPOLYLINE
  5
2C7
330
1F
100
AcDbEntity
  8
0
  6
Continuous
 62
     7
370
    15
100
AcDbPolyline
 90
        9
 70
   128
 43
0.0
 10
371.233810639
 20
168.081137789
 10
371.1655037161
 20
168.0547804288
 10
370.9625834282
 20
167.9764790176
 10
370.6309934761
 20
167.8485278688
 10
370.1804438289
 20
167.6746732271
 10
369.6241313275
 20
167.460007099
 10
368.9783466663
 20
167.2108163773
 10
368.2620012816
 20
166.9343984402
 10
367.4960778709
 20
166.6388488091
  0
SPLINE
  5
2C8
330
1F
100
AcDbEntity
  8
0
  6
Continuous
 62
     7
370
    15
100
AcDbSpline
210
0.0
220
0.0
230
1.0
 70
     8
 71
     3
 72
    16
 73
    12
 74
     0
 42
0.00000001
 43
0.00000001
 40
0.0
 40
0.0
 40
0.0
 40
0.0
 40
0.2499999999999998
 40
0.2499999999999998
 40
0.3749999999999998
 40
0.3749999999999998
 40
0.4999999999999999
 40
0.4999999999999999
 40
0.7499999999999999
 40
0.7499999999999999
 40
1.0
 40
1.0
 40
1.0
 40
1.0
 10
375.5326421147047
 20
149.885566845912
 30
0.0
 10
374.8656886436855
 20
151.1547705271883
 30
0.0
 10
374.1640204738762
 20
152.4838716854164
 30
0.0
 10
373.0939150170311
 20
154.5369293086995
 30
0.0
 10
372.7347993134077
 20
155.2305559092844
 30
0.0
 10
372.0246534760643
 20
156.6197465548645
 30
0.0
 10
371.6724400026496
 20
157.3176020229131
 30
0.0
 10
370.6304263826472
 20
159.4220904222209
 30
0.0
 10
369.9556407360922
 20
160.8397071635809
 30
0.0
 10
368.6726920827857
 20
163.7110990125914
 30
0.0
 10
368.0647923140677
 20
165.1650076356001
 30
0.0
 10
367.4960771843992
 20
166.6388491539132
 30
0.0
  0
LWPOLYLINE
  5
2C9
330
1F
100
AcDbEntity
  8
0
  6
Continuous
 62
     7
370
    15
100
AcDbPolyline
 90
        9
 70
   128
 43
0.0
 10
371.233805051
 20
181.7611506856
 10
371.1654981281
 20
181.7875085115
 10
370.9625778403
 20
181.8658094569
 10
370.6309878882
 20
181.9937606058
 10
370.1804401036
 20
182.1676147818
 10
369.6241257395
 20
182.3822804443
 10
368.9783410784
 20
182.6314707003
 10
368.2619956936
 20
182.9078881717
 10
367.4960704203
 20
183.2034368715
  0
SPLINE
  5
2CA
330
1F
100
AcDbEntity
  8
0
  6
Continuous
 62
     7
370
    15
100
AcDbSpline
210
0.0
220
0.0
230
1.0
 70
     8
 71
     3
 72
    16
 73
    12
 74
     0
 42
0.00000001
 43
0.00000001
 40
0.0
 40
0.0
 40
0.0
 40
0.0
 40
0.2499999999999998
 40
0.2499999999999998
 40
0.4999999999999997
 40
0.4999999999999997
 40
0.7499999999999996
 40
0.7499999999999996
 40
0.8749999999999998
 40
0.8749999999999998
 40
1.0
 40
1.0
 40
1.0
 40
1.0
 10
367.4960711894074
 20
183.2034368229618
 30
0.0
 10
368.06413386553
 20
184.6755906619522
 30
0.0
 10
368.6729730427301
 20
186.1319950328892
 30
0.0
 10
369.9587124150669
 20
189.0093175485292
 30
0.0
 10
370.6340193710896
 20
190.4275998646484
 30
0.0
 10
372.0209269233789
 20
193.2284075193268
 30
0.0
 10
372.7321522864603
 20
194.6112074294408
 30
0.0
 10
373.7996627601462
 20
196.6594664903202
 30
0.0
 10
374.1565337719874
 20
197.3395965019884
 30
0.0
 10
374.8555930879927
 20
198.6696031521076
 30
0.0
 10
375.1991247599105
 20
199.322079178987
 30
0.0
 10
375.5326239931389
 20
199.9567249480743
 30
0.0
  0
SPLINE
  5
2CB
330
1F
100
AcDbEntity
  8
0
  6
Continuous
 62
     7
370
    15
100
AcDbSpline
210
0.0
220
0.0
230
1.0
 70
     8
 71
     3
 72
    22
 73
    18
 74
     0
 42
0.00000001
 43
0.00000001
 40
0.0
 40
0.0
 40
0.0
 40
0.0
 40
0.2500000000000007
 40
0.2500000000000007
 40
0.3750000000000011
 40
0.3750000000000011
 40
0.5000000000000014
 40
0.5000000000000014
 40
0.6250000000000018
 40
0.6250000000000018
 40
0.6875000000000018
 40
0.6875000000000018
 40
0.7500000000000017
 40
0.7500000000000017
 40
0.8750000000000009
 40
0.8750000000000009
 40
1.0
 40
1.0
 40
1.0
 40
1.0
 10
379.1636510444156
 20
202.3116182499373
 30
0.0
 10
379.0272285591361
 20
201.9580747170291
 30
0.0
 10
378.856423502828
 20
201.6773179264217
 30
0.0
 10
378.5256471804899
 20
201.33875338619
 30
0.0
 10
378.4040688034182
 20
201.2413826521989
 30
0.0
 10
378.1404025925067
 20
201.0733581485398
 30
0.0
 10
377.997662543403
 20
201.0021103570531
 30
0.0
 10
377.6858466934007
 20
200.8741986940406
 30
0.0
 10
377.5181685153165
 20
200.8183653301963
 30
0.0
 10
377.249040203759
 20
200.733636759114
 30
0.0
 10
377.1562191384971
 20
200.7050975491045
 30
0.0
 10
376.9636215265015
 20
200.643931430242
 30
0.0
 10
376.8629091166301
 20
200.6109554448317
 30
0.0
 10
376.5565464756697
 20
200.5021432312075
 30
0.0
 10
376.3489450552062
 20
200.4163396229957
 30
0.0
 10
375.9337707487407
 20
200.2073950617046
 30
0.0
 10
375.7290975491496
 20
200.086120317253
 30
0.0
 10
375.5326239931316
 20
199.9567249480759
 30
0.0
  0
ARC
  5
2CC
330
1F
100
AcDbEntity
  8
0
  6
Continuous
 62
     7
370
    15
100
AcDbCircle
 10
404.0620256549
 20
198.6260425359
 30
0.0
 40
17.06779942146719
100
AcDbArc
 50
278.8436019123
 51
294.9703885498
  0
SPLINE
  5
2CD
330
1F
100
AcDbEntity
  8
0
  6
Continuous
 62
     7
370
    15
100
AcDbSpline
210
0.0
220
0.0
230
1.0
 70
     8
 71
     3
 72
    14
 73
    10
 74
     0
 42
0.00000001
 43
0.00000001
 40
0.0
 40
0.0
 40
0.0
 40
0.0
 40
0.25
 40
0.25
 40
0.5
 40
0.5
 40
0.75
 40
0.75
 40
1.0
 40
1.0
 40
1.0
 40
1.0
 10
411.2671942240765
 20
183.1536372584351
 30
0.0
 10
411.5437696486382
 20
182.5006265197213
 30
0.0
 10
411.7889664893736
 20
181.8399499292538
 30
0.0
 10
412.2145297057616
 20
180.5026059706761
 30
0.0
 10
412.3931167404189
 20
179.8255155648464
 30
0.0
 10
412.6702314515973
 20
178.4515008833269
 30
0.0
 10
412.7723719697224
 20
177.7554417903127
 30
0.0
 10
412.9090251288158
 20
176.3463794707286
 30
0.0
 10
412.9431434610935
 20
175.6334035777128
 30
0.0
 10
412.9431278187591
 20
174.9217259852922
 30
0.0
  0
LINE
  5
2CE
330
1F
100
AcDbEntity
  8
0
  6
Continuous
 62
     7
370
    15
100
AcDbLine
 10
412.9431275334
 20
174.9217259847
 30
0.0
 11
412.9431275334
 21
174.9211048558
 31
0.0
  0
LWPOLYLINE
  5
2CF
330
1F
100
AcDbEntity
  8
0
  6
Continuous
 62
     7
370
    15
100
AcDbPolyline
 90
        9
 70
   128
 43
0.0
 10
412.9431275334
 20
174.9211048558
 10
411.9700593557
 20
174.9211073985
 10
411.0348662045
 20
174.9211085893
 10
410.1733388062
 20
174.9211083826
 10
409.4184403922
 20
174.9211067864
 10
408.7990605887
 20
174.9211038617
 10
408.3388978298
 20
174.9210997205
 10
408.0555634256
 20
174.9210945211
 10
407.9598979707
 20
174.9210884627
  0
SPLINE
  5
2D0
330
1F
100
AcDbEntity
  8
0
  6
Continuous
 62
     7
370
    15
100
AcDbSpline
210
0.0
220
0.0
230
1.0
 70
     8
 71
     3
 72
    12
 73
     8
 74
     0
 42
0.00000001
 43
0.00000001
 40
0.0
 40
0.0
 40
0.0
 40
0.0
 40
0.4999999999999999
 40
0.4999999999999999
 40
0.7499999999999999
 40
0.7499999999999999
 40
1.0
 40
1.0
 40
1.0
 40
1.0
 10
412.9431277964536
 20
174.9211048557864
 30
0.0
 10
412.9430568976866
 20
173.4986424665148
 30
0.0
 10
412.8112369785506
 20
172.0994249139958
 30
0.0
 10
412.3979134624982
 20
170.038257704567
 30
0.0
 10
412.2196754489709
 20
169.3582360558269
 30
0.0
 10
411.791996023015
 20
168.0104898974461
 30
0.0
 10
411.5442922707105
 20
167.3426254644755
 30
0.0
 10
411.2674337421888
 20
166.6887557091782
 30
0.0
  0
ARC
  5
2D1
330
1F
100
AcDbEntity
  8
0
  6
Continuous
 62
     7
370
    15
100
AcDbCircle
 10
404.0644898531
 20
151.2222721653
 30
0.0
 40
17.06149222865918
100
AcDbArc
 50
65.0279864275
 51
81.1614584139
  0
SPLINE
  5
2D2
330
1F
100
AcDbEntity
  8
0
  6
Continuous
 62
     7
370
    15
100
AcDbSpline
210
0.0
220
0.0
230
1.0
 70
     8
 71
     3
 72
    21
 73
    17
 74
     0
 42
0.00000001
 43
0.00000001
 40
0.0
 40
0.0
 40
0.0
 40
0.0
 40
0.2499999999999996
 40
0.2499999999999996
 40
0.4999999999999992
 40
0.4999999999999992
 40
0.7499999999999992
 40
0.7499999999999992
 40
0.8749999999999996
 40
0.9374999999999996
 40
0.9687499999999996
 40
0.9843749999999998
 40
0.9921875
 40
0.99609375
 40
0.99609375
 40
1.0
 40
1.0
 40
1.0
 40
1.0
 10
411.2674337421888
 20
166.6887557091784
 30
0.0
 10
410.8499208485838
 20
165.7026959513928
 30
0.0
 10
410.433901354822
 20
164.7169191431764
 30
0.0
 10
409.5966515424886
 20
162.7488777802241
 30
0.0
 10
409.1765202398603
 20
161.7661345795857
 30
0.0
 10
408.3332768989039
 20
159.802552490851
 30
0.0
 10
407.9101476680777
 20
158.8217255538526
 30
0.0
 10
407.2738920548583
 20
157.3511222743766
 30
0.0
 10
406.9553517324431
 20
156.6159891276032
 30
0.0
 10
406.5830923532881
 20
155.7584678225934
 30
0.0
 10
406.3968195984889
 20
155.3297193357204
 30
0.0
 10
406.3036493224885
 20
155.1153454828211
 30
0.0
 10
406.2570559518662
 20
155.0081583184437
 30
0.0
 10
406.2370856267556
 20
154.9622208752137
 30
0.0
 10
406.2237716934922
 20
154.9315958896953
 30
0.0
 10
406.218915450509
 20
154.9155028244264
 30
0.0
 10
406.2104571881096
 20
154.9009708698292
 30
0.0
  0
SPLINE
  5
2D3
330
1F
100
AcDbEntity
  8
0
  6
Continuous
 62
     7
370
    15
100
AcDbSpline
210
0.0
220
0.0
230
1.0
 70
     8
 71
     3
 72
    10
 73
     6
 74
     0
 42
0.00000001
 43
0.00000001
 40
0.0
 40
0.0
 40
0.0
 40
0.0
 40
0.5
 40
0.5
 40
1.0
 40
1.0
 40
1.0
 40
1.0
 10
406.2104571881096
 20
154.9009708698292
 30
0.0
 10
405.8708252682677
 20
154.3169061159877
 30
0.0
 10
405.533415750613
 20
153.733036838464
 30
0.0
 10
404.8697534291924
 20
152.5807712321806
 30
0.0
 10
404.5429506040735
 20
152.0122696261122
 30
0.0
 10
404.2226398766551
 20
151.4515671421061
 30
0.0
  0
SPLINE
  5
2D4
330
1F
100
AcDbEntity
  8
0
  6
Continuous
 62
     7
370
    15
100
AcDbSpline
210
0.0
220
0.0
230
1.0
 70
     8
 71
     3
 72
    12
 73
     8
 74
     0
 42
0.00000001
 43
0.00000001
 40
0.0
 40
0.0
 40
0.0
 40
0.0
 40
0.5000000000000002
 40
0.5000000000000002
 40
0.7500000000000001
 40
0.7500000000000001
 40
1.0
 40
1.0
 40
1.0
 40
1.0
 10
406.2093240353389
 20
194.9439119663837
 30
0.0
 10
407.0615718861844
 20
192.9835324260691
 30
0.0
 10
407.9107421005368
 20
191.0233564937929
 30
0.0
 10
409.1758175308868
 20
188.0773407494262
 30
0.0
 10
409.5960294709176
 20
187.0943649408735
 30
0.0
 10
410.4334783021961
 20
185.1257888934437
 30
0.0
 10
410.8495327934054
 20
184.1397603017494
 30
0.0
 10
411.2671942240765
 20
183.1536372584349
 30
0.0
  0
SPLINE
  5
2D5
330
1F
100
AcDbEntity
  8
0
  6
Continuous
 62
     7
370
    15
100
AcDbSpline
210
0.0
220
0.0
230
1.0
 70
     8
 71
     3
 72
    24
 73
    20
 74
     0
 42
0.00000001
 43
0.00000001
 40
0.0
 40
0.0
 40
0.0
 40
0.0
 40
0.1250000000000001
 40
0.1250000000000001
 40
0.2500000000000003
 40
0.2500000000000003
 40
0.3750000000000004
 40
0.3750000000000004
 40
0.4375000000000002
 40
0.4375000000000002
 40
0.4999999999999999
 40
0.4999999999999999
 40
0.6249999999999999
 40
0.6249999999999999
 40
0.7499999999999999
 40
0.7499999999999999
 40
0.875
 40
0.875
 40
1.0
 40
1.0
 40
1.0
 40
1.0
 10
404.2246449778459
 20
198.3880298896218
 30
0.0
 10
403.9763457066083
 20
198.6030176502465
 30
0.0
 10
403.7241708784736
 20
198.8134476191901
 30
0.0
 10
403.2076000718372
 20
199.2217268472914
 30
0.0
 10
402.9433132649614
 20
199.4196270982471
 30
0.0
 10
402.3933410940602
 20
199.7960245377916
 30
0.0
 10
402.1094414622768
 20
199.9722106617959
 30
0.0
 10
401.6780457241762
 20
200.2062411752075
 30
0.0
 10
401.5329871965656
 20
200.2795234754531
 30
0.0
 10
401.2416429524369
 20
200.4178055216353
 30
0.0
 10
401.0956367866459
 20
200.482616230295
 30
0.0
 10
400.6771830455335
 20
200.6636089541629
 30
0.0
 10
400.4180355669642
 20
200.7700058615995
 30
0.0
 10
399.9413029861551
 20
201.0052089899012
 30
0.0
 10
399.7290914188474
 20
201.1316438745698
 30
0.0
 10
399.350767008558
 20
201.4338224881111
 30
0.0
 10
399.1832341061759
 20
201.611677390374
 30
0.0
 10
398.8980299863385
 20
202.0214535193944
 30
0.0
 10
398.778394793142
 20
202.2539600504653
 30
0.0
 10
398.6757137942922
 20
202.5200613681573
 30
0.0
  0
SPLINE
  5
2D6
330
1F
100
AcDbEntity
  8
0
  6
Continuous
 62
     7
370
    15
100
AcDbSpline
210
0.0
220
0.0
230
1.0
 70
     8
 71
     3
 72
    18
 73
    14
 74
     0
 42
0.00000001
 43
0.00000001
 40
0.0
 40
0.0
 40
0.0
 40
0.0
 40
0.5000000000000023
 40
0.5000000000000023
 40
0.7500000000000042
 40
0.7500000000000042
 40
0.8750000000000044
 40
0.9375000000000028
 40
0.9687500000000012
 40
0.9843750000000003
 40
0.9921875000000002
 40
0.9921875000000002
 40
1.0
 40
1.0
 40
1.0
 40
1.0
 10
404.2246449778461
 20
198.3880298896218
 30
0.0
 10
404.5445270526721
 20
197.828076229615
 30
0.0
 10
404.8714312820964
 20
197.2593717577544
 30
0.0
 10
405.3693279217391
 20
196.3948779429478
 30
0.0
 10
405.5360987967809
 20
196.1058125044333
 30
0.0
 10
405.7875510862341
 20
195.6709887880307
 30
0.0
 10
405.9136020869203
 20
195.4532704512661
 30
0.0
 10
406.061258025225
 20
195.1987560304733
 30
0.0
 10
406.1352392077389
 20
195.0713746662006
 30
0.0
 10
406.1722686304929
 20
195.0076533523552
 30
0.0
 10
406.1881467624352
 20
194.9803376973015
 30
0.0
 10
406.1987340523793
 20
194.9621258163975
 30
0.0
 10
406.2051131401301
 20
194.9536020243418
 30
0.0
 10
406.2093240353389
 20
194.9439119663836
 30
0.0
  0
ARC
  5
2D7
330
1F
100
AcDbEntity
  8
0
  6
Continuous
 62
     7
370
    15
100
AcDbCircle
 10
388.9598985817
 20
174.9211507565
 30
0.0
 40
23.00635018450038
100
AcDbArc
 50
158.8998039759
 51
201.1002374966
  0
SPLINE
  5
2D8
330
1F
100
AcDbEntity
  8
0
  6
Continuous
 62
     7
370
    15
100
AcDbSpline
210
0.0
220
0.0
230
1.0
 70
     8
 71
     3
 72
    20
 73
    16
 74
     0
 42
0.00000001
 43
0.00000001
 40
0.0
 40
0.0
 40
0.0
 40
0.0
 40
0.1249999999999994
 40
0.1249999999999994
 40
0.1874999999999996
 40
0.1874999999999996
 40
0.2499999999999998
 40
0.2499999999999998
 40
0.3124999999999999
 40
0.3124999999999999
 40
0.3750000000000001
 40
0.3750000000000001
 40
0.5000000000000002
 40
0.5000000000000002
 40
1.0
 40
1.0
 40
1.0
 40
1.0
 10
419.6835292987216
 20
180.5504436041388
 30
0.0
 10
420.8837860152455
 20
180.5457435582076
 30
0.0
 10
422.0655018031198
 20
180.5407148184755
 30
0.0
 10
423.810314119673
 20
180.5328544419341
 30
0.0
 10
424.3872823997016
 20
180.5301798174759
 30
0.0
 10
425.5318495124995
 20
180.5247313866302
 30
0.0
 10
426.0990765713692
 20
180.5215229844648
 30
0.0
 10
427.2300407905872
 20
180.5111562535296
 30
0.0
 10
427.7946571936618
 20
180.5034712396314
 30
0.0
 10
428.9258817245778
 20
180.488774215336
 30
0.0
 10
429.4918959896236
 20
180.4812993846174
 30
0.0
 10
431.1900750621555
 20
180.4593512227839
 30
0.0
 10
432.3223701836997
 20
180.4448310752477
 30
0.0
 10
437.9844869825312
 20
180.3726946798337
 30
0.0
 10
442.5162376789767
 20
180.3166283687528
 30
0.0
 10
447.046948860628
 20
180.2619699698388
 30
0.0
  0
SPLINE
  5
2D9
330
1F
100
AcDbEntity
  8
0
  6
Continuous
 62
     7
370
    15
100
AcDbSpline
210
0.0
220
0.0
230
1.0
 70
     8
 71
     3
 72
    12
 73
     8
 74
     0
 42
0.00000001
 43
0.00000001
 40
0.0
 40
0.0
 40
0.0
 40
0.0
 40
0.5000000000000001
 40
0.5000000000000001
 40
0.75
 40
0.75
 40
1.0
 40
1.0
 40
1.0
 40
1.0
 10
419.6835292987216
 20
180.5504436041387
 30
0.0
 10
420.0238294854753
 20
179.6506239775236
 30
0.0
 10
420.2695685649435
 20
178.7279767674493
 30
0.0
 10
420.5152222039171
 20
177.3143239281585
 30
0.0
 10
420.5764185846506
 20
176.8368899429872
 30
0.0
 10
420.6573260515142
 20
175.8804201850745
 30
0.0
 10
420.6772263304372
 20
175.4009802979746
 30
0.0
 10
420.6769634982103
 20
174.9203582877857
 30
0.0
  0
LINE
  5
2DA
330
1F
100
AcDbEntity
  8
0
  6
Continuous
 62
     7
370
    15
100
AcDbLine
 10
415.1484993901
 20
174.9208813742
 30
0.0
 11
415.1557581182
 21
174.9243111572
 31
0.0
  0
SPLINE
  5
2DB
330
1F
100
AcDbEntity
  8
0
  6
Continuous
 62
     7
370
    15
100
AcDbSpline
210
0.0
220
0.0
230
1.0
 70
     8
 71
     3
 72
    10
 73
     6
 74
     0
 42
0.00000001
 43
0.00000001
 40
0.0
 40
0.0
 40
0.0
 40
0.0
 40
0.5
 40
0.5
 40
1.0
 40
1.0
 40
1.0
 40
1.0
 10
401.7803935765508
 20
200.4587224273055
 30
0.0
 10
402.2596026221068
 20
200.1946884995142
 30
0.0
 10
402.6802466806167
 20
199.868039446762
 30
0.0
 10
403.4790244025089
 20
199.1597558919807
 30
0.0
 10
403.8576308030549
 20
198.7768844074656
 30
0.0
 10
404.2246449778332
 20
198.3880298896315
 30
0.0
  0
SPLINE
  5
2DC
330
1F
100
AcDbEntity
  8
0
  6
Continuous
 62
     7
370
    15
100
AcDbSpline
210
0.0
220
0.0
230
1.0
 70
     8
 71
     3
 72
     8
 73
     4
 74
     0
 42
0.00000001
 43
0.00000001
 40
0.0
 40
0.0
 40
0.0
 40
0.0
 40
1.0
 40
1.0
 40
1.0
 40
1.0
 10
401.2914263222221
 20
200.7238262011848
 30
0.0
 10
401.4550405872756
 20
200.6365479666707
 30
0.0
 10
401.6180278701349
 20
200.5481824564932
 30
0.0
 10
401.7803935765506
 20
200.4587224273032
 30
0.0
  0
LINE
  5
2DD
330
1F
100
AcDbEntity
  8
0
  6
Continuous
 62
     7
370
    15
100
AcDbLine
 10
408.8732814099
 20
206.8341369457
 30
0.0
 11
408.7835391666
 21
206.8474809355
 31
0.0
  0
SPLINE
  5
2DE
330
1F
100
AcDbEntity
  8
0
  6
Continuous
 62
     7
370
    15
100
AcDbSpline
210
0.0
220
0.0
230
1.0
 70
     8
 71
     3
 72
    14
 73
    10
 74
     0
 42
0.00000001
 43
0.00000001
 40
0.0
 40
0.0
 40
0.0
 40
0.0
 40
0.25
 40
0.25
 40
0.5
 40
0.5
 40
0.75
 40
0.75
 40
1.0
 40
1.0
 40
1.0
 40
1.0
 10
396.3961185104291
 20
208.6874116283538
 30
0.0
 10
396.3563300047456
 20
208.694363916281
 30
0.0
 10
396.3136845752806
 20
208.7015213329722
 30
0.0
 10
396.2119249184515
 20
208.7178842529083
 30
0.0
 10
396.1530106284154
 20
208.7270839291753
 30
0.0
 10
396.026446363132
 20
208.7465282436443
 30
0.0
 10
395.9593315642714
 20
208.7567161049203
 30
0.0
 10
395.8186025658106
 20
208.7779743826537
 30
0.0
 10
395.7470947965446
 20
208.788714082007
 30
0.0
 10
395.6753653053008
 20
208.7994830437809
 30
0.0
  0
SPLINE
  5
2DF
330
1F
100
AcDbEntity
  8
0
  6
Continuous
 62
     7
370
    15
100
AcDbSpline
210
0.0
220
0.0
230
1.0
 70
     8
 71
     3
 72
    14
 73
    10
 74
     0
 42
0.00000001
 43
0.00000001
 40
0.0
 40
0.0
 40
0.0
 40
0.0
 40
0.5000000000000053
 40
0.5000000000000053
 40
0.7500000000000082
 40
0.7500000000000082
 40
0.8750000000000041
 40
0.8750000000000041
 40
1.0
 40
1.0
 40
1.0
 40
1.0
 10
396.5784101770957
 20
208.6337557983829
 30
0.0
 10
396.5711023785678
 20
208.6414449764575
 30
0.0
 10
396.5603096331809
 20
208.648584186117
 30
0.0
 10
396.5214748391321
 20
208.6610255212519
 30
0.0
 10
396.5067822755593
 20
208.6651540297094
 30
0.0
 10
396.4736219453421
 20
208.6725645891095
 30
0.0
 10
396.4615293318194
 20
208.6751226129693
 30
0.0
 10
396.4331280079334
 20
208.6807298828888
 30
0.0
 10
396.4149196791513
 20
208.6840529085659
 30
0.0
 10
396.3961185104291
 20
208.6874116283538
 30
0.0
  0
LINE
  5
2E0
330
1F
100
AcDbEntity
  8
0
  6
Continuous
 62
     7
370
    15
100
AcDbLine
 10
397.9245638158
 20
208.4357584543
 30
0.0
 11
396.578410143
 21
208.6337576336
 31
0.0
  0
SPLINE
  5
2E1
330
1F
100
AcDbEntity
  8
0
  6
Continuous
 62
     7
370
    15
100
AcDbSpline
210
0.0
220
0.0
230
1.0
 70
     8
 71
     3
 72
    20
 73
    16
 74
     0
 42
0.00000001
 43
0.00000001
 40
0.0
 40
0.0
 40
0.0
 40
0.0
 40
0.1249999999999993
 40
0.1249999999999993
 40
0.2499999999999987
 40
0.2499999999999987
 40
0.374999999999998
 40
0.374999999999998
 40
0.4999999999999973
 40
0.4999999999999973
 40
0.6249999999999967
 40
0.6249999999999967
 40
0.749999999999996
 40
0.749999999999996
 40
1.0
 40
1.0
 40
1.0
 40
1.0
 10
395.6753653053008
 20
208.7994830437809
 30
0.0
 10
395.5955846468259
 20
208.8114463612423
 30
0.0
 10
395.5161135261493
 20
208.8233589738607
 30
0.0
 10
395.3598873371113
 20
208.8466780061928
 30
0.0
 10
395.2814550800011
 20
208.8583482739429
 30
0.0
 10
395.1375789035075
 20
208.8794730576336
 30
0.0
 10
395.0708470712057
 20
208.8891067817709
 30
0.0
 10
394.964067687779
 20
208.9037949647146
 30
0.0
 10
394.925546794229
 20
208.9085620285911
 30
0.0
 10
394.86994774791
 20
208.9142216043273
 30
0.0
 10
394.8509406903818
 20
208.9153880746396
 30
0.0
 10
394.8218336923464
 20
208.9158028483925
 30
0.0
 10
394.8108757924791
 20
208.915171991556
 30
0.0
 10
394.7886987277113
 20
208.9107539938345
 30
0.0
 10
394.7843494670392
 20
208.905025611258
 30
0.0
 10
394.7835383822239
 20
208.8975448728203
 30
0.0
  0
SPLINE
  5
2E2
330
1F
100
AcDbEntity
  8
0
  6
Continuous
 62
     7
370
    15
100
AcDbSpline
210
0.0
220
0.0
230
1.0
 70
     8
 71
     3
 72
    12
 73
     8
 74
     0
 42
0.00000001
 43
0.00000001
 40
0.0
 40
0.0
 40
0.0
 40
0.0
 40
0.2499999999999998
 40
0.2499999999999998
 40
0.4999999999999996
 40
0.4999999999999996
 40
1.0
 40
1.0
 40
1.0
 40
1.0
 10
420.6769634982103
 20
174.9203582877857
 30
0.0
 10
420.6767007258899
 20
174.4398458243932
 30
0.0
 10
420.6562851533502
 20
173.9605360427057
 30
0.0
 10
420.5743737827592
 20
173.0043680709272
 30
0.0
 10
420.5126891133627
 20
172.5271108553645
 30
0.0
 10
420.265637711774
 20
171.1140341187838
 30
0.0
 10
420.0190468245332
 20
170.191834146397
 30
0.0
 10
419.6780285209828
 20
169.2925246028912
 30
0.0
  0
SPLINE
  5
2E3
330
1F
100
AcDbEntity
  8
0
  6
Continuous
 62
     7
370
    15
100
AcDbSpline
210
0.0
220
0.0
230
1.0
 70
     8
 71
     3
 72
    20
 73
    16
 74
     0
 42
0.00000001
 43
0.00000001
 40
0.0
 40
0.0
 40
0.0
 40
0.0
 40
0.5000000000000003
 40
0.5000000000000003
 40
0.6250000000000003
 40
0.6250000000000003
 40
0.6875000000000002
 40
0.6875000000000002
 40
0.7500000000000001
 40
0.7500000000000001
 40
0.8125000000000001
 40
0.8125000000000001
 40
0.875
 40
0.875
 40
1.0
 40
1.0
 40
1.0
 40
1.0
 10
447.0457388388763
 20
169.5821093316225
 30
0.0
 10
442.5136319302966
 20
169.5273651610258
 30
0.0
 10
437.9807245655567
 20
169.4707887028692
 30
0.0
 10
432.3168891854734
 20
169.3985437107824
 30
0.0
 10
431.1842360281323
 20
169.3840324876993
 30
0.0
 10
429.4854861764762
 20
169.3621505221089
 30
0.0
 10
428.9192782398951
 20
169.3547007973632
 30
0.0
 10
427.7878399031478
 20
169.3399874797468
 30
0.0
 10
427.2233159727557
 20
169.3322503133537
 30
0.0
 10
426.0921954753157
 20
169.3218060143479
 30
0.0
 10
425.5245784982345
 20
169.3185697870581
 30
0.0
 10
424.3774620162161
 20
169.3130431699891
 30
0.0
 10
423.7984860181241
 20
169.3103278352153
 30
0.0
 10
422.0518642468107
 20
169.3023644928594
 30
0.0
 10
420.8723663922014
 20
169.2972821956749
 30
0.0
 10
419.6780285209829
 20
169.2925246028913
 30
0.0
  0
SPLINE
  5
2E4
330
1F
100
AcDbEntity
  8
0
  6
Continuous
 62
     7
370
    15
100
AcDbSpline
210
0.0
220
0.0
230
1.0
 70
     8
 71
     3
 72
     8
 73
     4
 74
     0
 42
0.00000001
 43
0.00000001
 40
0.0
 40
0.0
 40
0.0
 40
0.0
 40
1.0
 40
1.0
 40
1.0
 40
1.0
 10
401.7835796576311
 20
149.3841368702526
 30
0.0
 10
401.6290067572705
 20
149.2988655869219
 30
0.0
 10
401.4738735866999
 20
149.214581401875
 30
0.0
 10
401.3181765013397
 20
149.1312767092006
 30
0.0
  0
SPLINE
  5
2E5
330
1F
100
AcDbEntity
  8
0
  6
Continuous
 62
     7
370
    15
100
AcDbSpline
210
0.0
220
0.0
230
1.0
 70
     8
 71
     3
 72
    10
 73
     6
 74
     0
 42
0.00000001
 43
0.00000001
 40
0.0
 40
0.0
 40
0.0
 40
0.0
 40
0.5
 40
0.5
 40
1.0
 40
1.0
 40
1.0
 40
1.0
 10
401.7835796576325
 20
149.3841368702502
 30
0.0
 10
402.2596617363751
 20
149.6467710689386
 30
0.0
 10
402.6834631073762
 20
149.975745434475
 30
0.0
 10
403.4804204989887
 20
150.6830987492564
 30
0.0
 10
403.8553642479675
 20
151.0623832027802
 30
0.0
 10
404.2226398766409
 20
151.4515671420818
 30
0.0
  0
LINE
  5
2E6
330
1F
100
AcDbEntity
  8
0
  6
Continuous
 62
     7
370
    15
100
AcDbLine
 10
412.9431275334
 20
174.9211048558
 30
0.0
 11
412.9439973887
 21
174.9211047899
 31
0.0
  0
SPLINE
  5
2E7
330
1F
100
AcDbEntity
  8
0
  6
Continuous
 62
     7
370
    15
100
AcDbSpline
210
0.0
220
0.0
230
1.0
 70
     8
 71
     3
 72
    16
 73
    12
 74
     0
 42
0.00000001
 43
0.00000001
 40
0.0
 40
0.0
 40
0.0
 40
0.0
 40
0.1249999999999996
 40
0.1249999999999996
 40
0.2499999999999992
 40
0.2499999999999992
 40
0.4999999999999994
 40
0.4999999999999994
 40
0.7499999999999997
 40
0.7499999999999997
 40
1.0
 40
1.0
 40
1.0
 40
1.0
 10
357.787607710799
 20
180.2219320065422
 30
0.0
 10
357.9518932961669
 20
180.2270748960779
 30
0.0
 10
358.1343684019282
 20
180.2328769433383
 30
0.0
 10
358.5352994735705
 20
180.2459383190685
 30
0.0
 10
358.7546237597404
 20
180.2532280037896
 30
0.0
 10
359.4557373897378
 20
180.2772055017848
 30
0.0
 10
359.9824059476423
 20
180.2960223820771
 30
0.0
 10
361.1512656060301
 20
180.3411810988628
 30
0.0
 10
361.7995538662459
 20
180.3678054053717
 30
0.0
 10
363.1618222982522
 20
180.4294062491198
 30
0.0
 10
363.8803035897314
 20
180.4644952655784
 30
0.0
 10
364.6361747788874
 20
180.5058746816237
 30
0.0
  0
SPLINE
  5
2E8
330
1F
100
AcDbEntity
  8
0
  6
Continuous
 62
     7
370
    15
100
AcDbSpline
210
0.0
220
0.0
230
1.0
 70
     8
 71
     3
 72
     8
 73
     4
 74
     0
 42
0.00000001
 43
0.00000001
 40
0.0
 40
0.0
 40
0.0
 40
0.0
 40
1.0
 40
1.0
 40
1.0
 40
1.0
 10
376.1330520120332
 20
200.4374124284429
 30
0.0
 10
375.9200947624267
 20
200.2900929573477
 30
0.0
 10
375.7218850406016
 20
200.1273097891533
 30
0.0
 10
375.5326239932896
 20
199.9567249481621
 30
0.0
  0
SPLINE
  5
2E9
330
1F
100
AcDbEntity
  8
0
  6
Continuous
 62
     7
370
    15
100
AcDbSpline
210
0.0
220
0.0
230
1.0
 70
     8
 71
     3
 72
     8
 73
     4
 74
     0
 42
0.00000001
 43
0.00000001
 40
0.0
 40
0.0
 40
0.0
 40
0.0
 40
1.0
 40
1.0
 40
1.0
 40
1.0
 10
376.1330704815311
 20
149.4048798001621
 30
0.0
 10
375.9201131252381
 20
149.5521991171481
 30
0.0
 10
375.7219032857573
 20
149.7149821420897
 30
0.0
 10
375.5326421146738
 20
149.8855668459279
 30
0.0
  0
SPLINE
  5
2EA
330
1F
100
AcDbEntity
  8
0
  6
Continuous
 62
     7
370
    15
100
AcDbSpline
210
0.0
220
0.0
230
1.0
 70
     8
 71
     3
 72
    16
 73
    12
 74
     0
 42
0.00000001
 43
0.00000001
 40
0.0
 40
0.0
 40
0.0
 40
0.0
 40
0.2500000000000003
 40
0.2500000000000003
 40
0.5000000000000006
 40
0.5000000000000006
 40
0.7500000000000009
 40
0.7500000000000009
 40
0.8750000000000004
 40
0.8750000000000004
 40
1.0
 40
1.0
 40
1.0
 40
1.0
 10
364.6361747788874
 20
169.3364268314607
 30
0.0
 10
363.8803035897313
 20
169.3778062475059
 30
0.0
 10
363.1618222982522
 20
169.4128952639646
 30
0.0
 10
361.7995538662459
 20
169.4744961077127
 30
0.0
 10
361.1512656060301
 20
169.5011204142216
 30
0.0
 10
359.9824059476422
 20
169.5462791310073
 30
0.0
 10
359.4557373897378
 20
169.5650960112996
 30
0.0
 10
358.7546237597404
 20
169.5890735092948
 30
0.0
 10
358.5352994735705
 20
169.5963631940159
 30
0.0
 10
358.1343684019282
 20
169.6094245697461
 30
0.0
 10
357.9518932961669
 20
169.6152266170064
 30
0.0
 10
357.787607710799
 20
169.6203695065422
 30
0.0
  0
ARC
  5
2EB
330
1F
100
AcDbEntity
  8
0
  6
Continuous
 62
     7
370
    15
100
AcDbCircle
 10
388.9598985817
 20
174.9211507565
 30
0.0
 40
24.95661597562
100
AcDbArc
 50
180.0
 51
192.9309889195
  0
ARC
  5
2EC
330
1F
100
AcDbEntity
  8
0
  6
Continuous
 62
     7
370
    15
100
AcDbCircle
 10
388.9598985817
 20
174.9211507565
 30
0.0
 40
24.95661597562001
100
AcDbArc
 50
167.0690110805
 51
180.0
  0
SPLINE
  5
2ED
330
1F
100
AcDbEntity
  8
0
  6
Continuous
 62
     7
370
    15
100
AcDbSpline
210
0.0
220
0.0
230
1.0
 70
     8
 71
     3
 72
     8
 73
     4
 74
     0
 42
0.00000001
 43
0.00000001
 40
0.0
 40
0.0
 40
0.0
 40
0.0
 40
1.0
 40
1.0
 40
1.0
 40
1.0
 10
376.1330520120332
 20
200.4374124284429
 30
0.0
 10
376.3924497552056
 20
200.5866423550571
 30
0.0
 10
376.6514620273983
 20
200.7365885127121
 30
0.0
 10
376.9232936559346
 20
200.8627154429328
 30
0.0
  0
SPLINE
  5
2EE
330
1F
100
AcDbEntity
  8
0
  6
Continuous
 62
     7
370
    15
100
AcDbSpline
210
0.0
220
0.0
230
1.0
 70
     8
 71
     3
 72
     8
 73
     4
 74
     0
 42
0.00000001
 43
0.00000001
 40
0.0
 40
0.0
 40
0.0
 40
0.0
 40
1.0
 40
1.0
 40
1.0
 40
1.0
 10
376.9233124332802
 20
148.9795773576749
 30
0.0
 10
376.6514807134494
 20
149.105704091135
 30
0.0
 10
376.392468332721
 20
149.2556500613085
 30
0.0
 10
376.1330704815311
 20
149.4048798001621
 30
0.0
  0
LINE
  5
2EF
330
1F
100
AcDbEntity
  8
0
  6
Continuous
 62
     7
370
    15
100
AcDbLine
 10
412.9431275334
 20
174.9217259847
 30
0.0
 11
412.9439973887
 21
174.9211047899
 31
0.0
  0
LINE
  5
2F0
330
1F
100
AcDbEntity
  8
0
  6
Continuous
 62
     7
370
    15
100
AcDbLine
 10
376.9232937749
 20
200.8627145267
 30
0.0
 11
378.9284173082
 21
201.7020019419
 31
0.0
  0
LINE
  5
2F1
330
1F
100
AcDbEntity
  8
0
  6
Continuous
 62
     7
370
    15
100
AcDbLine
 10
398.9913798552
 20
201.7020019419
 30
0.0
 11
401.2914262395
 21
200.7238263912
 31
0.0
  0
LWPOLYLINE
  5
2F2
330
1F
100
AcDbEntity
  8
0
  6
Continuous
 62
     7
370
    15
100
AcDbPolyline
 90
        3
 70
   128
 43
0.0
 10
401.3181766178
 20
149.131277082
 10
399.0003270711
 20
148.1436523325
 10
398.9913994129
 20
148.1403070218
  0
LINE
  5
2F3
330
1F
100
AcDbEntity
  8
0
  6
Continuous
 62
     7
370
    15
100
AcDbLine
 10
378.928436866
 20
148.1402921206
 30
0.0
 11
376.9233124014
 21
148.9795776731
 31
0.0
  0
SPLINE
  5
2F4
330
1F
100
AcDbEntity
  8
0
  6
Continuous
 62
     7
370
    15
100
AcDbSpline
210
0.0
220
0.0
230
1.0
 70
     8
 71
     3
 72
    24
 73
    20
 74
     0
 42
0.00000001
 43
0.00000001
 40
0.0
 40
0.0
 40
0.0
 40
0.0
 40
0.2500000000000016
 40
0.2500000000000016
 40
0.5000000000000031
 40
0.5000000000000031
 40
0.6250000000000031
 40
0.6250000000000031
 40
0.7500000000000031
 40
0.7500000000000031
 40
0.8125000000000023
 40
0.8125000000000023
 40
0.8750000000000017
 40
0.8750000000000017
 40
0.9375000000000009
 40
0.9375000000000009
 40
0.9687500000000004
 40
0.9687500000000004
 40
1.0
 40
1.0
 40
1.0
 40
1.0
 10
432.164620690541
 20
176.9211507565422
 30
0.0
 10
431.049862040744
 20
176.9211507565422
 30
0.0
 10
429.9438194693806
 20
176.9811235152233
 30
0.0
 10
427.7517740347936
 20
177.2389563392949
 30
0.0
 10
426.666921529527
 20
177.4447316776705
 30
0.0
 10
425.0539279712336
 20
177.8516869201221
 30
0.0
 10
424.51755578697
 20
178.0032539619101
 30
0.0
 10
423.4548573739348
 20
178.3397579249483
 30
0.0
 10
422.9290818592792
 20
178.5239817323507
 30
0.0
 10
422.1524374212892
 20
178.8347583003613
 30
0.0
 10
421.8958962354131
 20
178.9440652542514
 30
0.0
 10
421.3904486406855
 20
179.1784858640649
 30
0.0
 10
421.1406116543614
 20
179.3037899615538
 30
0.0
 10
420.6567907918454
 20
179.5794331256556
 30
0.0
 10
420.4229044228908
 20
179.7281857464896
 30
0.0
 10
420.1010826564599
 20
179.9908314751846
 30
0.0
 10
419.9986416490253
 20
180.0849638460233
 30
0.0
 10
419.8134913657419
 20
180.3001087781912
 30
0.0
 10
419.7341425610635
 20
180.4166123322345
 30
0.0
 10
419.6835292987216
 20
180.5504436041388
 30
0.0
  0
ARC
  5
2F5
330
1F
100
AcDbEntity
  8
0
  6
Continuous
 62
     7
370
    15
100
AcDbCircle
 10
459.0598985817
 20
169.0211507565
 30
0.0
 40
3.899999999999977
100
AcDbArc
 50
0.0
 51
90.0
  0
LINE
  5
2F6
330
1F
100
AcDbEntity
  8
0
  6
Continuous
 62
     7
370
    15
100
AcDbLine
 10
432.1595346238
 20
172.9211506615
 30
0.0
 11
459.0599005725
 21
172.9211506615
 31
0.0
  0
SPLINE
  5
2F7
330
1F
100
AcDbEntity
  8
0
  6
Continuous
 62
     7
370
    15
100
AcDbSpline
210
0.0
220
0.0
230
1.0
 70
     8
 71
     3
 72
    22
 73
    18
 74
     0
 42
0.00000001
 43
0.00000001
 40
0.0
 40
0.0
 40
0.0
 40
0.0
 40
0.0312499999999992
 40
0.0312499999999992
 40
0.0624999999999983
 40
0.0624999999999983
 40
0.1249999999999978
 40
0.1249999999999978
 40
0.2499999999999981
 40
0.2499999999999981
 40
0.3749999999999984
 40
0.3749999999999984
 40
0.4999999999999988
 40
0.4999999999999988
 40
0.7499999999999994
 40
0.7499999999999994
 40
1.0
 40
1.0
 40
1.0
 40
1.0
 10
419.6780285209828
 20
169.2925246028913
 30
0.0
 10
419.7287694593921
 20
169.4263350455649
 30
0.0
 10
419.8077035533711
 20
169.5420249609587
 30
0.0
 10
419.9920600774428
 20
169.7563799994717
 30
0.0
 10
420.0957873646125
 20
169.8518484631265
 30
0.0
 10
420.4201968379924
 20
170.116289136095
 30
0.0
 10
420.6575186049042
 20
170.2668095436943
 30
0.0
 10
421.3882551526451
 20
170.6818869741466
 30
0.0
 10
421.8955890938051
 20
170.9070248430845
 30
0.0
 10
422.9253508712428
 20
171.318713147574
 30
0.0
 10
423.4489734808083
 20
171.5022091538813
 30
0.0
 10
424.5085076768541
 20
171.8377844861494
 30
0.0
 10
425.0456771209533
 20
171.9896945363403
 30
0.0
 10
426.6612230519122
 20
172.3974205023108
 30
0.0
 10
427.747165041175
 20
172.6034535321836
 30
0.0
 10
429.9399373449907
 20
172.861320667628
 30
0.0
 10
431.0456844956899
 20
172.921150756542
 30
0.0
 10
432.1595364393704
 20
172.921150756542
 30
0.0
  0
LINE
  5
2F8
330
1F
100
AcDbEntity
  8
0
  6
Continuous
 62
     7
370
    15
100
AcDbLine
 10
432.1646196451
 20
176.9211508515
 30
0.0
 11
459.0599005725
 21
176.9211508515
 31
0.0
  0
ARC
  5
2F9
330
1F
100
AcDbEntity
  8
0
  6
Continuous
 62
     7
370
    15
100
AcDbCircle
 10
459.0598985817
 20
180.8211507565
 30
0.0
 40
3.900000000000006
100
AcDbArc
 50
270.0
 51
0.0
  0
LINE
  5
2FA
330
1F
100
AcDbEntity
  8
0
  6
Continuous
 62
     7
370
    15
100
AcDbLine
 10
420.6772287991
 20
175.1711507684
 30
0.0
 11
420.6772287991
 21
174.6711507447
 31
0.0
  0
SPLINE
  5
2FB
330
1F
100
AcDbEntity
  8
0
  6
Continuous
 62
     7
370
    15
100
AcDbSpline
210
0.0
220
0.0
230
1.0
 70
     8
 71
     3
 72
    24
 73
    20
 74
     0
 42
0.00000001
 43
0.00000001
 40
0.0
 40
0.0
 40
0.0
 40
0.0
 40
0.0625000000000003
 40
0.0625000000000003
 40
0.1250000000000007
 40
0.1250000000000007
 40
0.2500000000000006
 40
0.2500000000000006
 40
0.3750000000000004
 40
0.3750000000000004
 40
0.5000000000000003
 40
0.5000000000000003
 40
0.6250000000000002
 40
0.6250000000000002
 40
0.7500000000000001
 40
0.7500000000000001
 40
0.8750000000000001
 40
0.8750000000000001
 40
1.0
 40
1.0
 40
1.0
 40
1.0
 10
364.6361747788874
 20
180.5058746816237
 30
0.0
 10
364.5966500402622
 20
180.3337285131478
 30
0.0
 10
364.5287359004179
 20
180.1747283854937
 30
0.0
 10
364.3570888322209
 20
179.8733144347815
 30
0.0
 10
364.2525973282857
 20
179.7308547379515
 30
0.0
 10
363.9153311692746
 20
179.3350914341363
 30
0.0
 10
363.6543248461151
 20
179.1037913340403
 30
0.0
 10
363.1031705429908
 20
178.6807632722004
 30
0.0
 10
362.8148571214494
 20
178.4917384162551
 30
0.0
 10
362.2206292099862
 20
178.1447679377027
 30
0.0
 10
361.9145024547887
 20
177.9871971242774
 30
0.0
 10
361.2860783031654
 20
177.7006089420869
 30
0.0
 10
360.9625161894106
 20
177.5713764351961
 30
0.0
 10
360.3099251211037
 20
177.3464114733231
 30
0.0
 10
359.979851488908
 20
177.2501201539459
 30
0.0
 10
359.3117155802258
 20
177.0917731091085
 30
0.0
 10
358.9736557564245
 20
177.029706872587
 30
0.0
 10
358.2884874670332
 20
176.9443526470782
 30
0.0
 10
357.9402372424624
 20
176.9211507565422
 30
0.0
 10
357.5922307643282
 20
176.9211507565422
 30
0.0
  0
LINE
  5
2FC
330
1F
100
AcDbEntity
  8
0
  6
Continuous
 62
     7
370
    15
100
AcDbLine
 10
357.5922315623
 20
176.9211508515
 30
0.0
 11
318.8598965909
 21
176.9211508515
 31
0.0
  0
LINE
  5
2FD
330
1F
100
AcDbEntity
  8
0
  6
Continuous
 62
     7
370
    15
100
AcDbLine
 10
364.00328294
 20
174.9211507565
 30
0.0
 11
364.00328294
 21
175.1711507684
 31
0.0
  0
ARC
  5
2FE
330
1F
100
AcDbEntity
  8
0
  6
Continuous
 62
     7
370
    15
100
AcDbCircle
 10
318.8598985817
 20
180.8211507565
 30
0.0
 40
3.900000000000034
100
AcDbArc
 50
180.0
 51
270.0
  0
SPLINE
  5
2FF
330
1F
100
AcDbEntity
  8
0
  6
Continuous
 62
     7
370
    15
100
AcDbSpline
210
0.0
220
0.0
230
1.0
 70
     8
 71
     3
 72
    20
 73
    16
 74
     0
 42
0.00000001
 43
0.00000001
 40
0.0
 40
0.0
 40
0.0
 40
0.0
 40
0.2499999999999999
 40
0.2499999999999999
 40
0.4999999999999999
 40
0.4999999999999999
 40
0.6249999999999999
 40
0.6249999999999999
 40
0.7499999999999998
 40
0.7499999999999998
 40
0.8749999999999998
 40
0.8749999999999998
 40
0.9374999999999999
 40
0.9374999999999999
 40
1.0
 40
1.0
 40
1.0
 40
1.0
 10
357.5922307643282
 20
172.9211507565422
 30
0.0
 10
358.2889067514818
 20
172.9211507565422
 30
0.0
 10
358.9702237636429
 20
172.8310331559096
 30
0.0
 10
360.3096198774111
 20
172.5144513075624
 30
0.0
 10
360.9707709310918
 20
172.2851977348123
 30
0.0
 10
361.9094585346276
 20
171.8575475608678
 30
0.0
 10
362.2150097782023
 20
171.7005479901136
 30
0.0
 10
362.8095338970745
 20
171.3539332463166
 30
0.0
 10
363.0995962968086
 20
171.1640462257685
 30
0.0
 10
363.6521240463929
 20
170.7404322730332
 30
0.0
 10
363.9132856406269
 20
170.5094254681868
 30
0.0
 10
364.2524476264852
 20
170.1117144263027
 30
0.0
 10
364.3550794948196
 20
169.9720049231147
 30
0.0
 10
364.5275640305957
 20
169.6701321674884
 30
0.0
 10
364.5968750989973
 20
169.5075927784271
 30
0.0
 10
364.6361747788873
 20
169.3364268314606
 30
0.0
  0
LINE
  5
300
330
1F
100
AcDbEntity
  8
0
  6
Continuous
 62
     7
370
    15
100
AcDbLine
 10
357.5922315623
 20
172.9211506615
 30
0.0
 11
318.8598965909
 21
172.9211506615
 31
0.0
  0
ARC
  5
301
330
1F
100
AcDbEntity
  8
0
  6
Continuous
 62
     7
370
    15
100
AcDbCircle
 10
318.8598985817
 20
169.0211507565
 30
0.0
 40
3.900000000000034
100
AcDbArc
 50
90.0
 51
180.0
  0
LINE
  5
302
330
1F
100
AcDbEntity
  8
0
  6
Continuous
 62
     7
370
    15
100
AcDbLine
 10
364.00328294
 20
174.6711507447
 30
0.0
 11
364.00328294
 21
174.9211507565
 31
0.0
  0
LINE
  5
303
330
1F
100
AcDbEntity
  8
0
  6
Continuous
 62
     7
370
    15
100
AcDbLine
 10
298.9598950054
 20
209.4211498923
 30
0.0
 11
298.9598950054
 21
140.4211516208
 31
0.0
  0
LINE
  5
304
330
1F
100
AcDbEntity
  8
0
  6
Continuous
 62
     7
370
    15
100
AcDbLine
 10
478.959902158
 20
140.4211516208
 30
0.0
 11
478.959902158
 21
209.4211498923
 31
0.0
  0
SPLINE
  5
305
330
1F
100
AcDbEntity
  8
0
  6
Continuous
 62
     7
370
    15
100
AcDbSpline
210
0.0
220
0.0
230
1.0
 70
     8
 71
     3
 72
    24
 73
    20
 74
     0
 42
0.00000001
 43
0.00000001
 40
0.0
 40
0.0
 40
0.0
 40
0.0
 40
0.1249999999999986
 40
0.1249999999999986
 40
0.2499999999999971
 40
0.2499999999999971
 40
0.3749999999999957
 40
0.3749999999999957
 40
0.4374999999999949
 40
0.4374999999999949
 40
0.4999999999999942
 40
0.4999999999999942
 40
0.6249999999999957
 40
0.6249999999999957
 40
0.7499999999999971
 40
0.7499999999999971
 40
0.8749999999999986
 40
0.8749999999999986
 40
1.0
 40
1.0
 40
1.0
 40
1.0
 10
457.6925830868052
 20
180.1167989646027
 30
0.0
 10
458.033638068048
 20
180.1141356168448
 30
0.0
 10
458.370732199118
 20
180.1165638408174
 30
0.0
 10
459.0373079233543
 20
180.1311865681496
 30
0.0
 10
459.3703827553337
 20
180.1436177251636
 30
0.0
 10
460.0052338473144
 20
180.1775797997838
 30
0.0
 10
460.3079506331135
 20
180.1989959347175
 30
0.0
 10
460.7398485426111
 20
180.2376872962346
 30
0.0
 10
460.8807301313077
 20
180.2517686897093
 30
0.0
 10
461.1492365129237
 20
180.281576884615
 30
0.0
 10
461.2774066111988
 20
180.297338080824
 30
0.0
 10
461.6440515359628
 20
180.3471026362668
 30
0.0
 10
461.8658879681558
 20
180.3837761627123
 30
0.0
 10
462.2553822038614
 20
180.46290196086
 30
0.0
 10
462.4189434075133
 20
180.5044279996537
 30
0.0
 10
462.6855222084566
 20
180.5911360282659
 30
0.0
 10
462.7888467421125
 20
180.63678933359
 30
0.0
 10
462.9253203451007
 20
180.728399132858
 30
0.0
 10
462.9598985816935
 20
180.7745855452564
 30
0.0
 10
462.9598985816935
 20
180.8211507565427
 30
0.0
  0
SPLINE
  5
306
330
1F
100
AcDbEntity
  8
0
  6
Continuous
 62
     7
370
    15
100
AcDbSpline
210
0.0
220
0.0
230
1.0
 70
     8
 71
     3
 72
    24
 73
    20
 74
     0
 42
0.00000001
 43
0.00000001
 40
0.0
 40
0.0
 40
0.0
 40
0.0
 40
0.1249999999999999
 40
0.1249999999999999
 40
0.1875000000000005
 40
0.1875000000000005
 40
0.250000000000001
 40
0.250000000000001
 40
0.3750000000000008
 40
0.3750000000000008
 40
0.5000000000000007
 40
0.5000000000000007
 40
0.6250000000000004
 40
0.6250000000000004
 40
0.7500000000000003
 40
0.7500000000000003
 40
0.8750000000000001
 40
0.8750000000000001
 40
1.0
 40
1.0
 40
1.0
 40
1.0
 10
462.9598985816935
 20
169.0211507565419
 30
0.0
 10
462.9598985816937
 20
169.0677768539499
 30
0.0
 10
462.9253224473628
 20
169.1139028746313
 30
0.0
 10
462.8237406956306
 20
169.1823539892634
 30
0.0
 10
462.7815283091928
 20
169.2050465262728
 30
0.0
 10
462.6799730325716
 20
169.2501659455538
 30
0.0
 10
462.6204322860651
 20
169.2726159459825
 30
0.0
 10
462.4200814314768
 20
169.3379911598884
 30
0.0
 10
462.2567294987665
 20
169.3794945183042
 30
0.0
 10
461.8706555475883
 20
169.4581986071744
 30
0.0
 10
461.6464807210081
 20
169.4954240942473
 30
0.0
 10
461.1579658378728
 20
169.5619057957871
 30
0.0
 10
460.891590447557
 20
169.5916546340535
 30
0.0
 10
460.3130189926134
 20
169.6437223164624
 30
0.0
 10
460.0083484927002
 20
169.6653151267354
 30
0.0
 10
459.3766524325396
 20
169.6992536062446
 30
0.0
 10
459.0450738686391
 20
169.7117601879233
 30
0.0
 10
458.3734855835149
 20
169.7266174429091
 30
0.0
 10
458.0350773763333
 20
169.7290532355201
 30
0.0
 10
457.6940105350879
 20
169.7264008065918
 30
0.0
  0
SPLINE
  5
307
330
1F
100
AcDbEntity
  8
0
  6
Continuous
 62
     7
370
    15
100
AcDbSpline
210
0.0
220
0.0
230
1.0
 70
     8
 71
     3
 72
    10
 73
     6
 74
     0
 42
0.00000001
 43
0.00000001
 40
0.0
 40
0.0
 40
0.0
 40
0.0
 40
0.5
 40
0.5
 40
1.0
 40
1.0
 40
1.0
 40
1.0
 10
447.0469488606281
 20
180.2619699698391
 30
0.0
 10
448.0187290651015
 20
180.2386669667127
 30
0.0
 10
449.0075662224061
 20
180.2180080352589
 30
0.0
 10
451.018253408189
 20
180.1828970113182
 30
0.0
 10
452.0401025220729
 20
180.1684452082266
 30
0.0
 10
453.0791162220126
 20
180.1576601311665
 30
0.0
  0
SPLINE
  5
308
330
1F
100
AcDbEntity
  8
0
  6
Continuous
 62
     7
370
    15
100
AcDbSpline
210
0.0
220
0.0
230
1.0
 70
     8
 71
     3
 72
    10
 73
     6
 74
     0
 42
0.00000001
 43
0.00000001
 40
0.0
 40
0.0
 40
0.0
 40
0.0
 40
0.5
 40
0.5
 40
1.0
 40
1.0
 40
1.0
 40
1.0
 10
453.0835514996746
 20
169.6860766485385
 30
0.0
 10
452.0435548149752
 20
169.6753856814373
 30
0.0
 10
451.0207447506572
 20
169.6610119371851
 30
0.0
 10
449.0081758955709
 20
169.6260195946155
 30
0.0
 10
448.0184180321665
 20
169.6054015154458
 30
0.0
 10
447.0457388388763
 20
169.5821093316224
 30
0.0
  0
SPLINE
  5
309
330
1F
100
AcDbEntity
  8
0
  6
Continuous
 62
     7
370
    15
100
AcDbSpline
210
0.0
220
0.0
230
1.0
 70
     8
 71
     3
 72
    17
 73
    13
 74
     0
 42
0.00000001
 43
0.00000001
 40
0.0
 40
0.0
 40
0.0
 40
0.0
 40
0.2499999999999952
 40
0.2499999999999952
 40
0.3749999999999957
 40
0.3749999999999957
 40
0.4999999999999961
 40
0.6249999999999964
 40
0.6249999999999964
 40
0.749999999999997
 40
0.749999999999997
 40
1.0
 40
1.0
 40
1.0
 40
1.0
 10
317.2900825301563
 20
169.6683211674252
 30
0.0
 10
316.9316229308071
 20
169.6325882296206
 30
0.0
 10
316.6092040253116
 20
169.5907159227583
 30
0.0
 10
316.1778503565162
 20
169.5193289833409
 30
0.0
 10
316.0420258259761
 20
169.4938902707597
 30
0.0
 10
315.7940060343891
 20
169.4411312088394
 30
0.0
 10
315.569455983052
 20
169.3865826494754
 30
0.0
 10
315.3906798955331
 20
169.3286384544631
 30
0.0
 10
315.235307649333
 20
169.2689980446438
 30
0.0
 10
315.1694826286428
 20
169.2382864189713
 30
0.0
 10
315.0128900012787
 20
169.1462014707654
 30
0.0
 10
314.9598985816935
 20
169.0840494806349
 30
0.0
 10
314.9598985816935
 20
169.0211507565387
 30
0.0
  0
SPLINE
  5
30A
330
1F
100
AcDbEntity
  8
0
  6
Continuous
 62
     7
370
    15
100
AcDbSpline
210
0.0
220
0.0
230
1.0
 70
     8
 71
     3
 72
    17
 73
    13
 74
     0
 42
0.00000001
 43
0.00000001
 40
0.0
 40
0.0
 40
0.0
 40
0.0
 40
0.249999999999997
 40
0.249999999999997
 40
0.3749999999999975
 40
0.3749999999999975
 40
0.499999999999998
 40
0.6249999999999984
 40
0.6249999999999984
 40
0.749999999999999
 40
0.749999999999999
 40
1.0
 40
1.0
 40
1.0
 40
1.0
 10
314.9598985816935
 20
180.8211507565422
 30
0.0
 10
314.9598985816935
 20
180.7582529206109
 30
0.0
 10
315.012894869908
 20
180.6961417566743
 30
0.0
 10
315.1692050761113
 20
180.6041714894935
 30
0.0
 10
315.2348618396681
 20
180.5735053407957
 30
0.0
 10
315.3903432036328
 20
180.5137887378449
 30
0.0
 10
315.5691470883968
 20
180.4558252130155
 30
0.0
 10
315.7933264642234
 20
180.4013500384757
 30
0.0
 10
316.0406472340349
 20
180.348702316299
 30
0.0
 10
316.1766296597655
 20
180.3232036686574
 30
0.0
 10
316.6088625105526
 20
180.251632988085
 30
0.0
 10
316.9317115508558
 20
180.2097175521314
 30
0.0
 10
317.2901964633274
 20
180.1739832463442
 30
0.0
  0
SPLINE
  5
30B
330
1F
100
AcDbEntity
  8
0
  6
Continuous
 62
     7
370
    15
100
AcDbSpline
210
0.0
220
0.0
230
1.0
 70
     8
 71
     3
 72
     8
 73
     4
 74
     0
 42
0.00000001
 43
0.00000001
 40
0.0
 40
0.0
 40
0.0
 40
0.0
 40
0.0046202836276839
 40
0.0046202836276839
 40
0.0046202836276839
 40
0.0046202836276839
 10
453.0791162220126
 20
180.1576601311665
 30
0.0
 10
454.6168641539913
 20
180.1425169907953
 30
0.0
 10
456.1546936156751
 20
180.1289771512196
 30
0.0
 10
457.6925830868051
 20
180.1167989646027
 30
0.0
  0
SPLINE
  5
30C
330
1F
100
AcDbEntity
  8
0
  6
Continuous
 62
     7
370
    15
100
AcDbSpline
210
0.0
220
0.0
230
1.0
 70
     8
 71
     3
 72
     8
 73
     4
 74
     0
 42
0.00000001
 43
0.00000001
 40
0.0
 40
0.0
 40
0.0
 40
0.0
 40
0.0046171970879558
 40
0.0046171970879558
 40
0.0046171970879558
 40
0.0046171970879558
 10
457.6940105350879
 20
169.7264008065908
 30
0.0
 10
456.1571252941886
 20
169.7144611618658
 30
0.0
 10
454.6202973466413
 20
169.701117703869
 30
0.0
 10
453.0835514996746
 20
169.6860766485386
 30
0.0
  0
SPLINE
  5
30D
330
1F
100
AcDbEntity
  8
0
  6
Continuous
 62
     7
370
    15
100
AcDbSpline
210
0.0
220
0.0
230
1.0
 70
     8
 71
     3
 72
     8
 73
     4
 74
     0
 42
0.00000001
 43
0.00000001
 40
0.0
 40
0.0
 40
0.0
 40
0.0
 40
0.0001099598845185
 40
0.0001099598845185
 40
0.0001099598845185
 40
0.0001099598845185
 10
452.3779202754667
 20
198.7786965727749
 30
0.0
 10
452.3413354799702
 20
198.7809363855063
 30
0.0
 10
452.3047569644672
 20
198.7832812347833
 30
0.0
 10
452.2681856153716
 20
198.7857308159566
 30
0.0
  0
LWPOLYLINE
  5
30E
330
1F
100
AcDbEntity
  8
0
  6
Continuous
 62
     7
370
    15
100
AcDbPolyline
 90
        3
 70
   128
 43
0.0
 10
317.2901933696
 20
180.1739833034
 10
320.5700432565
 20
180.163711281
 10
326.7138031926
 20
180.1453134692
  0
SPLINE
  5
30F
330
1F
100
AcDbEntity
  8
0
  6
Continuous
 62
     7
370
    15
100
AcDbSpline
210
0.0
220
0.0
230
1.0
 70
     8
 71
     3
 72
    11
 73
     7
 74
     0
 42
0.00000001
 43
0.00000001
 40
0.0000000000000001
 40
0.0000000000000001
 40
0.0000000000000001
 40
0.0000000000000001
 40
0.0039000000158817
 40
0.0039000000158817
 40
0.0039000000158817
 40
0.0112015586186814
 40
0.0112015586186814
 40
0.0112015586186814
 40
0.0112015586186814
 10
326.7105749584575
 20
169.6964783685538
 30
0.0
 10
325.6171982224756
 20
169.693453091424
 30
0.0
 10
324.5238599092774
 20
169.6903206616963
 30
0.0
 10
323.4305477793208
 20
169.6871058588907
 30
0.0
 10
321.3836548226574
 20
169.681087122759
 30
0.0
 10
319.336852293453
 20
169.6747828462202
 30
0.0
 10
317.2900825301563
 20
169.6683211674251
 30
0.0
  0
LINE
  5
310
330
1F
100
AcDbEntity
  8
0
  6
Continuous
 62
     7
370
    15
100
AcDbLine
 10
369.0271274801
 20
205.0152676827
 30
0.0
 11
369.0271274801
 21
205.0192351169
 31
0.0
  0
LINE
  5
311
330
1F
100
AcDbEntity
  8
0
  6
Continuous
 62
     7
370
    15
100
AcDbLine
 10
370.3732816185
 20
205.8686497337
 30
0.0
 11
370.3732816185
 21
205.8647921956
 31
0.0
  0
SPLINE
  5
312
330
1F
100
AcDbEntity
  8
0
  6
Continuous
 62
     7
370
    15
100
AcDbSpline
210
0.0
220
0.0
230
1.0
 70
     8
 71
     3
 72
     8
 73
     4
 74
     0
 42
0.00000001
 43
0.00000001
 40
0.0
 40
0.0
 40
0.0
 40
0.0
 40
1.0
 40
1.0
 40
1.0
 40
1.0
 10
329.3093572642665
 20
169.7366641821177
 30
0.0
 10
328.4082517794264
 20
169.7268498064962
 30
0.0
 10
327.5420177058561
 20
169.7133093279169
 30
0.0
 10
326.7105749584575
 20
169.6964783685538
 30
0.0
  0
SPLINE
  5
313
330
1F
100
AcDbEntity
  8
0
  6
Continuous
 62
     7
370
    15
100
AcDbSpline
210
0.0
220
0.0
230
1.0
 70
     8
 71
     3
 72
     8
 73
     4
 74
     0
 42
0.00000001
 43
0.00000001
 40
0.0
 40
0.0
 40
0.0
 40
0.0
 40
1.0
 40
1.0
 40
1.0
 40
1.0
 10
326.7138033998179
 20
180.1453135185
 30
0.0
 10
327.5450052582445
 20
180.12862038473
 30
0.0
 10
328.4109772053596
 20
180.1152663841105
 30
0.0
 10
329.3118000200802
 20
180.1056596103933
 30
0.0
  0
SPLINE
  5
314
330
1F
100
AcDbEntity
  8
0
  6
Continuous
 62
     7
370
    15
100
AcDbSpline
210
0.0
220
0.0
230
1.0
 70
     8
 71
     3
 72
     8
 73
     4
 74
     0
 42
0.00000001
 43
0.00000001
 40
0.0
 40
0.0
 40
0.0
 40
0.0
 40
1.0
 40
1.0
 40
1.0
 40
1.0
 10
348.1515668518501
 20
169.5204311447058
 30
0.0
 10
341.868012379229
 20
169.6042819565949
 30
0.0
 10
335.5903675275584
 20
169.6793798015874
 30
0.0
 10
329.3093572642665
 20
169.7366641821177
 30
0.0
  0
SPLINE
  5
315
330
1F
100
AcDbEntity
  8
0
  6
Continuous
 62
     7
370
    15
100
AcDbSpline
210
0.0
220
0.0
230
1.0
 70
     8
 71
     3
 72
     8
 73
     4
 74
     0
 42
0.00000001
 43
0.00000001
 40
0.0
 40
0.0
 40
0.0
 40
0.0
 40
1.0
 40
1.0
 40
1.0
 40
1.0
 10
329.3118000200802
 20
180.1056596103934
 30
0.0
 10
335.5919950030449
 20
180.16294110213
 30
0.0
 10
341.8688265144785
 20
180.2380304207068
 30
0.0
 10
348.1515668518488
 20
180.3218703683785
 30
0.0
  0
LINE
  5
316
330
1F
100
AcDbEntity
  8
0
  6
Continuous
 62
     7
370
    15
100
AcDbLine
 10
377.4305749368
 20
140.7117279894
 30
0.0
 11
377.4305749368
 21
140.7279665298
 31
0.0
  0
LINE
  5
317
330
1F
100
AcDbEntity
  8
0
  6
Continuous
 62
     7
370
    15
100
AcDbLine
 10
387.0655896291
 20
210.9707477219
 30
0.0
 11
387.0655896291
 21
210.9714145488
 31
0.0
  0
ARC
  5
318
330
1F
100
AcDbEntity
  8
0
  6
Continuous
 62
     7
370
    15
100
AcDbCircle
 10
388.9598985817
 20
174.9211507565
 30
0.0
 40
60.0
100
AcDbArc
 50
26.6383973466
 51
153.9149965023
  0
ARC
  5
319
330
1F
100
AcDbEntity
  8
0
  6
Continuous
 62
     7
370
    15
100
AcDbCircle
 10
388.9598985817
 20
174.9211507565
 30
0.0
 40
59.99999999999999
100
AcDbArc
 50
206.1535790265
 51
333.3100512892
  0
SPLINE
  5
31A
330
1F
100
AcDbEntity
  8
0
  6
Continuous
 62
     8
370
    15
100
AcDbSpline
210
0.0
220
0.0
230
1.0
 70
     8
 71
     3
 72
     9
 73
     5
 74
     0
 42
0.00000001
 43
0.00000001
 40
0.0
 40
0.0
 40
0.0
 40
0.0
 40
0.6561153733182301
 40
1.0
 40
1.0
 40
1.0
 40
1.0
 10
400.0716963465908
 20
201.171969500844
 30
0.0
 10
400.4320358817121
 20
201.0270865132138
 30
0.0
 10
400.9812373633034
 20
200.8062671367412
 30
0.0
 10
401.5758989101861
 20
200.5476545781697
 30
0.0
 10
401.7803938742379
 20
200.4587216950102
 30
0.0
  0
SPLINE
  5
31B
330
1F
100
AcDbEntity
  8
0
  6
Continuous
 62
     8
370
    15
100
AcDbSpline
210
0.0
220
0.0
230
1.0
 70
     8
 71
     3
 72
     9
 73
     5
 74
     0
 42
0.00000001
 43
0.00000001
 40
0.0
 40
0.0
 40
0.0
 40
0.0
 40
0.341044739107746
 40
1.0
 40
1.0
 40
1.0
 40
1.0
 10
401.7835799287656
 20
149.3841367489738
 30
0.0
 10
401.5771820176862
 20
149.2944381296265
 30
0.0
 10
400.9719889523442
 20
149.0314268320998
 30
0.0
 10
400.4132309615345
 20
148.8071979364713
 30
0.0
 10
400.0450344439247
 20
148.6594411260528
 30
0.0
  0
SPLINE
  5
31C
330
1F
100
AcDbEntity
  8
0
  6
Continuous
 62
     8
370
    15
100
AcDbSpline
210
0.0
220
0.0
230
1.0
 70
     8
 71
     3
 72
    10
 73
     6
 74
     0
 42
0.00000001
 43
0.00000001
 40
0.0
 40
0.0
 40
0.0
 40
0.0
 40
0.015446782722434
 40
0.9197972785911903
 40
1.0
 40
1.0
 40
1.0
 40
1.0
 10
376.9232937749127
 20
200.8627145267172
 30
0.0
 10
376.9301416434072
 20
200.8650907563532
 30
0.0
 10
377.3379062192763
 20
201.0065862115434
 30
0.0
 10
377.7936898535874
 20
201.1088234983334
 30
0.0
 10
378.1355611317559
 20
201.2929387873052
 30
0.0
 10
378.1634103189805
 20
201.3079370088024
 30
0.0
  0
SPLINE
  5
31D
330
1F
100
AcDbEntity
  8
0
  6
Continuous
 62
     8
370
    15
100
AcDbSpline
210
0.0
220
0.0
230
1.0
 70
     8
 71
     3
 72
     9
 73
     5
 74
     0
 42
0.00000001
 43
0.00000001
 40
0.0
 40
0.0
 40
0.0
 40
0.0
 40
0.0654197065061928
 40
1.0
 40
1.0
 40
1.0
 40
1.0
 10
378.1468011121848
 20
148.5431263870639
 30
0.0
 10
378.1244029359125
 20
148.5550999466803
 30
0.0
 10
377.782026342244
 20
148.7381267478667
 30
0.0
 10
377.338150249963
 20
148.8629346589608
 30
0.0
 10
376.9233124013642
 20
148.9795776731414
 30
0.0
  0
LINE
  5
31E
330
1F
100
AcDbEntity
  8
0
  6
Continuous
 62
     8
370
    15
100
AcDbLine
 10
354.8695509936
 20
180.2219319805
 30
0.0
 11
357.7876081373
 21
180.2219319805
 31
0.0
  0
LINE
  5
31F
330
1F
100
AcDbEntity
  8
0
  6
Continuous
 62
     8
370
    15
100
AcDbLine
 10
357.7876081373
 20
169.6203695326
 30
0.0
 11
354.8695509936
 21
169.6203695326
 31
0.0
  0
LINE
  5
320
330
1F
100
AcDbEntity
  8
0
  6
Continuous
 62
     8
370
    15
100
AcDbLine
 10
388.9665155754
 20
211.0204840726
 30
0.0
 11
388.9669099864
 21
211.0182712502
 31
0.0
  0
SPLINE
  5
321
330
1F
100
AcDbEntity
  8
0
  6
Continuous
 62
     8
370
    15
100
AcDbSpline
210
0.0
220
0.0
230
1.0
 70
     8
 71
     3
 72
    12
 73
     8
 74
     0
 42
0.00000001
 43
0.00000001
 40
0.0
 40
0.0
 40
0.0
 40
0.0
 40
0.2106543631281636
 40
0.4242173256526443
 40
0.6335044463817604
 40
0.8365867428635704
 40
1.0
 40
1.0
 40
1.0
 40
1.0
 10
348.1515673603514
 20
180.321870343302
 30
0.0
 10
348.6842742866189
 20
180.2168456009474
 30
0.0
 10
349.7570434629229
 20
180.0053459924541
 30
0.0
 10
351.4708452176816
 20
179.7915457472939
 30
0.0
 10
352.9844721790752
 20
179.6994647599556
 30
0.0
 10
354.1418361407126
 20
179.7244672256629
 30
0.0
 10
354.5413059545531
 20
179.8282675197629
 30
0.0
 10
354.7194217946032
 20
179.8745500571174
 30
0.0
  0
SPLINE
  5
322
330
1F
100
AcDbEntity
  8
0
  6
Continuous
 62
     8
370
    15
100
AcDbSpline
210
0.0
220
0.0
230
1.0
 70
     8
 71
     3
 72
    13
 73
     9
 74
     0
 42
0.00000001
 43
0.00000001
 40
0.0
 40
0.0
 40
0.0
 40
0.0
 40
0.1418917186847475
 40
0.3463666706045235
 40
0.5454841800057256
 40
0.7431845845280702
 40
0.9437328573646894
 40
1.0
 40
1.0
 40
1.0
 40
1.0
 10
354.7345874514082
 20
169.9510873011393
 30
0.0
 10
354.5988523391514
 20
169.9963153825713
 30
0.0
 10
354.2675143347046
 20
170.1067199934158
 30
0.0
 10
353.1937712709028
 20
170.1448036284557
 30
0.0
 10
351.7592106102715
 20
170.0760624327781
 30
0.0
 10
350.153301807286
 20
169.8906570309478
 30
0.0
 10
348.9267853224984
 20
169.6829421646935
 30
0.0
 10
348.2908893970477
 20
169.5496376173908
 30
0.0
 10
348.1515673603514
 20
169.5204311697824
 30
0.0
  0
LINE
  5
323
330
1F
100
AcDbEntity
  8
1
100
AcDbLine
 10
335.0971275692
 20
201.3560121871
 30
0.0
 11
334.4301830418
 21
199.9513349976
 31
0.0
  0
LINE
  5
324
330
1F
100
AcDbEntity
  8
SLD-0
100
AcDbLine
 10
370.591869641
 20
205.9800242916
 30
0.0
 11
373.155333254
 21
206.4791314581
 31
0.0
  0
LINE
  5
325
330
1F
100
AcDbEntity
  8
1
100
AcDbLine
 10
345.7812883971
 20
148.5069723267
 30
0.0
 11
368.2635569668
 21
144.2956554311
 31
0.0
  0
LINE
  5
326
330
1F
100
AcDbEntity
  8
1
100
AcDbLine
 10
407.6168717156
 20
142.7940917609
 30
0.0
 11
433.2006473839
 21
146.6513543768
 31
0.0
  0
LINE
  5
327
330
1F
100
AcDbEntity
  8
1
100
AcDbLine
 10
414.0784101771
 20
206.0609947633
 30
0.0
 11
408.7835383822
 21
206.8485234176
 31
0.0
  0
LINE
  5
328
330
1F
100
AcDbEntity
  8
1
100
AcDbLine
 10
407.6168717156
 20
207.0217155989
 30
0.0
 11
402.0527691515
 21
207.8440963988
 31
0.0
  0
LINE
  5
329
330
1F
100
AcDbEntity
  8
1
100
AcDbLine
 10
400.796358895
 20
207.9608701079
 30
0.0
 11
398.1937947925
 21
208.3510946261
 31
0.0
  0
LINE
  5
32A
330
1F
100
AcDbEntity
  8
1
100
AcDbLine
 10
394.7835383822
 20
208.8975448728
 30
0.0
 11
393.4373845361
 21
209.0883133199
 31
0.0
  0
LINE
  5
32B
330
1F
100
AcDbEntity
  8
1
100
AcDbLine
 10
380.3348204335
 20
208.3256119397
 30
0.0
 11
383.3861024848
 21
208.9679244226
 31
0.0
  0
LINE
  5
32C
330
1F
100
AcDbEntity
  8
1
100
AcDbLine
 10
378.462296292
 20
207.7852701905
 30
0.0
 11
373.7752344433
 21
206.5912963785
 31
0.0
  0
LINE
  5
32D
330
1F
100
AcDbEntity
  8
1
100
AcDbLine
 10
195.093040893
 20
365.9775986862
 30
0.0
 11
195.093040893
 21
377.4368061152
 31
0.0
  0
LINE
  5
32E
330
1F
100
AcDbEntity
  8
1
100
AcDbLine
 10
410.2329690025
 20
206.6329434772
 30
0.0
 11
430.8462961529
 21
203.5639155992
 31
0.0
  0
LINE
  5
32F
330
1F
100
AcDbEntity
  8
1
100
AcDbLine
 10
364.6707212723
 20
204.8814271766
 30
0.0
 11
344.599546534
 21
201.3560367678
 31
0.0
  0
ARC
  5
330
330
1F
100
AcDbEntity
  8
1
100
AcDbCircle
 10
451.0933881456
 20
232.5428445223
 30
0.0
 40
31.71491599936852
100
AcDbArc
 50
266.28310007
 51
280.4703615954
  0
ARC
  5
331
330
1F
100
AcDbEntity
  8
1
100
AcDbCircle
 10
451.0829099745
 20
117.9964424639
 30
0.0
 40
31.01651312614645
100
AcDbArc
 50
79.6368169614
 51
93.2746447568
  0
ARC
  5
332
330
1F
100
AcDbEntity
  8
1
100
AcDbCircle
 10
330.0633350349
 20
253.2206254794
 30
0.0
 40
53.44798097169344
100
AcDbArc
 50
261.3241968957
 51
276.4320194879
  0
ARC
  5
333
330
1F
100
AcDbEntity
  8
1
100
AcDbCircle
 10
330.0713321046
 20
97.8652711954
 30
0.0
 40
52.22034138870905
100
AcDbArc
 50
83.9045838101
 51
98.2670010463
  0
ARC
  5
334
330
1F
100
AcDbEntity
  8
1
100
AcDbCircle
 10
338.1312736383
 20
150.0823586843
 30
0.0
 40
3.418746017157448
100
AcDbArc
 50
183.4200355528
 51
207.4389135909
  0
ARC
  5
335
330
1F
100
AcDbEntity
  8
1
100
AcDbCircle
 10
390.9276359533
 20
202.8682617166
 30
0.0
 40
61.88074768271085
100
AcDbArc
 50
256.121246407
 51
263.3808134337
  0
ARC
  5
336
330
1F
100
AcDbEntity
  8
1
100
AcDbCircle
 10
390.9276379285
 20
202.8682697107
 30
0.0
 40
61.88075591721913
100
AcDbArc
 50
272.4410247415
 51
280.6646323516
  0
ARC
  5
337
330
1F
100
AcDbEntity
  8
1
100
AcDbCircle
 10
173.6521470137
 20
407.9598433951
 30
0.0
 40
24.1426743204653
100
AcDbArc
 50
336.7802444772
 51
348.9204137287
  0
ARC
  5
338
330
1F
100
AcDbEntity
  8
1
100
AcDbCircle
 10
154.7455630403
 20
408.395196048
 30
0.0
 40
25.61130056782804
100
AcDbArc
 50
191.4288596142
 51
202.8704821799
  0
ARC
  5
339
330
1F
100
AcDbEntity
  8
1
100
AcDbCircle
 10
357.1400934283
 20
206.7409559099
 30
0.0
 40
7.014411280855577
100
AcDbArc
 50
343.4214772671
 51
216.5026598034
  0
ARC
  5
33A
330
1F
100
AcDbEntity
  8
1
100
AcDbCircle
 10
420.7797037351
 20
206.7409559099
 30
0.0
 40
6.961215823546162
100
AcDbArc
 50
337.7360180158
 51
185.3273603096
  0
ARC
  5
33B
330
1F
100
AcDbEntity
  8
1
100
AcDbCircle
 10
420.7797037351
 20
143.1013456031
 30
0.0
 40
6.998739053423221
100
AcDbArc
 50
174.865546597
 51
22.2822545513
  0
ARC
  5
33C
330
1F
100
AcDbEntity
  8
1
100
AcDbCircle
 10
357.1400934283
 20
143.1013456031
 30
0.0
 40
6.986949884677803
100
AcDbArc
 50
141.9304373217
 51
16.8504823247
  0
ENDSEC
  0
SECTION
  2
OBJECTS
  0
DICTIONARY
  5
C
330
0
100
AcDbDictionary
281
     1
  3
ACAD_GROUP
350
D
  3
ACAD_LAYOUT
350
1A
  3
ACAD_MLINESTYLE
350
17
  3
ACAD_PLOTSETTINGS
350
19
  3
ACAD_PLOTSTYLENAME
350
E
  0
DICTIONARY
  5
D
102
{ACAD_REACTORS
330
C
102
}
330
C
100
AcDbDictionary
281
     1
  0
DICTIONARY
  5
1A
102
{ACAD_REACTORS
330
C
102
}
330
C
100
AcDbDictionary
281
     1
  3
Layout1
350
1E
  3
Layout2
350
26
  3
Model
350
22
  0
DICTIONARY
  5
17
102
{ACAD_REACTORS
330
C
102
}
330
C
100
AcDbDictionary
281
     1
  3
Standard
350
18
  0
DICTIONARY
  5
19
102
{ACAD_REACTORS
330
C
102
}
330
C
100
AcDbDictionary
281
     1
  0
ACDBDICTIONARYWDFLT
  5
E
102
{ACAD_REACTORS
330
C
102
}
330
C
100
AcDbDictionary
281
     1
  3
Normal
350
F
100
AcDbDictionaryWithDefault
340
F
  0
LAYOUT
  5
1E
102
{ACAD_REACTORS
330
1A
102
}
330
1A
100
AcDbPlotSettings
  1

  2
none_device
  4

  6

 40
0.0
 41
0.0
 42
0.0
 43
0.0
 44
0.0
 45
0.0
 46
0.0
 47
0.0
 48
0.0
 49
0.0
140
0.0
141
0.0
142
1.0
143
1.0
 70
   688
 72
     0
 73
     0
 74
     5
  7

 75
    16
147
1.0
148
0.0
149
0.0
100
AcDbLayout
  1
Layout1
 70
     1
 71
     1
 10
0.0
 20
0.0
 11
420.0
 21
297.0
 12
0.0
 22
0.0
 32
0.0
 14
1.0000000000E+20
 24
1.0000000000E+20
 34
1.0000000000E+20
 15
-1.0000000000E+20
 25
-1.0000000000E+20
 35
-1.0000000000E+20
146
0.0
 13
0.0
 23
0.0
 33
0.0
 16
1.0
 26
0.0
 36
0.0
 17
0.0
 27
1.0
 37
0.0
 76
     0
330
1B
  0
LAYOUT
  5
26
102
{ACAD_REACTORS
330
1A
102
}
330
1A
100
AcDbPlotSettings
  1

  2
none_device
  4

  6

 40
0.0
 41
0.0
 42
0.0
 43
0.0
 44
0.0
 45
0.0
 46
0.0
 47
0.0
 48
0.0
 49
0.0
140
0.0
141
0.0
142
1.0
143
1.0
 70
   688
 72
     0
 73
     0
 74
     5
  7

 75
    16
147
1.0
148
0.0
149
0.0
100
AcDbLayout
  1
Layout2
 70
     1
 71
     2
 10
0.0
 20
0.0
 11
0.0
 21
0.0
 12
0.0
 22
0.0
 32
0.0
 14
0.0
 24
0.0
 34
0.0
 15
0.0
 25
0.0
 35
0.0
146
0.0
 13
0.0
 23
0.0
 33
0.0
 16
1.0
 26
0.0
 36
0.0
 17
0.0
 27
1.0
 37
0.0
 76
     0
330
23
  0
LAYOUT
  5
22
102
{ACAD_REACTORS
330
1A
102
}
330
1A
100
AcDbPlotSettings
  1

  2
none_device
  4

  6

 40
0.0
 41
0.0
 42
0.0
 43
0.0
 44
0.0
 45
0.0
 46
0.0
 47
0.0
 48
0.0
 49
0.0
140
0.0
141
0.0
142
1.0
143
1.0
 70
  1712
 72
     0
 73
     0
 74
     0
  7

 75
     0
147
1.0
148
0.0
149
0.0
100
AcDbLayout
  1
Model
 70
     1
 71
     0
 10
0.0
 20
0.0
 11
800.0
 21
800.0
 12
0.0
 22
0.0
 32
0.0
 14
0.0
 24
0.0
 34
0.0
 15
800.0
 25
800.0
 35
0.0
146
0.0
 13
0.0
 23
0.0
 33
0.0
 16
1.0
 26
0.0
 36
0.0
 17
0.0
 27
1.0
 37
0.0
 76
     0
330
1F
331
29
  0
MLINESTYLE
  5
18
102
{ACAD_REACTORS
330
17
102
}
330
17
100
AcDbMlineStyle
  2
Standard
 70
     0
  3

 62
   256
 51
90.0
 52
90.0
 71
     2
 49
0.5
 62
   256
  6
BYLAYER
 49
-0.5
 62
   256
  6
BYLAYER
  0
ACDBPLACEHOLDER
  5
F
102
{ACAD_REACTORS
330
E
102
}
330
E
  0
ENDSEC
  0
EOF
