  0
SECTION
  2
HEADER
  9
$ACADVER
  1
AC1015
  9
$ACADMAINTVER
 70
     6
  9
$DWGCODEPAGE
  3
ANSI_1252
  9
$INSBASE
 10
0.0
 20
0.0
 30
0.0
  9
$EXTMIN
 10
0.0
 20
0.0
 30
0.0
  9
$EXTMAX
 10
600.0
 20
600.0
 30
0.0
  9
$LIMMIN
 10
0.0
 20
0.0
  9
$LIMMAX
 10
600.0
 20
600.0
  9
$ORTHOMODE
 70
     0
  9
$REGENMODE
 70
     1
  9
$FILLMODE
 70
     1
  9
$QTEXTMODE
 70
     0
  9
$MIRRTEXT
 70
     1
  9
$LTSCALE
 40
1.0
  9
$ATTMODE
 70
     1
  9
$TEXTSIZE
 40
3.5
  9
$TRACEWID
 40
1.0
  9
$TEXTSTYLE
  7
Standard
  9
$CLAYER
  8
0
  9
$CELTYPE
  6
ByLayer
  9
$CECOLOR
 62
   256
  9
$CELTSCALE
 40
1.0
  9
$DISPSILH
 70
     0
  9
$DIMSCALE
 40
1.0
  9
$DIMASZ
 40
4.0
  9
$DIMEXO
 40
0.0
  9
$DIMDLI
 40
3.75
  9
$DIMRND
 40
0.0
  9
$DIMDLE
 40
0.0
  9
$DIMEXE
 40
1.0
  9
$DIMTP
 40
0.0
  9
$DIMTM
 40
0.0
  9
$DIMTXT
 40
3.5
  9
$DIMCEN
 40
2.5
  9
$DIMTSZ
 40
0.0
  9
$DIMTOL
 70
     0
  9
$DIMLIM
 70
     0
  9
$DIMTIH
 70
     1
  9
$DIMTOH
 70
     1
  9
$DIMSE1
 70
     0
  9
$DIMSE2
 70
     0
  9
$DIMTAD
 70
     1
  9
$DIMZIN
 70
     0
  9
$DIMBLK
  1

  9
$DIMASO
 70
     1
  9
$DIMSHO
 70
     1
  9
$DIMPOST
  1

  9
$DIMAPOST
  1

  9
$DIMALT
 70
     0
  9
$DIMALTD
 70
     3
  9
$DIMALTF
 40
0.0393700787
  9
$DIMLFAC
 40
1.0
  9
$DIMTOFL
 70
     1
  9
$DIMTVP
 40
0.0
  9
$DIMTIX
 70
     0
  9
$DIMSOXD
 70
     0
  9
$DIMSAH
 70
     0
  9
$DIMBLK1
  1

  9
$DIMBLK2
  1

  9
$DIMSTYLE
  2
ISO-25
  9
$DIMCLRD
 70
     0
  9
$DIMCLRE
 70
     0
  9
$DIMCLRT
 70
     0
  9
$DIMTFAC
 40
1.0
  9
$DIMGAP
 40
1.524
  9
$DIMJUST
 70
     0
  9
$DIMSD1
 70
     0
  9
$DIMSD2
 70
     0
  9
$DIMTOLJ
 70
     0
  9
$DIMTZIN
 70
     0
  9
$DIMALTZ
 70
     0
  9
$DIMALTTZ
 70
     0
  9
$DIMUPT
 70
     0
  9
$DIMDEC
 70
     1
  9
$DIMTDEC
 70
     1
  9
$DIMALTU
 70
     2
  9
$DIMALTTD
 70
     3
  9
$DIMTXSTY
  7
Standard
  9
$DIMAUNIT
 70
     0
  9
$DIMADEC
 70
     1
  9
$DIMALTRND
 40
0.0
  9
$DIMAZIN
 70
     0
  9
$DIMDSEP
 70
    44
  9
$DIMATFIT
 70
     3
  9
$DIMFRAC
 70
     0
  9
$DIMLDRBLK
  1

  9
$DIMLUNIT
 70
     2
  9
$DIMLWD
 70
    -2
  9
$DIMLWE
 70
    -2
  9
$DIMTMOVE
 70
     0
  9
$LUNITS
 70
     2
  9
$LUPREC
 70
     1
  9
$SKETCHINC
 40
1.0
  9
$FILLETRAD
 40
10.0
  9
$AUNITS
 70
     0
  9
$AUPREC
 70
     1
  9
$MENU
  1
.
  9
$ELEVATION
 40
0.0
  9
$PELEVATION
 40
0.0
  9
$THICKNESS
 40
0.0
  9
$LIMCHECK
 70
     0
  9
$CHAMFERA
 40
10.0
  9
$CHAMFERB
 40
10.0
  9
$CHAMFERC
 40
20.0
  9
$CHAMFERD
 40
0.0
  9
$SKPOLY
 70
     0
  9
$TDCREATE
 40
2455929.35492309
  9
$TDUCREATE
 40
2455929.313256423
  9
$TDUPDATE
 40
2455929.354923102
  9
$TDUUPDATE
 40
2455929.313256435
  9
$TDINDWG
 40
0.0000000116
  9
$TDUSRTIMER
 40
0.0000000116
  9
$USRTIMER
 70
     1
  9
$ANGBASE
 50
0.0
  9
$ANGDIR
 70
     0
  9
$PDMODE
 70
     0
  9
$PDSIZE
 40
-1.0
  9
$PLINEWID
 40
0.0
  9
$SPLFRAME
 70
     0
  9
$SPLINETYPE
 70
     6
  9
$SPLINESEGS
 70
     8
  9
$HANDSEED
  5
272
  9
$SURFTAB1
 70
     6
  9
$SURFTAB2
 70
     6
  9
$SURFTYPE
 70
     6
  9
$SURFU
 70
     6
  9
$SURFV
 70
     6
  9
$UCSBASE
  2

  9
$UCSNAME
  2

  9
$UCSORG
 10
0.0
 20
0.0
 30
0.0
  9
$UCSXDIR
 10
1.0
 20
0.0
 30
0.0
  9
$UCSYDIR
 10
0.0
 20
1.0
 30
0.0
  9
$UCSORTHOREF
  2

  9
$UCSORTHOVIEW
 70
     0
  9
$UCSORGTOP
 10
0.0
 20
0.0
 30
0.0
  9
$UCSORGBOTTOM
 10
0.0
 20
0.0
 30
0.0
  9
$UCSORGLEFT
 10
0.0
 20
0.0
 30
0.0
  9
$UCSORGRIGHT
 10
0.0
 20
0.0
 30
0.0
  9
$UCSORGFRONT
 10
0.0
 20
0.0
 30
0.0
  9
$UCSORGBACK
 10
0.0
 20
0.0
 30
0.0
  9
$PUCSBASE
  2

  9
$PUCSNAME
  2

  9
$PUCSORG
 10
0.0
 20
0.0
 30
0.0
  9
$PUCSXDIR
 10
1.0
 20
0.0
 30
0.0
  9
$PUCSYDIR
 10
0.0
 20
1.0
 30
0.0
  9
$PUCSORTHOREF
  2

  9
$PUCSORTHOVIEW
 70
     0
  9
$PUCSORGTOP
 10
0.0
 20
0.0
 30
0.0
  9
$PUCSORGBOTTOM
 10
0.0
 20
0.0
 30
0.0
  9
$PUCSORGLEFT
 10
0.0
 20
0.0
 30
0.0
  9
$PUCSORGRIGHT
 10
0.0
 20
0.0
 30
0.0
  9
$PUCSORGFRONT
 10
0.0
 20
0.0
 30
0.0
  9
$PUCSORGBACK
 10
0.0
 20
0.0
 30
0.0
  9
$USERI1
 70
     0
  9
$USERI2
 70
     0
  9
$USERI3
 70
     0
  9
$USERI4
 70
     0
  9
$USERI5
 70
     0
  9
$USERR1
 40
0.0
  9
$USERR2
 40
0.0
  9
$USERR3
 40
0.0
  9
$USERR4
 40
0.0
  9
$USERR5
 40
0.0
  9
$WORLDVIEW
 70
     1
  9
$SHADEDGE
 70
     3
  9
$SHADEDIF
 70
    70
  9
$TILEMODE
 70
     1
  9
$MAXACTVP
 70
    64
  9
$PINSBASE
 10
0.0
 20
0.0
 30
0.0
  9
$PLIMCHECK
 70
     0
  9
$PEXTMIN
 10
1.0000000000E+20
 20
1.0000000000E+20
 30
1.0000000000E+20
  9
$PEXTMAX
 10
-1.0000000000E+20
 20
-1.0000000000E+20
 30
-1.0000000000E+20
  9
$PLIMMIN
 10
0.0
 20
0.0
  9
$PLIMMAX
 10
420.0
 20
297.0
  9
$UNITMODE
 70
     0
  9
$VISRETAIN
 70
     1
  9
$PLINEGEN
 70
     0
  9
$PSLTSCALE
 70
     1
  9
$TREEDEPTH
 70
  3020
  9
$CMLSTYLE
  2
Standard
  9
$CMLJUST
 70
     0
  9
$CMLSCALE
 40
20.0
  9
$PROXYGRAPHICS
 70
     1
  9
$MEASUREMENT
 70
     1
  9
$CELWEIGHT
370
    -1
  9
$ENDCAPS
280
     0
  9
$JOINSTYLE
280
     0
  9
$LWDISPLAY
290
     1
  9
$INSUNITS
 70
     4
  9
$HYPERLINKBASE
  1

  9
$STYLESHEET
  1

  9
$XEDIT
290
     1
  9
$CEPSNTYPE
380
     0
  9
$PSTYLEMODE
290
     1
  9
$FINGERPRINTGUID
  2
{B3C5963D-A400-4539-B8A9-44C6C173F7AC}
  9
$VERSIONGUID
  2
{FAEB1C32-E019-11D5-929B-00C0DF256EC4}
  9
$EXTNAMES
290
     1
  9
$PSVPSCALE
 40
0.0
  9
$OLESTARTUP
290
     0
  0
ENDSEC
  0
SECTION
  2
CLASSES
  0
CLASS
  1
ACDBDICTIONARYWDFLT
  2
AcDbDictionaryWithDefault
  3
ObjectDBX Classes
 90
        0
280
     0
281
     0
  0
CLASS
  1
VISUALSTYLE
  2
AcDbVisualStyle
  3
ObjectDBX Classes
 90
     4095
280
     0
281
     0
  0
CLASS
  1
MATERIAL
  2
AcDbMaterial
  3
ObjectDBX Classes
 90
     1153
280
     0
281
     0
  0
CLASS
  1
ACDBPLACEHOLDER
  2
AcDbPlaceHolder
  3
ObjectDBX Classes
 90
        0
280
     0
281
     0
  0
CLASS
  1
LAYOUT
  2
AcDbLayout
  3
ObjectDBX Classes
 90
        0
280
     0
281
     0
  0
ENDSEC
  0
SECTION
  2
TABLES
  0
TABLE
  2
VPORT
  5
8
330
0
100
AcDbSymbolTable
 70
     1
  0
VPORT
  5
29
330
8
100
AcDbSymbolTableRecord
100
AcDbViewportTableRecord
  2
*Active
 70
     0
 10
0.0
 20
0.0
 11
1.0
 21
1.0
 12
300.0
 22
300.0
 13
0.0
 23
0.0
 14
10.0
 24
10.0
 15
10.0
 25
10.0
 16
0.0
 26
0.0
 36
1.0
 17
0.0
 27
0.0
 37
0.0
 40
600.0
 41
1.0
 42
50.0
 43
0.0
 44
0.0
 50
0.0
 51
0.0
 71
     0
 72
  2000
 73
     1
 74
     3
 75
     0
 76
     0
 77
     0
 78
     0
281
     0
 65
     1
110
0.0
120
0.0
130
0.0
111
1.0
121
0.0
131
0.0
112
0.0
122
1.0
132
0.0
 79
     0
146
0.0
  0
ENDTAB
  0
TABLE
  2
LTYPE
  5
5
330
0
100
AcDbSymbolTable
 70
     6
  0
LTYPE
  5
14
330
5
100
AcDbSymbolTableRecord
100
AcDbLinetypeTableRecord
  2
ByBlock
 70
     0
  3

 72
    65
 73
     0
 40
0.0
  0
LTYPE
  5
15
330
5
100
AcDbSymbolTableRecord
100
AcDbLinetypeTableRecord
  2
ByLayer
 70
     0
  3

 72
    65
 73
     0
 40
0.0
  0
LTYPE
  5
16
330
5
100
AcDbSymbolTableRecord
100
AcDbLinetypeTableRecord
  2
Continuous
 70
     0
  3
Solid line
 72
    65
 73
     0
 40
0.0
  0
LTYPE
  5
3F
330
5
100
AcDbSymbolTableRecord
100
AcDbLinetypeTableRecord
  2
HIDDEN
 70
     0
  3
Hidden __ __ __ __ __ __ __ __ __ __ __ __ __ __
 72
    65
 73
     2
 40
1.905
 49
1.27
 74
     0
 49
-0.635
 74
     0
  0
LTYPE
  5
40
330
5
100
AcDbSymbolTableRecord
100
AcDbLinetypeTableRecord
  2
PHANTOM
 70
     0
  3
Phantom ______  __  __  ______  __  __  ______
 72
    65
 73
     6
 40
12.7
 49
6.35
 74
     0
 49
-1.27
 74
     0
 49
1.27
 74
     0
 49
-1.27
 74
     0
 49
1.27
 74
     0
 49
-1.27
 74
     0
  0
LTYPE
  5
41
330
5
100
AcDbSymbolTableRecord
100
AcDbLinetypeTableRecord
  2
CENTER
 70
     0
  3
Center ____ _ ____ _ ____ _ ____ _ ____ _ ____
 72
    65
 73
     4
 40
10.16
 49
6.35
 74
     0
 49
-1.27
 74
     0
 49
1.27
 74
     0
 49
-1.27
 74
     0
  0
LTYPE
  5
42
330
5
100
AcDbSymbolTableRecord
100
AcDbLinetypeTableRecord
  2
CENTERX2
 70
     0
  3
Center (2x) ________  __  ________  __  _____
 72
    65
 73
     4
 40
20.32
 49
12.7
 74
     0
 49
-2.54
 74
     0
 49
2.54
 74
     0
 49
-2.54
 74
     0
  0
LTYPE
  5
43
330
5
100
AcDbSymbolTableRecord
100
AcDbLinetypeTableRecord
  2
DOT2
 70
     0
  3
Dot (.5x) ........................................
 72
    65
 73
     2
 40
0.635
 49
0.0
 74
     0
 49
-0.635
 74
     0
  0
ENDTAB
  0
TABLE
  2
LAYER
  5
2
330
0
100
AcDbSymbolTable
 70
     6
  0
LAYER
  5
10
330
2
100
AcDbSymbolTableRecord
100
AcDbLayerTableRecord
  2
0
 70
     0
 62
     7
  6
Continuous
370
    -3
390
F
  0
LAYER
  5
44
330
2
100
AcDbSymbolTableRecord
100
AcDbLayerTableRecord
  2
1
 70
     0
 62
   179
  6
Continuous
370
    -3
390
F
  0
LAYER
  5
45
330
2
100
AcDbSymbolTableRecord
100
AcDbLayerTableRecord
  2
FORMAT
 70
     0
 62
     7
  6
Continuous
370
    -3
390
F
  0
LAYER
  5
46
330
2
100
AcDbSymbolTableRecord
100
AcDbLayerTableRecord
  2
SLD-0
 70
     0
 62
   179
  6
Continuous
370
    -3
390
F
  0
LAYER
  5
47
330
2
100
AcDbSymbolTableRecord
100
AcDbLayerTableRecord
  2
GESTRICHELT
 70
     0
 62
     7
  6
HIDDEN
370
    -3
390
F
  0
LAYER
  5
48
330
2
100
AcDbSymbolTableRecord
100
AcDbLayerTableRecord
  2
GESTRICHELT_LÄNGER
 70
     0
 62
     7
  6
Continuous
370
    -3
390
F
  0
ENDTAB
  0
TABLE
  2
STYLE
  5
3
330
0
100
AcDbSymbolTable
 70
     1
  0
STYLE
  5
11
330
3
100
AcDbSymbolTableRecord
100
AcDbTextStyleTableRecord
  2
Standard
 70
     0
 40
0.0
 41
1.0
 50
0.0
 71
     0
 42
2.5
  3
txt
  4

  0
ENDTAB
  0
TABLE
  2
VIEW
  5
6
330
0
100
AcDbSymbolTable
 70
     0
  0
ENDTAB
  0
TABLE
  2
UCS
  5
7
330
0
100
AcDbSymbolTable
 70
     0
  0
ENDTAB
  0
TABLE
  2
APPID
  5
9
330
0
100
AcDbSymbolTable
 70
     1
  0
APPID
  5
12
330
9
100
AcDbSymbolTableRecord
100
AcDbRegAppTableRecord
  2
ACAD
 70
     0
  0
ENDTAB
  0
TABLE
  2
DIMSTYLE
  5
A
330
0
100
AcDbSymbolTable
 70
     1
100
AcDbDimStyleTable
  0
DIMSTYLE
105
27
330
A
100
AcDbSymbolTableRecord
100
AcDbDimStyleTableRecord
  2
ISO-25
 70
     0
 41
2.5
 42
0.625
 43
3.75
 44
1.25
 73
     0
 74
     0
 77
     1
 78
     8
140
2.5
141
2.5
143
0.0393700787
147
0.625
171
     3
172
     1
178
     0
271
     2
272
     2
274
     3
278
    44
283
     0
284
     8
340
11
  0
ENDTAB
  0
TABLE
  2
BLOCK_RECORD
  5
1
330
0
100
AcDbSymbolTable
 70
     1
  0
BLOCK_RECORD
  5
1F
330
1
100
AcDbSymbolTableRecord
100
AcDbBlockTableRecord
  2
*Model_Space
340
22
  0
BLOCK_RECORD
  5
1B
330
1
100
AcDbSymbolTableRecord
100
AcDbBlockTableRecord
  2
*Paper_Space
340
1E
  0
BLOCK_RECORD
  5
23
330
1
100
AcDbSymbolTableRecord
100
AcDbBlockTableRecord
  2
*Paper_Space0
340
26
  0
ENDTAB
  0
ENDSEC
  0
SECTION
  2
BLOCKS
  0
BLOCK
  5
20
330
1F
100
AcDbEntity
  8
0
100
AcDbBlockBegin
  2
*Model_Space
 70
     0
 10
0.0
 20
0.0
 30
0.0
  3
*Model_Space
  1

  0
ENDBLK
  5
21
330
1F
100
AcDbEntity
  8
0
100
AcDbBlockEnd
  0
BLOCK
  5
1C
330
1B
100
AcDbEntity
 67
     1
  8
0
100
AcDbBlockBegin
  2
*Paper_Space
 70
     0
 10
0.0
 20
0.0
 30
0.0
  3
*Paper_Space
  1

  0
ENDBLK
  5
1D
330
1B
100
AcDbEntity
 67
     1
  8
0
100
AcDbBlockEnd
  0
BLOCK
  5
24
330
23
100
AcDbEntity
  8
0
100
AcDbBlockBegin
  2
*Paper_Space0
 70
     0
 10
0.0
 20
0.0
 30
0.0
  3
*Paper_Space0
  1

  0
ENDBLK
  5
25
330
23
100
AcDbEntity
  8
0
100
AcDbBlockEnd
  0
ENDSEC
  0
SECTION
  2
ENTITIES
  0
LINE
  5
49
330
1F
100
AcDbEntity
  8
0
  6
Continuous
 62
     7
370
    15
100
AcDbLine
 10
308.4623044323
 20
358.7208590904
 30
0.0
 11
308.4623044323
 21
384.3282289306
 31
0.0
  0
LINE
  5
4A
330
1F
100
AcDbEntity
  8
0
  6
Continuous
 62
     7
370
    15
100
AcDbLine
 10
300.4623040523
 20
384.3282289306
 30
0.0
 11
300.4623040523
 21
358.7208590904
 31
0.0
  0
ARC
  5
4B
330
1F
100
AcDbEntity
  8
0
  6
Continuous
 62
     7
370
    15
100
AcDbCircle
 10
304.4623042423
 20
384.3282260805
 30
0.0
 40
4.0
100
AcDbArc
 50
165.0
 51
180.0
  0
ARC
  5
4C
330
1F
100
AcDbEntity
  8
0
  6
Continuous
 62
     7
370
    15
100
AcDbCircle
 10
304.4623042423
 20
384.3282260805
 30
0.0
 40
4.000000000000057
100
AcDbArc
 50
0.0
 51
15.0
  0
LINE
  5
4D
330
1F
100
AcDbEntity
  8
0
  6
Continuous
 62
     7
370
    15
100
AcDbLine
 10
308.326007469
 20
385.3635020057
 30
0.0
 11
308.098600848
 21
386.2121976415
 31
0.0
  0
LINE
  5
4E
330
1F
100
AcDbEntity
  8
0
  6
Continuous
 62
     7
370
    15
100
AcDbLine
 10
300.8260076366
 20
386.2121976415
 30
0.0
 11
300.5986010157
 21
385.3635020057
 31
0.0
  0
ARC
  5
4F
330
1F
100
AcDbEntity
  8
0
  6
Continuous
 62
     7
370
    15
100
AcDbCircle
 10
311.9623042423
 20
387.2474714649
 30
0.0
 40
4.000000000000052
100
AcDbArc
 50
180.0
 51
195.0
  0
ARC
  5
50
330
1F
100
AcDbEntity
  8
0
  6
Continuous
 62
     7
370
    15
100
AcDbCircle
 10
296.9623042423
 20
387.2474714649
 30
0.0
 40
4.000000000000052
100
AcDbArc
 50
345.0
 51
0.0
  0
LINE
  5
51
330
1F
100
AcDbEntity
  8
0
  6
Continuous
 62
     7
370
    15
100
AcDbLine
 10
307.9623043504
 20
406.1708650986
 30
0.0
 11
307.9623043504
 21
408.1708617011
 31
0.0
  0
LINE
  5
52
330
1F
100
AcDbEntity
  8
0
  6
Continuous
 62
     7
370
    15
100
AcDbLine
 10
300.9623041343
 20
408.1708617011
 30
0.0
 11
300.9623041343
 21
406.1708650986
 31
0.0
  0
LINE
  5
53
330
1F
100
AcDbEntity
  8
0
  6
Continuous
 62
     7
370
    15
100
AcDbLine
 10
307.9623043504
 20
408.1708617011
 30
0.0
 11
306.4123041894
 21
409.7208581367
 31
0.0
  0
LINE
  5
54
330
1F
100
AcDbEntity
  8
0
  6
Continuous
 62
     7
370
    15
100
AcDbLine
 10
302.5123042952
 20
409.7208581367
 30
0.0
 11
300.9623041343
 21
408.1708617011
 31
0.0
  0
LINE
  5
55
330
1F
100
AcDbEntity
  8
0
  6
Continuous
 62
     7
370
    15
100
AcDbLine
 10
307.9623043504
 20
387.2474707166
 30
0.0
 11
307.9623043504
 21
390.2208633223
 31
0.0
  0
LINE
  5
56
330
1F
100
AcDbEntity
  8
0
  6
Continuous
 62
     7
370
    15
100
AcDbLine
 10
300.9623041343
 20
390.2208633223
 30
0.0
 11
300.9623041343
 21
387.2474707166
 31
0.0
  0
LINE
  5
57
330
1F
100
AcDbEntity
  8
0
  6
Continuous
 62
     7
370
    15
100
AcDbLine
 10
307.9623043504
 20
393.2208619514
 30
0.0
 11
307.9623043504
 21
403.1208581725
 31
0.0
  0
LINE
  5
58
330
1F
100
AcDbEntity
  8
0
  6
Continuous
 62
     7
370
    15
100
AcDbLine
 10
300.9623041343
 20
403.1208581725
 30
0.0
 11
300.9623041343
 21
393.2208619514
 31
0.0
  0
LINE
  5
59
330
1F
100
AcDbEntity
  8
0
  6
Continuous
 62
     7
370
    15
100
AcDbLine
 10
307.4623042684
 20
390.2208633223
 30
0.0
 11
307.4623042684
 21
393.2208619514
 31
0.0
  0
LINE
  5
5A
330
1F
100
AcDbEntity
  8
0
  6
Continuous
 62
     7
370
    15
100
AcDbLine
 10
301.4623042162
 20
393.2208619514
 30
0.0
 11
301.4623042162
 21
390.2208633223
 31
0.0
  0
LINE
  5
5B
330
1F
100
AcDbEntity
  8
0
  6
Continuous
 62
     7
370
    15
100
AcDbLine
 10
306.4123041894
 20
403.1208581725
 30
0.0
 11
306.4123041894
 21
406.1708650986
 31
0.0
  0
LINE
  5
5C
330
1F
100
AcDbEntity
  8
0
  6
Continuous
 62
     7
370
    15
100
AcDbLine
 10
302.5123042952
 20
406.1708650986
 30
0.0
 11
302.5123042952
 21
403.1208581725
 31
0.0
  0
LINE
  5
5D
330
1F
100
AcDbEntity
  8
0
  6
Continuous
 62
     7
370
    15
100
AcDbLine
 10
319.4423046861
 20
345.7208625475
 30
0.0
 11
319.4423046861
 21
351.7208598057
 31
0.0
  0
LINE
  5
5E
330
1F
100
AcDbEntity
  8
0
  6
Continuous
 62
     7
370
    15
100
AcDbLine
 10
289.4823037986
 20
351.7208598057
 30
0.0
 11
289.4823037986
 21
345.7208625475
 31
0.0
  0
LINE
  5
5F
330
1F
100
AcDbEntity
  8
0
  6
Continuous
 62
     7
370
    15
100
AcDbLine
 10
238.4623046
 20
343.7208622197
 30
0.0
 11
226.462302633
 21
343.7208622197
 31
0.0
  0
LINE
  5
60
330
1F
100
AcDbEntity
  8
0
  6
Continuous
 62
     7
370
    15
100
AcDbLine
 10
226.462302633
 20
243.7208607295
 30
0.0
 11
238.4623046
 21
243.7208607295
 31
0.0
  0
LINE
  5
61
330
1F
100
AcDbEntity
  8
0
  6
Continuous
 62
     7
370
    15
100
AcDbLine
 10
370.4623038847
 20
243.7208607295
 30
0.0
 11
382.4623058517
 21
243.7208607295
 31
0.0
  0
LINE
  5
62
330
1F
100
AcDbEntity
  8
0
  6
Continuous
 62
     7
370
    15
100
AcDbLine
 10
382.4623058517
 20
343.7208622197
 30
0.0
 11
370.4623038847
 21
343.7208622197
 31
0.0
  0
LINE
  5
63
330
1F
100
AcDbEntity
  8
0
  6
Continuous
 62
     7
370
    15
100
AcDbLine
 10
254.4623034973
 20
232.7208607891
 30
0.0
 11
254.4623034973
 21
220.7208625475
 31
0.0
  0
LINE
  5
64
330
1F
100
AcDbEntity
  8
0
  6
Continuous
 62
     7
370
    15
100
AcDbLine
 10
354.4623049874
 20
220.7208625475
 30
0.0
 11
354.4623049874
 21
232.7208607891
 31
0.0
  0
LINE
  5
65
330
1F
100
AcDbEntity
  8
0
  6
Continuous
 62
     7
370
    15
100
AcDbLine
 10
382.4623058517
 20
261.7208599547
 30
0.0
 11
384.4623024542
 21
263.7208621451
 31
0.0
  0
LINE
  5
66
330
1F
100
AcDbEntity
  8
0
  6
Continuous
 62
     7
370
    15
100
AcDbLine
 10
384.4623024542
 20
323.720860804
 30
0.0
 11
382.4623058517
 21
325.7208629945
 31
0.0
  0
LINE
  5
67
330
1F
100
AcDbEntity
  8
0
  6
Continuous
 62
     7
370
    15
100
AcDbLine
 10
226.462302633
 20
325.7208629945
 30
0.0
 11
224.4623060305
 21
323.720860804
 31
0.0
  0
LINE
  5
68
330
1F
100
AcDbEntity
  8
0
  6
Continuous
 62
     7
370
    15
100
AcDbLine
 10
224.4623060305
 20
263.7208621451
 30
0.0
 11
226.462302633
 21
261.7208599547
 31
0.0
  0
LINE
  5
69
330
1F
100
AcDbEntity
  8
0
  6
Continuous
 62
     7
370
    15
100
AcDbLine
 10
272.4623027224
 20
220.7208625475
 30
0.0
 11
273.1268460829
 21
220.0563229123
 31
0.0
  0
LINE
  5
6A
330
1F
100
AcDbEntity
  8
0
  6
Continuous
 62
     7
370
    15
100
AcDbLine
 10
335.7977624018
 20
220.0563229123
 30
0.0
 11
336.4623057622
 21
220.7208625475
 31
0.0
  0
ARC
  5
6B
330
1F
100
AcDbEntity
  8
0
  6
Continuous
 62
     7
370
    15
100
AcDbCircle
 10
304.4623042423
 20
310.2208614746
 30
0.0
 40
27.50000000000005
100
AcDbArc
 50
137.7362264389
 51
197.3773866421
  0
ARC
  5
6C
330
1F
100
AcDbEntity
  8
0
  6
Continuous
 62
     7
370
    15
100
AcDbCircle
 10
304.4623042423
 20
310.2208614746
 30
0.0
 40
27.50000000000009
100
AcDbArc
 50
36.5547530299
 51
42.2637735611
  0
SPLINE
  5
6D
330
1F
100
AcDbEntity
  8
0
  6
Continuous
 62
     7
370
    15
100
AcDbSpline
210
0.0
220
0.0
230
1.0
 70
     8
 71
     3
 72
     9
 73
     5
 74
     0
 42
0.00000001
 43
0.00000001
 40
0.0
 40
0.0
 40
0.0
 40
0.0
 40
0.3043402533777906
 40
1.0
 40
1.0
 40
1.0
 40
1.0
 10
275.0570847619295
 20
298.9311907874254
 30
0.0
 10
273.0688636390802
 20
299.6136152380241
 30
0.0
 10
266.5359745428054
 20
301.8559227968325
 30
0.0
 10
260.0044380919988
 20
304.1021817327979
 30
0.0
 10
255.460711099577
 20
305.6648136550394
 30
0.0
  0
SPLINE
  5
6E
330
1F
100
AcDbEntity
  8
0
  6
Continuous
 62
     7
370
    15
100
AcDbSpline
210
0.0
220
0.0
230
1.0
 70
     8
 71
     3
 72
    22
 73
    18
 74
     0
 42
0.00000001
 43
0.00000001
 40
0.0
 40
0.0
 40
0.0
 40
0.0
 40
0.0740184034521289
 40
0.1321570953318944
 40
0.176133129670235
 40
0.2063549793674342
 40
0.2301651018646718
 40
0.2625149548168658
 40
0.3043572081874017
 40
0.3565903197805372
 40
0.4408797334019645
 40
0.54157055886975
 40
0.6585829412923998
 40
0.7566462039830592
 40
0.8636871736275467
 40
0.9801247310518205
 40
1.0
 40
1.0
 40
1.0
 40
1.0
 10
370.462303884697
 20
320.7264482477513
 30
0.0
 10
370.4215626389041
 20
320.2894228974006
 30
0.0
 10
370.3488206659209
 20
319.5091304539665
 30
0.0
 10
369.869024987951
 20
318.5705393794737
 30
0.0
 10
369.3790084208279
 20
317.9631474897344
 30
0.0
 10
368.9467365643724
 20
317.5797035850275
 30
0.0
 10
368.5293295644819
 20
317.2895669396621
 30
0.0
 10
368.0178645518462
 20
317.0212047603628
 30
0.0
 10
367.3074407781926
 20
316.7866048151147
 30
0.0
 10
366.2624961979781
 20
316.6736053664247
 30
0.0
 10
364.8837502139483
 20
316.4782495446887
 30
0.0
 10
363.1232129925096
 20
316.2568830189627
 30
0.0
 10
361.2867597076065
 20
315.9819172343708
 30
0.0
 10
359.3890481213091
 20
315.9418140432232
 30
0.0
 10
357.5067719826107
 20
316.1361082799273
 30
0.0
 10
356.1042922964807
 20
316.447983529131
 30
0.0
 10
355.3474636068762
 20
316.7100598294667
 30
0.0
 10
355.2371132153988
 20
316.7482722053138
 30
0.0
  0
SPLINE
  5
6F
330
1F
100
AcDbEntity
  8
0
  6
Continuous
 62
     7
370
    15
100
AcDbSpline
210
0.0
220
0.0
230
1.0
 70
     8
 71
     3
 72
    19
 73
    15
 74
     0
 42
0.00000001
 43
0.00000001
 40
0.0
 40
0.0
 40
0.0
 40
0.0
 40
0.1149272606795821
 40
0.2664807934660698
 40
0.3975312821202155
 40
0.5072587339247931
 40
0.5956048934164452
 40
0.6528775661375829
 40
0.6962830957461983
 40
0.7476502081908479
 40
0.7970447231885843
 40
0.8547492656958358
 40
0.9218726941491083
 40
0.9999999999999999
 40
0.9999999999999999
 40
0.9999999999999999
 40
0.9999999999999999
 10
254.3552274782181
 20
306.0626718649474
 30
0.0
 10
253.5179535901195
 20
306.3313647300545
 30
0.0
 10
251.5765742452226
 20
306.9543804311948
 30
0.0
 10
248.9450285864075
 20
308.5348603953901
 30
0.0
 10
246.6875371356834
 20
310.502986848555
 30
0.0
 10
244.7358889140188
 20
312.0831513488617
 30
0.0
 10
243.2333690464564
 20
313.3224846453261
 30
0.0
 10
242.1204459796596
 20
314.2377131173498
 30
0.0
 10
241.2238510917086
 20
314.9734527540543
 30
0.0
 10
240.3832316254985
 20
315.6726814027006
 30
0.0
 10
239.4387807626115
 20
316.4192594294142
 30
0.0
 10
238.6939348358449
 20
317.542695462069
 30
0.0
 10
238.393877862977
 20
319.0699856227195
 30
0.0
 10
238.4383720925121
 20
320.1607514865235
 30
0.0
 10
238.4623045999527
 20
320.747451434454
 30
0.0
  0
ARC
  5
70
330
1F
100
AcDbEntity
  8
0
  6
Continuous
 62
     7
370
    15
100
AcDbCircle
 10
282.2606100475
 20
330.3972034344
 30
0.0
 40
2.500000000000021
100
AcDbArc
 50
317.7362264389
 51
357.0
  0
ARC
  5
71
330
1F
100
AcDbEntity
  8
0
  6
Continuous
 62
     7
370
    15
100
AcDbCircle
 10
326.6639984371
 20
330.3972034344
 30
0.0
 40
2.500000000000078
100
AcDbArc
 50
183.0
 51
222.2637735611
  0
LINE
  5
72
330
1F
100
AcDbEntity
  8
0
  6
Continuous
 62
     7
370
    15
100
AcDbLine
 10
324.1674247164
 20
330.2663653591
 30
0.0
 11
323.4619869817
 21
343.7269009152
 31
0.0
  0
LINE
  5
73
330
1F
100
AcDbEntity
  8
0
  6
Continuous
 62
     7
370
    15
100
AcDbLine
 10
285.4626289535
 20
343.7270462015
 30
0.0
 11
284.7571837682
 21
330.2663653591
 31
0.0
  0
SPLINE
  5
74
330
1F
100
AcDbEntity
  8
0
  6
Continuous
 62
     7
370
    15
100
AcDbSpline
210
0.0
220
0.0
230
1.0
 70
     8
 71
     3
 72
    18
 73
    14
 74
     0
 42
0.00000001
 43
0.00000001
 40
0.0
 40
0.0
 40
0.0
 40
0.0
 40
0.0604384755194882
 40
0.165936478295216
 40
0.2734839071058031
 40
0.3876540360460939
 40
0.5040985447595752
 40
0.6221670270986804
 40
0.7266033564006706
 40
0.8206739974788044
 40
0.9055774224201503
 40
0.9813791118972561
 40
0.9999999999999999
 40
0.9999999999999999
 40
0.9999999999999999
 40
0.9999999999999999
 10
278.2046570409059
 20
302.0057189712134
 30
0.0
 10
278.2356785321662
 20
301.9012899653874
 30
0.0
 10
278.3208493933926
 20
301.6145755618607
 30
0.0
 10
278.3274078384646
 20
301.1154387177267
 30
0.0
 10
278.218028502833
 20
300.5339095873403
 30
0.0
 10
277.9597594400545
 20
299.9757468708947
 30
0.0
 10
277.5610812637917
 20
299.4837870797187
 30
0.0
 10
277.0651395304444
 20
299.1177809435849
 30
0.0
 10
276.5355178804566
 20
298.8972883648653
 30
0.0
 10
276.0303611623271
 20
298.8039003779219
 30
0.0
 10
275.5711239554938
 20
298.8137878128182
 30
0.0
 10
275.2495036389571
 20
298.8639004733631
 30
0.0
 10
275.0900875187946
 20
298.9225627649854
 30
0.0
 10
275.0586493838549
 20
298.9341314384547
 30
0.0
  0
SPLINE
  5
75
330
1F
100
AcDbEntity
  8
0
  6
Continuous
 62
     7
370
    15
100
AcDbSpline
210
0.0
220
0.0
230
1.0
 70
     8
 71
     3
 72
     9
 73
     5
 74
     0
 42
0.00000001
 43
0.00000001
 40
0.0
 40
0.0
 40
0.0
 40
0.0
 40
0.4117531386211821
 40
1.0
 40
1.0
 40
1.0
 40
1.0
 10
353.4598181921959
 20
317.3526390889493
 30
0.0
 10
349.7659026110055
 20
318.6227896589122
 30
0.0
 10
340.7947127530238
 20
321.7075276993219
 30
0.0
 10
331.8215616074361
 20
324.7865562650276
 30
0.0
 10
326.5431336093664
 20
326.5977851548997
 30
0.0
  0
LINE
  5
76
330
1F
100
AcDbEntity
  8
0
  6
Continuous
 62
     7
370
    15
100
AcDbLine
 10
355.3131352145
 20
316.7155585686
 30
0.0
 11
353.4598181922
 21
317.3526390889
 31
0.0
  0
LINE
  5
77
330
1F
100
AcDbEntity
  8
0
  6
Continuous
 62
     7
370
    15
100
AcDbLine
 10
285.4623048533
 20
345.7208625475
 30
0.0
 11
285.4623048533
 21
343.7208622197
 31
0.0
  0
LINE
  5
78
330
1F
100
AcDbEntity
  8
0
  6
Continuous
 62
     7
370
    15
100
AcDbLine
 10
323.4623036314
 20
343.7208622197
 30
0.0
 11
323.4623036314
 21
345.7208625475
 31
0.0
  0
LINE
  5
79
330
1F
100
AcDbEntity
  8
0
  6
Continuous
 62
     7
370
    15
100
AcDbLine
 10
304.8662324926
 20
408.1708617011
 30
0.0
 11
300.9623041343
 21
408.1708617011
 31
0.0
  0
LINE
  5
7A
330
1F
100
AcDbEntity
  8
0
  6
Continuous
 62
     7
370
    15
100
AcDbLine
 10
307.9623043504
 20
408.1708617011
 30
0.0
 11
304.8662324926
 21
408.1708617011
 31
0.0
  0
LINE
  5
7B
330
1F
100
AcDbEntity
  8
0
  6
Continuous
 62
     7
370
    15
100
AcDbLine
 10
304.8662324926
 20
406.1708650986
 30
0.0
 11
300.9623041343
 21
406.1708650986
 31
0.0
  0
LINE
  5
7C
330
1F
100
AcDbEntity
  8
0
  6
Continuous
 62
     7
370
    15
100
AcDbLine
 10
307.9623043504
 20
406.1708650986
 30
0.0
 11
304.8662324926
 21
406.1708650986
 31
0.0
  0
LINE
  5
7D
330
1F
100
AcDbEntity
  8
0
  6
Continuous
 62
     7
370
    15
100
AcDbLine
 10
304.6873499751
 20
409.7208581367
 30
0.0
 11
302.5123042952
 21
409.7208581367
 31
0.0
  0
LINE
  5
7E
330
1F
100
AcDbEntity
  8
0
  6
Continuous
 62
     7
370
    15
100
AcDbLine
 10
306.4123041894
 20
409.7208581367
 30
0.0
 11
304.6873499751
 21
409.7208581367
 31
0.0
  0
LINE
  5
7F
330
1F
100
AcDbEntity
  8
0
  6
Continuous
 62
     7
370
    15
100
AcDbLine
 10
304.8662324926
 20
390.2208633223
 30
0.0
 11
300.9623041343
 21
390.2208633223
 31
0.0
  0
LINE
  5
80
330
1F
100
AcDbEntity
  8
0
  6
Continuous
 62
     7
370
    15
100
AcDbLine
 10
307.9623043504
 20
390.2208633223
 30
0.0
 11
304.8662324926
 21
390.2208633223
 31
0.0
  0
LINE
  5
81
330
1F
100
AcDbEntity
  8
0
  6
Continuous
 62
     7
370
    15
100
AcDbLine
 10
304.8662324926
 20
393.2208619514
 30
0.0
 11
300.9623041343
 21
393.2208619514
 31
0.0
  0
LINE
  5
82
330
1F
100
AcDbEntity
  8
0
  6
Continuous
 62
     7
370
    15
100
AcDbLine
 10
307.9623043504
 20
393.2208619514
 30
0.0
 11
304.8662324926
 21
393.2208619514
 31
0.0
  0
LINE
  5
83
330
1F
100
AcDbEntity
  8
0
  6
Continuous
 62
     7
370
    15
100
AcDbLine
 10
304.8662324926
 20
403.1208581725
 30
0.0
 11
300.9623041343
 21
403.1208581725
 31
0.0
  0
LINE
  5
84
330
1F
100
AcDbEntity
  8
0
  6
Continuous
 62
     7
370
    15
100
AcDbLine
 10
307.9623043504
 20
403.1208581725
 30
0.0
 11
304.8662324926
 21
403.1208581725
 31
0.0
  0
LINE
  5
85
330
1F
100
AcDbEntity
  8
0
  6
Continuous
 62
     7
370
    15
100
AcDbLine
 10
292.462304138
 20
351.7208598057
 30
0.0
 11
289.4823037986
 21
351.7208598057
 31
0.0
  0
LINE
  5
86
330
1F
100
AcDbEntity
  8
0
  6
Continuous
 62
     7
370
    15
100
AcDbLine
 10
292.462304138
 20
351.7208598057
 30
0.0
 11
292.462304138
 21
358.7208590904
 31
0.0
  0
LINE
  5
87
330
1F
100
AcDbEntity
  8
0
  6
Continuous
 62
     7
370
    15
100
AcDbLine
 10
316.4623043466
 20
358.7208590904
 30
0.0
 11
292.462304138
 21
358.7208590904
 31
0.0
  0
LINE
  5
88
330
1F
100
AcDbEntity
  8
0
  6
Continuous
 62
     7
370
    15
100
AcDbLine
 10
316.4623043466
 20
358.7208590904
 30
0.0
 11
316.4623043466
 21
351.7208598057
 31
0.0
  0
LINE
  5
89
330
1F
100
AcDbEntity
  8
0
  6
Continuous
 62
     7
370
    15
100
AcDbLine
 10
316.4623043466
 20
351.7208598057
 30
0.0
 11
319.4423046861
 21
351.7208598057
 31
0.0
  0
LINE
  5
8A
330
1F
100
AcDbEntity
  8
0
  6
Continuous
 62
     7
370
    15
100
AcDbLine
 10
330.9788088281
 20
241.5063321093
 30
0.0
 11
330.9788088281
 21
233.4353938201
 31
0.0
  0
LINE
  5
8B
330
1F
100
AcDbEntity
  8
0
  6
Continuous
 62
     7
370
    15
100
AcDbLine
 10
238.4623046
 20
343.7208622197
 30
0.0
 11
238.4623046
 21
243.7208607295
 31
0.0
  0
LINE
  5
8C
330
1F
100
AcDbEntity
  8
0
  6
Continuous
 62
     7
370
    15
100
AcDbLine
 10
226.462302633
 20
343.7208622197
 30
0.0
 11
226.462302633
 21
243.7208607295
 31
0.0
  0
LINE
  5
8D
330
1F
100
AcDbEntity
  8
0
  6
Continuous
 62
     7
370
    15
100
AcDbLine
 10
370.4623038847
 20
343.7208622197
 30
0.0
 11
370.4623038847
 21
243.7208607295
 31
0.0
  0
LINE
  5
8E
330
1F
100
AcDbEntity
  8
0
  6
Continuous
 62
     7
370
    15
100
AcDbLine
 10
382.4623058517
 20
343.7208622197
 30
0.0
 11
382.4623058517
 21
243.7208607295
 31
0.0
  0
LINE
  5
8F
330
1F
100
AcDbEntity
  8
0
  6
Continuous
 62
     7
370
    15
100
AcDbLine
 10
254.4623034973
 20
232.7208607891
 30
0.0
 11
354.4623049874
 21
232.7208607891
 31
0.0
  0
LINE
  5
90
330
1F
100
AcDbEntity
  8
0
  6
Continuous
 62
     7
370
    15
100
AcDbLine
 10
254.4623034973
 20
220.7208625475
 30
0.0
 11
354.4623049874
 21
220.7208625475
 31
0.0
  0
ARC
  5
91
330
1F
100
AcDbEntity
  8
0
  6
Continuous
 62
     7
370
    15
100
AcDbCircle
 10
298.3260552601
 20
334.2482360841
 30
0.0
 40
3.193274380740895
100
AcDbArc
 50
179.9712102587
 51
198.7123252786
  0
LWPOLYLINE
  5
92
330
1F
100
AcDbEntity
  8
0
  6
Continuous
 62
     7
370
    15
100
AcDbPolyline
 90
       18
 70
   128
 43
0.0
 10
295.1327812824
 20
334.249840627
 10
295.7335001755
 20
334.249840627
 10
296.5085831437
 20
334.249840627
 10
297.4425488118
 20
334.249840627
 10
298.5167390633
 20
334.249840627
 10
299.7096971575
 20
334.249840627
 10
300.9975917138
 20
334.249840627
 10
302.3546968088
 20
334.249840627
 10
303.7539031556
 20
334.249840627
 10
305.1672603087
 20
334.249840627
 10
306.5665353987
 20
334.249840627
 10
307.9237766996
 20
334.249840627
 10
309.2118724216
 20
334.249840627
 10
310.4050922174
 20
334.249840627
 10
311.4795995843
 20
334.249840627
 10
312.4139307965
 20
334.249840627
 10
313.1894226152
 20
334.249840627
 10
313.7905838866
 20
334.2498443523
  0
ARC
  5
93
330
1F
100
AcDbEntity
  8
0
  6
Continuous
 62
     7
370
    15
100
AcDbCircle
 10
310.5968988732
 20
334.2482378127
 30
0.0
 40
3.193685417473788
100
AcDbArc
 50
341.2901397366
 51
0.0288218574
  0
LINE
  5
94
330
1F
100
AcDbEntity
  8
0
  6
Continuous
 62
     7
370
    15
100
AcDbLine
 10
313.6218142662
 20
333.2237801948
 30
0.0
 11
307.8138072941
 21
333.2237801948
 31
0.0
  0
LINE
  5
95
330
1F
100
AcDbEntity
  8
0
  6
Continuous
 62
     7
370
    15
100
AcDbLine
 10
301.1108011905
 20
333.2237801948
 30
0.0
 11
295.3015732545
 21
333.2237801948
 31
0.0
  0
LINE
  5
96
330
1F
100
AcDbEntity
  8
0
  6
Continuous
 62
     7
370
    15
100
AcDbLine
 10
295.1327812824
 20
345.7208625475
 30
0.0
 11
313.7905838866
 21
345.7208625475
 31
0.0
  0
LINE
  5
97
330
1F
100
AcDbEntity
  8
0
  6
Continuous
 62
     7
370
    15
100
AcDbLine
 10
313.7905838866
 20
334.2498443523
 30
0.0
 11
313.7905838866
 21
345.7208625475
 31
0.0
  0
LINE
  5
98
330
1F
100
AcDbEntity
  8
0
  6
Continuous
 62
     7
370
    15
100
AcDbLine
 10
295.1327812824
 20
334.249840627
 30
0.0
 11
295.1327812824
 21
345.7208625475
 31
0.0
  0
LINE
  5
99
330
1F
100
AcDbEntity
  8
0
  6
Continuous
 62
     7
370
    15
100
AcDbLine
 10
296.5093468282
 20
329.6669736007
 30
0.0
 11
295.3015732545
 21
333.2237801948
 31
0.0
  0
LINE
  5
9A
330
1F
100
AcDbEntity
  8
0
  6
Continuous
 62
     7
370
    15
100
AcDbLine
 10
312.4147838879
 20
329.6686909595
 30
0.0
 11
313.6218142662
 21
333.2237801948
 31
0.0
  0
LINE
  5
9B
330
1F
100
AcDbEntity
  8
0
  6
Continuous
 62
     7
370
    15
100
AcDbLine
 10
384.4623024542
 20
323.720860804
 30
0.0
 11
384.4623024542
 21
263.7208621451
 31
0.0
  0
LINE
  5
9C
330
1F
100
AcDbEntity
  8
0
  6
Continuous
 62
     7
370
    15
100
AcDbLine
 10
224.4623060305
 20
323.720860804
 30
0.0
 11
224.4623060305
 21
263.7208621451
 31
0.0
  0
LINE
  5
9D
330
1F
100
AcDbEntity
  8
0
  6
Continuous
 62
     7
370
    15
100
AcDbLine
 10
313.7905838866
 20
334.2498443523
 30
0.0
 11
320.5343353528
 21
334.249840627
 31
0.0
  0
SPLINE
  5
9E
330
1F
100
AcDbEntity
  8
0
  6
Continuous
 62
     7
370
    15
100
AcDbSpline
210
0.0
220
0.0
230
1.0
 70
     8
 71
     3
 72
     8
 73
     4
 74
     0
 42
0.00000001
 43
0.00000001
 40
0.0
 40
0.0
 40
0.0
 40
0.0
 40
1.0
 40
1.0
 40
1.0
 40
1.0
 10
320.5343349213148
 20
334.2498424115099
 30
0.0
 10
320.5176324486516
 20
334.0450395174058
 30
0.0
 10
320.4555966262971
 20
333.8730141069871
 30
0.0
 10
320.3799953191073
 20
333.7208614745942
 30
0.0
  0
SPLINE
  5
9F
330
1F
100
AcDbEntity
  8
0
  6
Continuous
 62
     7
370
    15
100
AcDbSpline
210
0.0
220
0.0
230
1.0
 70
     8
 71
     3
 72
     8
 73
     4
 74
     0
 42
0.00000001
 43
0.00000001
 40
0.0
 40
0.0
 40
0.0
 40
0.0
 40
1.0
 40
1.0
 40
1.0
 40
1.0
 10
320.3799953191073
 20
333.7208614745942
 30
0.0
 10
320.2162288592774
 20
333.5487420157432
 30
0.0
 10
320.0388540298367
 20
333.3838140583247
 30
0.0
 10
319.8487656428171
 20
333.2237820447137
 30
0.0
  0
LINE
  5
A0
330
1F
100
AcDbEntity
  8
0
  6
Continuous
 62
     7
370
    15
100
AcDbLine
 10
319.8487655226
 20
333.2237801948
 30
0.0
 11
313.6218142662
 21
333.2237801948
 31
0.0
  0
LINE
  5
A1
330
1F
100
AcDbEntity
  8
0
  6
Continuous
 62
     7
370
    15
100
AcDbLine
 10
322.188397773
 20
344.3380012611
 30
0.0
 11
322.188397773
 21
345.7208625475
 31
0.0
  0
SPLINE
  5
A2
330
1F
100
AcDbEntity
  8
0
  6
Continuous
 62
     7
370
    15
100
AcDbSpline
210
0.0
220
0.0
230
1.0
 70
     8
 71
     3
 72
    26
 73
    22
 74
     0
 42
0.00000001
 43
0.00000001
 40
0.0
 40
0.0
 40
0.0
 40
0.0
 40
0.2500000000000016
 40
0.2500000000000016
 40
0.5000000000000031
 40
0.5000000000000031
 40
0.625000000000004
 40
0.625000000000004
 40
0.7500000000000049
 40
0.7500000000000049
 40
0.8125000000000044
 40
0.8125000000000044
 40
0.8750000000000041
 40
0.8750000000000041
 40
0.9062500000000031
 40
0.9062500000000031
 40
0.937500000000002
 40
0.937500000000002
 40
0.968750000000001
 40
0.968750000000001
 40
1.0
 40
1.0
 40
1.0
 40
1.0
 10
320.5343349213148
 20
334.2498424115099
 30
0.0
 10
320.6107506636459
 20
335.1868393161004
 30
0.0
 10
320.691841191242
 20
336.1206722498148
 30
0.0
 10
320.8690466174524
 20
337.97816937801
 30
0.0
 10
320.9647652070561
 20
338.9015728815979
 30
0.0
 10
321.1293438355805
 20
340.2687274654093
 30
0.0
 10
321.1877068133059
 20
340.7209586366171
 30
0.0
 10
321.3156865437309
 20
341.6135146580572
 30
0.0
 10
321.3850719300278
 20
342.0542247661206
 30
0.0
 10
321.5045645750336
 20
342.694010372416
 30
0.0
 10
321.5470365894145
 20
342.9037092517261
 30
0.0
 10
321.6395483103047
 20
343.3078823045796
 30
0.0
 10
321.6894933626123
 20
343.5030436638353
 30
0.0
 10
321.7750436569931
 20
343.775826498111
 30
0.0
 10
321.8051863744791
 20
343.862673700201
 30
0.0
 10
321.8696997664835
 20
344.0230472797687
 30
0.0
 10
321.9044734441036
 20
344.0973588534285
 30
0.0
 10
321.9781367419708
 20
344.221229621802
 30
0.0
 10
322.0170883779462
 20
344.271358627493
 30
0.0
 10
322.1013855811918
 20
344.3360083207818
 30
0.0
 10
322.1446554660592
 20
344.3483060527178
 30
0.0
 10
322.1883980026545
 20
344.3380013205345
 30
0.0
  0
LINE
  5
A3
330
1F
100
AcDbEntity
  8
0
  6
Continuous
 62
     7
370
    15
100
AcDbLine
 10
313.7905838866
 20
345.7208625475
 30
0.0
 11
322.188397773
 21
345.7208625475
 31
0.0
  0
LINE
  5
A4
330
1F
100
AcDbEntity
  8
0
  6
Continuous
 62
     7
370
    15
100
AcDbLine
 10
286.7362107117
 20
344.3380012611
 30
0.0
 11
286.7362107117
 21
345.7208625475
 31
0.0
  0
LINE
  5
A5
330
1F
100
AcDbEntity
  8
0
  6
Continuous
 62
     7
370
    15
100
AcDbLine
 10
288.3902731318
 20
334.249840627
 30
0.0
 11
295.1327812824
 21
334.249840627
 31
0.0
  0
SPLINE
  5
A6
330
1F
100
AcDbEntity
  8
0
  6
Continuous
 62
     7
370
    15
100
AcDbSpline
210
0.0
220
0.0
230
1.0
 70
     8
 71
     3
 72
    26
 73
    22
 74
     0
 42
0.00000001
 43
0.00000001
 40
0.0
 40
0.0
 40
0.0
 40
0.0
 40
0.2499999999999991
 40
0.2499999999999991
 40
0.4999999999999982
 40
0.4999999999999982
 40
0.6249999999999987
 40
0.6249999999999987
 40
0.7499999999999991
 40
0.7499999999999991
 40
0.8124999999999993
 40
0.8124999999999993
 40
0.8749999999999996
 40
0.8749999999999996
 40
0.9062499999999997
 40
0.9062499999999997
 40
0.9374999999999998
 40
0.9374999999999998
 40
0.9687499999999999
 40
0.9687499999999999
 40
1.0
 40
1.0
 40
1.0
 40
1.0
 10
288.39027356291
 20
334.2498424167196
 30
0.0
 10
288.3138578205964
 20
335.1868393208639
 30
0.0
 10
288.2327672930187
 20
336.1206722541328
 30
0.0
 10
288.0555618668474
 20
337.9781693814384
 30
0.0
 10
287.9598432772651
 20
338.9015728845774
 30
0.0
 10
287.795264648776
 20
340.2687274677212
 30
0.0
 10
287.7369016710635
 20
340.7209586387024
 30
0.0
 10
287.6089219406655
 20
341.6135146596955
 30
0.0
 10
287.5395365543837
 20
342.0542247675315
 30
0.0
 10
287.420043909403
 20
342.6940103734906
 30
0.0
 10
287.3775718950319
 20
342.9037092526841
 30
0.0
 10
287.2850601741625
 20
343.3078823053091
 30
0.0
 10
287.2351151218662
 20
343.5030436644521
 30
0.0
 10
287.1495648275043
 20
343.7758264985625
 30
0.0
 10
287.1194221100273
 20
343.8626737005919
 30
0.0
 10
287.0549087180405
 20
344.0230472800487
 30
0.0
 10
287.0201350404305
 20
344.0973588536529
 30
0.0
 10
286.9464717425895
 20
344.2212296219241
 30
0.0
 10
286.9075201066283
 20
344.2713586275709
 30
0.0
 10
286.8232229034158
 20
344.3360083207961
 30
0.0
 10
286.7799530185701
 20
344.3483060527141
 30
0.0
 10
286.7362104819952
 20
344.3380013205356
 30
0.0
  0
LINE
  5
A7
330
1F
100
AcDbEntity
  8
0
  6
Continuous
 62
     7
370
    15
100
AcDbLine
 10
295.1327812824
 20
345.7208625475
 30
0.0
 11
286.7362107117
 21
345.7208625475
 31
0.0
  0
SPLINE
  5
A8
330
1F
100
AcDbEntity
  8
0
  6
Continuous
 62
     7
370
    15
100
AcDbSpline
210
0.0
220
0.0
230
1.0
 70
     8
 71
     3
 72
    10
 73
     6
 74
     0
 42
0.00000001
 43
0.00000001
 40
0.0
 40
0.0
 40
0.0
 40
0.0
 40
0.5
 40
0.5
 40
1.0
 40
1.0
 40
1.0
 40
1.0
 10
288.5446131620537
 20
333.7208614745942
 30
0.0
 10
288.5069294319595
 20
333.796702478072
 30
0.0
 10
288.4733101512835
 20
333.8769768323426
 30
0.0
 10
288.4189979307256
 20
334.0526347315858
 30
0.0
 10
288.398575596888
 20
334.1480442806297
 30
0.0
 10
288.39027356291
 20
334.2498424167196
 30
0.0
  0
LINE
  5
A9
330
1F
100
AcDbEntity
  8
0
  6
Continuous
 62
     7
370
    15
100
AcDbLine
 10
295.3015732545
 20
333.2237801948
 30
0.0
 11
289.075842962
 21
333.2237801948
 31
0.0
  0
SPLINE
  5
AA
330
1F
100
AcDbEntity
  8
0
  6
Continuous
 62
     7
370
    15
100
AcDbSpline
210
0.0
220
0.0
230
1.0
 70
     8
 71
     3
 72
     8
 73
     4
 74
     0
 42
0.00000001
 43
0.00000001
 40
0.0
 40
0.0
 40
0.0
 40
0.0
 40
1.0
 40
1.0
 40
1.0
 40
1.0
 10
289.0758428670063
 20
333.2237819867426
 30
0.0
 10
288.885754469727
 20
333.3838140208014
 30
0.0
 10
288.7083796309169
 20
333.5487419979006
 30
0.0
 10
288.5446131620537
 20
333.7208614745942
 30
0.0
  0
SPLINE
  5
AB
330
1F
100
AcDbEntity
  8
0
  6
Continuous
 62
     7
370
    15
100
AcDbSpline
210
0.0
220
0.0
230
1.0
 70
     8
 71
     3
 72
    14
 73
    10
 74
     0
 42
0.00000001
 43
0.00000001
 40
0.0
 40
0.0
 40
0.0
 40
0.0
 40
0.25
 40
0.25
 40
0.5
 40
0.5
 40
0.75
 40
0.75
 40
1.0
 40
1.0
 40
1.0
 40
1.0
 10
314.3423670487269
 20
326.5314047668223
 30
0.0
 10
314.8004812573109
 20
327.2076835475375
 30
0.0
 10
315.2640307351801
 20
327.8704233455435
 30
0.0
 10
316.1890073219607
 20
329.1389555496741
 30
0.0
 10
316.6505923733425
 20
329.7452323293747
 30
0.0
 10
317.5714942723187
 20
330.8874996460994
 30
0.0
 10
318.030815600894
 20
331.4236290380734
 30
0.0
 10
318.9465027342212
 20
332.4043031655459
 30
0.0
 10
319.4044491547146
 20
332.8497199392562
 30
0.0
 10
319.8487656428171
 20
333.2237820447137
 30
0.0
  0
ARC
  5
AC
330
1F
100
AcDbEntity
  8
0
  6
Continuous
 62
     7
370
    15
100
AcDbCircle
 10
338.4297103903
 20
305.4546132091
 30
0.0
 40
32.00673698969806
100
AcDbArc
 50
138.8135819586
 51
141.5744429539
  0
SPLINE
  5
AD
330
1F
100
AcDbEntity
  8
0
  6
Continuous
 62
     7
370
    15
100
AcDbSpline
210
0.0
220
0.0
230
1.0
 70
     8
 71
     3
 72
    18
 73
    14
 74
     0
 42
0.00000001
 43
0.00000001
 40
0.0
 40
0.0
 40
0.0
 40
0.0
 40
0.1250000000000003
 40
0.1250000000000003
 40
0.2500000000000007
 40
0.2500000000000007
 40
0.375000000000001
 40
0.375000000000001
 40
0.4375000000000012
 40
0.4375000000000012
 40
0.5000000000000014
 40
0.5000000000000014
 40
1.0
 40
1.0
 40
1.0
 40
1.0
 10
313.3551102813216
 20
325.3467146896923
 30
0.0
 10
313.1416736287144
 20
325.1374094866057
 30
0.0
 10
312.9253288548793
 20
324.9067699637279
 30
0.0
 10
312.4943580302
 20
324.4109197713201
 30
0.0
 10
312.2786241014258
 20
324.1445755808507
 30
0.0
 10
311.8466473732702
 20
323.5741716432065
 30
0.0
 10
311.630405614341
 20
323.2701890104022
 30
0.0
 10
311.3056334063308
 20
322.7838593167661
 30
0.0
 10
311.1975713286665
 20
322.6160479034052
 30
0.0
 10
310.9832789820242
 20
322.2782016992851
 30
0.0
 10
310.8765659008187
 20
322.1079155843599
 30
0.0
 10
309.9200342119547
 20
320.5631105300649
 30
0.0
 10
309.0972828958662
 20
319.1034063256934
 30
0.0
 10
308.3023334223644
 20
317.5562051021918
 30
0.0
  0
ARC
  5
AE
330
1F
100
AcDbEntity
  8
0
  6
Continuous
 62
     7
370
    15
100
AcDbCircle
 10
257.8256639947
 20
295.5771854199
 30
0.0
 40
48.05423626038424
100
AcDbArc
 50
26.7216471338
 51
40.1021038688
  0
SPLINE
  5
AF
330
1F
100
AcDbEntity
  8
0
  6
Continuous
 62
     7
370
    15
100
AcDbSpline
210
0.0
220
0.0
230
1.0
 70
     8
 71
     3
 72
    14
 73
    10
 74
     0
 42
0.00000001
 43
0.00000001
 40
0.0
 40
0.0
 40
0.0
 40
0.0
 40
0.25
 40
0.25
 40
0.5
 40
0.5
 40
0.75
 40
0.75
 40
1.0
 40
1.0
 40
1.0
 40
1.0
 10
294.582241216923
 20
326.5314047668223
 30
0.0
 10
294.1241270274379
 20
327.2076835337343
 30
0.0
 10
293.6605775693811
 20
327.8704233188115
 30
0.0
 10
292.7356010224362
 20
329.1389555013488
 30
0.0
 10
292.2740159912997
 20
329.7452322720426
 30
0.0
 10
291.3531141336195
 20
330.8874995757928
 30
0.0
 10
290.8937928260934
 20
331.4236289637735
 30
0.0
 10
289.9781057358834
 20
332.4043030907757
 30
0.0
 10
289.5201593359963
 20
332.8497198697697
 30
0.0
 10
289.0758428670063
 20
333.2237819867426
 30
0.0
  0
SPLINE
  5
B0
330
1F
100
AcDbEntity
  8
0
  6
Continuous
 62
     7
370
    15
100
AcDbSpline
210
0.0
220
0.0
230
1.0
 70
     8
 71
     3
 72
    20
 73
    16
 74
     0
 42
0.00000001
 43
0.00000001
 40
0.0
 40
0.0
 40
0.0
 40
0.0
 40
0.2499999999999999
 40
0.2499999999999999
 40
0.4999999999999999
 40
0.4999999999999999
 40
0.625
 40
0.625
 40
0.75
 40
0.75
 40
0.875
 40
0.875
 40
0.9375
 40
0.9375
 40
1.0
 40
1.0
 40
1.0
 40
1.0
 10
308.3023335959346
 20
317.556205014175
 30
0.0
 10
308.0732006558704
 20
317.1104034619397
 30
0.0
 10
307.8330111249077
 20
316.6663321852755
 30
0.0
 10
307.3249857311261
 20
315.7851560958321
 30
0.0
 10
307.0577594164707
 20
315.3478167236621
 30
0.0
 10
306.6241893965786
 20
314.7094615549137
 30
0.0
 10
306.4739490123598
 20
314.4994876445091
 30
0.0
 10
306.1571704649874
 20
314.0922082006426
 30
0.0
 10
305.9904788731162
 20
313.8940254044248
 30
0.0
 10
305.6272701615611
 20
313.5230923381486
 30
0.0
 10
305.4335049636373
 20
313.3509584255135
 30
0.0
 10
305.0992915426924
 20
313.1451363178999
 30
0.0
 10
304.9829043796027
 20
313.0873394566991
 30
0.0
 10
304.7349530748482
 20
313.004791711113
 30
0.0
 10
304.6052886175227
 20
312.9815875671271
 30
0.0
 10
304.4746784148595
 20
312.9814647924606
 30
0.0
  0
SPLINE
  5
B1
330
1F
100
AcDbEntity
  8
0
  6
Continuous
 62
     7
370
    15
100
AcDbSpline
210
0.0
220
0.0
230
1.0
 70
     8
 71
     3
 72
    20
 73
    16
 74
     0
 42
0.00000001
 43
0.00000001
 40
0.0
 40
0.0
 40
0.0
 40
0.0
 40
0.1250000000000016
 40
0.1250000000000016
 40
0.187500000000002
 40
0.187500000000002
 40
0.2500000000000023
 40
0.2500000000000023
 40
0.3750000000000019
 40
0.3750000000000019
 40
0.5000000000000016
 40
0.5000000000000016
 40
0.7500000000000008
 40
0.7500000000000008
 40
1.0
 40
1.0
 40
1.0
 40
1.0
 10
304.4623042423248
 20
312.9814036349275
 30
0.0
 10
304.211241749802
 20
312.9814036349275
 30
0.0
 10
303.9675573922808
 20
313.0610729795039
 30
0.0
 10
303.6422815529135
 20
313.2397346366299
 30
0.0
 10
303.5383927435724
 20
313.3095138746604
 30
0.0
 10
303.3414062029605
 20
313.4598409173857
 30
0.0
 10
303.2484241856174
 20
313.5401344908465
 30
0.0
 10
302.9805776072059
 20
313.7912062754411
 30
0.0
 10
302.8165592363644
 20
313.9719329722961
 30
0.0
 10
302.5043800904449
 20
314.3473709530695
 30
0.0
 10
302.3562334557021
 20
314.5427667649313
 30
0.0
 10
301.9330881924158
 20
315.1347005214268
 30
0.0
 10
301.6764567222172
 20
315.5394363759063
 30
0.0
 10
301.1915564685377
 20
316.3567697173948
 30
0.0
 10
300.96395617032
 20
316.7697326824671
 30
0.0
 10
300.7477828552657
 20
317.1850850961706
 30
0.0
  0
LINE
  5
B2
330
1F
100
AcDbEntity
  8
0
  6
Continuous
 62
     7
370
    15
100
AcDbLine
 10
326.5442456085
 20
326.5926889578
 30
0.0
 11
326.5442381579
 21
326.5926777819
 31
0.0
  0
SPLINE
  5
B3
330
1F
100
AcDbEntity
  8
0
  6
Continuous
 62
     7
370
    15
100
AcDbSpline
210
0.0
220
0.0
230
1.0
 70
     8
 71
     3
 72
     8
 73
     4
 74
     0
 42
0.00000001
 43
0.00000001
 40
0.0
 40
0.0
 40
0.0
 40
0.0
 40
1.0
 40
1.0
 40
1.0
 40
1.0
 10
304.4746769593126
 20
312.9814647829908
 30
0.0
 10
304.4705496378317
 20
312.9814239873685
 30
0.0
 10
304.4664254034045
 20
312.9814036349275
 30
0.0
 10
304.4623042423248
 20
312.9814036349275
 30
0.0
  0
ARC
  5
B4
330
1F
100
AcDbEntity
  8
0
  6
Continuous
 62
     7
370
    15
100
AcDbCircle
 10
304.4623042423
 20
277.2208614746
 30
0.0
 40
27.24602630549666
100
AcDbArc
 50
338.1570970647
 51
20.0878509015
  0
SPLINE
  5
B5
330
1F
100
AcDbEntity
  8
0
  6
Continuous
 62
     7
370
    15
100
AcDbSpline
210
0.0
220
0.0
230
1.0
 70
    24
 71
     3
 72
    54
 73
    50
 74
     0
 42
0.00000001
 43
0.00000001
 40
0.0
 40
0.0
 40
0.0
 40
0.0
 40
0.1250000000000002
 40
0.1250000000000002
 40
0.1875000000000002
 40
0.1875000000000002
 40
0.2187500000000002
 40
0.2187500000000002
 40
0.2500000000000002
 40
0.2500000000000002
 40
0.2812500000000002
 40
0.2812500000000002
 40
0.3125000000000002
 40
0.3125000000000002
 40
0.3437500000000002
 40
0.3437500000000002
 40
0.3750000000000003
 40
0.3750000000000003
 40
0.4062500000000003
 40
0.4062500000000003
 40
0.4375000000000003
 40
0.4375000000000003
 40
0.5000000000000003
 40
0.5000000000000003
 40
0.5312500000000003
 40
0.5312500000000003
 40
0.5625000000000004
 40
0.5625000000000004
 40
0.6250000000000004
 40
0.6250000000000004
 40
0.6562500000000004
 40
0.6562500000000004
 40
0.6875000000000003
 40
0.6875000000000003
 40
0.7500000000000002
 40
0.7500000000000002
 40
0.78125
 40
0.78125
 40
0.8124999999999999
 40
0.8124999999999999
 40
0.8749999999999999
 40
0.8749999999999999
 40
0.9062500000000001
 40
0.9062500000000001
 40
0.9218750000000001
 40
0.9218750000000001
 40
0.9375000000000001
 40
0.9375000000000001
 40
1.0
 40
1.0
 40
1.0
 40
1.0
 10
353.4623042423248
 20
282.0935731726232
 30
0.0
 10
353.4623042423248
 20
282.4180027740149
 30
0.0
 10
353.4623042423248
 20
282.9754324511438
 30
0.0
 10
353.4623042423248
 20
284.1415138751356
 30
0.0
 10
353.4623042423248
 20
284.5885929218579
 30
0.0
 10
353.4623042423248
 20
285.3299934205716
 30
0.0
 10
353.4623042423249
 20
285.5891670892576
 30
0.0
 10
353.4623042423249
 20
286.1305503701084
 30
0.0
 10
353.4623042423249
 20
286.4101809244295
 30
0.0
 10
353.4623042423249
 20
287.0070256326343
 30
0.0
 10
353.4623042423249
 20
287.3244080852457
 30
0.0
 10
353.4623042423248
 20
288.0004183274264
 30
0.0
 10
353.4623042423249
 20
288.35559669855
 30
0.0
 10
353.4623042423249
 20
289.0908030577972
 30
0.0
 10
353.4623042423249
 20
289.4722021424027
 30
0.0
 10
353.4623042423249
 20
290.2621113131916
 30
0.0
 10
353.4623042423248
 20
290.6682368065662
 30
0.0
 10
353.4623042423248
 20
291.4977932426697
 30
0.0
 10
353.4623042423249
 20
291.9220696953031
 30
0.0
 10
353.4623042423249
 20
292.7905391935132
 30
0.0
 10
353.4623042423248
 20
293.2346080457378
 30
0.0
 10
353.4623042423248
 20
294.5760190916101
 30
0.0
 10
353.4623042423249
 20
295.4894007990297
 30
0.0
 10
353.4623042423248
 20
296.8893105192018
 30
0.0
 10
353.4623042423249
 20
297.3609408457596
 30
0.0
 10
353.4623042423249
 20
298.3147167082658
 30
0.0
 10
353.4623042423248
 20
298.7925973290058
 30
0.0
 10
353.4623042423248
 20
300.2189686013414
 30
0.0
 10
353.4623042423248
 20
301.1645097757548
 30
0.0
 10
353.4623042423248
 20
302.574877807129
 30
0.0
 10
353.4623042423248
 20
303.0436737241579
 30
0.0
 10
353.4623042423248
 20
303.9785777358243
 30
0.0
 10
353.4623042423248
 20
304.4454729022626
 30
0.0
 10
353.4623042423248
 20
305.8163401241238
 30
0.0
 10
353.4623042423248
 20
306.699304892183
 30
0.0
 10
353.4623042423248
 20
307.9801434250531
 30
0.0
 10
353.4623042423248
 20
308.3997846110797
 30
0.0
 10
353.4623042423249
 20
309.2245609401774
 30
0.0
 10
353.4623042423248
 20
309.6320525428509
 30
0.0
 10
353.4623042423248
 20
310.8017718921136
 30
0.0
 10
353.4623042423248
 20
311.5065453165183
 30
0.0
 10
353.4623042423248
 20
312.4522354345869
 30
0.0
 10
353.4623042423248
 20
312.7503419833575
 30
0.0
 10
353.4623042423248
 20
313.1627337119114
 30
0.0
 10
353.4623042423248
 20
313.2942135108926
 30
0.0
 10
353.4623042423248
 20
313.5531437040444
 30
0.0
 10
353.4623042423248
 20
313.679687801398
 30
0.0
 10
353.4623042423248
 20
314.2975675758448
 30
0.0
 10
353.4623042423248
 20
314.7441429303846
 30
0.0
 10
353.4623042423248
 20
315.1415094078382
 30
0.0
  0
SPLINE
  5
B6
330
1F
100
AcDbEntity
  8
0
  6
Continuous
 62
     7
370
    15
100
AcDbSpline
210
0.0
220
0.0
230
1.0
 70
     8
 71
     3
 72
    11
 73
     7
 74
     0
 42
0.00000001
 43
0.00000001
 40
0.0
 40
0.0
 40
0.0
 40
0.0
 40
0.0190289559752559
 40
0.0190289559752559
 40
0.0190289559752559
 40
0.0220729019496049
 40
0.0220729019496049
 40
0.0220729019496049
 40
0.0220729019496049
 10
332.5472086378346
 20
289.1478557499458
 30
0.0
 10
338.5578179305469
 20
287.1219344731524
 30
0.0
 10
344.5687540443407
 20
285.0970487310664
 30
0.0
 10
350.5782421000155
 20
283.0678325071258
 30
0.0
 10
351.5395433116811
 20
282.7432311439592
 30
0.0
 10
352.5008066634276
 20
282.4185164642428
 30
0.0
 10
353.4620242700128
 20
282.0936647612245
 30
0.0
  0
LWPOLYLINE
  5
B7
330
1F
100
AcDbEntity
  8
0
  6
Continuous
 62
     7
370
    15
100
AcDbPolyline
 90
        4
 70
   128
 43
0.0
 10
324.1899124313
 20
293.6896484641
 10
324.1899608601
 20
293.6896328608
 10
324.1947441328
 20
293.6880770064
 10
324.1947925616
 20
293.6880614031
  0
SPLINE
  5
B8
330
1F
100
AcDbEntity
  8
0
  6
Continuous
 62
     7
370
    15
100
AcDbSpline
210
0.0
220
0.0
230
1.0
 70
    24
 71
     3
 72
    12
 73
     8
 74
     0
 42
0.00000001
 43
0.00000001
 40
0.0
 40
0.0
 40
0.0
 40
0.0
 40
0.2500000000000001
 40
0.2500000000000001
 40
0.375
 40
0.375
 40
0.4920484059801764
 40
0.4920484059801764
 40
0.4920484059801764
 40
0.4920484059801764
 10
353.4623042423248
 20
315.1415094078382
 30
0.0
 10
353.4623042423248
 20
315.8603984180899
 30
0.0
 10
353.4623042423248
 20
316.4052978221407
 30
0.0
 10
353.4623042423248
 20
316.9667347013676
 30
0.0
 10
353.4623042423248
 20
317.1107068473274
 30
0.0
 10
353.4623042423248
 20
317.2987127297108
 30
0.0
 10
353.4623042423248
 20
317.346988565243
 30
0.0
 10
353.4623042423248
 20
317.3514467483448
 30
0.0
  0
LWPOLYLINE
  5
B9
330
1F
100
AcDbEntity
  8
0
  6
Continuous
 62
     7
370
    15
100
AcDbPolyline
 90
       15
 70
   128
 43
0.0
 10
355.2334959585
 20
316.7376365015
 10
355.2524539608
 20
316.7339931676
 10
354.9718799967
 20
316.7932159701
 10
354.8313955743
 20
316.8274029592
 10
354.6445610899
 20
316.8786685416
 10
354.5063379187
 20
316.9211554775
 10
354.3669748086
 20
316.9681183496
 10
354.2271870155
 20
317.019588823
 10
354.0810476024
 20
317.0783813545
 10
353.9063165862
 20
317.1558040628
 10
353.7069651265
 20
317.2507058332
 10
353.5538258929
 20
317.3178970316
 10
353.5171019811
 20
317.3321090141
 10
353.4622992355
 20
317.3514451334
 10
353.4622992355
 20
317.3514451334
  0
SPLINE
  5
BA
330
1F
100
AcDbEntity
  8
0
  6
Continuous
 62
     7
370
    15
100
AcDbSpline
210
0.0
220
0.0
230
1.0
 70
     8
 71
     3
 72
    26
 73
    22
 74
     0
 42
0.00000001
 43
0.00000001
 40
0.0
 40
0.0
 40
0.0
 40
0.0
 40
0.1250000000000047
 40
0.1250000000000047
 40
0.2500000000000094
 40
0.2500000000000094
 40
0.3125000000000125
 40
0.3125000000000125
 40
0.3437500000000131
 40
0.3437500000000131
 40
0.3750000000000137
 40
0.3750000000000137
 40
0.4375000000000123
 40
0.4375000000000123
 40
0.5000000000000109
 40
0.5000000000000109
 40
0.6250000000000082
 40
0.6250000000000082
 40
0.7500000000000054
 40
0.7500000000000054
 40
1.0
 40
1.0
 40
1.0
 40
1.0
 10
370.4623042423248
 20
266.7896679424418
 30
0.0
 10
370.2923058219886
 20
267.3364188465636
 30
0.0
 10
370.1221833650622
 20
267.8831272821004
 30
0.0
 10
369.7817231852849
 20
268.9764704488005
 30
0.0
 10
369.6124876769376
 20
269.5234825644928
 30
0.0
 10
369.3551818708374
 20
270.3428186300763
 30
0.0
 10
369.2439694432764
 20
270.6072190027226
 30
0.0
 10
369.0404584988028
 20
270.9912565737317
 30
0.0
 10
368.9660293012855
 20
271.1177568407014
 30
0.0
 10
368.80931935773
 20
271.360249985955
 30
0.0
 10
368.7267074220772
 20
271.477006215798
 30
0.0
 10
368.4673965365599
 20
271.815170730213
 30
0.0
 10
368.2793040038059
 20
272.024560803165
 30
0.0
 10
367.8770121251306
 20
272.4158028858972
 30
0.0
 10
367.6601434431805
 20
272.5948392190293
 30
0.0
 10
367.0015623706272
 20
273.1235359779992
 30
0.0
 10
366.5690209316619
 20
273.4828701332166
 30
0.0
 10
365.6991991285453
 20
274.1965397170623
 30
0.0
 10
365.2642892742784
 20
274.5533755944243
 30
0.0
 10
363.9595622989586
 20
275.6238865559476
 30
0.0
 10
363.089730872526
 20
276.3375440874596
 30
0.0
 10
362.219939466278
 20
277.0512505701689
 30
0.0
  0
SPLINE
  5
BB
330
1F
100
AcDbEntity
  8
0
  6
Continuous
 62
     7
370
    15
100
AcDbSpline
210
0.0
220
0.0
230
1.0
 70
     8
 71
     3
 72
    31
 73
    27
 74
     0
 42
0.00000001
 43
0.00000001
 40
0.0
 40
0.0
 40
0.0
 40
0.0
 40
0.0205868031569949
 40
0.0412328219429242
 40
0.0619652142813364
 40
0.0828110828014864
 40
0.1037973929453513
 40
0.1249508943570925
 40
0.1621661916722581
 40
0.2042624592103416
 40
0.2512461418758581
 40
0.2670221415367351
 40
0.2827080365213289
 40
0.3139281885140963
 40
0.3762037059238739
 40
0.4385112361905109
 40
0.5009065732223719
 40
0.5634358572436834
 40
0.6260734306005515
 40
0.6903956502373102
 40
0.7507327669089414
 40
0.7832772067549834
 40
0.8129142880785641
 40
0.8751080970157602
 40
0.9367049649809078
 40
1.0
 40
1.0
 40
1.0
 40
1.0
 10
353.4620363348598
 20
282.0936986786689
 30
0.0
 10
353.5249581720259
 20
282.0677945151871
 30
0.0
 10
353.6509828339613
 20
282.0159116778042
 30
0.0
 10
353.8435418973486
 20
281.9387628905866
 30
0.0
 10
354.0388852328282
 20
281.8619312171314
 30
0.0
 10
354.2372676291803
 20
281.7854233195499
 30
0.0
 10
354.4385746801954
 20
281.709141818465
 30
0.0
 10
354.694075321679
 20
281.6141708142126
 30
0.0
 10
355.0188445318293
 20
281.4950632813017
 30
0.0
 10
355.4275955696483
 20
281.3458863849013
 30
0.0
 10
355.7676063084929
 20
281.2229454496065
 30
0.0
 10
356.0219161220578
 20
281.1306812676374
 30
0.0
 10
356.2228483703351
 20
281.0534390201134
 30
0.0
 10
356.5677375257679
 20
280.9124963981138
 30
0.0
 10
357.0462402384958
 20
280.6956158961277
 30
0.0
 10
357.6055402458587
 20
280.4142890501219
 30
0.0
 10
358.153827630595
 20
280.1118703593422
 30
0.0
 10
358.692243900107
 20
279.7882112146738
 30
0.0
 10
359.2255362107078
 20
279.4400362681881
 30
0.0
 10
359.7415555171734
 20
279.0743231038572
 30
0.0
 10
360.165155610279
 20
278.749605419502
 30
0.0
 10
360.4888898492982
 20
278.4857739663473
 30
0.0
 10
360.8144434594744
 20
278.2121123305825
 30
0.0
 10
361.2203198648122
 20
277.8753929133338
 30
0.0
 10
361.7175193425595
 20
277.4640226594829
 30
0.0
 10
362.0509548403392
 20
277.1900828617468
 30
0.0
 10
362.219939466278
 20
277.0512505701689
 30
0.0
  0
SPLINE
  5
BC
330
1F
100
AcDbEntity
  8
0
  6
Continuous
 62
     7
370
    15
100
AcDbSpline
210
0.0
220
0.0
230
1.0
 70
     8
 71
     3
 72
    41
 73
    37
 74
     0
 42
0.00000001
 43
0.00000001
 40
0.0
 40
0.0
 40
0.0
 40
0.0
 40
0.0625000000000006
 40
0.0625000000000006
 40
0.0937500000000014
 40
0.0937500000000014
 40
0.1250000000000023
 40
0.1250000000000023
 40
0.1562500000000032
 40
0.1562500000000032
 40
0.1875000000000041
 40
0.1875000000000041
 40
0.2500000000000041
 40
0.2500000000000041
 40
0.2812500000000041
 40
0.2812500000000041
 40
0.2968750000000041
 40
0.2968750000000041
 40
0.3125000000000041
 40
0.3750000000000064
 40
0.3750000000000064
 40
0.5000000000000098
 40
0.5000000000000098
 40
0.5312500000000099
 40
0.5312500000000099
 40
0.5625000000000099
 40
0.5625000000000099
 40
0.6250000000000089
 40
0.6250000000000089
 40
0.7500000000000059
 40
0.7500000000000059
 40
0.875000000000003
 40
0.875000000000003
 40
0.9375000000000016
 40
0.9375000000000016
 40
1.0
 40
1.0
 40
1.0
 40
1.0
 10
238.4623042423248
 20
267.2133755114177
 30
0.0
 10
238.4623473207063
 20
267.6241907426814
 30
0.0
 10
238.5300330803608
 20
268.0334140323091
 30
0.0
 10
238.7232919305623
 20
268.6088542321729
 30
0.0
 10
238.8030743456219
 20
268.7954572066888
 30
0.0
 10
238.9940318960989
 20
269.1580934636751
 30
0.0
 10
239.1041761224629
 20
269.3316289389194
 30
0.0
 10
239.3470918401002
 20
269.6557833194687
 30
0.0
 10
239.4805674469872
 20
269.8077608905469
 30
0.0
 10
239.7714376226816
 20
270.0915828057539
 30
0.0
 10
239.9305540670088
 20
270.2245080236723
 30
0.0
 10
240.4300056323293
 20
270.5800084562013
 30
0.0
 10
240.7922372307706
 20
270.7625621966166
 30
0.0
 10
241.3802156177732
 20
270.9533070030642
 30
0.0
 10
241.5796023664607
 20
271.0013788343273
 30
0.0
 10
241.8814528488053
 20
271.0508150371958
 30
0.0
 10
241.9827880555495
 20
271.0626427182681
 30
0.0
 10
242.1851600861352
 20
271.0882555735652
 30
0.0
 10
242.6910923845992
 20
271.1522735799413
 30
0.0
 10
243.1970363341232
 20
271.216217512409
 30
0.0
 10
244.4113299132054
 20
271.369504611324
 30
0.0
 10
245.2208868546562
 20
271.4714602841677
 30
0.0
 10
246.2328864045149
 20
271.5984401932596
 30
0.0
 10
246.4352890514019
 20
271.6238124879882
 30
0.0
 10
246.8401005698693
 20
271.6745032159237
 30
0.0
 10
247.0423827798219
 20
271.7008960669824
 30
0.0
 10
247.6510347926982
 20
271.7648181587776
 30
0.0
 10
248.0601908087109
 20
271.7909361563554
 30
0.0
 10
249.2755437411892
 20
271.8194065664132
 30
0.0
 10
250.0737933858968
 20
271.7730825793548
 30
0.0
 10
251.6480816405089
 20
271.5593745800969
 30
0.0
 10
252.4240895861353
 20
271.39182663421
 30
0.0
 10
253.5713753879041
 20
271.0493206206526
 30
0.0
 10
253.9510579077701
 20
270.9201581120031
 30
0.0
 10
254.7095771068846
 20
270.6572073339212
 30
0.0
 10
255.0881469332309
 20
270.5219499260432
 30
0.0
 10
255.4674600162407
 20
270.390759856122
 30
0.0
  0
SPLINE
  5
BD
330
1F
100
AcDbEntity
  8
0
  6
Continuous
 62
     7
370
    15
100
AcDbSpline
210
0.0
220
0.0
230
1.0
 70
     8
 71
     3
 72
    10
 73
     6
 74
     0
 42
0.00000001
 43
0.00000001
 40
0.0
 40
0.0
 40
0.0
 40
0.0
 40
0.5
 40
0.5
 40
1.0
 40
1.0
 40
1.0
 40
1.0
 10
329.1864337290261
 20
264.1346091462919
 30
0.0
 10
329.1864337290261
 20
264.6424136259432
 30
0.0
 10
329.2345530297104
 20
265.1420145155819
 30
0.0
 10
329.4229945825826
 20
266.1254978726205
 30
0.0
 10
329.5644060777751
 20
266.6119295495122
 30
0.0
 10
329.7522698584762
 20
267.083623755487
 30
0.0
  0
SPLINE
  5
BE
330
1F
100
AcDbEntity
  8
0
  6
Continuous
 62
     7
370
    15
100
AcDbSpline
210
0.0
220
0.0
230
1.0
 70
     8
 71
     3
 72
     8
 73
     4
 74
     0
 42
0.00000001
 43
0.00000001
 40
0.0
 40
0.0
 40
0.0
 40
0.0
 40
1.0
 40
1.0
 40
1.0
 40
1.0
 10
304.2279924036057
 20
292.2333956547375
 30
0.0
 10
304.2279740995328
 20
292.2346244691511
 30
0.0
 10
304.2279207974407
 20
292.2358480348723
 30
0.0
 10
304.2278331006107
 20
292.2370664442832
 30
0.0
  0
SPLINE
  5
BF
330
1F
100
AcDbEntity
  8
0
  6
Continuous
 62
     7
370
    15
100
AcDbSpline
210
0.0
220
0.0
230
1.0
 70
     8
 71
     3
 72
    11
 73
     7
 74
     0
 42
0.00000001
 43
0.00000001
 40
0.0
 40
0.0
 40
0.0
 40
0.0
 40
0.0114551647216725
 40
0.0114551647216725
 40
0.0114551647216725
 40
0.0229086480983116
 40
0.0229086480983116
 40
0.0229086480983116
 40
0.0229086480983116
 10
255.4674372622106
 20
270.3908096166848
 30
0.0
 10
259.070958701539
 20
269.128285059233
 30
0.0
 10
262.6737572622024
 20
267.8637218498912
 30
0.0
 10
266.2763720634142
 20
266.5986260815372
 30
0.0
 10
269.8784581416188
 20
265.3337159797825
 30
0.0
 10
273.4803681521267
 20
264.0682924952427
 30
0.0
 10
277.0825603362917
 20
262.8036397415943
 30
0.0
  0
ARC
  5
C0
330
1F
100
AcDbEntity
  8
0
  6
Continuous
 62
     7
370
    15
100
AcDbCircle
 10
331.9776142021
 20
287.2039638924
 30
0.0
 40
2.025624077288231
100
AcDbArc
 50
73.6685012974
 51
197.9766482448
  0
SPLINE
  5
C1
330
1F
100
AcDbEntity
  8
0
  6
Continuous
 62
     7
370
    15
100
AcDbSpline
210
0.0
220
0.0
230
1.0
 70
     8
 71
     3
 72
    20
 73
    16
 74
     0
 42
0.00000001
 43
0.00000001
 40
0.0
 40
0.0
 40
0.0
 40
0.0
 40
0.2499999999999993
 40
0.2499999999999993
 40
0.3749999999999994
 40
0.3749999999999994
 40
0.4999999999999996
 40
0.4999999999999996
 40
0.6249999999999997
 40
0.6249999999999997
 40
0.7499999999999998
 40
0.7499999999999998
 40
0.8749999999999999
 40
0.8749999999999999
 40
1.0
 40
1.0
 40
1.0
 40
1.0
 10
277.0825603362917
 20
262.8036397415943
 30
0.0
 10
277.4704215429718
 20
262.6653115640521
 30
0.0
 10
277.8275591483802
 20
262.471951766155
 30
0.0
 10
278.3177759310986
 20
262.1003840571409
 30
0.0
 10
278.4719926163567
 20
261.9634818548479
 30
0.0
 10
278.7547837587306
 20
261.6710442272499
 30
0.0
 10
278.8846066718693
 20
261.5145974360443
 30
0.0
 10
279.1207797175856
 20
261.1809543295867
 30
0.0
 10
279.2272605934174
 20
261.0028850887138
 30
0.0
 10
279.4091806361586
 20
260.6377249189715
 30
0.0
 10
279.4857248205633
 20
260.4493058143856
 30
0.0
 10
279.6100035084908
 20
260.0607975723926
 30
0.0
 10
279.6578769765852
 20
259.8592419284965
 30
0.0
 10
279.7215933031969
 20
259.4534201272453
 30
0.0
 10
279.7378115130539
 20
259.2488112348165
 30
0.0
 10
279.7381747556236
 20
259.0424810002358
 30
0.0
  0
LINE
  5
C2
330
1F
100
AcDbEntity
  8
0
  6
Continuous
 62
     7
370
    15
100
AcDbLine
 10
285.4623048533
 20
345.7208625475
 30
0.0
 11
286.7362107117
 21
345.7208625475
 31
0.0
  0
LINE
  5
C3
330
1F
100
AcDbEntity
  8
0
  6
Continuous
 62
     7
370
    15
100
AcDbLine
 10
322.188397773
 20
345.7208625475
 30
0.0
 11
323.4623036314
 21
345.7208625475
 31
0.0
  0
SPLINE
  5
C4
330
1F
100
AcDbEntity
  8
0
  6
Continuous
 62
     7
370
    15
100
AcDbSpline
210
0.0
220
0.0
230
1.0
 70
    24
 71
     3
 72
    14
 73
    10
 74
     0
 42
0.00000001
 43
0.00000001
 40
0.0
 40
0.0
 40
0.0
 40
0.0
 40
0.25
 40
0.25
 40
0.5
 40
0.5
 40
0.75
 40
0.75
 40
1.0
 40
1.0
 40
1.0
 40
1.0
 10
255.4674372622106
 20
270.3908096166848
 30
0.0
 10
255.4555712486358
 20
270.3570604660655
 30
0.0
 10
255.4298130695482
 20
270.2837994116915
 30
0.0
 10
255.3536936728221
 20
270.0673016832023
 30
0.0
 10
255.3033524242738
 20
269.9241218048959
 30
0.0
 10
255.1843242785383
 20
269.5855836098191
 30
0.0
 10
255.1156686070819
 20
269.3903141048375
 30
0.0
 10
254.9685534618356
 20
268.9718912567589
 30
0.0
 10
254.8901325820932
 20
268.7488476823146
 30
0.0
 10
254.8116911240932
 20
268.5257455794765
 30
0.0
  0
SPLINE
  5
C5
330
1F
100
AcDbEntity
  8
0
  6
Continuous
 62
     7
370
    15
100
AcDbSpline
210
0.0
220
0.0
230
1.0
 70
     8
 71
     3
 72
    35
 73
    31
 74
     0
 42
0.00000001
 43
0.00000001
 40
0.0
 40
0.0
 40
0.0
 40
0.0
 40
0.1250000000000001
 40
0.1250000000000001
 40
0.1875000000000001
 40
0.1875000000000001
 40
0.2500000000000001
 40
0.2500000000000001
 40
0.3749999999999999
 40
0.3749999999999999
 40
0.4999999999999999
 40
0.4999999999999999
 40
0.5624999999999992
 40
0.5624999999999992
 40
0.6249999999999984
 40
0.749999999999997
 40
0.749999999999997
 40
0.812499999999997
 40
0.812499999999997
 40
0.8281249999999972
 40
0.8281249999999972
 40
0.8437499999999974
 40
0.8437499999999974
 40
0.8749999999999979
 40
0.8749999999999979
 40
0.9062499999999982
 40
0.9062499999999982
 40
0.9374999999999986
 40
0.9374999999999986
 40
1.0
 40
1.0
 40
1.0
 40
1.0
 10
254.8116817874532
 20
268.5257185751993
 30
0.0
 10
254.2017403549357
 20
268.7366038192778
 30
0.0
 10
253.5938184623718
 20
268.9581750811225
 30
0.0
 10
252.6754491581684
 20
269.2562100562051
 30
0.0
 10
252.367698309456
 20
269.346942127588
 30
0.0
 10
251.7475041757476
 20
269.5035771218129
 30
0.0
 10
251.4352866361875
 20
269.5706745343878
 30
0.0
 10
250.4922556267055
 20
269.7382167107166
 30
0.0
 10
249.8550990949786
 20
269.8050983498509
 30
0.0
 10
248.5629814080073
 20
269.8446517943994
 30
0.0
 10
247.9028959579254
 20
269.8160777585511
 30
0.0
 10
246.9240057366853
 20
269.6981257087195
 30
0.0
 10
246.5980160407664
 20
269.6562216628512
 30
0.0
 10
245.9457702801018
 20
269.5746575949328
 30
0.0
 10
244.967428856586
 20
269.4520879150742
 30
0.0
 10
243.9891492179759
 20
269.328974865754
 30
0.0
 10
243.0109041598314
 20
269.2056173571434
 30
0.0
 10
242.6848283727245
 20
269.1644569400596
 30
0.0
 10
242.2772397366006
 20
269.1129637809476
 30
0.0
 10
242.1954999195617
 20
269.1042180820232
 30
0.0
 10
242.033229604733
 20
269.0782706833729
 30
0.0
 10
241.9527815338069
 20
269.0604926249829
 30
0.0
 10
241.7136190962152
 20
268.9919026827833
 30
0.0
 10
241.5610079076476
 20
268.9267518870359
 30
0.0
 10
241.277669273972
 20
268.7620608390331
 30
0.0
 10
241.1436796130227
 20
268.6601877398915
 30
0.0
 10
240.9091534027391
 20
268.4297056760248
 30
0.0
 10
240.8075293100035
 20
268.3013460436321
 30
0.0
 10
240.5527691001179
 20
267.8742312310519
 30
0.0
 10
240.4623050693996
 20
267.5465834408458
 30
0.0
 10
240.4623042423306
 20
267.2129794648098
 30
0.0
  0
SPLINE
  5
C6
330
1F
100
AcDbEntity
  8
0
  6
Continuous
 62
     7
370
    15
100
AcDbSpline
210
0.0
220
0.0
230
1.0
 70
     8
 71
     3
 72
    14
 73
    10
 74
     0
 42
0.00000001
 43
0.00000001
 40
0.0
 40
0.0
 40
0.0
 40
0.0
 40
0.25
 40
0.25
 40
0.5
 40
0.5
 40
0.75
 40
0.75
 40
1.0
 40
1.0
 40
1.0
 40
1.0
 10
240.4623042423307
 20
267.2129794648098
 30
0.0
 10
240.2005082946169
 20
267.2130124686939
 30
0.0
 10
239.9388153470351
 20
267.2130454725778
 30
0.0
 10
239.4550784775321
 20
267.2131114803458
 30
0.0
 10
239.2332248754455
 20
267.2131444842298
 30
0.0
 10
238.862985674709
 20
267.2132104919978
 30
0.0
 10
238.7147457417462
 20
267.2132434958818
 30
0.0
 10
238.5143683096516
 20
267.2133095036497
 30
0.0
 10
238.462309646354
 20
267.2133425075337
 30
0.0
 10
238.4623042427508
 20
267.2133755114177
 30
0.0
  0
LWPOLYLINE
  5
C7
330
1F
100
AcDbEntity
  8
0
  6
Continuous
 62
     7
370
    15
100
AcDbPolyline
 90
        9
 70
   128
 43
0.0
 10
329.7522700358
 20
267.0836239556
 10
329.8266752589
 20
267.0537992814
 10
329.9576955814
 20
267.0012801388
 10
330.1411307383
 20
266.9277522215
 10
330.3710929085
 20
266.835575501
 10
330.640206017
 20
266.7277022699
 10
330.9398385663
 20
266.6075989107
 10
331.2603774447
 20
266.4791136483
 10
331.5915408511
 20
266.3463703791
  0
SPLINE
  5
C8
330
1F
100
AcDbEntity
  8
0
  6
Continuous
 62
     7
370
    15
100
AcDbSpline
210
0.0
220
0.0
230
1.0
 70
     8
 71
     3
 72
     8
 73
     4
 74
     0
 42
0.00000001
 43
0.00000001
 40
0.0
 40
0.0
 40
0.0
 40
0.0
 40
1.0
 40
1.0
 40
1.0
 40
1.0
 10
331.5915400851055
 20
266.3463701031883
 30
0.0
 10
331.3070221577235
 20
265.6365664268766
 30
0.0
 10
331.1643640879622
 20
264.8993641630527
 30
0.0
 10
331.1643640879622
 20
264.134609146292
 30
0.0
  0
SPLINE
  5
C9
330
1F
100
AcDbEntity
  8
0
  6
Continuous
 62
     7
370
    15
100
AcDbSpline
210
0.0
220
0.0
230
1.0
 70
     8
 71
     3
 72
    12
 73
     8
 74
     0
 42
0.00000001
 43
0.00000001
 40
0.0
 40
0.0
 40
0.0
 40
0.0
 40
0.2500000000000002
 40
0.2500000000000002
 40
0.5000000000000003
 40
0.5000000000000003
 40
1.0
 40
1.0
 40
1.0
 40
1.0
 10
362.219939466278
 20
277.0512505701688
 30
0.0
 10
359.69700209915
 20
277.9100330639486
 30
0.0
 10
357.1713666402748
 20
278.7608225511984
 30
0.0
 10
352.1202415330595
 20
280.4628334845303
 30
0.0
 10
349.5943631267637
 20
281.3129038064239
 30
0.0
 10
342.0163226441
 20
283.8619082572731
 30
0.0
 10
336.9637908067005
 20
285.5597433953857
 30
0.0
 10
331.9118628080691
 20
287.2593740409944
 30
0.0
  0
SPLINE
  5
CA
330
1F
100
AcDbEntity
  8
0
  6
Continuous
 62
     7
370
    15
100
AcDbSpline
210
0.0
220
0.0
230
1.0
 70
     8
 71
     3
 72
    12
 73
     8
 74
     0
 42
0.00000001
 43
0.00000001
 40
0.0
 40
0.0
 40
0.0
 40
0.0
 40
0.4999999999999967
 40
0.4999999999999967
 40
0.7499999999999983
 40
0.7499999999999983
 40
1.0
 40
1.0
 40
1.0
 40
1.0
 10
277.7602443966875
 20
259.0424810002358
 30
0.0
 10
277.7602443966875
 20
259.4561667545177
 30
0.0
 10
277.6277163068515
 20
259.8634010453206
 30
0.0
 10
277.2695209249082
 20
260.3631727784767
 30
0.0
 10
277.1253280057646
 20
260.510263051667
 30
0.0
 10
276.795708020398
 20
260.756709905353
 30
0.0
 10
276.615805242652
 20
260.8526977679572
 30
0.0
 10
276.4207209475022
 20
260.921289945088
 30
0.0
  0
LWPOLYLINE
  5
CB
330
1F
100
AcDbEntity
  8
0
  6
Continuous
 62
     7
370
    15
100
AcDbPolyline
 90
        9
 70
   128
 43
0.0
 10
276.4207216877
 20
260.921289722
 10
276.5445689637
 20
261.2735270956
 10
276.6640613753
 20
261.6133816043
 10
276.7749986578
 20
261.9288987914
 10
276.8734785695
 20
262.2089847425
 10
276.9560384531
 20
262.4437972406
 10
277.0197763074
 20
262.6250754544
 10
277.0624513704
 20
262.7464454124
 10
277.0825604875
 20
262.8036397943
  0
LINE
  5
CC
330
1F
100
AcDbEntity
  8
0
  6
Continuous
 62
     7
370
    15
100
AcDbLine
 10
277.7602448095
 20
259.0424805382
 30
0.0
 11
279.7381746549
 21
259.0424805382
 31
0.0
  0
LINE
  5
CD
330
1F
100
AcDbEntity
  8
0
  6
Continuous
 62
     7
370
    15
100
AcDbLine
 10
240.4623012025
 20
267.2129790732
 30
0.0
 11
240.4623012025
 21
248.7208596865
 31
0.0
  0
ARC
  5
CE
330
1F
100
AcDbEntity
  8
0
  6
Continuous
 62
     7
370
    15
100
AcDbCircle
 10
240.4623042423
 20
246.7208614746
 30
0.0
 40
2.0
100
AcDbArc
 50
90.0
 51
180.0
  0
ARC
  5
CF
330
1F
100
AcDbEntity
  8
0
  6
Continuous
 62
     7
370
    15
100
AcDbCircle
 10
351.4623042423
 20
234.7208614746
 30
0.0
 40
2.0
100
AcDbArc
 50
180.0
 51
270.0
  0
ARC
  5
D0
330
1F
100
AcDbEntity
  8
0
  6
Continuous
 62
     7
370
    15
100
AcDbCircle
 10
257.4623042423
 20
234.7208614746
 30
0.0
 40
2.000000000000028
100
AcDbArc
 50
270.0
 51
0.0
  0
SPLINE
  5
D1
330
1F
100
AcDbEntity
  8
0
  6
Continuous
 62
     7
370
    15
100
AcDbSpline
210
0.0
220
0.0
230
1.0
 70
     8
 71
     3
 72
    11
 73
     7
 74
     0
 42
0.00000001
 43
0.00000001
 40
0.0
 40
0.0
 40
0.0
 40
0.0
 40
0.0114540158096806
 40
0.0114540158096806
 40
0.0114540158096806
 40
0.0229080316498864
 40
0.0229080316498864
 40
0.0229080316498864
 40
0.0229080316498864
 10
276.4207209475022
 20
260.921289945088
 30
0.0
 10
272.8188684566485
 20
262.1877112316533
 30
0.0
 10
269.2174980439227
 20
263.455503381051
 30
0.0
 10
265.6161703545847
 20
264.723416278273
 30
0.0
 10
262.0148426461893
 20
265.9913291822045
 30
0.0
 10
258.4135530189106
 20
267.2593509783057
 30
0.0
 10
254.8116911240932
 20
268.5257455794765
 30
0.0
  0
ARC
  5
D2
330
1F
100
AcDbEntity
  8
0
  6
Continuous
 62
     7
370
    15
100
AcDbCircle
 10
304.4623042423
 20
277.2208614746
 30
0.0
 40
29.22755549135092
100
AcDbArc
 50
338.1570970647
 51
20.0878509015
  0
ARC
  5
D3
330
1F
100
AcDbEntity
  8
0
  6
Continuous
 62
     7
370
    15
100
AcDbCircle
 10
254.4623042423
 20
243.7208614746
 30
0.0
 40
5.000000000000085
100
AcDbArc
 50
0.0
 51
90.0
  0
LINE
  5
D4
330
1F
100
AcDbEntity
  8
0
  6
Continuous
 62
     7
370
    15
100
AcDbLine
 10
240.4623012025
 20
248.7208596865
 30
0.0
 11
254.4623034973
 21
248.7208596865
 31
0.0
  0
LINE
  5
D5
330
1F
100
AcDbEntity
  8
0
  6
Continuous
 62
     7
370
    15
100
AcDbLine
 10
259.4623024542
 20
243.7208607295
 30
0.0
 11
259.4623024542
 21
234.720861117
 31
0.0
  0
ARC
  5
D6
330
1F
100
AcDbEntity
  8
0
  6
Continuous
 62
     7
370
    15
100
AcDbCircle
 10
368.4623042423
 20
246.7208614746
 30
0.0
 40
2.0
100
AcDbArc
 50
0.0
 51
90.0
  0
LINE
  5
D7
330
1F
100
AcDbEntity
  8
0
  6
Continuous
 62
     7
370
    15
100
AcDbLine
 10
354.4623049874
 20
248.7208596865
 30
0.0
 11
368.4623072822
 21
248.7208596865
 31
0.0
  0
ARC
  5
D8
330
1F
100
AcDbEntity
  8
0
  6
Continuous
 62
     7
370
    15
100
AcDbCircle
 10
354.4623042423
 20
243.7208614746
 30
0.0
 40
5.000000000000028
100
AcDbArc
 50
90.0
 51
180.0
  0
LINE
  5
D9
330
1F
100
AcDbEntity
  8
0
  6
Continuous
 62
     7
370
    15
100
AcDbLine
 10
349.4623060305
 20
234.720861117
 30
0.0
 11
349.4623060305
 21
243.7208607295
 31
0.0
  0
LINE
  5
DA
330
1F
100
AcDbEntity
  8
0
  6
Continuous
 62
     8
370
    15
100
AcDbLine
 10
304.9239365118
 20
384.3282289306
 30
0.0
 11
300.4623040523
 21
384.3282289306
 31
0.0
  0
LINE
  5
DB
330
1F
100
AcDbEntity
  8
0
  6
Continuous
 62
     8
370
    15
100
AcDbLine
 10
308.4623044323
 20
384.3282289306
 30
0.0
 11
304.9239365118
 21
384.3282289306
 31
0.0
  0
LINE
  5
DC
330
1F
100
AcDbEntity
  8
0
  6
Continuous
 62
     8
370
    15
100
AcDbLine
 10
304.9082067936
 20
385.3635020057
 30
0.0
 11
300.5986010157
 21
385.3635020057
 31
0.0
  0
LINE
  5
DD
330
1F
100
AcDbEntity
  8
0
  6
Continuous
 62
     8
370
    15
100
AcDbLine
 10
308.326007469
 20
385.3635020057
 30
0.0
 11
304.9082067936
 21
385.3635020057
 31
0.0
  0
LINE
  5
DE
330
1F
100
AcDbEntity
  8
0
  6
Continuous
 62
     8
370
    15
100
AcDbLine
 10
304.8819622399
 20
386.2121976415
 30
0.0
 11
300.8260076366
 21
386.2121976415
 31
0.0
  0
LINE
  5
DF
330
1F
100
AcDbEntity
  8
0
  6
Continuous
 62
     8
370
    15
100
AcDbLine
 10
308.098600848
 20
386.2121976415
 30
0.0
 11
304.8819622399
 21
386.2121976415
 31
0.0
  0
LINE
  5
E0
330
1F
100
AcDbEntity
  8
0
  6
Continuous
 62
     8
370
    15
100
AcDbLine
 10
304.8662324926
 20
387.2474707166
 30
0.0
 11
300.9623041343
 21
387.2474707166
 31
0.0
  0
LINE
  5
E1
330
1F
100
AcDbEntity
  8
0
  6
Continuous
 62
     8
370
    15
100
AcDbLine
 10
307.9623043504
 20
387.2474707166
 30
0.0
 11
304.8662324926
 21
387.2474707166
 31
0.0
  0
LINE
  5
E2
330
1F
100
AcDbEntity
  8
0
  6
Continuous
 62
     8
370
    15
100
AcDbLine
 10
287.1834038723
 20
236.7208614448
 30
0.0
 11
322.9788093794
 21
236.7208614448
 31
0.0
  0
LINE
  5
E3
330
1F
100
AcDbEntity
  8
0
  6
Continuous
 62
     8
370
    15
100
AcDbLine
 10
284.1107509065
 20
328.7158399323
 30
0.0
 11
293.0099078421
 21
328.7158399323
 31
0.0
  0
LINE
  5
E4
330
1F
100
AcDbEntity
  8
0
  6
Continuous
 62
     8
370
    15
100
AcDbLine
 10
315.9291193787
 20
328.7158399323
 30
0.0
 11
324.8138575781
 21
328.7158399323
 31
0.0
  0
LINE
  5
E5
330
1F
100
AcDbEntity
  8
0
  6
Continuous
 62
     8
370
    15
100
AcDbLine
 10
279.7381746549
 20
259.0424805382
 30
0.0
 11
279.7381746549
 21
242.7208624283
 31
0.0
  0
LINE
  5
E6
330
1F
100
AcDbEntity
  8
0
  6
Continuous
 62
     8
370
    15
100
AcDbLine
 10
329.1864338297
 20
242.7208624283
 30
0.0
 11
329.1864338297
 21
264.1346096495
 31
0.0
  0
LINE
  5
E7
330
1F
100
AcDbEntity
  8
0
  6
Continuous
 62
     8
370
    15
100
AcDbLine
 10
284.7571837682
 20
330.2663653591
 30
0.0
 11
291.7911400054
 21
330.2663653591
 31
0.0
  0
LINE
  5
E8
330
1F
100
AcDbEntity
  8
0
  6
Continuous
 62
     8
370
    15
100
AcDbLine
 10
317.1367346276
 20
330.2663653591
 30
0.0
 11
324.1674247164
 21
330.2663653591
 31
0.0
  0
LINE
  5
E9
330
1F
100
AcDbEntity
  8
0
  6
Continuous
 62
     8
370
    15
100
AcDbLine
 10
338.9788101394
 20
234.720861117
 30
0.0
 11
349.4623060305
 21
234.720861117
 31
0.0
  0
LINE
  5
EA
330
1F
100
AcDbEntity
  8
0
  6
Continuous
 62
     8
370
    15
100
AcDbLine
 10
259.4623024542
 20
234.720861117
 30
0.0
 11
268.7081973035
 21
234.720861117
 31
0.0
  0
LINE
  5
EB
330
1F
100
AcDbEntity
  8
0
  6
Continuous
 62
     8
370
    15
100
AcDbLine
 10
277.7602448095
 20
242.7208624283
 30
0.0
 11
277.7602448095
 21
259.0424805382
 31
0.0
  0
LINE
  5
EC
330
1F
100
AcDbEntity
  8
0
  6
Continuous
 62
     8
370
    15
100
AcDbLine
 10
331.1643636752
 20
264.1346096495
 30
0.0
 11
331.1643636752
 21
242.7208624283
 31
0.0
  0
LINE
  5
ED
330
1F
100
AcDbEntity
  8
1
100
AcDbLine
 10
301.1108012935
 20
333.2237815771
 30
0.0
 11
307.8138071911
 21
333.2237815771
 31
0.0
  0
LINE
  5
EE
330
1F
100
AcDbEntity
  8
1
100
AcDbLine
 10
277.7602443967
 20
243.141674317
 30
0.0
 11
277.7602443967
 21
232.7208614746
 31
0.0
  0
LINE
  5
EF
330
1F
100
AcDbEntity
  8
1
100
AcDbLine
 10
285.9182056166
 20
295.2634069308
 30
0.0
 11
320.5952292781
 21
295.2634069308
 31
0.0
  0
LINE
  5
F0
330
1F
100
AcDbEntity
  8
1
100
AcDbLine
 10
304.4623042423
 20
217.7208614746
 30
0.0
 11
275.4457999478
 21
217.7208614746
 31
0.0
  0
LINE
  5
F1
330
1F
100
AcDbEntity
  8
1
100
AcDbLine
 10
304.4623042423
 20
217.7208614746
 30
0.0
 11
333.4788085368
 21
217.7208614746
 31
0.0
  0
LINE
  5
F2
330
1F
100
AcDbEntity
  8
1
100
AcDbLine
 10
336.4788085368
 20
220.7208614746
 30
0.0
 11
333.4788085368
 21
217.7208614746
 31
0.0
  0
LINE
  5
F3
330
1F
100
AcDbEntity
  8
1
100
AcDbLine
 10
272.4457999478
 20
220.7208614746
 30
0.0
 11
275.4457999478
 21
217.7208614746
 31
0.0
  0
LINE
  5
F4
330
1F
100
AcDbEntity
  8
1
100
AcDbLine
 10
279.7381747556
 20
245.2749641695
 30
0.0
 11
279.7381747556
 21
232.7208614746
 31
0.0
  0
LINE
  5
F5
330
1F
100
AcDbEntity
  8
1
100
AcDbLine
 10
329.186433729
 20
248.5781226507
 30
0.0
 11
329.186433729
 21
232.7208614746
 31
0.0
  0
LINE
  5
F6
330
1F
100
AcDbEntity
  8
1
100
AcDbLine
 10
266.7556104848
 20
234.7208614746
 30
0.0
 11
344.1045715858
 21
234.7208614746
 31
0.0
  0
ARC
  5
F7
330
1F
100
AcDbEntity
  8
1
100
AcDbCircle
 10
304.4615443274
 20
334.4985580883
 30
0.0
 40
9.304925999702595
100
AcDbArc
 50
211.2819690221
 51
328.7303912564
  0
ARC
  5
F8
330
1F
100
AcDbEntity
  8
1
100
AcDbCircle
 10
285.9182056166
 20
305.5165151525
 30
0.0
 40
10.25310822173151
100
AcDbArc
 50
215.6263428663
 51
270.0
  0
ARC
  5
F9
330
1F
100
AcDbEntity
  8
1
100
AcDbCircle
 10
319.426476627
 20
283.1338922583
 30
0.0
 40
12.18569279729964
100
AcDbArc
 50
25.8893131323
 51
84.4961938947
  0
LINE
  5
FA
330
1F
100
AcDbEntity
  8
0
  6
Continuous
 62
     7
370
    15
100
AcDbLine
 10
513.8568543925
 20
358.7208590904
 30
0.0
 11
513.8568543925
 21
384.3282289306
 31
0.0
  0
LINE
  5
FB
330
1F
100
AcDbEntity
  8
0
  6
Continuous
 62
     7
370
    15
100
AcDbLine
 10
505.8568540125
 20
384.3282289306
 30
0.0
 11
505.8568540125
 21
358.7208590904
 31
0.0
  0
ARC
  5
FC
330
1F
100
AcDbEntity
  8
0
  6
Continuous
 62
     7
370
    15
100
AcDbCircle
 10
509.8568542025
 20
384.3282260805
 30
0.0
 40
4.0
100
AcDbArc
 50
165.0
 51
180.0
  0
ARC
  5
FD
330
1F
100
AcDbEntity
  8
0
  6
Continuous
 62
     7
370
    15
100
AcDbCircle
 10
509.8568542025
 20
384.3282260805
 30
0.0
 40
4.000000000000057
100
AcDbArc
 50
0.0
 51
15.0
  0
LINE
  5
FE
330
1F
100
AcDbEntity
  8
0
  6
Continuous
 62
     7
370
    15
100
AcDbLine
 10
513.7205574291
 20
385.3635020057
 30
0.0
 11
513.4931508082
 21
386.2121976415
 31
0.0
  0
LINE
  5
FF
330
1F
100
AcDbEntity
  8
0
  6
Continuous
 62
     7
370
    15
100
AcDbLine
 10
506.2205575968
 20
386.2121976415
 30
0.0
 11
505.9931509758
 21
385.3635020057
 31
0.0
  0
ARC
  5
100
330
1F
100
AcDbEntity
  8
0
  6
Continuous
 62
     7
370
    15
100
AcDbCircle
 10
517.3568542025
 20
387.2474714649
 30
0.0
 40
4.0
100
AcDbArc
 50
180.0
 51
195.0
  0
ARC
  5
101
330
1F
100
AcDbEntity
  8
0
  6
Continuous
 62
     7
370
    15
100
AcDbCircle
 10
502.3568542025
 20
387.2474714649
 30
0.0
 40
4.0
100
AcDbArc
 50
345.0
 51
0.0
  0
LINE
  5
102
330
1F
100
AcDbEntity
  8
0
  6
Continuous
 62
     7
370
    15
100
AcDbLine
 10
513.3568543105
 20
387.2474707166
 30
0.0
 11
513.3568543105
 21
390.2208633223
 31
0.0
  0
LINE
  5
103
330
1F
100
AcDbEntity
  8
0
  6
Continuous
 62
     7
370
    15
100
AcDbLine
 10
506.3568540944
 20
390.2208633223
 30
0.0
 11
506.3568540944
 21
387.2474707166
 31
0.0
  0
LINE
  5
104
330
1F
100
AcDbEntity
  8
0
  6
Continuous
 62
     7
370
    15
100
AcDbLine
 10
513.3568543105
 20
406.1708650986
 30
0.0
 11
513.3568543105
 21
408.1708617011
 31
0.0
  0
LINE
  5
105
330
1F
100
AcDbEntity
  8
0
  6
Continuous
 62
     7
370
    15
100
AcDbLine
 10
506.3568540944
 20
408.1708617011
 30
0.0
 11
506.3568540944
 21
406.1708650986
 31
0.0
  0
LINE
  5
106
330
1F
100
AcDbEntity
  8
0
  6
Continuous
 62
     7
370
    15
100
AcDbLine
 10
513.3568543105
 20
408.1708617011
 30
0.0
 11
511.8068541496
 21
409.7208581367
 31
0.0
  0
LINE
  5
107
330
1F
100
AcDbEntity
  8
0
  6
Continuous
 62
     7
370
    15
100
AcDbLine
 10
507.9068542554
 20
409.7208581367
 30
0.0
 11
506.3568540944
 21
408.1708617011
 31
0.0
  0
LINE
  5
108
330
1F
100
AcDbEntity
  8
0
  6
Continuous
 62
     7
370
    15
100
AcDbLine
 10
513.3568543105
 20
393.2208619514
 30
0.0
 11
513.3568543105
 21
403.1208581725
 31
0.0
  0
LINE
  5
109
330
1F
100
AcDbEntity
  8
0
  6
Continuous
 62
     7
370
    15
100
AcDbLine
 10
506.3568540944
 20
403.1208581725
 30
0.0
 11
506.3568540944
 21
393.2208619514
 31
0.0
  0
LINE
  5
10A
330
1F
100
AcDbEntity
  8
0
  6
Continuous
 62
     7
370
    15
100
AcDbLine
 10
512.8568542285
 20
390.2208633223
 30
0.0
 11
512.8568542285
 21
393.2208619514
 31
0.0
  0
LINE
  5
10B
330
1F
100
AcDbEntity
  8
0
  6
Continuous
 62
     7
370
    15
100
AcDbLine
 10
506.8568541764
 20
393.2208619514
 30
0.0
 11
506.8568541764
 21
390.2208633223
 31
0.0
  0
LINE
  5
10C
330
1F
100
AcDbEntity
  8
0
  6
Continuous
 62
     7
370
    15
100
AcDbLine
 10
511.8068541496
 20
403.1208581725
 30
0.0
 11
511.8068541496
 21
406.1708650986
 31
0.0
  0
LINE
  5
10D
330
1F
100
AcDbEntity
  8
0
  6
Continuous
 62
     7
370
    15
100
AcDbLine
 10
507.9068542554
 20
406.1708650986
 30
0.0
 11
507.9068542554
 21
403.1208581725
 31
0.0
  0
LINE
  5
10E
330
1F
100
AcDbEntity
  8
0
  6
Continuous
 62
     7
370
    15
100
AcDbLine
 10
524.8368546462
 20
345.7208625475
 30
0.0
 11
524.8368546462
 21
358.7208590904
 31
0.0
  0
LINE
  5
10F
330
1F
100
AcDbEntity
  8
0
  6
Continuous
 62
     7
370
    15
100
AcDbLine
 10
494.8768537587
 20
358.7208590904
 30
0.0
 11
494.8768537587
 21
345.7208625475
 31
0.0
  0
SPLINE
  5
110
330
1F
100
AcDbEntity
  8
0
  6
Continuous
 62
     7
370
    15
100
AcDbSpline
210
0.0
220
0.0
230
1.0
 70
     8
 71
     3
 72
    10
 73
     6
 74
     0
 42
0.00000001
 43
0.00000001
 40
0.0
 40
0.0
 40
0.0
 40
0.0
 40
0.0983044332476618
 40
0.5341525440299497
 40
1.0
 40
1.0
 40
1.0
 40
1.0
 10
520.5265671110316
 20
300.233413508704
 30
0.0
 10
520.5216949317767
 20
300.2409918505403
 30
0.0
 10
520.4952211822417
 20
300.282169958563
 30
0.0
 10
520.6152465782054
 20
300.0883823269261
 30
0.0
 10
520.7170726480564
 20
299.9092954123162
 30
0.0
 10
520.7696795559092
 20
299.8167728507725
 30
0.0
  0
SPLINE
  5
111
330
1F
100
AcDbEntity
  8
0
  6
Continuous
 62
     7
370
    15
100
AcDbSpline
210
0.0
220
0.0
230
1.0
 70
     8
 71
     3
 72
    33
 73
    29
 74
     0
 42
0.00000001
 43
0.00000001
 40
0.0
 40
0.0
 40
0.0
 40
0.0
 40
0.0409959668046777
 40
0.0798112111977743
 40
0.1145201184804883
 40
0.1439627642188281
 40
0.1569299663830112
 40
0.1692689613821165
 40
0.1817902401827474
 40
0.1951997019874701
 40
0.2253793440506696
 40
0.2590316076265602
 40
0.2933978503811522
 40
0.3259072488763374
 40
0.387921200248159
 40
0.4476275661726801
 40
0.5079616136041835
 40
0.569391952105898
 40
0.6305987048289626
 40
0.6920309253195093
 40
0.7542481764629112
 40
0.8164213369504657
 40
0.846891140280758
 40
0.8773584109759267
 40
0.9076381769185327
 40
0.9380593853811857
 40
0.9688931377283295
 40
1.0
 40
1.0
 40
1.0
 40
1.0
 10
522.3568236550851
 20
293.7525618724067
 30
0.0
 10
522.3568519894183
 20
293.7320229129708
 30
0.0
 10
522.3569071508798
 20
293.6920375349667
 30
0.0
 10
522.3559922237505
 20
293.5652294782832
 30
0.0
 10
522.3499234497802
 20
293.308630961691
 30
0.0
 10
522.3298935633887
 20
292.9052451498213
 30
0.0
 10
522.2832365588825
 20
292.4145888686008
 30
0.0
 10
522.2265013095385
 20
291.9713075399368
 30
0.0
 10
522.1365937695173
 20
291.4385944214422
 30
0.0
 10
521.9582355650955
 20
290.6156904349523
 30
0.0
 10
521.6164713440303
 20
289.4832782622902
 30
0.0
 10
521.0314716368732
 20
288.1326444261416
 30
0.0
 10
520.2728697618962
 20
286.8363254744471
 30
0.0
 10
519.1056236297064
 20
285.2821838367553
 30
0.0
 10
517.3909836804688
 20
283.6565536516773
 30
0.0
 10
514.9989982287195
 20
282.2366807152493
 30
0.0
 10
512.3618084815713
 20
281.3725315970627
 30
0.0
 10
509.574484459844
 20
281.1172574704103
 30
0.0
 10
506.7854641811598
 20
281.5020234865037
 30
0.0
 10
504.1417143474148
 20
282.5073330901363
 30
0.0
 10
501.7851121843462
 20
284.0830332654126
 30
0.0
 10
500.1738598571444
 20
285.7931772715101
 30
0.0
 10
499.1281610642001
 20
287.3390639170801
 30
0.0
 10
498.478960727641
 20
288.5655766172263
 30
0.0
 10
497.9708246990065
 20
289.8511785344991
 30
0.0
 10
497.6153078264556
 20
291.1588406803652
 30
0.0
 10
497.3970540949892
 20
292.4670003940445
 30
0.0
 10
497.3702908939025
 20
293.3380837509833
 30
0.0
 10
497.3568502909108
 20
293.7755458294305
 30
0.0
  0
SPLINE
  5
112
330
1F
100
AcDbEntity
  8
0
  6
Continuous
 62
     7
370
    15
100
AcDbSpline
210
0.0
220
0.0
230
1.0
 70
     8
 71
     3
 72
    15
 73
    11
 74
     0
 42
0.00000001
 43
0.00000001
 40
0.0
 40
0.0
 40
0.0
 40
0.0
 40
0.0730688539919586
 40
0.1288060296708691
 40
0.1815756402003346
 40
0.2602756553203299
 40
0.3791415695426684
 40
0.5391550234141428
 40
0.7440200120147796
 40
0.9999999999999999
 40
0.9999999999999999
 40
0.9999999999999999
 40
0.9999999999999999
 10
521.7615222653909
 20
295.7600739752707
 30
0.0
 10
521.7591884966707
 20
295.7525185471471
 30
0.0
 10
521.7550745210625
 20
295.7391998122021
 30
0.0
 10
521.7818295567951
 20
295.6620632956225
 30
0.0
 10
521.895513351752
 20
295.3228226042792
 30
0.0
 10
521.9708993759155
 20
295.0642932333748
 30
0.0
 10
522.0588708384709
 20
294.7791861342219
 30
0.0
 10
522.1943765866921
 20
294.4870156516019
 30
0.0
 10
522.3276790424284
 20
294.1027855481606
 30
0.0
 10
522.3403860805734
 20
293.7142063368699
 30
0.0
 10
522.3474443054362
 20
293.4983669399117
 30
0.0
  0
LINE
  5
113
330
1F
100
AcDbEntity
  8
0
  6
Continuous
 62
     7
370
    15
100
AcDbLine
 10
459.8568534574
 20
232.7208607891
 30
0.0
 11
459.8568534574
 21
220.7208625475
 31
0.0
  0
LINE
  5
114
330
1F
100
AcDbEntity
  8
0
  6
Continuous
 62
     7
370
    15
100
AcDbLine
 10
559.8568549475
 20
220.7208625475
 30
0.0
 11
559.8568549475
 21
232.7208607891
 31
0.0
  0
SPLINE
  5
115
330
1F
100
AcDbEntity
  8
0
  6
Continuous
 62
     7
370
    15
100
AcDbSpline
210
0.0
220
0.0
230
1.0
 70
     8
 71
     3
 72
     9
 73
     5
 74
     0
 42
0.00000001
 43
0.00000001
 40
0.0
 40
0.0
 40
0.0
 40
0.0
 40
0.8014610697155135
 40
1.0
 40
1.0
 40
1.0
 40
1.0
 10
518.7713351196213
 20
289.3451578417626
 30
0.0
 10
519.4830260806002
 20
289.289155053065
 30
0.0
 10
520.3710180091806
 20
289.2192791840879
 30
0.0
 10
521.2403178717957
 20
289.1122630734286
 30
0.0
 10
521.4129077366157
 20
289.0910162092951
 30
0.0
  0
SPLINE
  5
116
330
1F
100
AcDbEntity
  8
0
  6
Continuous
 62
     7
370
    15
100
AcDbSpline
210
0.0
220
0.0
230
1.0
 70
     8
 71
     3
 72
     9
 73
     5
 74
     0
 42
0.00000001
 43
0.00000001
 40
0.0
 40
0.0
 40
0.0
 40
0.0
 40
0.5232537376907862
 40
1.0
 40
1.0
 40
1.0
 40
1.0
 10
498.2930539271399
 20
289.1041520485488
 30
0.0
 10
498.7628756417332
 20
289.156267230001
 30
0.0
 10
499.6607607035135
 20
289.2558655275349
 30
0.0
 10
500.5668649911814
 20
289.3258899949267
 30
0.0
 10
500.9988468235894
 20
289.3592738980261
 30
0.0
  0
LINE
  5
117
330
1F
100
AcDbEntity
  8
0
  6
Continuous
 62
     7
370
    15
100
AcDbLine
 10
477.8568526825
 20
220.7208625475
 30
0.0
 11
478.521396043
 21
220.0563229123
 31
0.0
  0
LINE
  5
118
330
1F
100
AcDbEntity
  8
0
  6
Continuous
 62
     7
370
    15
100
AcDbLine
 10
541.1923123619
 20
220.0563229123
 30
0.0
 11
541.8568557224
 21
220.7208625475
 31
0.0
  0
LINE
  5
119
330
1F
100
AcDbEntity
  8
0
  6
Continuous
 62
     7
370
    15
100
AcDbLine
 10
484.8568538299
 20
264.1346096495
 30
0.0
 11
484.8568538299
 21
261.917562733
 31
0.0
  0
LINE
  5
11A
330
1F
100
AcDbEntity
  8
0
  6
Continuous
 62
     7
370
    15
100
AcDbLine
 10
484.8568538299
 20
250.4195920626
 30
0.0
 11
484.8568538299
 21
242.7208624283
 31
0.0
  0
LINE
  5
11B
330
1F
100
AcDbEntity
  8
0
  6
Continuous
 62
     7
370
    15
100
AcDbLine
 10
534.856854575
 20
242.7208624283
 30
0.0
 11
534.856854575
 21
250.4195920626
 31
0.0
  0
LINE
  5
11C
330
1F
100
AcDbEntity
  8
0
  6
Continuous
 62
     7
370
    15
100
AcDbLine
 10
534.856854575
 20
261.917562733
 30
0.0
 11
534.856854575
 21
264.1346096495
 31
0.0
  0
LINE
  5
11D
330
1F
100
AcDbEntity
  8
0
  6
Continuous
 62
     7
370
    15
100
AcDbLine
 10
474.766493412
 20
345.7208625475
 30
0.0
 11
474.766493412
 21
334.249840627
 31
0.0
  0
ARC
  5
11E
330
1F
100
AcDbEntity
  8
0
  6
Continuous
 62
     7
370
    15
100
AcDbCircle
 10
477.7664923238
 20
334.2498424167
 30
0.0
 40
3.000000000000057
100
AcDbArc
 50
180.0
 51
194.096567674
  0
ARC
  5
11F
330
1F
100
AcDbEntity
  8
0
  6
Continuous
 62
     7
370
    15
100
AcDbCircle
 10
541.7664923238
 20
334.2498420071
 30
0.0
 40
3.0
100
AcDbArc
 50
347.0393829689
 51
0.0
  0
LINE
  5
120
330
1F
100
AcDbEntity
  8
0
  6
Continuous
 62
     7
370
    15
100
AcDbLine
 10
544.76649371
 20
334.249840627
 30
0.0
 11
544.76649371
 21
345.7208625475
 31
0.0
  0
ARC
  5
121
330
1F
100
AcDbEntity
  8
0
  6
Continuous
 62
     7
370
    15
100
AcDbCircle
 10
542.8568542025
 20
264.1346091463
 30
0.0
 40
8.000000000000114
100
AcDbArc
 50
158.3690450019
 51
180.0
  0
ARC
  5
122
330
1F
100
AcDbEntity
  8
0
  6
Continuous
 62
     7
370
    15
100
AcDbCircle
 10
476.8568542025
 20
264.1346091463
 30
0.0
 40
8.000000000000114
100
AcDbArc
 50
0.0
 51
21.6309549981
  0
LINE
  5
123
330
1F
100
AcDbEntity
  8
0
  6
Continuous
 62
     7
370
    15
100
AcDbLine
 10
513.3568543105
 20
390.2208633223
 30
0.0
 11
506.3568540944
 21
390.2208633223
 31
0.0
  0
LINE
  5
124
330
1F
100
AcDbEntity
  8
0
  6
Continuous
 62
     7
370
    15
100
AcDbLine
 10
513.3568543105
 20
408.1708617011
 30
0.0
 11
506.3568540944
 21
408.1708617011
 31
0.0
  0
LINE
  5
125
330
1F
100
AcDbEntity
  8
0
  6
Continuous
 62
     7
370
    15
100
AcDbLine
 10
513.3568543105
 20
406.1708650986
 30
0.0
 11
506.3568540944
 21
406.1708650986
 31
0.0
  0
LINE
  5
126
330
1F
100
AcDbEntity
  8
0
  6
Continuous
 62
     7
370
    15
100
AcDbLine
 10
511.8068541496
 20
409.7208581367
 30
0.0
 11
507.9068542554
 21
409.7208581367
 31
0.0
  0
LINE
  5
127
330
1F
100
AcDbEntity
  8
0
  6
Continuous
 62
     7
370
    15
100
AcDbLine
 10
513.3568543105
 20
393.2208619514
 30
0.0
 11
506.3568540944
 21
393.2208619514
 31
0.0
  0
LINE
  5
128
330
1F
100
AcDbEntity
  8
0
  6
Continuous
 62
     7
370
    15
100
AcDbLine
 10
513.3568543105
 20
403.1208581725
 30
0.0
 11
506.3568540944
 21
403.1208581725
 31
0.0
  0
LINE
  5
129
330
1F
100
AcDbEntity
  8
0
  6
Continuous
 62
     7
370
    15
100
AcDbLine
 10
500.890227603
 20
358.7208590904
 30
0.0
 11
494.8768537587
 21
358.7208590904
 31
0.0
  0
LINE
  5
12A
330
1F
100
AcDbEntity
  8
0
  6
Continuous
 62
     7
370
    15
100
AcDbLine
 10
500.890227603
 20
358.7208590904
 30
0.0
 11
500.890227603
 21
351.7208598057
 31
0.0
  0
LINE
  5
12B
330
1F
100
AcDbEntity
  8
0
  6
Continuous
 62
     7
370
    15
100
AcDbLine
 10
518.8234808019
 20
351.7208598057
 30
0.0
 11
500.890227603
 21
351.7208598057
 31
0.0
  0
LINE
  5
12C
330
1F
100
AcDbEntity
  8
0
  6
Continuous
 62
     7
370
    15
100
AcDbLine
 10
518.8234808019
 20
351.7208598057
 30
0.0
 11
518.8234808019
 21
358.7208590904
 31
0.0
  0
LINE
  5
12D
330
1F
100
AcDbEntity
  8
0
  6
Continuous
 62
     7
370
    15
100
AcDbLine
 10
524.8368546462
 20
358.7208590904
 30
0.0
 11
518.8234808019
 21
358.7208590904
 31
0.0
  0
LINE
  5
12E
330
1F
100
AcDbEntity
  8
0
  6
Continuous
 62
     7
370
    15
100
AcDbLine
 10
518.8234808019
 20
358.7208590904
 30
0.0
 11
500.890227603
 21
358.7208590904
 31
0.0
  0
CIRCLE
  5
12F
330
1F
100
AcDbEntity
  8
0
  6
Continuous
 62
     7
370
    15
100
AcDbCircle
 10
509.8568542025
 20
293.7208614746
 30
0.0
 40
30.0
  0
LINE
  5
130
330
1F
100
AcDbEntity
  8
0
  6
Continuous
 62
     7
370
    15
100
AcDbLine
 10
522.3193062565
 20
293.4721015769
 30
0.0
 11
522.3312812022
 21
293.9805057974
 31
0.0
  0
SPLINE
  5
131
330
1F
100
AcDbEntity
  8
0
  6
Continuous
 62
     7
370
    15
100
AcDbSpline
210
0.0
220
0.0
230
1.0
 70
     8
 71
     3
 72
    25
 73
    21
 74
     0
 42
0.00000001
 43
0.00000001
 40
0.0
 40
0.0
 40
0.0
 40
0.0
 40
0.0395718455511932
 40
0.0969822766358877
 40
0.1560096131897249
 40
0.2140662143622385
 40
0.2715093550939664
 40
0.3306304230969923
 40
0.3877781403811486
 40
0.4466619151409527
 40
0.5024711049764059
 40
0.5599452071273558
 40
0.6150315003459859
 40
0.6716751458537658
 40
0.7275251721875762
 40
0.7849223840065398
 40
0.842062161480891
 40
0.9008875902528047
 40
0.9578777725002178
 40
1.0
 40
1.0
 40
1.0
 40
1.0
 10
522.2461564561887
 20
294.8447914529425
 30
0.0
 10
522.192224719858
 20
295.3283368350349
 30
0.0
 10
522.060049368938
 20
296.5134049398675
 30
0.0
 10
521.4496945599269
 20
298.3440571606529
 30
0.0
 10
520.487610256393
 20
300.2650669240572
 30
0.0
 10
519.1965451331014
 20
301.9892275746473
 30
0.0
 10
517.6367678073748
 20
303.4725892517276
 30
0.0
 10
515.8577065997309
 20
304.6670775031153
 30
0.0
 10
513.8855869844658
 20
305.5476646461462
 30
0.0
 10
511.829772120214
 20
306.0661760537335
 30
0.0
 10
509.7127490184143
 20
306.2238348553122
 30
0.0
 10
507.6455241031954
 20
306.022550870482
 30
0.0
 10
505.6331620300032
 20
305.4734048676377
 30
0.0
 10
503.7571364672372
 20
304.6068488631346
 30
0.0
 10
502.0266584431345
 20
303.4271562751894
 30
0.0
 10
500.5075152276145
 20
301.9765273276282
 30
0.0
 10
499.2273129928539
 20
300.262767793305
 30
0.0
 10
498.271682168362
 20
298.3596731177009
 30
0.0
 10
497.6519421707368
 20
296.5073199371772
 30
0.0
 10
497.5181387063371
 20
295.2958919410741
 30
0.0
 10
497.4612729719444
 20
294.7810417242181
 30
0.0
  0
LINE
  5
132
330
1F
100
AcDbEntity
  8
0
  6
Continuous
 62
     7
370
    15
100
AcDbLine
 10
497.3665146253
 20
293.8189468111
 30
0.0
 11
497.362408424
 21
293.6719372771
 31
0.0
  0
ARC
  5
133
330
1F
100
AcDbEntity
  8
0
  6
Continuous
 62
     7
370
    15
100
AcDbCircle
 10
509.8568542025
 20
293.7208614746
 30
0.0
 40
32.00000000000001
100
AcDbArc
 50
225.0
 51
315.0
  0
ARC
  5
134
330
1F
100
AcDbEntity
  8
0
  6
Continuous
 62
     7
370
    15
100
AcDbCircle
 10
509.8568542025
 20
293.7208614746
 30
0.0
 40
31.99999999999998
100
AcDbArc
 50
135.0
 51
225.0
  0
ARC
  5
135
330
1F
100
AcDbEntity
  8
0
  6
Continuous
 62
     7
370
    15
100
AcDbCircle
 10
509.8568542025
 20
293.7208614746
 30
0.0
 40
32.00000000000001
100
AcDbArc
 50
45.0
 51
135.0
  0
ARC
  5
136
330
1F
100
AcDbEntity
  8
0
  6
Continuous
 62
     7
370
    15
100
AcDbCircle
 10
509.8568542025
 20
293.7208614746
 30
0.0
 40
32.00000000000001
100
AcDbArc
 50
315.0
 51
45.0
  0
CIRCLE
  5
137
330
1F
100
AcDbEntity
  8
0
  6
Continuous
 62
     7
370
    15
100
AcDbCircle
 10
509.8568542025
 20
293.7208614746
 30
0.0
 40
50.0
  0
CIRCLE
  5
138
330
1F
100
AcDbEntity
  8
0
  6
Continuous
 62
     7
370
    15
100
AcDbCircle
 10
483.340349908
 20
267.2043571801
 30
0.0
 40
5.499999999999964
  0
CIRCLE
  5
139
330
1F
100
AcDbEntity
  8
0
  6
Continuous
 62
     7
370
    15
100
AcDbCircle
 10
536.373358497
 20
267.2043571801
 30
0.0
 40
5.499999999999964
  0
CIRCLE
  5
13A
330
1F
100
AcDbEntity
  8
0
  6
Continuous
 62
     7
370
    15
100
AcDbCircle
 10
536.373358497
 20
320.2373657691
 30
0.0
 40
5.500000000000004
  0
CIRCLE
  5
13B
330
1F
100
AcDbEntity
  8
0
  6
Continuous
 62
     7
370
    15
100
AcDbCircle
 10
483.340349908
 20
320.2373657691
 30
0.0
 40
5.500000000000044
  0
LINE
  5
13C
330
1F
100
AcDbEntity
  8
0
  6
Continuous
 62
     7
370
    15
100
AcDbLine
 10
509.8568542025
 20
220.7208625475
 30
0.0
 11
559.8568549475
 21
220.7208625475
 31
0.0
  0
LINE
  5
13D
330
1F
100
AcDbEntity
  8
0
  6
Continuous
 62
     7
370
    15
100
AcDbLine
 10
459.8568534574
 20
220.7208625475
 30
0.0
 11
509.8568542025
 21
220.7208625475
 31
0.0
  0
LINE
  5
13E
330
1F
100
AcDbEntity
  8
0
  6
Continuous
 62
     7
370
    15
100
AcDbLine
 10
509.8568542025
 20
232.7208607891
 30
0.0
 11
559.8568549475
 21
232.7208607891
 31
0.0
  0
LINE
  5
13F
330
1F
100
AcDbEntity
  8
0
  6
Continuous
 62
     7
370
    15
100
AcDbLine
 10
459.8568534574
 20
232.7208607891
 30
0.0
 11
509.8568542025
 21
232.7208607891
 31
0.0
  0
LINE
  5
140
330
1F
100
AcDbEntity
  8
0
  6
Continuous
 62
     7
370
    15
100
AcDbLine
 10
511.8568542975
 20
243.7208607295
 30
0.0
 11
507.8568541075
 21
243.7208607295
 31
0.0
  0
ARC
  5
141
330
1F
100
AcDbEntity
  8
0
  6
Continuous
 62
     7
370
    15
100
AcDbCircle
 10
513.8568542025
 20
234.7208614746
 30
0.0
 40
2.000000000000057
100
AcDbArc
 50
180.0
 51
270.0
  0
LINE
  5
142
330
1F
100
AcDbEntity
  8
0
  6
Continuous
 62
     7
370
    15
100
AcDbLine
 10
511.8568542975
 20
234.720861117
 30
0.0
 11
507.8568541075
 21
234.720861117
 31
0.0
  0
ARC
  5
143
330
1F
100
AcDbEntity
  8
0
  6
Continuous
 62
     7
370
    15
100
AcDbCircle
 10
505.8568542025
 20
234.7208614746
 30
0.0
 40
2.000000000000028
100
AcDbArc
 50
270.0
 51
0.0
  0
LINE
  5
144
330
1F
100
AcDbEntity
  8
0
  6
Continuous
 62
     7
370
    15
100
AcDbLine
 10
511.8568542975
 20
243.7208607295
 30
0.0
 11
511.8568542975
 21
234.720861117
 31
0.0
  0
LINE
  5
145
330
1F
100
AcDbEntity
  8
0
  6
Continuous
 62
     7
370
    15
100
AcDbLine
 10
507.8568541075
 20
243.7208607295
 30
0.0
 11
507.8568541075
 21
234.720861117
 31
0.0
  0
SPLINE
  5
146
330
1F
100
AcDbEntity
  8
0
  6
Continuous
 62
     7
370
    15
100
AcDbSpline
210
0.0
220
0.0
230
1.0
 70
     8
 71
     3
 72
    22
 73
    18
 74
     0
 42
0.00000001
 43
0.00000001
 40
0.0
 40
0.0
 40
0.0
 40
0.0
 40
0.125
 40
0.125
 40
0.25
 40
0.25
 40
0.375
 40
0.375
 40
0.5
 40
0.5
 40
0.625
 40
0.625
 40
0.75
 40
0.75
 40
0.875
 40
0.875
 40
1.0
 40
1.0
 40
1.0
 40
1.0
 10
505.8568542024656
 20
232.7208614745942
 30
0.0
 10
505.8750479303094
 20
232.7208614745942
 30
0.0
 10
505.893185215588
 20
232.746703897154
 30
0.0
 10
505.9293433167911
 20
232.8479410307972
 30
0.0
 10
505.9475552491389
 20
232.9245325420161
 30
0.0
 10
505.9827706300598
 20
233.1247797894557
 30
0.0
 10
505.9996957820734
 20
233.247311218003
 30
0.0
 10
506.032081535448
 20
233.5367048575204
 30
0.0
 10
506.04763351805
 20
233.7053600310663
 30
0.0
 10
506.0757801203943
 20
234.0739646026773
 30
0.0
 10
506.0885448022652
 20
234.2750089878671
 30
0.0
 10
506.1112447502529
 20
234.7112484817409
 30
0.0
 10
506.1210315270345
 20
234.9446028409585
 30
0.0
 10
506.1367723740901
 20
235.4258824871321
 30
0.0
 10
506.1428567871778
 20
235.6767959862882
 30
0.0
 10
506.1510810931887
 20
236.1946939450637
 30
0.0
 10
506.153150498762
 20
236.456395483847
 30
0.0
 10
506.153150498762
 20
236.7208614745942
 30
0.0
  0
SPLINE
  5
147
330
1F
100
AcDbEntity
  8
0
  6
Continuous
 62
     7
370
    15
100
AcDbSpline
210
0.0
220
0.0
230
1.0
 70
     8
 71
     3
 72
    22
 73
    18
 74
     0
 42
0.00000001
 43
0.00000001
 40
0.0
 40
0.0
 40
0.0
 40
0.0
 40
0.125
 40
0.125
 40
0.25
 40
0.25
 40
0.375
 40
0.375
 40
0.5
 40
0.5
 40
0.625
 40
0.625
 40
0.75
 40
0.75
 40
0.875
 40
0.875
 40
1.0
 40
1.0
 40
1.0
 40
1.0
 10
513.5605579061694
 20
236.7208614745942
 30
0.0
 10
513.5605579061694
 20
236.4564502655269
 30
0.0
 10
513.5626260865733
 20
236.1964432048701
 30
0.0
 10
513.5706971877744
 20
235.6848804250613
 30
0.0
 10
513.5767990598786
 20
235.4306630260193
 30
0.0
 10
513.592601559916
 20
234.9463209801371
 30
0.0
 10
513.6022308045203
 20
234.71654101977
 30
0.0
 10
513.6247801174359
 20
234.2815829835685
 30
0.0
 10
513.6377945429472
 20
234.0759636631925
 30
0.0
 10
513.6659046366324
 20
233.70734467398
 30
0.0
 10
513.6811088970733
 20
233.541822905248
 30
0.0
 10
513.7137274190894
 20
233.2493821191636
 30
0.0
 10
513.7308233438364
 20
233.125670604085
 30
0.0
 10
513.7657899594121
 20
232.9263609448791
 30
0.0
 10
513.7838930573124
 20
232.8495290383366
 30
0.0
 10
513.8204320780956
 20
232.7466966751403
 30
0.0
 10
513.8386642038108
 20
232.7208614745942
 30
0.0
 10
513.8568542024657
 20
232.7208614745942
 30
0.0
  0
SPLINE
  5
148
330
1F
100
AcDbEntity
  8
0
  6
Continuous
 62
     7
370
    15
100
AcDbSpline
210
0.0
220
0.0
230
1.0
 70
     8
 71
     3
 72
     9
 73
     5
 74
     0
 42
0.00000001
 43
0.00000001
 40
0.0
 40
0.0
 40
0.0
 40
0.0
 40
0.3125397339837996
 40
1.0
 40
1.0
 40
1.0
 40
1.0
 10
482.7882336548134
 20
272.5867419937459
 30
0.0
 10
482.8841736680735
 20
271.9982424630091
 30
0.0
 10
483.1911426797802
 20
270.1152833805417
 30
0.0
 10
483.8445848722498
 20
268.3187021596218
 30
0.0
 10
484.293800415711
 20
267.0836239555684
 30
0.0
  0
SPLINE
  5
149
330
1F
100
AcDbEntity
  8
0
  6
Continuous
 62
     7
370
    15
100
AcDbSpline
210
0.0
220
0.0
230
1.0
 70
     8
 71
     3
 72
     9
 73
     5
 74
     0
 42
0.00000001
 43
0.00000001
 40
0.0
 40
0.0
 40
0.0
 40
0.0
 40
0.696594933939848
 40
1.0
 40
1.0
 40
1.0
 40
1.0
 10
535.419906126575
 20
267.0836239555684
 30
0.0
 10
535.8754929826962
 20
268.3359854921583
 30
0.0
 10
536.5295127493121
 20
270.1338187458495
 30
0.0
 10
536.832760147946
 20
272.0184672522881
 30
0.0
 10
536.9247669449611
 20
272.5902791568843
 30
0.0
  0
LINE
  5
14A
330
1F
100
AcDbEntity
  8
0
  6
Continuous
 62
     7
370
    15
100
AcDbLine
 10
516.6064920931
 20
344.3380012611
 30
0.0
 11
516.6064920931
 21
345.7208625475
 31
0.0
  0
LINE
  5
14B
330
1F
100
AcDbEntity
  8
0
  6
Continuous
 62
     7
370
    15
100
AcDbLine
 10
502.9264922349
 20
345.7208625475
 30
0.0
 11
516.6064920931
 21
345.7208625475
 31
0.0
  0
LINE
  5
14C
330
1F
100
AcDbEntity
  8
0
  6
Continuous
 62
     7
370
    15
100
AcDbLine
 10
502.9264922349
 20
345.7208625475
 30
0.0
 11
481.1664918533
 21
345.7208625475
 31
0.0
  0
LINE
  5
14D
330
1F
100
AcDbEntity
  8
0
  6
Continuous
 62
     7
370
    15
100
AcDbLine
 10
538.3664915434
 20
345.7208625475
 30
0.0
 11
516.6064920931
 21
345.7208625475
 31
0.0
  0
ARC
  5
14E
330
1F
100
AcDbEntity
  8
0
  6
Continuous
 62
     7
370
    15
100
AcDbCircle
 10
509.8568542025
 20
310.2208614746
 30
0.0
 40
27.4999999999999
100
AcDbArc
 50
149.3284838414
 51
164.8965204902
  0
ARC
  5
14F
330
1F
100
AcDbEntity
  8
0
  6
Continuous
 62
     7
370
    15
100
AcDbCircle
 10
484.0536749521
 20
325.5243231932
 30
0.0
 40
2.500000000000043
100
AcDbArc
 50
329.3284838414
 51
342.6891420166
  0
ARC
  5
150
330
1F
100
AcDbEntity
  8
0
  6
Continuous
 62
     7
370
    15
100
AcDbCircle
 10
535.6600334529
 20
325.5243231932
 30
0.0
 40
2.500000000000083
100
AcDbArc
 50
197.3108579834
 51
210.6715161586
  0
ARC
  5
151
330
1F
100
AcDbEntity
  8
0
  6
Continuous
 62
     7
370
    15
100
AcDbCircle
 10
509.8568542025
 20
310.2208614746
 30
0.0
 40
27.49999999999995
100
AcDbArc
 50
16.0572164955
 51
30.6715161586
  0
LINE
  5
152
330
1F
100
AcDbEntity
  8
0
  6
Continuous
 62
     7
370
    15
100
AcDbLine
 10
474.766493412
 20
345.7208625475
 30
0.0
 11
481.1664918533
 21
345.7208625475
 31
0.0
  0
SPLINE
  5
153
330
1F
100
AcDbEntity
  8
0
  6
Continuous
 62
     7
370
    15
100
AcDbSpline
210
0.0
220
0.0
230
1.0
 70
    24
 71
     3
 72
    10
 73
     6
 74
     0
 42
0.00000001
 43
0.00000001
 40
0.0
 40
0.0
 40
0.0
 40
0.0
 40
0.4999999999999998
 40
0.4999999999999998
 40
1.0
 40
1.0
 40
1.0
 40
1.0
 10
475.717821130825
 20
333.2237819867426
 30
0.0
 10
475.4792099886975
 20
333.3615441938815
 30
0.0
 10
475.2936797147111
 20
333.4686601475104
 30
0.0
 10
475.0088321374305
 20
333.6331169729313
 30
0.0
 10
474.9103607761766
 20
333.6899694398588
 30
0.0
 10
474.8568542024656
 20
333.7208614745942
 30
0.0
  0
SPLINE
  5
154
330
1F
100
AcDbEntity
  8
0
  6
Continuous
 62
     7
370
    15
100
AcDbSpline
210
0.0
220
0.0
230
1.0
 70
    24
 71
     3
 72
    10
 73
     6
 74
     0
 42
0.00000001
 43
0.00000001
 40
0.0
 40
0.0
 40
0.0
 40
0.0
 40
0.3811125485227581
 40
0.9976022022340842
 40
1.0
 40
1.0
 40
1.0
 40
1.0
 10
474.856854053454
 20
333.7208605805245
 30
0.0
 10
474.8568540534541
 20
333.6754933851924
 30
0.0
 10
474.8568540534542
 20
333.5567399771822
 30
0.0
 10
474.8568540534532
 20
333.4868653911971
 30
0.0
 10
474.856854053454
 20
333.5193344141737
 30
0.0
 10
474.856854053454
 20
333.5194602111188
 30
0.0
  0
SPLINE
  5
155
330
1F
100
AcDbEntity
  8
0
  6
Continuous
 62
     7
370
    15
100
AcDbSpline
210
0.0
220
0.0
230
1.0
 70
     8
 71
     3
 72
    10
 73
     6
 74
     0
 42
0.00000001
 43
0.00000001
 40
0.0
 40
0.0
 40
0.0
 40
0.0
 40
0.31598890448793
 40
0.6408616007137307
 40
1.0
 40
1.0
 40
1.0
 40
1.0
 10
543.9958876094385
 20
333.2237801948395
 30
0.0
 10
544.1302487670437
 20
333.3013546797791
 30
0.0
 10
544.402748545718
 20
333.4586845982881
 30
0.0
 10
544.6676425364333
 20
333.6116208232689
 30
0.0
 10
544.6415569381724
 20
333.5965609196885
 30
0.0
 10
544.6278607568307
 20
333.5886537531224
 30
0.0
  0
LINE
  5
156
330
1F
100
AcDbEntity
  8
0
  6
Continuous
 62
     7
370
    15
100
AcDbLine
 10
538.3664915434
 20
345.7208625475
 30
0.0
 11
544.76649371
 21
345.7208625475
 31
0.0
  0
LWPOLYLINE
  5
157
330
1F
100
AcDbEntity
  8
0
  6
Continuous
 62
     7
370
    15
100
AcDbPolyline
 90
        4
 70
   128
 43
0.0
 10
475.7178207955
 20
333.2237801948
 10
476.3973286471
 20
332.8314698735
 10
477.2316223106
 20
332.3497898379
 10
477.750104489
 20
332.0504404107
  0
LWPOLYLINE
  5
158
330
1F
100
AcDbEntity
  8
0
  6
Continuous
 62
     7
370
    15
100
AcDbPolyline
 90
        4
 70
   128
 43
0.0
 10
543.9958876094
 20
333.2237801948
 10
543.3393797001
 20
332.8447468081
 10
542.5011260531
 20
332.3607831696
 10
541.9636039159
 20
332.0504404107
  0
SPLINE
  5
159
330
1F
100
AcDbEntity
  8
0
  6
Continuous
 62
     7
370
    15
100
AcDbSpline
210
0.0
220
0.0
230
1.0
 70
     8
 71
     3
 72
     8
 73
     4
 74
     0
 42
0.00000001
 43
0.00000001
 40
0.0
 40
0.0
 40
0.0
 40
0.0
 40
1.0
 40
1.0
 40
1.0
 40
1.0
 10
535.2815828682038
 20
267.0922423582932
 30
0.0
 10
535.283260941061
 20
267.08679539349
 30
0.0
 10
535.2871872096763
 20
267.0836237554789
 30
0.0
 10
535.2943600411687
 20
267.0836237554789
 30
0.0
  0
SPLINE
  5
15A
330
1F
100
AcDbEntity
  8
0
  6
Continuous
 62
     7
370
    15
100
AcDbSpline
210
0.0
220
0.0
230
1.0
 70
     8
 71
     3
 72
     8
 73
     4
 74
     0
 42
0.00000001
 43
0.00000001
 40
0.0
 40
0.0
 40
0.0
 40
0.0
 40
1.0
 40
1.0
 40
1.0
 40
1.0
 10
484.41861423523
 20
267.0836237554927
 30
0.0
 10
484.4257383802997
 20
267.0836237554927
 30
0.0
 10
484.4296407916392
 20
267.0867711815063
 30
0.0
 10
484.4313143190445
 20
267.0921747090852
 30
0.0
  0
SPLINE
  5
15B
330
1F
100
AcDbEntity
  8
0
  6
Continuous
 62
     7
370
    15
100
AcDbSpline
210
0.0
220
0.0
230
1.0
 70
     8
 71
     3
 72
     9
 73
     5
 74
     0
 42
0.00000001
 43
0.00000001
 40
0.0
 40
0.0
 40
0.0
 40
0.0
 40
0.7609998178405204
 40
1.0
 40
1.0
 40
1.0
 40
1.0
 10
536.2839685848518
 20
317.8272839138118
 30
0.0
 10
536.4948815309479
 20
317.0436986037903
 30
0.0
 10
536.772033957468
 20
316.0140198947401
 30
0.0
 10
536.9149042288792
 20
315.0815499650006
 30
0.0
 10
536.9490502497716
 20
314.8586894819346
 30
0.0
  0
LINE
  5
15C
330
1F
100
AcDbEntity
  8
0
  6
Continuous
 62
     7
370
    15
100
AcDbLine
 10
483.3067922017
 20
317.3863473782
 30
0.0
 11
482.7508038005
 21
314.8528743038
 31
0.0
  0
LINE
  5
15D
330
1F
100
AcDbEntity
  8
0
  6
Continuous
 62
     8
370
    15
100
AcDbLine
 10
513.8568543925
 20
384.3282289306
 30
0.0
 11
505.8568540125
 21
384.3282289306
 31
0.0
  0
LINE
  5
15E
330
1F
100
AcDbEntity
  8
0
  6
Continuous
 62
     8
370
    15
100
AcDbLine
 10
513.7205574291
 20
385.3635020057
 30
0.0
 11
505.9931509758
 21
385.3635020057
 31
0.0
  0
LINE
  5
15F
330
1F
100
AcDbEntity
  8
0
  6
Continuous
 62
     8
370
    15
100
AcDbLine
 10
513.4931508082
 20
386.2121976415
 30
0.0
 11
506.2205575968
 21
386.2121976415
 31
0.0
  0
LINE
  5
160
330
1F
100
AcDbEntity
  8
0
  6
Continuous
 62
     8
370
    15
100
AcDbLine
 10
513.3568543105
 20
387.2474707166
 30
0.0
 11
506.3568540944
 21
387.2474707166
 31
0.0
  0
LINE
  5
161
330
1F
100
AcDbEntity
  8
0
  6
Continuous
 62
     8
370
    15
100
AcDbLine
 10
506.1531505643
 20
236.7208614448
 30
0.0
 11
506.1531505643
 21
243.8582233587
 31
0.0
  0
LINE
  5
162
330
1F
100
AcDbEntity
  8
0
  6
Continuous
 62
     8
370
    15
100
AcDbLine
 10
513.5605578406
 20
243.8582233587
 30
0.0
 11
513.5605578406
 21
236.7208614448
 31
0.0
  0
LINE
  5
163
330
1F
100
AcDbEntity
  8
0
  6
Continuous
 62
     8
370
    15
100
AcDbLine
 10
502.9264922349
 20
343.238232235
 30
0.0
 11
502.9264922349
 21
345.7208625475
 31
0.0
  0
LINE
  5
164
330
1F
100
AcDbEntity
  8
0
  6
Continuous
 62
     8
370
    15
100
AcDbLine
 10
481.1664918533
 20
334.6703811982
 30
0.0
 11
481.1664918533
 21
345.7208625475
 31
0.0
  0
LINE
  5
165
330
1F
100
AcDbEntity
  8
0
  6
Continuous
 62
     8
370
    15
100
AcDbLine
 10
538.3664915434
 20
334.796407769
 30
0.0
 11
538.3664915434
 21
345.7208625475
 31
0.0
  0
LINE
  5
166
330
1F
100
AcDbEntity
  8
0
  6
Continuous
 62
     8
370
    15
100
AcDbLine
 10
474.766493412
 20
334.249840627
 30
0.0
 11
480.5754317066
 21
334.249840627
 31
0.0
  0
LINE
  5
167
330
1F
100
AcDbEntity
  8
0
  6
Continuous
 62
     8
370
    15
100
AcDbLine
 10
479.2052755228
 20
333.2237801948
 30
0.0
 11
475.7178207955
 21
333.2237801948
 31
0.0
  0
LINE
  5
168
330
1F
100
AcDbEntity
  8
0
  6
Continuous
 62
     8
370
    15
100
AcDbLine
 10
539.1382766983
 20
334.249840627
 30
0.0
 11
544.76649371
 21
334.249840627
 31
0.0
  0
LINE
  5
169
330
1F
100
AcDbEntity
  8
0
  6
Continuous
 62
     8
370
    15
100
AcDbLine
 10
543.9958876094
 20
333.2237801948
 30
0.0
 11
540.5084328821
 21
333.2237801948
 31
0.0
  0
LINE
  5
16A
330
1F
100
AcDbEntity
  8
1
100
AcDbLine
 10
516.6064923238
 20
344.3380013205
 30
0.0
 11
516.6064923238
 21
343.2631907015
 31
0.0
  0
LINE
  5
16B
330
1F
100
AcDbEntity
  8
1
100
AcDbLine
 10
534.8568542025
 20
243.8733264849
 30
0.0
 11
534.8568542025
 21
232.7208614746
 31
0.0
  0
LINE
  5
16C
330
1F
100
AcDbEntity
  8
1
100
AcDbLine
 10
484.8568542025
 20
246.1254121391
 30
0.0
 11
484.8568542025
 21
232.7208614746
 31
0.0
  0
LINE
  5
16D
330
1F
100
AcDbEntity
  8
1
100
AcDbLine
 10
509.8568542025
 20
217.7208614746
 30
0.0
 11
538.873358497
 21
217.7208614746
 31
0.0
  0
LINE
  5
16E
330
1F
100
AcDbEntity
  8
1
100
AcDbLine
 10
509.8568542025
 20
217.7208614746
 30
0.0
 11
480.840349908
 21
217.7208614746
 31
0.0
  0
LINE
  5
16F
330
1F
100
AcDbEntity
  8
1
100
AcDbLine
 10
477.840349908
 20
220.7208614746
 30
0.0
 11
480.840349908
 21
217.7208614746
 31
0.0
  0
LINE
  5
170
330
1F
100
AcDbEntity
  8
1
100
AcDbLine
 10
541.873358497
 20
220.7208614746
 30
0.0
 11
538.873358497
 21
217.7208614746
 31
0.0
  0
ARC
  5
171
330
1F
100
AcDbEntity
  8
0
  6
Continuous
 62
     7
370
    15
100
AcDbCircle
 10
99.4820159525
 20
384.3282260805
 30
0.0
 40
4.0
100
AcDbArc
 50
165.0
 51
180.0
  0
ARC
  5
172
330
1F
100
AcDbEntity
  8
0
  6
Continuous
 62
     7
370
    15
100
AcDbCircle
 10
99.4820159525
 20
384.3282260805
 30
0.0
 40
4.000000000000014
100
AcDbArc
 50
0.0
 51
15.0
  0
LINE
  5
173
330
1F
100
AcDbEntity
  8
0
  6
Continuous
 62
     7
370
    15
100
AcDbLine
 10
103.3457191792
 20
385.3635020057
 30
0.0
 11
103.1183125582
 21
386.2121976415
 31
0.0
  0
LINE
  5
174
330
1F
100
AcDbEntity
  8
0
  6
Continuous
 62
     7
370
    15
100
AcDbLine
 10
95.8457193468
 20
386.2121976415
 30
0.0
 11
95.6183127258
 21
385.3635020057
 31
0.0
  0
ARC
  5
175
330
1F
100
AcDbEntity
  8
0
  6
Continuous
 62
     7
370
    15
100
AcDbCircle
 10
106.9820159525
 20
387.2474714649
 30
0.0
 40
4.000000000000011
100
AcDbArc
 50
180.0
 51
195.0
  0
ARC
  5
176
330
1F
100
AcDbEntity
  8
0
  6
Continuous
 62
     7
370
    15
100
AcDbCircle
 10
91.9820159525
 20
387.2474714649
 30
0.0
 40
4.0
100
AcDbArc
 50
345.0
 51
0.0
  0
LINE
  5
177
330
1F
100
AcDbEntity
  8
0
  6
Continuous
 62
     7
370
    15
100
AcDbLine
 10
102.9820160605
 20
406.1708650986
 30
0.0
 11
102.9820160605
 21
408.1708617011
 31
0.0
  0
LINE
  5
178
330
1F
100
AcDbEntity
  8
0
  6
Continuous
 62
     7
370
    15
100
AcDbLine
 10
95.9820158444
 20
408.1708617011
 30
0.0
 11
95.9820158444
 21
406.1708650986
 31
0.0
  0
LINE
  5
179
330
1F
100
AcDbEntity
  8
0
  6
Continuous
 62
     7
370
    15
100
AcDbLine
 10
102.9820160605
 20
408.1708617011
 30
0.0
 11
101.4320158996
 21
409.7208581367
 31
0.0
  0
LINE
  5
17A
330
1F
100
AcDbEntity
  8
0
  6
Continuous
 62
     7
370
    15
100
AcDbLine
 10
97.5320160054
 20
409.7208581367
 30
0.0
 11
95.9820158444
 21
408.1708617011
 31
0.0
  0
LINE
  5
17B
330
1F
100
AcDbEntity
  8
0
  6
Continuous
 62
     7
370
    15
100
AcDbLine
 10
102.9820160605
 20
387.2474707166
 30
0.0
 11
102.9820160605
 21
390.2208633223
 31
0.0
  0
LINE
  5
17C
330
1F
100
AcDbEntity
  8
0
  6
Continuous
 62
     7
370
    15
100
AcDbLine
 10
95.9820158444
 20
390.2208633223
 30
0.0
 11
95.9820158444
 21
387.2474707166
 31
0.0
  0
LINE
  5
17D
330
1F
100
AcDbEntity
  8
0
  6
Continuous
 62
     7
370
    15
100
AcDbLine
 10
102.9820160605
 20
393.2208619514
 30
0.0
 11
102.9820160605
 21
403.1208581725
 31
0.0
  0
LINE
  5
17E
330
1F
100
AcDbEntity
  8
0
  6
Continuous
 62
     7
370
    15
100
AcDbLine
 10
95.9820158444
 20
403.1208581725
 30
0.0
 11
95.9820158444
 21
393.2208619514
 31
0.0
  0
LINE
  5
17F
330
1F
100
AcDbEntity
  8
0
  6
Continuous
 62
     7
370
    15
100
AcDbLine
 10
102.4820159786
 20
390.2208633223
 30
0.0
 11
102.4820159786
 21
393.2208619514
 31
0.0
  0
LINE
  5
180
330
1F
100
AcDbEntity
  8
0
  6
Continuous
 62
     7
370
    15
100
AcDbLine
 10
96.4820159264
 20
393.2208619514
 30
0.0
 11
96.4820159264
 21
390.2208633223
 31
0.0
  0
LINE
  5
181
330
1F
100
AcDbEntity
  8
0
  6
Continuous
 62
     7
370
    15
100
AcDbLine
 10
101.4320158996
 20
403.1208581725
 30
0.0
 11
101.4320158996
 21
406.1708650986
 31
0.0
  0
LINE
  5
182
330
1F
100
AcDbEntity
  8
0
  6
Continuous
 62
     7
370
    15
100
AcDbLine
 10
97.5320160054
 20
406.1708650986
 30
0.0
 11
97.5320160054
 21
403.1208581725
 31
0.0
  0
LINE
  5
183
330
1F
100
AcDbEntity
  8
0
  6
Continuous
 62
     7
370
    15
100
AcDbLine
 10
114.4620163962
 20
345.7208625475
 30
0.0
 11
114.4620163962
 21
358.7208590904
 31
0.0
  0
LINE
  5
184
330
1F
100
AcDbEntity
  8
0
  6
Continuous
 62
     7
370
    15
100
AcDbLine
 10
84.5020155087
 20
358.7208590904
 30
0.0
 11
84.5020155087
 21
345.7208625475
 31
0.0
  0
SPLINE
  5
185
330
1F
100
AcDbEntity
  8
0
  6
Continuous
 62
     7
370
    15
100
AcDbSpline
210
0.0
220
0.0
230
1.0
 70
     8
 71
     3
 72
    33
 73
    29
 74
     0
 42
0.00000001
 43
0.00000001
 40
0.0
 40
0.0
 40
0.0
 40
0.0
 40
0.0409959668046777
 40
0.0798112111977743
 40
0.1145201184804883
 40
0.1439627642188281
 40
0.1569299663830112
 40
0.1692689613821165
 40
0.1817902401827474
 40
0.1951997019874701
 40
0.2253793440506696
 40
0.2590316076265602
 40
0.2933978503811522
 40
0.3259072488763374
 40
0.387921200248159
 40
0.4476275661726801
 40
0.5079616136041835
 40
0.569391952105898
 40
0.6305987048289626
 40
0.6920309253195093
 40
0.7542481764629112
 40
0.8164213369504657
 40
0.846891140280758
 40
0.8773584109759267
 40
0.9076381769185327
 40
0.9380593853811857
 40
0.9688931377283295
 40
1.0
 40
1.0
 40
1.0
 40
1.0
 10
86.98204649986172
 20
293.6891610767817
 30
0.0
 10
86.98201816552863
 20
293.7097000362176
 30
0.0
 10
86.98196300406715
 20
293.7496854142216
 30
0.0
 10
86.98287793119638
 20
293.8764934709052
 30
0.0
 10
86.98894670516671
 20
294.1330919874974
 30
0.0
 10
87.0089765915581
 20
294.5364777993672
 30
0.0
 10
87.05563359606435
 20
295.0271340805876
 30
0.0
 10
87.11236884540843
 20
295.4704154092516
 30
0.0
 10
87.20227638542966
 20
296.0031285277461
 30
0.0
 10
87.38063458985141
 20
296.8260325142361
 30
0.0
 10
87.72239881091664
 20
297.9584446868982
 30
0.0
 10
88.30739851807365
 20
299.3090785230468
 30
0.0
 10
89.06600039305073
 20
300.6053974747413
 30
0.0
 10
90.23324652524042
 20
302.159539112433
 30
0.0
 10
91.94788647447808
 20
303.7851692975111
 30
0.0
 10
94.33987192622737
 20
305.2050422339391
 30
0.0
 10
96.97706167337562
 20
306.0691913521257
 30
0.0
 10
99.76438569510296
 20
306.3244654787782
 30
0.0
 10
102.5534059737872
 20
305.9396994626848
 30
0.0
 10
105.197155807532
 20
304.9343898590521
 30
0.0
 10
107.5537579706007
 20
303.3586896837758
 30
0.0
 10
109.1650102978026
 20
301.6485456776783
 30
0.0
 10
110.2107090907469
 20
300.1026590321082
 30
0.0
 10
110.859909427306
 20
298.8761463319621
 30
0.0
 10
111.3680454559404
 20
297.5905444146892
 30
0.0
 10
111.7235623284913
 20
296.2828822688232
 30
0.0
 10
111.9418160599577
 20
294.9747225551439
 30
0.0
 10
111.9685792610444
 20
294.103639198205
 30
0.0
 10
111.9820198640361
 20
293.6661771197578
 30
0.0
  0
SPLINE
  5
186
330
1F
100
AcDbEntity
  8
0
  6
Continuous
 62
     7
370
    15
100
AcDbSpline
210
0.0
220
0.0
230
1.0
 70
     8
 71
     3
 72
    15
 73
    11
 74
     0
 42
0.00000001
 43
0.00000001
 40
0.0
 40
0.0
 40
0.0
 40
0.0
 40
0.0730688539919586
 40
0.1288060296708691
 40
0.1815756402003346
 40
0.2602756553203299
 40
0.3791415695426684
 40
0.5391550234141428
 40
0.7440200120147796
 40
0.9999999999999999
 40
0.9999999999999999
 40
0.9999999999999999
 40
0.9999999999999999
 10
87.57734788955594
 20
291.6816489739177
 30
0.0
 10
87.57968165827627
 20
291.6892044020412
 30
0.0
 10
87.58379563388438
 20
291.7025231369864
 30
0.0
 10
87.55704059815181
 20
291.7796596535658
 30
0.0
 10
87.44335680319499
 20
292.1189003449092
 30
0.0
 10
87.36797077903142
 20
292.3774297158137
 30
0.0
 10
87.27999931647614
 20
292.6625368149665
 30
0.0
 10
87.14449356825484
 20
292.9547072975865
 30
0.0
 10
87.01119111251852
 20
293.3389374010278
 30
0.0
 10
86.99848407437356
 20
293.7275166123185
 30
0.0
 10
86.99142584951068
 20
293.9433560092767
 30
0.0
  0
LINE
  5
187
330
1F
100
AcDbEntity
  8
0
  6
Continuous
 62
     7
370
    15
100
AcDbLine
 10
49.4820152074
 20
232.7208607891
 30
0.0
 11
49.4820152074
 21
220.7208625475
 31
0.0
  0
LINE
  5
188
330
1F
100
AcDbEntity
  8
0
  6
Continuous
 62
     7
370
    15
100
AcDbLine
 10
149.4820166975
 20
220.7208625475
 30
0.0
 11
149.4820166975
 21
232.7208607891
 31
0.0
  0
ARC
  5
189
330
1F
100
AcDbEntity
  8
0
  6
Continuous
 62
     7
370
    15
100
AcDbCircle
 10
132.4820159525
 20
264.1346091463
 30
0.0
 40
8.000000000000057
100
AcDbArc
 50
158.3690450019
 51
180.0
  0
ARC
  5
18A
330
1F
100
AcDbEntity
  8
0
  6
Continuous
 62
     7
370
    15
100
AcDbCircle
 10
66.4820159525
 20
264.1346091463
 30
0.0
 40
8.000000000000057
100
AcDbArc
 50
0.0
 51
21.6309549981
  0
LINE
  5
18B
330
1F
100
AcDbEntity
  8
0
  6
Continuous
 62
     7
370
    15
100
AcDbLine
 10
124.482016325
 20
242.7208624283
 30
0.0
 11
124.482016325
 21
250.4195920626
 31
0.0
  0
LINE
  5
18C
330
1F
100
AcDbEntity
  8
0
  6
Continuous
 62
     7
370
    15
100
AcDbLine
 10
124.482016325
 20
261.917562733
 30
0.0
 11
124.482016325
 21
264.1346096495
 31
0.0
  0
LINE
  5
18D
330
1F
100
AcDbEntity
  8
0
  6
Continuous
 62
     7
370
    15
100
AcDbLine
 10
74.48201558
 20
264.1346096495
 30
0.0
 11
74.48201558
 21
261.917562733
 31
0.0
  0
LINE
  5
18E
330
1F
100
AcDbEntity
  8
0
  6
Continuous
 62
     7
370
    15
100
AcDbLine
 10
74.48201558
 20
250.4195920626
 30
0.0
 11
74.48201558
 21
242.7208624283
 31
0.0
  0
LINE
  5
18F
330
1F
100
AcDbEntity
  8
0
  6
Continuous
 62
     7
370
    15
100
AcDbLine
 10
134.572376743
 20
334.249840627
 30
0.0
 11
134.572376743
 21
345.7208625475
 31
0.0
  0
ARC
  5
190
330
1F
100
AcDbEntity
  8
0
  6
Continuous
 62
     7
370
    15
100
AcDbCircle
 10
131.5723778311
 20
334.2498424167
 30
0.0
 40
3.0
100
AcDbArc
 50
345.8807565424
 51
0.0
  0
LINE
  5
191
330
1F
100
AcDbEntity
  8
0
  6
Continuous
 62
     7
370
    15
100
AcDbLine
 10
64.5723764449
 20
345.7208625475
 30
0.0
 11
64.5723764449
 21
334.249840627
 31
0.0
  0
ARC
  5
192
330
1F
100
AcDbEntity
  8
0
  6
Continuous
 62
     7
370
    15
100
AcDbCircle
 10
67.5723778311
 20
334.2498420071
 30
0.0
 40
3.000000000000016
100
AcDbArc
 50
180.0
 51
193.0154967947
  0
LINE
  5
193
330
1F
100
AcDbEntity
  8
0
  6
Continuous
 62
     7
370
    15
100
AcDbLine
 10
96.0054022856
 20
408.1708617011
 30
0.0
 11
95.9820158444
 21
408.1708617011
 31
0.0
  0
LINE
  5
194
330
1F
100
AcDbEntity
  8
0
  6
Continuous
 62
     7
370
    15
100
AcDbLine
 10
102.9820160605
 20
408.1708617011
 30
0.0
 11
96.0054022856
 21
408.1708617011
 31
0.0
  0
LINE
  5
195
330
1F
100
AcDbEntity
  8
0
  6
Continuous
 62
     7
370
    15
100
AcDbLine
 10
96.0054022856
 20
406.1708650986
 30
0.0
 11
95.9820158444
 21
406.1708650986
 31
0.0
  0
LINE
  5
196
330
1F
100
AcDbEntity
  8
0
  6
Continuous
 62
     7
370
    15
100
AcDbLine
 10
102.9820160605
 20
406.1708650986
 30
0.0
 11
96.0054022856
 21
406.1708650986
 31
0.0
  0
LINE
  5
197
330
1F
100
AcDbEntity
  8
0
  6
Continuous
 62
     7
370
    15
100
AcDbLine
 10
97.5450455574
 20
409.7208581367
 30
0.0
 11
97.5320160054
 21
409.7208581367
 31
0.0
  0
LINE
  5
198
330
1F
100
AcDbEntity
  8
0
  6
Continuous
 62
     7
370
    15
100
AcDbLine
 10
101.4320158996
 20
409.7208581367
 30
0.0
 11
97.5450455574
 21
409.7208581367
 31
0.0
  0
LINE
  5
199
330
1F
100
AcDbEntity
  8
0
  6
Continuous
 62
     7
370
    15
100
AcDbLine
 10
96.0054022856
 20
390.2208633223
 30
0.0
 11
95.9820158444
 21
390.2208633223
 31
0.0
  0
LINE
  5
19A
330
1F
100
AcDbEntity
  8
0
  6
Continuous
 62
     7
370
    15
100
AcDbLine
 10
102.9820160605
 20
390.2208633223
 30
0.0
 11
96.0054022856
 21
390.2208633223
 31
0.0
  0
LINE
  5
19B
330
1F
100
AcDbEntity
  8
0
  6
Continuous
 62
     7
370
    15
100
AcDbLine
 10
96.0054022856
 20
403.1208581725
 30
0.0
 11
95.9820158444
 21
403.1208581725
 31
0.0
  0
LINE
  5
19C
330
1F
100
AcDbEntity
  8
0
  6
Continuous
 62
     7
370
    15
100
AcDbLine
 10
102.9820160605
 20
403.1208581725
 30
0.0
 11
96.0054022856
 21
403.1208581725
 31
0.0
  0
LINE
  5
19D
330
1F
100
AcDbEntity
  8
0
  6
Continuous
 62
     7
370
    15
100
AcDbLine
 10
96.0054022856
 20
393.2208619514
 30
0.0
 11
95.9820158444
 21
393.2208619514
 31
0.0
  0
LINE
  5
19E
330
1F
100
AcDbEntity
  8
0
  6
Continuous
 62
     7
370
    15
100
AcDbLine
 10
102.9820160605
 20
393.2208619514
 30
0.0
 11
96.0054022856
 21
393.2208619514
 31
0.0
  0
LINE
  5
19F
330
1F
100
AcDbEntity
  8
0
  6
Continuous
 62
     7
370
    15
100
AcDbLine
 10
114.4620163962
 20
358.7208590904
 30
0.0
 11
108.4486425519
 21
358.7208590904
 31
0.0
  0
LINE
  5
1A0
330
1F
100
AcDbEntity
  8
0
  6
Continuous
 62
     7
370
    15
100
AcDbLine
 10
90.5153893531
 20
358.7208590904
 30
0.0
 11
84.5020155087
 21
358.7208590904
 31
0.0
  0
LINE
  5
1A1
330
1F
100
AcDbEntity
  8
0
  6
Continuous
 62
     7
370
    15
100
AcDbLine
 10
90.5153893531
 20
358.7208590904
 30
0.0
 11
90.5153893531
 21
351.7208598057
 31
0.0
  0
LINE
  5
1A2
330
1F
100
AcDbEntity
  8
0
  6
Continuous
 62
     7
370
    15
100
AcDbLine
 10
90.5153893531
 20
351.7208598057
 30
0.0
 11
108.4486425519
 21
351.7208598057
 31
0.0
  0
LINE
  5
1A3
330
1F
100
AcDbEntity
  8
0
  6
Continuous
 62
     7
370
    15
100
AcDbLine
 10
108.4486425519
 20
351.7208598057
 30
0.0
 11
108.4486425519
 21
358.7208590904
 31
0.0
  0
LINE
  5
1A4
330
1F
100
AcDbEntity
  8
0
  6
Continuous
 62
     7
370
    15
100
AcDbLine
 10
108.4486425519
 20
358.7208590904
 30
0.0
 11
90.5153893531
 21
358.7208590904
 31
0.0
  0
CIRCLE
  5
1A5
330
1F
100
AcDbEntity
  8
0
  6
Continuous
 62
     7
370
    15
100
AcDbCircle
 10
99.4820159525
 20
293.7208614746
 30
0.0
 40
30.0
  0
CIRCLE
  5
1A6
330
1F
100
AcDbEntity
  8
0
  6
Continuous
 62
     7
370
    15
100
AcDbCircle
 10
99.4820158287
 20
293.7208633531
 30
0.0
 40
12.5000003100112
  0
LINE
  5
1A7
330
1F
100
AcDbEntity
  8
0
  6
Continuous
 62
     7
370
    15
100
AcDbLine
 10
87.0195638985
 20
293.9696213723
 30
0.0
 11
87.0075889528
 21
293.4612171518
 31
0.0
  0
SPLINE
  5
1A8
330
1F
100
AcDbEntity
  8
0
  6
Continuous
 62
     7
370
    15
100
AcDbSpline
210
0.0
220
0.0
230
1.0
 70
     8
 71
     3
 72
    25
 73
    21
 74
     0
 42
0.00000001
 43
0.00000001
 40
0.0
 40
0.0
 40
0.0
 40
0.0
 40
0.0395718455511932
 40
0.0969822766358877
 40
0.1560096131897249
 40
0.2140662143622385
 40
0.2715093550939664
 40
0.3306304230969923
 40
0.3877781403811486
 40
0.4466619151409527
 40
0.5024711049764059
 40
0.5599452071273558
 40
0.6150315003459859
 40
0.6716751458537658
 40
0.7275251721875762
 40
0.7849223840065398
 40
0.842062161480891
 40
0.9008875902528047
 40
0.9578777725002178
 40
1.0
 40
1.0
 40
1.0
 40
1.0
 10
87.09271369875813
 20
292.5969314962459
 30
0.0
 10
87.14664543508889
 20
292.1133861141536
 30
0.0
 10
87.27882078600894
 20
290.9283180093209
 30
0.0
 10
87.8891755950199
 20
289.0976657885356
 30
0.0
 10
88.85125989855396
 20
287.1766560251312
 30
0.0
 10
90.1423250218455
 20
285.4524953745412
 30
0.0
 10
91.70210234757215
 20
283.9691336974607
 30
0.0
 10
93.48116355521591
 20
282.7746454460731
 30
0.0
 10
95.45328317048101
 20
281.8940583030422
 30
0.0
 10
97.50909803473294
 20
281.3755468954549
 30
0.0
 10
99.62612113653253
 20
281.2178880938762
 30
0.0
 10
101.6933460517515
 20
281.4191720787064
 30
0.0
 10
103.7057081249437
 20
281.9683180815506
 30
0.0
 10
105.5817336877097
 20
282.8348740860538
 30
0.0
 10
107.3122117118124
 20
284.0145666739991
 30
0.0
 10
108.8313549273324
 20
285.4651956215602
 30
0.0
 10
110.1115571620931
 20
287.1789551558834
 30
0.0
 10
111.0671879865849
 20
289.0820498314875
 30
0.0
 10
111.6869279842101
 20
290.9344030120112
 30
0.0
 10
111.8207314486098
 20
292.1458310081143
 30
0.0
 10
111.8775971830025
 20
292.6606812249702
 30
0.0
  0
LINE
  5
1A9
330
1F
100
AcDbEntity
  8
0
  6
Continuous
 62
     7
370
    15
100
AcDbLine
 10
111.9731993079
 20
293.6530001095
 30
0.0
 11
111.9764617309
 21
293.7697856721
 31
0.0
  0
ARC
  5
1AA
330
1F
100
AcDbEntity
  8
0
  6
Continuous
 62
     7
370
    15
100
AcDbCircle
 10
99.4820159525
 20
293.7208614746
 30
0.0
 40
32.00000000000004
100
AcDbArc
 50
45.0
 51
135.0
  0
ARC
  5
1AB
330
1F
100
AcDbEntity
  8
0
  6
Continuous
 62
     7
370
    15
100
AcDbCircle
 10
99.4820159525
 20
293.7208614746
 30
0.0
 40
32.00000000000001
100
AcDbArc
 50
315.0
 51
45.0
  0
ARC
  5
1AC
330
1F
100
AcDbEntity
  8
0
  6
Continuous
 62
     7
370
    15
100
AcDbCircle
 10
99.4820159525
 20
293.7208614746
 30
0.0
 40
32.00000000000001
100
AcDbArc
 50
225.0
 51
315.0
  0
ARC
  5
1AD
330
1F
100
AcDbEntity
  8
0
  6
Continuous
 62
     7
370
    15
100
AcDbCircle
 10
99.4820159525
 20
293.7208614746
 30
0.0
 40
32.00000000000004
100
AcDbArc
 50
135.0
 51
225.0
  0
CIRCLE
  5
1AE
330
1F
100
AcDbEntity
  8
0
  6
Continuous
 62
     7
370
    15
100
AcDbCircle
 10
72.965511658
 20
320.2373657691
 30
0.0
 40
5.499999999999944
  0
CIRCLE
  5
1AF
330
1F
100
AcDbEntity
  8
0
  6
Continuous
 62
     7
370
    15
100
AcDbCircle
 10
72.965511658
 20
267.2043571801
 30
0.0
 40
5.499999999999974
  0
CIRCLE
  5
1B0
330
1F
100
AcDbEntity
  8
0
  6
Continuous
 62
     7
370
    15
100
AcDbCircle
 10
125.998520247
 20
267.2043571801
 30
0.0
 40
5.499999999999974
  0
CIRCLE
  5
1B1
330
1F
100
AcDbEntity
  8
0
  6
Continuous
 62
     7
370
    15
100
AcDbCircle
 10
125.998520247
 20
320.2373657691
 30
0.0
 40
5.500000000000035
  0
CIRCLE
  5
1B2
330
1F
100
AcDbEntity
  8
0
  6
Continuous
 62
     7
370
    15
100
AcDbCircle
 10
99.4820159525
 20
293.7208614746
 30
0.0
 40
50.0
  0
SPLINE
  5
1B3
330
1F
100
AcDbEntity
  8
0
  6
Continuous
 62
     7
370
    15
100
AcDbSpline
210
0.0
220
0.0
230
1.0
 70
     8
 71
     3
 72
    19
 73
    15
 74
     0
 42
0.00000001
 43
0.00000001
 40
0.0
 40
0.0
 40
0.0
 40
0.0
 40
0.016252243364001
 40
0.0802885351643922
 40
0.1917030771296077
 40
0.3062667999878502
 40
0.4196658516122384
 40
0.5364437626225299
 40
0.6476299322635883
 40
0.761801267216384
 40
0.8387282105581202
 40
0.916684817891556
 40
0.9735298760014478
 40
1.0
 40
1.0
 40
1.0
 40
1.0
 10
87.52995754034663
 20
291.6822461845186
 30
0.0
 10
87.62128073341474
 20
291.5681223458874
 30
0.0
 10
88.07243109055344
 20
291.0043333583722
 30
0.0
 10
89.51081806515772
 20
290.0140933572512
 30
0.0
 10
91.75253314777996
 20
288.6982185208898
 30
0.0
 10
94.63918180839029
 20
287.6602994038608
 30
0.0
 10
97.68982336762792
 20
287.0763255936288
 30
0.0
 10
100.7717748047871
 20
287.0335743101085
 30
0.0
 10
103.8166125101829
 20
287.5255582552426
 30
0.0
 10
106.4053183510262
 20
288.3784890878836
 30
0.0
 10
108.5781922954462
 20
289.4475368820532
 30
0.0
 10
110.1791431499424
 20
290.4694621024179
 30
0.0
 10
111.3121261562559
 20
291.399698873068
 30
0.0
 10
111.7421325365459
 20
292.0138920925211
 30
0.0
 10
111.8787501603499
 20
292.209027844092
 30
0.0
  0
LINE
  5
1B4
330
1F
100
AcDbEntity
  8
0
  6
Continuous
 62
     7
370
    15
100
AcDbLine
 10
49.4820152074
 20
220.7208625475
 30
0.0
 11
149.4820166975
 21
220.7208625475
 31
0.0
  0
LINE
  5
1B5
330
1F
100
AcDbEntity
  8
0
  6
Continuous
 62
     7
370
    15
100
AcDbLine
 10
49.4820152074
 20
232.7208607891
 30
0.0
 11
149.4820166975
 21
232.7208607891
 31
0.0
  0
LINE
  5
1B6
330
1F
100
AcDbEntity
  8
0
  6
Continuous
 62
     7
370
    15
100
AcDbLine
 10
97.4820158575
 20
243.7208607295
 30
0.0
 11
101.4820160475
 21
243.7208607295
 31
0.0
  0
ARC
  5
1B7
330
1F
100
AcDbEntity
  8
0
  6
Continuous
 62
     7
370
    15
100
AcDbCircle
 10
95.4820159525
 20
234.7208614746
 30
0.0
 40
2.0
100
AcDbArc
 50
270.0
 51
0.0
  0
ARC
  5
1B8
330
1F
100
AcDbEntity
  8
0
  6
Continuous
 62
     7
370
    15
100
AcDbCircle
 10
103.4820159525
 20
234.7208614746
 30
0.0
 40
2.000000000000014
100
AcDbArc
 50
180.0
 51
270.0
  0
LINE
  5
1B9
330
1F
100
AcDbEntity
  8
0
  6
Continuous
 62
     7
370
    15
100
AcDbLine
 10
97.4820158575
 20
234.720861117
 30
0.0
 11
97.4820158575
 21
243.7208607295
 31
0.0
  0
LINE
  5
1BA
330
1F
100
AcDbEntity
  8
0
  6
Continuous
 62
     7
370
    15
100
AcDbLine
 10
101.4820160475
 20
234.720861117
 30
0.0
 11
101.4820160475
 21
243.7208607295
 31
0.0
  0
SPLINE
  5
1BB
330
1F
100
AcDbEntity
  8
0
  6
Continuous
 62
     7
370
    15
100
AcDbSpline
210
0.0
220
0.0
230
1.0
 70
     8
 71
     3
 72
    22
 73
    18
 74
     0
 42
0.00000001
 43
0.00000001
 40
0.0
 40
0.0
 40
0.0
 40
0.0
 40
0.125
 40
0.125
 40
0.25
 40
0.25
 40
0.375
 40
0.375
 40
0.5
 40
0.5
 40
0.625
 40
0.625
 40
0.75
 40
0.75
 40
0.875
 40
0.875
 40
1.0
 40
1.0
 40
1.0
 40
1.0
 10
95.48201595248128
 20
232.7208614745942
 30
0.0
 10
95.50020968032511
 20
232.7208614745942
 30
0.0
 10
95.5183469656037
 20
232.746703897154
 30
0.0
 10
95.55450506680673
 20
232.8479410307972
 30
0.0
 10
95.57271699915455
 20
232.9245325420161
 30
0.0
 10
95.60793238007548
 20
233.1247797894556
 30
0.0
 10
95.62485753208898
 20
233.2473112180029
 30
0.0
 10
95.65724328546358
 20
233.5367048575204
 30
0.0
 10
95.67279526806566
 20
233.7053600310663
 30
0.0
 10
95.70094187040996
 20
234.0739646026772
 30
0.0
 10
95.71370655228075
 20
234.2750089878671
 30
0.0
 10
95.73640650026853
 20
234.7112484817409
 30
0.0
 10
95.74619327705017
 20
234.9446028409585
 30
0.0
 10
95.7619341241057
 20
235.425882487132
 30
0.0
 10
95.76801853719354
 20
235.6767959862882
 30
0.0
 10
95.77624284320439
 20
236.1946939450637
 30
0.0
 10
95.77831224877757
 20
236.456395483847
 30
0.0
 10
95.77831224877757
 20
236.7208614745942
 30
0.0
  0
SPLINE
  5
1BC
330
1F
100
AcDbEntity
  8
0
  6
Continuous
 62
     7
370
    15
100
AcDbSpline
210
0.0
220
0.0
230
1.0
 70
     8
 71
     3
 72
    22
 73
    18
 74
     0
 42
0.00000001
 43
0.00000001
 40
0.0
 40
0.0
 40
0.0
 40
0.0
 40
0.125
 40
0.125
 40
0.25
 40
0.25
 40
0.375
 40
0.375
 40
0.5
 40
0.5
 40
0.625
 40
0.625
 40
0.75
 40
0.75
 40
0.875
 40
0.875
 40
1.0
 40
1.0
 40
1.0
 40
1.0
 10
103.185719656185
 20
236.7208614745942
 30
0.0
 10
103.185719656185
 20
236.4564502655269
 30
0.0
 10
103.187787836589
 20
236.19644320487
 30
0.0
 10
103.19585893779
 20
235.6848804250613
 30
0.0
 10
103.2019608098941
 20
235.4306630260193
 30
0.0
 10
103.2177633099317
 20
234.946320980137
 30
0.0
 10
103.2273925545361
 20
234.71654101977
 30
0.0
 10
103.2499418674515
 20
234.2815829835685
 30
0.0
 10
103.2629562929629
 20
234.0759636631925
 30
0.0
 10
103.2910663866481
 20
233.70734467398
 30
0.0
 10
103.3062706470889
 20
233.541822905248
 30
0.0
 10
103.338889169105
 20
233.2493821191636
 30
0.0
 10
103.355985093852
 20
233.1256706040849
 30
0.0
 10
103.3909517094278
 20
232.9263609448791
 30
0.0
 10
103.4090548073281
 20
232.8495290383366
 30
0.0
 10
103.4455938281113
 20
232.7466966751402
 30
0.0
 10
103.4638259538265
 20
232.7208614745942
 30
0.0
 10
103.4820159524813
 20
232.7208614745942
 30
0.0
  0
SPLINE
  5
1BD
330
1F
100
AcDbEntity
  8
0
  6
Continuous
 62
     7
370
    15
100
AcDbSpline
210
0.0
220
0.0
230
1.0
 70
     8
 71
     3
 72
     9
 73
     5
 74
     0
 42
0.00000001
 43
0.00000001
 40
0.0
 40
0.0
 40
0.0
 40
0.0
 40
0.3125397339837996
 40
1.0
 40
1.0
 40
1.0
 40
1.0
 10
126.5506365001335
 20
272.5867419937459
 30
0.0
 10
126.4546964868734
 20
271.9982424630091
 30
0.0
 10
126.1477274751667
 20
270.1152833805417
 30
0.0
 10
125.4942852826972
 20
268.3187021596218
 30
0.0
 10
125.0450697392359
 20
267.0836239555684
 30
0.0
  0
SPLINE
  5
1BE
330
1F
100
AcDbEntity
  8
0
  6
Continuous
 62
     7
370
    15
100
AcDbSpline
210
0.0
220
0.0
230
1.0
 70
     8
 71
     3
 72
     9
 73
     5
 74
     0
 42
0.00000001
 43
0.00000001
 40
0.0
 40
0.0
 40
0.0
 40
0.0
 40
0.696594933939848
 40
1.0
 40
1.0
 40
1.0
 40
1.0
 10
73.91896402837182
 20
267.0836239555684
 30
0.0
 10
73.4633771722507
 20
268.3359854921583
 30
0.0
 10
72.80935740563486
 20
270.1338187458495
 30
0.0
 10
72.50611000700086
 20
272.0184672522881
 30
0.0
 10
72.41410320998574
 20
272.5902791568843
 30
0.0
  0
LINE
  5
1BF
330
1F
100
AcDbEntity
  8
0
  6
Continuous
 62
     7
370
    15
100
AcDbLine
 10
92.7323780619
 20
344.3380012611
 30
0.0
 11
92.7323780619
 21
345.7208625475
 31
0.0
  0
LINE
  5
1C0
330
1F
100
AcDbEntity
  8
0
  6
Continuous
 62
     7
370
    15
100
AcDbLine
 10
92.7323780619
 20
345.7208625475
 30
0.0
 11
106.41237792
 21
345.7208625475
 31
0.0
  0
LINE
  5
1C1
330
1F
100
AcDbEntity
  8
0
  6
Continuous
 62
     7
370
    15
100
AcDbLine
 10
106.41237792
 20
345.7208625475
 30
0.0
 11
128.1723783016
 21
345.7208625475
 31
0.0
  0
LINE
  5
1C2
330
1F
100
AcDbEntity
  8
0
  6
Continuous
 62
     7
370
    15
100
AcDbLine
 10
70.9691562355
 20
345.7208625475
 30
0.0
 11
92.7323780619
 21
345.7208625475
 31
0.0
  0
ARC
  5
1C3
330
1F
100
AcDbEntity
  8
0
  6
Continuous
 62
     7
370
    15
100
AcDbCircle
 10
99.4820159525
 20
310.2208614746
 30
0.0
 40
27.49999999999993
100
AcDbArc
 50
15.1034795098
 51
30.6715161586
  0
ARC
  5
1C4
330
1F
100
AcDbEntity
  8
0
  6
Continuous
 62
     7
370
    15
100
AcDbCircle
 10
125.2851952029
 20
325.5243231932
 30
0.0
 40
2.500000000000051
100
AcDbArc
 50
197.3108579834
 51
210.6715161586
  0
ARC
  5
1C5
330
1F
100
AcDbEntity
  8
0
  6
Continuous
 62
     7
370
    15
100
AcDbCircle
 10
73.6788367021
 20
325.5243231932
 30
0.0
 40
2.500000000000038
100
AcDbArc
 50
329.3284838414
 51
342.6891420166
  0
ARC
  5
1C6
330
1F
100
AcDbEntity
  8
0
  6
Continuous
 62
     7
370
    15
100
AcDbCircle
 10
99.4820159525
 20
310.2208614746
 30
0.0
 40
27.49999999999992
100
AcDbArc
 50
149.3284838414
 51
163.9498125024
  0
LINE
  5
1C7
330
1F
100
AcDbEntity
  8
0
  6
Continuous
 62
     7
370
    15
100
AcDbLine
 10
128.1723783016
 20
345.7208625475
 30
0.0
 11
134.572376743
 21
345.7208625475
 31
0.0
  0
SPLINE
  5
1C8
330
1F
100
AcDbEntity
  8
0
  6
Continuous
 62
     7
370
    15
100
AcDbSpline
210
0.0
220
0.0
230
1.0
 70
    24
 71
     3
 72
     9
 73
     5
 74
     0
 42
0.00000001
 43
0.00000001
 40
0.0
 40
0.0
 40
0.0
 40
0.0
 40
0.7961342278149857
 40
1.0
 40
1.0
 40
1.0
 40
1.0
 10
134.4820161014929
 20
333.5193186500874
 30
0.0
 10
134.4820161014929
 20
333.5365951162894
 30
0.0
 10
134.4820161014929
 20
333.5582955602578
 30
0.0
 10
134.4820161014929
 20
333.6933313956663
 30
0.0
 10
134.4820161014929
 20
333.7208605805245
 30
0.0
  0
SPLINE
  5
1C9
330
1F
100
AcDbEntity
  8
0
  6
Continuous
 62
     7
370
    15
100
AcDbSpline
210
0.0
220
0.0
230
1.0
 70
    24
 71
     3
 72
    12
 73
     8
 74
     0
 42
0.00000001
 43
0.00000001
 40
0.0
 40
0.0
 40
0.0
 40
0.0
 40
0.4999999999999999
 40
0.4999999999999999
 40
0.7499999999999999
 40
0.7499999999999999
 40
1.0
 40
1.0
 40
1.0
 40
1.0
 10
134.4820159524809
 20
333.720861474594
 30
0.0
 10
134.4284333854094
 20
333.6899255650713
 30
0.0
 10
134.3317137086849
 20
333.6340844336786
 30
0.0
 10
134.1193229274681
 20
333.5114605589696
 30
0.0
 10
134.0371854876825
 20
333.4640384859988
 30
0.0
 10
133.8477546111151
 20
333.3546705184199
 30
0.0
 10
133.7405168362701
 20
333.2927567602458
 30
0.0
 10
133.6210490241221
 20
333.2237819867426
 30
0.0
  0
LINE
  5
1CA
330
1F
100
AcDbEntity
  8
0
  6
Continuous
 62
     7
370
    15
100
AcDbLine
 10
64.5723764449
 20
345.7208625475
 30
0.0
 11
70.9691562355
 21
345.7208625475
 31
0.0
  0
SPLINE
  5
1CB
330
1F
100
AcDbEntity
  8
0
  6
Continuous
 62
     7
370
    15
100
AcDbSpline
210
0.0
220
0.0
230
1.0
 70
     8
 71
     3
 72
    10
 73
     6
 74
     0
 42
0.00000001
 43
0.00000001
 40
0.0
 40
0.0
 40
0.0
 40
0.0
 40
0.2955898564634025
 40
0.6423517179606797
 40
1.0
 40
1.0
 40
1.0
 40
1.0
 10
64.71100939811612
 20
333.5886537531224
 30
0.0
 10
64.6926015619188
 20
333.5992798989372
 30
0.0
 10
64.65259915673899
 20
333.6223717705632
 30
0.0
 10
64.89911797656382
 20
333.480046546991
 30
0.0
 10
65.19351110710325
 20
333.3100779147995
 30
0.0
 10
65.34298254550839
 20
333.2237801948395
 30
0.0
  0
LWPOLYLINE
  5
1CC
330
1F
100
AcDbEntity
  8
0
  6
Continuous
 62
     7
370
    15
100
AcDbPolyline
 90
        4
 70
   128
 43
0.0
 10
131.5887656659
 20
332.0504404107
 10
132.1072478444
 20
332.3497898379
 10
132.9415415079
 20
332.8314698735
 10
133.6210493595
 20
333.2237801948
  0
LWPOLYLINE
  5
1CD
330
1F
100
AcDbEntity
  8
0
  6
Continuous
 62
     7
370
    15
100
AcDbPolyline
 90
        4
 70
   128
 43
0.0
 10
67.3752662391
 20
332.0504404107
 10
66.8370549232
 20
332.3611780504
 10
65.999211058
 20
332.8449107209
 10
65.3429825455
 20
333.2237801948
  0
SPLINE
  5
1CE
330
1F
100
AcDbEntity
  8
0
  6
Continuous
 62
     7
370
    15
100
AcDbSpline
210
0.0
220
0.0
230
1.0
 70
     8
 71
     3
 72
     9
 73
     5
 74
     0
 42
0.00000001
 43
0.00000001
 40
0.0
 40
0.0
 40
0.0
 40
0.0
 40
0.1447134626705512
 40
1.0
 40
1.0
 40
1.0
 40
1.0
 10
72.38045266271973
 20
314.8601628342477
 30
0.0
 10
72.40289630955895
 20
314.9974375325136
 30
0.0
 10
72.55798655772965
 20
315.9460341297663
 30
0.0
 10
72.8253209113005
 20
316.9582804222144
 30
0.0
 10
73.0539683848753
 20
317.8240410486069
 30
0.0
  0
SPLINE
  5
1CF
330
1F
100
AcDbEntity
  8
0
  6
Continuous
 62
     7
370
    15
100
AcDbSpline
210
0.0
220
0.0
230
1.0
 70
     8
 71
     3
 72
     9
 73
     5
 74
     0
 42
0.00000001
 43
0.00000001
 40
0.0
 40
0.0
 40
0.0
 40
0.0
 40
0.2831302007953516
 40
0.9999999999999999
 40
0.9999999999999999
 40
0.9999999999999999
 40
0.9999999999999999
 10
126.5744988471403
 20
314.852365801653
 30
0.0
 10
126.5389569425919
 20
315.0822193748988
 30
0.0
 10
126.4134249278207
 20
315.8940493125041
 30
0.0
 10
126.1913073422213
 20
316.7632463048457
 30
0.0
 10
126.0320779532328
 20
317.3863473782149
 30
0.0
  0
LINE
  5
1D0
330
1F
100
AcDbEntity
  8
0
  6
Continuous
 62
     8
370
    15
100
AcDbLine
 10
95.6441292204
 20
385.3635020057
 30
0.0
 11
95.6183127258
 21
385.3635020057
 31
0.0
  0
LINE
  5
1D1
330
1F
100
AcDbEntity
  8
0
  6
Continuous
 62
     8
370
    15
100
AcDbLine
 10
103.3457191792
 20
385.3635020057
 30
0.0
 11
95.6441292204
 21
385.3635020057
 31
0.0
  0
LINE
  5
1D2
330
1F
100
AcDbEntity
  8
0
  6
Continuous
 62
     8
370
    15
100
AcDbLine
 10
95.5087433234
 20
384.3282289306
 30
0.0
 11
95.4820157625
 21
384.3282289306
 31
0.0
  0
LINE
  5
1D3
330
1F
100
AcDbEntity
  8
0
  6
Continuous
 62
     8
370
    15
100
AcDbLine
 10
103.4820161425
 20
384.3282289306
 30
0.0
 11
95.5087433234
 21
384.3282289306
 31
0.0
  0
LINE
  5
1D4
330
1F
100
AcDbEntity
  8
0
  6
Continuous
 62
     8
370
    15
100
AcDbLine
 10
95.8700163886
 20
386.2121976415
 30
0.0
 11
95.8457193468
 21
386.2121976415
 31
0.0
  0
LINE
  5
1D5
330
1F
100
AcDbEntity
  8
0
  6
Continuous
 62
     8
370
    15
100
AcDbLine
 10
103.1183125582
 20
386.2121976415
 30
0.0
 11
95.8700163886
 21
386.2121976415
 31
0.0
  0
LINE
  5
1D6
330
1F
100
AcDbEntity
  8
0
  6
Continuous
 62
     8
370
    15
100
AcDbLine
 10
96.0054022856
 20
387.2474707166
 30
0.0
 11
95.9820158444
 21
387.2474707166
 31
0.0
  0
LINE
  5
1D7
330
1F
100
AcDbEntity
  8
0
  6
Continuous
 62
     8
370
    15
100
AcDbLine
 10
102.9820160605
 20
387.2474707166
 30
0.0
 11
96.0054022856
 21
387.2474707166
 31
0.0
  0
LINE
  5
1D8
330
1F
100
AcDbEntity
  8
0
  6
Continuous
 62
     8
370
    15
100
AcDbLine
 10
103.1857195906
 20
243.8582233587
 30
0.0
 11
103.1857195906
 21
236.7208614448
 31
0.0
  0
LINE
  5
1D9
330
1F
100
AcDbEntity
  8
0
  6
Continuous
 62
     8
370
    15
100
AcDbLine
 10
95.7783123143
 20
236.7208614448
 30
0.0
 11
95.7783123143
 21
243.8582233587
 31
0.0
  0
LINE
  5
1DA
330
1F
100
AcDbEntity
  8
0
  6
Continuous
 62
     8
370
    15
100
AcDbLine
 10
106.41237792
 20
343.238232235
 30
0.0
 11
106.41237792
 21
345.7208625475
 31
0.0
  0
LINE
  5
1DB
330
1F
100
AcDbEntity
  8
0
  6
Continuous
 62
     8
370
    15
100
AcDbLine
 10
128.1723783016
 20
334.6703811982
 30
0.0
 11
128.1723783016
 21
345.7208625475
 31
0.0
  0
LINE
  5
1DC
330
1F
100
AcDbEntity
  8
0
  6
Continuous
 62
     8
370
    15
100
AcDbLine
 10
70.9691562355
 20
334.7941725949
 30
0.0
 11
70.9691562355
 21
345.7208625475
 31
0.0
  0
LINE
  5
1DD
330
1F
100
AcDbEntity
  8
0
  6
Continuous
 62
     8
370
    15
100
AcDbLine
 10
128.7634384483
 20
334.249840627
 30
0.0
 11
134.572376743
 21
334.249840627
 31
0.0
  0
LINE
  5
1DE
330
1F
100
AcDbEntity
  8
0
  6
Continuous
 62
     8
370
    15
100
AcDbLine
 10
133.6210493595
 20
333.2237801948
 30
0.0
 11
130.1335946322
 21
333.2237801948
 31
0.0
  0
LINE
  5
1DF
330
1F
100
AcDbEntity
  8
0
  6
Continuous
 62
     8
370
    15
100
AcDbLine
 10
64.5723764449
 20
334.249840627
 30
0.0
 11
70.2005934566
 21
334.249840627
 31
0.0
  0
LINE
  5
1E0
330
1F
100
AcDbEntity
  8
0
  6
Continuous
 62
     8
370
    15
100
AcDbLine
 10
68.8304372728
 20
333.2237801948
 30
0.0
 11
65.3429825455
 21
333.2237801948
 31
0.0
  0
LINE
  5
1E1
330
1F
100
AcDbEntity
  8
1
100
AcDbLine
 10
92.7323778311
 20
344.3380013205
 30
0.0
 11
92.7323778311
 21
343.2631907015
 31
0.0
  0
LINE
  5
1E2
330
1F
100
AcDbEntity
  8
1
100
AcDbLine
 10
74.4820159525
 20
244.4659358084
 30
0.0
 11
74.4820159525
 21
232.7208614746
 31
0.0
  0
LINE
  5
1E3
330
1F
100
AcDbEntity
  8
1
100
AcDbLine
 10
124.4820159525
 20
244.4659358084
 30
0.0
 11
124.4820159525
 21
232.7208614746
 31
0.0
  0
LINE
  5
1E4
330
1F
100
AcDbEntity
  8
1
100
AcDbLine
 10
103.4820159525
 20
384.3282260805
 30
0.0
 11
103.4820159525
 21
358.7208614746
 31
0.0
  0
LINE
  5
1E5
330
1F
100
AcDbEntity
  8
1
100
AcDbLine
 10
99.4820159525
 20
217.7102877186
 30
0.0
 11
129.4820159525
 21
217.7102877186
 31
0.0
  0
LINE
  5
1E6
330
1F
100
AcDbEntity
  8
1
100
AcDbLine
 10
129.4820159525
 20
217.7102877186
 30
0.0
 11
131.4820159525
 21
220.7208614746
 31
0.0
  0
LINE
  5
1E7
330
1F
100
AcDbEntity
  8
1
100
AcDbLine
 10
99.4820159525
 20
217.7102877186
 30
0.0
 11
69.4820159525
 21
217.7102877186
 31
0.0
  0
LINE
  5
1E8
330
1F
100
AcDbEntity
  8
1
100
AcDbLine
 10
69.4820159525
 20
217.7102877186
 30
0.0
 11
67.4820159525
 21
220.7208614746
 31
0.0
  0
LINE
  5
1E9
330
1F
100
AcDbEntity
  8
1
100
AcDbLine
 10
95.4820159525
 20
384.3282260805
 30
0.0
 11
95.4820159525
 21
358.7208614746
 31
0.0
  0
LINE
  5
1EA
330
1F
100
AcDbEntity
  8
0
  6
Continuous
 62
     7
370
    15
100
AcDbLine
 10
370.4623038847
 20
484.7005982461
 30
0.0
 11
382.4623058517
 21
484.7005982461
 31
0.0
  0
LINE
  5
1EB
330
1F
100
AcDbEntity
  8
0
  6
Continuous
 62
     7
370
    15
100
AcDbLine
 10
382.4623058517
 20
584.7005997363
 30
0.0
 11
370.4623038847
 21
584.7005997363
 31
0.0
  0
LINE
  5
1EC
330
1F
100
AcDbEntity
  8
0
  6
Continuous
 62
     7
370
    15
100
AcDbLine
 10
238.4623046
 20
584.7005997363
 30
0.0
 11
226.462302633
 21
584.7005997363
 31
0.0
  0
LINE
  5
1ED
330
1F
100
AcDbEntity
  8
0
  6
Continuous
 62
     7
370
    15
100
AcDbLine
 10
226.462302633
 20
484.7005982461
 30
0.0
 11
238.4623046
 21
484.7005982461
 31
0.0
  0
LINE
  5
1EE
330
1F
100
AcDbEntity
  8
0
  6
Continuous
 62
     7
370
    15
100
AcDbLine
 10
259.169036426
 20
555.6490351024
 30
0.0
 11
255.4566468079
 21
554.7151737425
 31
0.0
  0
LINE
  5
1EF
330
1F
100
AcDbEntity
  8
0
  6
Continuous
 62
     7
370
    15
100
AcDbLine
 10
382.4623058517
 20
502.7005974713
 30
0.0
 11
384.4623024542
 21
504.7005996618
 31
0.0
  0
LINE
  5
1F0
330
1F
100
AcDbEntity
  8
0
  6
Continuous
 62
     7
370
    15
100
AcDbLine
 10
384.4623024542
 20
564.7005983206
 30
0.0
 11
382.4623058517
 21
566.7006005111
 31
0.0
  0
LINE
  5
1F1
330
1F
100
AcDbEntity
  8
0
  6
Continuous
 62
     7
370
    15
100
AcDbLine
 10
226.462302633
 20
566.7006005111
 30
0.0
 11
224.4623060305
 21
564.7005983206
 31
0.0
  0
LINE
  5
1F2
330
1F
100
AcDbEntity
  8
0
  6
Continuous
 62
     7
370
    15
100
AcDbLine
 10
224.4623060305
 20
504.7005996618
 30
0.0
 11
226.462302633
 21
502.7005974713
 31
0.0
  0
SPLINE
  5
1F3
330
1F
100
AcDbEntity
  8
0
  6
Continuous
 62
     7
370
    15
100
AcDbSpline
210
0.0
220
0.0
230
1.0
 70
     8
 71
     3
 72
    18
 73
    14
 74
     0
 42
0.00000001
 43
0.00000001
 40
0.0
 40
0.0
 40
0.0
 40
0.0
 40
0.1928783519142505
 40
0.356154444717675
 40
0.4900450940494922
 40
0.6000875049474351
 40
0.6607950523498267
 40
0.7111580321630074
 40
0.7530166557146488
 40
0.795776348726187
 40
0.8503995258979564
 40
0.9170995525889147
 40
1.0
 40
1.0
 40
1.0
 40
1.0
 10
255.6069138426304
 20
554.6770249071586
 30
0.0
 10
254.3039443505704
 20
555.021977541927
 30
0.0
 10
251.8979803254578
 20
555.6589407514862
 30
0.0
 10
248.6943626390721
 20
556.5728387900166
 30
0.0
 10
245.9940336877553
 20
557.3799916383618
 30
0.0
 10
243.9583267754795
 20
557.9864192246689
 30
0.0
 10
242.4805382662467
 20
558.4306951539924
 30
0.0
 10
241.4665615456143
 20
558.7326894566323
 30
0.0
 10
240.5408923655796
 20
559.0242392163769
 30
0.0
 10
239.7266584858514
 20
559.2928249778196
 30
0.0
 10
238.9838019321438
 20
559.5881630276705
 30
0.0
 10
238.4837326501697
 20
559.9068123801708
 30
0.0
 10
238.4699449780577
 20
560.0491837932265
 30
0.0
 10
238.4623045999527
 20
560.1280782881248
 30
0.0
  0
SPLINE
  5
1F4
330
1F
100
AcDbEntity
  8
0
  6
Continuous
 62
     7
370
    15
100
AcDbSpline
210
0.0
220
0.0
230
1.0
 70
     8
 71
     3
 72
    19
 73
    15
 74
     0
 42
0.00000001
 43
0.00000001
 40
0.0
 40
0.0
 40
0.0
 40
0.0
 40
0.0173072812382443
 40
0.0344159137574123
 40
0.0527042013726876
 40
0.0728166042257243
 40
0.1570551400825602
 40
0.2297820270011582
 40
0.3274010983120055
 40
0.424005589091582
 40
0.5372886206169074
 40
0.6698622440372667
 40
0.824688447442434
 40
1.0
 40
1.0
 40
1.0
 40
1.0
 10
238.4623045999527
 20
506.3304197552669
 30
0.0
 10
238.4706762422303
 20
506.4412290647406
 30
0.0
 10
238.4873234391337
 20
506.6615758416764
 30
0.0
 10
238.5866787089614
 20
506.9816103334375
 30
0.0
 10
238.7997155513495
 20
507.2688823102729
 30
0.0
 10
239.4038405307978
 20
507.7923590911284
 30
0.0
 10
240.4993622588013
 20
508.3128894372232
 30
0.0
 10
242.026180498228
 20
508.9970130036295
 30
0.0
 10
243.6163656097229
 20
509.6873557567556
 30
0.0
 10
245.448276404413
 20
510.4909610794801
 30
0.0
 10
247.4950212442415
 20
511.3848141569004
 30
0.0
 10
249.8204706948181
 20
512.4072843672872
 30
0.0
 10
252.5720506353315
 20
513.5360095705654
 30
0.0
 10
254.5540373090327
 20
514.3285384290696
 30
0.0
 10
255.6065226871491
 20
514.7493914279211
 30
0.0
  0
SPLINE
  5
1F5
330
1F
100
AcDbEntity
  8
0
  6
Continuous
 62
     7
370
    15
100
AcDbSpline
210
0.0
220
0.0
230
1.0
 70
     8
 71
     3
 72
    22
 73
    18
 74
     0
 42
0.00000001
 43
0.00000001
 40
0.0
 40
0.0
 40
0.0
 40
0.0
 40
0.0218004915014821
 40
0.0450907338560274
 40
0.0976691696787981
 40
0.1975651851022741
 40
0.2959613430873086
 40
0.382593258143084
 40
0.4574231847560265
 40
0.5015030310319359
 40
0.5422343019607395
 40
0.579662709053928
 40
0.6208172225569086
 40
0.6823689667302295
 40
0.765909151745867
 40
0.8719588072046532
 40
0.9999999999999999
 40
0.9999999999999999
 40
0.9999999999999999
 40
0.9999999999999999
 10
370.462303884697
 20
561.6994821044672
 30
0.0
 10
370.3948954477721
 20
561.581513441118
 30
0.0
 10
370.2554721742727
 20
561.3375146486106
 30
0.0
 10
369.8002191587373
 20
560.8830589981534
 30
0.0
 10
368.8788282413754
 20
560.2150958184749
 30
0.0
 10
367.3702299733421
 20
559.6546504261098
 30
0.0
 10
365.7443675123852
 20
559.0503833598652
 30
0.0
 10
364.241995200637
 20
558.495037851974
 30
0.0
 10
363.0556407609653
 20
558.057649912333
 30
0.0
 10
362.1308477818052
 20
557.71741440542
 30
0.0
 10
361.4266628921446
 20
557.459005730916
 30
0.0
 10
360.7437876369261
 20
557.2092614802531
 30
0.0
 10
359.9490049446536
 20
556.9177608759068
 30
0.0
 10
358.8863203273127
 20
556.5373046515755
 30
0.0
 10
357.4390998844273
 20
556.0359148391059
 30
0.0
 10
355.5821559011672
 20
555.4149964704123
 30
0.0
 10
354.2118320503955
 20
554.9627539229979
 30
0.0
 10
353.462302960825
 20
554.7153898092973
 30
0.0
  0
SPLINE
  5
1F6
330
1F
100
AcDbEntity
  8
0
  6
Continuous
 62
     7
370
    15
100
AcDbSpline
210
0.0
220
0.0
230
1.0
 70
     8
 71
     3
 72
    20
 73
    16
 74
     0
 42
0.00000001
 43
0.00000001
 40
0.0
 40
0.0
 40
0.0
 40
0.0
 40
0.1114947998068174
 40
0.1997492611139614
 40
0.2645428073332022
 40
0.3204704674682574
 40
0.3802988660483055
 40
0.4438458291987633
 40
0.51109060778574
 40
0.7610052041422883
 40
0.8266320458464438
 40
0.8936445770278956
 40
0.9514353871299962
 40
0.9769111025248358
 40
1.0
 40
1.0
 40
1.0
 40
1.0
 10
353.462302960825
 20
514.6915078672636
 30
0.0
 10
354.1156297575519
 20
514.4702824710648
 30
0.0
 10
355.2861017897745
 20
514.0739446193721
 30
0.0
 10
356.8412928708572
 20
513.5479320013468
 30
0.0
 10
358.055073379361
 20
513.1280658699751
 30
0.0
 10
359.0945702375776
 20
512.7618195222743
 30
0.0
 10
360.1163675021436
 20
512.3921748310578
 30
0.0
 10
361.1987313552792
 20
511.9927661114201
 30
0.0
 10
363.3992217859858
 20
511.1840254333391
 30
0.0
 10
365.6077623374369
 20
510.3660334181041
 30
0.0
 10
367.8248871568854
 20
509.5541239868018
 30
0.0
 10
368.9435279650923
 20
509.0966262702902
 30
0.0
 10
369.7175839122626
 20
508.567791942847
 30
0.0
 10
370.2182466218779
 20
508.0950286050795
 30
0.0
 10
370.3836613577341
 20
507.8246353310262
 30
0.0
 10
370.462303884697
 20
507.6960832390058
 30
0.0
  0
LINE
  5
1F7
330
1F
100
AcDbEntity
  8
0
  6
Continuous
 62
     7
370
    15
100
AcDbLine
 10
353.4690792639
 20
554.714346728
 30
0.0
 11
349.7779983062
 21
555.6430839512
 31
0.0
  0
CIRCLE
  5
1F8
330
1F
100
AcDbEntity
  8
0
  6
Continuous
 62
     7
370
    15
100
AcDbCircle
 10
304.4623042423
 20
534.7005989912
 30
0.0
 40
50.00000000000011
  0
LINE
  5
1F9
330
1F
100
AcDbEntity
  8
0
  6
Continuous
 62
     7
370
    15
100
AcDbLine
 10
370.4623038847
 20
584.7005997363
 30
0.0
 11
370.4623038847
 21
484.7005982461
 31
0.0
  0
LINE
  5
1FA
330
1F
100
AcDbEntity
  8
0
  6
Continuous
 62
     7
370
    15
100
AcDbLine
 10
382.4623058517
 20
584.7005997363
 30
0.0
 11
382.4623058517
 21
484.7005982461
 31
0.0
  0
LINE
  5
1FB
330
1F
100
AcDbEntity
  8
0
  6
Continuous
 62
     7
370
    15
100
AcDbLine
 10
238.4623046
 20
584.7005997363
 30
0.0
 11
238.4623046
 21
484.7005982461
 31
0.0
  0
LINE
  5
1FC
330
1F
100
AcDbEntity
  8
0
  6
Continuous
 62
     7
370
    15
100
AcDbLine
 10
226.462302633
 20
584.7005997363
 30
0.0
 11
226.462302633
 21
484.7005982461
 31
0.0
  0
LINE
  5
1FD
330
1F
100
AcDbEntity
  8
0
  6
Continuous
 62
     7
370
    15
100
AcDbLine
 10
254.4623034973
 20
536.7005990862
 30
0.0
 11
254.4623034973
 21
532.7005988962
 31
0.0
  0
LINE
  5
1FE
330
1F
100
AcDbEntity
  8
0
  6
Continuous
 62
     7
370
    15
100
AcDbLine
 10
354.4623049874
 20
536.7005990862
 30
0.0
 11
354.4623049874
 21
532.7005988962
 31
0.0
  0
LINE
  5
1FF
330
1F
100
AcDbEntity
  8
0
  6
Continuous
 62
     7
370
    15
100
AcDbLine
 10
368.4623072822
 20
536.7005990862
 30
0.0
 11
368.4623072822
 21
532.7005988962
 31
0.0
  0
LINE
  5
200
330
1F
100
AcDbEntity
  8
0
  6
Continuous
 62
     7
370
    15
100
AcDbLine
 10
368.4623072822
 20
532.7005988962
 30
0.0
 11
370.4623038847
 21
532.7005988962
 31
0.0
  0
LINE
  5
201
330
1F
100
AcDbEntity
  8
0
  6
Continuous
 62
     7
370
    15
100
AcDbLine
 10
368.4623072822
 20
536.7005990862
 30
0.0
 11
370.4623038847
 21
536.7005990862
 31
0.0
  0
ARC
  5
202
330
1F
100
AcDbEntity
  8
0
  6
Continuous
 62
     7
370
    15
100
AcDbCircle
 10
240.4623042423
 20
538.7005989912
 30
0.0
 40
2.0
100
AcDbArc
 50
180.0
 51
270.0
  0
LINE
  5
203
330
1F
100
AcDbEntity
  8
0
  6
Continuous
 62
     7
370
    15
100
AcDbLine
 10
240.4623012025
 20
536.7005990862
 30
0.0
 11
240.4623012025
 21
532.7005988962
 31
0.0
  0
LINE
  5
204
330
1F
100
AcDbEntity
  8
0
  6
Continuous
 62
     7
370
    15
100
AcDbLine
 10
238.4623046
 20
532.7005988962
 30
0.0
 11
240.4623012025
 21
532.7005988962
 31
0.0
  0
LINE
  5
205
330
1F
100
AcDbEntity
  8
0
  6
Continuous
 62
     7
370
    15
100
AcDbLine
 10
240.4623012025
 20
536.7005990862
 30
0.0
 11
254.4623034973
 21
536.7005990862
 31
0.0
  0
LINE
  5
206
330
1F
100
AcDbEntity
  8
0
  6
Continuous
 62
     7
370
    15
100
AcDbLine
 10
240.4623012025
 20
532.7005988962
 30
0.0
 11
254.4623034973
 21
532.7005988962
 31
0.0
  0
LINE
  5
207
330
1F
100
AcDbEntity
  8
0
  6
Continuous
 62
     7
370
    15
100
AcDbLine
 10
354.4623049874
 20
532.7005988962
 30
0.0
 11
368.4623072822
 21
532.7005988962
 31
0.0
  0
LINE
  5
208
330
1F
100
AcDbEntity
  8
0
  6
Continuous
 62
     7
370
    15
100
AcDbLine
 10
354.4623049874
 20
536.7005990862
 30
0.0
 11
368.4623072822
 21
536.7005990862
 31
0.0
  0
SPLINE
  5
209
330
1F
100
AcDbEntity
  8
0
  6
Continuous
 62
     7
370
    15
100
AcDbSpline
210
0.0
220
0.0
230
1.0
 70
     8
 71
     3
 72
    16
 73
    12
 74
     0
 42
0.00000001
 43
0.00000001
 40
0.0
 40
0.0
 40
0.0
 40
0.0
 40
0.1518103134184697
 40
0.2292873115657809
 40
0.3066580591330247
 40
0.4361202358266378
 40
0.570277725329021
 40
0.6993653162188838
 40
0.8310652066353086
 40
0.9836771345985299
 40
1.0
 40
1.0
 40
1.0
 40
1.0
 10
255.4623055238247
 20
544.6925474840272
 30
0.0
 10
255.4618872217056
 20
545.5700888259515
 30
0.0
 10
255.4612554374336
 20
546.8954868871688
 30
0.0
 10
255.4637276402344
 20
548.5539160287858
 30
0.0
 10
255.461758100725
 20
549.9943151198725
 30
0.0
 10
255.4618572822232
 20
551.4595463392977
 30
0.0
 10
255.4632989790708
 20
552.7578596242256
 30
0.0
 10
255.4635938481872
 20
553.7922811480656
 30
0.0
 10
255.4616536044594
 20
554.463518787262
 30
0.0
 10
255.4622372293094
 20
554.7820296304602
 30
0.0
 10
255.4622927123464
 20
554.6983753920489
 30
0.0
 10
255.4622980732441
 20
554.6902925285566
 30
0.0
  0
SPLINE
  5
20A
330
1F
100
AcDbEntity
  8
0
  6
Continuous
 62
     7
370
    15
100
AcDbSpline
210
0.0
220
0.0
230
1.0
 70
     8
 71
     3
 72
     9
 73
     5
 74
     0
 42
0.00000001
 43
0.00000001
 40
0.0
 40
0.0
 40
0.0
 40
0.0
 40
0.9315269991255679
 40
1.0
 40
1.0
 40
1.0
 40
1.0
 10
255.4623055238247
 20
514.6915022793281
 30
0.0
 10
256.5870510349448
 20
514.4087449588786
 30
0.0
 10
257.7944723036529
 20
514.1052032250213
 30
0.0
 10
259.0013495422893
 20
513.8015746453544
 30
0.0
 10
259.0839880485058
 20
513.7807842853534
 30
0.0
  0
SPLINE
  5
20B
330
1F
100
AcDbEntity
  8
0
  6
Continuous
 62
     7
370
    15
100
AcDbSpline
210
0.0
220
0.0
230
1.0
 70
     8
 71
     3
 72
    13
 73
     9
 74
     0
 42
0.00000001
 43
0.00000001
 40
0.0
 40
0.0
 40
0.0
 40
0.0
 40
0.0296832989161679
 40
0.1713131435090331
 40
0.3105461822836722
 40
0.4487373818638404
 40
0.7245151776497047
 40
1.0
 40
1.0
 40
1.0
 40
1.0
 10
254.641542114687
 20
531.2288656874615
 30
0.0
 10
254.5669310511472
 20
531.250321489546
 30
0.0
 10
254.1363233928925
 20
531.3741507482803
 30
0.0
 10
253.3280240025146
 20
531.4171156723119
 30
0.0
 10
252.2549684007224
 20
531.7213125920171
 30
0.0
 10
250.8218348084023
 20
532.0938275972877
 30
0.0
 10
248.9987209181801
 20
532.5504400482287
 30
0.0
 10
247.5128498714805
 20
532.6505636840809
 30
0.0
 10
246.7703091878414
 20
532.7005988962072
 30
0.0
  0
SPLINE
  5
20C
330
1F
100
AcDbEntity
  8
0
  6
Continuous
 62
     7
370
    15
100
AcDbSpline
210
0.0
220
0.0
230
1.0
 70
    24
 71
     3
 72
    30
 73
    26
 74
     0
 42
0.00000001
 43
0.00000001
 40
0.0
 40
0.0
 40
0.0
 40
0.0
 40
0.1250000000000004
 40
0.1250000000000004
 40
0.1875000000000005
 40
0.1875000000000005
 40
0.2500000000000006
 40
0.2500000000000006
 40
0.3125000000000007
 40
0.3125000000000007
 40
0.3750000000000008
 40
0.3750000000000008
 40
0.4375000000000009
 40
0.4375000000000009
 40
0.500000000000001
 40
0.500000000000001
 40
0.6250000000000009
 40
0.6250000000000009
 40
0.7500000000000008
 40
0.7500000000000008
 40
0.8125000000000007
 40
0.8125000000000007
 40
0.8750000000000007
 40
0.8750000000000007
 40
1.0
 40
1.0
 40
1.0
 40
1.0
 10
255.4623042423248
 20
524.6403630244994
 30
0.0
 10
255.4623042423248
 20
523.9062827792919
 30
0.0
 10
255.4623042423248
 20
523.1937353616145
 30
0.0
 10
255.4623042423248
 20
522.1564991782759
 30
0.0
 10
255.4623042423248
 20
521.8159785851868
 30
0.0
 10
255.4623042423248
 20
521.1451216712051
 30
0.0
 10
255.4623042423248
 20
520.8141865069597
 30
0.0
 10
255.4623042423248
 20
520.1753037492633
 30
0.0
 10
255.4623042423248
 20
519.8649449170053
 30
0.0
 10
255.4623042423248
 20
519.2707250680456
 30
0.0
 10
255.4623042423248
 20
518.9900463375943
 30
0.0
 10
255.4623042423248
 20
518.460565511531
 30
0.0
 10
255.4623042423248
 20
518.2118107803915
 30
0.0
 10
255.4623042423248
 20
517.7456077270753
 30
0.0
 10
255.4623042423248
 20
517.5287015783531
 30
0.0
 10
255.4623042423248
 20
516.9031564802915
 30
0.0
 10
255.4623042423248
 20
516.5252923895999
 30
0.0
 10
255.4623042423248
 20
515.8741241733397
 30
0.0
 10
255.4623042423248
 20
515.5986612355119
 30
0.0
 10
255.4623042423248
 20
515.2631740580931
 30
0.0
 10
255.4623042423248
 20
515.1643242420755
 30
0.0
 10
255.4623042423248
 20
514.9934575870428
 30
0.0
 10
255.4623042423248
 20
514.9216369757183
 30
0.0
 10
255.4623042423248
 20
514.7495774582491
 30
0.0
 10
255.4623042423248
 20
514.6915022655182
 30
0.0
 10
255.4623042423248
 20
514.6915022655182
 30
0.0
  0
LINE
  5
20D
330
1F
100
AcDbEntity
  8
0
  6
Continuous
 62
     7
370
    15
100
AcDbLine
 10
384.4623024542
 20
564.7005983206
 30
0.0
 11
384.4623024542
 21
504.7005996618
 31
0.0
  0
LINE
  5
20E
330
1F
100
AcDbEntity
  8
0
  6
Continuous
 62
     7
370
    15
100
AcDbLine
 10
224.4623060305
 20
564.7005983206
 30
0.0
 11
224.4623060305
 21
504.7005996618
 31
0.0
  0
SPLINE
  5
20F
330
1F
100
AcDbEntity
  8
0
  6
Continuous
 62
     7
370
    15
100
AcDbSpline
210
0.0
220
0.0
230
1.0
 70
    24
 71
     3
 72
    16
 73
    12
 74
     0
 42
0.00000001
 43
0.00000001
 40
0.0
 40
0.0
 40
0.0
 40
0.0
 40
0.1215884251203421
 40
0.2433566960185447
 40
0.3653097781584699
 40
0.4874493320935044
 40
0.6097200373926245
 40
0.732165094712853
 40
0.854890487725587
 40
0.9778384242644367
 40
1.0
 40
1.0
 40
1.0
 40
1.0
 10
353.462302960825
 20
514.6915022793281
 30
0.0
 10
353.462302960825
 20
514.7251051003329
 30
0.0
 10
353.462302960825
 20
514.792360445474
 30
0.0
 10
353.462302960825
 20
515.3294558871537
 30
0.0
 10
353.462302960825
 20
516.1560563208513
 30
0.0
 10
353.462302960825
 20
517.2791057853474
 30
0.0
 10
353.462302960825
 20
518.6704200777233
 30
0.0
 10
353.462302960825
 20
520.4267857781159
 30
0.0
 10
353.462302960825
 20
522.4522770268319
 30
0.0
 10
353.462302960825
 20
523.9861253601208
 30
0.0
 10
353.462302960825
 20
524.8781229076459
 30
0.0
 10
353.462302960825
 20
525.0143515455592
 30
0.0
  0
SPLINE
  5
210
330
1F
100
AcDbEntity
  8
0
  6
Continuous
 62
     7
370
    15
100
AcDbSpline
210
0.0
220
0.0
230
1.0
 70
     8
 71
     3
 72
    13
 73
     9
 74
     0
 42
0.00000001
 43
0.00000001
 40
0.0
 40
0.0
 40
0.0
 40
0.0
 40
0.0867306877757264
 40
0.2717143860791378
 40
0.4558885846240677
 40
0.6395938069779729
 40
0.818286707049997
 40
1.0
 40
1.0
 40
1.0
 40
1.0
 10
354.2455154437542
 20
538.2319837386775
 30
0.0
 10
354.496845774263
 20
538.1792311157552
 30
0.0
 10
355.2842264374243
 20
538.0139649692618
 30
0.0
 10
356.6650064292389
 20
537.9924265149047
 30
0.0
 10
358.159363887223
 20
537.4677273574965
 30
0.0
 10
359.5833883061426
 20
537.0744524540166
 30
0.0
 10
360.8951321362724
 20
536.7500341353356
 30
0.0
 10
361.7758762873995
 20
536.7171692442499
 30
0.0
 10
362.2199389118671
 20
536.700599086197
 30
0.0
  0
SPLINE
  5
211
330
1F
100
AcDbEntity
  8
0
  6
Continuous
 62
     7
370
    15
100
AcDbSpline
210
0.0
220
0.0
230
1.0
 70
    24
 71
     3
 72
    16
 73
    12
 74
     0
 42
0.00000001
 43
0.00000001
 40
0.0
 40
0.0
 40
0.0
 40
0.0
 40
0.0843743914023837
 40
0.2127015743763163
 40
0.3410703453521617
 40
0.4694870001636595
 40
0.5979886888111844
 40
0.7263875130145971
 40
0.854595823767855
 40
0.9825356174352066
 40
0.9999999999999999
 40
0.9999999999999999
 40
0.9999999999999999
 40
0.9999999999999999
 10
353.462302960825
 20
544.631604528712
 30
0.0
 10
353.462302960825
 20
545.1286118148407
 30
0.0
 10
353.462302960825
 20
546.3815302712466
 30
0.0
 10
353.462302960825
 20
548.2448527598636
 30
0.0
 10
353.462302960825
 20
550.1790458701457
 30
0.0
 10
353.4623029608249
 20
551.7416613095077
 30
0.0
 10
353.462302960825
 20
552.9680079827001
 30
0.0
 10
353.462302960825
 20
553.919042818693
 30
0.0
 10
353.462302960825
 20
554.4977260326265
 30
0.0
 10
353.462302960825
 20
554.7540026962804
 30
0.0
 10
353.462302960825
 20
554.6996700858757
 30
0.0
 10
353.462302960825
 20
554.6931442382801
 30
0.0
  0
SPLINE
  5
212
330
1F
100
AcDbEntity
  8
0
  6
Continuous
 62
     7
370
    15
100
AcDbSpline
210
0.0
220
0.0
230
1.0
 70
     8
 71
     3
 72
     9
 73
     5
 74
     0
 42
0.00000001
 43
0.00000001
 40
0.0
 40
0.0
 40
0.0
 40
0.0
 40
0.9139479726029586
 40
1.0
 40
1.0
 40
1.0
 40
1.0
 10
353.462302960825
 20
514.6915022793281
 30
0.0
 10
352.3375604691957
 20
514.4087445295465
 30
0.0
 10
351.1069187638195
 20
514.0993639540021
 30
0.0
 10
349.8768313731473
 20
513.7898947016608
 30
0.0
 10
349.7709798593044
 20
513.7632642450798
 30
0.0
  0
SPLINE
  5
213
330
1F
100
AcDbEntity
  8
0
  6
Continuous
 62
     8
370
    15
100
AcDbSpline
210
0.0
220
0.0
230
1.0
 70
     8
 71
     3
 72
    19
 73
    15
 74
     0
 42
0.00000001
 43
0.00000001
 40
0.0
 40
0.0
 40
0.0
 40
0.0
 40
0.0309635487071331
 40
0.1040878038681003
 40
0.1848692762831158
 40
0.2639563457178695
 40
0.3295657209786876
 40
0.395739777412162
 40
0.511599453276749
 40
0.6274729218347576
 40
0.7287692824246385
 40
0.830070977154231
 40
0.9369148481104508
 40
1.0
 40
1.0
 40
1.0
 40
1.0
 10
238.4623045999527
 20
538.7005577373374
 30
0.0
 10
238.471040534142
 20
538.6809502755232
 30
0.0
 10
238.5004074588798
 20
538.6150373642165
 30
0.0
 10
238.8943284371441
 20
538.507868742253
 30
0.0
 10
239.8478021385274
 20
538.4183943987749
 30
0.0
 10
241.1113361619972
 20
538.3676271181095
 30
0.0
 10
242.4178251358461
 20
538.3614811254454
 30
0.0
 10
243.9371822457044
 20
538.3659106743248
 30
0.0
 10
245.7701892444026
 20
538.368887067754
 30
0.0
 10
247.816634016487
 20
538.3730085125637
 30
0.0
 10
249.7960938368591
 20
538.37978430483
 30
0.0
 10
251.7042719264785
 20
538.3904789896542
 30
0.0
 10
253.3307998929271
 20
538.3976854672928
 30
0.0
 10
254.3243236147185
 20
538.3975312074729
 30
0.0
 10
254.6931634623528
 20
538.3974739394206
 30
0.0
  0
CIRCLE
  5
214
330
1F
100
AcDbEntity
  8
1
100
AcDbCircle
 10
304.4623042423
 20
534.7005989912
 30
0.0
 40
12.50000000000002
  0
CIRCLE
  5
215
330
1F
100
AcDbEntity
  8
1
100
AcDbCircle
 10
304.4623042423
 20
534.7005989912
 30
0.0
 40
30.00000000000002
  0
CIRCLE
  5
216
330
1F
100
AcDbEntity
  8
1
100
AcDbCircle
 10
304.4623042423
 20
534.7005989912
 30
0.0
 40
32.00000000000003
  0
ARC
  5
217
330
1F
100
AcDbEntity
  8
0
  6
Continuous
 62
     7
370
    15
100
AcDbCircle
 10
304.4623042423
 20
70.7493215718
 30
0.0
 40
3.99999999999987
100
AcDbArc
 50
276.6271624649
 51
96.6271624649
  0
LINE
  5
218
330
1F
100
AcDbEntity
  8
0
  6
Continuous
 62
     7
370
    15
100
AcDbLine
 10
238.4623046
 20
120.7493223169
 30
0.0
 11
226.462302633
 21
120.7493223169
 31
0.0
  0
LINE
  5
219
330
1F
100
AcDbEntity
  8
0
  6
Continuous
 62
     7
370
    15
100
AcDbLine
 10
226.462302633
 20
20.7493208268
 30
0.0
 11
238.4623046
 21
20.7493208268
 31
0.0
  0
LINE
  5
21A
330
1F
100
AcDbEntity
  8
0
  6
Continuous
 62
     7
370
    15
100
AcDbLine
 10
370.4623038847
 20
20.7493208268
 30
0.0
 11
382.4623058517
 21
20.7493208268
 31
0.0
  0
LINE
  5
21B
330
1F
100
AcDbEntity
  8
0
  6
Continuous
 62
     7
370
    15
100
AcDbLine
 10
382.4623058517
 20
120.7493223169
 30
0.0
 11
370.4623038847
 21
120.7493223169
 31
0.0
  0
SPLINE
  5
21C
330
1F
100
AcDbEntity
  8
0
  6
Continuous
 62
     7
370
    15
100
AcDbSpline
210
0.0
220
0.0
230
1.0
 70
     8
 71
     3
 72
    13
 73
     9
 74
     0
 42
0.00000001
 43
0.00000001
 40
0.0
 40
0.0
 40
0.0
 40
0.0
 40
0.1148851565139652
 40
0.2248965596171448
 40
0.3350619350581808
 40
0.4451863083440476
 40
0.5552766479431086
 40
1.0
 40
1.0
 40
1.0
 40
1.0
 10
326.2924048084736
 20
43.92722024705077
 30
0.0
 10
327.3502166740296
 20
44.18169974054742
 30
0.0
 10
329.4209650326903
 20
44.6798629873682
 30
0.0
 10
332.4370798898228
 20
45.44656410420883
 30
0.0
 10
335.4289397800213
 20
46.19612174213903
 30
0.0
 10
338.4162284826717
 20
46.94809059726133
 30
0.0
 10
344.4307978581073
 20
48.46131240923355
 30
0.0
 10
349.4476827294613
 20
49.72368821148804
 30
0.0
 10
353.4690792638779
 20
50.73557383503581
 30
0.0
  0
LINE
  5
21D
330
1F
100
AcDbEntity
  8
0
  6
Continuous
 62
     7
370
    15
100
AcDbLine
 10
304.4671521142
 20
43.2493310341
 30
0.0
 11
305.8236907436
 21
43.2493496605
 31
0.0
  0
SPLINE
  5
21E
330
1F
100
AcDbEntity
  8
0
  6
Continuous
 62
     7
370
    15
100
AcDbSpline
210
0.0
220
0.0
230
1.0
 70
     8
 71
     3
 72
    12
 73
     8
 74
     0
 42
0.00000001
 43
0.00000001
 40
0.0
 40
0.0
 40
0.0
 40
0.0
 40
0.0279139392531597
 40
0.2507471000123935
 40
0.4762804250206556
 40
0.7367143070061836
 40
1.0
 40
1.0
 40
1.0
 40
1.0
 10
314.1814692843676
 20
43.24945396866465
 30
0.0
 10
314.295151338491
 20
43.24944786854394
 30
0.0
 10
315.3163416884586
 20
43.24939307199354
 30
0.0
 10
317.2563897961323
 20
43.25295034186948
 30
0.0
 10
320.1416789951402
 20
43.24097880498484
 30
0.0
 10
323.1959798849317
 20
43.33554670932877
 30
0.0
 10
325.2574601465669
 20
43.72943228770006
 30
0.0
 10
326.2938129682064
 20
43.92744748975898
 30
0.0
  0
LINE
  5
21F
330
1F
100
AcDbEntity
  8
0
  6
Continuous
 62
     7
370
    15
100
AcDbLine
 10
382.4623058517
 20
38.7493200519
 30
0.0
 11
384.4623024542
 21
40.7493222424
 31
0.0
  0
LINE
  5
220
330
1F
100
AcDbEntity
  8
0
  6
Continuous
 62
     7
370
    15
100
AcDbLine
 10
384.4623024542
 20
100.7493209013
 30
0.0
 11
382.4623058517
 21
102.7493230918
 31
0.0
  0
LINE
  5
221
330
1F
100
AcDbEntity
  8
0
  6
Continuous
 62
     7
370
    15
100
AcDbLine
 10
226.462302633
 20
102.7493230918
 30
0.0
 11
224.4623060305
 21
100.7493209013
 31
0.0
  0
LINE
  5
222
330
1F
100
AcDbEntity
  8
0
  6
Continuous
 62
     7
370
    15
100
AcDbLine
 10
224.4623060305
 20
40.7493222424
 30
0.0
 11
226.462302633
 21
38.7493200519
 31
0.0
  0
SPLINE
  5
223
330
1F
100
AcDbEntity
  8
0
  6
Continuous
 62
     7
370
    15
100
AcDbSpline
210
0.0
220
0.0
230
1.0
 70
     8
 71
     3
 72
    20
 73
    16
 74
     0
 42
0.00000001
 43
0.00000001
 40
0.0
 40
0.0
 40
0.0
 40
0.0
 40
0.2160465148718527
 40
0.398982223692854
 40
0.5491587643390725
 40
0.6724727867786574
 40
0.7403930158910429
 40
0.7966724305323885
 40
0.8428217970634531
 40
0.8841050217127124
 40
0.9271946656773662
 40
0.9473039557124752
 40
0.9655894128300734
 40
0.9826953974280351
 40
1.0
 40
1.0
 40
1.0
 40
1.0
 10
255.6065226871491
 20
90.7005291351285
 30
0.0
 10
254.3056451769457
 20
91.21851756106469
 30
0.0
 10
251.9032597365659
 20
92.17510866437298
 30
0.0
 10
248.6909953555001
 20
93.53405438963479
 30
0.0
 10
245.9906301203467
 20
94.72370861332915
 30
0.0
 10
243.9529234299874
 20
95.61331380900658
 30
0.0
 10
242.4760306786421
 20
96.26121557017719
 30
0.0
 10
241.4614020478521
 20
96.70149806509049
 30
0.0
 10
240.592171825829
 20
97.09817708971191
 30
0.0
 10
239.7988630470394
 20
97.47447627253322
 30
0.0
 10
239.2008034030326
 20
97.83279336595514
 30
0.0
 10
238.7997754801484
 20
98.18110006338014
 30
0.0
 10
238.5866644836963
 20
98.46829555766425
 30
0.0
 10
238.4873269431127
 20
98.78834833537965
 30
0.0
 10
238.4706774147092
 20
99.00869270760438
 30
0.0
 10
238.4623045999527
 20
99.11950080778266
 30
0.0
  0
SPLINE
  5
224
330
1F
100
AcDbEntity
  8
0
  6
Continuous
 62
     7
370
    15
100
AcDbSpline
210
0.0
220
0.0
230
1.0
 70
     8
 71
     3
 72
    22
 73
    18
 74
     0
 42
0.00000001
 43
0.00000001
 40
0.0
 40
0.0
 40
0.0
 40
0.0
 40
0.0599941032941665
 40
0.1025688300205921
 40
0.1238949232907973
 40
0.13139307816794
 40
0.1370008910031508
 40
0.1533563757862665
 40
0.1702511001592772
 40
0.2113469404956522
 40
0.2592811172163447
 40
0.3176156185973394
 40
0.4164429518218383
 40
0.5316764130121332
 40
0.6654889082863173
 40
0.8221461603660185
 40
1.0
 40
1.0
 40
1.0
 40
1.0
 10
238.5052497465134
 20
45.39869128849173
 30
0.0
 10
238.5310881514965
 20
45.43910005045914
 30
0.0
 10
238.5752627423847
 20
45.50818483062919
 30
0.0
 10
238.7560467887169
 20
45.65724637178987
 30
0.0
 10
238.9373846713113
 20
45.77355880003525
 30
0.0
 10
239.0629795783185
 20
45.84486356924972
 30
0.0
 10
239.2049981444767
 20
45.9206421389894
 30
0.0
 10
239.4639014359389
 20
46.04122577641728
 30
0.0
 10
239.9302796308062
 20
46.22525898402738
 30
0.0
 10
240.6343637623762
 20
46.45627005009594
 30
0.0
 10
241.5869251500684
 20
46.75367278304983
 30
0.0
 10
242.888890511855
 20
47.14133781610175
 30
0.0
 10
244.6223025634216
 20
47.66225141221264
 30
0.0
 10
246.8441006979995
 20
48.32243908879298
 30
0.0
 10
249.3709149491708
 20
49.0781933110633
 30
0.0
 10
252.3173717530813
 20
49.8999291277866
 30
0.0
 10
254.4650369196235
 20
50.46986857617469
 30
0.0
 10
255.6069138426304
 20
50.77289565589095
 30
0.0
  0
SPLINE
  5
225
330
1F
100
AcDbEntity
  8
0
  6
Continuous
 62
     7
370
    15
100
AcDbSpline
210
0.0
220
0.0
230
1.0
 70
     8
 71
     3
 72
    19
 73
    15
 74
     0
 42
0.00000001
 43
0.00000001
 40
0.0
 40
0.0
 40
0.0
 40
0.0
 40
0.0230920670246883
 40
0.0485712796216656
 40
0.1263828240976411
 40
0.2136301107710145
 40
0.2982213086083154
 40
0.4888419388375986
 40
0.5669586863057882
 40
0.6400023519618793
 40
0.707968642697862
 40
0.7760359109076289
 40
0.8721460633715801
 40
1.0
 40
1.0
 40
1.0
 40
1.0
 10
370.462303884697
 20
97.75383732404376
 30
0.0
 10
370.3836042816521
 20
97.62531863869012
 30
0.0
 10
370.218069493384
 20
97.35499563138868
 30
0.0
 10
369.6248692403129
 20
96.79231419141759
 30
0.0
 10
368.6016914494464
 20
96.17693838996196
 30
0.0
 10
367.1202430012267
 20
95.6405709227033
 30
0.0
 10
365.043035014424
 20
94.87146688976169
 30
0.0
 10
362.991798172832
 20
94.11642750553433
 30
0.0
 10
361.0191717284096
 20
93.39115126565954
 30
0.0
 10
359.7786271165108
 20
92.93343152600539
 30
0.0
 10
358.5810955768172
 20
92.50585976581041
 30
0.0
 10
357.2385169775711
 20
92.03789831000145
 30
0.0
 10
355.525243398335
 20
91.45611998545476
 30
0.0
 10
354.2119946669996
 20
91.01196600197531
 30
0.0
 10
353.462302960825
 20
90.758412695786
 30
0.0
  0
SPLINE
  5
226
330
1F
100
AcDbEntity
  8
0
  6
Continuous
 62
     7
370
    15
100
AcDbSpline
210
0.0
220
0.0
230
1.0
 70
     8
 71
     3
 72
    21
 73
    17
 74
     0
 42
0.00000001
 43
0.00000001
 40
0.0
 40
0.0
 40
0.0
 40
0.0
 40
0.1280362618342587
 40
0.2340818332423341
 40
0.3176188010636251
 40
0.3791681748337282
 40
0.4324229364348225
 40
0.4845396324345174
 40
0.5425548255378687
 40
0.6449473850667488
 40
0.768311844660352
 40
0.8370727320610393
 40
0.9023345916332038
 40
0.9549110026215017
 40
0.9782003480515786
 40
1.0
 40
1.0
 40
1.0
 40
1.0
 10
353.462302960825
 20
50.73453075375224
 30
0.0
 10
354.2118369128082
 20
50.48716787173714
 30
0.0
 10
355.5821696532683
 20
50.03492757614683
 30
0.0
 10
357.4390595408938
 20
49.41399550462631
 30
0.0
 10
358.8864242424714
 20
48.91264223395757
 30
0.0
 10
360.017795476618
 20
48.50737107597718
 30
0.0
 10
360.9649587792584
 20
48.15968066848372
 30
0.0
 10
361.9035486588559
 20
47.81619481630443
 30
0.0
 10
363.1344359030696
 20
47.3632804253735
 30
0.0
 10
364.7745710206856
 20
46.758618435762
 30
0.0
 10
366.4646917334973
 20
46.13164489926195
 30
0.0
 10
367.9645405042776
 20
45.57620370412828
 30
0.0
 10
369.0617245589348
 20
45.10539080919325
 30
0.0
 10
369.8000874899452
 20
44.56664931380886
 30
0.0
 10
370.2554921242977
 20
44.11243807403019
 30
0.0
 10
370.3949019496765
 20
43.86841760305062
 30
0.0
 10
370.462303884697
 20
43.75043845858241
 30
0.0
  0
SPLINE
  5
227
330
1F
100
AcDbEntity
  8
0
  6
Continuous
 62
     7
370
    15
100
AcDbSpline
210
0.0
220
0.0
230
1.0
 70
     8
 71
     3
 72
    14
 73
    10
 74
     0
 42
0.00000001
 43
0.00000001
 40
0.0
 40
0.0
 40
0.0
 40
0.0
 40
0.3942159624639701
 40
0.494334490418139
 40
0.5944824972356907
 40
0.6946656355465018
 40
0.7948891626401287
 40
0.8948801847509019
 40
1.0
 40
1.0
 40
1.0
 40
1.0
 10
255.4566468078613
 20
50.73474682058955
 30
0.0
 10
259.0205523219615
 20
49.83842595753171
 30
0.0
 10
263.489578398936
 20
48.71446762179755
 30
0.0
 10
268.863422306134
 20
47.36188124219274
 30
0.0
 10
271.5797636786926
 20
46.67869524463963
 30
0.0
 10
274.2956908441326
 20
45.99504932301777
 30
0.0
 10
277.0155643269284
 20
45.31406644065328
 30
0.0
 10
279.7602079374237
 20
44.61523350578116
 30
0.0
 10
281.6513788863257
 20
44.1620156740457
 30
0.0
 10
282.6206087101221
 20
43.92974040593768
 30
0.0
  0
SPLINE
  5
228
330
1F
100
AcDbEntity
  8
0
  6
Continuous
 62
     7
370
    15
100
AcDbSpline
210
0.0
220
0.0
230
1.0
 70
     8
 71
     3
 72
    13
 73
     9
 74
     0
 42
0.00000001
 43
0.00000001
 40
0.0
 40
0.0
 40
0.0
 40
0.0
 40
0.2056868027889574
 40
0.4151601717315163
 40
0.602841367179546
 40
0.7777939137197917
 40
0.9520239328701858
 40
1.0
 40
1.0
 40
1.0
 40
1.0
 10
282.6311363805056
 20
43.92738974775935
 30
0.0
 10
283.4382867323811
 20
43.76913010280885
 30
0.0
 10
285.0674465722645
 20
43.44969735124223
 30
0.0
 10
287.509651574792
 20
43.2564155094732
 30
0.0
 10
289.8377374998664
 20
43.2517669131084
 30
0.0
 10
292.0249727356385
 20
43.24988341440555
 30
0.0
 10
293.64261076106
 20
43.24950110930287
 30
0.0
 10
294.5477045367512
 20
43.24949910491218
 30
0.0
 10
294.7431215051532
 20
43.24949867214823
 30
0.0
  0
LINE
  5
229
330
1F
100
AcDbEntity
  8
0
  6
Continuous
 62
     7
370
    15
100
AcDbLine
 10
303.1180269517
 20
43.2493515232
 30
0.0
 11
304.4574561808
 21
43.2493273088
 31
0.0
  0
LINE
  5
22A
330
1F
100
AcDbEntity
  8
0
  6
Continuous
 62
     7
370
    15
100
AcDbLine
 10
304.4623042423
 20
43.2493217209
 30
0.0
 11
305.8259480366
 21
43.2831510821
 31
0.0
  0
CIRCLE
  5
22B
330
1F
100
AcDbEntity
  8
0
  6
Continuous
 62
     7
370
    15
100
AcDbCircle
 10
304.4623042423
 20
70.7493215718
 30
0.0
 40
1.949999999999995
  0
CIRCLE
  5
22C
330
1F
100
AcDbEntity
  8
0
  6
Continuous
 62
     7
370
    15
100
AcDbCircle
 10
304.4623042423
 20
70.7493215718
 30
0.0
 40
3.5
  0
CIRCLE
  5
22D
330
1F
100
AcDbEntity
  8
0
  6
Continuous
 62
     7
370
    15
100
AcDbCircle
 10
304.4623042423
 20
70.7493215718
 30
0.0
 40
3.636296694843725
  0
CIRCLE
  5
22E
330
1F
100
AcDbEntity
  8
0
  6
Continuous
 62
     7
370
    15
100
AcDbCircle
 10
304.4623042423
 20
70.7493215718
 30
0.0
 40
3.863703305156264
  0
CIRCLE
  5
22F
330
1F
100
AcDbEntity
  8
0
  6
Continuous
 62
     7
370
    15
100
AcDbCircle
 10
304.4623042423
 20
70.7493215718
 30
0.0
 40
4.00000000000001
  0
LINE
  5
230
330
1F
100
AcDbEntity
  8
0
  6
Continuous
 62
     7
370
    15
100
AcDbLine
 10
302.3662338
 20
79.0899746039
 30
0.0
 11
302.8733846931
 21
77.0719266416
 31
0.0
  0
ARC
  5
231
330
1F
100
AcDbEntity
  8
0
  6
Continuous
 62
     7
370
    15
100
AcDbCircle
 10
301.1761588738
 20
76.6454006603
 30
0.0
 40
1.750000000000023
100
AcDbArc
 50
235.1138436154
 51
14.106741573
  0
ARC
  5
232
330
1F
100
AcDbEntity
  8
0
  6
Continuous
 62
     7
370
    15
100
AcDbCircle
 10
299.1743419434
 20
73.7743853386
 30
0.0
 40
1.750000000000005
100
AcDbArc
 50
55.1138436154
 51
156.4376359297
  0
ARC
  5
233
330
1F
100
AcDbEntity
  8
0
  6
Continuous
 62
     7
370
    15
100
AcDbCircle
 10
304.4623042423
 20
71.4682667345
 30
0.0
 40
7.518945162694256
100
AcDbArc
 50
156.4376359297
 51
23.5623640703
  0
ARC
  5
234
330
1F
100
AcDbEntity
  8
0
  6
Continuous
 62
     7
370
    15
100
AcDbCircle
 10
309.7502665412
 20
73.7743853386
 30
0.0
 40
1.750000000000024
100
AcDbArc
 50
23.5623640703
 51
124.8861563846
  0
ARC
  5
235
330
1F
100
AcDbEntity
  8
0
  6
Continuous
 62
     7
370
    15
100
AcDbCircle
 10
307.7484496109
 20
76.6454006603
 30
0.0
 40
1.750000000000023
100
AcDbArc
 50
165.893258427
 51
304.8861563846
  0
CIRCLE
  5
236
330
1F
100
AcDbEntity
  8
0
  6
Continuous
 62
     7
370
    15
100
AcDbCircle
 10
307.7484496109
 20
76.6454006603
 30
0.0
 40
0.8500000000000227
  0
CIRCLE
  5
237
330
1F
100
AcDbEntity
  8
0
  6
Continuous
 62
     7
370
    15
100
AcDbCircle
 10
301.1761588738
 20
76.6454006603
 30
0.0
 40
0.8500000000000227
  0
LINE
  5
238
330
1F
100
AcDbEntity
  8
0
  6
Continuous
 62
     7
370
    15
100
AcDbLine
 10
306.0512237916
 20
77.0719266416
 30
0.0
 11
306.5583746847
 21
79.0899746039
 31
0.0
  0
CIRCLE
  5
239
330
1F
100
AcDbEntity
  8
0
  6
Continuous
 62
     7
370
    15
100
AcDbCircle
 10
304.4623042423
 20
70.7493215718
 30
0.0
 40
4.999999999999986
  0
ARC
  5
23A
330
1F
100
AcDbEntity
  8
0
  6
Continuous
 62
     7
370
    15
100
AcDbCircle
 10
304.4623042423
 20
70.7493215718
 30
0.0
 40
8.500000000000028
100
AcDbArc
 50
75.893258427
 51
104.106741573
  0
CIRCLE
  5
23B
330
1F
100
AcDbEntity
  8
0
  6
Continuous
 62
     7
370
    15
100
AcDbCircle
 10
304.4623042423
 20
70.7493215718
 30
0.0
 40
4.009999999999991
  0
CIRCLE
  5
23C
330
1F
100
AcDbEntity
  8
0
  6
Continuous
 62
     7
370
    15
100
AcDbCircle
 10
304.4623042423
 20
70.7493215718
 30
0.0
 40
8.600000000000009
  0
ARC
  5
23D
330
1F
100
AcDbEntity
  8
0
  6
Continuous
 62
     7
370
    15
100
AcDbCircle
 10
304.4623042423
 20
70.7493215718
 30
0.0
 40
14.98000000000004
100
AcDbArc
 50
216.7677811019
 51
323.2322188981
  0
LINE
  5
23E
330
1F
100
AcDbEntity
  8
0
  6
Continuous
 62
     7
370
    15
100
AcDbLine
 10
292.462304138
 20
61.7826949724
 30
0.0
 11
292.462304138
 21
79.7159481713
 31
0.0
  0
ARC
  5
23F
330
1F
100
AcDbEntity
  8
0
  6
Continuous
 62
     7
370
    15
100
AcDbCircle
 10
304.4623042423
 20
70.7493215718
 30
0.0
 40
14.98000000000005
100
AcDbArc
 50
36.7677811019
 51
143.2322188981
  0
LINE
  5
240
330
1F
100
AcDbEntity
  8
0
  6
Continuous
 62
     7
370
    15
100
AcDbLine
 10
316.4623043466
 20
79.7159481713
 30
0.0
 11
316.4623043466
 21
61.7826949724
 31
0.0
  0
ARC
  5
241
330
1F
100
AcDbEntity
  8
0
  6
Continuous
 62
     7
370
    15
100
AcDbCircle
 10
304.4623042423
 20
70.7493215718
 30
0.0
 40
14.98000000000005
100
AcDbArc
 50
323.2322188981
 51
36.7677811019
  0
ARC
  5
242
330
1F
100
AcDbEntity
  8
0
  6
Continuous
 62
     7
370
    15
100
AcDbCircle
 10
304.4623042423
 20
70.7493215718
 30
0.0
 40
14.98000000000001
100
AcDbArc
 50
143.2322188981
 51
216.7677811019
  0
ARC
  5
243
330
1F
100
AcDbEntity
  8
0
  6
Continuous
 62
     7
370
    15
100
AcDbCircle
 10
277.9457999478
 20
44.2328172774
 30
0.0
 40
5.000000000000005
100
AcDbArc
 50
156.4467283833
 51
355.8946585178
  0
ARC
  5
244
330
1F
100
AcDbEntity
  8
0
  6
Continuous
 62
     7
370
    15
100
AcDbCircle
 10
330.9788085368
 20
97.2658258663
 30
0.0
 40
4.999999999999996
100
AcDbArc
 50
336.391222317
 51
175.9337351198
  0
ARC
  5
245
330
1F
100
AcDbEntity
  8
0
  6
Continuous
 62
     7
370
    15
100
AcDbCircle
 10
277.9457999478
 20
97.2658258663
 30
0.0
 40
5.000000000000037
100
AcDbArc
 50
4.0555286481
 51
203.7082513682
  0
ARC
  5
246
330
1F
100
AcDbEntity
  8
0
  6
Continuous
 62
     7
370
    15
100
AcDbCircle
 10
330.9788085368
 20
44.2328172774
 30
0.0
 40
5.000000000000012
100
AcDbArc
 50
184.0579443332
 51
23.6484227141
  0
ARC
  5
247
330
1F
100
AcDbEntity
  8
0
  6
Continuous
 62
     7
370
    15
100
AcDbCircle
 10
304.4623042423
 20
95.8396834505
 30
0.0
 40
9.99999999999996
100
AcDbArc
 50
21.1001960241
 51
158.8998039759
  0
LINE
  5
248
330
1F
100
AcDbEntity
  8
0
  6
Continuous
 62
     7
370
    15
100
AcDbLine
 10
322.188397773
 20
77.6796835394
 30
0.0
 11
313.7918272022
 21
99.439683921
 31
0.0
  0
ARC
  5
249
330
1F
100
AcDbEntity
  8
0
  6
Continuous
 62
     7
370
    15
100
AcDbCircle
 10
304.4623042423
 20
70.8396834505
 30
0.0
 40
19.00000000000001
100
AcDbArc
 50
338.8998039759
 51
21.1001960241
  0
LINE
  5
24A
330
1F
100
AcDbEntity
  8
0
  6
Continuous
 62
     7
370
    15
100
AcDbLine
 10
313.7905838866
 20
42.2364618548
 30
0.0
 11
322.188397773
 21
63.9996836812
 31
0.0
  0
ARC
  5
24B
330
1F
100
AcDbEntity
  8
0
  6
Continuous
 62
     7
370
    15
100
AcDbCircle
 10
304.4623042423
 20
45.8396834505
 30
0.0
 40
10.00000059638515
100
AcDbArc
 50
201.1001960241
 51
338.8800160157
  0
LINE
  5
24C
330
1F
100
AcDbEntity
  8
0
  6
Continuous
 62
     7
370
    15
100
AcDbLine
 10
295.1327812824
 20
42.2396842309
 30
0.0
 11
286.7362107117
 21
63.9996836812
 31
0.0
  0
ARC
  5
24D
330
1F
100
AcDbEntity
  8
0
  6
Continuous
 62
     7
370
    15
100
AcDbCircle
 10
304.4623042423
 20
70.8396834505
 30
0.0
 40
19.00000000000001
100
AcDbArc
 50
158.8998039759
 51
201.1001960241
  0
LINE
  5
24E
330
1F
100
AcDbEntity
  8
0
  6
Continuous
 62
     7
370
    15
100
AcDbLine
 10
286.7362107117
 20
77.6796835394
 30
0.0
 11
295.1327812824
 21
99.439683921
 31
0.0
  0
CIRCLE
  5
24F
330
1F
100
AcDbEntity
  8
0
  6
Continuous
 62
     7
370
    15
100
AcDbCircle
 10
304.4623042423
 20
70.7493215718
 30
0.0
 40
14.99999999999994
  0
CIRCLE
  5
250
330
1F
100
AcDbEntity
  8
0
  6
Continuous
 62
     7
370
    15
100
AcDbCircle
 10
304.4623042423
 20
45.7493215718
 30
0.0
 40
3.399999999999991
  0
CIRCLE
  5
251
330
1F
100
AcDbEntity
  8
0
  6
Continuous
 62
     7
370
    15
100
AcDbCircle
 10
304.4623042423
 20
95.7493215718
 30
0.0
 40
3.399999999999991
  0
LINE
  5
252
330
1F
100
AcDbEntity
  8
0
  6
Continuous
 62
     7
370
    15
100
AcDbLine
 10
238.4623046
 20
120.7493223169
 30
0.0
 11
238.4623046
 21
20.7493208268
 31
0.0
  0
LINE
  5
253
330
1F
100
AcDbEntity
  8
0
  6
Continuous
 62
     7
370
    15
100
AcDbLine
 10
226.462302633
 20
120.7493223169
 30
0.0
 11
226.462302633
 21
20.7493208268
 31
0.0
  0
LINE
  5
254
330
1F
100
AcDbEntity
  8
0
  6
Continuous
 62
     7
370
    15
100
AcDbLine
 10
370.4623038847
 20
120.7493223169
 30
0.0
 11
370.4623038847
 21
20.7493208268
 31
0.0
  0
LINE
  5
255
330
1F
100
AcDbEntity
  8
0
  6
Continuous
 62
     7
370
    15
100
AcDbLine
 10
382.4623058517
 20
120.7493223169
 30
0.0
 11
382.4623058517
 21
20.7493208268
 31
0.0
  0
SPLINE
  5
256
330
1F
100
AcDbEntity
  8
0
  6
Continuous
 62
     7
370
    15
100
AcDbSpline
210
0.0
220
0.0
230
1.0
 70
     8
 71
     3
 72
     8
 73
     4
 74
     0
 42
0.00000001
 43
0.00000001
 40
0.0
 40
0.0
 40
0.0
 40
0.0
 40
1.0
 40
1.0
 40
1.0
 40
1.0
 10
326.5442455505838
 20
69.97401950679568
 30
0.0
 10
326.5623469051413
 20
70.49119903315344
 30
0.0
 10
326.5623244293179
 20
71.00837839730626
 30
0.0
 10
326.5442317510564
 20
71.5255575985313
 30
0.0
  0
SPLINE
  5
257
330
1F
100
AcDbEntity
  8
0
  6
Continuous
 62
     7
370
    15
100
AcDbSpline
210
0.0
220
0.0
230
1.0
 70
     8
 71
     3
 72
     8
 73
     4
 74
     0
 42
0.00000001
 43
0.00000001
 40
0.0
 40
0.0
 40
0.0
 40
0.0
 40
1.0
 40
1.0
 40
1.0
 40
1.0
 10
304.4623042423248
 20
98.14738697844035
 30
0.0
 10
304.465405311512
 20
98.14738697844035
 30
0.0
 10
304.4685046994054
 20
98.14738577994132
 30
0.0
 10
304.4716024115009
 20
98.14738338679796
 30
0.0
  0
SPLINE
  5
258
330
1F
100
AcDbEntity
  8
0
  6
Continuous
 62
     7
370
    15
100
AcDbSpline
210
0.0
220
0.0
230
1.0
 70
     8
 71
     3
 72
    15
 73
    11
 74
     0
 42
0.00000001
 43
0.00000001
 40
0.0
 40
0.0
 40
0.0
 40
0.0
 40
0.1342162698372163
 40
0.2689573683369456
 40
0.4030742050254796
 40
0.5360148465864558
 40
0.6692316333477734
 40
0.8019545301490845
 40
0.9486536439491278
 40
1.0
 40
1.0
 40
1.0
 40
1.0
 10
326.5442325700045
 20
71.52555757557789
 30
0.0
 10
326.4817409880442
 20
72.3916318642295
 30
0.0
 10
326.356513461995
 20
74.12716706977903
 30
0.0
 10
325.7646773201725
 20
76.67555165033788
 30
0.0
 10
324.8518262523962
 20
79.10964275871137
 30
0.0
 10
323.6974310832862
 20
81.42808715327337
 30
0.0
 10
322.3900430236233
 20
83.65255425298487
 30
0.0
 10
320.7780500446538
 20
85.77758611556806
 30
0.0
 10
319.2993935652808
 20
87.33393910335695
 30
0.0
 10
318.320539281406
 20
88.14958979013232
 30
0.0
 10
318.0667561445355
 20
88.36105986621047
 30
0.0
  0
SPLINE
  5
259
330
1F
100
AcDbEntity
  8
0
  6
Continuous
 62
     7
370
    15
100
AcDbSpline
210
0.0
220
0.0
230
1.0
 70
     8
 71
     3
 72
    15
 73
    11
 74
     0
 42
0.00000001
 43
0.00000001
 40
0.0
 40
0.0
 40
0.0
 40
0.0
 40
0.0306128387800901
 40
0.169222877658563
 40
0.3071058155398174
 40
0.4499823937814461
 40
0.5932072695123156
 40
0.7358413398354919
 40
0.8678931507128317
 40
1.0
 40
1.0
 40
1.0
 40
1.0
 10
317.9899890873551
 20
53.11936288263465
 30
0.0
 10
318.141817260654
 20
53.24532059767738
 30
0.0
 10
318.981099124706
 20
53.94159470528125
 30
0.0
 10
320.4034261665548
 20
55.34752065917155
 30
0.0
 10
322.1101984366734
 20
57.46562369979738
 30
0.0
 10
323.5567024140981
 20
59.80763732057591
 30
0.0
 10
324.8294495900824
 20
62.28297619064818
 30
0.0
 10
325.7731615558686
 20
64.82792622815039
 30
0.0
 10
326.3666883024516
 20
67.408239445046
 30
0.0
 10
326.4850516193562
 20
69.11864069894901
 30
0.0
 10
326.5442456085205
 20
69.97401951003636
 30
0.0
  0
SPLINE
  5
25A
330
1F
100
AcDbEntity
  8
0
  6
Continuous
 62
     7
370
    15
100
AcDbSpline
210
0.0
220
0.0
230
1.0
 70
     8
 71
     3
 72
     8
 73
     4
 74
     0
 42
0.00000001
 43
0.00000001
 40
0.0
 40
0.0
 40
0.0
 40
0.0
 40
1.0
 40
1.0
 40
1.0
 40
1.0
 10
304.4746769593126
 20
43.38823759680103
 30
0.0
 10
304.4705496378317
 20
43.38823161433665
 30
0.0
 10
304.4664254034045
 20
43.38822862984273
 30
0.0
 10
304.4623042423248
 20
43.38822862984273
 30
0.0
  0
SPLINE
  5
25B
330
1F
100
AcDbEntity
  8
0
  6
Continuous
 62
     7
370
    15
100
AcDbSpline
210
0.0
220
0.0
230
1.0
 70
     8
 71
     3
 72
     9
 73
     5
 74
     0
 42
0.00000001
 43
0.00000001
 40
0.0
 40
0.0
 40
0.0
 40
0.0
 40
0.3444850578327291
 40
1.0
 40
1.0
 40
1.0
 40
1.0
 10
304.4746778022366
 20
43.38823593344355
 30
0.0
 10
304.4714323601611
 20
43.35684666057978
 30
0.0
 10
304.4620112198192
 20
43.26572725742988
 30
0.0
 10
304.4651181372854
 20
43.30114852425029
 30
0.0
 10
304.4671547681085
 20
43.32436769392157
 30
0.0
  0
SPLINE
  5
25C
330
1F
100
AcDbEntity
  8
0
  6
Continuous
 62
     7
370
    15
100
AcDbSpline
210
0.0
220
0.0
230
1.0
 70
     8
 71
     3
 72
    19
 73
    15
 74
     0
 42
0.00000001
 43
0.00000001
 40
0.0
 40
0.0
 40
0.0
 40
0.0
 40
0.4999999999999998
 40
0.7499999999999997
 40
0.7499999999999997
 40
0.8749999999999996
 40
0.8749999999999996
 40
0.9062499999999997
 40
0.9062499999999997
 40
0.9374999999999998
 40
0.9374999999999998
 40
0.9687499999999999
 40
0.9687499999999999
 40
1.0
 40
1.0
 40
1.0
 40
1.0
 10
353.4623042423345
 20
90.75841829752905
 30
0.0
 10
348.9636900205639
 20
91.88931476910697
 30
0.0
 10
342.2176833131006
 20
93.5870612709908
 30
0.0
 10
335.4680799794465
 20
95.28700612364347
 30
0.0
 10
332.0921401123617
 20
96.13735280510191
 30
0.0
 10
330.9665161832764
 20
96.42108479965741
 30
0.0
 10
329.5586408057088
 20
96.77531673463696
 30
0.0
 10
329.2771223174439
 20
96.84610041857898
 30
0.0
 10
328.714460264858
 20
96.98741848553038
 30
0.0
 10
328.4313213014449
 20
97.05855495686252
 30
0.0
 10
327.8514404660307
 20
97.20253966562039
 30
0.0
 10
327.5570590443545
 20
97.2748955791898
 30
0.0
 10
326.9441825542079
 20
97.42123560054854
 30
0.0
 10
326.6266625052783
 20
97.49484947128818
 30
0.0
 10
326.2981359668822
 20
97.56657272094655
 30
0.0
  0
LINE
  5
25D
330
1F
100
AcDbEntity
  8
0
  6
Continuous
 62
     7
370
    15
100
AcDbLine
 10
384.4623024542
 20
100.7493209013
 30
0.0
 11
384.4623024542
 21
40.7493222424
 31
0.0
  0
LINE
  5
25E
330
1F
100
AcDbEntity
  8
0
  6
Continuous
 62
     7
370
    15
100
AcDbLine
 10
224.4623060305
 20
100.7493209013
 30
0.0
 11
224.4623060305
 21
40.7493222424
 31
0.0
  0
SPLINE
  5
25F
330
1F
100
AcDbEntity
  8
0
  6
Continuous
 62
     7
370
    15
100
AcDbSpline
210
0.0
220
0.0
230
1.0
 70
     8
 71
     3
 72
     9
 73
     5
 74
     0
 42
0.00000001
 43
0.00000001
 40
0.0
 40
0.0
 40
0.0
 40
0.0
 40
0.4345482239243519
 40
1.0
 40
1.0
 40
1.0
 40
1.0
 10
282.6304267127037
 20
43.93248221959735
 30
0.0
 10
282.6289389990922
 20
43.93038522686189
 30
0.0
 10
282.6255154121812
 20
43.9255595421162
 30
0.0
 10
282.6227046819845
 20
43.93224954643038
 30
0.0
 10
282.6211153496027
 20
43.93603242125178
 30
0.0
  0
SPLINE
  5
260
330
1F
100
AcDbEntity
  8
0
  6
Continuous
 62
     7
370
    15
100
AcDbSpline
210
0.0
220
0.0
230
1.0
 70
     8
 71
     3
 72
    19
 73
    15
 74
     0
 42
0.00000001
 43
0.00000001
 40
0.0
 40
0.0
 40
0.0
 40
0.0
 40
0.5000000000000002
 40
0.7500000000000003
 40
0.7500000000000003
 40
0.8750000000000006
 40
0.8750000000000006
 40
0.9062500000000004
 40
0.9062500000000004
 40
0.9375000000000003
 40
0.9375000000000003
 40
0.9687500000000002
 40
0.9687500000000002
 40
1.0
 40
1.0
 40
1.0
 40
1.0
 10
255.4623042423161
 20
90.75841829752929
 30
0.0
 10
259.9609184640866
 20
91.88931476910717
 30
0.0
 10
266.7069251715497
 20
93.58706127099094
 30
0.0
 10
273.4565285052036
 20
95.28700612364355
 30
0.0
 10
276.8324683722882
 20
96.13735280510195
 30
0.0
 10
277.9580923013735
 20
96.42108479965746
 30
0.0
 10
279.365967678941
 20
96.77531673463699
 30
0.0
 10
279.647486167206
 20
96.84610041857901
 30
0.0
 10
280.2101482197919
 20
96.98741848553041
 30
0.0
 10
280.4932871832049
 20
97.05855495686254
 30
0.0
 10
281.0731680186191
 20
97.20253966562042
 30
0.0
 10
281.3675494402954
 20
97.27489557918983
 30
0.0
 10
281.9804259304419
 20
97.42123560054854
 30
0.0
 10
282.2979459793715
 20
97.49484947128819
 30
0.0
 10
282.6264725177676
 20
97.56657272094655
 30
0.0
  0
ARC
  5
261
330
1F
100
AcDbEntity
  8
0
  6
Continuous
 62
     7
370
    15
100
AcDbCircle
 10
304.4623042423
 20
70.7493215718
 30
0.0
 40
49.99999999999997
100
AcDbArc
 50
204.8211024117
 51
335.1945203492
  0
ARC
  5
262
330
1F
100
AcDbEntity
  8
0
  6
Continuous
 62
     7
370
    15
100
AcDbCircle
 10
304.4623042423
 20
70.7493215718
 30
0.0
 40
50.00000000000001
100
AcDbArc
 50
24.8005479562
 51
155.2486292903
  0
ARC
  5
263
330
1F
100
AcDbEntity
  8
0
  6
Continuous
 62
     8
370
    15
100
AcDbCircle
 10
304.4623042423
 20
70.7493215718
 30
0.0
 40
20.35155301190584
100
AcDbArc
 50
180.0
 51
222.3528200678
  0
ARC
  5
264
330
1F
100
AcDbEntity
  8
0
  6
Continuous
 62
     8
370
    15
100
AcDbCircle
 10
304.4623042423
 20
70.7493215718
 30
0.0
 40
20.35155301190591
100
AcDbArc
 50
317.6471799323
 51
41.8416402814
  0
ARC
  5
265
330
1F
100
AcDbEntity
  8
0
  6
Continuous
 62
     8
370
    15
100
AcDbCircle
 10
304.4623042423
 20
70.7493215718
 30
0.0
 40
20.35155301190584
100
AcDbArc
 50
138.1583597186
 51
180.0
  0
SPLINE
  5
266
330
1F
100
AcDbEntity
  8
0
  6
Continuous
 62
     8
370
    15
100
AcDbSpline
210
0.0
220
0.0
230
1.0
 70
     8
 71
     3
 72
    16
 73
    12
 74
     0
 42
0.00000001
 43
0.00000001
 40
0.0
 40
0.0
 40
0.0
 40
0.0
 40
0.0039684465202732
 40
0.0986925799385829
 40
0.1866766524445811
 40
0.2739919493272666
 40
0.3402078740092073
 40
0.5048283789845841
 40
0.6697155606578516
 40
0.8355855145745865
 40
1.0
 40
1.0
 40
1.0
 40
1.0
 10
284.4020928222656
 20
52.08064577664996
 30
0.0
 10
284.3987591103281
 20
52.05840429349336
 30
0.0
 10
284.3158519500073
 20
51.50527365580596
 30
0.0
 10
284.1466540733408
 20
50.54927595357058
 30
0.0
 10
283.9110320253357
 20
49.26763418048796
 30
0.0
 10
283.6754355868125
 20
48.27924636372106
 30
0.0
 10
283.4819987032456
 20
47.17197069731161
 30
0.0
 10
283.3345983201328
 20
45.94282852384328
 30
0.0
 10
283.0910698718762
 20
44.79415694929836
 30
0.0
 10
282.8555163746312
 20
44.04026491400512
 30
0.0
 10
282.7052358523391
 20
43.96830408083779
 30
0.0
 10
282.6304267127037
 20
43.93248221959735
 30
0.0
  0
SPLINE
  5
267
330
1F
100
AcDbEntity
  8
0
  6
Continuous
 62
     8
370
    15
100
AcDbSpline
210
0.0
220
0.0
230
1.0
 70
     8
 71
     3
 72
    17
 73
    13
 74
     0
 42
0.00000001
 43
0.00000001
 40
0.0
 40
0.0
 40
0.0
 40
0.0
 40
0.1467725671843917
 40
0.291997761989729
 40
0.4362048535299985
 40
0.5799688090719813
 40
0.627903175016061
 40
0.6758623982754318
 40
0.7367340276628718
 40
0.8516866390849063
 40
0.9672275629299111
 40
1.0
 40
1.0
 40
1.0
 40
1.0
 10
282.6264723170519
 20
97.56657256867553
 30
0.0
 10
282.6930971708854
 20
97.54030823741691
 30
0.0
 10
282.8256444757768
 20
97.48805647065426
 30
0.0
 10
283.0352176400067
 20
96.90561692214554
 30
0.0
 10
283.2422924571555
 20
96.00823527794111
 30
0.0
 10
283.3947455232706
 20
95.0706826692175
 30
0.0
 10
283.5053556556668
 20
94.30902763701826
 30
0.0
 10
283.5628560948031
 20
93.77972140657879
 30
0.0
 10
283.7276455662933
 20
92.98829397495719
 30
0.0
 10
284.0078825816204
 20
91.7290965303241
 30
0.0
 10
284.2451395029753
 20
90.43150503421361
 30
0.0
 10
284.3716237513869
 20
89.60046588270744
 30
0.0
 10
284.3995726633787
 20
89.41683321382666
 30
0.0
  0
LINE
  5
268
330
1F
100
AcDbEntity
  8
1
100
AcDbLine
 10
255.4623042423
 20
50.8022960814
 30
0.0
 11
255.4623042423
 21
90.7584181078
 31
0.0
  0
ARC
  5
269
330
1F
100
AcDbEntity
  8
1
100
AcDbCircle
 10
311.3567424185
 20
70.7196265029
 30
0.0
 40
32.72133421303602
100
AcDbArc
 50
145.2301191698
 51
214.7698808302
  0
CIRCLE
  5
26A
330
1F
100
AcDbEntity
  8
1
100
AcDbCircle
 10
277.9457999478
 20
561.2171032857
 30
0.0
 40
5.500000000000057
  0
ARC
  5
26B
330
1F
100
AcDbEntity
  8
1
100
AcDbCircle
 10
304.4623042423
 20
38.8331132701
 30
0.0
 40
62.66117463126611
100
AcDbArc
 50
97.9130120121
 51
110.3940470508
  0
CIRCLE
  5
26C
330
1F
100
AcDbEntity
  8
1
100
AcDbCircle
 10
330.9788085368
 20
561.2171032857
 30
0.0
 40
5.500000000000057
  0
CIRCLE
  5
26D
330
1F
100
AcDbEntity
  8
1
100
AcDbCircle
 10
330.9788085368
 20
508.1840946967
 30
0.0
 40
5.500000000000057
  0
ARC
  5
26E
330
1F
100
AcDbEntity
  8
1
100
AcDbCircle
 10
304.4623042423
 20
38.8331132701
 30
0.0
 40
62.66117463126669
100
AcDbArc
 50
69.6059529492
 51
82.0869879879
  0
ARC
  5
26F
330
1F
100
AcDbEntity
  8
1
100
AcDbCircle
 10
304.4757495007
 20
120.7816758008
 30
0.0
 40
79.60591387329852
100
AcDbArc
 50
276.5080496868
 51
283.4751264062
  0
ARC
  5
270
330
1F
100
AcDbEntity
  8
1
100
AcDbCircle
 10
304.4757495008
 20
120.7816758006
 30
0.0
 40
79.6059138730118
100
AcDbArc
 50
256.5248735938
 51
263.4919503132
  0
CIRCLE
  5
271
330
1F
100
AcDbEntity
  8
1
100
AcDbCircle
 10
277.9457999478
 20
508.1840946967
 30
0.0
 40
5.499999999999936
  0
ENDSEC
  0
SECTION
  2
OBJECTS
  0
DICTIONARY
  5
C
330
0
100
AcDbDictionary
281
     1
  3
ACAD_GROUP
350
D
  3
ACAD_LAYOUT
350
1A
  3
ACAD_MLINESTYLE
350
17
  3
ACAD_PLOTSETTINGS
350
19
  3
ACAD_PLOTSTYLENAME
350
E
  0
DICTIONARY
  5
D
102
{ACAD_REACTORS
330
C
102
}
330
C
100
AcDbDictionary
281
     1
  0
DICTIONARY
  5
1A
102
{ACAD_REACTORS
330
C
102
}
330
C
100
AcDbDictionary
281
     1
  3
Layout1
350
1E
  3
Layout2
350
26
  3
Model
350
22
  0
DICTIONARY
  5
17
102
{ACAD_REACTORS
330
C
102
}
330
C
100
AcDbDictionary
281
     1
  3
Standard
350
18
  0
DICTIONARY
  5
19
102
{ACAD_REACTORS
330
C
102
}
330
C
100
AcDbDictionary
281
     1
  0
ACDBDICTIONARYWDFLT
  5
E
102
{ACAD_REACTORS
330
C
102
}
330
C
100
AcDbDictionary
281
     1
  3
Normal
350
F
100
AcDbDictionaryWithDefault
340
F
  0
LAYOUT
  5
1E
102
{ACAD_REACTORS
330
1A
102
}
330
1A
100
AcDbPlotSettings
  1

  2
none_device
  4

  6

 40
0.0
 41
0.0
 42
0.0
 43
0.0
 44
0.0
 45
0.0
 46
0.0
 47
0.0
 48
0.0
 49
0.0
140
0.0
141
0.0
142
1.0
143
1.0
 70
   688
 72
     0
 73
     0
 74
     5
  7

 75
    16
147
1.0
148
0.0
149
0.0
100
AcDbLayout
  1
Layout1
 70
     1
 71
     1
 10
0.0
 20
0.0
 11
420.0
 21
297.0
 12
0.0
 22
0.0
 32
0.0
 14
1.0000000000E+20
 24
1.0000000000E+20
 34
1.0000000000E+20
 15
-1.0000000000E+20
 25
-1.0000000000E+20
 35
-1.0000000000E+20
146
0.0
 13
0.0
 23
0.0
 33
0.0
 16
1.0
 26
0.0
 36
0.0
 17
0.0
 27
1.0
 37
0.0
 76
     0
330
1B
  0
LAYOUT
  5
26
102
{ACAD_REACTORS
330
1A
102
}
330
1A
100
AcDbPlotSettings
  1

  2
none_device
  4

  6

 40
0.0
 41
0.0
 42
0.0
 43
0.0
 44
0.0
 45
0.0
 46
0.0
 47
0.0
 48
0.0
 49
0.0
140
0.0
141
0.0
142
1.0
143
1.0
 70
   688
 72
     0
 73
     0
 74
     5
  7

 75
    16
147
1.0
148
0.0
149
0.0
100
AcDbLayout
  1
Layout2
 70
     1
 71
     2
 10
0.0
 20
0.0
 11
0.0
 21
0.0
 12
0.0
 22
0.0
 32
0.0
 14
0.0
 24
0.0
 34
0.0
 15
0.0
 25
0.0
 35
0.0
146
0.0
 13
0.0
 23
0.0
 33
0.0
 16
1.0
 26
0.0
 36
0.0
 17
0.0
 27
1.0
 37
0.0
 76
     0
330
23
  0
LAYOUT
  5
22
102
{ACAD_REACTORS
330
1A
102
}
330
1A
100
AcDbPlotSettings
  1

  2
none_device
  4

  6

 40
0.0
 41
0.0
 42
0.0
 43
0.0
 44
0.0
 45
0.0
 46
0.0
 47
0.0
 48
0.0
 49
0.0
140
0.0
141
0.0
142
1.0
143
1.0
 70
  1712
 72
     0
 73
     0
 74
     0
  7

 75
     0
147
1.0
148
0.0
149
0.0
100
AcDbLayout
  1
Model
 70
     1
 71
     0
 10
0.0
 20
0.0
 11
600.0
 21
600.0
 12
0.0
 22
0.0
 32
0.0
 14
0.0
 24
0.0
 34
0.0
 15
600.0
 25
600.0
 35
0.0
146
0.0
 13
0.0
 23
0.0
 33
0.0
 16
1.0
 26
0.0
 36
0.0
 17
0.0
 27
1.0
 37
0.0
 76
     0
330
1F
331
29
  0
MLINESTYLE
  5
18
102
{ACAD_REACTORS
330
17
102
}
330
17
100
AcDbMlineStyle
  2
Standard
 70
     0
  3

 62
   256
 51
90.0
 52
90.0
 71
     2
 49
0.5
 62
   256
  6
BYLAYER
 49
-0.5
 62
   256
  6
BYLAYER
  0
ACDBPLACEHOLDER
  5
F
102
{ACAD_REACTORS
330
E
102
}
330
E
  0
ENDSEC
  0
EOF
