  0
SECTION
  2
HEADER
  9
$ACADVER
  1
AC1015
  9
$ACADMAINTVER
 70
     6
  9
$DWGCODEPAGE
  3
ANSI_1252
  9
$INSBASE
 10
0.0
 20
0.0
 30
0.0
  9
$EXTMIN
 10
0.0
 20
0.0
 30
0.0
  9
$EXTMAX
 10
600.0
 20
600.0
 30
0.0
  9
$LIMMIN
 10
0.0
 20
0.0
  9
$LIMMAX
 10
600.0
 20
600.0
  9
$ORTHOMODE
 70
     0
  9
$REGENMODE
 70
     1
  9
$FILLMODE
 70
     1
  9
$QTEXTMODE
 70
     0
  9
$MIRRTEXT
 70
     1
  9
$LTSCALE
 40
1.0
  9
$ATTMODE
 70
     1
  9
$TEXTSIZE
 40
3.5
  9
$TRACEWID
 40
1.0
  9
$TEXTSTYLE
  7
Standard
  9
$CLAYER
  8
0
  9
$CELTYPE
  6
ByLayer
  9
$CECOLOR
 62
   256
  9
$CELTSCALE
 40
1.0
  9
$DISPSILH
 70
     0
  9
$DIMSCALE
 40
1.0
  9
$DIMASZ
 40
4.0
  9
$DIMEXO
 40
0.0
  9
$DIMDLI
 40
3.75
  9
$DIMRND
 40
0.0
  9
$DIMDLE
 40
0.0
  9
$DIMEXE
 40
1.0
  9
$DIMTP
 40
0.0
  9
$DIMTM
 40
0.0
  9
$DIMTXT
 40
3.5
  9
$DIMCEN
 40
2.5
  9
$DIMTSZ
 40
0.0
  9
$DIMTOL
 70
     0
  9
$DIMLIM
 70
     0
  9
$DIMTIH
 70
     1
  9
$DIMTOH
 70
     1
  9
$DIMSE1
 70
     0
  9
$DIMSE2
 70
     0
  9
$DIMTAD
 70
     1
  9
$DIMZIN
 70
     0
  9
$DIMBLK
  1

  9
$DIMASO
 70
     1
  9
$DIMSHO
 70
     1
  9
$DIMPOST
  1

  9
$DIMAPOST
  1

  9
$DIMALT
 70
     0
  9
$DIMALTD
 70
     3
  9
$DIMALTF
 40
0.0393700787
  9
$DIMLFAC
 40
1.0
  9
$DIMTOFL
 70
     1
  9
$DIMTVP
 40
0.0
  9
$DIMTIX
 70
     0
  9
$DIMSOXD
 70
     0
  9
$DIMSAH
 70
     0
  9
$DIMBLK1
  1

  9
$DIMBLK2
  1

  9
$DIMSTYLE
  2
ISO-25
  9
$DIMCLRD
 70
     0
  9
$DIMCLRE
 70
     0
  9
$DIMCLRT
 70
     0
  9
$DIMTFAC
 40
1.0
  9
$DIMGAP
 40
1.524
  9
$DIMJUST
 70
     0
  9
$DIMSD1
 70
     0
  9
$DIMSD2
 70
     0
  9
$DIMTOLJ
 70
     0
  9
$DIMTZIN
 70
     0
  9
$DIMALTZ
 70
     0
  9
$DIMALTTZ
 70
     0
  9
$DIMUPT
 70
     0
  9
$DIMDEC
 70
     1
  9
$DIMTDEC
 70
     1
  9
$DIMALTU
 70
     2
  9
$DIMALTTD
 70
     3
  9
$DIMTXSTY
  7
Standard
  9
$DIMAUNIT
 70
     0
  9
$DIMADEC
 70
     1
  9
$DIMALTRND
 40
0.0
  9
$DIMAZIN
 70
     0
  9
$DIMDSEP
 70
    44
  9
$DIMATFIT
 70
     3
  9
$DIMFRAC
 70
     0
  9
$DIMLDRBLK
  1

  9
$DIMLUNIT
 70
     2
  9
$DIMLWD
 70
    -2
  9
$DIMLWE
 70
    -2
  9
$DIMTMOVE
 70
     0
  9
$LUNITS
 70
     2
  9
$LUPREC
 70
     1
  9
$SKETCHINC
 40
1.0
  9
$FILLETRAD
 40
10.0
  9
$AUNITS
 70
     0
  9
$AUPREC
 70
     1
  9
$MENU
  1
.
  9
$ELEVATION
 40
0.0
  9
$PELEVATION
 40
0.0
  9
$THICKNESS
 40
0.0
  9
$LIMCHECK
 70
     0
  9
$CHAMFERA
 40
10.0
  9
$CHAMFERB
 40
10.0
  9
$CHAMFERC
 40
20.0
  9
$CHAMFERD
 40
0.0
  9
$SKPOLY
 70
     0
  9
$TDCREATE
 40
2455929.353580602
  9
$TDUCREATE
 40
2455929.311913935
  9
$TDUPDATE
 40
2455929.353580614
  9
$TDUUPDATE
 40
2455929.311913947
  9
$TDINDWG
 40
0.0000000116
  9
$TDUSRTIMER
 40
0.0000000116
  9
$USRTIMER
 70
     1
  9
$ANGBASE
 50
0.0
  9
$ANGDIR
 70
     0
  9
$PDMODE
 70
     0
  9
$PDSIZE
 40
-1.0
  9
$PLINEWID
 40
0.0
  9
$SPLFRAME
 70
     0
  9
$SPLINETYPE
 70
     6
  9
$SPLINESEGS
 70
     8
  9
$HANDSEED
  5
287
  9
$SURFTAB1
 70
     6
  9
$SURFTAB2
 70
     6
  9
$SURFTYPE
 70
     6
  9
$SURFU
 70
     6
  9
$SURFV
 70
     6
  9
$UCSBASE
  2

  9
$UCSNAME
  2

  9
$UCSORG
 10
0.0
 20
0.0
 30
0.0
  9
$UCSXDIR
 10
1.0
 20
0.0
 30
0.0
  9
$UCSYDIR
 10
0.0
 20
1.0
 30
0.0
  9
$UCSORTHOREF
  2

  9
$UCSORTHOVIEW
 70
     0
  9
$UCSORGTOP
 10
0.0
 20
0.0
 30
0.0
  9
$UCSORGBOTTOM
 10
0.0
 20
0.0
 30
0.0
  9
$UCSORGLEFT
 10
0.0
 20
0.0
 30
0.0
  9
$UCSORGRIGHT
 10
0.0
 20
0.0
 30
0.0
  9
$UCSORGFRONT
 10
0.0
 20
0.0
 30
0.0
  9
$UCSORGBACK
 10
0.0
 20
0.0
 30
0.0
  9
$PUCSBASE
  2

  9
$PUCSNAME
  2

  9
$PUCSORG
 10
0.0
 20
0.0
 30
0.0
  9
$PUCSXDIR
 10
1.0
 20
0.0
 30
0.0
  9
$PUCSYDIR
 10
0.0
 20
1.0
 30
0.0
  9
$PUCSORTHOREF
  2

  9
$PUCSORTHOVIEW
 70
     0
  9
$PUCSORGTOP
 10
0.0
 20
0.0
 30
0.0
  9
$PUCSORGBOTTOM
 10
0.0
 20
0.0
 30
0.0
  9
$PUCSORGLEFT
 10
0.0
 20
0.0
 30
0.0
  9
$PUCSORGRIGHT
 10
0.0
 20
0.0
 30
0.0
  9
$PUCSORGFRONT
 10
0.0
 20
0.0
 30
0.0
  9
$PUCSORGBACK
 10
0.0
 20
0.0
 30
0.0
  9
$USERI1
 70
     0
  9
$USERI2
 70
     0
  9
$USERI3
 70
     0
  9
$USERI4
 70
     0
  9
$USERI5
 70
     0
  9
$USERR1
 40
0.0
  9
$USERR2
 40
0.0
  9
$USERR3
 40
0.0
  9
$USERR4
 40
0.0
  9
$USERR5
 40
0.0
  9
$WORLDVIEW
 70
     1
  9
$SHADEDGE
 70
     3
  9
$SHADEDIF
 70
    70
  9
$TILEMODE
 70
     1
  9
$MAXACTVP
 70
    64
  9
$PINSBASE
 10
0.0
 20
0.0
 30
0.0
  9
$PLIMCHECK
 70
     0
  9
$PEXTMIN
 10
1.0000000000E+20
 20
1.0000000000E+20
 30
1.0000000000E+20
  9
$PEXTMAX
 10
-1.0000000000E+20
 20
-1.0000000000E+20
 30
-1.0000000000E+20
  9
$PLIMMIN
 10
0.0
 20
0.0
  9
$PLIMMAX
 10
420.0
 20
297.0
  9
$UNITMODE
 70
     0
  9
$VISRETAIN
 70
     1
  9
$PLINEGEN
 70
     0
  9
$PSLTSCALE
 70
     1
  9
$TREEDEPTH
 70
  3020
  9
$CMLSTYLE
  2
Standard
  9
$CMLJUST
 70
     0
  9
$CMLSCALE
 40
20.0
  9
$PROXYGRAPHICS
 70
     1
  9
$MEASUREMENT
 70
     1
  9
$CELWEIGHT
370
    -1
  9
$ENDCAPS
280
     0
  9
$JOINSTYLE
280
     0
  9
$LWDISPLAY
290
     1
  9
$INSUNITS
 70
     4
  9
$HYPERLINKBASE
  1

  9
$STYLESHEET
  1

  9
$XEDIT
290
     1
  9
$CEPSNTYPE
380
     0
  9
$PSTYLEMODE
290
     1
  9
$FINGERPRINTGUID
  2
{F0064AD9-5836-4B88-AFD0-8C6F8A3CC1CD}
  9
$VERSIONGUID
  2
{FAEB1C32-E019-11D5-929B-00C0DF256EC4}
  9
$EXTNAMES
290
     1
  9
$PSVPSCALE
 40
0.0
  9
$OLESTARTUP
290
     0
  0
ENDSEC
  0
SECTION
  2
CLASSES
  0
CLASS
  1
ACDBDICTIONARYWDFLT
  2
AcDbDictionaryWithDefault
  3
ObjectDBX Classes
 90
        0
280
     0
281
     0
  0
CLASS
  1
VISUALSTYLE
  2
AcDbVisualStyle
  3
ObjectDBX Classes
 90
     4095
280
     0
281
     0
  0
CLASS
  1
MATERIAL
  2
AcDbMaterial
  3
ObjectDBX Classes
 90
     1153
280
     0
281
     0
  0
CLASS
  1
ACDBPLACEHOLDER
  2
AcDbPlaceHolder
  3
ObjectDBX Classes
 90
        0
280
     0
281
     0
  0
CLASS
  1
LAYOUT
  2
AcDbLayout
  3
ObjectDBX Classes
 90
        0
280
     0
281
     0
  0
ENDSEC
  0
SECTION
  2
TABLES
  0
TABLE
  2
VPORT
  5
8
330
0
100
AcDbSymbolTable
 70
     1
  0
VPORT
  5
29
330
8
100
AcDbSymbolTableRecord
100
AcDbViewportTableRecord
  2
*Active
 70
     0
 10
0.0
 20
0.0
 11
1.0
 21
1.0
 12
300.0
 22
300.0
 13
0.0
 23
0.0
 14
10.0
 24
10.0
 15
10.0
 25
10.0
 16
0.0
 26
0.0
 36
1.0
 17
0.0
 27
0.0
 37
0.0
 40
600.0
 41
1.0
 42
50.0
 43
0.0
 44
0.0
 50
0.0
 51
0.0
 71
     0
 72
  2000
 73
     1
 74
     3
 75
     0
 76
     0
 77
     0
 78
     0
281
     0
 65
     1
110
0.0
120
0.0
130
0.0
111
1.0
121
0.0
131
0.0
112
0.0
122
1.0
132
0.0
 79
     0
146
0.0
  0
ENDTAB
  0
TABLE
  2
LTYPE
  5
5
330
0
100
AcDbSymbolTable
 70
     6
  0
LTYPE
  5
14
330
5
100
AcDbSymbolTableRecord
100
AcDbLinetypeTableRecord
  2
ByBlock
 70
     0
  3

 72
    65
 73
     0
 40
0.0
  0
LTYPE
  5
15
330
5
100
AcDbSymbolTableRecord
100
AcDbLinetypeTableRecord
  2
ByLayer
 70
     0
  3

 72
    65
 73
     0
 40
0.0
  0
LTYPE
  5
16
330
5
100
AcDbSymbolTableRecord
100
AcDbLinetypeTableRecord
  2
Continuous
 70
     0
  3
Solid line
 72
    65
 73
     0
 40
0.0
  0
LTYPE
  5
3F
330
5
100
AcDbSymbolTableRecord
100
AcDbLinetypeTableRecord
  2
HIDDEN
 70
     0
  3
Hidden __ __ __ __ __ __ __ __ __ __ __ __ __ __
 72
    65
 73
     2
 40
1.905
 49
1.27
 74
     0
 49
-0.635
 74
     0
  0
LTYPE
  5
40
330
5
100
AcDbSymbolTableRecord
100
AcDbLinetypeTableRecord
  2
PHANTOM
 70
     0
  3
Phantom ______  __  __  ______  __  __  ______
 72
    65
 73
     6
 40
12.7
 49
6.35
 74
     0
 49
-1.27
 74
     0
 49
1.27
 74
     0
 49
-1.27
 74
     0
 49
1.27
 74
     0
 49
-1.27
 74
     0
  0
LTYPE
  5
41
330
5
100
AcDbSymbolTableRecord
100
AcDbLinetypeTableRecord
  2
CENTER
 70
     0
  3
Center ____ _ ____ _ ____ _ ____ _ ____ _ ____
 72
    65
 73
     4
 40
10.16
 49
6.35
 74
     0
 49
-1.27
 74
     0
 49
1.27
 74
     0
 49
-1.27
 74
     0
  0
LTYPE
  5
42
330
5
100
AcDbSymbolTableRecord
100
AcDbLinetypeTableRecord
  2
CENTERX2
 70
     0
  3
Center (2x) ________  __  ________  __  _____
 72
    65
 73
     4
 40
20.32
 49
12.7
 74
     0
 49
-2.54
 74
     0
 49
2.54
 74
     0
 49
-2.54
 74
     0
  0
LTYPE
  5
43
330
5
100
AcDbSymbolTableRecord
100
AcDbLinetypeTableRecord
  2
DOT2
 70
     0
  3
Dot (.5x) ........................................
 72
    65
 73
     2
 40
0.635
 49
0.0
 74
     0
 49
-0.635
 74
     0
  0
ENDTAB
  0
TABLE
  2
LAYER
  5
2
330
0
100
AcDbSymbolTable
 70
     6
  0
LAYER
  5
10
330
2
100
AcDbSymbolTableRecord
100
AcDbLayerTableRecord
  2
0
 70
     0
 62
     7
  6
Continuous
370
    -3
390
F
  0
LAYER
  5
44
330
2
100
AcDbSymbolTableRecord
100
AcDbLayerTableRecord
  2
1
 70
     0
 62
   179
  6
Continuous
370
    -3
390
F
  0
LAYER
  5
45
330
2
100
AcDbSymbolTableRecord
100
AcDbLayerTableRecord
  2
FORMAT
 70
     0
 62
     7
  6
Continuous
370
    -3
390
F
  0
LAYER
  5
46
330
2
100
AcDbSymbolTableRecord
100
AcDbLayerTableRecord
  2
SLD-0
 70
     0
 62
   179
  6
Continuous
370
    -3
390
F
  0
LAYER
  5
47
330
2
100
AcDbSymbolTableRecord
100
AcDbLayerTableRecord
  2
GESTRICHELT
 70
     0
 62
     7
  6
HIDDEN
370
    -3
390
F
  0
LAYER
  5
48
330
2
100
AcDbSymbolTableRecord
100
AcDbLayerTableRecord
  2
GESTRICHELT_LÄNGER
 70
     0
 62
     7
  6
Continuous
370
    -3
390
F
  0
ENDTAB
  0
TABLE
  2
STYLE
  5
3
330
0
100
AcDbSymbolTable
 70
     1
  0
STYLE
  5
11
330
3
100
AcDbSymbolTableRecord
100
AcDbTextStyleTableRecord
  2
Standard
 70
     0
 40
0.0
 41
1.0
 50
0.0
 71
     0
 42
2.5
  3
txt
  4

  0
ENDTAB
  0
TABLE
  2
VIEW
  5
6
330
0
100
AcDbSymbolTable
 70
     0
  0
ENDTAB
  0
TABLE
  2
UCS
  5
7
330
0
100
AcDbSymbolTable
 70
     0
  0
ENDTAB
  0
TABLE
  2
APPID
  5
9
330
0
100
AcDbSymbolTable
 70
     1
  0
APPID
  5
12
330
9
100
AcDbSymbolTableRecord
100
AcDbRegAppTableRecord
  2
ACAD
 70
     0
  0
ENDTAB
  0
TABLE
  2
DIMSTYLE
  5
A
330
0
100
AcDbSymbolTable
 70
     1
100
AcDbDimStyleTable
  0
DIMSTYLE
105
27
330
A
100
AcDbSymbolTableRecord
100
AcDbDimStyleTableRecord
  2
ISO-25
 70
     0
 41
2.5
 42
0.625
 43
3.75
 44
1.25
 73
     0
 74
     0
 77
     1
 78
     8
140
2.5
141
2.5
143
0.0393700787
147
0.625
171
     3
172
     1
178
     0
271
     2
272
     2
274
     3
278
    44
283
     0
284
     8
340
11
  0
ENDTAB
  0
TABLE
  2
BLOCK_RECORD
  5
1
330
0
100
AcDbSymbolTable
 70
     1
  0
BLOCK_RECORD
  5
1F
330
1
100
AcDbSymbolTableRecord
100
AcDbBlockTableRecord
  2
*Model_Space
340
22
  0
BLOCK_RECORD
  5
1B
330
1
100
AcDbSymbolTableRecord
100
AcDbBlockTableRecord
  2
*Paper_Space
340
1E
  0
BLOCK_RECORD
  5
23
330
1
100
AcDbSymbolTableRecord
100
AcDbBlockTableRecord
  2
*Paper_Space0
340
26
  0
ENDTAB
  0
ENDSEC
  0
SECTION
  2
BLOCKS
  0
BLOCK
  5
20
330
1F
100
AcDbEntity
  8
0
100
AcDbBlockBegin
  2
*Model_Space
 70
     0
 10
0.0
 20
0.0
 30
0.0
  3
*Model_Space
  1

  0
ENDBLK
  5
21
330
1F
100
AcDbEntity
  8
0
100
AcDbBlockEnd
  0
BLOCK
  5
1C
330
1B
100
AcDbEntity
 67
     1
  8
0
100
AcDbBlockBegin
  2
*Paper_Space
 70
     0
 10
0.0
 20
0.0
 30
0.0
  3
*Paper_Space
  1

  0
ENDBLK
  5
1D
330
1B
100
AcDbEntity
 67
     1
  8
0
100
AcDbBlockEnd
  0
BLOCK
  5
24
330
23
100
AcDbEntity
  8
0
100
AcDbBlockBegin
  2
*Paper_Space0
 70
     0
 10
0.0
 20
0.0
 30
0.0
  3
*Paper_Space0
  1

  0
ENDBLK
  5
25
330
23
100
AcDbEntity
  8
0
100
AcDbBlockEnd
  0
ENDSEC
  0
SECTION
  2
ENTITIES
  0
LINE
  5
49
330
1F
100
AcDbEntity
  8
1
100
AcDbLine
 10
241.5608718165
 20
556.9649450612
 30
0.0
 11
241.5608718165
 21
543.2190618758
 31
0.0
  0
LINE
  5
4A
330
1F
100
AcDbEntity
  8
1
100
AcDbLine
 10
241.5608721455
 20
523.1437050974
 30
0.0
 11
241.560855946
 21
536.8879272776
 31
0.0
  0
LINE
  5
4B
330
1F
100
AcDbEntity
  8
1
100
AcDbLine
 10
279.5989760409
 20
308.3711057968
 30
0.0
 11
303.0606380392
 21
308.3711057968
 31
0.0
  0
ARC
  5
4C
330
1F
100
AcDbEntity
  8
1
100
AcDbCircle
 10
269.3444876499
 20
311.8308734333
 30
0.0
 40
33.91391659811067
100
AcDbArc
 50
49.8235235519
 51
84.0928780105
  0
ARC
  5
4D
330
1F
100
AcDbEntity
  8
1
100
AcDbCircle
 10
318.8086034639
 20
300.0883257137
 30
0.0
 40
46.67768442226213
100
AcDbArc
 50
103.0270148969
 51
126.2253297778
  0
ARC
  5
4E
330
1F
100
AcDbEntity
  8
1
100
AcDbCircle
 10
283.9759828479
 20
333.7916223872
 30
0.0
 40
25.79458959369839
100
AcDbArc
 50
228.3183964302
 51
260.2303782831
  0
ARC
  5
4F
330
1F
100
AcDbEntity
  8
1
100
AcDbCircle
 10
301.9598512827
 20
288.5675702349
 30
0.0
 40
19.83410578365024
100
AcDbArc
 50
51.4920131606
 51
86.8184671714
  0
LINE
  5
50
330
1F
100
AcDbEntity
  8
0
  6
Continuous
 62
     7
370
    15
100
AcDbLine
 10
294.5608723354
 20
369.0647068818
 30
0.0
 11
294.5608723354
 21
394.6720729966
 31
0.0
  0
LINE
  5
51
330
1F
100
AcDbEntity
  8
0
  6
Continuous
 62
     7
370
    15
100
AcDbLine
 10
286.5608719555
 20
394.6720729966
 30
0.0
 11
286.5608719555
 21
369.0647068818
 31
0.0
  0
ARC
  5
52
330
1F
100
AcDbEntity
  8
0
  6
Continuous
 62
     7
370
    15
100
AcDbCircle
 10
290.5608721455
 20
394.6720728287
 30
0.0
 40
3.999999999999943
100
AcDbArc
 50
165.0
 51
180.0
  0
ARC
  5
53
330
1F
100
AcDbEntity
  8
0
  6
Continuous
 62
     7
370
    15
100
AcDbCircle
 10
290.5608721455
 20
394.6720728287
 30
0.0
 40
4.000000000000052
100
AcDbArc
 50
0.0
 51
15.0
  0
LINE
  5
54
330
1F
100
AcDbEntity
  8
0
  6
Continuous
 62
     7
370
    15
100
AcDbLine
 10
294.4245753721
 20
395.7073460717
 30
0.0
 11
294.1971687511
 21
396.5560417075
 31
0.0
  0
LINE
  5
55
330
1F
100
AcDbEntity
  8
0
  6
Continuous
 62
     7
370
    15
100
AcDbLine
 10
286.9245755398
 20
396.5560417075
 30
0.0
 11
286.6971689188
 21
395.7073460717
 31
0.0
  0
ARC
  5
56
330
1F
100
AcDbEntity
  8
0
  6
Continuous
 62
     7
370
    15
100
AcDbCircle
 10
298.0608721455
 20
397.5913182132
 30
0.0
 40
3.999999999999943
100
AcDbArc
 50
180.0
 51
195.0
  0
ARC
  5
57
330
1F
100
AcDbEntity
  8
0
  6
Continuous
 62
     7
370
    15
100
AcDbCircle
 10
283.0608721455
 20
397.5913182132
 30
0.0
 40
4.0
100
AcDbArc
 50
345.0
 51
0.0
  0
LINE
  5
58
330
1F
100
AcDbEntity
  8
0
  6
Continuous
 62
     7
370
    15
100
AcDbLine
 10
294.0608722535
 20
397.5913147826
 30
0.0
 11
294.0608722535
 21
400.5647073884
 31
0.0
  0
LINE
  5
59
330
1F
100
AcDbEntity
  8
0
  6
Continuous
 62
     7
370
    15
100
AcDbLine
 10
287.0608720374
 20
400.5647073884
 30
0.0
 11
287.0608720374
 21
397.5913147826
 31
0.0
  0
LINE
  5
5A
330
1F
100
AcDbEntity
  8
0
  6
Continuous
 62
     7
370
    15
100
AcDbLine
 10
294.0608722535
 20
418.5147057672
 30
0.0
 11
292.5108720926
 21
420.0647096534
 31
0.0
  0
LINE
  5
5B
330
1F
100
AcDbEntity
  8
0
  6
Continuous
 62
     7
370
    15
100
AcDbLine
 10
288.6108721984
 20
420.0647096534
 30
0.0
 11
287.0608720374
 21
418.5147057672
 31
0.0
  0
LINE
  5
5C
330
1F
100
AcDbEntity
  8
0
  6
Continuous
 62
     7
370
    15
100
AcDbLine
 10
294.0608722535
 20
416.5147091646
 30
0.0
 11
294.0608722535
 21
418.5147057672
 31
0.0
  0
LINE
  5
5D
330
1F
100
AcDbEntity
  8
0
  6
Continuous
 62
     7
370
    15
100
AcDbLine
 10
287.0608720374
 20
418.5147057672
 30
0.0
 11
287.0608720374
 21
416.5147091646
 31
0.0
  0
LINE
  5
5E
330
1F
100
AcDbEntity
  8
0
  6
Continuous
 62
     7
370
    15
100
AcDbLine
 10
294.0608722535
 20
403.5647060175
 30
0.0
 11
294.0608722535
 21
413.4647096891
 31
0.0
  0
LINE
  5
5F
330
1F
100
AcDbEntity
  8
0
  6
Continuous
 62
     7
370
    15
100
AcDbLine
 10
287.0608720374
 20
413.4647096891
 30
0.0
 11
287.0608720374
 21
403.5647060175
 31
0.0
  0
LINE
  5
60
330
1F
100
AcDbEntity
  8
0
  6
Continuous
 62
     7
370
    15
100
AcDbLine
 10
293.5608721715
 20
400.5647073884
 30
0.0
 11
293.5608721715
 21
403.5647060175
 31
0.0
  0
LINE
  5
61
330
1F
100
AcDbEntity
  8
0
  6
Continuous
 62
     7
370
    15
100
AcDbLine
 10
287.5608721194
 20
403.5647060175
 30
0.0
 11
287.5608721194
 21
400.5647073884
 31
0.0
  0
LINE
  5
62
330
1F
100
AcDbEntity
  8
0
  6
Continuous
 62
     7
370
    15
100
AcDbLine
 10
292.5108720926
 20
413.4647096891
 30
0.0
 11
292.5108720926
 21
416.5147091646
 31
0.0
  0
LINE
  5
63
330
1F
100
AcDbEntity
  8
0
  6
Continuous
 62
     7
370
    15
100
AcDbLine
 10
288.6108721984
 20
416.5147091646
 30
0.0
 11
288.6108721984
 21
413.4647096891
 31
0.0
  0
LINE
  5
64
330
1F
100
AcDbEntity
  8
0
  6
Continuous
 62
     7
370
    15
100
AcDbLine
 10
305.5408725892
 20
356.0647066135
 30
0.0
 11
305.5408725892
 21
362.064707597
 31
0.0
  0
LINE
  5
65
330
1F
100
AcDbEntity
  8
0
  6
Continuous
 62
     7
370
    15
100
AcDbLine
 10
275.5808717017
 20
362.064707597
 30
0.0
 11
275.5808717017
 21
356.0647066135
 31
0.0
  0
LINE
  5
66
330
1F
100
AcDbEntity
  8
0
  6
Continuous
 62
     7
370
    15
100
AcDbLine
 10
245.5608703573
 20
253.0647064943
 30
0.0
 11
245.5608703573
 21
241.0647045274
 31
0.0
  0
LINE
  5
67
330
1F
100
AcDbEntity
  8
0
  6
Continuous
 62
     7
370
    15
100
AcDbLine
 10
335.5608739336
 20
241.0647045274
 30
0.0
 11
335.5608739336
 21
253.0647064943
 31
0.0
  0
LINE
  5
68
330
1F
100
AcDbEntity
  8
0
  6
Continuous
 62
     7
370
    15
100
AcDbLine
 10
229.56087146
 20
354.064710011
 30
0.0
 11
217.5608732183
 21
354.064710011
 31
0.0
  0
LINE
  5
69
330
1F
100
AcDbEntity
  8
0
  6
Continuous
 62
     7
370
    15
100
AcDbLine
 10
217.5608732183
 20
264.0647064347
 30
0.0
 11
229.56087146
 21
264.0647064347
 31
0.0
  0
LINE
  5
6A
330
1F
100
AcDbEntity
  8
0
  6
Continuous
 62
     7
370
    15
100
AcDbLine
 10
351.5608728309
 20
264.0647064347
 30
0.0
 11
363.5608710726
 21
264.0647064347
 31
0.0
  0
LINE
  5
6B
330
1F
100
AcDbEntity
  8
0
  6
Continuous
 62
     7
370
    15
100
AcDbLine
 10
363.5608710726
 20
354.064710011
 30
0.0
 11
351.5608728309
 21
354.064710011
 31
0.0
  0
LINE
  5
6C
330
1F
100
AcDbEntity
  8
0
  6
Continuous
 62
     7
370
    15
100
AcDbLine
 10
363.5608710726
 20
282.0647075225
 30
0.0
 11
365.5608751257
 21
284.0647078503
 31
0.0
  0
LINE
  5
6D
330
1F
100
AcDbEntity
  8
0
  6
Continuous
 62
     7
370
    15
100
AcDbLine
 10
365.5608751257
 20
334.0647085954
 30
0.0
 11
363.5608710726
 21
336.0647089232
 31
0.0
  0
LINE
  5
6E
330
1F
100
AcDbEntity
  8
0
  6
Continuous
 62
     7
370
    15
100
AcDbLine
 10
217.5608732183
 20
336.0647089232
 30
0.0
 11
215.5608691652
 21
334.0647085954
 31
0.0
  0
LINE
  5
6F
330
1F
100
AcDbEntity
  8
0
  6
Continuous
 62
     7
370
    15
100
AcDbLine
 10
215.5608691652
 20
284.0647078503
 30
0.0
 11
217.5608732183
 21
282.0647075225
 31
0.0
  0
SPLINE
  5
70
330
1F
100
AcDbEntity
  8
0
  6
Continuous
 62
     7
370
    15
100
AcDbSpline
210
0.0
220
0.0
230
1.0
 70
     8
 71
     3
 72
    11
 73
     7
 74
     0
 42
0.00000001
 43
0.00000001
 40
0.0
 40
0.0
 40
0.0
 40
0.0
 40
0.0062534419147983
 40
0.2392906211257861
 40
0.6106790672529443
 40
1.0
 40
1.0
 40
1.0
 40
1.0
 10
263.5746084530757
 20
313.4783418302017
 30
0.0
 10
263.5286789183588
 20
313.4929083984121
 30
0.0
 10
261.7711656896171
 20
314.0503043416728
 30
0.0
 10
257.2837900415349
 20
315.4755828821214
 30
0.0
 10
249.9885484552869
 20
317.8030538320119
 30
0.0
 10
244.4162585789992
 20
319.5818172826489
 30
0.0
 10
241.5644348044799
 20
320.492164735921
 30
0.0
  0
ARC
  5
71
330
1F
100
AcDbEntity
  8
0
  6
Continuous
 62
     7
370
    15
100
AcDbCircle
 10
290.5608721455
 20
323.0647082229
 30
0.0
 40
23.99999999999969
100
AcDbArc
 50
159.0751675724
 51
194.4603614398
  0
ARC
  5
72
330
1F
100
AcDbEntity
  8
0
  6
Continuous
 62
     7
370
    15
100
AcDbCircle
 10
290.5608721455
 20
323.0647082229
 30
0.0
 40
23.9999999999989
100
AcDbArc
 50
149.4048786152
 51
159.0751675724
  0
SPLINE
  5
73
330
1F
100
AcDbEntity
  8
0
  6
Continuous
 62
     7
370
    15
100
AcDbSpline
210
0.0
220
0.0
230
1.0
 70
     8
 71
     3
 72
    20
 73
    16
 74
     0
 42
0.00000001
 43
0.00000001
 40
0.0
 40
0.0
 40
0.0
 40
0.0
 40
0.0921329454810461
 40
0.223776930918084
 40
0.3405597202604986
 40
0.4424144127362912
 40
0.5293407629678264
 40
0.6013388347031738
 40
0.6584086287746275
 40
0.701373264637682
 40
0.7513983614261593
 40
0.7991295994799649
 40
0.8559994910381626
 40
0.9230957533431424
 40
1.0
 40
1.0
 40
1.0
 40
1.0
 10
240.7238714774059
 20
320.8260680933076
 30
0.0
 10
240.234989407893
 20
320.9968717073241
 30
0.0
 10
239.0475691151274
 20
321.4117277431839
 30
0.0
 10
237.5109373087698
 20
322.5715510316907
 30
0.0
 10
235.8935405001462
 20
323.6686533496074
 30
0.0
 10
234.4908387125951
 20
324.6469925069716
 30
0.0
 10
233.2916656312234
 20
325.476728083336
 30
0.0
 10
232.2997142547901
 20
326.1669353640602
 30
0.0
 10
231.5071175174933
 20
326.7110329113682
 30
0.0
 10
230.8228141259552
 20
327.2012174743886
 30
0.0
 10
230.2975804989493
 20
327.79833554191
 30
0.0
 10
229.8639709589109
 20
328.5507617611538
 30
0.0
 10
229.5657422009717
 20
329.477692347323
 30
0.0
 10
229.5593487028943
 20
330.609132877057
 30
0.0
 10
229.560341337923
 20
331.4132566758906
 30
0.0
 10
229.5608714600013
 20
331.8427033175307
 30
0.0
  0
LINE
  5
74
330
1F
100
AcDbEntity
  8
0
  6
Continuous
 62
     7
370
    15
100
AcDbLine
 10
241.560873427
 20
320.4932096798
 30
0.0
 11
240.7238714774
 21
320.8260680933
 31
0.0
  0
SPLINE
  5
75
330
1F
100
AcDbEntity
  8
0
  6
Continuous
 62
     7
370
    15
100
AcDbSpline
210
0.0
220
0.0
230
1.0
 70
     8
 71
     3
 72
    19
 73
    15
 74
     0
 42
0.00000001
 43
0.00000001
 40
0.0
 40
0.0
 40
0.0
 40
0.0
 40
0.0655920323920778
 40
0.1225399507631556
 40
0.2143652150110168
 40
0.2818581474846568
 40
0.3640508328546232
 40
0.436840862594576
 40
0.5238083191064493
 40
0.623682929716282
 40
0.7070593650877265
 40
0.7976617673259386
 40
0.8948077951525694
 40
1.0
 40
1.0
 40
1.0
 40
1.0
 10
351.5608728309081
 20
331.8371954758244
 30
0.0
 10
351.5397520592923
 20
331.52280265354
 30
0.0
 10
351.5002939388545
 20
330.9354495931448
 30
0.0
 10
351.146490847163
 20
329.9629853622403
 30
0.0
 10
350.5493038007387
 20
329.0954703625619
 30
0.0
 10
349.6425467942689
 20
328.3668241473416
 30
0.0
 10
348.6522068688848
 20
327.9239946949986
 30
0.0
 10
347.4924985129409
 20
327.8169331237078
 30
0.0
 10
346.2551952804311
 20
327.7580830282812
 30
0.0
 10
344.9650395116793
 20
327.6728500794187
 30
0.0
 10
343.6589210562639
 20
327.6166238383742
 30
0.0
 10
342.3627522129773
 20
327.463204051271
 30
0.0
 10
340.9731507381185
 20
327.7302234874768
 30
0.0
 10
340.0439477100135
 20
327.9932183439864
 30
0.0
 10
339.5608708639548
 20
328.1299448956328
 30
0.0
  0
LINE
  5
76
330
1F
100
AcDbEntity
  8
0
  6
Continuous
 62
     7
370
    15
100
AcDbLine
 10
271.6320649167
 20
344.6787740488
 30
0.0
 11
270.5912448843
 21
337.5631045003
 31
0.0
  0
ARC
  5
77
330
1F
100
AcDbEntity
  8
0
  6
Continuous
 62
     7
370
    15
100
AcDbCircle
 10
265.5980964824
 20
337.8247838053
 30
0.0
 40
5.000000000000812
100
AcDbArc
 50
329.4048786152
 51
357.0
  0
ARC
  5
78
330
1F
100
AcDbEntity
  8
0
  6
Continuous
 62
     7
370
    15
100
AcDbCircle
 10
315.6549341317
 20
338.2616505194
 30
0.0
 40
5.000000000000762
100
AcDbArc
 50
184.000062514
 51
191.069646329
  0
LINE
  5
79
330
1F
100
AcDbEntity
  8
0
  6
Continuous
 62
     7
370
    15
100
AcDbLine
 10
310.6671151151
 20
337.9128626932
 30
0.0
 11
309.4229445239
 21
345.4924743075
 31
0.0
  0
SPLINE
  5
7A
330
1F
100
AcDbEntity
  8
0
  6
Continuous
 62
     7
370
    15
100
AcDbSpline
210
0.0
220
0.0
230
1.0
 70
     8
 71
     3
 72
    19
 73
    15
 74
     0
 42
0.00000001
 43
0.00000001
 40
0.0
 40
0.0
 40
0.0
 40
0.0
 40
0.0580478299652484
 40
0.1488466891212319
 40
0.2497111884731102
 40
0.3544891117862639
 40
0.4609331269627739
 40
0.5720553873449268
 40
0.6724936177589301
 40
0.7644392938620369
 40
0.8489559550609377
 40
0.9262429792804537
 40
0.9959724462098658
 40
0.9999999999999999
 40
0.9999999999999999
 40
0.9999999999999999
 40
0.9999999999999999
 10
267.3035402228043
 20
317.0687654439884
 30
0.0
 10
267.3344019398302
 20
316.9512467813237
 30
0.0
 10
267.413537790432
 20
316.6499045285975
 30
0.0
 10
267.4090643583703
 20
316.122449064311
 30
0.0
 10
267.3014127772002
 20
315.5103681627248
 30
0.0
 10
267.0463759264366
 20
314.9043547617087
 30
0.0
 10
266.6540507195349
 20
314.3513085419785
 30
0.0
 10
266.1528823824221
 20
313.9067076033832
 30
0.0
 10
265.5942054110736
 20
313.5981281632413
 30
0.0
 10
265.0393825295611
 20
313.4248833254275
 30
0.0
 10
264.5101898891608
 20
313.3600557829364
 30
0.0
 10
264.0272033565021
 20
313.3897079716833
 30
0.0
 10
263.7132204010204
 20
313.441346427216
 30
0.0
 10
263.5682652803758
 20
313.4932630188874
 30
0.0
 10
263.5603499044583
 20
313.496097960748
 30
0.0
  0
SPLINE
  5
7B
330
1F
100
AcDbEntity
  8
0
  6
Continuous
 62
     7
370
    15
100
AcDbSpline
210
0.0
220
0.0
230
1.0
 70
     8
 71
     3
 72
    24
 73
    20
 74
     0
 42
0.00000001
 43
0.00000001
 40
0.0
 40
0.0
 40
0.0
 40
0.0
 40
0.0980973181882883
 40
0.1908051836768351
 40
0.2718728789866002
 40
0.3413075867453416
 40
0.3991148946271112
 40
0.4452993581196216
 40
0.4878842572861385
 40
0.550473516223401
 40
0.6272584759027281
 40
0.7182343007880657
 40
0.7560081369780067
 40
0.7957816087305197
 40
0.837800666842427
 40
0.8816965399510714
 40
0.9270723386881208
 40
0.9738704321004793
 40
1.0
 40
1.0
 40
1.0
 40
1.0
 10
339.5660713692114
 20
328.1282908667403
 30
0.0
 10
338.6235001629013
 20
328.4282012900285
 30
0.0
 10
336.7901424782059
 20
329.0115451006336
 30
0.0
 10
334.1778351226029
 20
329.8427095256027
 30
0.0
 10
331.8409323340127
 20
330.5862412211137
 30
0.0
 10
329.8393732800091
 20
331.2230742674731
 30
0.0
 10
328.1729918982585
 20
331.7532629327235
 30
0.0
 10
326.76460027834
 20
332.2013722869877
 30
0.0
 10
325.31026127877
 20
332.6641018482446
 30
0.0
 10
323.5618975035193
 20
333.2203888722747
 30
0.0
 10
321.3485692894891
 20
333.9246243833505
 30
0.0
 10
319.3736888580636
 20
334.5530174015398
 30
0.0
 10
317.7544320334474
 20
335.068248626715
 30
0.0
 10
316.6055953617181
 20
335.4338600640907
 30
0.0
 10
315.3978385328476
 20
335.8178873430583
 30
0.0
 10
314.13541483165
 20
336.216401611524
 30
0.0
 10
312.8262280351246
 20
336.6268537429719
 30
0.0
 10
311.6930615306669
 20
336.9998050363661
 30
0.0
 10
310.9892702853172
 20
337.2129591443048
 30
0.0
 10
310.7371058692144
 20
337.2893310536223
 30
0.0
  0
LINE
  5
7C
330
1F
100
AcDbEntity
  8
0
  6
Continuous
 62
     7
370
    15
100
AcDbLine
 10
309.392115884
 20
345.467276444
 30
0.0
 11
309.5608715345
 21
345.5647076864
 31
0.0
  0
LINE
  5
7D
330
1F
100
AcDbEntity
  8
0
  6
Continuous
 62
     7
370
    15
100
AcDbLine
 10
309.5608715345
 20
345.5647076864
 30
0.0
 11
309.5608715345
 21
356.0647066135
 31
0.0
  0
ARC
  5
7E
330
1F
100
AcDbEntity
  8
0
  6
Continuous
 62
     7
370
    15
100
AcDbCircle
 10
269.6527882926
 20
344.9655501201
 30
0.0
 40
2.000001822993007
100
AcDbArc
 50
351.7225241415
 51
17.1563167069
  0
LINE
  5
7F
330
1F
100
AcDbEntity
  8
0
  6
Continuous
 62
     7
370
    15
100
AcDbLine
 10
271.5608727564
 20
356.0647066135
 30
0.0
 11
271.5608727564
 21
345.5647076864
 31
0.0
  0
LINE
  5
80
330
1F
100
AcDbEntity
  8
0
  6
Continuous
 62
     7
370
    15
100
AcDbLine
 10
294.0608722535
 20
400.5647073884
 30
0.0
 11
287.0608720374
 21
400.5647073884
 31
0.0
  0
LINE
  5
81
330
1F
100
AcDbEntity
  8
0
  6
Continuous
 62
     7
370
    15
100
AcDbLine
 10
292.5108720926
 20
420.0647096534
 30
0.0
 11
288.6108721984
 21
420.0647096534
 31
0.0
  0
LINE
  5
82
330
1F
100
AcDbEntity
  8
0
  6
Continuous
 62
     7
370
    15
100
AcDbLine
 10
294.0608722535
 20
418.5147057672
 30
0.0
 11
287.0608720374
 21
418.5147057672
 31
0.0
  0
LINE
  5
83
330
1F
100
AcDbEntity
  8
0
  6
Continuous
 62
     7
370
    15
100
AcDbLine
 10
294.0608722535
 20
416.5147091646
 30
0.0
 11
287.0608720374
 21
416.5147091646
 31
0.0
  0
LINE
  5
84
330
1F
100
AcDbEntity
  8
0
  6
Continuous
 62
     7
370
    15
100
AcDbLine
 10
294.0608722535
 20
413.4647096891
 30
0.0
 11
287.0608720374
 21
413.4647096891
 31
0.0
  0
LINE
  5
85
330
1F
100
AcDbEntity
  8
0
  6
Continuous
 62
     7
370
    15
100
AcDbLine
 10
294.0608722535
 20
403.5647060175
 30
0.0
 11
287.0608720374
 21
403.5647060175
 31
0.0
  0
LINE
  5
86
330
1F
100
AcDbEntity
  8
0
  6
Continuous
 62
     7
370
    15
100
AcDbLine
 10
302.5608722498
 20
369.0647068818
 30
0.0
 11
278.5608720411
 21
369.0647068818
 31
0.0
  0
LINE
  5
87
330
1F
100
AcDbEntity
  8
0
  6
Continuous
 62
     7
370
    15
100
AcDbLine
 10
302.5608722498
 20
369.0647068818
 30
0.0
 11
302.5608722498
 21
362.064707597
 31
0.0
  0
LINE
  5
88
330
1F
100
AcDbEntity
  8
0
  6
Continuous
 62
     7
370
    15
100
AcDbLine
 10
305.5408725892
 20
362.064707597
 30
0.0
 11
302.5608722498
 21
362.064707597
 31
0.0
  0
LINE
  5
89
330
1F
100
AcDbEntity
  8
0
  6
Continuous
 62
     7
370
    15
100
AcDbLine
 10
275.5808717017
 20
362.064707597
 30
0.0
 11
278.5608720411
 21
362.064707597
 31
0.0
  0
LINE
  5
8A
330
1F
100
AcDbEntity
  8
0
  6
Continuous
 62
     7
370
    15
100
AcDbLine
 10
278.5608720411
 20
362.064707597
 30
0.0
 11
278.5608720411
 21
369.0647068818
 31
0.0
  0
LINE
  5
8B
330
1F
100
AcDbEntity
  8
0
  6
Continuous
 62
     7
370
    15
100
AcDbLine
 10
290.5608721455
 20
239.0647079249
 30
0.0
 11
308.9304127176
 21
239.0647079249
 31
0.0
  0
LINE
  5
8C
330
1F
100
AcDbEntity
  8
0
  6
Continuous
 62
     7
370
    15
100
AcDbLine
 10
272.1913315733
 20
239.0647079249
 30
0.0
 11
290.5608721455
 21
239.0647079249
 31
0.0
  0
LINE
  5
8D
330
1F
100
AcDbEntity
  8
0
  6
Continuous
 62
     7
370
    15
100
AcDbLine
 10
290.5608721455
 20
253.0647064943
 30
0.0
 11
335.5608739336
 21
253.0647064943
 31
0.0
  0
LINE
  5
8E
330
1F
100
AcDbEntity
  8
0
  6
Continuous
 62
     7
370
    15
100
AcDbLine
 10
245.5608703573
 20
253.0647064943
 30
0.0
 11
290.5608721455
 21
253.0647064943
 31
0.0
  0
LINE
  5
8F
330
1F
100
AcDbEntity
  8
0
  6
Continuous
 62
     7
370
    15
100
AcDbLine
 10
290.5608721455
 20
241.0647045274
 30
0.0
 11
335.5608739336
 21
241.0647045274
 31
0.0
  0
LINE
  5
90
330
1F
100
AcDbEntity
  8
0
  6
Continuous
 62
     7
370
    15
100
AcDbLine
 10
245.5608703573
 20
241.0647045274
 30
0.0
 11
290.5608721455
 21
241.0647045274
 31
0.0
  0
LINE
  5
91
330
1F
100
AcDbEntity
  8
0
  6
Continuous
 62
     7
370
    15
100
AcDbLine
 10
217.5608732183
 20
354.064710011
 30
0.0
 11
217.5608732183
 21
264.0647064347
 31
0.0
  0
LINE
  5
92
330
1F
100
AcDbEntity
  8
0
  6
Continuous
 62
     7
370
    15
100
AcDbLine
 10
229.56087146
 20
354.064710011
 30
0.0
 11
229.56087146
 21
264.0647064347
 31
0.0
  0
LINE
  5
93
330
1F
100
AcDbEntity
  8
0
  6
Continuous
 62
     7
370
    15
100
AcDbLine
 10
351.5608728309
 20
354.064710011
 30
0.0
 11
351.5608728309
 21
264.0647064347
 31
0.0
  0
LINE
  5
94
330
1F
100
AcDbEntity
  8
0
  6
Continuous
 62
     7
370
    15
100
AcDbLine
 10
363.5608710726
 20
354.064710011
 30
0.0
 11
363.5608710726
 21
264.0647064347
 31
0.0
  0
LINE
  5
95
330
1F
100
AcDbEntity
  8
0
  6
Continuous
 62
     7
370
    15
100
AcDbLine
 10
299.8903951053
 20
345.5647076864
 30
0.0
 11
299.8903951053
 21
356.0647066135
 31
0.0
  0
LINE
  5
96
330
1F
100
AcDbEntity
  8
0
  6
Continuous
 62
     7
370
    15
100
AcDbLine
 10
299.8903951053
 20
345.5647076864
 30
0.0
 11
281.2313491856
 21
345.5647076864
 31
0.0
  0
LINE
  5
97
330
1F
100
AcDbEntity
  8
0
  6
Continuous
 62
     7
370
    15
100
AcDbLine
 10
281.2313491856
 20
345.5647076864
 30
0.0
 11
281.2313491856
 21
356.0647066135
 31
0.0
  0
LINE
  5
98
330
1F
100
AcDbEntity
  8
0
  6
Continuous
 62
     7
370
    15
100
AcDbLine
 10
281.2313491856
 20
356.0647066135
 30
0.0
 11
299.8903951053
 21
356.0647066135
 31
0.0
  0
LINE
  5
99
330
1F
100
AcDbEntity
  8
0
  6
Continuous
 62
     7
370
    15
100
AcDbLine
 10
308.2869656761
 20
345.5647076864
 30
0.0
 11
308.2869656761
 21
356.0647066135
 31
0.0
  0
LINE
  5
9A
330
1F
100
AcDbEntity
  8
0
  6
Continuous
 62
     7
370
    15
100
AcDbLine
 10
308.2869656761
 20
345.5647076864
 30
0.0
 11
299.8903951053
 21
345.5647076864
 31
0.0
  0
LINE
  5
9B
330
1F
100
AcDbEntity
  8
0
  6
Continuous
 62
     7
370
    15
100
AcDbLine
 10
299.8903951053
 20
356.0647066135
 30
0.0
 11
308.2869656761
 21
356.0647066135
 31
0.0
  0
LINE
  5
9C
330
1F
100
AcDbEntity
  8
0
  6
Continuous
 62
     7
370
    15
100
AcDbLine
 10
281.2313491856
 20
345.5647076864
 30
0.0
 11
275.236666054
 21
345.5647076864
 31
0.0
  0
LINE
  5
9D
330
1F
100
AcDbEntity
  8
0
  6
Continuous
 62
     7
370
    15
100
AcDbLine
 10
275.236666054
 20
345.5647076864
 30
0.0
 11
272.8347786148
 21
345.5647076864
 31
0.0
  0
LINE
  5
9E
330
1F
100
AcDbEntity
  8
0
  6
Continuous
 62
     7
370
    15
100
AcDbLine
 10
272.8347786148
 20
345.5647076864
 30
0.0
 11
272.8347786148
 21
356.0647066135
 31
0.0
  0
LINE
  5
9F
330
1F
100
AcDbEntity
  8
0
  6
Continuous
 62
     7
370
    15
100
AcDbLine
 10
272.8347786148
 20
356.0647066135
 30
0.0
 11
281.2313491856
 21
356.0647066135
 31
0.0
  0
LINE
  5
A0
330
1F
100
AcDbEntity
  8
0
  6
Continuous
 62
     7
370
    15
100
AcDbLine
 10
365.5608751257
 20
334.0647085954
 30
0.0
 11
365.5608751257
 21
284.0647078503
 31
0.0
  0
LINE
  5
A1
330
1F
100
AcDbEntity
  8
0
  6
Continuous
 62
     7
370
    15
100
AcDbLine
 10
215.5608691652
 20
334.0647085954
 30
0.0
 11
215.5608691652
 21
284.0647078503
 31
0.0
  0
ARC
  5
A2
330
1F
100
AcDbEntity
  8
0
  6
Continuous
 62
     7
370
    15
100
AcDbCircle
 10
290.5608721455
 20
295.0647082229
 30
0.0
 40
23.78155020551686
100
AcDbArc
 50
341.3150949184
 51
15.0499149395
  0
SPLINE
  5
A3
330
1F
100
AcDbEntity
  8
0
  6
Continuous
 62
     7
370
    15
100
AcDbSpline
210
0.0
220
0.0
230
1.0
 70
     8
 71
     3
 72
     8
 73
     4
 74
     0
 42
0.00000001
 43
0.00000001
 40
0.0
 40
0.0
 40
0.0
 40
0.0
 40
1.0
 40
1.0
 40
1.0
 40
1.0
 10
317.2945792238229
 20
304.8605681563004
 30
0.0
 10
324.7176141191107
 20
302.5511467596593
 30
0.0
 10
332.1410597130052
 20
300.2432503323076
 30
0.0
 10
339.5607871833126
 20
297.9232081666286
 30
0.0
  0
SPLINE
  5
A4
330
1F
100
AcDbEntity
  8
0
  6
Continuous
 62
     7
370
    15
100
AcDbSpline
210
0.0
220
0.0
230
1.0
 70
     8
 71
     3
 72
    40
 73
    36
 74
     0
 42
0.00000001
 43
0.00000001
 40
0.0
 40
0.0
 40
0.0
 40
0.0
 40
0.0312500000000009
 40
0.0312500000000009
 40
0.0625000000000018
 40
0.0625000000000018
 40
0.1250000000000028
 40
0.1250000000000028
 40
0.1875000000000039
 40
0.1875000000000039
 40
0.250000000000005
 40
0.250000000000005
 40
0.3125000000000061
 40
0.3125000000000061
 40
0.3750000000000071
 40
0.3750000000000071
 40
0.4062500000000075
 40
0.4062500000000075
 40
0.437500000000008
 40
0.437500000000008
 40
0.5000000000000074
 40
0.5000000000000074
 40
0.7500000000000038
 40
0.7500000000000038
 40
0.8125000000000029
 40
0.8125000000000029
 40
0.875000000000002
 40
0.875000000000002
 40
0.9375000000000011
 40
0.9375000000000011
 40
0.9687500000000006
 40
0.9687500000000006
 40
0.9843750000000002
 40
0.9843750000000002
 40
1.0
 40
1.0
 40
1.0
 40
1.0
 10
229.5608721454548
 20
286.5572988194173
 30
0.0
 10
229.5608732588918
 20
286.7054254935675
 30
0.0
 10
229.5693635655104
 20
286.8563691013678
 30
0.0
 10
229.6029602274469
 20
287.1511835386341
 30
0.0
 10
229.6280641403141
 20
287.2971843132149
 30
0.0
 10
229.7284478103891
 20
287.7309522002233
 30
0.0
 10
229.8303548333181
 20
288.0168903544253
 30
0.0
 10
230.0925909272517
 20
288.5496298052603
 30
0.0
 10
230.2533067596669
 20
288.8002334737244
 30
0.0
 10
230.6331382419361
 20
289.2665075042975
 30
0.0
 10
230.8457803847611
 20
289.4744466456112
 30
0.0
 10
231.3147138454563
 20
289.8418595323338
 30
0.0
 10
231.5730939071095
 20
290.0014774753262
 30
0.0
 10
232.1102932220449
 20
290.2560868597273
 30
0.0
 10
232.3929286728922
 20
290.3537367581671
 30
0.0
 10
232.8330195590173
 20
290.4524005073417
 30
0.0
 10
232.9804223093313
 20
290.476879243203
 30
0.0
 10
233.2765853026662
 20
290.5096622553017
 30
0.0
 10
233.4254764877843
 20
290.5164345264186
 30
0.0
 10
233.8715553151977
 20
290.5438840784
 30
0.0
 10
234.1689399779236
 20
290.5621970354614
 30
0.0
 10
235.6558577056572
 20
290.6538227909593
 30
0.0
 10
236.845380123482
 20
290.727333445443
 30
0.0
 10
238.3322980262072
 20
290.8192825993016
 30
0.0
 10
238.6289133265643
 20
290.8244497135311
 30
0.0
 10
239.2201218032802
 20
290.7996412654271
 30
0.0
 10
239.5148023596396
 20
290.7712297685987
 30
0.0
 10
240.1023060536226
 20
290.6822666122396
 30
0.0
 10
240.3951293891742
 20
290.6217181421111
 30
0.0
 10
240.8329156193979
 20
290.5058748262259
 30
0.0
 10
240.9785652691638
 20
290.4625001189006
 30
0.0
 10
241.1969621628694
 20
290.3962143022301
 30
0.0
 10
241.2697435726579
 20
290.373829082339
 30
0.0
 10
241.4153030494668
 20
290.3290282895161
 30
0.0
 10
241.4898214728978
 20
290.3060833667662
 30
0.0
 10
241.5608721454548
 20
290.2844589218594
 30
0.0
  0
SPLINE
  5
A5
330
1F
100
AcDbEntity
  8
0
  6
Continuous
 62
     7
370
    15
100
AcDbSpline
210
0.0
220
0.0
230
1.0
 70
     8
 71
     3
 72
    19
 73
    15
 74
     0
 42
0.00000001
 43
0.00000001
 40
0.0
 40
0.0
 40
0.0
 40
0.0
 40
0.0312500000000028
 40
0.0312500000000028
 40
0.0625000000000056
 40
0.1250000000000087
 40
0.1250000000000087
 40
0.250000000000009
 40
0.250000000000009
 40
0.500000000000006
 40
0.500000000000006
 40
0.750000000000003
 40
0.750000000000003
 40
1.0
 40
1.0
 40
1.0
 40
1.0
 10
349.8368317680843
 20
291.4847324477001
 30
0.0
 10
349.8698552021672
 20
291.4619246929049
 30
0.0
 10
349.9025668956535
 20
291.4386328641602
 30
0.0
 10
349.9671847568181
 20
291.3911297756295
 30
0.0
 10
350.062994585868
 20
291.3184722538426
 30
0.0
 10
350.1554567825763
 20
291.2416103551763
 30
0.0
 10
350.3358859709736
 20
291.0822415667398
 30
0.0
 10
350.449156844261
 20
290.9693342807201
 30
0.0
 10
350.7657391558004
 20
290.6140410561468
 30
0.0
 10
350.9478569831332
 20
290.3534257549226
 30
0.0
 10
351.2487782360622
 20
289.7873387552498
 30
0.0
 10
351.3624464163461
 20
289.4919800423256
 30
0.0
 10
351.5177128564051
 20
288.8771864655001
 30
0.0
 10
351.5584679605948
 20
288.5556034793827
 30
0.0
 10
351.5591213182306
 20
288.2356403914849
 30
0.0
  0
SPLINE
  5
A6
330
1F
100
AcDbEntity
  8
0
  6
Continuous
 62
     7
370
    15
100
AcDbSpline
210
0.0
220
0.0
230
1.0
 70
     8
 71
     3
 72
    24
 73
    20
 74
     0
 42
0.00000001
 43
0.00000001
 40
0.0
 40
0.0
 40
0.0
 40
0.0
 40
0.0156249999999989
 40
0.0156249999999989
 40
0.0312499999999978
 40
0.0624999999999976
 40
0.0624999999999976
 40
0.1249999999999972
 40
0.1249999999999972
 40
0.1874999999999968
 40
0.1874999999999968
 40
0.2499999999999963
 40
0.2499999999999963
 40
0.499999999999997
 40
0.7499999999999977
 40
0.7499999999999977
 40
0.8749999999999989
 40
0.8749999999999989
 40
1.0
 40
1.0
 40
1.0
 40
1.0
 10
340.8431769720467
 20
297.5009414794957
 30
0.0
 10
340.8966472752754
 20
297.483560958263
 30
0.0
 10
340.9516811084077
 20
297.4643714671298
 30
0.0
 10
341.0583504765746
 20
297.4245912709058
 30
0.0
 10
341.2165739048692
 20
297.3618068580246
 30
0.0
 10
341.3699477938955
 20
297.2905305063355
 30
0.0
 10
341.6714674172724
 20
297.1387989221182
 30
0.0
 10
341.8655234718518
 20
297.0254283768045
 30
0.0
 10
342.2458530611717
 20
296.7849196324264
 30
0.0
 10
342.4321143971949
 20
296.6577612072927
 30
0.0
 10
342.8026590149726
 20
296.3998152176815
 30
0.0
 10
342.987426479923
 20
296.2698695088687
 30
0.0
 10
343.9125895056911
 20
295.6226183500456
 30
0.0
 10
345.3930535803246
 20
294.5873034411336
 30
0.0
 10
346.8738755454092
 20
293.5524935132663
 30
0.0
 10
347.9846104495775
 20
292.7765534311524
 30
0.0
 10
348.3548515318056
 20
292.5179009170953
 30
0.0
 10
349.09567465851
 20
292.0010792817288
 30
0.0
 10
349.4678209473008
 20
291.7417292520407
 30
0.0
 10
349.8368317680843
 20
291.4847324477001
 30
0.0
  0
SPLINE
  5
A7
330
1F
100
AcDbEntity
  8
0
  6
Continuous
 62
     7
370
    15
100
AcDbSpline
210
0.0
220
0.0
230
1.0
 70
     8
 71
     3
 72
    11
 73
     7
 74
     0
 42
0.00000001
 43
0.00000001
 40
0.0
 40
0.0
 40
0.0
 40
0.0
 40
0.001350186056237
 40
0.001350186056237
 40
0.001350186056237
 40
0.001350246056237
 40
0.001350246056237
 40
0.001350246056237
 40
0.001350246056237
 10
339.5608721454547
 20
297.9234784120155
 30
0.0
 10
339.9882463545076
 20
297.7825201588392
 30
0.0
 10
340.4156634027951
 20
297.6416835993264
 30
0.0
 10
340.8431199856892
 20
297.5009602400239
 30
0.0
 10
340.8431389811416
 20
297.5009539865143
 30
0.0
 10
340.8431579765942
 20
297.5009477330051
 30
0.0
 10
340.8431769720467
 20
297.5009414794957
 30
0.0
  0
SPLINE
  5
A8
330
1F
100
AcDbEntity
  8
0
  6
Continuous
 62
     7
370
    15
100
AcDbSpline
210
0.0
220
0.0
230
1.0
 70
     8
 71
     3
 72
     8
 73
     4
 74
     0
 42
0.00000001
 43
0.00000001
 40
0.0
 40
0.0
 40
0.0
 40
0.0
 40
1.0
 40
1.0
 40
1.0
 40
1.0
 10
312.8300968141974
 20
285.8587319031126
 30
0.0
 10
312.8300968141974
 20
286.4019460816916
 30
0.0
 10
312.9164253304876
 20
286.9310204496165
 30
0.0
 10
313.0890089053627
 20
287.4459691996233
 30
0.0
  0
LINE
  5
A9
330
1F
100
AcDbEntity
  8
0
  6
Continuous
 62
     7
370
    15
100
AcDbLine
 10
268.2916473974
 20
280.17568173
 30
0.0
 11
268.2916473974
 21
267.586674114
 31
0.0
  0
LINE
  5
AA
330
1F
100
AcDbEntity
  8
0
  6
Continuous
 62
     7
370
    15
100
AcDbLine
 10
312.8300968935
 20
267.586674114
 30
0.0
 11
312.8300968935
 21
285.8587312896
 31
0.0
  0
SPLINE
  5
AB
330
1F
100
AcDbEntity
  8
0
  6
Continuous
 62
     7
370
    15
100
AcDbSpline
210
0.0
220
0.0
230
1.0
 70
     8
 71
     3
 72
     8
 73
     4
 74
     0
 42
0.00000001
 43
0.00000001
 40
0.0
 40
0.0
 40
0.0
 40
0.0
 40
1.0
 40
1.0
 40
1.0
 40
1.0
 10
268.2916474767119
 20
267.5866740159669
 30
0.0
 10
268.2916474767121
 20
267.0597799658538
 30
0.0
 10
268.3608792757669
 20
266.542148132703
 30
0.0
 10
268.4991978936766
 20
266.0337597453516
 30
0.0
  0
SPLINE
  5
AC
330
1F
100
AcDbEntity
  8
0
  6
Continuous
 62
     7
370
    15
100
AcDbSpline
210
0.0
220
0.0
230
1.0
 70
     8
 71
     3
 72
     8
 73
     4
 74
     0
 42
0.00000001
 43
0.00000001
 40
0.0
 40
0.0
 40
0.0
 40
0.0
 40
1.0
 40
1.0
 40
1.0
 40
1.0
 10
312.6225463972328
 20
266.0337597453516
 30
0.0
 10
312.7608650151424
 20
266.542148132703
 30
0.0
 10
312.8300968141973
 20
267.0597799658538
 30
0.0
 10
312.8300968141974
 20
267.5866740159669
 30
0.0
  0
LINE
  5
AD
330
1F
100
AcDbEntity
  8
0
  6
Continuous
 62
     7
370
    15
100
AcDbLine
 10
268.4991982211
 20
266.0337607761
 30
0.0
 11
269.0957010169
 21
263.8277071912
 31
0.0
  0
LINE
  5
AE
330
1F
100
AcDbEntity
  8
0
  6
Continuous
 62
     7
370
    15
100
AcDbLine
 10
312.026043274
 20
263.8277071912
 30
0.0
 11
312.6225460698
 21
266.0337607761
 31
0.0
  0
LWPOLYLINE
  5
AF
330
1F
100
AcDbEntity
  8
0
  6
Continuous
 62
     7
370
    15
100
AcDbPolyline
 90
        9
 70
   128
 43
0.0
 10
288.5522717521
 20
337.7198572655
 10
288.5668299538
 20
337.7199839254
 10
288.5813893196
 20
337.7201105852
 10
288.5959498496
 20
337.7202391077
 10
288.6105113109
 20
337.7203657676
 10
288.6250738199
 20
337.7204924275
 10
288.6396374931
 20
337.7206190873
 10
288.654202214
 20
337.7207476099
 10
288.6687679826
 20
337.7208742697
  0
LWPOLYLINE
  5
B0
330
1F
100
AcDbEntity
  8
0
  6
Continuous
 62
     7
370
    15
100
AcDbPolyline
 90
       16
 70
   128
 43
0.0
 10
270.5912448843
 20
337.5631045003
 10
270.6869922955
 20
337.5639389653
 10
270.9733218332
 20
337.5664386351
 10
271.4474972715
 20
337.5705774326
 10
272.1049867948
 20
337.5763143797
 10
272.939507701
 20
337.5835991849
 10
273.9430822809
 20
337.5923573424
 10
275.1061207061
 20
337.6025068958
 10
276.4175085728
 20
337.6139528502
 10
277.8647140046
 20
337.626583447
 10
279.4339059298
 20
337.6402776141
 10
281.1100872611
 20
337.6549068291
 10
282.8772397158
 20
337.670329531
 10
284.7184756217
 20
337.6863985707
 10
286.6161981043
 20
337.7029612113
 10
288.5522717521
 20
337.7198572655
  0
LWPOLYLINE
  5
B1
330
1F
100
AcDbEntity
  8
0
  6
Continuous
 62
     7
370
    15
100
AcDbPolyline
 90
       18
 70
   128
 43
0.0
 10
288.6687679826
 20
337.7208742697
 10
290.6326310009
 20
337.7380143304
 10
292.5964606372
 20
337.7551525284
 10
294.5413485547
 20
337.7721268137
 10
296.4485686649
 20
337.7887714107
 10
298.2997566839
 20
337.8049279947
 10
300.07708896
 20
337.8204401035
 10
301.7634533723
 20
337.8351568629
 10
303.3426113804
 20
337.8489385743
 10
304.7993591432
 20
337.8616529901
 10
306.1196700116
 20
337.873175313
 10
307.2908323635
 20
337.8833956469
 10
308.3015688141
 20
337.8922171344
 10
309.1421470423
 20
337.8995540936
 10
309.8044757177
 20
337.9053338815
 10
310.2821752806
 20
337.9095024813
 10
310.5706468602
 20
337.9120207776
 10
310.6671151151
 20
337.9128626932
  0
ARC
  5
B2
330
1F
100
AcDbEntity
  8
0
  6
Continuous
 62
     7
370
    15
100
AcDbCircle
 10
266.2839941683
 20
280.1713178724
 30
0.0
 40
2.007657971752146
100
AcDbArc
 50
0.1245385544
 51
71.4418177626
  0
SPLINE
  5
B3
330
1F
100
AcDbEntity
  8
0
  6
Continuous
 62
     7
370
    15
100
AcDbSpline
210
0.0
220
0.0
230
1.0
 70
     8
 71
     3
 72
    22
 73
    18
 74
     0
 42
0.00000001
 43
0.00000001
 40
0.0
 40
0.0
 40
0.0
 40
0.0
 40
0.1249999999999999
 40
0.1249999999999999
 40
0.2499999999999998
 40
0.2499999999999998
 40
0.3749999999999998
 40
0.3749999999999998
 40
0.4999999999999997
 40
0.4999999999999997
 40
0.6249999999999996
 40
0.6249999999999996
 40
0.7499999999999996
 40
0.7499999999999996
 40
0.8749999999999998
 40
0.8749999999999998
 40
1.0
 40
1.0
 40
1.0
 40
1.0
 10
241.5610269874794
 20
290.2848491396708
 30
0.0
 10
242.6179606773258
 20
289.9433060669562
 30
0.0
 10
243.674920230318
 20
289.6018053518899
 30
0.0
 10
245.7885208675879
 20
288.9179380395657
 30
0.0
 10
246.845285480483
 20
288.576026514925
 30
0.0
 10
248.9586661412914
 20
287.8916051955211
 30
0.0
 10
250.0152984901499
 20
287.5491144194139
 30
0.0
 10
252.128764132038
 20
286.8647242264973
 30
0.0
 10
253.1847721362103
 20
286.5204023499675
 30
0.0
 10
255.2986824276882
 20
285.8374469756993
 30
0.0
 10
256.3557147788201
 20
285.4962435399347
 30
0.0
 10
258.4686391158291
 20
284.8102612546847
 30
0.0
 10
259.5256100026675
 20
284.4688316093255
 30
0.0
 10
261.63670936482
 20
283.7773244914233
 30
0.0
 10
262.6934341549128
 20
283.4351453316899
 30
0.0
 10
264.8083023771221
 20
282.7552044159216
 30
0.0
 10
265.8654450204742
 20
282.4143439851081
 30
0.0
 10
266.9229659080967
 20
282.0745790755472
 30
0.0
  0
SPLINE
  5
B4
330
1F
100
AcDbEntity
  8
0
  6
Continuous
 62
     7
370
    15
100
AcDbSpline
210
0.0
220
0.0
230
1.0
 70
     8
 71
     3
 72
    28
 73
    24
 74
     0
 42
0.00000001
 43
0.00000001
 40
0.0
 40
0.0
 40
0.0
 40
0.0
 40
0.1250000000000002
 40
0.1250000000000002
 40
0.1875000000000003
 40
0.1875000000000003
 40
0.2500000000000004
 40
0.2500000000000004
 40
0.3750000000000001
 40
0.3750000000000001
 40
0.4375000000000006
 40
0.4375000000000006
 40
0.5000000000000011
 40
0.5000000000000011
 40
0.6250000000000012
 40
0.6250000000000012
 40
0.7500000000000013
 40
0.7500000000000013
 40
0.8125000000000006
 40
0.8125000000000006
 40
0.8749999999999999
 40
0.8749999999999999
 40
1.0
 40
1.0
 40
1.0
 40
1.0
 10
313.5267147457257
 20
301.2398360626092
 30
0.0
 10
313.4620746108661
 20
301.496831342541
 30
0.0
 10
313.4325379686671
 20
301.7569676071612
 30
0.0
 10
313.4394723380818
 20
302.1517938323138
 30
0.0
 10
313.4506456729141
 20
302.285022303239
 30
0.0
 10
313.4900297640459
 20
302.5459207590455
 30
0.0
 10
313.518142396704
 20
302.6742397679711
 30
0.0
 10
313.627339320257
 20
303.0529124266398
 30
0.0
 10
313.735239690777
 20
303.2999129151468
 30
0.0
 10
313.9394477418863
 20
303.6382009934654
 30
0.0
 10
314.0146434164944
 20
303.7462209524837
 30
0.0
 10
314.1794001398922
 20
303.9527004075786
 30
0.0
 10
314.2697010499365
 20
304.0517954623868
 30
0.0
 10
314.5561101424165
 20
304.3272238832744
 30
0.0
 10
314.7678080576022
 20
304.4834215337297
 30
0.0
 10
315.2333707080269
 20
304.7401366805586
 30
0.0
 10
315.4791169995686
 20
304.8358620042983
 30
0.0
 10
315.8623699099256
 20
304.9299477311729
 30
0.0
 10
315.9937464622839
 20
304.9531134361947
 30
0.0
 10
316.2554372532908
 20
304.9814941599703
 30
0.0
 10
316.3861772451108
 20
304.9869432415988
 30
0.0
 10
316.7780964882178
 20
304.9775378901001
 30
0.0
 10
317.0412506526658
 20
304.9363028553141
 30
0.0
 10
317.2945792238229
 20
304.8605681563004
 30
0.0
  0
LINE
  5
B5
330
1F
100
AcDbEntity
  8
0
  6
Continuous
 62
     7
370
    15
100
AcDbLine
 10
309.5608715345
 20
345.5647076864
 30
0.0
 11
308.2869656761
 21
345.5647076864
 31
0.0
  0
LINE
  5
B6
330
1F
100
AcDbEntity
  8
0
  6
Continuous
 62
     7
370
    15
100
AcDbLine
 10
308.2869656761
 20
356.0647066135
 30
0.0
 11
309.5608715345
 21
356.0647066135
 31
0.0
  0
LINE
  5
B7
330
1F
100
AcDbEntity
  8
0
  6
Continuous
 62
     7
370
    15
100
AcDbLine
 10
272.8347786148
 20
345.5647076864
 30
0.0
 11
271.5608727564
 21
345.5647076864
 31
0.0
  0
LINE
  5
B8
330
1F
100
AcDbEntity
  8
0
  6
Continuous
 62
     7
370
    15
100
AcDbLine
 10
271.5608727564
 20
356.0647066135
 30
0.0
 11
272.8347786148
 21
356.0647066135
 31
0.0
  0
SPLINE
  5
B9
330
1F
100
AcDbEntity
  8
0
  6
Continuous
 62
     7
370
    15
100
AcDbSpline
210
0.0
220
0.0
230
1.0
 70
    24
 71
     3
 72
    14
 73
    10
 74
     0
 42
0.00000001
 43
0.00000001
 40
0.0
 40
0.0
 40
0.0
 40
0.0
 40
0.25
 40
0.25
 40
0.5
 40
0.5
 40
0.75
 40
0.75
 40
1.0
 40
1.0
 40
1.0
 40
1.0
 10
240.993160650555
 20
288.3964953879845
 30
0.0
 10
241.060433331914
 20
288.6202153062404
 30
0.0
 10
241.1276892051619
 20
288.843879327969
 30
0.0
 10
241.2540579074266
 20
289.2641271190431
 30
0.0
 10
241.3131391631637
 20
289.4606058892794
 30
0.0
 10
241.4159717165547
 20
289.8025826021725
 30
0.0
 10
241.4596973214466
 20
289.947995101786
 30
0.0
 10
241.5264949395971
 20
290.1701351647419
 30
0.0
 10
241.5495502634392
 20
290.2468072262845
 30
0.0
 10
241.5608721454548
 20
290.2844589218594
 30
0.0
  0
SPLINE
  5
BA
330
1F
100
AcDbEntity
  8
0
  6
Continuous
 62
     7
370
    15
100
AcDbSpline
210
0.0
220
0.0
230
1.0
 70
     8
 71
     3
 72
    33
 73
    29
 74
     0
 42
0.00000001
 43
0.00000001
 40
0.0
 40
0.0
 40
0.0
 40
0.0
 40
0.0624999999999979
 40
0.0624999999999979
 40
0.1249999999999958
 40
0.1249999999999958
 40
0.2499999999999934
 40
0.2499999999999934
 40
0.2812499999999928
 40
0.2812499999999928
 40
0.3124999999999922
 40
0.374999999999993
 40
0.4999999999999947
 40
0.4999999999999947
 40
0.6249999999999963
 40
0.6874999999999971
 40
0.6874999999999971
 40
0.7187499999999964
 40
0.7187499999999964
 40
0.7499999999999959
 40
0.7499999999999959
 40
0.8124999999999969
 40
0.8124999999999969
 40
0.8749999999999979
 40
0.8749999999999979
 40
0.9374999999999989
 40
0.9374999999999989
 40
1.0
 40
1.0
 40
1.0
 40
1.0
 10
240.993160650555
 20
288.3964953879845
 30
0.0
 10
240.7752670204388
 20
288.4620161018452
 30
0.0
 10
240.5579013003758
 20
288.5301544659808
 30
0.0
 10
240.1211897216897
 20
288.6560929003628
 30
0.0
 10
239.9026185908451
 20
288.7076315589821
 30
0.0
 10
239.2462031696838
 20
288.8249831000576
 30
0.0
 10
238.8077027534627
 20
288.855968113632
 30
0.0
 10
238.2584726999432
 20
288.8360695677943
 30
0.0
 10
238.1485572823819
 20
288.8284056679639
 30
0.0
 10
237.9287553835143
 20
288.8146138358555
 30
0.0
 10
237.5990525626461
 20
288.7939275438808
 30
0.0
 10
236.8297462843666
 20
288.7456756524458
 30
0.0
 10
236.1703417566105
 20
288.704362199759
 30
0.0
 10
235.2911368710227
 20
288.6493387148125
 30
0.0
 10
234.6317319670654
 20
288.6081166277411
 30
0.0
 10
233.9723196234409
 20
288.5669762835335
 30
0.0
 10
233.642612538311
 20
288.5464203740667
 30
0.0
 10
233.5326066598092
 20
288.5409432077413
 30
0.0
 10
233.3130412647209
 20
288.5240607554967
 30
0.0
 10
233.2039027768406
 20
288.5070425357234
 30
0.0
 10
232.8785847908588
 20
288.428258945174
 30
0.0
 10
232.6761424546597
 20
288.3421734007923
 30
0.0
 10
232.2996386739787
 20
288.1040192864964
 30
0.0
 10
232.1343599053838
 20
287.9573854262989
 30
0.0
 10
231.8541392559661
 20
287.6105745105782
 30
0.0
 10
231.7457275753486
 20
287.418545673911
 30
0.0
 10
231.5972492014711
 20
286.9976831760844
 30
0.0
 10
231.5608721454548
 20
286.7803510542036
 30
0.0
 10
231.5608721454548
 20
286.5571674019293
 30
0.0
  0
LINE
  5
BB
330
1F
100
AcDbEntity
  8
0
  6
Continuous
 62
     7
370
    15
100
AcDbLine
 10
229.56087146
 20
286.5571673412
 30
0.0
 11
231.5608717878
 21
286.5571673412
 31
0.0
  0
LINE
  5
BC
330
1F
100
AcDbEntity
  8
0
  6
Continuous
 62
     7
370
    15
100
AcDbLine
 10
349.5608725031
 20
286.5627925296
 30
0.0
 11
351.5608728309
 21
286.5627925296
 31
0.0
  0
SPLINE
  5
BD
330
1F
100
AcDbEntity
  8
0
  6
Continuous
 62
     7
370
    15
100
AcDbSpline
210
0.0
220
0.0
230
1.0
 70
     8
 71
     3
 72
    34
 73
    30
 74
     0
 42
0.00000001
 43
0.00000001
 40
0.0
 40
0.0
 40
0.0
 40
0.0
 40
0.0624999999999994
 40
0.0937499999999991
 40
0.0937499999999991
 40
0.1249999999999988
 40
0.1249999999999988
 40
0.1562499999999986
 40
0.1562499999999986
 40
0.1874999999999983
 40
0.1874999999999983
 40
0.2187499999999979
 40
0.2187499999999979
 40
0.2499999999999977
 40
0.2499999999999977
 40
0.4999999999999982
 40
0.4999999999999982
 40
0.7499999999999988
 40
0.7499999999999988
 40
0.8124999999999996
 40
0.8124999999999996
 40
0.8750000000000002
 40
0.8750000000000002
 40
0.9062500000000006
 40
0.9062500000000006
 40
0.9218750000000008
 40
0.9218750000000008
 40
0.9375000000000008
 40
1.0
 40
1.0
 40
1.0
 40
1.0
 10
349.5608721454546
 20
286.5627924239525
 30
0.0
 10
349.5608721454547
 20
286.8782427880848
 30
0.0
 10
349.5605893904217
 20
287.3514149186752
 30
0.0
 10
349.5598874066143
 20
287.8245819850903
 30
0.0
 10
349.5593269889395
 20
288.1400255795215
 30
0.0
 10
349.5643234935864
 20
288.297811118075
 30
0.0
 10
349.5271518135377
 20
288.6128124578996
 30
0.0
 10
349.489339487868
 20
288.7669250162346
 30
0.0
 10
349.3789232295057
 20
289.0608280497102
 30
0.0
 10
349.3048388817176
 20
289.203432278985
 30
0.0
 10
349.1278839974836
 20
289.4634551950431
 30
0.0
 10
349.0248593881715
 20
289.5823133885348
 30
0.0
 10
348.789534658909
 20
289.7965253312772
 30
0.0
 10
348.6577177653402
 20
289.8841167556982
 30
0.0
 10
347.4899647617437
 20
290.698081672945
 30
0.0
 10
346.4531870687018
 20
291.4233387471263
 30
0.0
 10
344.3797160672591
 20
292.8739912463134
 30
0.0
 10
343.3431831929176
 20
293.5996069541863
 30
0.0
 10
342.0478244131829
 20
294.5070655957733
 30
0.0
 10
341.7888977093816
 20
294.6888445842523
 30
0.0
 10
341.2706613869951
 20
295.0516099358953
 30
0.0
 10
341.0111596137655
 20
295.2321975681936
 30
0.0
 10
340.6034534053059
 20
295.4648336726073
 30
0.0
 10
340.4644371427195
 20
295.5359248140282
 30
0.0
 10
340.2454988085788
 20
295.6209784292528
 30
0.0
 10
340.1702250891285
 20
295.6445747046152
 30
0.0
 10
340.0208147198105
 20
295.6941238545111
 30
0.0
 10
339.6473005661988
 20
295.8180211221519
 30
0.0
 10
339.2738461402275
 20
295.9420421765074
 30
0.0
 10
338.9751232882745
 20
296.0413433483832
 30
0.0
  0
LINE
  5
BE
330
1F
100
AcDbEntity
  8
0
  6
Continuous
 62
     7
370
    15
100
AcDbLine
 10
231.5608717878
 20
286.5571673412
 30
0.0
 11
231.5608717878
 21
268.893137147
 31
0.0
  0
SPLINE
  5
BF
330
1F
100
AcDbEntity
  8
0
  6
Continuous
 62
     7
370
    15
100
AcDbSpline
210
0.0
220
0.0
230
1.0
 70
     8
 71
     3
 72
    18
 73
    14
 74
     0
 42
0.00000001
 43
0.00000001
 40
0.0
 40
0.0
 40
0.0
 40
0.0
 40
0.1249999999999988
 40
0.1249999999999988
 40
0.2499999999999976
 40
0.2499999999999976
 40
0.499999999999998
 40
0.499999999999998
 40
0.7499999999999984
 40
0.7499999999999984
 40
0.8749999999999992
 40
0.8749999999999992
 40
1.0
 40
1.0
 40
1.0
 40
1.0
 10
231.5608721454548
 20
268.8931353476202
 30
0.0
 10
231.3902588808422
 20
268.8328144494363
 30
0.0
 10
231.2297879252021
 20
268.7589031427118
 30
0.0
 10
230.9262949676565
 20
268.5863404159797
 30
0.0
 10
230.78385679807
 20
268.4874429944254
 30
0.0
 10
230.4000388995623
 20
268.1719597398844
 30
0.0
 10
230.1914728679158
 20
267.9289361358315
 30
0.0
 10
229.87013822199
 20
267.4246161612907
 30
0.0
 10
229.7524060493706
 20
267.1562571731708
 30
0.0
 10
229.6370157118548
 20
266.7508596541464
 30
0.0
 10
229.608532409676
 20
266.614958377489
 30
0.0
 10
229.5704567748913
 20
266.3412964720997
 30
0.0
 10
229.5608721454548
 20
266.202478843816
 30
0.0
 10
229.5608721454548
 20
266.0647082228738
 30
0.0
  0
SPLINE
  5
C0
330
1F
100
AcDbEntity
  8
0
  6
Continuous
 62
     7
370
    15
100
AcDbSpline
210
0.0
220
0.0
230
1.0
 70
     8
 71
     3
 72
    18
 73
    14
 74
     0
 42
0.00000001
 43
0.00000001
 40
0.0
 40
0.0
 40
0.0
 40
0.0
 40
0.1249999999999998
 40
0.1249999999999998
 40
0.2499999999999996
 40
0.2499999999999996
 40
0.4999999999999985
 40
0.4999999999999985
 40
0.7499999999999974
 40
0.7499999999999974
 40
0.8749999999999988
 40
0.8749999999999988
 40
1.0
 40
1.0
 40
1.0
 40
1.0
 10
250.3892992702009
 20
255.0647082228738
 30
0.0
 10
250.328978372017
 20
254.8940949582614
 30
0.0
 10
250.2550670652924
 20
254.7336240026213
 30
0.0
 10
250.0825043385603
 20
254.4301310450759
 30
0.0
 10
249.9836069170061
 20
254.2876928754895
 30
0.0
 10
249.668123662465
 20
253.903874976982
 30
0.0
 10
249.4251000584121
 20
253.6953089453355
 30
0.0
 10
248.9207800838713
 20
253.3739742994098
 30
0.0
 10
248.6524210957514
 20
253.2562421267904
 30
0.0
 10
248.247023576726
 20
253.1408517892745
 30
0.0
 10
248.1111223000683
 20
253.1123684870957
 30
0.0
 10
247.8374603946767
 20
253.0742928523109
 30
0.0
 10
247.6986427641658
 20
253.0647082228739
 30
0.0
 10
247.5608721454548
 20
253.0647082228739
 30
0.0
  0
LINE
  5
C1
330
1F
100
AcDbEntity
  8
0
  6
Continuous
 62
     7
370
    15
100
AcDbLine
 10
351.5608728309
 20
270.9636870225
 30
0.0
 11
349.5608725031
 21
270.9636870225
 31
0.0
  0
LINE
  5
C2
330
1F
100
AcDbEntity
  8
0
  6
Continuous
 62
     7
370
    15
100
AcDbLine
 10
328.6618933459
 20
253.0647064943
 30
0.0
 11
328.6618933459
 21
255.0647068222
 31
0.0
  0
SPLINE
  5
C3
330
1F
100
AcDbEntity
  8
0
  6
Continuous
 62
     7
370
    15
100
AcDbSpline
210
0.0
220
0.0
230
1.0
 70
     8
 71
     3
 72
    16
 73
    12
 74
     0
 42
0.00000001
 43
0.00000001
 40
0.0
 40
0.0
 40
0.0
 40
0.0
 40
0.25
 40
0.25
 40
0.5
 40
0.5
 40
0.75
 40
0.75
 40
0.875
 40
0.875
 40
1.0
 40
1.0
 40
1.0
 40
1.0
 10
316.7033144838869
 20
302.9560873843436
 30
0.0
 10
316.5322317353917
 20
303.0092017020536
 30
0.0
 10
316.3491479023873
 20
303.016973509924
 30
0.0
 10
316.0027152534045
 20
302.9394920665978
 30
0.0
 10
315.8406765486744
 20
302.854194002184
 30
0.0
 10
315.5823681177043
 20
302.6096943635848
 30
0.0
 10
315.4877329042753
 20
302.4508614217948
 30
0.0
 10
315.4176291296259
 20
302.1953570585889
 30
0.0
 10
315.4056558273696
 20
302.1060348933857
 30
0.0
 10
315.4056891911463
 20
301.9285603265521
 30
0.0
 10
315.4172753796711
 20
301.8409344796248
 30
0.0
 10
315.440534962415
 20
301.7544300492539
 30
0.0
  0
LWPOLYLINE
  5
C4
330
1F
100
AcDbEntity
  8
0
  6
Continuous
 62
     7
370
    15
100
AcDbPolyline
 90
        9
 70
   128
 43
0.0
 10
315.4405344655
 20
301.7544299748
 10
315.0957625736
 20
301.6617261258
 10
314.7620641072
 20
301.5720006463
 10
314.4501604517
 20
301.4881350484
 10
314.170072638
 20
301.4128241141
 10
313.9307953794
 20
301.348486488
 10
313.7400176753
 20
301.2971897062
 10
313.6038657655
 20
301.2605808128
 10
313.5267150034
 20
301.2398356025
  0
LWPOLYLINE
  5
C5
330
1F
100
AcDbEntity
  8
0
  6
Continuous
 62
     7
370
    15
100
AcDbPolyline
 90
        9
 70
   128
 43
0.0
 10
316.7033147444
 20
302.9560875532
 10
316.8134361883
 20
303.3107938629
 10
316.9197280337
 20
303.6531601485
 10
317.0184892048
 20
303.971276657
 10
317.1062887092
 20
304.254076482
 10
317.1800662209
 20
304.4917211321
 10
317.2372606029
 20
304.6759437223
 10
317.2758788248
 20
304.8003353563
 10
317.294579782
 20
304.8605681781
  0
LINE
  5
C6
330
1F
100
AcDbEntity
  8
0
  6
Continuous
 62
     7
370
    15
100
AcDbLine
 10
349.5608725031
 20
270.9636870225
 30
0.0
 11
349.5608725031
 21
286.5627925296
 31
0.0
  0
SPLINE
  5
C7
330
1F
100
AcDbEntity
  8
0
  6
Continuous
 62
     7
370
    15
100
AcDbSpline
210
0.0
220
0.0
230
1.0
 70
     8
 71
     3
 72
     8
 73
     4
 74
     0
 42
0.00000001
 43
0.00000001
 40
0.0
 40
0.0
 40
0.0
 40
0.0
 40
1.0
 40
1.0
 40
1.0
 40
1.0
 10
314.966353635355
 20
286.811074281019
 30
0.0
 10
314.8619025139073
 20
286.5022188206182
 30
0.0
 10
314.809583451419
 20
286.1847816225338
 30
0.0
 10
314.809583451419
 20
285.8587319031126
 30
0.0
  0
LWPOLYLINE
  5
C8
330
1F
100
AcDbEntity
  8
0
  6
Continuous
 62
     7
370
    15
100
AcDbPolyline
 90
        9
 70
   128
 43
0.0
 10
314.9663534393
 20
286.8110738148
 10
314.6281510969
 20
286.9254495401
 10
314.3008135636
 20
287.0361521293
 10
313.9948554714
 20
287.13962393
 10
313.720104136
 20
287.2325401206
 10
313.4853884955
 20
287.3119186063
 10
313.2982466747
 20
287.3752075632
 10
313.1646894296
 20
287.4203748454
 10
313.0890082945
 20
287.4459694524
  0
SPLINE
  5
C9
330
1F
100
AcDbEntity
  8
0
  6
Continuous
 62
     7
370
    15
100
AcDbSpline
210
0.0
220
0.0
230
1.0
 70
     8
 71
     3
 72
     8
 73
     4
 74
     0
 42
0.00000001
 43
0.00000001
 40
0.0
 40
0.0
 40
0.0
 40
0.0
 40
1.0
 40
1.0
 40
1.0
 40
1.0
 10
314.809583451419
 20
267.5866740159665
 30
0.0
 10
314.8095834514189
 20
266.8842752793802
 30
0.0
 10
314.717721727189
 20
266.1940971286375
 30
0.0
 10
314.5341328969964
 20
265.5161216551471
 30
0.0
  0
SPLINE
  5
CA
330
1F
100
AcDbEntity
  8
0
  6
Continuous
 62
     7
370
    15
100
AcDbSpline
210
0.0
220
0.0
230
1.0
 70
     8
 71
     3
 72
     8
 73
     4
 74
     0
 42
0.00000001
 43
0.00000001
 40
0.0
 40
0.0
 40
0.0
 40
0.0
 40
1.0
 40
1.0
 40
1.0
 40
1.0
 10
266.5876113939132
 20
265.5161216551462
 30
0.0
 10
266.4040225637205
 20
266.1940971286369
 30
0.0
 10
266.3121608394905
 20
266.88427527938
 30
0.0
 10
266.3121608394904
 20
267.5866740159669
 30
0.0
  0
LWPOLYLINE
  5
CB
330
1F
100
AcDbEntity
  8
0
  6
Continuous
 62
     7
370
    15
100
AcDbPolyline
 90
        9
 70
   128
 43
0.0
 10
267.1851467718
 20
263.3100706537
 10
267.5277244677
 20
263.4028862615
 10
267.8594261785
 20
263.4927551646
 10
268.1697223713
 20
263.5768275161
 10
268.4487633784
 20
263.6524285574
 10
268.6876904596
 20
263.7171629269
 10
268.8789189239
 20
263.7689742644
 10
269.016376548
 20
263.8062159915
 10
269.0957010169
 20
263.8277071912
  0
LWPOLYLINE
  5
CC
330
1F
100
AcDbEntity
  8
0
  6
Continuous
 62
     7
370
    15
100
AcDbPolyline
 90
        9
 70
   128
 43
0.0
 10
313.9365975191
 20
263.3100706537
 10
313.5940198232
 20
263.4028862615
 10
313.2623181124
 20
263.4927551646
 10
312.9520219196
 20
263.5768275161
 10
312.6729809125
 20
263.6524285574
 10
312.4340538313
 20
263.7171629269
 10
312.242825367
 20
263.7689742644
 10
312.1053677429
 20
263.8062159915
 10
312.026043274
 20
263.8277071912
  0
SPLINE
  5
CD
330
1F
100
AcDbEntity
  8
0
  6
Continuous
 62
     7
370
    15
100
AcDbSpline
210
0.0
220
0.0
230
1.0
 70
     8
 71
     3
 72
    20
 73
    16
 74
     0
 42
0.00000001
 43
0.00000001
 40
0.0
 40
0.0
 40
0.0
 40
0.0
 40
0.125
 40
0.125
 40
0.25
 40
0.25
 40
0.375
 40
0.375
 40
0.5
 40
0.5
 40
0.625
 40
0.625
 40
0.75
 40
0.75
 40
1.0
 40
1.0
 40
1.0
 40
1.0
 10
266.3121608394876
 20
280.1756823644685
 30
0.0
 10
265.256263962645
 20
280.5153254638226
 30
0.0
 10
264.200813473792
 20
280.8563434658645
 30
0.0
 10
262.0893589003242
 20
281.5366743606745
 30
0.0
 10
261.0342490940418
 20
281.8787416861589
 30
0.0
 10
258.9267994874081
 20
282.5714081271574
 30
0.0
 10
257.8715544107162
 20
282.9130588113929
 30
0.0
 10
255.7620329581081
 20
283.5993438383192
 30
0.0
 10
254.7068658169594
 20
283.9412345688601
 30
0.0
 10
252.5964276795198
 20
284.6246961496644
 30
0.0
 10
251.5423263306834
 20
284.9698695866142
 30
0.0
 10
249.4323304744759
 20
285.6546934210382
 30
0.0
 10
248.3774704373722
 20
285.9975300510804
 30
0.0
 10
245.2131504617423
 20
287.026841175236
 30
0.0
 10
243.1032285297111
 20
287.7118927007068
 30
0.0
 10
240.993006975197
 20
288.3960213703514
 30
0.0
  0
LWPOLYLINE
  5
CE
330
1F
100
AcDbEntity
  8
0
  6
Continuous
 62
     7
370
    15
100
AcDbPolyline
 90
        9
 70
   128
 43
0.0
 10
266.3121603806
 20
280.17568173
 10
266.4261747529
 20
280.5301337887
 10
266.5362030645
 20
280.8721918066
 10
266.6383970906
 20
281.1898976017
 10
266.7291842778
 20
281.4721404959
 10
266.8053906788
 20
281.7090540577
 10
266.8643508484
 20
281.8923551042
 10
266.9040047009
 20
282.0156342734
 10
266.9229664286
 20
282.0745795418
  0
LINE
  5
CF
330
1F
100
AcDbEntity
  8
0
  6
Continuous
 62
     7
370
    15
100
AcDbLine
 10
266.3121603806
 20
280.17568173
 30
0.0
 11
268.2916473974
 21
280.17568173
 31
0.0
  0
SPLINE
  5
D0
330
1F
100
AcDbEntity
  8
0
  6
Continuous
 62
     7
370
    15
100
AcDbSpline
210
0.0
220
0.0
230
1.0
 70
     8
 71
     3
 72
     8
 73
     4
 74
     0
 42
0.00000001
 43
0.00000001
 40
0.0
 40
0.0
 40
0.0
 40
0.0
 40
1.0
 40
1.0
 40
1.0
 40
1.0
 10
338.9752473689007
 20
296.0417166140542
 30
0.0
 10
331.5528633369429
 20
298.3516400163781
 30
0.0
 10
324.1272761328212
 20
300.6512456562006
 30
0.0
 10
316.7033144838869
 20
302.9560873843436
 30
0.0
  0
ARC
  5
D1
330
1F
100
AcDbEntity
  8
0
  6
Continuous
 62
     7
370
    15
100
AcDbCircle
 10
290.5608721455
 20
295.0647082229
 30
0.0
 40
25.76334605597614
100
AcDbArc
 50
341.3150949184
 51
15.0499149395
  0
LINE
  5
D2
330
1F
100
AcDbEntity
  8
0
  6
Continuous
 62
     7
370
    15
100
AcDbLine
 10
314.5341322203
 20
265.5161205132
 30
0.0
 11
313.9365975191
 21
263.3100706537
 31
0.0
  0
LINE
  5
D3
330
1F
100
AcDbEntity
  8
0
  6
Continuous
 62
     7
370
    15
100
AcDbLine
 10
267.1851467718
 20
263.3100706537
 30
0.0
 11
266.5876120706
 21
265.5161205132
 31
0.0
  0
LINE
  5
D4
330
1F
100
AcDbEntity
  8
0
  6
Continuous
 62
     7
370
    15
100
AcDbLine
 10
266.3121603806
 20
267.586674114
 30
0.0
 11
266.3121603806
 21
280.17568173
 31
0.0
  0
LINE
  5
D5
330
1F
100
AcDbEntity
  8
0
  6
Continuous
 62
     7
370
    15
100
AcDbLine
 10
314.8095839103
 20
285.8587312896
 30
0.0
 11
314.8095839103
 21
267.586674114
 31
0.0
  0
ARC
  5
D6
330
1F
100
AcDbEntity
  8
0
  6
Continuous
 62
     7
370
    15
100
AcDbCircle
 10
333.5608721455
 20
256.0647082229
 30
0.0
 40
3.000000000000085
100
AcDbArc
 50
180.0
 51
270.0
  0
ARC
  5
D7
330
1F
100
AcDbEntity
  8
0
  6
Continuous
 62
     7
370
    15
100
AcDbCircle
 10
333.5608721455
 20
256.0647082229
 30
0.0
 40
5.000000000000021
100
AcDbArc
 50
180.0
 51
191.5369590328
  0
ARC
  5
D8
330
1F
100
AcDbEntity
  8
0
  6
Continuous
 62
     7
370
    15
100
AcDbCircle
 10
348.5608721455
 20
266.0647082229
 30
0.0
 40
3.000000000000114
100
AcDbArc
 50
0.0
 51
90.0
  0
LINE
  5
D9
330
1F
100
AcDbEntity
  8
0
  6
Continuous
 62
     7
370
    15
100
AcDbLine
 10
348.5608704765
 20
269.0647091169
 30
0.0
 11
348.5608704765
 21
271.0647094448
 31
0.0
  0
ARC
  5
DA
330
1F
100
AcDbEntity
  8
0
  6
Continuous
 62
     7
370
    15
100
AcDbCircle
 10
348.5608721455
 20
266.0647082229
 30
0.0
 40
5.000000000000057
100
AcDbArc
 50
78.4630409672
 51
90.0
  0
LINE
  5
DB
330
1F
100
AcDbEntity
  8
0
  6
Continuous
 62
     7
370
    15
100
AcDbLine
 10
334.560871907
 20
271.0647094448
 30
0.0
 11
348.5608704765
 21
271.0647094448
 31
0.0
  0
ARC
  5
DC
330
1F
100
AcDbEntity
  8
0
  6
Continuous
 62
     7
370
    15
100
AcDbCircle
 10
334.5608721455
 20
265.0647082229
 30
0.0
 40
5.999999999999943
100
AcDbArc
 50
90.0
 51
180.0
  0
LINE
  5
DD
330
1F
100
AcDbEntity
  8
0
  6
Continuous
 62
     7
370
    15
100
AcDbLine
 10
328.5608709236
 20
256.0647088487
 30
0.0
 11
328.5608709236
 21
265.0647084613
 31
0.0
  0
LINE
  5
DE
330
1F
100
AcDbEntity
  8
0
  6
Continuous
 62
     7
370
    15
100
AcDbLine
 10
250.5608730395
 20
265.0647084613
 30
0.0
 11
250.5608730395
 21
256.0647088487
 31
0.0
  0
ARC
  5
DF
330
1F
100
AcDbEntity
  8
0
  6
Continuous
 62
     7
370
    15
100
AcDbCircle
 10
246.5608721455
 20
265.0647082229
 30
0.0
 40
4.0
100
AcDbArc
 50
0.0
 51
90.0
  0
LINE
  5
E0
330
1F
100
AcDbEntity
  8
0
  6
Continuous
 62
     7
370
    15
100
AcDbLine
 10
232.5608738144
 20
269.0647091169
 30
0.0
 11
246.5608723839
 21
269.0647091169
 31
0.0
  0
ARC
  5
E1
330
1F
100
AcDbEntity
  8
0
  6
Continuous
 62
     7
370
    15
100
AcDbCircle
 10
247.5608721455
 20
256.0647082229
 30
0.0
 40
2.999999999999977
100
AcDbArc
 50
340.5287793655
 51
0.0
  0
ARC
  5
E2
330
1F
100
AcDbEntity
  8
0
  6
Continuous
 62
     7
370
    15
100
AcDbCircle
 10
232.5608721455
 20
266.0647082229
 30
0.0
 40
2.999999999999943
100
AcDbArc
 50
90.0
 51
109.4712206345
  0
LINE
  5
E3
330
1F
100
AcDbEntity
  8
0
  6
Continuous
 62
     7
370
    15
100
AcDbLine
 10
348.5608704765
 20
269.0647091169
 30
0.0
 11
334.560871907
 21
269.0647091169
 31
0.0
  0
LINE
  5
E4
330
1F
100
AcDbEntity
  8
0
  6
Continuous
 62
     7
370
    15
100
AcDbLine
 10
334.560871907
 20
269.0647091169
 30
0.0
 11
334.560871907
 21
271.0647094448
 31
0.0
  0
LINE
  5
E5
330
1F
100
AcDbEntity
  8
0
  6
Continuous
 62
     7
370
    15
100
AcDbLine
 10
330.5608712514
 20
265.0647084613
 30
0.0
 11
330.5608712514
 21
256.0647088487
 31
0.0
  0
LINE
  5
E6
330
1F
100
AcDbEntity
  8
0
  6
Continuous
 62
     7
370
    15
100
AcDbLine
 10
330.5608712514
 20
265.0647084613
 30
0.0
 11
328.5608709236
 21
265.0647084613
 31
0.0
  0
ARC
  5
E7
330
1F
100
AcDbEntity
  8
0
  6
Continuous
 62
     7
370
    15
100
AcDbCircle
 10
334.5608721455
 20
265.0647082229
 30
0.0
 40
3.999999999999943
100
AcDbArc
 50
90.0
 51
180.0
  0
LINE
  5
E8
330
1F
100
AcDbEntity
  8
0
  6
Continuous
 62
     8
370
    15
100
AcDbLine
 10
294.5608723354
 20
394.6720729966
 30
0.0
 11
286.5608719555
 21
394.6720729966
 31
0.0
  0
LINE
  5
E9
330
1F
100
AcDbEntity
  8
0
  6
Continuous
 62
     8
370
    15
100
AcDbLine
 10
294.4245753721
 20
395.7073460717
 30
0.0
 11
286.6971689188
 21
395.7073460717
 31
0.0
  0
LINE
  5
EA
330
1F
100
AcDbEntity
  8
0
  6
Continuous
 62
     8
370
    15
100
AcDbLine
 10
294.1971687511
 20
396.5560417075
 30
0.0
 11
286.9245755398
 21
396.5560417075
 31
0.0
  0
LINE
  5
EB
330
1F
100
AcDbEntity
  8
0
  6
Continuous
 62
     8
370
    15
100
AcDbLine
 10
294.0608722535
 20
397.5913147826
 30
0.0
 11
287.0608720374
 21
397.5913147826
 31
0.0
  0
LINE
  5
EC
330
1F
100
AcDbEntity
  8
0
  6
Continuous
 62
     8
370
    15
100
AcDbLine
 10
269.0957010169
 20
263.8277071912
 30
0.0
 11
269.1964067896
 21
263.0647081335
 31
0.0
  0
LINE
  5
ED
330
1F
100
AcDbEntity
  8
0
  6
Continuous
 62
     8
370
    15
100
AcDbLine
 10
311.9253375013
 20
263.0647081335
 30
0.0
 11
312.026043274
 21
263.8277071912
 31
0.0
  0
LINE
  5
EE
330
1F
100
AcDbEntity
  8
0
  6
Continuous
 62
     8
370
    15
100
AcDbLine
 10
276.0820489754
 20
262.2747938533
 30
0.0
 11
305.5670753498
 21
262.2747938533
 31
0.0
  0
LINE
  5
EF
330
1F
100
AcDbEntity
  8
0
  6
Continuous
 62
     8
370
    15
100
AcDbLine
 10
250.3893010695
 20
255.0647068222
 30
0.0
 11
258.3422966679
 21
255.0647068222
 31
0.0
  0
LINE
  5
F0
330
1F
100
AcDbEntity
  8
0
  6
Continuous
 62
     8
370
    15
100
AcDbLine
 10
321.541842856
 20
255.0647068222
 30
0.0
 11
328.6618933459
 21
255.0647068222
 31
0.0
  0
LINE
  5
F1
330
1F
100
AcDbEntity
  8
0
  6
Continuous
 62
     8
370
    15
100
AcDbLine
 10
267.2178119798
 20
263.0647081335
 30
0.0
 11
267.1851467718
 21
263.3100706537
 31
0.0
  0
LINE
  5
F2
330
1F
100
AcDbEntity
  8
0
  6
Continuous
 62
     8
370
    15
100
AcDbLine
 10
313.9365975191
 20
263.3100706537
 30
0.0
 11
313.9039323111
 21
263.0647081335
 31
0.0
  0
LINE
  5
F3
330
1F
100
AcDbEntity
  8
1
100
AcDbLine
 10
116.5282917528
 20
263.0579503907
 30
0.0
 11
116.5282917528
 21
253.0647082229
 31
0.0
  0
LINE
  5
F4
330
1F
100
AcDbEntity
  8
1
100
AcDbLine
 10
73.4652159409
 20
263.0579503907
 30
0.0
 11
73.4652159409
 21
253.0647082229
 31
0.0
  0
LINE
  5
F5
330
1F
100
AcDbEntity
  8
1
100
AcDbLine
 10
478.6126135197
 20
239.0647082229
 30
0.0
 11
460.7823519826
 21
239.0647082229
 31
0.0
  0
LINE
  5
F6
330
1F
100
AcDbEntity
  8
1
100
AcDbLine
 10
494.3653926596
 20
239.0647082229
 30
0.0
 11
510.7823519826
 21
239.0647082229
 31
0.0
  0
LINE
  5
F7
330
1F
100
AcDbEntity
  8
1
100
AcDbLine
 10
510.7823519826
 20
239.0647082229
 30
0.0
 11
512.7823519826
 21
241.0647082229
 31
0.0
  0
LINE
  5
F8
330
1F
100
AcDbEntity
  8
1
100
AcDbLine
 10
460.7823519826
 20
239.0647082229
 30
0.0
 11
458.7972944027
 21
241.0647082229
 31
0.0
  0
LINE
  5
F9
330
1F
100
AcDbEntity
  8
1
100
AcDbLine
 10
507.3336828143
 20
263.0579503907
 30
0.0
 11
507.3336828143
 21
253.0647082229
 31
0.0
  0
LINE
  5
FA
330
1F
100
AcDbEntity
  8
1
100
AcDbLine
 10
464.2310211508
 20
263.0579503907
 30
0.0
 11
464.2310211508
 21
253.0647082229
 31
0.0
  0
LINE
  5
FB
330
1F
100
AcDbEntity
  8
1
100
AcDbLine
 10
257.4327737003
 20
255.0647082229
 30
0.0
 11
322.6946908259
 21
255.0647082229
 31
0.0
  0
LINE
  5
FC
330
1F
100
AcDbEntity
  8
1
100
AcDbLine
 10
267.2446923828
 20
263.0579503907
 30
0.0
 11
267.2446923828
 21
255.0647082229
 31
0.0
  0
LINE
  5
FD
330
1F
100
AcDbEntity
  8
1
100
AcDbLine
 10
269.1934867988
 20
263.0579503907
 30
0.0
 11
269.1934867988
 21
255.0647082229
 31
0.0
  0
LINE
  5
FE
330
1F
100
AcDbEntity
  8
1
100
AcDbLine
 10
311.9378661862
 20
263.0579503907
 30
0.0
 11
311.9378661862
 21
255.0647082229
 31
0.0
  0
LINE
  5
FF
330
1F
100
AcDbEntity
  8
1
100
AcDbLine
 10
313.8770519081
 20
263.0579503907
 30
0.0
 11
313.8770519081
 21
255.0647082229
 31
0.0
  0
LINE
  5
100
330
1F
100
AcDbEntity
  8
1
100
AcDbLine
 10
283.8328024956
 20
239.0647082229
 30
0.0
 11
265.5608721455
 21
238.991461253
 31
0.0
  0
LINE
  5
101
330
1F
100
AcDbEntity
  8
1
100
AcDbLine
 10
265.5608721455
 20
238.991461253
 30
0.0
 11
263.5608721455
 21
241.0647082229
 31
0.0
  0
LINE
  5
102
330
1F
100
AcDbEntity
  8
1
100
AcDbLine
 10
305.317865747
 20
239.0647082229
 30
0.0
 11
315.5608721455
 21
239.0449361223
 31
0.0
  0
LINE
  5
103
330
1F
100
AcDbEntity
  8
1
100
AcDbLine
 10
315.5608721455
 20
239.0449361223
 30
0.0
 11
317.5608721455
 21
241.0647082229
 31
0.0
  0
CIRCLE
  5
104
330
1F
100
AcDbEntity
  8
1
100
AcDbCircle
 10
267.5799017569
 20
563.0352592241
 30
0.0
 40
5.500000000000023
  0
CIRCLE
  5
105
330
1F
100
AcDbEntity
  8
1
100
AcDbCircle
 10
313.541842534
 20
563.0352592241
 30
0.0
 40
5.500000000000023
  0
CIRCLE
  5
106
330
1F
100
AcDbEntity
  8
1
100
AcDbCircle
 10
313.541842534
 20
517.0733184469
 30
0.0
 40
5.500000000000023
  0
CIRCLE
  5
107
330
1F
100
AcDbEntity
  8
1
100
AcDbCircle
 10
267.5799017569
 20
517.0733184469
 30
0.0
 40
5.500000000000023
  0
CIRCLE
  5
108
330
1F
100
AcDbEntity
  8
1
100
AcDbCircle
 10
290.5608721455
 20
540.0542888355
 30
0.0
 40
25.0
  0
CIRCLE
  5
109
330
1F
100
AcDbEntity
  8
1
100
AcDbCircle
 10
290.5608721455
 20
540.0542888355
 30
0.0
 40
26.99999999999994
  0
ARC
  5
10A
330
1F
100
AcDbEntity
  8
0
  6
Continuous
 62
     7
370
    15
100
AcDbCircle
 10
485.7823519826
 20
394.6720728287
 30
0.0
 40
4.000000000000052
100
AcDbArc
 50
165.0
 51
180.0
  0
ARC
  5
10B
330
1F
100
AcDbEntity
  8
0
  6
Continuous
 62
     7
370
    15
100
AcDbCircle
 10
485.7823519826
 20
394.6720728287
 30
0.0
 40
4.0
100
AcDbArc
 50
0.0
 51
15.0
  0
LINE
  5
10C
330
1F
100
AcDbEntity
  8
0
  6
Continuous
 62
     7
370
    15
100
AcDbLine
 10
489.7823521726
 20
369.0647068818
 30
0.0
 11
489.7823521726
 21
394.6720729966
 31
0.0
  0
LINE
  5
10D
330
1F
100
AcDbEntity
  8
0
  6
Continuous
 62
     7
370
    15
100
AcDbLine
 10
481.7823517926
 20
394.6720729966
 30
0.0
 11
481.7823517926
 21
369.0647068818
 31
0.0
  0
LINE
  5
10E
330
1F
100
AcDbEntity
  8
0
  6
Continuous
 62
     7
370
    15
100
AcDbLine
 10
489.6460552093
 20
395.7073460717
 30
0.0
 11
489.4186485883
 21
396.5560417075
 31
0.0
  0
LINE
  5
10F
330
1F
100
AcDbEntity
  8
0
  6
Continuous
 62
     7
370
    15
100
AcDbLine
 10
482.1460553769
 20
396.5560417075
 30
0.0
 11
481.9186487559
 21
395.7073460717
 31
0.0
  0
ARC
  5
110
330
1F
100
AcDbEntity
  8
0
  6
Continuous
 62
     7
370
    15
100
AcDbCircle
 10
493.2823519826
 20
397.5913182132
 30
0.0
 40
4.000000000000052
100
AcDbArc
 50
180.0
 51
195.0
  0
ARC
  5
111
330
1F
100
AcDbEntity
  8
0
  6
Continuous
 62
     7
370
    15
100
AcDbCircle
 10
478.2823519826
 20
397.5913182132
 30
0.0
 40
4.0
100
AcDbArc
 50
345.0
 51
0.0
  0
LINE
  5
112
330
1F
100
AcDbEntity
  8
0
  6
Continuous
 62
     7
370
    15
100
AcDbLine
 10
489.2823520906
 20
397.5913147826
 30
0.0
 11
489.2823520906
 21
400.5647073884
 31
0.0
  0
LINE
  5
113
330
1F
100
AcDbEntity
  8
0
  6
Continuous
 62
     7
370
    15
100
AcDbLine
 10
482.2823518746
 20
400.5647073884
 30
0.0
 11
482.2823518746
 21
397.5913147826
 31
0.0
  0
LINE
  5
114
330
1F
100
AcDbEntity
  8
0
  6
Continuous
 62
     7
370
    15
100
AcDbLine
 10
489.2823520906
 20
418.5147057672
 30
0.0
 11
487.7323519297
 21
420.0647096534
 31
0.0
  0
LINE
  5
115
330
1F
100
AcDbEntity
  8
0
  6
Continuous
 62
     7
370
    15
100
AcDbLine
 10
483.8323520355
 20
420.0647096534
 30
0.0
 11
482.2823518746
 21
418.5147057672
 31
0.0
  0
LINE
  5
116
330
1F
100
AcDbEntity
  8
0
  6
Continuous
 62
     7
370
    15
100
AcDbLine
 10
489.2823520906
 20
416.5147091646
 30
0.0
 11
489.2823520906
 21
418.5147057672
 31
0.0
  0
LINE
  5
117
330
1F
100
AcDbEntity
  8
0
  6
Continuous
 62
     7
370
    15
100
AcDbLine
 10
482.2823518746
 20
418.5147057672
 30
0.0
 11
482.2823518746
 21
416.5147091646
 31
0.0
  0
LINE
  5
118
330
1F
100
AcDbEntity
  8
0
  6
Continuous
 62
     7
370
    15
100
AcDbLine
 10
489.2823520906
 20
403.5647060175
 30
0.0
 11
489.2823520906
 21
413.4647096891
 31
0.0
  0
LINE
  5
119
330
1F
100
AcDbEntity
  8
0
  6
Continuous
 62
     7
370
    15
100
AcDbLine
 10
482.2823518746
 20
413.4647096891
 30
0.0
 11
482.2823518746
 21
403.5647060175
 31
0.0
  0
LINE
  5
11A
330
1F
100
AcDbEntity
  8
0
  6
Continuous
 62
     7
370
    15
100
AcDbLine
 10
488.7823520087
 20
400.5647073884
 30
0.0
 11
488.7823520087
 21
403.5647060175
 31
0.0
  0
LINE
  5
11B
330
1F
100
AcDbEntity
  8
0
  6
Continuous
 62
     7
370
    15
100
AcDbLine
 10
482.7823519565
 20
403.5647060175
 30
0.0
 11
482.7823519565
 21
400.5647073884
 31
0.0
  0
LINE
  5
11C
330
1F
100
AcDbEntity
  8
0
  6
Continuous
 62
     7
370
    15
100
AcDbLine
 10
487.7323519297
 20
413.4647096891
 30
0.0
 11
487.7323519297
 21
416.5147091646
 31
0.0
  0
LINE
  5
11D
330
1F
100
AcDbEntity
  8
0
  6
Continuous
 62
     7
370
    15
100
AcDbLine
 10
483.8323520355
 20
416.5147091646
 30
0.0
 11
483.8323520355
 21
413.4647096891
 31
0.0
  0
LINE
  5
11E
330
1F
100
AcDbEntity
  8
0
  6
Continuous
 62
     7
370
    15
100
AcDbLine
 10
500.7623524263
 20
356.0647066135
 30
0.0
 11
500.7623524263
 21
369.0647068818
 31
0.0
  0
LINE
  5
11F
330
1F
100
AcDbEntity
  8
0
  6
Continuous
 62
     7
370
    15
100
AcDbLine
 10
470.8023515388
 20
369.0647068818
 30
0.0
 11
470.8023515388
 21
356.0647066135
 31
0.0
  0
SPLINE
  5
120
330
1F
100
AcDbEntity
  8
0
  6
Continuous
 62
     7
370
    15
100
AcDbSpline
210
0.0
220
0.0
230
1.0
 70
     8
 71
     3
 72
    35
 73
    31
 74
     0
 42
0.00000001
 43
0.00000001
 40
0.0
 40
0.0
 40
0.0
 40
0.0
 40
0.0205086402741914
 40
0.0596806180165965
 40
0.0913673459289447
 40
0.1049385705429357
 40
0.1180860595953165
 40
0.1466870021979335
 40
0.1797544231852941
 40
0.2147768610380258
 40
0.2484007978053595
 40
0.2799032266650663
 40
0.3411097190116876
 40
0.4028314608020107
 40
0.4657203395265003
 40
0.5282106866503514
 40
0.5897704958180991
 40
0.651598191362805
 40
0.6835340659134264
 40
0.7159357208106567
 40
0.7487904732534336
 40
0.7798507000966998
 40
0.7943541417897982
 40
0.8084355584352553
 40
0.8227924479156573
 40
0.8380576666941528
 40
0.8724125873554681
 40
0.912045375896863
 40
0.9553340099156382
 40
1.0
 40
1.0
 40
1.0
 40
1.0
 10
495.7822921544266
 20
309.1087460472831
 30
0.0
 10
495.7823041006408
 20
309.1155948538719
 30
0.0
 10
495.7823388644007
 20
309.1355250396095
 30
0.0
 10
495.7823741985712
 20
308.9752585458424
 30
0.0
 10
495.7757321442588
 20
308.6249307080717
 30
0.0
 10
495.7381943559078
 20
308.126230251861
 30
0.0
 10
495.6637527991131
 20
307.4955480441777
 30
0.0
 10
495.4675242509934
 20
306.5095076171407
 30
0.0
 10
495.0622064318791
 20
305.3049331564737
 30
0.0
 10
494.4775544597778
 20
304.1137501721615
 30
0.0
 10
493.7489144693702
 20
303.0185947213038
 30
0.0
 10
492.6585076702372
 20
301.7547242859946
 30
0.0
 10
491.0623678645953
 20
300.4726118683294
 30
0.0
 10
488.8214725823688
 20
299.4348377663864
 30
0.0
 10
486.3745970163077
 20
298.975488048326
 30
0.0
 10
483.8927131118505
 20
299.1414569358414
 30
0.0
 10
481.5440107981114
 20
299.9042180505463
 30
0.0
 10
479.7931688088997
 20
300.9983217142142
 30
0.0
 10
478.5676749486499
 20
302.1266137603821
 30
0.0
 10
477.743846229477
 20
303.1040800036498
 30
0.0
 10
477.0585887924221
 20
304.1578603548712
 30
0.0
 10
476.6020829555084
 20
305.0954447014341
 30
0.0
 10
476.3271034804246
 20
305.8212487750998
 30
0.0
 10
476.1689283361798
 20
306.3212128409618
 30
0.0
 10
476.0525721374545
 20
306.7644925807041
 30
0.0
 10
475.9358253120673
 20
307.3032295327818
 30
0.0
 10
475.8543098108974
 20
307.8411155423095
 30
0.0
 10
475.8077836343951
 20
308.3250768136421
 30
0.0
 10
475.7859837259483
 20
308.6903473144293
 30
0.0
 10
475.7835394605226
 20
308.7719032427652
 30
0.0
 10
475.7822981893969
 20
308.8133197836636
 30
0.0
  0
LINE
  5
121
330
1F
100
AcDbEntity
  8
0
  6
Continuous
 62
     7
370
    15
100
AcDbLine
 10
495.7560204759
 20
309.1120014344
 30
0.0
 11
495.7724592507
 21
308.8745949592
 31
0.0
  0
LINE
  5
122
330
1F
100
AcDbEntity
  8
0
  6
Continuous
 62
     7
370
    15
100
AcDbLine
 10
440.7823501944
 20
253.0647064943
 30
0.0
 11
440.7823501944
 21
241.0647045274
 31
0.0
  0
LINE
  5
123
330
1F
100
AcDbEntity
  8
0
  6
Continuous
 62
     7
370
    15
100
AcDbLine
 10
530.7823537707
 20
241.0647045274
 30
0.0
 11
530.7823537707
 21
253.0647064943
 31
0.0
  0
LINE
  5
124
330
1F
100
AcDbEntity
  8
0
  6
Continuous
 62
     7
370
    15
100
AcDbLine
 10
463.2823510885
 20
285.8587312896
 30
0.0
 11
463.2823510885
 21
280.6048090954
 31
0.0
  0
LINE
  5
125
330
1F
100
AcDbEntity
  8
0
  6
Continuous
 62
     7
370
    15
100
AcDbLine
 10
463.2823510885
 20
270.0935635169
 30
0.0
 11
463.2823510885
 21
267.586674114
 31
0.0
  0
LINE
  5
126
330
1F
100
AcDbEntity
  8
0
  6
Continuous
 62
     7
370
    15
100
AcDbLine
 10
508.2823528767
 20
267.586674114
 30
0.0
 11
508.2823528767
 21
270.0935635169
 31
0.0
  0
LINE
  5
127
330
1F
100
AcDbEntity
  8
0
  6
Continuous
 62
     7
370
    15
100
AcDbLine
 10
508.2823528767
 20
280.6048090954
 30
0.0
 11
508.2823528767
 21
285.8587312896
 31
0.0
  0
ARC
  5
128
330
1F
100
AcDbEntity
  8
0
  6
Continuous
 62
     7
370
    15
100
AcDbCircle
 10
469.2823519826
 20
267.586674016
 30
0.0
 40
5.999999999999829
100
AcDbArc
 50
180.0
 51
195.0
  0
ARC
  5
129
330
1F
100
AcDbEntity
  8
0
  6
Continuous
 62
     7
370
    15
100
AcDbCircle
 10
502.2823519826
 20
267.586674016
 30
0.0
 40
5.999999999999869
100
AcDbArc
 50
345.0
 51
360.0
  0
SPLINE
  5
12A
330
1F
100
AcDbEntity
  8
0
  6
Continuous
 62
     7
370
    15
100
AcDbSpline
210
0.0
220
0.0
230
1.0
 70
     8
 71
     3
 72
    10
 73
     6
 74
     0
 42
0.00000001
 43
0.00000001
 40
0.0
 40
0.0
 40
0.0
 40
0.0
 40
0.237091166164644
 40
0.6950033523711336
 40
1.0
 40
1.0
 40
1.0
 40
1.0
 10
508.2878588557196
 20
331.8650047679025
 30
0.0
 10
508.1730027088191
 20
332.1645838278408
 30
0.0
 10
507.8363161572802
 20
333.0427626918005
 30
0.0
 10
507.2370005707393
 20
334.2600372927777
 30
0.0
 10
506.7037314093644
 20
335.1439761892302
 30
0.0
 10
506.4905403971625
 20
335.4973583866435
 30
0.0
  0
SPLINE
  5
12B
330
1F
100
AcDbEntity
  8
0
  6
Continuous
 62
     7
370
    15
100
AcDbSpline
210
0.0
220
0.0
230
1.0
 70
     8
 71
     3
 72
    10
 73
     6
 74
     0
 42
0.00000001
 43
0.00000001
 40
0.0
 40
0.0
 40
0.0
 40
0.0
 40
0.1646612015430151
 40
0.6235429628817611
 40
1.0
 40
1.0
 40
1.0
 40
1.0
 10
465.0738338798237
 20
335.4940466035682
 30
0.0
 10
464.9539545500698
 20
335.3045166826562
 30
0.0
 10
464.4999926467035
 20
334.5868002604951
 30
0.0
 10
463.8819251560154
 20
333.3689159073544
 30
0.0
 10
463.4526138915631
 20
332.3154736017094
 30
0.0
 10
463.2591388046694
 20
331.8407251883822
 30
0.0
  0
LINE
  5
12C
330
1F
100
AcDbEntity
  8
0
  6
Continuous
 62
     7
370
    15
100
AcDbLine
 10
463.4867968827
 20
266.0337607761
 30
0.0
 11
464.0779073209
 21
263.8277071912
 31
0.0
  0
LINE
  5
12D
330
1F
100
AcDbEntity
  8
0
  6
Continuous
 62
     7
370
    15
100
AcDbLine
 10
507.4867966443
 20
263.8277071912
 30
0.0
 11
508.0779070824
 21
266.0337607761
 31
0.0
  0
ARC
  5
12E
330
1F
100
AcDbEntity
  8
0
  6
Continuous
 62
     7
370
    15
100
AcDbCircle
 10
458.2823519826
 20
262.2747932373
 30
0.0
 40
5.999999999999376
100
AcDbArc
 50
7.5650942749
 51
15.0
  0
ARC
  5
12F
330
1F
100
AcDbEntity
  8
0
  6
Continuous
 62
     7
370
    15
100
AcDbCircle
 10
513.2823519826
 20
262.2747932373
 30
0.0
 40
5.999999999999488
100
AcDbArc
 50
165.0
 51
172.4349057251
  0
SPLINE
  5
130
330
1F
100
AcDbEntity
  8
0
  6
Continuous
 62
     7
370
    15
100
AcDbSpline
210
0.0
220
0.0
230
1.0
 70
     8
 71
     3
 72
    10
 73
     6
 74
     0
 42
0.00000001
 43
0.00000001
 40
0.0
 40
0.0
 40
0.0
 40
0.0
 40
0.3122701369178827
 40
0.9144501693740715
 40
0.9999999999999999
 40
0.9999999999999999
 40
0.9999999999999999
 40
0.9999999999999999
 10
506.5282217085314
 20
335.4982841212827
 30
0.0
 10
506.451640873821
 20
335.6230678380253
 30
0.0
 10
506.2273819742575
 20
335.9884837949809
 30
0.0
 10
506.047454856148
 20
336.4312783477131
 30
0.0
 10
505.9883693216128
 20
336.748795189793
 30
0.0
 10
505.9810194045258
 20
336.7882925469953
 30
0.0
  0
SPLINE
  5
131
330
1F
100
AcDbEntity
  8
0
  6
Continuous
 62
     7
370
    15
100
AcDbSpline
210
0.0
220
0.0
230
1.0
 70
     8
 71
     3
 72
     9
 73
     5
 74
     0
 42
0.00000001
 43
0.00000001
 40
0.0
 40
0.0
 40
0.0
 40
0.0
 40
0.551079489906249
 40
1.0
 40
1.0
 40
1.0
 40
1.0
 10
465.5726744651747
 20
336.7386940319615
 30
0.0
 10
465.5027302136217
 20
336.5002145929469
 30
0.0
 10
465.3758079586039
 20
336.067464974457
 30
0.0
 10
465.1488688989832
 20
335.6785754672539
 30
0.0
 10
465.0469913005782
 20
335.5039949913102
 30
0.0
  0
LINE
  5
132
330
1F
100
AcDbEntity
  8
0
  6
Continuous
 62
     7
370
    15
100
AcDbLine
 10
450.7823518336
 20
345.5647076864
 30
0.0
 11
455.8314724684
 21
342.6495972474
 31
0.0
  0
LINE
  5
133
330
1F
100
AcDbEntity
  8
0
  6
Continuous
 62
     7
370
    15
100
AcDbLine
 10
450.7823518336
 20
356.0647066135
 30
0.0
 11
450.7823518336
 21
345.5647076864
 31
0.0
  0
LINE
  5
134
330
1F
100
AcDbEntity
  8
0
  6
Continuous
 62
     7
370
    15
100
AcDbLine
 10
515.7332314968
 20
342.6495972474
 30
0.0
 11
520.7823521316
 21
345.5647076864
 31
0.0
  0
LINE
  5
135
330
1F
100
AcDbEntity
  8
0
  6
Continuous
 62
     7
370
    15
100
AcDbLine
 10
520.7823521316
 20
345.5647076864
 30
0.0
 11
520.7823521316
 21
356.0647066135
 31
0.0
  0
ARC
  5
136
330
1F
100
AcDbEntity
  8
0
  6
Continuous
 62
     7
370
    15
100
AcDbCircle
 10
513.2823519826
 20
285.8587319031
 30
0.0
 40
5.000000000000171
100
AcDbArc
 50
161.4913719231
 51
180.0
  0
ARC
  5
137
330
1F
100
AcDbEntity
  8
0
  6
Continuous
 62
     7
370
    15
100
AcDbCircle
 10
458.2823519826
 20
285.8587319031
 30
0.0
 40
5.000000000000091
100
AcDbArc
 50
0.0
 51
18.5086280769
  0
LINE
  5
138
330
1F
100
AcDbEntity
  8
0
  6
Continuous
 62
     7
370
    15
100
AcDbLine
 10
489.2823520906
 20
400.5647073884
 30
0.0
 11
482.2823518746
 21
400.5647073884
 31
0.0
  0
LINE
  5
139
330
1F
100
AcDbEntity
  8
0
  6
Continuous
 62
     7
370
    15
100
AcDbLine
 10
487.7323519297
 20
420.0647096534
 30
0.0
 11
483.8323520355
 21
420.0647096534
 31
0.0
  0
LINE
  5
13A
330
1F
100
AcDbEntity
  8
0
  6
Continuous
 62
     7
370
    15
100
AcDbLine
 10
489.2823520906
 20
418.5147057672
 30
0.0
 11
482.2823518746
 21
418.5147057672
 31
0.0
  0
LINE
  5
13B
330
1F
100
AcDbEntity
  8
0
  6
Continuous
 62
     7
370
    15
100
AcDbLine
 10
489.2823520906
 20
416.5147091646
 30
0.0
 11
482.2823518746
 21
416.5147091646
 31
0.0
  0
LINE
  5
13C
330
1F
100
AcDbEntity
  8
0
  6
Continuous
 62
     7
370
    15
100
AcDbLine
 10
489.2823520906
 20
403.5647060175
 30
0.0
 11
482.2823518746
 21
403.5647060175
 31
0.0
  0
LINE
  5
13D
330
1F
100
AcDbEntity
  8
0
  6
Continuous
 62
     7
370
    15
100
AcDbLine
 10
489.2823520906
 20
413.4647096891
 30
0.0
 11
482.2823518746
 21
413.4647096891
 31
0.0
  0
LINE
  5
13E
330
1F
100
AcDbEntity
  8
0
  6
Continuous
 62
     7
370
    15
100
AcDbLine
 10
500.7623524263
 20
369.0647068818
 30
0.0
 11
494.748978582
 21
369.0647068818
 31
0.0
  0
LINE
  5
13F
330
1F
100
AcDbEntity
  8
0
  6
Continuous
 62
     7
370
    15
100
AcDbLine
 10
476.8157253832
 20
369.0647068818
 30
0.0
 11
470.8023515388
 21
369.0647068818
 31
0.0
  0
LINE
  5
140
330
1F
100
AcDbEntity
  8
0
  6
Continuous
 62
     7
370
    15
100
AcDbLine
 10
476.8157253832
 20
369.0647068818
 30
0.0
 11
476.8157253832
 21
362.064707597
 31
0.0
  0
LINE
  5
141
330
1F
100
AcDbEntity
  8
0
  6
Continuous
 62
     7
370
    15
100
AcDbLine
 10
476.8157253832
 20
362.064707597
 30
0.0
 11
494.748978582
 21
362.064707597
 31
0.0
  0
LINE
  5
142
330
1F
100
AcDbEntity
  8
0
  6
Continuous
 62
     7
370
    15
100
AcDbLine
 10
494.748978582
 20
362.064707597
 30
0.0
 11
494.748978582
 21
369.0647068818
 31
0.0
  0
LINE
  5
143
330
1F
100
AcDbEntity
  8
0
  6
Continuous
 62
     7
370
    15
100
AcDbLine
 10
494.748978582
 20
369.0647068818
 30
0.0
 11
476.8157253832
 21
369.0647068818
 31
0.0
  0
LINE
  5
144
330
1F
100
AcDbEntity
  8
0
  6
Continuous
 62
     7
370
    15
100
AcDbLine
 10
467.4128114104
 20
239.0647079249
 30
0.0
 11
504.1518925548
 21
239.0647079249
 31
0.0
  0
CIRCLE
  5
145
330
1F
100
AcDbEntity
  8
0
  6
Continuous
 62
     7
370
    15
100
AcDbCircle
 10
485.7823519826
 20
309.0647082229
 30
0.0
 40
25.0
  0
CIRCLE
  5
146
330
1F
100
AcDbEntity
  8
0
  6
Continuous
 62
     7
370
    15
100
AcDbCircle
 10
485.7823518323
 20
309.0647105037
 30
0.0
 40
9.99999962623875
  0
SPLINE
  5
147
330
1F
100
AcDbEntity
  8
0
  6
Continuous
 62
     7
370
    15
100
AcDbSpline
210
0.0
220
0.0
230
1.0
 70
     8
 71
     3
 72
    26
 73
    22
 74
     0
 42
0.00000001
 43
0.00000001
 40
0.0
 40
0.0
 40
0.0
 40
0.0
 40
0.0178272156352225
 40
0.07163341824893
 40
0.1252662205740311
 40
0.1804493458148186
 40
0.2339379595114718
 40
0.289031818137562
 40
0.3417857836163184
 40
0.396071545842583
 40
0.4487341893405984
 40
0.5029622960927215
 40
0.5549843029754147
 40
0.6085327785133037
 40
0.6603189567290048
 40
0.7135583381800672
 40
0.7662421365142795
 40
0.8204333261352927
 40
0.8734123039496435
 40
0.9278872676685428
 40
1.0
 40
1.0
 40
1.0
 40
1.0
 10
495.7522076412988
 20
308.8591022917594
 30
0.0
 10
495.7605655779019
 20
309.0467406875803
 30
0.0
 10
495.7941494858233
 20
309.8007103462431
 30
0.0
 10
495.5679707711897
 20
311.1133678012052
 30
0.0
 10
495.0701097648235
 20
312.7540816429122
 30
0.0
 10
494.2866673476681
 20
314.2841028117116
 30
0.0
 10
493.2476323677755
 20
315.6689133711455
 30
0.0
 10
492.0046006473685
 20
316.8386727605833
 30
0.0
 10
490.5774195579108
 20
317.7880262697892
 30
0.0
 10
489.0333219043927
 20
318.4734785555652
 30
0.0
 10
487.3810149372473
 20
318.8911817602516
 30
0.0
 10
485.7047919743225
 20
319.0202080498048
 30
0.0
 10
484.022565217641
 20
318.8615931016085
 30
0.0
 10
482.415669921808
 20
318.4275369586015
 30
0.0
 10
480.8930058823509
 20
317.7261192841043
 30
0.0
 10
479.5142063337635
 20
316.7878233887984
 30
0.0
 10
478.2901622637664
 20
315.6189331581386
 30
0.0
 10
477.278437631329
 20
314.2631440142013
 30
0.0
 10
476.5081084707704
 20
312.7398893947889
 30
0.0
 10
475.9159026925914
 20
310.9297393353773
 30
0.0
 10
475.8307820331296
 20
309.5943880362234
 30
0.0
 10
475.7822916701389
 20
308.8336835301074
 30
0.0
  0
ARC
  5
148
330
1F
100
AcDbEntity
  8
0
  6
Continuous
 62
     7
370
    15
100
AcDbCircle
 10
485.7823519826
 20
309.0647082229
 30
0.0
 40
26.99999999999994
100
AcDbArc
 50
315.0
 51
45.0
  0
ARC
  5
149
330
1F
100
AcDbEntity
  8
0
  6
Continuous
 62
     7
370
    15
100
AcDbCircle
 10
485.7823519826
 20
309.0647082229
 30
0.0
 40
26.99999999999998
100
AcDbArc
 50
225.0
 51
315.0
  0
ARC
  5
14A
330
1F
100
AcDbEntity
  8
0
  6
Continuous
 62
     7
370
    15
100
AcDbCircle
 10
485.7823519826
 20
309.0647082229
 30
0.0
 40
26.99999999999998
100
AcDbArc
 50
135.0
 51
225.0
  0
ARC
  5
14B
330
1F
100
AcDbEntity
  8
0
  6
Continuous
 62
     7
370
    15
100
AcDbCircle
 10
485.7823519826
 20
309.0647082229
 30
0.0
 40
26.99999999999998
100
AcDbArc
 50
45.0
 51
135.0
  0
CIRCLE
  5
14C
330
1F
100
AcDbEntity
  8
0
  6
Continuous
 62
     7
370
    15
100
AcDbCircle
 10
508.7633223712
 20
286.0837378343
 30
0.0
 40
5.500000000000044
  0
CIRCLE
  5
14D
330
1F
100
AcDbEntity
  8
0
  6
Continuous
 62
     7
370
    15
100
AcDbCircle
 10
508.7633223712
 20
332.0456786114
 30
0.0
 40
5.500000000000044
  0
CIRCLE
  5
14E
330
1F
100
AcDbEntity
  8
0
  6
Continuous
 62
     7
370
    15
100
AcDbCircle
 10
462.801381594
 20
332.0456786114
 30
0.0
 40
5.500000000000044
  0
CIRCLE
  5
14F
330
1F
100
AcDbEntity
  8
0
  6
Continuous
 62
     7
370
    15
100
AcDbCircle
 10
462.801381594
 20
286.0837378343
 30
0.0
 40
5.500000000000044
  0
CIRCLE
  5
150
330
1F
100
AcDbEntity
  8
0
  6
Continuous
 62
     7
370
    15
100
AcDbCircle
 10
485.7823519826
 20
309.0647082229
 30
0.0
 40
45.0
  0
SPLINE
  5
151
330
1F
100
AcDbEntity
  8
0
  6
Continuous
 62
     7
370
    15
100
AcDbSpline
210
0.0
220
0.0
230
1.0
 70
     8
 71
     3
 72
    26
 73
    22
 74
     0
 42
0.00000001
 43
0.00000001
 40
0.0
 40
0.0
 40
0.0
 40
0.0
 40
0.0540777912999053
 40
0.1081523004201528
 40
0.1637833146472522
 40
0.2178491636498331
 40
0.2735596027470575
 40
0.3265452958094461
 40
0.3810668191253321
 40
0.4339749949389773
 40
0.4884755005287972
 40
0.5404154207225195
 40
0.593857616600545
 40
0.645891946913199
 40
0.6994030392318221
 40
0.7520368166082123
 40
0.8061720835266306
 40
0.8590882470690985
 40
0.9135277191665091
 40
0.9668315059322576
 40
1.0
 40
1.0
 40
1.0
 40
1.0
 10
475.7922912806225
 20
308.8336834573478
 30
0.0
 10
475.819855887618
 20
309.4021021785269
 30
0.0
 10
475.8749834286119
 20
310.5389051214662
 30
0.0
 10
476.3180690910557
 20
312.2126214035049
 30
0.0
 10
477.0129598646701
 20
313.7927951474771
 30
0.0
 10
477.9836086547445
 20
315.2437608185643
 30
0.0
 10
479.1696592689548
 20
316.4858615463317
 30
0.0
 10
480.5504910483062
 20
317.513616969788
 30
0.0
 10
482.0589985345329
 20
318.2814761831547
 30
0.0
 10
483.6906906347359
 20
318.786601038399
 30
0.0
 10
485.3586713604432
 20
319.0013224551762
 30
0.0
 10
487.0433544594318
 20
318.9285927952335
 30
0.0
 10
488.6672419018971
 20
318.5802404151597
 30
0.0
 10
490.2249014063633
 20
317.9596308201251
 30
0.0
 10
491.6509515819612
 20
317.0932001740091
 30
0.0
 10
492.9307961211442
 20
315.9889199233599
 30
0.0
 10
494.0049500946871
 20
314.691452550333
 30
0.0
 10
494.8559209125059
 20
313.2143959564626
 30
0.0
 10
495.4330994976429
 20
311.6244445173381
 30
0.0
 10
495.7443133032431
 20
310.1653824053395
 30
0.0
 10
495.7392550680689
 20
309.2559265173816
 30
0.0
 10
495.7373148620081
 20
308.9070831431367
 30
0.0
  0
SPLINE
  5
152
330
1F
100
AcDbEntity
  8
0
  6
Continuous
 62
     7
370
    15
100
AcDbSpline
210
0.0
220
0.0
230
1.0
 70
     8
 71
     3
 72
    18
 73
    14
 74
     0
 42
0.00000001
 43
0.00000001
 40
0.0
 40
0.0
 40
0.0
 40
0.0
 40
0.0391712294018413
 40
0.1108385856385686
 40
0.2124057143345019
 40
0.3168542543865992
 40
0.4201745603275898
 40
0.5264495262878226
 40
0.6291870749165175
 40
0.73485862222135
 40
0.8387769283730423
 40
0.9459922806924338
 40
1.0
 40
1.0
 40
1.0
 40
1.0
 10
495.7581569299055
 20
310.750693354063
 30
0.0
 10
495.5889019878181
 20
310.9882165176871
 30
0.0
 10
495.1099796083122
 20
311.6603100903045
 30
0.0
 10
493.8833860533974
 20
312.6795898847796
 30
0.0
 10
492.1257665562101
 20
313.7660975125747
 30
0.0
 10
489.9863945345173
 20
314.636647523792
 30
0.0
 10
487.7045695669105
 20
315.1625453883578
 30
0.0
 10
485.3757875584178
 20
315.2997999547487
 30
0.0
 10
483.0455831376539
 20
315.0154538395973
 30
0.0
 10
480.8051838779858
 20
314.3653063267075
 30
0.0
 10
478.6889852217469
 20
313.3301665707796
 30
0.0
 10
477.0317642162817
 20
312.2170690634098
 30
0.0
 10
476.2526243831771
 20
311.3039039471282
 30
0.0
 10
475.9916222512675
 20
310.9980050160142
 30
0.0
  0
LINE
  5
153
330
1F
100
AcDbEntity
  8
0
  6
Continuous
 62
     7
370
    15
100
AcDbLine
 10
440.7823501944
 20
253.0647064943
 30
0.0
 11
530.7823537707
 21
253.0647064943
 31
0.0
  0
LINE
  5
154
330
1F
100
AcDbEntity
  8
0
  6
Continuous
 62
     7
370
    15
100
AcDbLine
 10
440.7823501944
 20
241.0647045274
 30
0.0
 11
530.7823537707
 21
241.0647045274
 31
0.0
  0
SPLINE
  5
155
330
1F
100
AcDbEntity
  8
0
  6
Continuous
 62
     7
370
    15
100
AcDbSpline
210
0.0
220
0.0
230
1.0
 70
     8
 71
     3
 72
    18
 73
    14
 74
     0
 42
0.00000001
 43
0.00000001
 40
0.0
 40
0.0
 40
0.0
 40
0.0
 40
0.1249999999999998
 40
0.1249999999999998
 40
0.2499999999999996
 40
0.2499999999999996
 40
0.4999999999999985
 40
0.4999999999999985
 40
0.7499999999999974
 40
0.7499999999999974
 40
0.8749999999999988
 40
0.8749999999999988
 40
1.0
 40
1.0
 40
1.0
 40
1.0
 10
487.2823519825888
 20
255.0647082228738
 30
0.0
 10
487.2823519825888
 20
254.8940949582614
 30
0.0
 10
487.303757700133
 20
254.7336240026213
 30
0.0
 10
487.3792587371368
 20
254.4301310450759
 30
0.0
 10
487.4338851661925
 20
254.2876928754895
 30
0.0
 10
487.6286301617288
 20
253.903874976982
 30
0.0
 10
487.8035046647624
 20
253.6953089453355
 30
0.0
 10
488.1852364140125
 20
253.3739742994098
 30
0.0
 10
488.3977003148066
 20
253.2562421267904
 30
0.0
 10
488.7237233300863
 20
253.1408517892745
 30
0.0
 10
488.8338839738342
 20
253.1123684870957
 30
0.0
 10
489.0565187445538
 20
253.0742928523109
 30
0.0
 10
489.169862799582
 20
253.0647082228739
 30
0.0
 10
489.2823519825888
 20
253.0647082228739
 30
0.0
  0
SPLINE
  5
156
330
1F
100
AcDbEntity
  8
0
  6
Continuous
 62
     7
370
    15
100
AcDbSpline
210
0.0
220
0.0
230
1.0
 70
     8
 71
     3
 72
    18
 73
    14
 74
     0
 42
0.00000001
 43
0.00000001
 40
0.0
 40
0.0
 40
0.0
 40
0.0
 40
0.1249999999999998
 40
0.1249999999999998
 40
0.2499999999999996
 40
0.2499999999999996
 40
0.4999999999999985
 40
0.4999999999999985
 40
0.7499999999999974
 40
0.7499999999999974
 40
0.8749999999999988
 40
0.8749999999999988
 40
1.0
 40
1.0
 40
1.0
 40
1.0
 10
484.2823519825888
 20
255.0647082228738
 30
0.0
 10
484.2823519825888
 20
254.8940949582614
 30
0.0
 10
484.2609462650446
 20
254.7336240026213
 30
0.0
 10
484.1854452280408
 20
254.4301310450759
 30
0.0
 10
484.130818798985
 20
254.2876928754895
 30
0.0
 10
483.9360738034487
 20
253.903874976982
 30
0.0
 10
483.7611993004151
 20
253.6953089453355
 30
0.0
 10
483.3794675511651
 20
253.3739742994098
 30
0.0
 10
483.167003650371
 20
253.2562421267904
 30
0.0
 10
482.8409806350912
 20
253.1408517892745
 30
0.0
 10
482.7308199913434
 20
253.1123684870957
 30
0.0
 10
482.5081852206238
 20
253.0742928523109
 30
0.0
 10
482.3948411655956
 20
253.0647082228739
 30
0.0
 10
482.2823519825888
 20
253.0647082228739
 30
0.0
  0
LINE
  5
157
330
1F
100
AcDbEntity
  8
0
  6
Continuous
 62
     7
370
    15
100
AcDbLine
 10
484.2823519696
 20
256.0647088487
 30
0.0
 11
484.2823519696
 21
255.0647068222
 31
0.0
  0
LINE
  5
158
330
1F
100
AcDbEntity
  8
0
  6
Continuous
 62
     7
370
    15
100
AcDbLine
 10
487.2823519956
 20
256.0647088487
 30
0.0
 11
487.2823519956
 21
255.0647068222
 31
0.0
  0
LINE
  5
159
330
1F
100
AcDbEntity
  8
0
  6
Continuous
 62
     7
370
    15
100
AcDbLine
 10
484.2823519696
 20
264.0897143085
 30
0.0
 11
484.2823519696
 21
256.0647088487
 31
0.0
  0
LINE
  5
15A
330
1F
100
AcDbEntity
  8
0
  6
Continuous
 62
     7
370
    15
100
AcDbLine
 10
487.2823519956
 20
264.0897143085
 30
0.0
 11
487.2823519956
 21
256.0647088487
 31
0.0
  0
SPLINE
  5
15B
330
1F
100
AcDbEntity
  8
0
  6
Continuous
 62
     7
370
    15
100
AcDbSpline
210
0.0
220
0.0
230
1.0
 70
     8
 71
     3
 72
    20
 73
    16
 74
     0
 42
0.00000001
 43
0.00000001
 40
0.0
 40
0.0
 40
0.0
 40
0.0
 40
0.125
 40
0.125
 40
0.25
 40
0.25
 40
0.375
 40
0.375
 40
0.5
 40
0.5
 40
0.625
 40
0.625
 40
0.75
 40
0.75
 40
1.0
 40
1.0
 40
1.0
 40
1.0
 10
482.2823519825888
 20
253.0647082228739
 30
0.0
 10
482.3012074566864
 20
253.0647082228739
 30
0.0
 10
482.3198986136442
 20
253.0841144220439
 30
0.0
 10
482.3569560186669
 20
253.1601296796691
 30
0.0
 10
482.3755160617918
 20
253.2176408353212
 30
0.0
 10
482.4112093574056
 20
253.3679732271957
 30
0.0
 10
482.4282664845279
 20
253.4599504782443
 30
0.0
 10
482.4607486064871
 20
253.6771430880679
 30
0.0
 10
482.4762629316746
 20
253.8037047217772
 30
0.0
 10
482.5042253792162
 20
254.0802500093982
 30
0.0
 10
482.5168451552607
 20
254.2310574026436
 30
0.0
 10
482.5392166352516
 20
254.5582198861862
 30
0.0
 10
482.5488225202515
 20
254.7332044348078
 30
0.0
 10
482.5719514637864
 20
255.2744637634452
 30
0.0
 10
482.5802243230144
 20
255.6682725623198
 30
0.0
 10
482.5802243230144
 20
256.0647082228738
 30
0.0
  0
SPLINE
  5
15C
330
1F
100
AcDbEntity
  8
0
  6
Continuous
 62
     7
370
    15
100
AcDbSpline
210
0.0
220
0.0
230
1.0
 70
     8
 71
     3
 72
    22
 73
    18
 74
     0
 42
0.00000001
 43
0.00000001
 40
0.0
 40
0.0
 40
0.0
 40
0.0
 40
0.125
 40
0.125
 40
0.25
 40
0.25
 40
0.375
 40
0.375
 40
0.5
 40
0.5
 40
0.625
 40
0.625
 40
0.75
 40
0.75
 40
0.875
 40
0.875
 40
1.0
 40
1.0
 40
1.0
 40
1.0
 10
488.9844796421633
 20
256.0647082228738
 30
0.0
 10
488.9844796421633
 20
255.8665336924338
 30
0.0
 10
488.9864939495789
 20
255.6716484576298
 30
0.0
 10
488.9943699187488
 20
255.2881917010409
 30
0.0
 10
489.000328063517
 20
255.0976308215653
 30
0.0
 10
489.0158072076687
 20
254.7344987327374
 30
0.0
 10
489.0252581103465
 20
254.5621964301619
 30
0.0
 10
489.0474796162374
 20
254.235995190781
 30
0.0
 10
489.0603455498602
 20
254.081756386941
 30
0.0
 10
489.0882709922477
 20
253.8051978007686
 30
0.0
 10
489.1034363824103
 20
253.6809902786668
 30
0.0
 10
489.136149425802
 20
253.4615087073917
 30
0.0
 10
489.1533794049189
 20
253.368642302886
 30
0.0
 10
489.1888190643187
 20
253.2190129327052
 30
0.0
 10
489.207265971935
 20
253.1613201860723
 30
0.0
 10
489.2447113087284
 20
253.0841085718014
 30
0.0
 10
489.2635005998886
 20
253.0647082228739
 30
0.0
 10
489.2823519825888
 20
253.0647082228739
 30
0.0
  0
SPLINE
  5
15D
330
1F
100
AcDbEntity
  8
0
  6
Continuous
 62
     7
370
    15
100
AcDbSpline
210
0.0
220
0.0
230
1.0
 70
     8
 71
     3
 72
     9
 73
     5
 74
     0
 42
0.00000001
 43
0.00000001
 40
0.0
 40
0.0
 40
0.0
 40
0.0
 40
0.3272159033985239
 40
1.0
 40
1.0
 40
1.0
 40
1.0
 10
462.1164935499382
 20
326.6807641286927
 30
0.0
 10
462.1879333406299
 20
327.2359622610053
 30
0.0
 10
462.4062594976098
 20
328.9326955998994
 30
0.0
 10
462.9796853931441
 20
330.5488278766672
 30
0.0
 10
463.365477216239
 20
331.636135970481
 30
0.0
  0
SPLINE
  5
15E
330
1F
100
AcDbEntity
  8
0
  6
Continuous
 62
     7
370
    15
100
AcDbSpline
210
0.0
220
0.0
230
1.0
 70
     8
 71
     3
 72
     9
 73
     5
 74
     0
 42
0.00000001
 43
0.00000001
 40
0.0
 40
0.0
 40
0.0
 40
0.0
 40
0.568582321355872
 40
1.0
 40
1.0
 40
1.0
 40
1.0
 10
508.1992900788737
 20
331.6360391129332
 30
0.0
 10
508.5236585544609
 20
330.7157609007438
 30
0.0
 10
509.0941449438614
 20
329.0972121389833
 30
0.0
 10
509.3614384469059
 20
327.4030527459773
 30
0.0
 10
509.4767535895062
 20
326.6721624333936
 30
0.0
  0
SPLINE
  5
15F
330
1F
100
AcDbEntity
  8
0
  6
Continuous
 62
     7
370
    15
100
AcDbSpline
210
0.0
220
0.0
230
1.0
 70
     8
 71
     3
 72
     8
 73
     4
 74
     0
 42
0.00000001
 43
0.00000001
 40
0.0
 40
0.0
 40
0.0
 40
0.0
 40
1.0
 40
1.0
 40
1.0
 40
1.0
 10
482.5802243230144
 20
262.2747932373497
 30
0.0
 10
482.5802243230143
 20
262.8014787744515
 30
0.0
 10
482.5762415124681
 20
263.3191141059262
 30
0.0
 10
482.5684154413157
 20
263.8277075079647
 30
0.0
  0
SPLINE
  5
160
330
1F
100
AcDbEntity
  8
0
  6
Continuous
 62
     7
370
    15
100
AcDbSpline
210
0.0
220
0.0
230
1.0
 70
     8
 71
     3
 72
     8
 73
     4
 74
     0
 42
0.00000001
 43
0.00000001
 40
0.0
 40
0.0
 40
0.0
 40
0.0
 40
1.0
 40
1.0
 40
1.0
 40
1.0
 10
488.9962885238618
 20
263.8277075079647
 30
0.0
 10
488.9884624527094
 20
263.3191141059262
 30
0.0
 10
488.9844796421633
 20
262.8014787744515
 30
0.0
 10
488.9844796421633
 20
262.2747932373497
 30
0.0
  0
LINE
  5
161
330
1F
100
AcDbEntity
  8
0
  6
Continuous
 62
     7
370
    15
100
AcDbLine
 10
482.5802242242
 20
256.0647088487
 30
0.0
 11
482.5802242242
 21
262.2747938533
 31
0.0
  0
LINE
  5
162
330
1F
100
AcDbEntity
  8
0
  6
Continuous
 62
     7
370
    15
100
AcDbLine
 10
488.984479741
 20
262.2747938533
 30
0.0
 11
488.984479741
 21
256.0647088487
 31
0.0
  0
LINE
  5
163
330
1F
100
AcDbEntity
  8
0
  6
Continuous
 62
     7
370
    15
100
AcDbLine
 10
478.9423520535
 20
356.0647066135
 30
0.0
 11
492.6223519117
 21
356.0647066135
 31
0.0
  0
LINE
  5
164
330
1F
100
AcDbEntity
  8
0
  6
Continuous
 62
     7
370
    15
100
AcDbLine
 10
459.4622074485
 20
345.5647076864
 30
0.0
 11
457.1823521376
 21
345.5647076864
 31
0.0
  0
LINE
  5
165
330
1F
100
AcDbEntity
  8
0
  6
Continuous
 62
     7
370
    15
100
AcDbLine
 10
457.1823521376
 20
345.5647076864
 30
0.0
 11
457.1823521376
 21
356.0647066135
 31
0.0
  0
LINE
  5
166
330
1F
100
AcDbEntity
  8
0
  6
Continuous
 62
     7
370
    15
100
AcDbLine
 10
457.1823521376
 20
356.0647066135
 30
0.0
 11
478.9423520535
 21
356.0647066135
 31
0.0
  0
LINE
  5
167
330
1F
100
AcDbEntity
  8
0
  6
Continuous
 62
     7
370
    15
100
AcDbLine
 10
514.3823518276
 20
345.5647076864
 30
0.0
 11
514.3823518276
 21
356.0647066135
 31
0.0
  0
LINE
  5
168
330
1F
100
AcDbEntity
  8
0
  6
Continuous
 62
     7
370
    15
100
AcDbLine
 10
514.3823518276
 20
345.5647076864
 30
0.0
 11
512.1024965167
 21
345.5647076864
 31
0.0
  0
LINE
  5
169
330
1F
100
AcDbEntity
  8
0
  6
Continuous
 62
     7
370
    15
100
AcDbLine
 10
492.6223519117
 20
356.0647066135
 30
0.0
 11
514.3823518276
 21
356.0647066135
 31
0.0
  0
SPLINE
  5
16A
330
1F
100
AcDbEntity
  8
0
  6
Continuous
 62
     7
370
    15
100
AcDbSpline
210
0.0
220
0.0
230
1.0
 70
     8
 71
     3
 72
    10
 73
     6
 74
     0
 42
0.00000001
 43
0.00000001
 40
0.0
 40
0.0
 40
0.0
 40
0.0
 40
0.0722149212541792
 40
0.9523400034639586
 40
1.0
 40
1.0
 40
1.0
 40
1.0
 10
509.4989730834914
 20
291.4421107072907
 30
0.0
 10
509.4865000968693
 20
291.3439104128095
 30
0.0
 10
509.3220115962043
 20
290.0488862382735
 30
0.0
 10
508.9612406492384
 20
288.7147828930612
 30
0.0
 10
508.5613041020679
 20
287.507963352117
 30
0.0
 10
508.5407595008564
 20
287.4459694523889
 30
0.0
  0
SPLINE
  5
16B
330
1F
100
AcDbEntity
  8
0
  6
Continuous
 62
     7
370
    15
100
AcDbSpline
210
0.0
220
0.0
230
1.0
 70
     8
 71
     3
 72
     9
 73
     5
 74
     0
 42
0.00000001
 43
0.00000001
 40
0.0
 40
0.0
 40
0.0
 40
0.0
 40
0.4316073389663197
 40
1.0
 40
1.0
 40
1.0
 40
1.0
 10
463.0239370137406
 20
287.4459694523889
 30
0.0
 10
462.8429457427717
 20
288.0119944861427
 30
0.0
 10
462.4236033112867
 20
289.3234296325176
 30
0.0
 10
462.2231253940204
 20
290.6866778271824
 30
0.0
 10
462.1091752171469
 20
291.4615380961972
 30
0.0
  0
LINE
  5
16C
330
1F
100
AcDbEntity
  8
0
  6
Continuous
 62
     7
370
    15
100
AcDbLine
 10
457.1823521376
 20
345.5647076864
 30
0.0
 11
450.7823518336
 21
345.5647076864
 31
0.0
  0
LINE
  5
16D
330
1F
100
AcDbEntity
  8
0
  6
Continuous
 62
     7
370
    15
100
AcDbLine
 10
450.7823518336
 20
356.0647066135
 30
0.0
 11
457.1823521376
 21
356.0647066135
 31
0.0
  0
LINE
  5
16E
330
1F
100
AcDbEntity
  8
0
  6
Continuous
 62
     7
370
    15
100
AcDbLine
 10
520.7823521316
 20
345.5647076864
 30
0.0
 11
514.3823518276
 21
345.5647076864
 31
0.0
  0
LINE
  5
16F
330
1F
100
AcDbEntity
  8
0
  6
Continuous
 62
     7
370
    15
100
AcDbLine
 10
514.3823518276
 20
356.0647066135
 30
0.0
 11
520.7823521316
 21
356.0647066135
 31
0.0
  0
SPLINE
  5
170
330
1F
100
AcDbEntity
  8
0
  6
Continuous
 62
     7
370
    15
100
AcDbSpline
210
0.0
220
0.0
230
1.0
 70
     8
 71
     3
 72
     8
 73
     4
 74
     0
 42
0.00000001
 43
0.00000001
 40
0.0
 40
0.0
 40
0.0
 40
0.0
 40
0.0000778667054773
 40
0.0000778667054773
 40
0.0000778667054773
 40
0.0000778667054773
 10
508.4755581768723
 20
287.446480250129
 30
0.0
 10
508.4764853351646
 20
287.4461542161817
 30
0.0
 10
508.4778297199193
 20
287.4459691996233
 30
0.0
 10
508.4797325423987
 20
287.4459691996233
 30
0.0
  0
SPLINE
  5
171
330
1F
100
AcDbEntity
  8
0
  6
Continuous
 62
     7
370
    15
100
AcDbSpline
210
0.0
220
0.0
230
1.0
 70
     8
 71
     3
 72
     8
 73
     4
 74
     0
 42
0.00000001
 43
0.00000001
 40
0.0
 40
0.0
 40
0.0
 40
0.0
 40
0.000076328933924
 40
0.000076328933924
 40
0.000076328933924
 40
0.000076328933924
 10
463.0828355393031
 20
287.4459691996237
 30
0.0
 10
463.0846680105276
 20
287.4459691996237
 30
0.0
 10
463.085963252562
 20
287.4461471559491
 30
0.0
 10
463.086856232618
 20
287.4464610364321
 30
0.0
  0
LINE
  5
172
330
1F
100
AcDbEntity
  8
0
  6
Continuous
 62
     8
370
    15
100
AcDbLine
 10
489.6460552093
 20
395.7073460717
 30
0.0
 11
481.9186487559
 21
395.7073460717
 31
0.0
  0
LINE
  5
173
330
1F
100
AcDbEntity
  8
0
  6
Continuous
 62
     8
370
    15
100
AcDbLine
 10
489.7823521726
 20
394.6720729966
 30
0.0
 11
481.7823517926
 21
394.6720729966
 31
0.0
  0
LINE
  5
174
330
1F
100
AcDbEntity
  8
0
  6
Continuous
 62
     8
370
    15
100
AcDbLine
 10
489.4186485883
 20
396.5560417075
 30
0.0
 11
482.1460553769
 21
396.5560417075
 31
0.0
  0
LINE
  5
175
330
1F
100
AcDbEntity
  8
0
  6
Continuous
 62
     8
370
    15
100
AcDbLine
 10
489.2823520906
 20
397.5913147826
 30
0.0
 11
482.2823518746
 21
397.5913147826
 31
0.0
  0
LINE
  5
176
330
1F
100
AcDbEntity
  8
0
  6
Continuous
 62
     8
370
    15
100
AcDbLine
 10
482.5684155196
 20
263.8277071912
 30
0.0
 11
482.567011318
 21
264.2714935739
 31
0.0
  0
LINE
  5
177
330
1F
100
AcDbEntity
  8
0
  6
Continuous
 62
     8
370
    15
100
AcDbLine
 10
488.9976730894
 20
264.2653431196
 30
0.0
 11
488.9962884456
 21
263.8277071912
 31
0.0
  0
LINE
  5
178
330
1F
100
AcDbEntity
  8
0
  6
Continuous
 62
     8
370
    15
100
AcDbLine
 10
492.6223519117
 20
353.54183199
 30
0.0
 11
492.6223519117
 21
356.0647066135
 31
0.0
  0
LINE
  5
179
330
1F
100
AcDbEntity
  8
0
  6
Continuous
 62
     8
370
    15
100
AcDbLine
 10
478.9423520535
 20
353.54183199
 30
0.0
 11
478.9423520535
 21
356.0647066135
 31
0.0
  0
LINE
  5
17A
330
1F
100
AcDbEntity
  8
0
  6
Continuous
 62
     8
370
    15
100
AcDbLine
 10
457.9117229998
 20
344.3949777086
 30
0.0
 11
457.1823521376
 21
345.5647076864
 31
0.0
  0
LINE
  5
17B
330
1F
100
AcDbEntity
  8
0
  6
Continuous
 62
     8
370
    15
100
AcDbLine
 10
513.6529809654
 20
344.3949777086
 30
0.0
 11
514.3823518276
 21
345.5647076864
 31
0.0
  0
LINE
  5
17C
330
1F
100
AcDbEntity
  8
0
  6
Continuous
 62
     7
370
    15
100
AcDbLine
 10
98.976961111
 20
313.1756517489
 30
0.0
 11
98.976961111
 21
318.1986338843
 31
0.0
  0
LINE
  5
17D
330
1F
100
AcDbEntity
  8
0
  6
Continuous
 62
     7
370
    15
100
AcDbLine
 10
98.976961111
 20
369.0647068818
 30
0.0
 11
98.976961111
 21
394.6720729966
 31
0.0
  0
LINE
  5
17E
330
1F
100
AcDbEntity
  8
0
  6
Continuous
 62
     7
370
    15
100
AcDbLine
 10
90.976960731
 20
394.6720729966
 30
0.0
 11
90.976960731
 21
369.0647068818
 31
0.0
  0
LINE
  5
17F
330
1F
100
AcDbEntity
  8
0
  6
Continuous
 62
     7
370
    15
100
AcDbLine
 10
90.976960731
 20
318.1399968837
 30
0.0
 11
90.976960731
 21
313.1771660794
 31
0.0
  0
ARC
  5
180
330
1F
100
AcDbEntity
  8
0
  6
Continuous
 62
     7
370
    15
100
AcDbCircle
 10
94.976960921
 20
394.6720728287
 30
0.0
 40
4.000000000000011
100
AcDbArc
 50
165.0
 51
180.0
  0
ARC
  5
181
330
1F
100
AcDbEntity
  8
0
  6
Continuous
 62
     7
370
    15
100
AcDbCircle
 10
94.976960921
 20
394.6720728287
 30
0.0
 40
4.0
100
AcDbArc
 50
0.0
 51
15.0
  0
LINE
  5
182
330
1F
100
AcDbEntity
  8
0
  6
Continuous
 62
     7
370
    15
100
AcDbLine
 10
98.8406641477
 20
395.7073460717
 30
0.0
 11
98.6132575267
 21
396.5560417075
 31
0.0
  0
LINE
  5
183
330
1F
100
AcDbEntity
  8
0
  6
Continuous
 62
     7
370
    15
100
AcDbLine
 10
91.3406643153
 20
396.5560417075
 30
0.0
 11
91.1132576943
 21
395.7073460717
 31
0.0
  0
ARC
  5
184
330
1F
100
AcDbEntity
  8
0
  6
Continuous
 62
     7
370
    15
100
AcDbCircle
 10
102.476960921
 20
397.5913182132
 30
0.0
 40
4.0
100
AcDbArc
 50
180.0
 51
195.0
  0
ARC
  5
185
330
1F
100
AcDbEntity
  8
0
  6
Continuous
 62
     7
370
    15
100
AcDbCircle
 10
87.476960921
 20
397.5913182132
 30
0.0
 40
4.000000000000014
100
AcDbArc
 50
345.0
 51
0.0
  0
LINE
  5
186
330
1F
100
AcDbEntity
  8
0
  6
Continuous
 62
     7
370
    15
100
AcDbLine
 10
98.4769610291
 20
397.5913147826
 30
0.0
 11
98.4769610291
 21
400.5647073884
 31
0.0
  0
LINE
  5
187
330
1F
100
AcDbEntity
  8
0
  6
Continuous
 62
     7
370
    15
100
AcDbLine
 10
91.476960813
 20
400.5647073884
 30
0.0
 11
91.476960813
 21
397.5913147826
 31
0.0
  0
LINE
  5
188
330
1F
100
AcDbEntity
  8
0
  6
Continuous
 62
     7
370
    15
100
AcDbLine
 10
98.4769610291
 20
418.5147057672
 30
0.0
 11
96.9269608681
 21
420.0647096534
 31
0.0
  0
LINE
  5
189
330
1F
100
AcDbEntity
  8
0
  6
Continuous
 62
     7
370
    15
100
AcDbLine
 10
93.0269609739
 20
420.0647096534
 30
0.0
 11
91.476960813
 21
418.5147057672
 31
0.0
  0
LINE
  5
18A
330
1F
100
AcDbEntity
  8
0
  6
Continuous
 62
     7
370
    15
100
AcDbLine
 10
98.4769610291
 20
416.5147091646
 30
0.0
 11
98.4769610291
 21
418.5147057672
 31
0.0
  0
LINE
  5
18B
330
1F
100
AcDbEntity
  8
0
  6
Continuous
 62
     7
370
    15
100
AcDbLine
 10
91.476960813
 20
418.5147057672
 30
0.0
 11
91.476960813
 21
416.5147091646
 31
0.0
  0
LINE
  5
18C
330
1F
100
AcDbEntity
  8
0
  6
Continuous
 62
     7
370
    15
100
AcDbLine
 10
98.4769610291
 20
403.5647060175
 30
0.0
 11
98.4769610291
 21
413.4647096891
 31
0.0
  0
LINE
  5
18D
330
1F
100
AcDbEntity
  8
0
  6
Continuous
 62
     7
370
    15
100
AcDbLine
 10
91.476960813
 20
413.4647096891
 30
0.0
 11
91.476960813
 21
403.5647060175
 31
0.0
  0
LINE
  5
18E
330
1F
100
AcDbEntity
  8
0
  6
Continuous
 62
     7
370
    15
100
AcDbLine
 10
97.9769609471
 20
400.5647073884
 30
0.0
 11
97.9769609471
 21
403.5647060175
 31
0.0
  0
LINE
  5
18F
330
1F
100
AcDbEntity
  8
0
  6
Continuous
 62
     7
370
    15
100
AcDbLine
 10
91.9769608949
 20
403.5647060175
 30
0.0
 11
91.9769608949
 21
400.5647073884
 31
0.0
  0
LINE
  5
190
330
1F
100
AcDbEntity
  8
0
  6
Continuous
 62
     7
370
    15
100
AcDbLine
 10
96.9269608681
 20
413.4647096891
 30
0.0
 11
96.9269608681
 21
416.5147091646
 31
0.0
  0
LINE
  5
191
330
1F
100
AcDbEntity
  8
0
  6
Continuous
 62
     7
370
    15
100
AcDbLine
 10
93.0269609739
 20
416.5147091646
 30
0.0
 11
93.0269609739
 21
413.4647096891
 31
0.0
  0
LINE
  5
192
330
1F
100
AcDbEntity
  8
0
  6
Continuous
 62
     7
370
    15
100
AcDbLine
 10
109.9569613648
 20
356.0647066135
 30
0.0
 11
109.9569613648
 21
369.0647068818
 31
0.0
  0
LINE
  5
193
330
1F
100
AcDbEntity
  8
0
  6
Continuous
 62
     7
370
    15
100
AcDbLine
 10
79.9969604773
 20
369.0647068818
 30
0.0
 11
79.9969604773
 21
356.0647066135
 31
0.0
  0
SPLINE
  5
194
330
1F
100
AcDbEntity
  8
0
  6
Continuous
 62
     7
370
    15
100
AcDbSpline
210
0.0
220
0.0
230
1.0
 70
     8
 71
     3
 72
    17
 73
    13
 74
     0
 42
0.00000001
 43
0.00000001
 40
0.0
 40
0.0
 40
0.0
 40
0.0
 40
0.0905991279577158
 40
0.2081926719145252
 40
0.317284612254379
 40
0.4078233406197778
 40
0.4806518510724476
 40
0.5712241238399732
 40
0.6742078751199176
 40
0.8062340436950868
 40
0.9260569534960399
 40
1.0
 40
1.0
 40
1.0
 40
1.0
 10
103.8897039902516
 20
313.5273605969327
 30
0.0
 10
103.3555142060541
 20
313.4769030907864
 30
0.0
 10
102.1279703986412
 20
313.3609540385211
 30
0.0
 10
100.2449472642774
 20
313.2321145373231
 30
0.0
 10
98.3570994527056
 20
313.1381328446358
 30
0.0
 10
96.73017934858181
 20
313.0899241297267
 30
0.0
 10
95.20931304061699
 20
313.0705739937384
 30
0.0
 10
93.60959244274186
 20
313.0805615031126
 30
0.0
 10
91.66804342916988
 20
313.1322398809206
 30
0.0
 10
89.56682266931347
 20
313.2393285285462
 30
0.0
 10
87.64671503084308
 20
313.3743110831323
 30
0.0
 10
86.51088296654967
 20
313.4866144202165
 30
0.0
 10
86.07743797573522
 20
313.5294705082255
 30
0.0
  0
SPLINE
  5
195
330
1F
100
AcDbEntity
  8
0
  6
Continuous
 62
     7
370
    15
100
AcDbSpline
210
0.0
220
0.0
230
1.0
 70
     8
 71
     3
 72
    35
 73
    31
 74
     0
 42
0.00000001
 43
0.00000001
 40
0.0
 40
0.0
 40
0.0
 40
0.0
 40
0.0205086402741914
 40
0.0596806180165965
 40
0.0913673459289447
 40
0.1049385705429357
 40
0.1180860595953165
 40
0.1466870021979335
 40
0.1797544231852941
 40
0.2147768610380258
 40
0.2484007978053595
 40
0.2799032266650663
 40
0.3411097190116876
 40
0.4028314608020107
 40
0.4657203395265003
 40
0.5282106866503514
 40
0.5897704958180991
 40
0.651598191362805
 40
0.6835340659134264
 40
0.7159357208106567
 40
0.7487904732534336
 40
0.7798507000966998
 40
0.7943541417897982
 40
0.8084355584352553
 40
0.8227924479156573
 40
0.8380576666941528
 40
0.8724125873554681
 40
0.912045375896863
 40
0.9553340099156382
 40
1.0
 40
1.0
 40
1.0
 40
1.0
 10
84.97702074918226
 20
309.0206703984645
 30
0.0
 10
84.97700880296806
 20
309.0138215918757
 30
0.0
 10
84.97697403920816
 20
308.993891406138
 30
0.0
 10
84.97693870503768
 20
309.1541578999052
 30
0.0
 10
84.98358075935
 20
309.5044857376759
 30
0.0
 10
85.02111854770104
 20
310.0031861938865
 30
0.0
 10
85.09556010449573
 20
310.6338684015699
 30
0.0
 10
85.29178865261541
 20
311.6199088286069
 30
0.0
 10
85.69710647172977
 20
312.8244832892738
 30
0.0
 10
86.28175844383111
 20
314.015666273586
 30
0.0
 10
87.01039843423868
 20
315.1108217244438
 30
0.0
 10
88.10080523337172
 20
316.374692159753
 30
0.0
 10
89.6969450390135
 20
317.6568045774181
 30
0.0
 10
91.93784032124009
 20
318.6945786793612
 30
0.0
 10
94.38471588730113
 20
319.1539283974215
 30
0.0
 10
96.8665997917584
 20
318.9879595099061
 30
0.0
 10
99.21530210549749
 20
318.2251983952012
 30
0.0
 10
100.9661440947091
 20
317.1310947315334
 30
0.0
 10
102.1916379549589
 20
316.0028026853655
 30
0.0
 10
103.0154666741319
 20
315.0253364420977
 30
0.0
 10
103.7007241111868
 20
313.9715560908763
 30
0.0
 10
104.1572299481004
 20
313.0339717443134
 30
0.0
 10
104.4322094231843
 20
312.3081676706478
 30
0.0
 10
104.5903845674291
 20
311.8082036047858
 30
0.0
 10
104.7067407661544
 20
311.3649238650434
 30
0.0
 10
104.8234875915416
 20
310.8261869129658
 30
0.0
 10
104.9050030927115
 20
310.2883009034381
 30
0.0
 10
104.9515292692138
 20
309.8043396321054
 30
0.0
 10
104.9733291776605
 20
309.4390691313183
 30
0.0
 10
104.9757734430863
 20
309.3575132029823
 30
0.0
 10
104.977014714212
 20
309.3160966620839
 30
0.0
  0
LINE
  5
196
330
1F
100
AcDbEntity
  8
0
  6
Continuous
 62
     7
370
    15
100
AcDbLine
 10
85.0011820507
 20
309.0478870001
 30
0.0
 11
84.9868536529
 21
309.2548214865
 31
0.0
  0
LINE
  5
197
330
1F
100
AcDbEntity
  8
0
  6
Continuous
 62
     7
370
    15
100
AcDbLine
 10
49.9769591329
 20
253.0647064943
 30
0.0
 11
49.9769591329
 21
241.0647045274
 31
0.0
  0
LINE
  5
198
330
1F
100
AcDbEntity
  8
0
  6
Continuous
 62
     7
370
    15
100
AcDbLine
 10
139.9769627092
 20
241.0647045274
 30
0.0
 11
139.9769627092
 21
253.0647064943
 31
0.0
  0
ARC
  5
199
330
1F
100
AcDbEntity
  8
0
  6
Continuous
 62
     7
370
    15
100
AcDbCircle
 10
122.476960921
 20
285.8587319031
 30
0.0
 40
5.000000000000071
100
AcDbArc
 50
161.4913719231
 51
180.0
  0
ARC
  5
19A
330
1F
100
AcDbEntity
  8
0
  6
Continuous
 62
     7
370
    15
100
AcDbCircle
 10
67.476960921
 20
285.8587319031
 30
0.0
 40
5.000000000000071
100
AcDbArc
 50
0.0
 51
18.5086280769
  0
ARC
  5
19B
330
1F
100
AcDbEntity
  8
0
  6
Continuous
 62
     7
370
    15
100
AcDbCircle
 10
111.476960921
 20
267.586674016
 30
0.0
 40
5.999999999999829
100
AcDbArc
 50
345.0
 51
360.0
  0
ARC
  5
19C
330
1F
100
AcDbEntity
  8
0
  6
Continuous
 62
     7
370
    15
100
AcDbCircle
 10
78.476960921
 20
267.586674016
 30
0.0
 40
5.999999999999829
100
AcDbArc
 50
180.0
 51
195.0
  0
LINE
  5
19D
330
1F
100
AcDbEntity
  8
0
  6
Continuous
 62
     7
370
    15
100
AcDbLine
 10
117.4769618151
 20
267.586674114
 30
0.0
 11
117.4769618151
 21
270.0935635169
 31
0.0
  0
LINE
  5
19E
330
1F
100
AcDbEntity
  8
0
  6
Continuous
 62
     7
370
    15
100
AcDbLine
 10
117.4769618151
 20
280.6048090954
 30
0.0
 11
117.4769618151
 21
285.8587312896
 31
0.0
  0
LINE
  5
19F
330
1F
100
AcDbEntity
  8
0
  6
Continuous
 62
     7
370
    15
100
AcDbLine
 10
72.476960027
 20
285.8587312896
 30
0.0
 11
72.476960027
 21
280.6048090954
 31
0.0
  0
LINE
  5
1A0
330
1F
100
AcDbEntity
  8
0
  6
Continuous
 62
     7
370
    15
100
AcDbLine
 10
72.476960027
 20
270.0935635169
 30
0.0
 11
72.476960027
 21
267.586674114
 31
0.0
  0
LINE
  5
1A1
330
1F
100
AcDbEntity
  8
0
  6
Continuous
 62
     7
370
    15
100
AcDbLine
 10
116.6814055828
 20
263.8277071912
 30
0.0
 11
117.2725160209
 21
266.0337607761
 31
0.0
  0
LINE
  5
1A2
330
1F
100
AcDbEntity
  8
0
  6
Continuous
 62
     7
370
    15
100
AcDbLine
 10
72.6814058212
 20
266.0337607761
 30
0.0
 11
73.2725162593
 21
263.8277071912
 31
0.0
  0
ARC
  5
1A3
330
1F
100
AcDbEntity
  8
0
  6
Continuous
 62
     7
370
    15
100
AcDbCircle
 10
122.476960921
 20
262.2747932373
 30
0.0
 40
5.99999999999939
100
AcDbArc
 50
165.0
 51
172.4349057251
  0
ARC
  5
1A4
330
1F
100
AcDbEntity
  8
0
  6
Continuous
 62
     7
370
    15
100
AcDbCircle
 10
67.476960921
 20
262.2747932373
 30
0.0
 40
5.99999999999939
100
AcDbArc
 50
7.5650942749
 51
15.0
  0
SPLINE
  5
1A5
330
1F
100
AcDbEntity
  8
0
  6
Continuous
 62
     7
370
    15
100
AcDbSpline
210
0.0
220
0.0
230
1.0
 70
     8
 71
     3
 72
    10
 73
     6
 74
     0
 42
0.00000001
 43
0.00000001
 40
0.0
 40
0.0
 40
0.0
 40
0.0
 40
0.3199087968708099
 40
0.9567429212217157
 40
1.0
 40
1.0
 40
1.0
 40
1.0
 10
115.7158606288143
 20
335.5101398576575
 30
0.0
 10
115.641832292922
 20
335.6310707213109
 30
0.0
 10
115.4204376734946
 20
335.9927355110552
 30
0.0
 10
115.2477145651062
 20
336.4110320845624
 30
0.0
 10
115.1912488001643
 20
336.7076900238862
 30
0.0
 10
115.1876573053308
 20
336.7265588988143
 30
0.0
  0
SPLINE
  5
1A6
330
1F
100
AcDbEntity
  8
0
  6
Continuous
 62
     7
370
    15
100
AcDbSpline
210
0.0
220
0.0
230
1.0
 70
     8
 71
     3
 72
     9
 73
     5
 74
     0
 42
0.00000001
 43
0.00000001
 40
0.0
 40
0.0
 40
0.0
 40
0.0
 40
0.5337732565136587
 40
0.9999999999999999
 40
0.9999999999999999
 40
0.9999999999999999
 40
0.9999999999999999
 10
74.75586166355089
 20
336.7053135682422
 30
0.0
 10
74.68894054420699
 20
336.4783048245932
 30
0.0
 10
74.56356686066762
 20
336.0530142337313
 30
0.0
 10
74.33984198610686
 20
335.670853142896
 30
0.0
 10
74.23553546640352
 20
335.4926794220286
 30
0.0
  0
SPLINE
  5
1A7
330
1F
100
AcDbEntity
  8
0
  6
Continuous
 62
     7
370
    15
100
AcDbSpline
210
0.0
220
0.0
230
1.0
 70
     8
 71
     3
 72
    10
 73
     6
 74
     0
 42
0.00000001
 43
0.00000001
 40
0.0
 40
0.0
 40
0.0
 40
0.0
 40
0.262191599142111
 40
0.7170193240418041
 40
1.0
 40
1.0
 40
1.0
 40
1.0
 10
117.4935989615627
 20
331.8377170164662
 30
0.0
 10
117.3648915338186
 20
332.1707170130578
 30
0.0
 10
117.0129133882863
 20
333.0813771304806
 30
0.0
 10
116.4080363435949
 20
334.3052407129057
 30
0.0
 10
115.8865735385389
 20
335.1638842304007
 30
0.0
 10
115.6865705338426
 20
335.4932102758962
 30
0.0
  0
SPLINE
  5
1A8
330
1F
100
AcDbEntity
  8
0
  6
Continuous
 62
     7
370
    15
100
AcDbSpline
210
0.0
220
0.0
230
1.0
 70
     8
 71
     3
 72
    10
 73
     6
 74
     0
 42
0.00000001
 43
0.00000001
 40
0.0
 40
0.0
 40
0.0
 40
0.0
 40
0.162567233219557
 40
0.6235707284146207
 40
1.0
 40
1.0
 40
1.0
 40
1.0
 10
74.27141001197771
 20
335.4991968174058
 30
0.0
 10
74.15348648427128
 20
335.3130161506786
 30
0.0
 10
73.70115880043963
 20
334.5988696915888
 30
0.0
 10
73.08517090196995
 20
333.3869874780323
 30
0.0
 10
72.65594673843933
 20
332.3361291390178
 30
0.0
 10
72.46300881478265
 20
331.8637642462331
 30
0.0
  0
LINE
  5
1A9
330
1F
100
AcDbEntity
  8
0
  6
Continuous
 62
     7
370
    15
100
AcDbLine
 10
124.9278404352
 20
342.6495972474
 30
0.0
 11
129.97696107
 21
345.5647076864
 31
0.0
  0
LINE
  5
1AA
330
1F
100
AcDbEntity
  8
0
  6
Continuous
 62
     7
370
    15
100
AcDbLine
 10
129.97696107
 20
345.5647076864
 30
0.0
 11
129.97696107
 21
356.0647066135
 31
0.0
  0
LINE
  5
1AB
330
1F
100
AcDbEntity
  8
0
  6
Continuous
 62
     7
370
    15
100
AcDbLine
 10
59.976960772
 20
345.5647076864
 30
0.0
 11
65.0260814068
 21
342.6495972474
 31
0.0
  0
LINE
  5
1AC
330
1F
100
AcDbEntity
  8
0
  6
Continuous
 62
     7
370
    15
100
AcDbLine
 10
59.976960772
 20
356.0647066135
 30
0.0
 11
59.976960772
 21
345.5647076864
 31
0.0
  0
LINE
  5
1AD
330
1F
100
AcDbEntity
  8
0
  6
Continuous
 62
     7
370
    15
100
AcDbLine
 10
96.501343774
 20
400.5647073884
 30
0.0
 11
91.476960813
 21
400.5647073884
 31
0.0
  0
LINE
  5
1AE
330
1F
100
AcDbEntity
  8
0
  6
Continuous
 62
     7
370
    15
100
AcDbLine
 10
98.4769610291
 20
400.5647073884
 30
0.0
 11
96.501343774
 21
400.5647073884
 31
0.0
  0
LINE
  5
1AF
330
1F
100
AcDbEntity
  8
0
  6
Continuous
 62
     7
370
    15
100
AcDbLine
 10
95.8262599374
 20
420.0647096534
 30
0.0
 11
93.0269609739
 21
420.0647096534
 31
0.0
  0
LINE
  5
1B0
330
1F
100
AcDbEntity
  8
0
  6
Continuous
 62
     7
370
    15
100
AcDbLine
 10
96.9269608681
 20
420.0647096534
 30
0.0
 11
95.8262599374
 21
420.0647096534
 31
0.0
  0
LINE
  5
1B1
330
1F
100
AcDbEntity
  8
0
  6
Continuous
 62
     7
370
    15
100
AcDbLine
 10
96.501343774
 20
418.5147057672
 30
0.0
 11
91.476960813
 21
418.5147057672
 31
0.0
  0
LINE
  5
1B2
330
1F
100
AcDbEntity
  8
0
  6
Continuous
 62
     7
370
    15
100
AcDbLine
 10
98.4769610291
 20
418.5147057672
 30
0.0
 11
96.501343774
 21
418.5147057672
 31
0.0
  0
LINE
  5
1B3
330
1F
100
AcDbEntity
  8
0
  6
Continuous
 62
     7
370
    15
100
AcDbLine
 10
96.501343774
 20
416.5147091646
 30
0.0
 11
91.476960813
 21
416.5147091646
 31
0.0
  0
LINE
  5
1B4
330
1F
100
AcDbEntity
  8
0
  6
Continuous
 62
     7
370
    15
100
AcDbLine
 10
98.4769610291
 20
416.5147091646
 30
0.0
 11
96.501343774
 21
416.5147091646
 31
0.0
  0
LINE
  5
1B5
330
1F
100
AcDbEntity
  8
0
  6
Continuous
 62
     7
370
    15
100
AcDbLine
 10
96.501343774
 20
403.5647060175
 30
0.0
 11
91.476960813
 21
403.5647060175
 31
0.0
  0
LINE
  5
1B6
330
1F
100
AcDbEntity
  8
0
  6
Continuous
 62
     7
370
    15
100
AcDbLine
 10
98.4769610291
 20
403.5647060175
 30
0.0
 11
96.501343774
 21
403.5647060175
 31
0.0
  0
LINE
  5
1B7
330
1F
100
AcDbEntity
  8
0
  6
Continuous
 62
     7
370
    15
100
AcDbLine
 10
96.501343774
 20
413.4647096891
 30
0.0
 11
91.476960813
 21
413.4647096891
 31
0.0
  0
LINE
  5
1B8
330
1F
100
AcDbEntity
  8
0
  6
Continuous
 62
     7
370
    15
100
AcDbLine
 10
98.4769610291
 20
413.4647096891
 30
0.0
 11
96.501343774
 21
413.4647096891
 31
0.0
  0
LINE
  5
1B9
330
1F
100
AcDbEntity
  8
0
  6
Continuous
 62
     7
370
    15
100
AcDbLine
 10
86.0103343216
 20
369.0647068818
 30
0.0
 11
79.9969604773
 21
369.0647068818
 31
0.0
  0
LINE
  5
1BA
330
1F
100
AcDbEntity
  8
0
  6
Continuous
 62
     7
370
    15
100
AcDbLine
 10
86.0103343216
 20
369.0647068818
 30
0.0
 11
86.0103343216
 21
362.064707597
 31
0.0
  0
LINE
  5
1BB
330
1F
100
AcDbEntity
  8
0
  6
Continuous
 62
     7
370
    15
100
AcDbLine
 10
103.9435875205
 20
362.064707597
 30
0.0
 11
86.0103343216
 21
362.064707597
 31
0.0
  0
LINE
  5
1BC
330
1F
100
AcDbEntity
  8
0
  6
Continuous
 62
     7
370
    15
100
AcDbLine
 10
103.9435875205
 20
362.064707597
 30
0.0
 11
103.9435875205
 21
369.0647068818
 31
0.0
  0
LINE
  5
1BD
330
1F
100
AcDbEntity
  8
0
  6
Continuous
 62
     7
370
    15
100
AcDbLine
 10
109.9569613648
 20
369.0647068818
 30
0.0
 11
103.9435875205
 21
369.0647068818
 31
0.0
  0
LINE
  5
1BE
330
1F
100
AcDbEntity
  8
0
  6
Continuous
 62
     7
370
    15
100
AcDbLine
 10
103.9435875205
 20
369.0647068818
 30
0.0
 11
86.0103343216
 21
369.0647068818
 31
0.0
  0
LINE
  5
1BF
330
1F
100
AcDbEntity
  8
0
  6
Continuous
 62
     7
370
    15
100
AcDbLine
 10
76.6074203489
 20
239.0647079249
 30
0.0
 11
113.3465014932
 21
239.0647079249
 31
0.0
  0
CIRCLE
  5
1C0
330
1F
100
AcDbEntity
  8
0
  6
Continuous
 62
     7
370
    15
100
AcDbCircle
 10
94.976960921
 20
309.0647082229
 30
0.0
 40
24.99999999999997
  0
CIRCLE
  5
1C1
330
1F
100
AcDbEntity
  8
0
  6
Continuous
 62
     7
370
    15
100
AcDbCircle
 10
94.9769610713
 20
309.0647059421
 30
0.0
 40
9.999999626238594
  0
SPLINE
  5
1C2
330
1F
100
AcDbEntity
  8
0
  6
Continuous
 62
     7
370
    15
100
AcDbSpline
210
0.0
220
0.0
230
1.0
 70
     8
 71
     3
 72
    26
 73
    22
 74
     0
 42
0.00000001
 43
0.00000001
 40
0.0
 40
0.0
 40
0.0
 40
0.0
 40
0.0178272156352225
 40
0.07163341824893
 40
0.1252662205740311
 40
0.1804493458148186
 40
0.2339379595114718
 40
0.289031818137562
 40
0.3417857836163184
 40
0.396071545842583
 40
0.4487341893405984
 40
0.5029622960927215
 40
0.5549843029754147
 40
0.6085327785133037
 40
0.6603189567290048
 40
0.7135583381800672
 40
0.7662421365142795
 40
0.8204333261352927
 40
0.8734123039496435
 40
0.9278872676685428
 40
1.0
 40
1.0
 40
1.0
 40
1.0
 10
85.00710526231006
 20
309.2703141539882
 30
0.0
 10
84.99874732570697
 20
309.0826757581673
 30
0.0
 10
84.9651634177856
 20
308.3287060995045
 30
0.0
 10
85.19134213241912
 20
307.0160486445423
 30
0.0
 10
85.6892031387854
 20
305.3753348028354
 30
0.0
 10
86.4726455559407
 20
303.8453136340359
 30
0.0
 10
87.51168053583332
 20
302.460503074602
 30
0.0
 10
88.75471225624042
 20
301.2907436851642
 30
0.0
 10
90.181893345698
 20
300.3413901759584
 30
0.0
 10
91.72599099921618
 20
299.6559378901824
 30
0.0
 10
93.37829796636156
 20
299.238234685496
 30
0.0
 10
95.05452092928631
 20
299.1092083959429
 30
0.0
 10
96.73674768596788
 20
299.267823344139
 30
0.0
 10
98.34364298180078
 20
299.701879487146
 30
0.0
 10
99.86630702125794
 20
300.4032971616432
 30
0.0
 10
101.2451065698453
 20
301.3415930569491
 30
0.0
 10
102.4691506398425
 20
302.510483287609
 30
0.0
 10
103.4808752722798
 20
303.8662724315462
 30
0.0
 10
104.2512044328385
 20
305.3895270509587
 30
0.0
 10
104.8434102110175
 20
307.1996771103703
 30
0.0
 10
104.9285308704792
 20
308.5350284095242
 30
0.0
 10
104.97702123347
 20
309.2957329156401
 30
0.0
  0
ARC
  5
1C3
330
1F
100
AcDbEntity
  8
0
  6
Continuous
 62
     7
370
    15
100
AcDbCircle
 10
94.976960921
 20
309.0647082229
 30
0.0
 40
26.99999999999995
100
AcDbArc
 50
315.0
 51
45.0
  0
ARC
  5
1C4
330
1F
100
AcDbEntity
  8
0
  6
Continuous
 62
     7
370
    15
100
AcDbCircle
 10
94.976960921
 20
309.0647082229
 30
0.0
 40
26.99999999999995
100
AcDbArc
 50
225.0
 51
315.0
  0
ARC
  5
1C5
330
1F
100
AcDbEntity
  8
0
  6
Continuous
 62
     7
370
    15
100
AcDbCircle
 10
94.976960921
 20
309.0647082229
 30
0.0
 40
26.99999999999996
100
AcDbArc
 50
135.0
 51
225.0
  0
ARC
  5
1C6
330
1F
100
AcDbEntity
  8
0
  6
Continuous
 62
     7
370
    15
100
AcDbCircle
 10
94.976960921
 20
309.0647082229
 30
0.0
 40
26.99999999999996
100
AcDbArc
 50
45.0
 51
135.0
  0
CIRCLE
  5
1C7
330
1F
100
AcDbEntity
  8
0
  6
Continuous
 62
     7
370
    15
100
AcDbCircle
 10
94.976960921
 20
309.0647082229
 30
0.0
 40
44.99999999999997
  0
CIRCLE
  5
1C8
330
1F
100
AcDbEntity
  8
0
  6
Continuous
 62
     7
370
    15
100
AcDbCircle
 10
117.9579313096
 20
332.0456786114
 30
0.0
 40
5.500000000000054
  0
CIRCLE
  5
1C9
330
1F
100
AcDbEntity
  8
0
  6
Continuous
 62
     7
370
    15
100
AcDbCircle
 10
71.9959905325
 20
332.0456786114
 30
0.0
 40
5.500000000000044
  0
CIRCLE
  5
1CA
330
1F
100
AcDbEntity
  8
0
  6
Continuous
 62
     7
370
    15
100
AcDbCircle
 10
71.9959905325
 20
286.0837378343
 30
0.0
 40
5.500000000000054
  0
CIRCLE
  5
1CB
330
1F
100
AcDbEntity
  8
0
  6
Continuous
 62
     7
370
    15
100
AcDbCircle
 10
117.9579313096
 20
286.0837378343
 30
0.0
 40
5.500000000000065
  0
SPLINE
  5
1CC
330
1F
100
AcDbEntity
  8
0
  6
Continuous
 62
     7
370
    15
100
AcDbSpline
210
0.0
220
0.0
230
1.0
 70
     8
 71
     3
 72
    26
 73
    22
 74
     0
 42
0.00000001
 43
0.00000001
 40
0.0
 40
0.0
 40
0.0
 40
0.0
 40
0.0540777912999053
 40
0.1081523004201528
 40
0.1637833146472522
 40
0.2178491636498331
 40
0.2735596027470575
 40
0.3265452958094461
 40
0.3810668191253321
 40
0.4339749949389773
 40
0.4884755005287972
 40
0.5404154207225195
 40
0.593857616600545
 40
0.645891946913199
 40
0.6994030392318221
 40
0.7520368166082123
 40
0.8061720835266306
 40
0.8590882470690985
 40
0.9135277191665091
 40
0.9668315059322576
 40
1.0
 40
1.0
 40
1.0
 40
1.0
 10
104.9670216229864
 20
309.2957329883997
 30
0.0
 10
104.9394570159909
 20
308.7273142672207
 30
0.0
 10
104.884329474997
 20
307.5905113242814
 30
0.0
 10
104.4412438125532
 20
305.9167950422427
 30
0.0
 10
103.7463530389387
 20
304.3366212982705
 30
0.0
 10
102.7757042488644
 20
302.8856556271833
 30
0.0
 10
101.5896536346541
 20
301.6435548994158
 30
0.0
 10
100.2088218553027
 20
300.6157994759596
 30
0.0
 10
98.70031436907598
 20
299.8479402625928
 30
0.0
 10
97.06862226887301
 20
299.3428154073486
 30
0.0
 10
95.40064154316562
 20
299.1280939905714
 30
0.0
 10
93.71595844417698
 20
299.2008236505141
 30
0.0
 10
92.0920710017118
 20
299.5491760305878
 30
0.0
 10
90.53441149724554
 20
300.1697856256225
 30
0.0
 10
89.10836132164766
 20
301.0362162717385
 30
0.0
 10
87.82851678246463
 20
302.1404965223877
 30
0.0
 10
86.75436280892175
 20
303.4379638954146
 30
0.0
 10
85.90339199110295
 20
304.915020489285
 30
0.0
 10
85.32621340596593
 20
306.5049719284095
 30
0.0
 10
85.0149996003658
 20
307.9640340404081
 30
0.0
 10
85.02005783553992
 20
308.8734899283659
 30
0.0
 10
85.02199804160074
 20
309.2223333026108
 30
0.0
  0
SPLINE
  5
1CD
330
1F
100
AcDbEntity
  8
0
  6
Continuous
 62
     7
370
    15
100
AcDbSpline
210
0.0
220
0.0
230
1.0
 70
     8
 71
     3
 72
    18
 73
    14
 74
     0
 42
0.00000001
 43
0.00000001
 40
0.0
 40
0.0
 40
0.0
 40
0.0
 40
0.0114458609915115
 40
0.0851812275912306
 40
0.1896791449434205
 40
0.2971416187384289
 40
0.4034433024588323
 40
0.5127849049251809
 40
0.618487015474239
 40
0.727207787229014
 40
0.8341247268633815
 40
0.9444338511775976
 40
1.0
 40
1.0
 40
1.0
 40
1.0
 10
85.37912299606279
 20
306.8810652860033
 30
0.0
 10
85.42835362834644
 20
306.8146177944838
 30
0.0
 10
85.79473285452477
 20
306.3201090019875
 30
0.0
 10
86.88589762565998
 20
305.4585019222623
 30
0.0
 10
88.63039879762832
 20
304.3605803165435
 30
0.0
 10
90.77376072212152
 20
303.4935018355499
 30
0.0
 10
93.05451125789074
 20
302.9666691305171
 30
0.0
 10
95.38358588911574
 20
302.82966916899
 30
0.0
 10
97.71371325691082
 20
303.1139482419794
 30
0.0
 10
99.95413342022299
 20
303.7641139426887
 30
0.0
 10
102.0703264504626
 20
304.7992488035533
 30
0.0
 10
103.7275488272526
 20
305.9123475040839
 30
0.0
 10
104.5066885555431
 20
306.825512529169
 30
0.0
 10
104.7676906523414
 20
307.1314114297333
 30
0.0
  0
LINE
  5
1CE
330
1F
100
AcDbEntity
  8
0
  6
Continuous
 62
     7
370
    15
100
AcDbLine
 10
49.9769591329
 20
241.0647045274
 30
0.0
 11
139.9769627092
 21
241.0647045274
 31
0.0
  0
LINE
  5
1CF
330
1F
100
AcDbEntity
  8
0
  6
Continuous
 62
     7
370
    15
100
AcDbLine
 10
49.9769591329
 20
253.0647064943
 30
0.0
 11
139.9769627092
 21
253.0647064943
 31
0.0
  0
LINE
  5
1D0
330
1F
100
AcDbEntity
  8
0
  6
Continuous
 62
     7
370
    15
100
AcDbLine
 10
95.4769609448
 20
256.0647088487
 30
0.0
 11
95.4769609448
 21
253.0647064943
 31
0.0
  0
SPLINE
  5
1D1
330
1F
100
AcDbEntity
  8
0
  6
Continuous
 62
     7
370
    15
100
AcDbSpline
210
0.0
220
0.0
230
1.0
 70
     8
 71
     3
 72
    20
 73
    16
 74
     0
 42
0.00000001
 43
0.00000001
 40
0.0
 40
0.0
 40
0.0
 40
0.0
 40
0.1249999999999995
 40
0.1249999999999995
 40
0.249999999999999
 40
0.249999999999999
 40
0.3749999999999985
 40
0.3749999999999985
 40
0.499999999999998
 40
0.499999999999998
 40
0.6249999999999976
 40
0.6249999999999976
 40
0.749999999999997
 40
0.749999999999997
 40
1.0
 40
1.0
 40
1.0
 40
1.0
 10
91.47696092102007
 20
253.0647082228739
 30
0.0
 10
91.49581639511764
 20
253.0647082228739
 30
0.0
 10
91.51450755207549
 20
253.0841144220439
 30
0.0
 10
91.55156495709821
 20
253.1601296796691
 30
0.0
 10
91.57012500022306
 20
253.2176408353212
 30
0.0
 10
91.6058182958369
 20
253.3679732271957
 30
0.0
 10
91.62287542295913
 20
253.4599504782443
 30
0.0
 10
91.65535754491839
 20
253.6771430880679
 30
0.0
 10
91.67087187010587
 20
253.8037047217772
 30
0.0
 10
91.6988343176475
 20
254.0802500093982
 30
0.0
 10
91.71145409369196
 20
254.2310574026436
 30
0.0
 10
91.73382557368286
 20
254.5582198861862
 30
0.0
 10
91.74343145868275
 20
254.7332044348079
 30
0.0
 10
91.76656040221768
 20
255.2744637634452
 30
0.0
 10
91.77483326144561
 20
255.6682725623198
 30
0.0
 10
91.77483326144561
 20
256.0647082228738
 30
0.0
  0
SPLINE
  5
1D2
330
1F
100
AcDbEntity
  8
0
  6
Continuous
 62
     7
370
    15
100
AcDbSpline
210
0.0
220
0.0
230
1.0
 70
     8
 71
     3
 72
    22
 73
    18
 74
     0
 42
0.00000001
 43
0.00000001
 40
0.0
 40
0.0
 40
0.0
 40
0.0
 40
0.125
 40
0.125
 40
0.25
 40
0.25
 40
0.375
 40
0.375
 40
0.5
 40
0.5
 40
0.625
 40
0.625
 40
0.75
 40
0.75
 40
0.875
 40
0.875
 40
1.0
 40
1.0
 40
1.0
 40
1.0
 10
98.17908858059452
 20
256.0647082228738
 30
0.0
 10
98.17908858059452
 20
255.8665336924338
 30
0.0
 10
98.18110288801023
 20
255.6716484576298
 30
0.0
 10
98.18897885718008
 20
255.2881917010409
 30
0.0
 10
98.19493700194832
 20
255.0976308215653
 30
0.0
 10
98.21041614610002
 20
254.7344987327374
 30
0.0
 10
98.21986704877774
 20
254.5621964301619
 30
0.0
 10
98.24208855466868
 20
254.235995190781
 30
0.0
 10
98.25495448829145
 20
254.081756386941
 30
0.0
 10
98.28287993067902
 20
253.8051978007686
 30
0.0
 10
98.29804532084164
 20
253.6809902786668
 30
0.0
 10
98.33075836423332
 20
253.4615087073917
 30
0.0
 10
98.34798834335015
 20
253.368642302886
 30
0.0
 10
98.38342800274998
 20
253.2190129327052
 30
0.0
 10
98.40187491036626
 20
253.1613201860723
 30
0.0
 10
98.43932024715969
 20
253.0841085718014
 30
0.0
 10
98.45810953831996
 20
253.0647082228739
 30
0.0
 10
98.47696092102007
 20
253.0647082228739
 30
0.0
  0
SPLINE
  5
1D3
330
1F
100
AcDbEntity
  8
0
  6
Continuous
 62
     7
370
    15
100
AcDbSpline
210
0.0
220
0.0
230
1.0
 70
     8
 71
     3
 72
     9
 73
     5
 74
     0
 42
0.00000001
 43
0.00000001
 40
0.0
 40
0.0
 40
0.0
 40
0.0
 40
0.4316073389663197
 40
1.0
 40
1.0
 40
1.0
 40
1.0
 10
117.7353758898683
 20
287.4459694523889
 30
0.0
 10
117.9163671608372
 20
288.0119944861427
 30
0.0
 10
118.3357095923221
 20
289.3234296325176
 30
0.0
 10
118.5361875095885
 20
290.6866778271824
 30
0.0
 10
118.650137686462
 20
291.4615380961972
 30
0.0
  0
SPLINE
  5
1D4
330
1F
100
AcDbEntity
  8
0
  6
Continuous
 62
     7
370
    15
100
AcDbSpline
210
0.0
220
0.0
230
1.0
 70
     8
 71
     3
 72
    10
 73
     6
 74
     0
 42
0.00000001
 43
0.00000001
 40
0.0
 40
0.0
 40
0.0
 40
0.0
 40
0.0722149212541792
 40
0.9523400034639586
 40
1.0
 40
1.0
 40
1.0
 40
1.0
 10
71.26033982011751
 20
291.4421107072907
 30
0.0
 10
71.27281280673945
 20
291.3439104128095
 30
0.0
 10
71.43730130740458
 20
290.0488862382735
 30
0.0
 10
71.79807225437044
 20
288.7147828930612
 30
0.0
 10
72.19800880154096
 20
287.507963352117
 30
0.0
 10
72.21855340275243
 20
287.4459694523889
 30
0.0
  0
SPLINE
  5
1D5
330
1F
100
AcDbEntity
  8
0
  6
Continuous
 62
     7
370
    15
100
AcDbSpline
210
0.0
220
0.0
230
1.0
 70
     8
 71
     3
 72
     8
 73
     4
 74
     0
 42
0.00000001
 43
0.00000001
 40
0.0
 40
0.0
 40
0.0
 40
0.0
 40
1.0
 40
1.0
 40
1.0
 40
1.0
 10
98.19089746229315
 20
263.8277075079647
 30
0.0
 10
98.18307139114073
 20
263.3191141059262
 30
0.0
 10
98.17908858059454
 20
262.8014787744515
 30
0.0
 10
98.17908858059452
 20
262.2747932373497
 30
0.0
  0
SPLINE
  5
1D6
330
1F
100
AcDbEntity
  8
0
  6
Continuous
 62
     7
370
    15
100
AcDbSpline
210
0.0
220
0.0
230
1.0
 70
     8
 71
     3
 72
     8
 73
     4
 74
     0
 42
0.00000001
 43
0.00000001
 40
0.0
 40
0.0
 40
0.0
 40
0.0
 40
1.0
 40
1.0
 40
1.0
 40
1.0
 10
91.77483326144561
 20
262.2747932373497
 30
0.0
 10
91.7748332614456
 20
262.8014787744515
 30
0.0
 10
91.7708504508994
 20
263.3191141059262
 30
0.0
 10
91.76302437974698
 20
263.8277075079647
 30
0.0
  0
LINE
  5
1D7
330
1F
100
AcDbEntity
  8
0
  6
Continuous
 62
     7
370
    15
100
AcDbLine
 10
98.1790886794
 20
262.2747938533
 30
0.0
 11
98.1790886794
 21
256.0647088487
 31
0.0
  0
LINE
  5
1D8
330
1F
100
AcDbEntity
  8
0
  6
Continuous
 62
     7
370
    15
100
AcDbLine
 10
91.7748331626
 20
256.0647088487
 30
0.0
 11
91.7748331626
 21
262.2747938533
 31
0.0
  0
LINE
  5
1D9
330
1F
100
AcDbEntity
  8
0
  6
Continuous
 62
     7
370
    15
100
AcDbLine
 10
88.1369609919
 20
356.0647066135
 30
0.0
 11
101.8169608501
 21
356.0647066135
 31
0.0
  0
LINE
  5
1DA
330
1F
100
AcDbEntity
  8
0
  6
Continuous
 62
     7
370
    15
100
AcDbLine
 10
123.576960766
 20
345.5647076864
 30
0.0
 11
123.576960766
 21
356.0647066135
 31
0.0
  0
LINE
  5
1DB
330
1F
100
AcDbEntity
  8
0
  6
Continuous
 62
     7
370
    15
100
AcDbLine
 10
123.576960766
 20
345.5647076864
 30
0.0
 11
121.2971054551
 21
345.5647076864
 31
0.0
  0
LINE
  5
1DC
330
1F
100
AcDbEntity
  8
0
  6
Continuous
 62
     7
370
    15
100
AcDbLine
 10
101.8169608501
 20
356.0647066135
 30
0.0
 11
123.576960766
 21
356.0647066135
 31
0.0
  0
LINE
  5
1DD
330
1F
100
AcDbEntity
  8
0
  6
Continuous
 62
     7
370
    15
100
AcDbLine
 10
68.6568163869
 20
345.5647076864
 30
0.0
 11
66.376961076
 21
345.5647076864
 31
0.0
  0
LINE
  5
1DE
330
1F
100
AcDbEntity
  8
0
  6
Continuous
 62
     7
370
    15
100
AcDbLine
 10
66.376961076
 20
345.5647076864
 30
0.0
 11
66.376961076
 21
356.0647066135
 31
0.0
  0
LINE
  5
1DF
330
1F
100
AcDbEntity
  8
0
  6
Continuous
 62
     7
370
    15
100
AcDbLine
 10
66.376961076
 20
356.0647066135
 30
0.0
 11
88.1369609919
 21
356.0647066135
 31
0.0
  0
SPLINE
  5
1E0
330
1F
100
AcDbEntity
  8
0
  6
Continuous
 62
     7
370
    15
100
AcDbSpline
210
0.0
220
0.0
230
1.0
 70
     8
 71
     3
 72
     9
 73
     5
 74
     0
 42
0.00000001
 43
0.00000001
 40
0.0
 40
0.0
 40
0.0
 40
0.0
 40
0.568582321355872
 40
1.0
 40
1.0
 40
1.0
 40
1.0
 10
72.5600228247352
 20
331.6360391129332
 30
0.0
 10
72.23565434914795
 20
330.7157609007438
 30
0.0
 10
71.66516795974749
 20
329.0972121389833
 30
0.0
 10
71.39787445670285
 20
327.4030527459773
 30
0.0
 10
71.28255931410268
 20
326.6721624333936
 30
0.0
  0
SPLINE
  5
1E1
330
1F
100
AcDbEntity
  8
0
  6
Continuous
 62
     7
370
    15
100
AcDbSpline
210
0.0
220
0.0
230
1.0
 70
     8
 71
     3
 72
     8
 73
     4
 74
     0
 42
0.00000001
 43
0.00000001
 40
0.0
 40
0.0
 40
0.0
 40
0.0
 40
1.0
 40
1.0
 40
1.0
 40
1.0
 10
72.63704256456482
 20
331.8311547306969
 30
0.0
 10
72.71974846310717
 20
331.843576560977
 30
0.0
 10
72.80650745895149
 20
331.8573022031993
 30
0.0
 10
72.89749457983818
 20
331.872295980349
 30
0.0
  0
SPLINE
  5
1E2
330
1F
100
AcDbEntity
  8
0
  6
Continuous
 62
     7
370
    15
100
AcDbSpline
210
0.0
220
0.0
230
1.0
 70
     8
 71
     3
 72
     9
 73
     5
 74
     0
 42
0.00000001
 43
0.00000001
 40
0.0
 40
0.0
 40
0.0
 40
0.0
 40
0.3272159033985239
 40
1.0
 40
1.0
 40
1.0
 40
1.0
 10
118.6428193536706
 20
326.6807641286927
 30
0.0
 10
118.5713795629789
 20
327.2359622610053
 30
0.0
 10
118.353053405999
 20
328.9326955998994
 30
0.0
 10
117.7796275104648
 20
330.5488278766672
 30
0.0
 10
117.3938356873699
 20
331.636135970481
 30
0.0
  0
SPLINE
  5
1E3
330
1F
100
AcDbEntity
  8
0
  6
Continuous
 62
     7
370
    15
100
AcDbSpline
210
0.0
220
0.0
230
1.0
 70
     8
 71
     3
 72
     8
 73
     4
 74
     0
 42
0.00000001
 43
0.00000001
 40
0.0
 40
0.0
 40
0.0
 40
0.0
 40
1.0
 40
1.0
 40
1.0
 40
1.0
 10
117.0611379951514
 20
331.8720947412555
 30
0.0
 10
117.1505182515752
 20
331.857174814117
 30
0.0
 10
117.2357080822463
 20
331.8435109627885
 30
0.0
 10
117.3168962032286
 20
331.8311386882027
 30
0.0
  0
LINE
  5
1E4
330
1F
100
AcDbEntity
  8
0
  6
Continuous
 62
     7
370
    15
100
AcDbLine
 10
129.97696107
 20
345.5647076864
 30
0.0
 11
123.576960766
 21
345.5647076864
 31
0.0
  0
LINE
  5
1E5
330
1F
100
AcDbEntity
  8
0
  6
Continuous
 62
     7
370
    15
100
AcDbLine
 10
123.576960766
 20
356.0647066135
 30
0.0
 11
129.97696107
 21
356.0647066135
 31
0.0
  0
LINE
  5
1E6
330
1F
100
AcDbEntity
  8
0
  6
Continuous
 62
     7
370
    15
100
AcDbLine
 10
66.376961076
 20
345.5647076864
 30
0.0
 11
59.976960772
 21
345.5647076864
 31
0.0
  0
LINE
  5
1E7
330
1F
100
AcDbEntity
  8
0
  6
Continuous
 62
     7
370
    15
100
AcDbLine
 10
59.976960772
 20
356.0647066135
 30
0.0
 11
66.376961076
 21
356.0647066135
 31
0.0
  0
LINE
  5
1E8
330
1F
100
AcDbEntity
  8
0
  6
Continuous
 62
     8
370
    15
100
AcDbLine
 10
96.7191128361
 20
394.6720729966
 30
0.0
 11
90.976960731
 21
394.6720729966
 31
0.0
  0
LINE
  5
1E9
330
1F
100
AcDbEntity
  8
0
  6
Continuous
 62
     8
370
    15
100
AcDbLine
 10
98.976961111
 20
394.6720729966
 30
0.0
 11
96.7191128361
 21
394.6720729966
 31
0.0
  0
LINE
  5
1EA
330
1F
100
AcDbEntity
  8
0
  6
Continuous
 62
     8
370
    15
100
AcDbLine
 10
96.6597504516
 20
395.7073460717
 30
0.0
 11
91.1132576943
 21
395.7073460717
 31
0.0
  0
LINE
  5
1EB
330
1F
100
AcDbEntity
  8
0
  6
Continuous
 62
     8
370
    15
100
AcDbLine
 10
98.8406641477
 20
395.7073460717
 30
0.0
 11
96.6597504516
 21
395.7073460717
 31
0.0
  0
LINE
  5
1EC
330
1F
100
AcDbEntity
  8
0
  6
Continuous
 62
     8
370
    15
100
AcDbLine
 10
96.5607061585
 20
396.5560417075
 30
0.0
 11
91.3406643153
 21
396.5560417075
 31
0.0
  0
LINE
  5
1ED
330
1F
100
AcDbEntity
  8
0
  6
Continuous
 62
     8
370
    15
100
AcDbLine
 10
98.6132575267
 20
396.5560417075
 30
0.0
 11
96.5607061585
 21
396.5560417075
 31
0.0
  0
LINE
  5
1EE
330
1F
100
AcDbEntity
  8
0
  6
Continuous
 62
     8
370
    15
100
AcDbLine
 10
96.501343774
 20
397.5913147826
 30
0.0
 11
91.476960813
 21
397.5913147826
 31
0.0
  0
LINE
  5
1EF
330
1F
100
AcDbEntity
  8
0
  6
Continuous
 62
     8
370
    15
100
AcDbLine
 10
98.4769610291
 20
397.5913147826
 30
0.0
 11
96.501343774
 21
397.5913147826
 31
0.0
  0
LINE
  5
1F0
330
1F
100
AcDbEntity
  8
0
  6
Continuous
 62
     8
370
    15
100
AcDbLine
 10
95.4769609448
 20
264.0674855013
 30
0.0
 11
95.4769609448
 21
256.0647088487
 31
0.0
  0
LINE
  5
1F1
330
1F
100
AcDbEntity
  8
0
  6
Continuous
 62
     8
370
    15
100
AcDbLine
 10
91.763024458
 20
263.8277071912
 30
0.0
 11
91.7616398142
 21
264.2653431196
 31
0.0
  0
LINE
  5
1F2
330
1F
100
AcDbEntity
  8
0
  6
Continuous
 62
     8
370
    15
100
AcDbLine
 10
98.1923015856
 20
264.2714935739
 30
0.0
 11
98.190897384
 21
263.8277071912
 31
0.0
  0
LINE
  5
1F3
330
1F
100
AcDbEntity
  8
0
  6
Continuous
 62
     8
370
    15
100
AcDbLine
 10
101.8169608501
 20
353.54183199
 30
0.0
 11
101.8169608501
 21
356.0647066135
 31
0.0
  0
LINE
  5
1F4
330
1F
100
AcDbEntity
  8
0
  6
Continuous
 62
     8
370
    15
100
AcDbLine
 10
88.1369609919
 20
353.54183199
 30
0.0
 11
88.1369609919
 21
356.0647066135
 31
0.0
  0
LINE
  5
1F5
330
1F
100
AcDbEntity
  8
0
  6
Continuous
 62
     8
370
    15
100
AcDbLine
 10
122.8475899038
 20
344.3949777086
 30
0.0
 11
123.576960766
 21
345.5647076864
 31
0.0
  0
LINE
  5
1F6
330
1F
100
AcDbEntity
  8
0
  6
Continuous
 62
     8
370
    15
100
AcDbLine
 10
67.1063319382
 20
344.3949777086
 30
0.0
 11
66.376961076
 21
345.5647076864
 31
0.0
  0
LINE
  5
1F7
330
1F
100
AcDbEntity
  8
1
100
AcDbLine
 10
91.9142732178
 20
239.0647082229
 30
0.0
 11
69.976960921
 21
239.0647082229
 31
0.0
  0
LINE
  5
1F8
330
1F
100
AcDbEntity
  8
1
100
AcDbLine
 10
101.4635989184
 20
239.0647082229
 30
0.0
 11
119.976960921
 21
239.0647082229
 31
0.0
  0
LINE
  5
1F9
330
1F
100
AcDbEntity
  8
1
100
AcDbLine
 10
119.976960921
 20
239.0647082229
 30
0.0
 11
121.976960921
 21
241.1022985301
 31
0.0
  0
LINE
  5
1FA
330
1F
100
AcDbEntity
  8
1
100
AcDbLine
 10
67.976960921
 20
241.0647082229
 30
0.0
 11
69.976960921
 21
239.0647082229
 31
0.0
  0
LINE
  5
1FB
330
1F
100
AcDbEntity
  8
0
  6
Continuous
 62
     7
370
    15
100
AcDbLine
 10
351.5608728309
 20
495.0542870474
 30
0.0
 11
363.5608710726
 21
495.0542870474
 31
0.0
  0
LINE
  5
1FC
330
1F
100
AcDbEntity
  8
0
  6
Continuous
 62
     7
370
    15
100
AcDbLine
 10
363.5608710726
 20
585.0542906236
 30
0.0
 11
351.5608728309
 21
585.0542906236
 31
0.0
  0
LINE
  5
1FD
330
1F
100
AcDbEntity
  8
0
  6
Continuous
 62
     7
370
    15
100
AcDbLine
 10
229.56087146
 20
585.0542906236
 30
0.0
 11
217.5608732183
 21
585.0542906236
 31
0.0
  0
LINE
  5
1FE
330
1F
100
AcDbEntity
  8
0
  6
Continuous
 62
     7
370
    15
100
AcDbLine
 10
217.5608732183
 20
495.0542870474
 30
0.0
 11
229.56087146
 21
495.0542870474
 31
0.0
  0
LINE
  5
1FF
330
1F
100
AcDbEntity
  8
0
  6
Continuous
 62
     7
370
    15
100
AcDbLine
 10
217.5608732183
 20
567.0542895358
 30
0.0
 11
215.5608691652
 21
565.054289208
 31
0.0
  0
LINE
  5
200
330
1F
100
AcDbEntity
  8
0
  6
Continuous
 62
     7
370
    15
100
AcDbLine
 10
215.5608691652
 20
515.054288463
 30
0.0
 11
217.5608732183
 21
513.0542881351
 31
0.0
  0
LINE
  5
201
330
1F
100
AcDbEntity
  8
0
  6
Continuous
 62
     7
370
    15
100
AcDbLine
 10
363.5608710726
 20
513.0542881351
 30
0.0
 11
365.5608751257
 21
515.054288463
 31
0.0
  0
LINE
  5
202
330
1F
100
AcDbEntity
  8
0
  6
Continuous
 62
     7
370
    15
100
AcDbLine
 10
365.5608751257
 20
565.054289208
 30
0.0
 11
363.5608710726
 21
567.0542895358
 31
0.0
  0
LINE
  5
203
330
1F
100
AcDbEntity
  8
0
  6
Continuous
 62
     7
370
    15
100
AcDbLine
 10
249.9291345854
 20
559.1929845076
 30
0.0
 11
241.5581241627
 21
556.9688763034
 31
0.0
  0
SPLINE
  5
204
330
1F
100
AcDbEntity
  8
0
  6
Continuous
 62
     7
370
    15
100
AcDbSpline
210
0.0
220
0.0
230
1.0
 70
     8
 71
     3
 72
    19
 73
    15
 74
     0
 42
0.00000001
 43
0.00000001
 40
0.0
 40
0.0
 40
0.0
 40
0.0
 40
0.2208671003581781
 40
0.4050231343777058
 40
0.5607424534930397
 40
0.688202173710199
 40
0.7548334215159107
 40
0.806772287617909
 40
0.8459136706998674
 40
0.9223783719963101
 40
0.9423021450276539
 40
0.9609709662774567
 40
0.9797924182505419
 40
1.0
 40
1.0
 40
1.0
 40
1.0
 10
339.5608708639548
 20
523.1438308518808
 30
0.0
 10
340.4862391258258
 20
522.7936265940627
 30
0.0
 10
342.183167066967
 20
522.1514267103142
 30
0.0
 10
344.5263743398332
 20
521.2029218011481
 30
0.0
 10
346.4899951606128
 20
520.4163926590331
 30
0.0
 10
347.9521899704598
 20
519.834692986072
 30
0.0
 10
348.9975779363361
 20
519.4031679757127
 30
0.0
 10
349.6786861068467
 20
519.1143820960389
 30
0.0
 10
350.3821505425106
 20
518.779200251885
 30
0.0
 10
350.9432634606018
 20
518.4525306755128
 30
0.0
 10
351.3276372087151
 20
518.0619061224361
 30
0.0
 10
351.4620145482724
 20
517.8222961475952
 30
0.0
 10
351.5420968956353
 20
517.5599901899365
 30
0.0
 10
351.5544677342643
 20
517.3821597192015
 30
0.0
 10
351.5608728309081
 20
517.2900866281669
 30
0.0
  0
SPLINE
  5
205
330
1F
100
AcDbEntity
  8
0
  6
Continuous
 62
     7
370
    15
100
AcDbSpline
210
0.0
220
0.0
230
1.0
 70
     8
 71
     3
 72
    17
 73
    13
 74
     0
 42
0.00000001
 43
0.00000001
 40
0.0
 40
0.0
 40
0.0
 40
0.0
 40
0.0423658398089694
 40
0.0763376206443824
 40
0.0978299644810097
 40
0.1142956289636203
 40
0.1695404985374399
 40
0.2639491364591091
 40
0.398149241961489
 40
0.565133861635711
 40
0.7628430692841544
 40
1.0
 40
1.0
 40
1.0
 40
1.0
 10
351.5608728309081
 20
562.8267854016702
 30
0.0
 10
351.5409636450917
 20
562.6391994172515
 30
0.0
 10
351.5050899345494
 20
562.3011943692852
 30
0.0
 10
351.2511956364805
 20
561.9448252242455
 30
0.0
 10
351.0026442387852
 20
561.7285431309158
 30
0.0
 10
350.646887093692
 20
561.4694928399558
 30
0.0
 10
349.9629008209876
 20
561.0901005755943
 30
0.0
 10
348.719634219361
 20
560.5631633468964
 30
0.0
 10
347.0464451227688
 20
559.8876190084918
 30
0.0
 10
344.9357187139892
 20
559.0456338932314
 30
0.0
 10
342.3974171926586
 20
558.0243657795062
 30
0.0
 10
340.5618880196151
 20
557.3387188774706
 30
0.0
 10
339.5608708639548
 20
556.9647971105259
 30
0.0
  0
SPLINE
  5
206
330
1F
100
AcDbEntity
  8
0
  6
Continuous
 62
     7
370
    15
100
AcDbSpline
210
0.0
220
0.0
230
1.0
 70
     8
 71
     3
 72
    21
 73
    17
 74
     0
 42
0.00000001
 43
0.00000001
 40
0.0
 40
0.0
 40
0.0
 40
0.0
 40
0.1752209941972571
 40
0.3155125736421037
 40
0.4260097545405591
 40
0.5123922529032984
 40
0.5994202106779047
 40
0.6866106255407008
 40
0.708240567651814
 40
0.732684349506038
 40
0.7618786994436308
 40
0.7963779855119697
 40
0.8365580479820978
 40
0.8830205763180212
 40
0.937026548088871
 40
1.0
 40
1.0
 40
1.0
 40
1.0
 10
241.5608734269546
 20
556.9649442594927
 30
0.0
 10
240.7146582064105
 20
557.2786913894798
 30
0.0
 10
239.1909164692279
 20
557.8436417534965
 30
0.0
 10
237.1587269406284
 20
558.6549884762416
 30
0.0
 10
235.5385648200832
 20
559.2995335340146
 30
0.0
 10
234.1799725482977
 20
559.8454061216183
 30
0.0
 10
232.9145995626567
 20
560.350415686143
 30
0.0
 10
231.9372521452513
 20
560.7562238874333
 30
0.0
 10
231.2754802627932
 20
561.0482196581092
 30
0.0
 10
230.9189758942774
 20
561.2246717769196
 30
0.0
 10
230.559128120351
 20
561.426374921471
 30
0.0
 10
230.2094511375059
 20
561.6557547224271
 30
0.0
 10
229.9010831173899
 20
561.9077660610466
 30
0.0
 10
229.6807973160146
 20
562.1747451244054
 30
0.0
 10
229.5850607376675
 20
562.447046350897
 30
0.0
 10
229.5693363556517
 20
562.5989149080409
 30
0.0
 10
229.5608714600013
 20
562.6806702029388
 30
0.0
  0
SPLINE
  5
207
330
1F
100
AcDbEntity
  8
0
  6
Continuous
 62
     7
370
    15
100
AcDbSpline
210
0.0
220
0.0
230
1.0
 70
     8
 71
     3
 72
    22
 73
    18
 74
     0
 42
0.00000001
 43
0.00000001
 40
0.0
 40
0.0
 40
0.0
 40
0.0
 40
0.0441603550611166
 40
0.0927790042100072
 40
0.1309178697522142
 40
0.15910637630616
 40
0.1775535681524202
 40
0.1832511376745876
 40
0.1853000625864022
 40
0.1935046255106639
 40
0.2013661942414179
 40
0.2504979344702055
 40
0.3352451206508815
 40
0.4559416904166042
 40
0.6065741540660418
 40
0.7855454425954626
 40
1.0
 40
1.0
 40
1.0
 40
1.0
 10
229.5687094707893
 20
517.4252587866466
 30
0.0
 10
229.5732633830449
 20
517.4796132757712
 30
0.0
 10
229.5828309565789
 20
517.5938097166362
 30
0.0
 10
229.6479048692764
 20
517.7934656946951
 30
0.0
 10
229.7487764102815
 20
517.9893686269708
 30
0.0
 10
229.8859818493285
 20
518.1515151525991
 30
0.0
 10
230.0020643080862
 20
518.2639186277961
 30
0.0
 10
230.0805876594568
 20
518.331100730405
 30
0.0
 10
230.1394182296238
 20
518.3789229974517
 30
0.0
 10
230.2190651891659
 20
518.4389500905419
 30
0.0
 10
230.4972388022057
 20
518.632920060064
 30
0.0
 10
231.1520809821478
 20
518.9938138869265
 30
0.0
 10
232.3864624647116
 20
519.5122255497496
 30
0.0
 10
234.0643690863207
 20
520.1879216708302
 30
0.0
 10
236.1786627836965
 20
521.0329770482991
 30
0.0
 10
238.721430135619
 20
522.0620042714496
 30
0.0
 10
240.5591442200672
 20
522.7621037727599
 30
0.0
 10
241.5608734269546
 20
523.1437246811073
 30
0.0
  0
LINE
  5
208
330
1F
100
AcDbEntity
  8
0
  6
Continuous
 62
     7
370
    15
100
AcDbLine
 10
339.5624578376
 20
556.9690607053
 30
0.0
 11
331.2485263129
 21
559.1780181539
 31
0.0
  0
CIRCLE
  5
209
330
1F
100
AcDbEntity
  8
0
  6
Continuous
 62
     7
370
    15
100
AcDbCircle
 10
290.5608721455
 20
540.0542888355
 30
0.0
 40
45.0
  0
LINE
  5
20A
330
1F
100
AcDbEntity
  8
0
  6
Continuous
 62
     7
370
    15
100
AcDbLine
 10
363.5608710726
 20
585.0542906236
 30
0.0
 11
363.5608710726
 21
495.0542870474
 31
0.0
  0
LINE
  5
20B
330
1F
100
AcDbEntity
  8
0
  6
Continuous
 62
     7
370
    15
100
AcDbLine
 10
351.5608728309
 20
585.0542906236
 30
0.0
 11
351.5608728309
 21
495.0542870474
 31
0.0
  0
LINE
  5
20C
330
1F
100
AcDbEntity
  8
0
  6
Continuous
 62
     7
370
    15
100
AcDbLine
 10
217.5608732183
 20
585.0542906236
 30
0.0
 11
217.5608732183
 21
495.0542870474
 31
0.0
  0
LINE
  5
20D
330
1F
100
AcDbEntity
  8
0
  6
Continuous
 62
     7
370
    15
100
AcDbLine
 10
229.56087146
 20
585.0542906236
 30
0.0
 11
229.56087146
 21
495.0542870474
 31
0.0
  0
SPLINE
  5
20E
330
1F
100
AcDbEntity
  8
0
  6
Continuous
 62
     7
370
    15
100
AcDbSpline
210
0.0
220
0.0
230
1.0
 70
     8
 71
     3
 72
    18
 73
    14
 74
     0
 42
0.00000001
 43
0.00000001
 40
0.0
 40
0.0
 40
0.0
 40
0.0
 40
0.1249999999999988
 40
0.1249999999999988
 40
0.2499999999999976
 40
0.2499999999999976
 40
0.499999999999998
 40
0.499999999999998
 40
0.7499999999999984
 40
0.7499999999999984
 40
0.8749999999999992
 40
0.8749999999999992
 40
1.0
 40
1.0
 40
1.0
 40
1.0
 10
231.5608721454548
 20
541.5542888354938
 30
0.0
 10
231.3902588808422
 20
541.5542888354938
 30
0.0
 10
231.2297879252021
 20
541.575694553038
 30
0.0
 10
230.9262949676565
 20
541.6511955900419
 30
0.0
 10
230.78385679807
 20
541.7058220190977
 30
0.0
 10
230.4000388995623
 20
541.9005670146342
 30
0.0
 10
230.1914728679158
 20
542.0754415176681
 30
0.0
 10
229.87013822199
 20
542.4571732669186
 30
0.0
 10
229.7524060493706
 20
542.6696371677131
 30
0.0
 10
229.6370157118548
 20
542.9956601829934
 30
0.0
 10
229.608532409676
 20
543.1058208267415
 30
0.0
 10
229.5704567748913
 20
543.3284555974632
 30
0.0
 10
229.5608721454548
 20
543.4417996552196
 30
0.0
 10
229.5608721454548
 20
543.5542888354938
 30
0.0
  0
SPLINE
  5
20F
330
1F
100
AcDbEntity
  8
0
  6
Continuous
 62
     7
370
    15
100
AcDbSpline
210
0.0
220
0.0
230
1.0
 70
     8
 71
     3
 72
    18
 73
    14
 74
     0
 42
0.00000001
 43
0.00000001
 40
0.0
 40
0.0
 40
0.0
 40
0.0
 40
0.1249999999999988
 40
0.1249999999999988
 40
0.2499999999999976
 40
0.2499999999999976
 40
0.499999999999998
 40
0.499999999999998
 40
0.7499999999999984
 40
0.7499999999999984
 40
0.8749999999999992
 40
0.8749999999999992
 40
1.0
 40
1.0
 40
1.0
 40
1.0
 10
231.5608721454548
 20
538.5542888354938
 30
0.0
 10
231.3902588808422
 20
538.5542888354938
 30
0.0
 10
231.2297879252021
 20
538.5328831179497
 30
0.0
 10
230.9262949676565
 20
538.4573820809458
 30
0.0
 10
230.78385679807
 20
538.4027556518898
 30
0.0
 10
230.4000388995623
 20
538.2080106563534
 30
0.0
 10
230.1914728679158
 20
538.0331361533194
 30
0.0
 10
229.87013822199
 20
537.651404404069
 30
0.0
 10
229.7524060493706
 20
537.4389405032745
 30
0.0
 10
229.6370157118548
 20
537.1129174879941
 30
0.0
 10
229.608532409676
 20
537.002756844246
 30
0.0
 10
229.5704567748913
 20
536.7801220735246
 30
0.0
 10
229.5608721454548
 20
536.666778015768
 30
0.0
 10
229.5608721454548
 20
536.5542888354938
 30
0.0
  0
LINE
  5
210
330
1F
100
AcDbEntity
  8
0
  6
Continuous
 62
     7
370
    15
100
AcDbLine
 10
231.5608717878
 20
541.5542888485
 30
0.0
 11
232.5608738144
 21
541.5542888485
 31
0.0
  0
LINE
  5
211
330
1F
100
AcDbEntity
  8
0
  6
Continuous
 62
     7
370
    15
100
AcDbLine
 10
231.5608717878
 20
538.5542888225
 30
0.0
 11
232.5608738144
 21
538.5542888225
 31
0.0
  0
SPLINE
  5
212
330
1F
100
AcDbEntity
  8
0
  6
Continuous
 62
     7
370
    15
100
AcDbSpline
210
0.0
220
0.0
230
1.0
 70
     8
 71
     3
 72
    18
 73
    14
 74
     0
 42
0.00000001
 43
0.00000001
 40
0.0
 40
0.0
 40
0.0
 40
0.0
 40
0.1250000000000003
 40
0.1250000000000003
 40
0.2500000000000007
 40
0.2500000000000007
 40
0.5000000000000012
 40
0.5000000000000012
 40
0.7500000000000019
 40
0.7500000000000019
 40
0.875000000000001
 40
0.875000000000001
 40
1.0
 40
1.0
 40
1.0
 40
1.0
 10
349.5608721454546
 20
538.5542888354938
 30
0.0
 10
349.7314854100671
 20
538.5542888354938
 30
0.0
 10
349.8919563657072
 20
538.5328831179497
 30
0.0
 10
350.1954493232527
 20
538.4573820809459
 30
0.0
 10
350.3378874928391
 20
538.40275565189
 30
0.0
 10
350.7217053913466
 20
538.2080106563536
 30
0.0
 10
350.930271422993
 20
538.03313615332
 30
0.0
 10
351.2516060689188
 20
537.6514044040699
 30
0.0
 10
351.3693382415382
 20
537.4389405032757
 30
0.0
 10
351.4847285790541
 20
537.1129174879958
 30
0.0
 10
351.5132118812329
 20
537.0027568442479
 30
0.0
 10
351.5512875160177
 20
536.780122073528
 30
0.0
 10
351.5608721454546
 20
536.6667780179548
 30
0.0
 10
351.5608721454546
 20
536.5542888354938
 30
0.0
  0
LINE
  5
213
330
1F
100
AcDbEntity
  8
0
  6
Continuous
 62
     7
370
    15
100
AcDbLine
 10
348.5608704765
 20
538.5542888225
 30
0.0
 11
349.5608725031
 21
538.5542888225
 31
0.0
  0
LINE
  5
214
330
1F
100
AcDbEntity
  8
0
  6
Continuous
 62
     7
370
    15
100
AcDbLine
 10
348.5608704765
 20
541.5542888485
 30
0.0
 11
349.5608725031
 21
541.5542888485
 31
0.0
  0
ARC
  5
215
330
1F
100
AcDbEntity
  8
0
  6
Continuous
 62
     7
370
    15
100
AcDbCircle
 10
349.5608721455
 20
543.5542888355
 30
0.0
 40
2.0
100
AcDbArc
 50
270.0
 51
0.0
  0
LINE
  5
216
330
1F
100
AcDbEntity
  8
0
  6
Continuous
 62
     7
370
    15
100
AcDbLine
 10
232.5608738144
 20
541.5542888485
 30
0.0
 11
245.5858782311
 21
541.5542888485
 31
0.0
  0
LINE
  5
217
330
1F
100
AcDbEntity
  8
0
  6
Continuous
 62
     7
370
    15
100
AcDbLine
 10
232.5608738144
 20
538.5542888225
 30
0.0
 11
245.5858782311
 21
538.5542888225
 31
0.0
  0
LINE
  5
218
330
1F
100
AcDbEntity
  8
0
  6
Continuous
 62
     7
370
    15
100
AcDbLine
 10
335.5358660598
 20
538.5542888225
 30
0.0
 11
348.5608704765
 21
538.5542888225
 31
0.0
  0
LINE
  5
219
330
1F
100
AcDbEntity
  8
0
  6
Continuous
 62
     7
370
    15
100
AcDbLine
 10
335.5358660598
 20
541.5542888485
 30
0.0
 11
348.5608704765
 21
541.5542888485
 31
0.0
  0
LINE
  5
21A
330
1F
100
AcDbEntity
  8
0
  6
Continuous
 62
     7
370
    15
100
AcDbLine
 10
215.5608691652
 20
565.054289208
 30
0.0
 11
215.5608691652
 21
515.054288463
 31
0.0
  0
LINE
  5
21B
330
1F
100
AcDbEntity
  8
0
  6
Continuous
 62
     7
370
    15
100
AcDbLine
 10
365.5608751257
 20
565.054289208
 30
0.0
 11
365.5608751257
 21
515.054288463
 31
0.0
  0
SPLINE
  5
21C
330
1F
100
AcDbEntity
  8
0
  6
Continuous
 62
     7
370
    15
100
AcDbSpline
210
0.0
220
0.0
230
1.0
 70
     8
 71
     3
 72
     9
 73
     5
 74
     0
 42
0.00000001
 43
0.00000001
 40
0.0
 40
0.0
 40
0.0
 40
0.0
 40
0.8657087466579683
 40
1.0
 40
1.0
 40
1.0
 40
1.0
 10
249.9343201895164
 20
520.9162786167543
 30
0.0
 10
247.5183365222439
 20
521.5608521512542
 30
0.0
 10
244.7275784565559
 20
522.3054138031816
 30
0.0
 10
241.9357866479961
 20
523.0444571365045
 30
0.0
 10
241.5608734269546
 20
523.1437041920107
 30
0.0
  0
SPLINE
  5
21D
330
1F
100
AcDbEntity
  8
0
  6
Continuous
 62
     7
370
    15
100
AcDbSpline
210
0.0
220
0.0
230
1.0
 70
     8
 71
     3
 72
    40
 73
    36
 74
     0
 42
0.00000001
 43
0.00000001
 40
0.0
 40
0.0
 40
0.0
 40
0.0
 40
0.0312500000000009
 40
0.0312500000000009
 40
0.0625000000000018
 40
0.0625000000000018
 40
0.1250000000000028
 40
0.1250000000000028
 40
0.1875000000000039
 40
0.1875000000000039
 40
0.250000000000005
 40
0.250000000000005
 40
0.3125000000000061
 40
0.3125000000000061
 40
0.3750000000000071
 40
0.3750000000000071
 40
0.4062500000000075
 40
0.4062500000000075
 40
0.437500000000008
 40
0.437500000000008
 40
0.5000000000000074
 40
0.5000000000000074
 40
0.7500000000000038
 40
0.7500000000000038
 40
0.8125000000000029
 40
0.8125000000000029
 40
0.875000000000002
 40
0.875000000000002
 40
0.9375000000000011
 40
0.9375000000000011
 40
0.9687500000000006
 40
0.9687500000000006
 40
0.9843750000000002
 40
0.9843750000000002
 40
1.0
 40
1.0
 40
1.0
 40
1.0
 10
229.5608721454548
 20
543.5542888354938
 30
0.0
 10
229.5608732588918
 20
543.5428776422287
 30
0.0
 10
229.5693635655104
 20
543.5312197041293
 30
0.0
 10
229.6029602274469
 20
543.5085308261695
 30
0.0
 10
229.6280641403141
 20
543.4973358374392
 30
0.0
 10
229.7284478103891
 20
543.4643483591245
 30
0.0
 10
229.8303548333181
 20
543.4428313473657
 30
0.0
 10
230.0925909272517
 20
543.4044406479533
 30
0.0
 10
230.2533067596669
 20
543.3872244133917
 30
0.0
 10
230.6331382419361
 20
543.3561532282382
 30
0.0
 10
230.8457803847611
 20
543.3427901508999
 30
0.0
 10
231.3147138454563
 20
543.3191688307488
 30
0.0
 10
231.5730939071095
 20
543.3088854986279
 30
0.0
 10
232.1102932220449
 20
543.2915579938974
 30
0.0
 10
232.3929286728922
 20
543.2845020935134
 30
0.0
 10
232.8330195590173
 20
543.2765622607915
 30
0.0
 10
232.9804223093313
 20
543.2743925321382
 30
0.0
 10
233.2765853026662
 20
543.2709650199072
 30
0.0
 10
233.4254764877843
 20
543.2701012686404
 30
0.0
 10
233.8715553151977
 20
543.2676167363276
 30
0.0
 10
234.1689399779236
 20
543.2659453575989
 30
0.0
 10
235.6558577056572
 20
543.2575240112943
 30
0.0
 10
236.845380123482
 20
543.250549557467
 30
0.0
 10
238.3322980262072
 20
543.2419527582559
 30
0.0
 10
238.6289133265643
 20
543.2396429918413
 30
0.0
 10
239.2201218032802
 20
543.2364066561953
 30
0.0
 10
239.5148023596396
 20
543.2350277761913
 30
0.0
 10
240.1023060536226
 20
543.2323314737623
 30
0.0
 10
240.3951293891742
 20
543.2310160772034
 30
0.0
 10
240.8329156193979
 20
543.2286724694969
 30
0.0
 10
240.9785652691638
 20
543.2273043114532
 30
0.0
 10
241.1969621628694
 20
543.2242303255698
 30
0.0
 10
241.2697435726579
 20
543.223087012508
 30
0.0
 10
241.4153030494668
 20
543.2205632398748
 30
0.0
 10
241.4898214728978
 20
543.2191471198074
 30
0.0
 10
241.5608721454548
 20
543.2176921134103
 30
0.0
  0
SPLINE
  5
21E
330
1F
100
AcDbEntity
  8
0
  6
Continuous
 62
     7
370
    15
100
AcDbSpline
210
0.0
220
0.0
230
1.0
 70
     8
 71
     3
 72
    48
 73
    44
 74
     0
 42
0.00000001
 43
0.00000001
 40
0.0
 40
0.0
 40
0.0
 40
0.0
 40
0.0156250000000008
 40
0.0156250000000008
 40
0.0312500000000015
 40
0.0312500000000015
 40
0.0625000000000016
 40
0.0625000000000016
 40
0.1250000000000005
 40
0.1250000000000005
 40
0.2499999999999995
 40
0.2499999999999995
 40
0.4999999999999976
 40
0.4999999999999976
 40
0.5624999999999974
 40
0.5624999999999974
 40
0.5937499999999974
 40
0.5937499999999974
 40
0.6249999999999973
 40
0.6249999999999973
 40
0.6562499999999973
 40
0.6562499999999973
 40
0.6874999999999973
 40
0.6874999999999973
 40
0.7187499999999972
 40
0.7187499999999972
 40
0.7499999999999972
 40
0.7499999999999972
 40
0.8124999999999982
 40
0.8124999999999982
 40
0.8437499999999986
 40
0.8437499999999986
 40
0.8749999999999988
 40
0.8749999999999988
 40
0.9374999999999993
 40
0.9374999999999993
 40
0.9687499999999993
 40
0.9687499999999993
 40
0.9843749999999993
 40
0.9843749999999993
 40
0.9921874999999998
 40
0.9921874999999998
 40
1.0
 40
1.0
 40
1.0
 40
1.0
 10
241.5608721454547
 20
536.8895976437079
 30
0.0
 10
241.4906442375657
 20
536.8881229928229
 30
0.0
 10
241.4182323631874
 20
536.8867080323142
 30
0.0
 10
241.2756160955089
 20
536.8841507781283
 30
0.0
 10
241.2043058640784
 20
536.8829852280493
 30
0.0
 10
240.9902773788954
 20
536.8798267136966
 30
0.0
 10
240.8475055649086
 20
536.8783154657963
 30
0.0
 10
240.4175761033654
 20
536.8757029125421
 30
0.0
 10
240.1290466739893
 20
536.8741490780683
 30
0.0
 10
239.2578439356101
 20
536.869424835594
 30
0.0
 10
238.6695655464153
 20
536.8651783815393
 30
0.0
 10
236.8814170107305
 20
536.8540730660229
 30
0.0
 10
235.6893240154424
 20
536.8471396759409
 30
0.0
 10
234.1991724720397
 20
536.838932947188
 30
0.0
 10
233.9011404591354
 20
536.8373148780422
 30
0.0
 10
233.454089344553
 20
536.8349209943644
 30
0.0
 10
233.3047779149586
 20
536.8341941463806
 30
0.0
 10
233.0081468423969
 20
536.8309853549518
 30
0.0
 10
232.8607359447598
 20
536.8289380790814
 30
0.0
 10
232.5677746196352
 20
536.8239269251495
 30
0.0
 10
232.4213271858857
 20
536.8209396118481
 30
0.0
 10
232.1363306151889
 20
536.8141505753312
 30
0.0
 10
231.9975183815586
 20
536.8103519261466
 30
0.0
 10
231.7270924661814
 20
536.8019662379428
 30
0.0
 10
231.5954760517728
 20
536.797406568837
 30
0.0
 10
231.3395047415559
 20
536.7874966061844
 30
0.0
 10
231.214454965284
 20
536.7820958864372
 30
0.0
 10
230.8582188932313
 20
536.764778419035
 30
0.0
 10
230.6443032493495
 20
536.7517420432343
 30
0.0
 10
230.3589008349052
 20
536.7290677055138
 30
0.0
 10
230.2692536209232
 20
536.7209262818193
 30
0.0
 10
230.1061758840692
 20
536.7037837338971
 30
0.0
 10
230.0324181231805
 20
536.6947706631147
 30
0.0
 10
229.8341383487578
 20
536.6662773494822
 30
0.0
 10
229.7318804367979
 20
536.645076712295
 30
0.0
 10
229.6291801354697
 20
536.6117618924911
 30
0.0
 10
229.6036071443183
 20
536.6004582726632
 30
0.0
 10
229.5779908916783
 20
536.5832832269233
 30
0.0
 10
229.5715802335674
 20
536.5775218993504
 30
0.0
 10
229.5651607637144
 20
536.5688378383338
 30
0.0
 10
229.5635539247241
 20
536.5659361576363
 30
0.0
 10
229.5614096651055
 20
536.560121084404
 30
0.0
 10
229.5608722558396
 20
536.5571204508141
 30
0.0
 10
229.5608721454728
 20
536.5542897621722
 30
0.0
  0
SPLINE
  5
21F
330
1F
100
AcDbEntity
  8
0
  6
Continuous
 62
     7
370
    15
100
AcDbSpline
210
0.0
220
0.0
230
1.0
 70
     8
 71
     3
 72
    11
 73
     7
 74
     0
 42
0.00000001
 43
0.00000001
 40
-0.0000000598246864
 40
-0.0000000598246864
 40
-0.0000000598246864
 40
-0.0000000598246864
 40
0.0
 40
0.0
 40
0.0
 40
0.0016727896038587
 40
0.0016727896038587
 40
0.0016727896038587
 40
0.0016727896038587
 10
351.5591213182306
 20
543.5556388206778
 30
0.0
 10
351.5591213597248
 20
543.5556403043023
 30
0.0
 10
351.5591214014267
 20
543.555638741074
 30
0.0
 10
351.5591214430237
 20
543.5556387012733
 30
0.0
 10
351.560284558257
 20
543.554525816049
 30
0.0
 10
351.5608721454547
 20
543.5542888354938
 30
0.0
 10
351.5608721454547
 20
543.5542888354938
 30
0.0
  0
SPLINE
  5
220
330
1F
100
AcDbEntity
  8
0
  6
Continuous
 62
     7
370
    15
100
AcDbSpline
210
0.0
220
0.0
230
1.0
 70
     8
 71
     3
 72
    19
 73
    15
 74
     0
 42
0.00000001
 43
0.00000001
 40
0.0
 40
0.0
 40
0.0
 40
0.0
 40
0.0312500000000028
 40
0.0312500000000028
 40
0.0625000000000056
 40
0.1250000000000087
 40
0.1250000000000087
 40
0.250000000000009
 40
0.250000000000009
 40
0.500000000000006
 40
0.500000000000006
 40
0.750000000000003
 40
0.750000000000003
 40
1.0
 40
1.0
 40
1.0
 40
1.0
 10
349.8368317680843
 20
543.3296209043795
 30
0.0
 10
349.8698552021672
 20
543.3297195203332
 30
0.0
 10
349.9025668956535
 20
543.3328222170637
 30
0.0
 10
349.9671847568181
 20
543.3361039516373
 30
0.0
 10
350.062994585868
 20
543.3411072745516
 30
0.0
 10
350.1554567825763
 20
543.3463554542963
 30
0.0
 10
350.3358859709736
 20
543.3571901065304
 30
0.0
 10
350.449156844261
 20
543.3648047694396
 30
0.0
 10
350.7657391558004
 20
543.3886953085389
 30
0.0
 10
350.9478569831332
 20
543.4061205390645
 30
0.0
 10
351.2487782360622
 20
543.4445390807468
 30
0.0
 10
351.3624464163461
 20
543.4648660392812
 30
0.0
 10
351.5177128564051
 20
543.5083849278797
 30
0.0
 10
351.5584679605948
 20
543.5317678062883
 30
0.0
 10
351.5591213182306
 20
543.5556388206778
 30
0.0
  0
SPLINE
  5
221
330
1F
100
AcDbEntity
  8
0
  6
Continuous
 62
     7
370
    15
100
AcDbSpline
210
0.0
220
0.0
230
1.0
 70
     8
 71
     3
 72
    24
 73
    20
 74
     0
 42
0.00000001
 43
0.00000001
 40
0.0
 40
0.0
 40
0.0
 40
0.0
 40
0.0156249999999989
 40
0.0156249999999989
 40
0.0312499999999978
 40
0.0624999999999976
 40
0.0624999999999976
 40
0.1249999999999972
 40
0.1249999999999972
 40
0.1874999999999968
 40
0.1874999999999968
 40
0.2499999999999963
 40
0.2499999999999963
 40
0.499999999999997
 40
0.7499999999999977
 40
0.7499999999999977
 40
0.8749999999999989
 40
0.8749999999999989
 40
1.0
 40
1.0
 40
1.0
 40
1.0
 10
340.8431769720467
 20
543.2317696152195
 30
0.0
 10
340.8966472752754
 20
543.2324910610511
 30
0.0
 10
340.9516811084077
 20
543.236172294232
 30
0.0
 10
341.0583504765746
 20
543.2405939119338
 30
0.0
 10
341.2165739048692
 20
543.2472221304488
 30
0.0
 10
341.3699477938955
 20
543.2536292015241
 30
0.0
 10
341.6714674172724
 20
543.2657319212898
 30
0.0
 10
341.8655234718518
 20
543.2728151077982
 30
0.0
 10
342.2458530611717
 20
543.283865666515
 30
0.0
 10
342.4321143971949
 20
543.2878548909614
 30
0.0
 10
342.8026590149726
 20
543.2924771697649
 30
0.0
 10
342.987426479923
 20
543.293005035729
 30
0.0
 10
343.9125895056911
 20
543.298944081109
 30
0.0
 10
345.3930535803246
 20
543.3079941758832
 30
0.0
 10
346.8738755454092
 20
543.3162452682208
 30
0.0
 10
347.9846104495775
 20
543.3221683021738
 30
0.0
 10
348.3548515318056
 20
543.3241045618666
 30
0.0
 10
349.09567465851
 20
543.327211160266
 30
0.0
 10
349.4678209473008
 20
543.3285032794751
 30
0.0
 10
349.8368317680843
 20
543.3296209043795
 30
0.0
  0
SPLINE
  5
222
330
1F
100
AcDbEntity
  8
0
  6
Continuous
 62
     7
370
    15
100
AcDbSpline
210
0.0
220
0.0
230
1.0
 70
     8
 71
     3
 72
    11
 73
     7
 74
     0
 42
0.00000001
 43
0.00000001
 40
0.0
 40
0.0
 40
0.0
 40
0.0
 40
0.001350186056237
 40
0.001350186056237
 40
0.001350186056237
 40
0.001350246056237
 40
0.001350246056237
 40
0.001350246056237
 40
0.001350246056237
 10
339.5608721454547
 20
543.2138451983393
 30
0.0
 10
339.9882463545076
 20
543.2199996288784
 30
0.0
 10
340.4156634027951
 20
543.2259699970448
 30
0.0
 10
340.8431199856892
 20
543.2317688421474
 30
0.0
 10
340.8431389811416
 20
543.2317690998384
 30
0.0
 10
340.8431579765942
 20
543.2317693575292
 30
0.0
 10
340.8431769720467
 20
543.2317696152195
 30
0.0
  0
SPLINE
  5
223
330
1F
100
AcDbEntity
  8
0
  6
Continuous
 62
     7
370
    15
100
AcDbSpline
210
0.0
220
0.0
230
1.0
 70
    24
 71
     3
 72
    18
 73
    14
 74
     0
 42
0.00000001
 43
0.00000001
 40
0.0
 40
0.0
 40
0.0
 40
0.0
 40
0.1126747567484673
 40
0.2015369561657452
 40
0.2905298831728093
 40
0.3796264739878047
 40
0.468768938662573
 40
0.5579376844330374
 40
0.6471052581100528
 40
0.7362557856538462
 40
0.825348526110974
 40
0.9143420544462059
 40
0.9999999999999999
 40
0.9999999999999999
 40
0.9999999999999999
 40
0.9999999999999999
 10
339.5608708639548
 20
543.2129489753823
 30
0.0
 10
339.5608708639548
 20
544.0284768046214
 30
0.0
 10
339.5608708639548
 20
545.4871797219059
 30
0.0
 10
339.5608708639548
 20
547.4939955511879
 30
0.0
 10
339.5608708639548
 20
549.2552269321613
 30
0.0
 10
339.5608708639548
 20
550.9141695721355
 30
0.0
 10
339.5608708639548
 20
552.4518073561717
 30
0.0
 10
339.5608708639548
 20
553.7992070968776
 30
0.0
 10
339.5608708639548
 20
554.9294618847593
 30
0.0
 10
339.5608708639548
 20
555.8115018643224
 30
0.0
 10
339.5608708639548
 20
556.4640350736736
 30
0.0
 10
339.5608708639548
 20
556.8829553298975
 30
0.0
 10
339.5608708639548
 20
556.934694300459
 30
0.0
 10
339.5608708639548
 20
556.9600697171371
 30
0.0
  0
SPLINE
  5
224
330
1F
100
AcDbEntity
  8
0
  6
Continuous
 62
     7
370
    15
100
AcDbSpline
210
0.0
220
0.0
230
1.0
 70
    24
 71
     3
 72
    28
 73
    24
 74
     0
 42
0.00000001
 43
0.00000001
 40
0.0
 40
0.0
 40
0.0
 40
0.0
 40
0.0624999999999999
 40
0.0624999999999999
 40
0.0937499999999999
 40
0.0937499999999999
 40
0.1249999999999999
 40
0.1249999999999999
 40
0.1562499999999998
 40
0.1562499999999998
 40
0.1718749999999998
 40
0.1718749999999998
 40
0.1874999999999998
 40
0.1874999999999998
 40
0.2187499999999997
 40
0.2187499999999997
 40
0.2499999999999997
 40
0.2499999999999997
 40
0.3124999999999998
 40
0.3124999999999998
 40
0.3437499999999999
 40
0.3437499999999999
 40
0.3555150274544383
 40
0.3555150274544383
 40
0.3555150274544383
 40
0.3555150274544383
 10
339.5608721454547
 20
523.1437050962164
 30
0.0
 10
339.5608721454547
 20
523.1437050962164
 30
0.0
 10
339.5608721454547
 20
523.3275514876648
 30
0.0
 10
339.5608721454547
 20
523.8492462070483
 30
0.0
 10
339.5608721454547
 20
524.0666189893018
 30
0.0
 10
339.5608721454547
 20
524.5718999880991
 30
0.0
 10
339.5608721454547
 20
524.8575952075315
 30
0.0
 10
339.5608721454547
 20
525.5096190379625
 30
0.0
 10
339.5608721454547
 20
525.8760108061329
 30
0.0
 10
339.5608721454547
 20
526.486571888988
 30
0.0
 10
339.5608721454547
 20
526.6999643874658
 30
0.0
 10
339.5608721454547
 20
527.1401307108895
 30
0.0
 10
339.5608721454547
 20
527.3676614171889
 30
0.0
 10
339.5608721454547
 20
528.071786617115
 30
0.0
 10
339.5608721454547
 20
528.5708198148352
 30
0.0
 10
339.5608721454547
 20
529.6199740023312
 30
0.0
 10
339.5608721454547
 20
530.1680008153284
 30
0.0
 10
339.5608721454547
 20
531.8556017336089
 30
0.0
 10
339.5608721454547
 20
533.0376704075614
 30
0.0
 10
339.5608721454547
 20
534.8971242826468
 30
0.0
 10
339.5608721454547
 20
535.5320704899297
 30
0.0
 10
339.5608721454547
 20
536.412588938672
 30
0.0
 10
339.5608721454547
 20
536.6545788659029
 30
0.0
 10
339.5608721454547
 20
536.8975851189729
 30
0.0
  0
SPLINE
  5
225
330
1F
100
AcDbEntity
  8
0
  6
Continuous
 62
     7
370
    15
100
AcDbSpline
210
0.0
220
0.0
230
1.0
 70
     8
 71
     3
 72
    11
 73
     7
 74
     0
 42
0.00000001
 43
0.00000001
 40
-0.00000006
 40
-0.00000006
 40
-0.00000006
 40
-0.00000006
 40
0.0
 40
0.0
 40
0.0
 40
0.0013502178929927
 40
0.0013502178929927
 40
0.0013502178929927
 40
0.0013502178929927
 10
340.8431698118053
 20
536.8784552121916
 30
0.0
 10
340.8431508168737
 20
536.878455473353
 30
0.0
 10
340.8431318219423
 20
536.8784557345142
 30
0.0
 10
340.8431128270108
 20
536.8784559956761
 30
0.0
 10
340.4156578894575
 20
536.8843330857877
 30
0.0
 10
339.9882435879931
 20
536.8903915466623
 30
0.0
 10
339.5608721454546
 20
536.8966434139942
 30
0.0
  0
SPLINE
  5
226
330
1F
100
AcDbEntity
  8
0
  6
Continuous
 62
     7
370
    15
100
AcDbSpline
210
0.0
220
0.0
230
1.0
 70
     8
 71
     3
 72
    22
 73
    18
 74
     0
 42
0.00000001
 43
0.00000001
 40
0.0
 40
0.0
 40
0.0
 40
0.0
 40
0.499999999999999
 40
0.499999999999999
 40
0.7499999999999986
 40
0.7499999999999986
 40
0.8124999999999984
 40
0.8124999999999984
 40
0.8749999999999983
 40
0.8749999999999983
 40
0.9374999999999982
 40
0.9374999999999982
 40
0.9687499999999982
 40
0.9687499999999982
 40
0.9843749999999991
 40
0.9843749999999991
 40
1.0
 40
1.0
 40
1.0
 40
1.0
 10
349.8368420117976
 20
536.7796340100851
 30
0.0
 10
348.3552291944233
 20
536.7841988297575
 30
0.0
 10
346.8755119718135
 20
536.7929515740844
 30
0.0
 10
344.6558427525304
 20
536.8060925309792
 30
0.0
 10
343.9160460011935
 20
536.8106815122404
 30
0.0
 10
342.9914226880621
 20
536.8167164646347
 30
0.0
 10
342.8067686490008
 20
536.817262323486
 30
0.0
 10
342.4364360378133
 20
536.8218835643454
 30
0.0
 10
342.250252663826
 20
536.8258781456437
 30
0.0
 10
341.8697393312584
 20
536.8369743141977
 30
0.0
 10
341.6754253899471
 20
536.8440987263825
 30
0.0
 10
341.372959746205
 20
536.8563130695372
 30
0.0
 10
341.2703006072567
 20
536.8606299434982
 30
0.0
 10
341.1128815253872
 20
536.867265645341
 30
0.0
 10
341.0598362513637
 20
536.8695034442673
 30
0.0
 10
340.9524816394448
 20
536.873986426517
 30
0.0
 10
340.8967968178083
 20
536.8762872418107
 30
0.0
 10
340.8431698118053
 20
536.8784552121916
 30
0.0
  0
SPLINE
  5
227
330
1F
100
AcDbEntity
  8
0
  6
Continuous
 62
     7
370
    15
100
AcDbSpline
210
0.0
220
0.0
230
1.0
 70
     8
 71
     3
 72
    21
 73
    17
 74
     0
 42
0.00000001
 43
0.00000001
 40
0.0
 40
0.0
 40
0.0
 40
0.0
 40
0.125
 40
0.125
 40
0.25
 40
0.25
 40
0.375
 40
0.375
 40
0.5
 40
0.625
 40
0.625
 40
0.75
 40
0.75
 40
0.875
 40
0.875
 40
1.0
 40
1.0
 40
1.0
 40
1.0
 10
351.5591289875785
 20
536.5529501543144
 30
0.0
 10
351.5588070238046
 20
536.5648286123321
 30
0.0
 10
351.5486036934228
 20
536.5767180450712
 30
0.0
 10
351.5090547421088
 20
536.5997173792181
 30
0.0
 10
351.4797063023538
 20
536.6109583858738
 30
0.0
 10
351.4016821296686
 20
536.6329460829741
 30
0.0
 10
351.3527009524519
 20
536.6437203706738
 30
0.0
 10
351.238101584494
 20
536.6642717340161
 30
0.0
 10
351.1064715235751
 20
536.6839782639998
 30
0.0
 10
350.9416902382342
 20
536.7022260507681
 30
0.0
 10
350.7600457108886
 20
536.7198295696246
 30
0.0
 10
350.660035761893
 20
536.7283609964478
 30
0.0
 10
350.4470759973315
 20
536.7444743367989
 30
0.0
 10
350.3340584097672
 20
536.7520797814018
 30
0.0
 10
350.0951668779449
 20
536.7664678382239
 30
0.0
 10
349.9678890156588
 20
536.773317702144
 30
0.0
 10
349.8368420117976
 20
536.7796340100851
 30
0.0
  0
SPLINE
  5
228
330
1F
100
AcDbEntity
  8
0
  6
Continuous
 62
     7
370
    15
100
AcDbSpline
210
0.0
220
0.0
230
1.0
 70
     8
 71
     3
 72
    14
 73
    10
 74
     0
 42
0.00000001
 43
0.00000001
 40
0.0
 40
0.0
 40
0.0
 40
0.0
 40
0.0014938201989645
 40
0.0014938201989645
 40
0.0014938201989645
 40
0.0016736359979219
 40
0.0016736359979219
 40
0.0016736359979219
 40
0.0016736958220305
 40
0.0016736958220305
 40
0.0016736958220305
 40
0.0016736958220305
 10
351.5608721454546
 20
536.5542888354937
 30
0.0
 10
351.5608721454547
 20
536.5542888354937
 30
0.0
 10
351.560406865718
 20
536.5541451204547
 30
0.0
 10
351.5594827409315
 20
536.5532839530305
 30
0.0
 10
351.5593715010389
 20
536.5531802915194
 30
0.0
 10
351.5592536200384
 20
536.553069057721
 30
0.0
 10
351.559129111851
 20
536.5529502728749
 30
0.0
 10
351.5591290704275
 20
536.5529502333555
 30
0.0
 10
351.5591290290034
 20
536.5529501938346
 30
0.0
 10
351.5591289875785
 20
536.5529501543144
 30
0.0
  0
SPLINE
  5
229
330
1F
100
AcDbEntity
  8
0
  6
Continuous
 62
     7
370
    15
100
AcDbSpline
210
0.0
220
0.0
230
1.0
 70
     8
 71
     3
 72
     9
 73
     5
 74
     0
 42
0.00000001
 43
0.00000001
 40
0.0
 40
0.0
 40
0.0
 40
0.0
 40
0.8652187700544888
 40
1.0
 40
1.0
 40
1.0
 40
1.0
 10
331.2178634484217
 20
520.9243811231535
 30
0.0
 10
333.623701901319
 20
521.5662473063398
 30
0.0
 10
336.4043147776966
 20
522.308101511775
 30
0.0
 10
339.1859576203526
 20
523.0444572587553
 30
0.0
 10
339.5608708639548
 20
523.1437041920107
 30
0.0
  0
LINE
  5
22A
330
1F
100
AcDbEntity
  8
0
  6
Continuous
 62
     8
370
    15
100
AcDbLine
 10
245.7606166978
 20
536.8551501569
 30
0.0
 11
241.5608398993
 21
536.8862553996
 31
0.0
  0
SPLINE
  5
22B
330
1F
100
AcDbEntity
  8
0
  6
Continuous
 62
     8
370
    15
100
AcDbSpline
210
0.0
220
0.0
230
1.0
 70
     8
 71
     3
 72
     9
 73
     5
 74
     0
 42
0.00000001
 43
0.00000001
 40
0.0
 40
0.0
 40
0.0
 40
0.0
 40
0.9050881529635685
 40
1.0
 40
1.0
 40
1.0
 40
1.0
 10
241.5610261638568
 20
543.2204288926404
 30
0.0
 10
242.8297635338109
 20
543.2261164392969
 30
0.0
 10
244.2315467366954
 20
543.2324004091378
 30
0.0
 10
245.6330103219145
 20
543.2458730807846
 30
0.0
 10
245.766025819342
 20
543.2471517969351
 30
0.0
  0
SPLINE
  5
22C
330
1F
100
AcDbEntity
  8
0
  6
Continuous
 62
     8
370
    15
100
AcDbSpline
210
0.0
220
0.0
230
1.0
 70
     8
 71
     3
 72
     9
 73
     5
 74
     0
 42
0.00000001
 43
0.00000001
 40
0.0
 40
0.0
 40
0.0
 40
0.0
 40
0.2415358906204936
 40
1.0
 40
1.0
 40
1.0
 40
1.0
 10
335.3792101521895
 20
543.2469545893799
 30
0.0
 10
335.7159561916714
 20
543.2440436532123
 30
0.0
 10
337.1101425323296
 20
543.2319918783802
 30
0.0
 10
338.5037714168585
 20
543.2206470090606
 30
0.0
 10
339.5607889075682
 20
543.212042332856
 30
0.0
  0
LINE
  5
22D
330
1F
100
AcDbEntity
  8
0
  6
Continuous
 62
     8
370
    15
100
AcDbLine
 10
339.5607889076
 20
536.8985174254
 30
0.0
 11
335.405309536
 21
536.8631199498
 31
0.0
  0
CIRCLE
  5
22E
330
1F
100
AcDbEntity
  8
1
100
AcDbCircle
 10
290.5608721455
 20
540.0542888355
 30
0.0
 40
10.00000000000001
  0
ARC
  5
22F
330
1F
100
AcDbEntity
  8
0
  6
Continuous
 62
     7
370
    15
100
AcDbCircle
 10
290.5608721455
 20
96.1300612619
 30
0.0
 40
4.0
100
AcDbArc
 50
115.8195307602
 51
270.0
  0
ARC
  5
230
330
1F
100
AcDbEntity
  8
0
  6
Continuous
 62
     7
370
    15
100
AcDbCircle
 10
290.5608721455
 20
96.1300612619
 30
0.0
 40
4.000000000000091
100
AcDbArc
 50
270.0
 51
25.8195307602
  0
LINE
  5
231
330
1F
100
AcDbEntity
  8
0
  6
Continuous
 62
     7
370
    15
100
AcDbLine
 10
229.56087146
 20
141.13006305
 30
0.0
 11
217.5608732183
 21
141.13006305
 31
0.0
  0
LINE
  5
232
330
1F
100
AcDbEntity
  8
0
  6
Continuous
 62
     7
370
    15
100
AcDbLine
 10
217.5608732183
 20
51.1300594738
 30
0.0
 11
229.56087146
 21
51.1300594738
 31
0.0
  0
LINE
  5
233
330
1F
100
AcDbEntity
  8
0
  6
Continuous
 62
     7
370
    15
100
AcDbLine
 10
351.5608728309
 20
51.1300594738
 30
0.0
 11
363.5608710726
 21
51.1300594738
 31
0.0
  0
LINE
  5
234
330
1F
100
AcDbEntity
  8
0
  6
Continuous
 62
     7
370
    15
100
AcDbLine
 10
363.5608710726
 20
141.13006305
 30
0.0
 11
351.5608728309
 21
141.13006305
 31
0.0
  0
LINE
  5
235
330
1F
100
AcDbEntity
  8
0
  6
Continuous
 62
     7
370
    15
100
AcDbLine
 10
290.5608787731
 20
72.1300610533
 30
0.0
 11
293.7482910608
 21
72.1300629159
 31
0.0
  0
SPLINE
  5
236
330
1F
100
AcDbEntity
  8
0
  6
Continuous
 62
     7
370
    15
100
AcDbSpline
210
0.0
220
0.0
230
1.0
 70
     8
 71
     3
 72
     9
 73
     5
 74
     0
 42
0.00000001
 43
0.00000001
 40
0.0
 40
0.0
 40
0.0
 40
0.0
 40
0.225873907388097
 40
1.0
 40
1.0
 40
1.0
 40
1.0
 10
301.6654149074957
 20
72.13008526766745
 30
0.0
 10
301.9324271443522
 20
72.13008695193975
 30
0.0
 10
303.1145567667773
 20
72.1300944086323
 30
0.0
 10
304.2945393282874
 20
72.13011235393427
 30
0.0
 10
305.2079946179793
 20
72.13012624586074
 30
0.0
  0
SPLINE
  5
237
330
1F
100
AcDbEntity
  8
0
  6
Continuous
 62
     7
370
    15
100
AcDbSpline
210
0.0
220
0.0
230
1.0
 70
     8
 71
     3
 72
     9
 73
     5
 74
     0
 42
0.00000001
 43
0.00000001
 40
0.0
 40
0.0
 40
0.0
 40
0.0
 40
0.4905394566601558
 40
1.0
 40
1.0
 40
1.0
 40
1.0
 10
305.2097855512903
 20
72.13003683889357
 30
0.0
 10
306.0138619521576
 20
72.12987136272284
 30
0.0
 10
307.6530295867896
 20
72.12953402763492
 30
0.0
 10
309.2386143636344
 20
72.1312442566678
 30
0.0
 10
310.0464072455571
 20
72.13211555088012
 30
0.0
  0
LINE
  5
238
330
1F
100
AcDbEntity
  8
0
  6
Continuous
 62
     7
370
    15
100
AcDbLine
 10
363.5608710726
 20
69.1300605615
 30
0.0
 11
365.5608751257
 21
71.1300608894
 31
0.0
  0
LINE
  5
239
330
1F
100
AcDbEntity
  8
0
  6
Continuous
 62
     7
370
    15
100
AcDbLine
 10
365.5608751257
 20
121.1300616344
 30
0.0
 11
363.5608710726
 21
123.1300619623
 31
0.0
  0
LINE
  5
23A
330
1F
100
AcDbEntity
  8
0
  6
Continuous
 62
     7
370
    15
100
AcDbLine
 10
217.5608732183
 20
123.1300619623
 30
0.0
 11
215.5608691652
 21
121.1300616344
 31
0.0
  0
LINE
  5
23B
330
1F
100
AcDbEntity
  8
0
  6
Continuous
 62
     7
370
    15
100
AcDbLine
 10
215.5608691652
 20
71.1300608894
 30
0.0
 11
217.5608732183
 21
69.1300605615
 31
0.0
  0
SPLINE
  5
23C
330
1F
100
AcDbEntity
  8
0
  6
Continuous
 62
     7
370
    15
100
AcDbSpline
210
0.0
220
0.0
230
1.0
 70
     8
 71
     3
 72
    14
 73
    10
 74
     0
 42
0.00000001
 43
0.00000001
 40
0.0
 40
0.0
 40
0.0
 40
0.0
 40
0.1086148574342779
 40
0.2144260655857961
 40
0.302373740810851
 40
0.3907796694266385
 40
0.4791528898288347
 40
0.5674946414760714
 40
1.0
 40
1.0
 40
1.0
 40
1.0
 10
310.0583691527055
 20
72.13271904790847
 30
0.0
 10
311.1695812646774
 20
72.19090727220723
 30
0.0
 10
313.3633220367037
 20
72.30578172211716
 30
0.0
 10
316.3956742090368
 20
73.0422153008269
 30
0.0
 10
319.1305843596987
 20
73.785144023455
 30
0.0
 10
321.7202659526318
 20
74.4694648939012
 30
0.0
 10
324.3070342744481
 20
75.15966030807036
 30
0.0
 10
330.2543517075492
 20
76.74571690926429
 30
0.0
 10
335.339669402956
 20
78.09492376956985
 30
0.0
 10
339.562457837622
 20
79.21528939211814
 30
0.0
  0
SPLINE
  5
23D
330
1F
100
AcDbEntity
  8
0
  6
Continuous
 62
     7
370
    15
100
AcDbSpline
210
0.0
220
0.0
230
1.0
 70
     8
 71
     3
 72
    20
 73
    16
 74
     0
 42
0.00000001
 43
0.00000001
 40
0.0
 40
0.0
 40
0.0
 40
0.0
 40
0.2082594704890496
 40
0.3819587298290155
 40
0.5278167276714101
 40
0.6463292437673761
 40
0.6989581237822591
 40
0.7417588876893727
 40
0.7686419806110582
 40
0.7920013892367802
 40
0.8096370633975649
 40
0.8313593692205759
 40
0.8866435630372116
 40
0.9577001122977394
 40
0.9999999999999999
 40
0.9999999999999999
 40
0.9999999999999999
 40
0.9999999999999999
 10
241.5608734269546
 20
113.0406254162833
 30
0.0
 10
240.6314076461543
 20
113.393880002501
 30
0.0
 10
238.9267189315412
 20
114.0417673362254
 30
0.0
 10
236.5747986298716
 20
114.9916398732154
 30
0.0
 10
234.6060731653972
 20
115.7809071064956
 30
0.0
 10
233.1825913139793
 20
116.3472427680613
 30
0.0
 10
232.2038478676477
 20
116.7487590228566
 30
0.0
 10
231.6387766830661
 20
116.9887287877595
 30
0.0
 10
231.2138811663893
 20
117.1773714234517
 30
0.0
 10
230.9026239857428
 20
117.3307164002304
 30
0.0
 10
230.6518494918697
 20
117.4685836184159
 30
0.0
 10
230.3152069549732
 20
117.672032104228
 30
0.0
 10
229.899973128002
 20
117.9792408829338
 30
0.0
 10
229.6452911703685
 20
118.3216433459879
 30
0.0
 10
229.6223933307168
 20
118.5064852848096
 30
0.0
 10
229.6138488133357
 20
118.5754605760619
 30
0.0
  0
SPLINE
  5
23E
330
1F
100
AcDbEntity
  8
0
  6
Continuous
 62
     7
370
    15
100
AcDbSpline
210
0.0
220
0.0
230
1.0
 70
     8
 71
     3
 72
    23
 73
    19
 74
     0
 42
0.00000001
 43
0.00000001
 40
0.0
 40
0.0
 40
0.0
 40
0.0
 40
0.0118940169644132
 40
0.0787782250066283
 40
0.1275190552257518
 40
0.1456630909241109
 40
0.1599184960443355
 40
0.1706668472420733
 40
0.1749877910046337
 40
0.2066264305646738
 40
0.2338574243121517
 40
0.2862984118817978
 40
0.3338641756159813
 40
0.3850526767407145
 40
0.4925274639409954
 40
0.6294059135101475
 40
0.7963904446252283
 40
1.0
 40
1.0
 40
1.0
 40
1.0
 10
229.5995585997508
 20
73.71895883286444
 30
0.0
 10
229.6013602214071
 20
73.73002907714
 30
0.0
 10
229.6132929903484
 20
73.80335116815662
 30
0.0
 10
229.6837017909867
 20
73.98461736676968
 30
0.0
 10
229.8509665401536
 20
74.2039702766508
 30
0.0
 10
230.0198617683971
 20
74.3665212586509
 30
0.0
 10
230.1343203942678
 20
74.46375914547754
 30
0.0
 10
230.2331682938093
 20
74.53955135932135
 30
0.0
 10
230.4218624145823
 20
74.6733128166316
 30
0.0
 10
230.7039136047665
 20
74.84330224066159
 30
0.0
 10
231.2060378115337
 20
75.10395310568735
 30
0.0
 10
231.8023787846135
 20
75.3655372121036
 30
0.0
 10
232.5053592108256
 20
75.66342981493831
 30
0.0
 10
233.4449563853234
 20
76.04522510697262
 30
0.0
 10
234.7838601803814
 20
76.58224182876715
 30
0.0
 10
236.6537298031953
 20
77.32841360796394
 30
0.0
 10
238.946372632803
 20
78.24682494305907
 30
0.0
 10
240.6337853602619
 20
78.87453382886456
 30
0.0
 10
241.5608734269546
 20
79.21940583789794
 30
0.0
  0
SPLINE
  5
23F
330
1F
100
AcDbEntity
  8
0
  6
Continuous
 62
     7
370
    15
100
AcDbSpline
210
0.0
220
0.0
230
1.0
 70
     8
 71
     3
 72
    18
 73
    14
 74
     0
 42
0.00000001
 43
0.00000001
 40
0.0
 40
0.0
 40
0.0
 40
0.0
 40
0.2201371889348236
 40
0.4035540410574031
 40
0.558434178807362
 40
0.6849176763883241
 40
0.7508019103269563
 40
0.8019891910839161
 40
0.8407929053336826
 40
0.9190270591665329
 40
0.9399143997387972
 40
0.9597960055577561
 40
0.9999999999999999
 40
0.9999999999999999
 40
0.9999999999999999
 40
0.9999999999999999
 10
339.5608708639548
 20
79.21955298686473
 30
0.0
 10
340.490651582327
 20
78.87366118776384
 30
0.0
 10
342.1951194553469
 20
78.23957462578313
 30
0.0
 10
344.5410413802914
 20
77.29655833573737
 30
0.0
 10
346.5061173198253
 20
76.51142635304163
 30
0.0
 10
347.9668684390939
 20
75.9294390628701
 30
0.0
 10
349.0096570903974
 20
75.49649945643357
 30
0.0
 10
349.6867883744443
 20
75.20704522135054
 30
0.0
 10
350.3996655955806
 20
74.86289319063339
 30
0.0
 10
350.9571682156674
 20
74.53119820480167
 30
0.0
 10
351.3308854932159
 20
74.1394153235686
 30
0.0
 10
351.5098808488867
 20
73.82030411420534
 30
0.0
 10
351.5404312151268
 20
73.5430672203241
 30
0.0
 10
351.5608728309081
 20
73.35756469572036
 30
0.0
  0
SPLINE
  5
240
330
1F
100
AcDbEntity
  8
0
  6
Continuous
 62
     7
370
    15
100
AcDbSpline
210
0.0
220
0.0
230
1.0
 70
     8
 71
     3
 72
    19
 73
    15
 74
     0
 42
0.00000001
 43
0.00000001
 40
0.0
 40
0.0
 40
0.0
 40
0.0
 40
0.0216941459075721
 40
0.0402770424166052
 40
0.0567661284667534
 40
0.0716435241274801
 40
0.0919100203907035
 40
0.108925187860588
 40
0.1653578798696992
 40
0.260978198315879
 40
0.3962021996833741
 40
0.5639511906862675
 40
0.7622739917606433
 40
1.0
 40
1.0
 40
1.0
 40
1.0
 10
351.5608728309081
 20
118.8942634692237
 30
0.0
 10
351.5538743764599
 20
118.7977506777239
 30
0.0
 10
351.5408811455735
 20
118.6185664031484
 30
0.0
 10
351.4613243818797
 20
118.3631999136234
 30
0.0
 10
351.3466273730052
 20
118.1543589895463
 30
0.0
 10
351.1825639778946
 20
117.9710531884015
 30
0.0
 10
350.995444308249
 20
117.809778025899
 30
0.0
 10
350.646478930648
 20
117.5606216904085
 30
0.0
 10
349.9518712909168
 20
117.1795265794744
 30
0.0
 10
348.7030306333535
 20
116.6564299182067
 30
0.0
 10
347.0279127791532
 20
115.9817021001062
 30
0.0
 10
344.9189557853863
 20
115.1393998298641
 30
0.0
 10
342.3843224004331
 20
114.1131803718663
 30
0.0
 10
340.5570610535227
 20
113.4189831493528
 30
0.0
 10
339.5608708639548
 20
113.0405192455098
 30
0.0
  0
SPLINE
  5
241
330
1F
100
AcDbEntity
  8
0
  6
Continuous
 62
     7
370
    15
100
AcDbSpline
210
0.0
220
0.0
230
1.0
 70
     8
 71
     3
 72
    14
 73
    10
 74
     0
 42
0.00000001
 43
0.00000001
 40
0.0
 40
0.0
 40
0.0
 40
0.0
 40
0.4317523655894769
 40
0.5202186436789592
 40
0.6087160967237921
 40
0.6972456215276349
 40
0.785321143919527
 40
0.8912250617038221
 40
1.0
 40
1.0
 40
1.0
 40
1.0
 10
241.5581241627143
 20
79.21547379398791
 30
0.0
 10
245.7744424877229
 20
78.09685498830878
 30
0.0
 10
250.8546865701381
 20
76.74903062354899
 30
0.0
 10
256.7983951412544
 20
75.16385979452193
 30
0.0
 10
259.3893879130948
 20
74.47251789596753
 30
0.0
 10
261.9832999012832
 20
73.7870177596863
 30
0.0
 10
264.7223103333774
 20
73.04305477139917
 30
0.0
 10
267.7587325031844
 20
72.30520647692057
 30
0.0
 10
269.9553397728259
 20
72.19049154661579
 30
0.0
 10
271.068331636946
 20
72.13236700797526
 30
0.0
  0
SPLINE
  5
242
330
1F
100
AcDbEntity
  8
0
  6
Continuous
 62
     7
370
    15
100
AcDbSpline
210
0.0
220
0.0
230
1.0
 70
     8
 71
     3
 72
     9
 73
     5
 74
     0
 42
0.00000001
 43
0.00000001
 40
0.0
 40
0.0
 40
0.0
 40
0.0
 40
0.5094605433398443
 40
1.0
 40
1.0
 40
1.0
 40
1.0
 10
271.0753370453522
 20
72.13211555088012
 30
0.0
 10
271.883129927275
 20
72.1312442566678
 30
0.0
 10
273.4687147041198
 20
72.1295340276349
 30
0.0
 10
275.1078823387518
 20
72.12987136272284
 30
0.0
 10
275.911958739619
 20
72.13003683889357
 30
0.0
  0
SPLINE
  5
243
330
1F
100
AcDbEntity
  8
0
  6
Continuous
 62
     7
370
    15
100
AcDbSpline
210
0.0
220
0.0
230
1.0
 70
     8
 71
     3
 72
     9
 73
     5
 74
     0
 42
0.00000001
 43
0.00000001
 40
0.0
 40
0.0
 40
0.0
 40
0.0
 40
0.7742566896226168
 40
1.0
 40
1.0
 40
1.0
 40
1.0
 10
275.9109529112384
 20
72.13005732799022
 30
0.0
 10
276.8254185498556
 20
72.13005818923286
 30
0.0
 10
278.006507006531
 20
72.13005930158052
 30
0.0
 10
279.1893261246582
 20
72.13005921106796
 30
0.0
 10
279.4563396279619
 20
72.13005919063536
 30
0.0
  0
LINE
  5
244
330
1F
100
AcDbEntity
  8
0
  6
Continuous
 62
     7
370
    15
100
AcDbLine
 10
287.3156015673
 20
72.1300610533
 30
0.0
 11
290.5608721454
 21
72.1300610533
 31
0.0
  0
CIRCLE
  5
245
330
1F
100
AcDbEntity
  8
0
  6
Continuous
 62
     7
370
    15
100
AcDbCircle
 10
290.5608721455
 20
96.1300612619
 30
0.0
 40
1.949999999999962
  0
CIRCLE
  5
246
330
1F
100
AcDbEntity
  8
0
  6
Continuous
 62
     7
370
    15
100
AcDbCircle
 10
290.5608721455
 20
96.1300612619
 30
0.0
 40
3.499999999999974
  0
CIRCLE
  5
247
330
1F
100
AcDbEntity
  8
0
  6
Continuous
 62
     7
370
    15
100
AcDbCircle
 10
290.5608721455
 20
96.1300612619
 30
0.0
 40
3.636296694843746
  0
CIRCLE
  5
248
330
1F
100
AcDbEntity
  8
0
  6
Continuous
 62
     7
370
    15
100
AcDbCircle
 10
290.5608721455
 20
96.1300612619
 30
0.0
 40
3.863703305156244
  0
CIRCLE
  5
249
330
1F
100
AcDbEntity
  8
0
  6
Continuous
 62
     7
370
    15
100
AcDbCircle
 10
290.5608721455
 20
96.1300612619
 30
0.0
 40
4.000000000000011
  0
LINE
  5
24A
330
1F
100
AcDbEntity
  8
0
  6
Continuous
 62
     7
370
    15
100
AcDbLine
 10
292.6569425878
 20
87.7894082298
 30
0.0
 11
292.1497916947
 21
89.8074561922
 31
0.0
  0
ARC
  5
24B
330
1F
100
AcDbEntity
  8
0
  6
Continuous
 62
     7
370
    15
100
AcDbCircle
 10
293.847017514
 20
90.2339821735
 30
0.0
 40
1.750000000000081
100
AcDbArc
 50
55.1138436154
 51
194.106741573
  0
ARC
  5
24C
330
1F
100
AcDbEntity
  8
0
  6
Continuous
 62
     7
370
    15
100
AcDbCircle
 10
295.8488344443
 20
93.1049974952
 30
0.0
 40
1.750000000000024
100
AcDbArc
 50
235.1138436154
 51
336.4376359297
  0
ARC
  5
24D
330
1F
100
AcDbEntity
  8
0
  6
Continuous
 62
     7
370
    15
100
AcDbCircle
 10
290.5608721455
 20
95.4111160992
 30
0.0
 40
7.518945162694261
100
AcDbArc
 50
336.4376359297
 51
203.5623640703
  0
ARC
  5
24E
330
1F
100
AcDbEntity
  8
0
  6
Continuous
 62
     7
370
    15
100
AcDbCircle
 10
285.2729098466
 20
93.1049974952
 30
0.0
 40
1.750000000000011
100
AcDbArc
 50
203.5623640703
 51
304.8861563846
  0
ARC
  5
24F
330
1F
100
AcDbEntity
  8
0
  6
Continuous
 62
     7
370
    15
100
AcDbCircle
 10
287.2747267769
 20
90.2339821735
 30
0.0
 40
1.750000000000026
100
AcDbArc
 50
345.893258427
 51
124.8861563846
  0
LINE
  5
250
330
1F
100
AcDbEntity
  8
0
  6
Continuous
 62
     7
370
    15
100
AcDbLine
 10
288.9719525962
 20
89.8074561922
 30
0.0
 11
288.4648017031
 21
87.7894082298
 31
0.0
  0
CIRCLE
  5
251
330
1F
100
AcDbEntity
  8
0
  6
Continuous
 62
     7
370
    15
100
AcDbCircle
 10
287.2747267769
 20
90.2339821735
 30
0.0
 40
0.8499999999999659
  0
CIRCLE
  5
252
330
1F
100
AcDbEntity
  8
0
  6
Continuous
 62
     7
370
    15
100
AcDbCircle
 10
293.847017514
 20
90.2339821735
 30
0.0
 40
0.8500000000000227
  0
CIRCLE
  5
253
330
1F
100
AcDbEntity
  8
0
  6
Continuous
 62
     7
370
    15
100
AcDbCircle
 10
290.5608721455
 20
96.1300612619
 30
0.0
 40
5.0
  0
ARC
  5
254
330
1F
100
AcDbEntity
  8
0
  6
Continuous
 62
     7
370
    15
100
AcDbCircle
 10
290.5608721455
 20
96.1300612619
 30
0.0
 40
8.5
100
AcDbArc
 50
255.893258427
 51
284.106741573
  0
CIRCLE
  5
255
330
1F
100
AcDbEntity
  8
0
  6
Continuous
 62
     7
370
    15
100
AcDbCircle
 10
290.5608721455
 20
96.1300612619
 30
0.0
 40
4.010000000000005
  0
CIRCLE
  5
256
330
1F
100
AcDbEntity
  8
0
  6
Continuous
 62
     7
370
    15
100
AcDbCircle
 10
290.5608721455
 20
96.1300612619
 30
0.0
 40
8.599999999999994
  0
LINE
  5
257
330
1F
100
AcDbEntity
  8
0
  6
Continuous
 62
     7
370
    15
100
AcDbLine
 10
302.5608722498
 20
105.0966878613
 30
0.0
 11
302.5608722498
 21
87.1634346625
 31
0.0
  0
LINE
  5
258
330
1F
100
AcDbEntity
  8
0
  6
Continuous
 62
     7
370
    15
100
AcDbLine
 10
278.5608720411
 20
87.1634346625
 30
0.0
 11
278.5608720411
 21
105.0966878613
 31
0.0
  0
ARC
  5
259
330
1F
100
AcDbEntity
  8
0
  6
Continuous
 62
     7
370
    15
100
AcDbCircle
 10
313.541842534
 20
73.1490908733
 30
0.0
 40
4.999999999999977
100
AcDbArc
 50
191.9094484644
 51
5.3883343438
  0
ARC
  5
25A
330
1F
100
AcDbEntity
  8
0
  6
Continuous
 62
     7
370
    15
100
AcDbCircle
 10
267.5799017569
 20
73.1490908733
 30
0.0
 40
5.000000000000069
100
AcDbArc
 50
174.7903282075
 51
348.0822725281
  0
ARC
  5
25B
330
1F
100
AcDbEntity
  8
0
  6
Continuous
 62
     7
370
    15
100
AcDbCircle
 10
313.541842534
 20
119.1110316505
 30
0.0
 40
5.000000000000021
100
AcDbArc
 50
354.792072217
 51
168.0826251222
  0
ARC
  5
25C
330
1F
100
AcDbEntity
  8
0
  6
Continuous
 62
     7
370
    15
100
AcDbCircle
 10
267.5799017569
 20
119.1110316505
 30
0.0
 40
5.000000000000044
100
AcDbArc
 50
11.9090793351
 51
185.3844948011
  0
CIRCLE
  5
25D
330
1F
100
AcDbEntity
  8
0
  6
Continuous
 62
     7
370
    15
100
AcDbCircle
 10
290.5608721455
 20
96.1300612619
 30
0.0
 40
14.99999999999989
  0
CIRCLE
  5
25E
330
1F
100
AcDbEntity
  8
0
  6
Continuous
 62
     7
370
    15
100
AcDbCircle
 10
290.5608721455
 20
121.1300612619
 30
0.0
 40
3.400000000000006
  0
CIRCLE
  5
25F
330
1F
100
AcDbEntity
  8
0
  6
Continuous
 62
     7
370
    15
100
AcDbCircle
 10
290.5608721455
 20
71.1300612619
 30
0.0
 40
3.399999999999977
  0
ARC
  5
260
330
1F
100
AcDbEntity
  8
0
  6
Continuous
 62
     7
370
    15
100
AcDbCircle
 10
290.5608721455
 20
71.1300612619
 30
0.0
 40
10.00000000000002
100
AcDbArc
 50
201.1001960241
 51
338.8998039759
  0
LINE
  5
261
330
1F
100
AcDbEntity
  8
0
  6
Continuous
 62
     7
370
    15
100
AcDbLine
 10
272.8347786148
 20
89.2900613328
 30
0.0
 11
281.2313491856
 21
67.5300614169
 31
0.0
  0
ARC
  5
262
330
1F
100
AcDbEntity
  8
0
  6
Continuous
 62
     7
370
    15
100
AcDbCircle
 10
290.5608721455
 20
96.1300612619
 30
0.0
 40
18.99999999999995
100
AcDbArc
 50
158.8998039759
 51
201.1001960241
  0
LINE
  5
263
330
1F
100
AcDbEntity
  8
0
  6
Continuous
 62
     7
370
    15
100
AcDbLine
 10
281.2313491856
 20
124.7300611069
 30
0.0
 11
272.8347786148
 21
102.970061191
 31
0.0
  0
ARC
  5
264
330
1F
100
AcDbEntity
  8
0
  6
Continuous
 62
     7
370
    15
100
AcDbCircle
 10
290.5608721455
 20
121.1300612619
 30
0.0
 40
10.00000000000001
100
AcDbArc
 50
21.1001960241
 51
158.8998039759
  0
LINE
  5
265
330
1F
100
AcDbEntity
  8
0
  6
Continuous
 62
     7
370
    15
100
AcDbLine
 10
308.2869656761
 20
102.970061191
 30
0.0
 11
299.8903951053
 21
124.7300611069
 31
0.0
  0
ARC
  5
266
330
1F
100
AcDbEntity
  8
0
  6
Continuous
 62
     7
370
    15
100
AcDbCircle
 10
290.5608721455
 20
96.1300612619
 30
0.0
 40
19.00000000000006
100
AcDbArc
 50
338.8998039759
 51
21.1001960241
  0
LINE
  5
267
330
1F
100
AcDbEntity
  8
0
  6
Continuous
 62
     7
370
    15
100
AcDbLine
 10
299.8903951053
 20
67.5300614169
 30
0.0
 11
308.2869656761
 21
89.2900613328
 31
0.0
  0
LINE
  5
268
330
1F
100
AcDbEntity
  8
0
  6
Continuous
 62
     7
370
    15
100
AcDbLine
 10
229.56087146
 20
141.13006305
 30
0.0
 11
229.56087146
 21
51.1300594738
 31
0.0
  0
LINE
  5
269
330
1F
100
AcDbEntity
  8
0
  6
Continuous
 62
     7
370
    15
100
AcDbLine
 10
217.5608732183
 20
141.13006305
 30
0.0
 11
217.5608732183
 21
51.1300594738
 31
0.0
  0
LINE
  5
26A
330
1F
100
AcDbEntity
  8
0
  6
Continuous
 62
     7
370
    15
100
AcDbLine
 10
351.5608728309
 20
141.13006305
 30
0.0
 11
351.5608728309
 21
51.1300594738
 31
0.0
  0
LINE
  5
26B
330
1F
100
AcDbEntity
  8
0
  6
Continuous
 62
     7
370
    15
100
AcDbLine
 10
363.5608710726
 20
141.13006305
 30
0.0
 11
363.5608710726
 21
51.1300594738
 31
0.0
  0
ARC
  5
26C
330
1F
100
AcDbEntity
  8
0
  6
Continuous
 62
     7
370
    15
100
AcDbCircle
 10
290.6278711964
 20
96.1300612619
 30
0.0
 40
20.03925200707843
100
AcDbArc
 50
319.8122465721
 51
40.1877534279
  0
SPLINE
  5
26D
330
1F
100
AcDbEntity
  8
0
  6
Continuous
 62
     7
370
    15
100
AcDbSpline
210
0.0
220
0.0
230
1.0
 70
     8
 71
     3
 72
    62
 73
    58
 74
     0
 42
0.00000001
 43
0.00000001
 40
0.2162073907544949
 40
0.2162073907544949
 40
0.2162073907544949
 40
0.2162073907544949
 40
0.21875
 40
0.21875
 40
0.234375
 40
0.234375
 40
0.25
 40
0.25
 40
0.265625
 40
0.265625
 40
0.28125
 40
0.28125
 40
0.296875
 40
0.296875
 40
0.3125
 40
0.3125
 40
0.328125
 40
0.328125
 40
0.34375
 40
0.34375
 40
0.359375
 40
0.359375
 40
0.375
 40
0.375
 40
0.390625
 40
0.390625
 40
0.40625
 40
0.40625
 40
0.421875
 40
0.421875
 40
0.4375
 40
0.4375
 40
0.453125
 40
0.453125
 40
0.46875
 40
0.46875
 40
0.484375
 40
0.484375
 40
0.5
 40
0.5
 40
0.515625
 40
0.515625
 40
0.53125
 40
0.53125
 40
0.546875
 40
0.546875
 40
0.5625
 40
0.5625
 40
0.578125
 40
0.578125
 40
0.59375
 40
0.59375
 40
0.609375
 40
0.609375
 40
0.625
 40
0.625
 40
0.635476878548411
 40
0.635476878548411
 40
0.635476878548411
 40
0.635476878548411
 10
308.1707539066126
 20
106.048667313909
 30
0.0
 10
308.2662772800822
 20
106.0500266092436
 30
0.0
 10
308.3600631883845
 20
106.0512297568313
 30
0.0
 10
309.0069213942723
 20
106.0585415797812
 30
0.0
 10
309.6438498393448
 20
106.0595405827754
 30
0.0
 10
310.5571288745224
 20
106.0550900720828
 30
0.0
 10
311.0777183761779
 20
106.0514032983036
 30
0.0
 10
311.8376309363288
 20
106.050137532984
 30
0.0
 10
312.2179588598547
 20
106.0465013629195
 30
0.0
 10
312.9789386018754
 20
106.0333305203387
 30
0.0
 10
313.3658528001886
 20
106.0236385425598
 30
0.0
 10
314.1334095664587
 20
105.9984619249122
 30
0.0
 10
314.5241402125158
 20
105.9825385160548
 30
0.0
 10
315.3041037745617
 20
105.9449000548721
 30
0.0
 10
315.6933366905506
 20
105.9231850025468
 30
0.0
 10
316.4549025365478
 20
105.8748418110277
 30
0.0
 10
316.8361008893207
 20
105.8498567263006
 30
0.0
 10
317.5978516297026
 20
105.7998880058801
 30
0.0
 10
317.9784040173115
 20
105.7749043701866
 30
0.0
 10
318.7373860026527
 20
105.7265669748018
 30
0.0
 10
319.1170355118378
 20
105.7025881681227
 30
0.0
 10
319.8761839694841
 20
105.6550505797182
 30
0.0
 10
320.2556829179453
 20
105.631491797993
 30
0.0
 10
321.0140626603905
 20
105.5848345024237
 30
0.0
 10
321.3933648950263
 20
105.5617103339085
 30
0.0
 10
322.1520279178664
 20
105.515891284912
 30
0.0
 10
322.5313887060709
 20
105.4931964044306
 30
0.0
 10
323.2900026627909
 20
105.4482562609967
 30
0.0
 10
323.6692558313064
 20
105.4260109980441
 30
0.0
 10
324.4274883753908
 20
105.3819904191625
 30
0.0
 10
324.8064677509598
 20
105.3602151032335
 30
0.0
 10
325.5639865358937
 20
105.3171547478941
 30
0.0
 10
325.9428626991908
 20
105.295850645078
 30
0.0
 10
326.700671574311
 20
105.2537137012656
 30
0.0
 10
327.0796042861342
 20
105.2328808602694
 30
0.0
 10
327.8373492651728
 20
105.1917055522095
 30
0.0
 10
328.2161615323883
 20
105.1713630851459
 30
0.0
 10
328.9734886290775
 20
105.1311876370641
 30
0.0
 10
329.3520034585512
 20
105.1113546560459
 30
0.0
 10
330.108558686623
 20
105.0722172921676
 30
0.0
 10
330.4869547989666
 20
105.0528945770894
 30
0.0
 10
331.2437978474831
 20
105.0147585803657
 30
0.0
 10
331.622244783656
 20
104.9959452987202
 30
0.0
 10
332.3790033070449
 20
104.9588456685729
 30
0.0
 10
332.7573148942608
 20
104.940559320071
 30
0.0
 10
333.5136165469495
 20
104.9045310559217
 30
0.0
 10
333.8916066124224
 20
104.8867891402743
 30
0.0
 10
334.6470790488387
 20
104.8518672415447
 30
0.0
 10
335.0249321613823
 20
104.8346701726741
 30
0.0
 10
335.7806790707658
 20
104.8008193410934
 30
0.0
 10
336.1585728676056
 20
104.7841655783834
 30
0.0
 10
336.914208041207
 20
104.7514169042964
 30
0.0
 10
337.2919494179686
 20
104.7353219929195
 30
0.0
 10
338.0470866470387
 20
104.7037065666712
 30
0.0
 10
338.4244824993474
 20
104.6881860517999
 30
0.0
 10
339.0544800090763
 20
104.6627514725253
 30
0.0
 10
339.3076131745207
 20
104.6526608998165
 30
0.0
 10
339.5608720897731
 20
104.6426944528034
 30
0.0
  0
SPLINE
  5
26E
330
1F
100
AcDbEntity
  8
0
  6
Continuous
 62
     7
370
    15
100
AcDbSpline
210
0.0
220
0.0
230
1.0
 70
    24
 71
     3
 72
    12
 73
     8
 74
     0
 42
0.00000001
 43
0.00000001
 40
0.623033712212403
 40
0.623033712212403
 40
0.623033712212403
 40
0.623033712212403
 40
0.6249999999999999
 40
0.6249999999999999
 40
0.7499999999999999
 40
0.7499999999999999
 40
1.0
 40
1.0
 40
1.0
 40
1.0
 10
339.5608721454547
 20
98.28073033166255
 30
0.0
 10
339.5608721454547
 20
98.29216546186673
 30
0.0
 10
339.5608721454547
 20
98.30360002961044
 30
0.0
 10
339.5608721454547
 20
99.0419117366942
 30
0.0
 10
339.5608721454547
 20
99.76818452141255
 30
0.0
 10
339.5608721454547
 20
101.9295173723567
 30
0.0
 10
339.5608721454547
 20
103.3137597674817
 30
0.0
 10
339.5608721454547
 20
104.6426908084677
 30
0.0
  0
SPLINE
  5
26F
330
1F
100
AcDbEntity
  8
0
  6
Continuous
 62
     7
370
    15
100
AcDbSpline
210
0.0
220
0.0
230
1.0
 70
    24
 71
     3
 72
    14
 73
    10
 74
     0
 42
0.00000001
 43
0.00000001
 40
0.0
 40
0.0
 40
0.0
 40
0.0
 40
0.2499999999999998
 40
0.2499999999999998
 40
0.3749999999999998
 40
0.3749999999999998
 40
0.4999999999999999
 40
0.4999999999999999
 40
0.623033712212403
 40
0.623033712212403
 40
0.623033712212403
 40
0.623033712212403
 10
339.5608721454547
 20
87.62096762701063
 30
0.0
 10
339.5608721454547
 20
88.94929000879533
 30
0.0
 10
339.5608721454547
 20
90.32591295813073
 30
0.0
 10
339.5608721454547
 20
92.46295186622524
 30
0.0
 10
339.5608721454547
 20
93.18886821793528
 30
0.0
 10
339.5608721454547
 20
94.66175224566148
 30
0.0
 10
339.5608721454547
 20
95.39581669448704
 30
0.0
 10
339.5608721454547
 20
96.84750010575515
 30
0.0
 10
339.5608721454547
 20
97.56521629169009
 30
0.0
 10
339.5608721454547
 20
98.28073033166255
 30
0.0
  0
SPLINE
  5
270
330
1F
100
AcDbEntity
  8
0
  6
Continuous
 62
     7
370
    15
100
AcDbSpline
210
0.0
220
0.0
230
1.0
 70
     8
 71
     3
 72
    31
 73
    27
 74
     0
 42
0.00000001
 43
0.00000001
 40
0.0
 40
0.0
 40
0.0
 40
0.0
 40
0.0156250000000001
 40
0.0156250000000001
 40
0.0312500000000003
 40
0.0312500000000003
 40
0.0468750000000004
 40
0.0468750000000004
 40
0.0625000000000005
 40
0.0625000000000005
 40
0.0781250000000007
 40
0.0781250000000007
 40
0.0859375000000007
 40
0.0859375000000007
 40
0.0937500000000008
 40
0.1250000000000007
 40
0.1250000000000007
 40
0.1875000000000007
 40
0.1875000000000007
 40
0.2187500000000007
 40
0.2187500000000007
 40
0.2500000000000007
 40
0.2500000000000007
 40
0.5000000000000004
 40
0.5000000000000004
 40
1.0
 40
1.0
 40
1.0
 40
1.0
 10
308.1728669721281
 20
86.21299803822724
 30
0.0
 10
308.4073461944794
 20
86.20971447098867
 30
0.0
 10
308.6414865593013
 20
86.20729964147694
 30
0.0
 10
309.1087469923796
 20
86.2041815123833
 30
0.0
 10
309.3430946246962
 20
86.20353085138272
 30
0.0
 10
309.8014989803813
 20
86.20351102692136
 30
0.0
 10
310.0289934726304
 20
86.20438704731218
 30
0.0
 10
310.4609258900837
 20
86.20679010398833
 30
0.0
 10
310.6628323320743
 20
86.20807952847865
 30
0.0
 10
311.0401714045908
 20
86.21023211439307
 30
0.0
 10
311.2156125783244
 20
86.21109583765028
 30
0.0
 10
311.4598209930743
 20
86.21176571724139
 30
0.0
 10
311.5380732335227
 20
86.21188414292597
 30
0.0
 10
311.696930169825
 20
86.21253955157802
 30
0.0
 10
312.0945309324588
 20
86.21483243057624
 30
0.0
 10
312.4943323498218
 20
86.22040430926735
 30
0.0
 10
313.457392322555
 20
86.24011859663396
 30
0.0
 10
314.1041431329434
 20
86.26172402259365
 30
0.0
 10
315.0786575298473
 20
86.30692384955954
 30
0.0
 10
315.4042281336503
 20
86.32412095148315
 30
0.0
 10
316.0564024552191
 20
86.36276747890754
 30
0.0
 10
316.3824719761716
 20
86.3847519580751
 30
0.0
 10
319.2446415055677
 20
86.57435411707547
 30
0.0
 10
321.7927352320775
 20
86.73044304285902
 30
0.0
 10
329.4223101320598
 20
87.17154858113204
 30
0.0
 10
334.4989861546791
 20
87.42278465816068
 30
0.0
 10
339.5608721454415
 20
87.62096762701027
 30
0.0
  0
SPLINE
  5
271
330
1F
100
AcDbEntity
  8
0
  6
Continuous
 62
     7
370
    15
100
AcDbSpline
210
0.0
220
0.0
230
1.0
 70
    24
 71
     3
 72
    26
 73
    22
 74
     0
 42
0.00000001
 43
0.00000001
 40
0.0
 40
0.0
 40
0.0
 40
0.0
 40
0.2500000000000017
 40
0.2500000000000017
 40
0.3750000000000021
 40
0.3750000000000021
 40
0.5000000000000024
 40
0.5000000000000024
 40
0.6250000000000028
 40
0.6250000000000028
 40
0.6875000000000026
 40
0.6875000000000026
 40
0.7500000000000022
 40
0.7500000000000022
 40
0.812500000000002
 40
0.812500000000002
 40
0.8437500000000016
 40
0.8437500000000016
 40
0.8750000000000011
 40
0.8750000000000011
 40
0.9999771441615646
 40
0.9999771441615646
 40
0.9999771441615646
 40
0.9999771441615646
 10
339.5608721454547
 20
104.6426944505116
 30
0.0
 10
339.5608721454547
 20
104.9830576683095
 30
0.0
 10
339.5608721454547
 20
105.3174355424459
 30
0.0
 10
339.5608721454547
 20
105.8105949822054
 30
0.0
 10
339.5608721454547
 20
105.9743752252195
 30
0.0
 10
339.5608721454547
 20
106.2906014742454
 30
0.0
 10
339.5608721454547
 20
106.4443114981027
 30
0.0
 10
339.5608721454547
 20
106.748845845387
 30
0.0
 10
339.5608721454547
 20
106.8995097259632
 30
0.0
 10
339.5608721454547
 20
107.1270966256006
 30
0.0
 10
339.5608721454547
 20
107.2029668769055
 30
0.0
 10
339.5608721454547
 20
107.3581994800642
 30
0.0
 10
339.5608721454547
 20
107.4370504948889
 30
0.0
 10
339.5608721454547
 20
107.5936197290747
 30
0.0
 10
339.5608721454547
 20
107.6713387721989
 30
0.0
 10
339.5608721454547
 20
107.7843337112268
 30
0.0
 10
339.5608721454547
 20
107.8208224573077
 30
0.0
 10
339.5608721454547
 20
107.8963463746129
 30
0.0
 10
339.5608721454547
 20
107.9350872505835
 30
0.0
 10
339.5608721454547
 20
108.1312771322818
 30
0.0
 10
339.5608721454547
 20
108.2963843671891
 30
0.0
 10
339.5608721454547
 20
108.4388784793005
 30
0.0
  0
SPLINE
  5
272
330
1F
100
AcDbEntity
  8
0
  6
Continuous
 62
     7
370
    15
100
AcDbSpline
210
0.0
220
0.0
230
1.0
 70
    24
 71
     3
 72
    23
 73
    19
 74
     0
 42
0.00000001
 43
0.00000001
 40
0.1331582208719135
 40
0.1331582208719135
 40
0.1331582208719135
 40
0.1331582208719135
 40
0.1562499999999992
 40
0.1562499999999992
 40
0.1874999999999993
 40
0.1874999999999993
 40
0.2499999999999993
 40
0.3124999999999994
 40
0.3124999999999994
 40
0.3749999999999995
 40
0.3749999999999995
 40
0.4999999999999997
 40
0.4999999999999997
 40
0.6249999999999998
 40
0.6249999999999998
 40
0.75
 40
0.75
 40
0.9999996314158847
 40
0.9999996314158847
 40
0.9999996314158847
 40
0.9999996314158847
 10
339.5608721454547
 20
84.32419751614103
 30
0.0
 10
339.5608721454547
 20
84.3529207175536
 30
0.0
 10
339.5608721454547
 20
84.38130807990682
 30
0.0
 10
339.5608721454547
 20
84.44687618715857
 30
0.0
 10
339.5608721454547
 20
84.48330687295955
 30
0.0
 10
339.5608721454547
 20
84.59611382858778
 30
0.0
 10
339.5608721454547
 20
84.75132755341474
 30
0.0
 10
339.5608721454547
 20
84.9088348058454
 30
0.0
 10
339.5608721454547
 20
85.06387205590099
 30
0.0
 10
339.5608721454547
 20
85.13963697154949
 30
0.0
 10
339.5608721454547
 20
85.36689516740229
 30
0.0
 10
339.5608721454547
 20
85.5173508805858
 30
0.0
 10
339.5608721454547
 20
85.82139104407223
 30
0.0
 10
339.5608721454547
 20
85.97484324688105
 30
0.0
 10
339.5608721454547
 20
86.29062690981905
 30
0.0
 10
339.5608721454547
 20
86.45427532279558
 30
0.0
 10
339.5608721454547
 20
86.94691042163005
 30
0.0
 10
339.5608721454547
 20
87.28092635531503
 30
0.0
 10
339.5608721454547
 20
87.62096390240796
 30
0.0
  0
SPLINE
  5
273
330
1F
100
AcDbEntity
  8
0
  6
Continuous
 62
     7
370
    15
100
AcDbSpline
210
0.0
220
0.0
230
1.0
 70
    24
 71
     3
 72
    10
 73
     6
 74
     0
 42
0.00000001
 43
0.00000001
 40
0.086862493426305
 40
0.086862493426305
 40
0.086862493426305
 40
0.086862493426305
 40
0.1249999999999992
 40
0.1249999999999992
 40
0.1331582208717374
 40
0.1331582208717374
 40
0.1331582208717374
 40
0.1331582208717374
 10
339.5608721454547
 20
84.14888502287943
 30
0.0
 10
339.5608721454547
 20
84.19730824889153
 30
0.0
 10
339.5608721454547
 20
84.2458457265912
 30
0.0
 10
339.5608721454547
 20
84.3038600438201
 30
0.0
 10
339.5608721454547
 20
84.31404973930742
 30
0.0
 10
339.5608721454547
 20
84.32419751614037
 30
0.0
  0
SPLINE
  5
274
330
1F
100
AcDbEntity
  8
0
  6
Continuous
 62
     7
370
    15
100
AcDbSpline
210
0.0
220
0.0
230
1.0
 70
    24
 71
     3
 72
     8
 73
     4
 74
     0
 42
0.00000001
 43
0.00000001
 40
0.0000260563130574
 40
0.0000260563130574
 40
0.0000260563130574
 40
0.0000260563130574
 40
0.0868624934263049
 40
0.0868624934263049
 40
0.0868624934263049
 40
0.0868624934263049
 10
339.5608721454547
 20
83.83005303188332
 30
0.0
 10
339.5608721454547
 20
83.92896474770325
 30
0.0
 10
339.5608721454547
 20
84.03862872145356
 30
0.0
 10
339.5608721454547
 20
84.14888502287943
 30
0.0
  0
LINE
  5
275
330
1F
100
AcDbEntity
  8
0
  6
Continuous
 62
     7
370
    15
100
AcDbLine
 10
290.5608721455
 20
120.1300614705
 30
0.0
 11
293.7706483905
 21
120.1300614705
 31
0.0
  0
SPLINE
  5
276
330
1F
100
AcDbEntity
  8
0
  6
Continuous
 62
     7
370
    15
100
AcDbSpline
210
0.0
220
0.0
230
1.0
 70
     8
 71
     3
 72
    12
 73
     8
 74
     0
 42
0.00000001
 43
0.00000001
 40
0.0
 40
0.0
 40
0.0
 40
0.0
 40
0.25
 40
0.25
 40
0.5
 40
0.5
 40
1.0
 40
1.0
 40
1.0
 40
1.0
 10
301.6654055944422
 20
120.1300609784218
 30
0.0
 10
301.961473692786
 20
120.1300610311991
 30
0.0
 10
302.2575426225197
 20
120.1300610942326
 30
0.0
 10
302.8496823557137
 20
120.1300612434181
 30
0.0
 10
303.1458231485893
 20
120.1300613533683
 30
0.0
 10
304.033196146235
 20
120.1300613558873
 30
0.0
 10
304.6233431977884
 20
120.1300609456059
 30
0.0
 10
305.2103514563182
 20
120.1300608063913
 30
0.0
  0
SPLINE
  5
277
330
1F
100
AcDbEntity
  8
0
  6
Continuous
 62
     7
370
    15
100
AcDbSpline
210
0.0
220
0.0
230
1.0
 70
     8
 71
     3
 72
    12
 73
     8
 74
     0
 42
0.00000001
 43
0.00000001
 40
0.0
 40
0.0
 40
0.0
 40
0.0
 40
0.5
 40
0.5
 40
0.75
 40
0.75
 40
1.0
 40
1.0
 40
1.0
 40
1.0
 10
305.2103514563182
 20
120.1300608063913
 30
0.0
 10
306.0176069655798
 20
120.1300606149431
 30
0.0
 10
306.8189057158643
 20
120.1300648623437
 30
0.0
 10
308.0054548132545
 20
120.1300573228002
 30
0.0
 10
308.4032620528262
 20
120.1294589767289
 30
0.0
 10
309.1390619059608
 20
120.1319410756311
 30
0.0
 10
309.563936290121
 20
120.1368626430115
 30
0.0
 10
310.0477801277413
 20
120.1279743362664
 30
0.0
  0
LINE
  5
278
330
1F
100
AcDbEntity
  8
0
  6
Continuous
 62
     7
370
    15
100
AcDbLine
 10
365.5608751257
 20
121.1300616344
 30
0.0
 11
365.5608751257
 21
71.1300608894
 31
0.0
  0
LINE
  5
279
330
1F
100
AcDbEntity
  8
0
  6
Continuous
 62
     7
370
    15
100
AcDbLine
 10
215.5608691652
 20
121.1300616344
 30
0.0
 11
215.5608691652
 21
71.1300608894
 31
0.0
  0
SPLINE
  5
27A
330
1F
100
AcDbEntity
  8
0
  6
Continuous
 62
     7
370
    15
100
AcDbSpline
210
0.0
220
0.0
230
1.0
 70
     8
 71
     3
 72
    22
 73
    18
 74
     0
 42
0.00000001
 43
0.00000001
 40
0.0
 40
0.0
 40
0.0
 40
0.0
 40
0.1250000000000033
 40
0.1250000000000033
 40
0.1562500000000043
 40
0.1562500000000043
 40
0.1640625000000044
 40
0.1640625000000044
 40
0.1718750000000045
 40
0.1718750000000045
 40
0.1875000000000046
 40
0.1875000000000046
 40
0.2500000000000043
 40
0.2500000000000043
 40
0.5000000000000029
 40
0.5000000000000029
 40
1.0
 40
1.0
 40
1.0
 40
1.0
 10
310.0477801277414
 20
120.1279743362664
 30
0.0
 10
311.5596673152083
 20
120.1002006703822
 30
0.0
 10
313.0741546421221
 20
119.9388444923472
 30
0.0
 10
314.9415784326263
 20
119.5664906094139
 30
0.0
 10
315.3137670792858
 20
119.4834449782193
 30
0.0
 10
315.7768907269354
 20
119.3687578328162
 30
0.0
 10
315.8703133462561
 20
119.3450048583551
 30
0.0
 10
316.0469582651518
 20
119.2991970911263
 30
0.0
 10
316.1312488184092
 20
119.2769137096774
 30
0.0
 10
316.3722286326604
 20
119.2126963329299
 30
0.0
 10
316.5127721861284
 20
119.1747525629428
 30
0.0
 10
317.2359517673263
 20
118.981177502699
 30
0.0
 10
317.8220567577574
 20
118.8259556267918
 30
0.0
 10
320.7642634434667
 20
118.0448278156272
 30
0.0
 10
323.1163016509379
 20
117.4181623417663
 30
0.0
 10
330.1686933198595
 20
115.5376188071639
 30
0.0
 10
334.8653246581669
 20
114.2831981681688
 30
0.0
 10
339.5608721454552
 20
113.040645001174
 30
0.0
  0
SPLINE
  5
27B
330
1F
100
AcDbEntity
  8
0
  6
Continuous
 62
     7
370
    15
100
AcDbSpline
210
0.0
220
0.0
230
1.0
 70
    24
 71
     3
 72
    18
 73
    14
 74
     0
 42
0.00000001
 43
0.00000001
 40
0.0
 40
0.0
 40
0.0
 40
0.0
 40
0.2500000000000002
 40
0.2500000000000002
 40
0.3750000000000001
 40
0.3750000000000001
 40
0.5000000000000001
 40
0.5000000000000001
 40
0.6250000000000001
 40
0.6250000000000001
 40
0.75
 40
0.75
 40
1.0
 40
1.0
 40
1.0
 40
1.0
 10
339.5608721454547
 20
108.4389564391976
 30
0.0
 10
339.5608721454547
 20
109.1801045904742
 30
0.0
 10
339.5608721454547
 20
109.8402086471633
 30
0.0
 10
339.5608721454547
 20
110.7032070365619
 30
0.0
 10
339.5608721454547
 20
110.9664430283782
 30
0.0
 10
339.5608721454547
 20
111.4397772904417
 30
0.0
 10
339.5608721454547
 20
111.6521559606119
 30
0.0
 10
339.5608721454547
 20
112.0377015533875
 30
0.0
 10
339.5608721454547
 20
112.2093376653136
 30
0.0
 10
339.5608721454547
 20
112.5079661423974
 30
0.0
 10
339.5608721454547
 20
112.6344271992882
 30
0.0
 10
339.5608721454547
 20
112.9371686818365
 30
0.0
 10
339.5608721454547
 20
113.0406450011742
 30
0.0
 10
339.5608721454547
 20
113.0406450011742
 30
0.0
  0
SPLINE
  5
27C
330
1F
100
AcDbEntity
  8
0
  6
Continuous
 62
     7
370
    15
100
AcDbSpline
210
0.0
220
0.0
230
1.0
 70
    24
 71
     3
 72
    13
 73
     9
 74
     0
 42
0.00000001
 43
0.00000001
 40
0.0
 40
0.0
 40
0.0
 40
0.0
 40
0.1663483986601398
 40
0.3340216529973763
 40
0.5012941851868576
 40
0.6680870734183635
 40
0.8541968392066339
 40
1.0
 40
1.0
 40
1.0
 40
1.0
 10
339.5608708639548
 20
79.22079909646956
 30
0.0
 10
339.5608708639548
 20
79.24832221187182
 30
0.0
 10
339.5608708639548
 20
79.30358764620328
 30
0.0
 10
339.5608708639548
 20
79.73099068368639
 30
0.0
 10
339.5608708639548
 20
80.39377489745877
 30
0.0
 10
339.5608708639548
 20
81.32246968089541
 30
0.0
 10
339.5608708639548
 20
82.47414475858942
 30
0.0
 10
339.5608708639548
 20
83.41596116235543
 30
0.0
 10
339.5608708639548
 20
83.82968355024306
 30
0.0
  0
SPLINE
  5
27D
330
1F
100
AcDbEntity
  8
0
  6
Continuous
 62
     7
370
    15
100
AcDbSpline
210
0.0
220
0.0
230
1.0
 70
    24
 71
     3
 72
    33
 73
    29
 74
     0
 42
0.00000001
 43
0.00000001
 40
0.0
 40
0.0
 40
0.0
 40
0.0
 40
0.0377622953891167
 40
0.0756100578494749
 40
0.1135437528304057
 40
0.1515492091264961
 40
0.1896241493462171
 40
0.22776337973552
 40
0.2659683427082904
 40
0.3042432144153246
 40
0.3425678146020407
 40
0.3809391719813246
 40
0.4193531154363974
 40
0.4578033863380263
 40
0.4962839988797879
 40
0.5348520371546294
 40
0.5735844764884236
 40
0.6124580476025532
 40
0.6514472541268546
 40
0.690524424644206
 40
0.7296649284201274
 40
0.768829551327393
 40
0.8079971589346883
 40
0.8471421316066123
 40
0.8862450922944776
 40
0.9252738503644272
 40
0.9641984855611154
 40
1.0
 40
1.0
 40
1.0
 40
1.0
 10
241.5608734269546
 20
113.0406459053799
 30
0.0
 10
241.5608734269546
 20
113.0151364314694
 30
0.0
 10
241.5608734269546
 20
112.9640597482804
 30
0.0
 10
241.5608734269546
 20
112.5622547062987
 30
0.0
 10
241.5608734269545
 20
111.938265017488
 30
0.0
 10
241.5608734269546
 20
111.0976680462683
 30
0.0
 10
241.5608734269546
 20
110.0201816336789
 30
0.0
 10
241.5608734269546
 20
108.7283320336645
 30
0.0
 10
241.5608734269546
 20
107.2467448341069
 30
0.0
 10
241.5608734269546
 20
105.6327244205594
 30
0.0
 10
241.5608734269546
 20
103.9164250508874
 30
0.0
 10
241.5608734269546
 20
102.1088856600973
 30
0.0
 10
241.5608734269545
 20
100.2314381384326
 30
0.0
 10
241.5608734269546
 20
98.30310166803461
 30
0.0
 10
241.5608734269546
 20
96.34485578473107
 30
0.0
 10
241.5608734269546
 20
94.3789873882226
 30
0.0
 10
241.5608734269545
 20
92.42865057343715
 30
0.0
 10
241.5608734269546
 20
90.516321412044
 30
0.0
 10
241.5608734269546
 20
88.6642057164921
 30
0.0
 10
241.5608734269546
 20
86.89532172852374
 30
0.0
 10
241.5608734269545
 20
85.22816663167325
 30
0.0
 10
241.5608734269546
 20
83.68569129687451
 30
0.0
 10
241.5608734269546
 20
82.33721410560776
 30
0.0
 10
241.5608734269546
 20
81.21084390224893
 30
0.0
 10
241.5608734269546
 20
80.33548077401996
 30
0.0
 10
241.5608734269545
 20
79.69308966229376
 30
0.0
 10
241.5608734269546
 20
79.29105983424184
 30
0.0
 10
241.5608734269546
 20
79.24927230587127
 30
0.0
 10
241.5608734269546
 20
79.22925178015677
 30
0.0
  0
SPLINE
  5
27E
330
1F
100
AcDbEntity
  8
0
  6
Continuous
 62
     7
370
    15
100
AcDbSpline
210
0.0
220
0.0
230
1.0
 70
     8
 71
     3
 72
    22
 73
    18
 74
     0
 42
0.00000001
 43
0.00000001
 40
0.0
 40
0.0
 40
0.0
 40
0.0
 40
0.1249999999999971
 40
0.1249999999999971
 40
0.1562499999999964
 40
0.1562499999999964
 40
0.1640624999999962
 40
0.1640624999999962
 40
0.171874999999996
 40
0.171874999999996
 40
0.187499999999996
 40
0.187499999999996
 40
0.2499999999999961
 40
0.2499999999999961
 40
0.4999999999999973
 40
0.4999999999999973
 40
1.0
 40
1.0
 40
1.0
 40
1.0
 10
271.0739641631682
 20
120.1279743362664
 30
0.0
 10
269.5620769757012
 20
120.1002006703822
 30
0.0
 10
268.0475896487874
 20
119.9388444923472
 30
0.0
 10
266.1801658582833
 20
119.5664906094139
 30
0.0
 10
265.8079772116236
 20
119.4834449782193
 30
0.0
 10
265.344853563974
 20
119.3687578328161
 30
0.0
 10
265.2514309446532
 20
119.345004858355
 30
0.0
 10
265.0747860257576
 20
119.2991970911263
 30
0.0
 10
264.9904954725002
 20
119.2769137096773
 30
0.0
 10
264.7495156582489
 20
119.2126963329298
 30
0.0
 10
264.6089721047811
 20
119.1747525629428
 30
0.0
 10
263.8857925235832
 20
118.981177502699
 30
0.0
 10
263.2996875331521
 20
118.8259556267918
 30
0.0
 10
260.3574808474427
 20
118.0448278156272
 30
0.0
 10
258.0054426399715
 20
117.4181623417663
 30
0.0
 10
250.9530509710499
 20
115.5376188071639
 30
0.0
 10
246.2564196327424
 20
114.2831981681688
 30
0.0
 10
241.5608721454541
 20
113.040645001174
 30
0.0
  0
SPLINE
  5
27F
330
1F
100
AcDbEntity
  8
0
  6
Continuous
 62
     7
370
    15
100
AcDbSpline
210
0.0
220
0.0
230
1.0
 70
     8
 71
     3
 72
    12
 73
     8
 74
     0
 42
0.00000001
 43
0.00000001
 40
0.0
 40
0.0
 40
0.0
 40
0.0
 40
0.5
 40
0.5
 40
0.75
 40
0.75
 40
1.0
 40
1.0
 40
1.0
 40
1.0
 10
275.9113928345914
 20
120.1300608063913
 30
0.0
 10
275.1041373253298
 20
120.1300606149431
 30
0.0
 10
274.3028385750452
 20
120.1300648623437
 30
0.0
 10
273.116289477655
 20
120.1300573228002
 30
0.0
 10
272.7184822380833
 20
120.1294589767289
 30
0.0
 10
271.9826823849487
 20
120.1319410756311
 30
0.0
 10
271.5578080007884
 20
120.1368626430115
 30
0.0
 10
271.0739641631682
 20
120.1279743362664
 30
0.0
  0
LINE
  5
280
330
1F
100
AcDbEntity
  8
0
  6
Continuous
 62
     7
370
    15
100
AcDbLine
 10
290.5608721455
 20
120.1300614705
 30
0.0
 11
287.3823366505
 21
120.1300614705
 31
0.0
  0
SPLINE
  5
281
330
1F
100
AcDbEntity
  8
0
  6
Continuous
 62
     7
370
    15
100
AcDbSpline
210
0.0
220
0.0
230
1.0
 70
     8
 71
     3
 72
    12
 73
     8
 74
     0
 42
0.00000001
 43
0.00000001
 40
0.0
 40
0.0
 40
0.0
 40
0.0
 40
0.2500000000000003
 40
0.2500000000000003
 40
0.5000000000000007
 40
0.5000000000000007
 40
1.0
 40
1.0
 40
1.0
 40
1.0
 10
279.4563386964672
 20
120.1300609784218
 30
0.0
 10
279.1602705981234
 20
120.1300610311991
 30
0.0
 10
278.8642016683897
 20
120.1300610942326
 30
0.0
 10
278.2720619351958
 20
120.1300612434181
 30
0.0
 10
277.9759211423201
 20
120.1300613533683
 30
0.0
 10
277.0885481446744
 20
120.1300613558873
 30
0.0
 10
276.4984026281442
 20
120.1300609456063
 30
0.0
 10
275.9113928345912
 20
120.1300608063913
 30
0.0
  0
ARC
  5
282
330
1F
100
AcDbEntity
  8
0
  6
Continuous
 62
     7
370
    15
100
AcDbCircle
 10
290.5608721455
 20
96.1300612619
 30
0.0
 40
45.00000000000024
100
AcDbArc
 50
270.0
 51
334.8241827571
  0
ARC
  5
283
330
1F
100
AcDbEntity
  8
0
  6
Continuous
 62
     7
370
    15
100
AcDbCircle
 10
290.5608721455
 20
96.1300612619
 30
0.0
 40
45.00000000000022
100
AcDbArc
 50
25.1960221437
 51
154.7763936831
  0
ARC
  5
284
330
1F
100
AcDbEntity
  8
0
  6
Continuous
 62
     7
370
    15
100
AcDbCircle
 10
290.5608721455
 20
96.1300612619
 30
0.0
 40
45.00000000000014
100
AcDbArc
 50
205.2228652826
 51
270.0
  0
ARC
  5
285
330
1F
100
AcDbEntity
  8
0
  6
Continuous
 62
     8
370
    15
100
AcDbCircle
 10
290.5608721455
 20
96.1300612619
 30
0.0
 40
22.41719456678052
100
AcDbArc
 50
180.0
 51
233.1525333077
  0
ARC
  5
286
330
1F
100
AcDbEntity
  8
0
  6
Continuous
 62
     8
370
    15
100
AcDbCircle
 10
290.5608721455
 20
96.1300612619
 30
0.0
 40
22.41719456678052
100
AcDbArc
 50
126.8474666923
 51
180.0
  0
ENDSEC
  0
SECTION
  2
OBJECTS
  0
DICTIONARY
  5
C
330
0
100
AcDbDictionary
281
     1
  3
ACAD_GROUP
350
D
  3
ACAD_LAYOUT
350
1A
  3
ACAD_MLINESTYLE
350
17
  3
ACAD_PLOTSETTINGS
350
19
  3
ACAD_PLOTSTYLENAME
350
E
  0
DICTIONARY
  5
D
102
{ACAD_REACTORS
330
C
102
}
330
C
100
AcDbDictionary
281
     1
  0
DICTIONARY
  5
1A
102
{ACAD_REACTORS
330
C
102
}
330
C
100
AcDbDictionary
281
     1
  3
Layout1
350
1E
  3
Layout2
350
26
  3
Model
350
22
  0
DICTIONARY
  5
17
102
{ACAD_REACTORS
330
C
102
}
330
C
100
AcDbDictionary
281
     1
  3
Standard
350
18
  0
DICTIONARY
  5
19
102
{ACAD_REACTORS
330
C
102
}
330
C
100
AcDbDictionary
281
     1
  0
ACDBDICTIONARYWDFLT
  5
E
102
{ACAD_REACTORS
330
C
102
}
330
C
100
AcDbDictionary
281
     1
  3
Normal
350
F
100
AcDbDictionaryWithDefault
340
F
  0
LAYOUT
  5
1E
102
{ACAD_REACTORS
330
1A
102
}
330
1A
100
AcDbPlotSettings
  1

  2
none_device
  4

  6

 40
0.0
 41
0.0
 42
0.0
 43
0.0
 44
0.0
 45
0.0
 46
0.0
 47
0.0
 48
0.0
 49
0.0
140
0.0
141
0.0
142
1.0
143
1.0
 70
   688
 72
     0
 73
     0
 74
     5
  7

 75
    16
147
1.0
148
0.0
149
0.0
100
AcDbLayout
  1
Layout1
 70
     1
 71
     1
 10
0.0
 20
0.0
 11
420.0
 21
297.0
 12
0.0
 22
0.0
 32
0.0
 14
1.0000000000E+20
 24
1.0000000000E+20
 34
1.0000000000E+20
 15
-1.0000000000E+20
 25
-1.0000000000E+20
 35
-1.0000000000E+20
146
0.0
 13
0.0
 23
0.0
 33
0.0
 16
1.0
 26
0.0
 36
0.0
 17
0.0
 27
1.0
 37
0.0
 76
     0
330
1B
  0
LAYOUT
  5
26
102
{ACAD_REACTORS
330
1A
102
}
330
1A
100
AcDbPlotSettings
  1

  2
none_device
  4

  6

 40
0.0
 41
0.0
 42
0.0
 43
0.0
 44
0.0
 45
0.0
 46
0.0
 47
0.0
 48
0.0
 49
0.0
140
0.0
141
0.0
142
1.0
143
1.0
 70
   688
 72
     0
 73
     0
 74
     5
  7

 75
    16
147
1.0
148
0.0
149
0.0
100
AcDbLayout
  1
Layout2
 70
     1
 71
     2
 10
0.0
 20
0.0
 11
0.0
 21
0.0
 12
0.0
 22
0.0
 32
0.0
 14
0.0
 24
0.0
 34
0.0
 15
0.0
 25
0.0
 35
0.0
146
0.0
 13
0.0
 23
0.0
 33
0.0
 16
1.0
 26
0.0
 36
0.0
 17
0.0
 27
1.0
 37
0.0
 76
     0
330
23
  0
LAYOUT
  5
22
102
{ACAD_REACTORS
330
1A
102
}
330
1A
100
AcDbPlotSettings
  1

  2
none_device
  4

  6

 40
0.0
 41
0.0
 42
0.0
 43
0.0
 44
0.0
 45
0.0
 46
0.0
 47
0.0
 48
0.0
 49
0.0
140
0.0
141
0.0
142
1.0
143
1.0
 70
  1712
 72
     0
 73
     0
 74
     0
  7

 75
     0
147
1.0
148
0.0
149
0.0
100
AcDbLayout
  1
Model
 70
     1
 71
     0
 10
0.0
 20
0.0
 11
600.0
 21
600.0
 12
0.0
 22
0.0
 32
0.0
 14
0.0
 24
0.0
 34
0.0
 15
600.0
 25
600.0
 35
0.0
146
0.0
 13
0.0
 23
0.0
 33
0.0
 16
1.0
 26
0.0
 36
0.0
 17
0.0
 27
1.0
 37
0.0
 76
     0
330
1F
331
29
  0
MLINESTYLE
  5
18
102
{ACAD_REACTORS
330
17
102
}
330
17
100
AcDbMlineStyle
  2
Standard
 70
     0
  3

 62
   256
 51
90.0
 52
90.0
 71
     2
 49
0.5
 62
   256
  6
BYLAYER
 49
-0.5
 62
   256
  6
BYLAYER
  0
ACDBPLACEHOLDER
  5
F
102
{ACAD_REACTORS
330
E
102
}
330
E
  0
ENDSEC
  0
EOF
