  0
SECTION
  2
HEADER
  9
$ACADVER
  1
AC1015
  9
$ACADMAINTVER
 70
     6
  9
$DWGCODEPAGE
  3
ANSI_1252
  9
$INSBASE
 10
0.0
 20
0.0
 30
0.0
  9
$EXTMIN
 10
0.0
 20
0.0
 30
0.0
  9
$EXTMAX
 10
600.0
 20
600.0
 30
0.0
  9
$LIMMIN
 10
0.0
 20
0.0
  9
$LIMMAX
 10
600.0
 20
600.0
  9
$ORTHOMODE
 70
     0
  9
$REGENMODE
 70
     1
  9
$FILLMODE
 70
     1
  9
$QTEXTMODE
 70
     0
  9
$MIRRTEXT
 70
     1
  9
$LTSCALE
 40
1.0
  9
$ATTMODE
 70
     1
  9
$TEXTSIZE
 40
3.5
  9
$TRACEWID
 40
1.0
  9
$TEXTSTYLE
  7
Standard
  9
$CLAYER
  8
0
  9
$CELTYPE
  6
ByLayer
  9
$CECOLOR
 62
   256
  9
$CELTSCALE
 40
1.0
  9
$DISPSILH
 70
     0
  9
$DIMSCALE
 40
1.0
  9
$DIMASZ
 40
4.0
  9
$DIMEXO
 40
0.0
  9
$DIMDLI
 40
3.75
  9
$DIMRND
 40
0.0
  9
$DIMDLE
 40
0.0
  9
$DIMEXE
 40
1.0
  9
$DIMTP
 40
0.0
  9
$DIMTM
 40
0.0
  9
$DIMTXT
 40
3.5
  9
$DIMCEN
 40
2.5
  9
$DIMTSZ
 40
0.0
  9
$DIMTOL
 70
     0
  9
$DIMLIM
 70
     0
  9
$DIMTIH
 70
     1
  9
$DIMTOH
 70
     1
  9
$DIMSE1
 70
     0
  9
$DIMSE2
 70
     0
  9
$DIMTAD
 70
     1
  9
$DIMZIN
 70
     0
  9
$DIMBLK
  1

  9
$DIMASO
 70
     1
  9
$DIMSHO
 70
     1
  9
$DIMPOST
  1

  9
$DIMAPOST
  1

  9
$DIMALT
 70
     0
  9
$DIMALTD
 70
     3
  9
$DIMALTF
 40
0.0393700787
  9
$DIMLFAC
 40
1.0
  9
$DIMTOFL
 70
     1
  9
$DIMTVP
 40
0.0
  9
$DIMTIX
 70
     0
  9
$DIMSOXD
 70
     0
  9
$DIMSAH
 70
     0
  9
$DIMBLK1
  1

  9
$DIMBLK2
  1

  9
$DIMSTYLE
  2
ISO-25
  9
$DIMCLRD
 70
     0
  9
$DIMCLRE
 70
     0
  9
$DIMCLRT
 70
     0
  9
$DIMTFAC
 40
1.0
  9
$DIMGAP
 40
1.524
  9
$DIMJUST
 70
     0
  9
$DIMSD1
 70
     0
  9
$DIMSD2
 70
     0
  9
$DIMTOLJ
 70
     0
  9
$DIMTZIN
 70
     0
  9
$DIMALTZ
 70
     0
  9
$DIMALTTZ
 70
     0
  9
$DIMUPT
 70
     0
  9
$DIMDEC
 70
     1
  9
$DIMTDEC
 70
     1
  9
$DIMALTU
 70
     2
  9
$DIMALTTD
 70
     3
  9
$DIMTXSTY
  7
Standard
  9
$DIMAUNIT
 70
     0
  9
$DIMADEC
 70
     1
  9
$DIMALTRND
 40
0.0
  9
$DIMAZIN
 70
     0
  9
$DIMDSEP
 70
    44
  9
$DIMATFIT
 70
     3
  9
$DIMFRAC
 70
     0
  9
$DIMLDRBLK
  1

  9
$DIMLUNIT
 70
     2
  9
$DIMLWD
 70
    -2
  9
$DIMLWE
 70
    -2
  9
$DIMTMOVE
 70
     0
  9
$LUNITS
 70
     2
  9
$LUPREC
 70
     1
  9
$SKETCHINC
 40
1.0
  9
$FILLETRAD
 40
10.0
  9
$AUNITS
 70
     0
  9
$AUPREC
 70
     1
  9
$MENU
  1
.
  9
$ELEVATION
 40
0.0
  9
$PELEVATION
 40
0.0
  9
$THICKNESS
 40
0.0
  9
$LIMCHECK
 70
     0
  9
$CHAMFERA
 40
10.0
  9
$CHAMFERB
 40
10.0
  9
$CHAMFERC
 40
20.0
  9
$CHAMFERD
 40
0.0
  9
$SKPOLY
 70
     0
  9
$TDCREATE
 40
2455929.352515312
  9
$TDUCREATE
 40
2455929.310848646
  9
$TDUPDATE
 40
2455929.352515324
  9
$TDUUPDATE
 40
2455929.310848658
  9
$TDINDWG
 40
0.0000000116
  9
$TDUSRTIMER
 40
0.0000000116
  9
$USRTIMER
 70
     1
  9
$ANGBASE
 50
0.0
  9
$ANGDIR
 70
     0
  9
$PDMODE
 70
     0
  9
$PDSIZE
 40
-1.0
  9
$PLINEWID
 40
0.0
  9
$SPLFRAME
 70
     0
  9
$SPLINETYPE
 70
     6
  9
$SPLINESEGS
 70
     8
  9
$HANDSEED
  5
2D3
  9
$SURFTAB1
 70
     6
  9
$SURFTAB2
 70
     6
  9
$SURFTYPE
 70
     6
  9
$SURFU
 70
     6
  9
$SURFV
 70
     6
  9
$UCSBASE
  2

  9
$UCSNAME
  2

  9
$UCSORG
 10
0.0
 20
0.0
 30
0.0
  9
$UCSXDIR
 10
1.0
 20
0.0
 30
0.0
  9
$UCSYDIR
 10
0.0
 20
1.0
 30
0.0
  9
$UCSORTHOREF
  2

  9
$UCSORTHOVIEW
 70
     0
  9
$UCSORGTOP
 10
0.0
 20
0.0
 30
0.0
  9
$UCSORGBOTTOM
 10
0.0
 20
0.0
 30
0.0
  9
$UCSORGLEFT
 10
0.0
 20
0.0
 30
0.0
  9
$UCSORGRIGHT
 10
0.0
 20
0.0
 30
0.0
  9
$UCSORGFRONT
 10
0.0
 20
0.0
 30
0.0
  9
$UCSORGBACK
 10
0.0
 20
0.0
 30
0.0
  9
$PUCSBASE
  2

  9
$PUCSNAME
  2

  9
$PUCSORG
 10
0.0
 20
0.0
 30
0.0
  9
$PUCSXDIR
 10
1.0
 20
0.0
 30
0.0
  9
$PUCSYDIR
 10
0.0
 20
1.0
 30
0.0
  9
$PUCSORTHOREF
  2

  9
$PUCSORTHOVIEW
 70
     0
  9
$PUCSORGTOP
 10
0.0
 20
0.0
 30
0.0
  9
$PUCSORGBOTTOM
 10
0.0
 20
0.0
 30
0.0
  9
$PUCSORGLEFT
 10
0.0
 20
0.0
 30
0.0
  9
$PUCSORGRIGHT
 10
0.0
 20
0.0
 30
0.0
  9
$PUCSORGFRONT
 10
0.0
 20
0.0
 30
0.0
  9
$PUCSORGBACK
 10
0.0
 20
0.0
 30
0.0
  9
$USERI1
 70
     0
  9
$USERI2
 70
     0
  9
$USERI3
 70
     0
  9
$USERI4
 70
     0
  9
$USERI5
 70
     0
  9
$USERR1
 40
0.0
  9
$USERR2
 40
0.0
  9
$USERR3
 40
0.0
  9
$USERR4
 40
0.0
  9
$USERR5
 40
0.0
  9
$WORLDVIEW
 70
     1
  9
$SHADEDGE
 70
     3
  9
$SHADEDIF
 70
    70
  9
$TILEMODE
 70
     1
  9
$MAXACTVP
 70
    64
  9
$PINSBASE
 10
0.0
 20
0.0
 30
0.0
  9
$PLIMCHECK
 70
     0
  9
$PEXTMIN
 10
1.0000000000E+20
 20
1.0000000000E+20
 30
1.0000000000E+20
  9
$PEXTMAX
 10
-1.0000000000E+20
 20
-1.0000000000E+20
 30
-1.0000000000E+20
  9
$PLIMMIN
 10
0.0
 20
0.0
  9
$PLIMMAX
 10
420.0
 20
297.0
  9
$UNITMODE
 70
     0
  9
$VISRETAIN
 70
     1
  9
$PLINEGEN
 70
     0
  9
$PSLTSCALE
 70
     1
  9
$TREEDEPTH
 70
  3020
  9
$CMLSTYLE
  2
Standard
  9
$CMLJUST
 70
     0
  9
$CMLSCALE
 40
20.0
  9
$PROXYGRAPHICS
 70
     1
  9
$MEASUREMENT
 70
     1
  9
$CELWEIGHT
370
    -1
  9
$ENDCAPS
280
     0
  9
$JOINSTYLE
280
     0
  9
$LWDISPLAY
290
     1
  9
$INSUNITS
 70
     4
  9
$HYPERLINKBASE
  1

  9
$STYLESHEET
  1

  9
$XEDIT
290
     1
  9
$CEPSNTYPE
380
     0
  9
$PSTYLEMODE
290
     1
  9
$FINGERPRINTGUID
  2
{5D7781BB-20E9-4131-AC54-2A51A22DE000}
  9
$VERSIONGUID
  2
{FAEB1C32-E019-11D5-929B-00C0DF256EC4}
  9
$EXTNAMES
290
     1
  9
$PSVPSCALE
 40
0.0
  9
$OLESTARTUP
290
     0
  0
ENDSEC
  0
SECTION
  2
CLASSES
  0
CLASS
  1
ACDBDICTIONARYWDFLT
  2
AcDbDictionaryWithDefault
  3
ObjectDBX Classes
 90
        0
280
     0
281
     0
  0
CLASS
  1
VISUALSTYLE
  2
AcDbVisualStyle
  3
ObjectDBX Classes
 90
     4095
280
     0
281
     0
  0
CLASS
  1
MATERIAL
  2
AcDbMaterial
  3
ObjectDBX Classes
 90
     1153
280
     0
281
     0
  0
CLASS
  1
ACDBPLACEHOLDER
  2
AcDbPlaceHolder
  3
ObjectDBX Classes
 90
        0
280
     0
281
     0
  0
CLASS
  1
LAYOUT
  2
AcDbLayout
  3
ObjectDBX Classes
 90
        0
280
     0
281
     0
  0
ENDSEC
  0
SECTION
  2
TABLES
  0
TABLE
  2
VPORT
  5
8
330
0
100
AcDbSymbolTable
 70
     1
  0
VPORT
  5
29
330
8
100
AcDbSymbolTableRecord
100
AcDbViewportTableRecord
  2
*Active
 70
     0
 10
0.0
 20
0.0
 11
1.0
 21
1.0
 12
300.0
 22
300.0
 13
0.0
 23
0.0
 14
10.0
 24
10.0
 15
10.0
 25
10.0
 16
0.0
 26
0.0
 36
1.0
 17
0.0
 27
0.0
 37
0.0
 40
600.0
 41
1.0
 42
50.0
 43
0.0
 44
0.0
 50
0.0
 51
0.0
 71
     0
 72
  2000
 73
     1
 74
     3
 75
     0
 76
     0
 77
     0
 78
     0
281
     0
 65
     1
110
0.0
120
0.0
130
0.0
111
1.0
121
0.0
131
0.0
112
0.0
122
1.0
132
0.0
 79
     0
146
0.0
  0
ENDTAB
  0
TABLE
  2
LTYPE
  5
5
330
0
100
AcDbSymbolTable
 70
     6
  0
LTYPE
  5
14
330
5
100
AcDbSymbolTableRecord
100
AcDbLinetypeTableRecord
  2
ByBlock
 70
     0
  3

 72
    65
 73
     0
 40
0.0
  0
LTYPE
  5
15
330
5
100
AcDbSymbolTableRecord
100
AcDbLinetypeTableRecord
  2
ByLayer
 70
     0
  3

 72
    65
 73
     0
 40
0.0
  0
LTYPE
  5
16
330
5
100
AcDbSymbolTableRecord
100
AcDbLinetypeTableRecord
  2
Continuous
 70
     0
  3
Solid line
 72
    65
 73
     0
 40
0.0
  0
LTYPE
  5
3F
330
5
100
AcDbSymbolTableRecord
100
AcDbLinetypeTableRecord
  2
HIDDEN
 70
     0
  3
Hidden __ __ __ __ __ __ __ __ __ __ __ __ __ __
 72
    65
 73
     2
 40
1.905
 49
1.27
 74
     0
 49
-0.635
 74
     0
  0
LTYPE
  5
40
330
5
100
AcDbSymbolTableRecord
100
AcDbLinetypeTableRecord
  2
PHANTOM
 70
     0
  3
Phantom ______  __  __  ______  __  __  ______
 72
    65
 73
     6
 40
12.7
 49
6.35
 74
     0
 49
-1.27
 74
     0
 49
1.27
 74
     0
 49
-1.27
 74
     0
 49
1.27
 74
     0
 49
-1.27
 74
     0
  0
LTYPE
  5
41
330
5
100
AcDbSymbolTableRecord
100
AcDbLinetypeTableRecord
  2
CENTER
 70
     0
  3
Center ____ _ ____ _ ____ _ ____ _ ____ _ ____
 72
    65
 73
     4
 40
10.16
 49
6.35
 74
     0
 49
-1.27
 74
     0
 49
1.27
 74
     0
 49
-1.27
 74
     0
  0
LTYPE
  5
42
330
5
100
AcDbSymbolTableRecord
100
AcDbLinetypeTableRecord
  2
CENTERX2
 70
     0
  3
Center (2x) ________  __  ________  __  _____
 72
    65
 73
     4
 40
20.32
 49
12.7
 74
     0
 49
-2.54
 74
     0
 49
2.54
 74
     0
 49
-2.54
 74
     0
  0
LTYPE
  5
43
330
5
100
AcDbSymbolTableRecord
100
AcDbLinetypeTableRecord
  2
DOT2
 70
     0
  3
Dot (.5x) ........................................
 72
    65
 73
     2
 40
0.635
 49
0.0
 74
     0
 49
-0.635
 74
     0
  0
ENDTAB
  0
TABLE
  2
LAYER
  5
2
330
0
100
AcDbSymbolTable
 70
     6
  0
LAYER
  5
10
330
2
100
AcDbSymbolTableRecord
100
AcDbLayerTableRecord
  2
0
 70
     0
 62
     7
  6
Continuous
370
    -3
390
F
  0
LAYER
  5
44
330
2
100
AcDbSymbolTableRecord
100
AcDbLayerTableRecord
  2
1
 70
     0
 62
   179
  6
Continuous
370
    -3
390
F
  0
LAYER
  5
45
330
2
100
AcDbSymbolTableRecord
100
AcDbLayerTableRecord
  2
FORMAT
 70
     0
 62
     7
  6
Continuous
370
    -3
390
F
  0
LAYER
  5
46
330
2
100
AcDbSymbolTableRecord
100
AcDbLayerTableRecord
  2
SLD-0
 70
     0
 62
   179
  6
Continuous
370
    -3
390
F
  0
LAYER
  5
47
330
2
100
AcDbSymbolTableRecord
100
AcDbLayerTableRecord
  2
GESTRICHELT
 70
     0
 62
     7
  6
HIDDEN
370
    -3
390
F
  0
LAYER
  5
48
330
2
100
AcDbSymbolTableRecord
100
AcDbLayerTableRecord
  2
GESTRICHELT_LÄNGER
 70
     0
 62
     7
  6
Continuous
370
    -3
390
F
  0
ENDTAB
  0
TABLE
  2
STYLE
  5
3
330
0
100
AcDbSymbolTable
 70
     1
  0
STYLE
  5
11
330
3
100
AcDbSymbolTableRecord
100
AcDbTextStyleTableRecord
  2
Standard
 70
     0
 40
0.0
 41
1.0
 50
0.0
 71
     0
 42
2.5
  3
txt
  4

  0
ENDTAB
  0
TABLE
  2
VIEW
  5
6
330
0
100
AcDbSymbolTable
 70
     0
  0
ENDTAB
  0
TABLE
  2
UCS
  5
7
330
0
100
AcDbSymbolTable
 70
     0
  0
ENDTAB
  0
TABLE
  2
APPID
  5
9
330
0
100
AcDbSymbolTable
 70
     1
  0
APPID
  5
12
330
9
100
AcDbSymbolTableRecord
100
AcDbRegAppTableRecord
  2
ACAD
 70
     0
  0
ENDTAB
  0
TABLE
  2
DIMSTYLE
  5
A
330
0
100
AcDbSymbolTable
 70
     1
100
AcDbDimStyleTable
  0
DIMSTYLE
105
27
330
A
100
AcDbSymbolTableRecord
100
AcDbDimStyleTableRecord
  2
ISO-25
 70
     0
 41
2.5
 42
0.625
 43
3.75
 44
1.25
 73
     0
 74
     0
 77
     1
 78
     8
140
2.5
141
2.5
143
0.0393700787
147
0.625
171
     3
172
     1
178
     0
271
     2
272
     2
274
     3
278
    44
283
     0
284
     8
340
11
  0
ENDTAB
  0
TABLE
  2
BLOCK_RECORD
  5
1
330
0
100
AcDbSymbolTable
 70
     1
  0
BLOCK_RECORD
  5
1F
330
1
100
AcDbSymbolTableRecord
100
AcDbBlockTableRecord
  2
*Model_Space
340
22
  0
BLOCK_RECORD
  5
1B
330
1
100
AcDbSymbolTableRecord
100
AcDbBlockTableRecord
  2
*Paper_Space
340
1E
  0
BLOCK_RECORD
  5
23
330
1
100
AcDbSymbolTableRecord
100
AcDbBlockTableRecord
  2
*Paper_Space0
340
26
  0
ENDTAB
  0
ENDSEC
  0
SECTION
  2
BLOCKS
  0
BLOCK
  5
20
330
1F
100
AcDbEntity
  8
0
100
AcDbBlockBegin
  2
*Model_Space
 70
     0
 10
0.0
 20
0.0
 30
0.0
  3
*Model_Space
  1

  0
ENDBLK
  5
21
330
1F
100
AcDbEntity
  8
0
100
AcDbBlockEnd
  0
BLOCK
  5
1C
330
1B
100
AcDbEntity
 67
     1
  8
0
100
AcDbBlockBegin
  2
*Paper_Space
 70
     0
 10
0.0
 20
0.0
 30
0.0
  3
*Paper_Space
  1

  0
ENDBLK
  5
1D
330
1B
100
AcDbEntity
 67
     1
  8
0
100
AcDbBlockEnd
  0
BLOCK
  5
24
330
23
100
AcDbEntity
  8
0
100
AcDbBlockBegin
  2
*Paper_Space0
 70
     0
 10
0.0
 20
0.0
 30
0.0
  3
*Paper_Space0
  1

  0
ENDBLK
  5
25
330
23
100
AcDbEntity
  8
0
100
AcDbBlockEnd
  0
ENDSEC
  0
SECTION
  2
ENTITIES
  0
LINE
  5
49
330
1F
100
AcDbEntity
  8
1
100
AcDbLine
 10
95.8704481529
 20
257.5174846915
 30
0.0
 11
95.8704481529
 21
246.5892814612
 31
0.0
  0
LINE
  5
4A
330
1F
100
AcDbEntity
  8
1
100
AcDbLine
 10
131.8704481529
 20
257.5174846915
 30
0.0
 11
131.8704481529
 21
246.5892814612
 31
0.0
  0
LINE
  5
4B
330
1F
100
AcDbEntity
  8
0
  6
Continuous
 62
     7
370
    15
100
AcDbLine
 10
297.9261051916
 20
354.5892811632
 30
0.0
 11
297.9261051916
 21
380.1966435528
 31
0.0
  0
LINE
  5
4C
330
1F
100
AcDbEntity
  8
0
  6
Continuous
 62
     7
370
    15
100
AcDbLine
 10
289.9261048116
 20
380.1966435528
 30
0.0
 11
289.9261048116
 21
354.5892811632
 31
0.0
  0
ARC
  5
4D
330
1F
100
AcDbEntity
  8
0
  6
Continuous
 62
     7
370
    15
100
AcDbCircle
 10
293.9261050016
 20
380.1966460671
 30
0.0
 40
4.000000000000037
100
AcDbArc
 50
165.0
 51
180.0
  0
ARC
  5
4E
330
1F
100
AcDbEntity
  8
0
  6
Continuous
 62
     7
370
    15
100
AcDbCircle
 10
293.9261050016
 20
380.1966460671
 30
0.0
 40
4.0
100
AcDbArc
 50
0.0
 51
15.0
  0
LINE
  5
4F
330
1F
100
AcDbEntity
  8
0
  6
Continuous
 62
     7
370
    15
100
AcDbLine
 10
297.7898082283
 20
381.2319240784
 30
0.0
 11
297.5624016073
 21
382.0806122637
 31
0.0
  0
LINE
  5
50
330
1F
100
AcDbEntity
  8
0
  6
Continuous
 62
     7
370
    15
100
AcDbLine
 10
290.2898083959
 20
382.0806122637
 30
0.0
 11
290.062401775
 21
381.2319240784
 31
0.0
  0
ARC
  5
51
330
1F
100
AcDbEntity
  8
0
  6
Continuous
 62
     7
370
    15
100
AcDbCircle
 10
301.4261050016
 20
383.1158914516
 30
0.0
 40
4.0
100
AcDbArc
 50
180.0
 51
195.0
  0
ARC
  5
52
330
1F
100
AcDbEntity
  8
0
  6
Continuous
 62
     7
370
    15
100
AcDbCircle
 10
286.4261050016
 20
383.1158914516
 30
0.0
 40
4.0
100
AcDbArc
 50
345.0
 51
0.0
  0
LINE
  5
53
330
1F
100
AcDbEntity
  8
0
  6
Continuous
 62
     7
370
    15
100
AcDbLine
 10
297.4261051097
 20
389.0892840242
 30
0.0
 11
297.4261051097
 21
398.9892802453
 31
0.0
  0
LINE
  5
54
330
1F
100
AcDbEntity
  8
0
  6
Continuous
 62
     7
370
    15
100
AcDbLine
 10
290.4261048936
 20
398.9892802453
 30
0.0
 11
290.4261048936
 21
389.0892840242
 31
0.0
  0
LINE
  5
55
330
1F
100
AcDbEntity
  8
0
  6
Continuous
 62
     7
370
    15
100
AcDbLine
 10
297.4261051097
 20
383.1158927893
 30
0.0
 11
297.4261051097
 21
386.0892779445
 31
0.0
  0
LINE
  5
56
330
1F
100
AcDbEntity
  8
0
  6
Continuous
 62
     7
370
    15
100
AcDbLine
 10
290.4261048936
 20
386.0892779445
 30
0.0
 11
290.4261048936
 21
383.1158927893
 31
0.0
  0
LINE
  5
57
330
1F
100
AcDbEntity
  8
0
  6
Continuous
 62
     7
370
    15
100
AcDbLine
 10
297.4261051097
 20
404.0392837739
 30
0.0
 11
295.8761049487
 21
405.5892802095
 31
0.0
  0
LINE
  5
58
330
1F
100
AcDbEntity
  8
0
  6
Continuous
 62
     7
370
    15
100
AcDbLine
 10
291.9761050545
 20
405.5892802095
 30
0.0
 11
290.4261048936
 21
404.0392837739
 31
0.0
  0
LINE
  5
59
330
1F
100
AcDbEntity
  8
0
  6
Continuous
 62
     7
370
    15
100
AcDbLine
 10
297.4261051097
 20
402.0392797208
 30
0.0
 11
297.4261051097
 21
404.0392837739
 31
0.0
  0
LINE
  5
5A
330
1F
100
AcDbEntity
  8
0
  6
Continuous
 62
     7
370
    15
100
AcDbLine
 10
290.4261048936
 20
404.0392837739
 30
0.0
 11
290.4261048936
 21
402.0392797208
 31
0.0
  0
LINE
  5
5B
330
1F
100
AcDbEntity
  8
0
  6
Continuous
 62
     7
370
    15
100
AcDbLine
 10
296.9261050277
 20
386.0892779445
 30
0.0
 11
296.9261050277
 21
389.0892840242
 31
0.0
  0
LINE
  5
5C
330
1F
100
AcDbEntity
  8
0
  6
Continuous
 62
     7
370
    15
100
AcDbLine
 10
290.9261049756
 20
389.0892840242
 30
0.0
 11
290.9261049756
 21
386.0892779445
 31
0.0
  0
LINE
  5
5D
330
1F
100
AcDbEntity
  8
0
  6
Continuous
 62
     7
370
    15
100
AcDbLine
 10
295.8761049487
 20
398.9892802453
 30
0.0
 11
295.8761049487
 21
402.0392797208
 31
0.0
  0
LINE
  5
5E
330
1F
100
AcDbEntity
  8
0
  6
Continuous
 62
     7
370
    15
100
AcDbLine
 10
291.9761050545
 20
402.0392797208
 30
0.0
 11
291.9761050545
 21
398.9892802453
 31
0.0
  0
LINE
  5
5F
330
1F
100
AcDbEntity
  8
0
  6
Continuous
 62
     7
370
    15
100
AcDbLine
 10
308.9061054454
 20
341.589280895
 30
0.0
 11
308.9061054454
 21
347.5892818785
 31
0.0
  0
LINE
  5
60
330
1F
100
AcDbEntity
  8
0
  6
Continuous
 62
     7
370
    15
100
AcDbLine
 10
278.9461045579
 20
347.5892818785
 30
0.0
 11
278.9461045579
 21
341.589280895
 31
0.0
  0
LINE
  5
61
330
1F
100
AcDbEntity
  8
0
  6
Continuous
 62
     7
370
    15
100
AcDbLine
 10
253.9261058957
 20
246.5892820871
 30
0.0
 11
253.9261058957
 21
236.5892804479
 31
0.0
  0
LINE
  5
62
330
1F
100
AcDbEntity
  8
0
  6
Continuous
 62
     7
370
    15
100
AcDbLine
 10
333.9261041076
 20
236.5892804479
 30
0.0
 11
333.9261041076
 21
246.5892820871
 31
0.0
  0
LINE
  5
63
330
1F
100
AcDbEntity
  8
0
  6
Continuous
 62
     7
370
    15
100
AcDbLine
 10
346.9261043758
 20
259.5892823553
 30
0.0
 11
356.9261060149
 21
259.5892823553
 31
0.0
  0
LINE
  5
64
330
1F
100
AcDbEntity
  8
0
  6
Continuous
 62
     7
370
    15
100
AcDbLine
 10
356.9261060149
 20
339.5892805672
 30
0.0
 11
346.9261043758
 21
339.5892805672
 31
0.0
  0
LINE
  5
65
330
1F
100
AcDbEntity
  8
0
  6
Continuous
 62
     7
370
    15
100
AcDbLine
 10
240.9261056275
 20
339.5892805672
 30
0.0
 11
230.9261039883
 21
339.5892805672
 31
0.0
  0
LINE
  5
66
330
1F
100
AcDbEntity
  8
0
  6
Continuous
 62
     7
370
    15
100
AcDbLine
 10
230.9261039883
 20
259.5892823553
 30
0.0
 11
240.9261056275
 21
259.5892823553
 31
0.0
  0
LWPOLYLINE
  5
67
330
1F
100
AcDbEntity
  8
0
  6
Continuous
 62
     7
370
    15
100
AcDbPolyline
 90
        5
 70
   128
 43
0.0
 10
267.9333147646
 20
303.9313731967
 10
267.1383080125
 20
304.1784283957
 10
262.2891739995
 20
305.6854247367
 10
256.941583106
 20
307.3474411173
 10
251.3711043686
 20
309.0788000515
  0
ARC
  5
68
330
1F
100
AcDbEntity
  8
0
  6
Continuous
 62
     7
370
    15
100
AcDbCircle
 10
293.9261050016
 20
311.0892814612
 30
0.0
 40
22.4999999999999
100
AcDbArc
 50
161.9199873756
 51
189.7779537585
  0
LWPOLYLINE
  5
69
330
1F
100
AcDbEntity
  8
0
  6
Continuous
 62
     7
370
    15
100
AcDbPolyline
 90
        9
 70
   128
 43
0.0
 10
334.9261024088
 20
316.0549490964
 10
333.0554441602
 20
316.6363663292
 10
328.4611442179
 20
318.0642570621
 10
324.28232404
 20
319.3629416889
 10
320.5181323976
 20
320.5326958811
 10
318.9627752692
 20
321.0160094565
 10
317.49081994
 20
321.4733931488
 10
316.1045798153
 20
321.9042769885
 10
314.9616942794
 20
322.2614410585
  0
LINE
  5
6A
330
1F
100
AcDbEntity
  8
0
  6
Continuous
 62
     7
370
    15
100
AcDbLine
 10
230.9261039883
 20
321.589281342
 30
0.0
 11
228.9261073858
 21
319.5892810142
 31
0.0
  0
LINE
  5
6B
330
1F
100
AcDbEntity
  8
0
  6
Continuous
 62
     7
370
    15
100
AcDbLine
 10
228.9261073858
 20
279.5892819083
 30
0.0
 11
230.9261039883
 21
277.5892815804
 31
0.0
  0
LINE
  5
6C
330
1F
100
AcDbEntity
  8
0
  6
Continuous
 62
     7
370
    15
100
AcDbLine
 10
356.9261060149
 20
277.5892815804
 30
0.0
 11
358.9261026174
 21
279.5892819083
 31
0.0
  0
LINE
  5
6D
330
1F
100
AcDbEntity
  8
0
  6
Continuous
 62
     7
370
    15
100
AcDbLine
 10
358.9261026174
 20
319.5892810142
 30
0.0
 11
356.9261060149
 21
321.589281342
 31
0.0
  0
ARC
  5
6E
330
1F
100
AcDbEntity
  8
0
  6
Continuous
 62
     7
370
    15
100
AcDbCircle
 10
280.1420562495
 20
315.5892814612
 30
0.0
 40
8.000000000000089
100
AcDbArc
 50
138.3229565886
 51
161.9199873756
  0
ARC
  5
6F
330
1F
100
AcDbEntity
  8
0
  6
Continuous
 62
     7
370
    15
100
AcDbCircle
 10
315.9261050016
 20
325.1028410723
 30
0.0
 40
3.00000000000001
100
AcDbArc
 50
180.1684630919
 51
251.2505871001
  0
ARC
  5
70
330
1F
100
AcDbEntity
  8
0
  6
Continuous
 62
     7
370
    15
100
AcDbCircle
 10
271.9261050016
 20
322.9035240804
 30
0.0
 40
3.000000000000027
100
AcDbArc
 50
318.3229565886
 51
0.0
  0
LINE
  5
71
330
1F
100
AcDbEntity
  8
0
  6
Continuous
 62
     7
370
    15
100
AcDbLine
 10
274.9261056126
 20
341.589280895
 30
0.0
 11
274.9261056126
 21
322.9035246438
 31
0.0
  0
SPLINE
  5
72
330
1F
100
AcDbEntity
  8
0
  6
Continuous
 62
     7
370
    15
100
AcDbSpline
210
0.0
220
0.0
230
1.0
 70
     8
 71
     3
 72
    18
 73
    14
 74
     0
 42
0.00000001
 43
0.00000001
 40
0.0
 40
0.0
 40
0.0
 40
0.0
 40
0.0781416708001438
 40
0.2531482127577289
 40
0.4036630142203098
 40
0.5296765175310391
 40
0.631189032453036
 40
0.6970661942863848
 40
0.7467280778457875
 40
0.8036131760435636
 40
0.8579089906569108
 40
0.922770921579736
 40
1.0
 40
1.0
 40
1.0
 40
1.0
 10
251.3895669073449
 20
309.1320288619229
 30
0.0
 10
251.056276807604
 20
309.241075561963
 30
0.0
 10
249.9765482554075
 20
309.5943438878076
 30
0.0
 10
248.3884223522562
 20
310.4791589841992
 30
0.0
 10
246.5584346389885
 20
311.339582276853
 30
0.0
 10
245.0380049250381
 20
312.0876056521273
 30
0.0
 10
243.8542176456224
 20
312.6608280393799
 30
0.0
 10
242.982606199361
 20
313.0908349948917
 30
0.0
 10
242.2804509551555
 20
313.4192181372059
 30
0.0
 10
241.7187680160356
 20
313.8874562201842
 30
0.0
 10
241.251785503552
 20
314.529940866815
 30
0.0
 10
240.9260090703908
 20
315.3674305239976
 30
0.0
 10
240.9260716268753
 20
316.0093201036302
 30
0.0
 10
240.9261056274759
 20
316.35819890259
 30
0.0
  0
LINE
  5
73
330
1F
100
AcDbEntity
  8
0
  6
Continuous
 62
     7
370
    15
100
AcDbLine
 10
312.9261043907
 20
325.0892269677
 30
0.0
 11
312.9261043907
 21
341.589280895
 31
0.0
  0
SPLINE
  5
74
330
1F
100
AcDbEntity
  8
0
  6
Continuous
 62
     7
370
    15
100
AcDbSpline
210
0.0
220
0.0
230
1.0
 70
     8
 71
     3
 72
    20
 73
    16
 74
     0
 42
0.00000001
 43
0.00000001
 40
0.0
 40
0.0
 40
0.0
 40
0.0
 40
0.0915605701586354
 40
0.1651961512291503
 40
0.2217494741631265
 40
0.2629428355205086
 40
0.3313809162075136
 40
0.3603527269220352
 40
0.3951397005872343
 40
0.50227774602826
 40
0.6584504965003252
 40
0.7549083181168501
 40
0.8636135831634252
 40
0.9842931158094871
 40
1.0
 40
1.0
 40
1.0
 40
1.0
 10
346.9261043757783
 20
317.5194724714586
 30
0.0
 10
346.884445156841
 20
317.1362701192066
 30
0.0
 10
346.8092824244583
 20
316.4448856769264
 30
0.0
 10
346.306015352715
 20
315.643160217257
 30
0.0
 10
345.7857892155824
 20
315.1510503174713
 30
0.0
 10
345.1997681579172
 20
314.7802705615817
 30
0.0
 10
344.6479020813638
 20
314.5850721798344
 30
0.0
 10
344.101655547975
 20
314.5149756253106
 30
0.0
 10
343.3894080089997
 20
314.5289978834725
 30
0.0
 10
342.1671121648645
 20
314.7493017969271
 30
0.0
 10
340.6830356025542
 20
314.9241764351067
 30
0.0
 10
339.1950109471387
 20
315.1304885935888
 30
0.0
 10
337.85367782366
 20
315.302840790807
 30
0.0
 10
336.8417114916709
 20
315.4591938451372
 30
0.0
 10
336.3010548912998
 20
315.6297680280343
 30
0.0
 10
336.2387904018747
 20
315.6494121318886
 30
0.0
  0
SPLINE
  5
75
330
1F
100
AcDbEntity
  8
0
  6
Continuous
 62
     7
370
    15
100
AcDbSpline
210
0.0
220
0.0
230
1.0
 70
     8
 71
     3
 72
    19
 73
    15
 74
     0
 42
0.00000001
 43
0.00000001
 40
0.0
 40
0.0
 40
0.0
 40
0.0
 40
0.0350317012173967
 40
0.1237516142031961
 40
0.2217352343185706
 40
0.324048491698778
 40
0.4284329514659294
 40
0.542510281633571
 40
0.6460083822707514
 40
0.7409456575042226
 40
0.8287297695304833
 40
0.909791467700244
 40
0.9840008530531514
 40
0.9999999999999999
 40
0.9999999999999999
 40
0.9999999999999999
 40
0.9999999999999999
 10
271.7432250321494
 20
307.2656658729741
 30
0.0
 10
271.757602746923
 20
307.1962863156617
 30
0.0
 10
271.8083928984131
 20
306.9511988117224
 30
0.0
 10
271.7936146907999
 20
306.4972342316763
 30
0.0
 10
271.688374629488
 20
305.9196563644452
 30
0.0
 10
271.4491251615599
 20
305.3450603538776
 30
0.0
 10
271.0789235153089
 20
304.8057026798008
 30
0.0
 10
270.5959015287327
 20
304.3585534269129
 30
0.0
 10
270.044510302345
 20
304.0382985097602
 30
0.0
 10
269.4919148180342
 20
303.8525516239963
 30
0.0
 10
268.9597405058373
 20
303.7766499670059
 30
0.0
 10
268.46759916256
 20
303.7964390652641
 30
0.0
 10
268.1222423228406
 20
303.8512499032437
 30
0.0
 10
267.9515136367918
 20
303.9120172486185
 30
0.0
 10
267.9212336481201
 20
303.9227947844395
 30
0.0
  0
LWPOLYLINE
  5
76
330
1F
100
AcDbEntity
  8
0
  6
Continuous
 62
     7
370
    15
100
AcDbPolyline
 90
        3
 70
   128
 43
0.0
 10
336.2803944439
 20
315.634026683
 10
335.602562973
 20
315.8447048879
 10
334.9248022825
 20
316.0553588784
  0
LINE
  5
77
330
1F
100
AcDbEntity
  8
0
  6
Continuous
 62
     7
370
    15
100
AcDbLine
 10
297.4261051097
 20
398.9892802453
 30
0.0
 11
290.4261048936
 21
398.9892802453
 31
0.0
  0
LINE
  5
78
330
1F
100
AcDbEntity
  8
0
  6
Continuous
 62
     7
370
    15
100
AcDbLine
 10
297.4261051097
 20
389.0892840242
 30
0.0
 11
290.4261048936
 21
389.0892840242
 31
0.0
  0
LINE
  5
79
330
1F
100
AcDbEntity
  8
0
  6
Continuous
 62
     7
370
    15
100
AcDbLine
 10
297.4261051097
 20
386.0892779445
 30
0.0
 11
290.4261048936
 21
386.0892779445
 31
0.0
  0
LINE
  5
7A
330
1F
100
AcDbEntity
  8
0
  6
Continuous
 62
     7
370
    15
100
AcDbLine
 10
295.8761049487
 20
405.5892802095
 30
0.0
 11
291.9761050545
 21
405.5892802095
 31
0.0
  0
LINE
  5
7B
330
1F
100
AcDbEntity
  8
0
  6
Continuous
 62
     7
370
    15
100
AcDbLine
 10
297.4261051097
 20
404.0392837739
 30
0.0
 11
290.4261048936
 21
404.0392837739
 31
0.0
  0
LINE
  5
7C
330
1F
100
AcDbEntity
  8
0
  6
Continuous
 62
     7
370
    15
100
AcDbLine
 10
297.4261051097
 20
402.0392797208
 30
0.0
 11
290.4261048936
 21
402.0392797208
 31
0.0
  0
LINE
  5
7D
330
1F
100
AcDbEntity
  8
0
  6
Continuous
 62
     7
370
    15
100
AcDbLine
 10
281.9261048973
 20
347.5892818785
 30
0.0
 11
278.9461045579
 21
347.5892818785
 31
0.0
  0
LINE
  5
7E
330
1F
100
AcDbEntity
  8
0
  6
Continuous
 62
     7
370
    15
100
AcDbLine
 10
281.9261048973
 20
347.5892818785
 30
0.0
 11
281.9261048973
 21
354.5892811632
 31
0.0
  0
LINE
  5
7F
330
1F
100
AcDbEntity
  8
0
  6
Continuous
 62
     7
370
    15
100
AcDbLine
 10
305.9261051059
 20
354.5892811632
 30
0.0
 11
281.9261048973
 21
354.5892811632
 31
0.0
  0
LINE
  5
80
330
1F
100
AcDbEntity
  8
0
  6
Continuous
 62
     7
370
    15
100
AcDbLine
 10
305.9261051059
 20
354.5892811632
 30
0.0
 11
305.9261051059
 21
347.5892818785
 31
0.0
  0
LINE
  5
81
330
1F
100
AcDbEntity
  8
0
  6
Continuous
 62
     7
370
    15
100
AcDbLine
 10
305.9261051059
 20
347.5892818785
 30
0.0
 11
308.9061054454
 21
347.5892818785
 31
0.0
  0
LINE
  5
82
330
1F
100
AcDbEntity
  8
0
  6
Continuous
 62
     7
370
    15
100
AcDbLine
 10
293.9261050016
 20
234.5892838454
 30
0.0
 11
308.3715411887
 21
234.5892838454
 31
0.0
  0
LINE
  5
83
330
1F
100
AcDbEntity
  8
0
  6
Continuous
 62
     7
370
    15
100
AcDbLine
 10
279.4806688145
 20
234.5892838454
 30
0.0
 11
293.9261050016
 21
234.5892838454
 31
0.0
  0
SPLINE
  5
84
330
1F
100
AcDbEntity
  8
0
  6
Continuous
 62
     7
370
    15
100
AcDbSpline
210
0.0
220
0.0
230
1.0
 70
     8
 71
     3
 72
    36
 73
    32
 74
     0
 42
0.00000001
 43
0.00000001
 40
0.0
 40
0.0
 40
0.0
 40
0.0
 40
0.1249999999999999
 40
0.1249999999999999
 40
0.1874999999999998
 40
0.1874999999999998
 40
0.2499999999999997
 40
0.2499999999999997
 40
0.3124999999999997
 40
0.3124999999999997
 40
0.3749999999999996
 40
0.3749999999999996
 40
0.4374999999999995
 40
0.4374999999999995
 40
0.4999999999999994
 40
0.4999999999999994
 40
0.5624999999999993
 40
0.5624999999999993
 40
0.6249999999999993
 40
0.6249999999999993
 40
0.6874999999999992
 40
0.6874999999999992
 40
0.7031249999999992
 40
0.7031249999999992
 40
0.7187499999999992
 40
0.7187499999999992
 40
0.7499999999999992
 40
0.7499999999999992
 40
0.8749999999999996
 40
0.8749999999999996
 40
1.0
 40
1.0
 40
1.0
 40
1.0
 10
358.9261050016271
 20
292.0992814612219
 30
0.0
 10
358.9261050016271
 20
292.099281461214
 30
0.0
 10
358.9261115460885
 20
292.2957600778826
 30
0.0
 10
358.9261209278912
 20
292.8627701495755
 30
0.0
 10
358.9261240699216
 20
293.0967081452295
 30
0.0
 10
358.9261297651563
 20
293.6453394374158
 30
0.0
 10
358.9261322663722
 20
293.9612859477147
 30
0.0
 10
358.9261367861873
 20
294.6612116489272
 30
0.0
 10
358.9261397650726
 20
295.0460899052736
 30
0.0
 10
358.9261421237184
 20
295.8505317631939
 30
0.0
 10
358.9261394588514
 20
296.2692207227366
 30
0.0
 10
358.9261250632262
 20
297.1654989453588
 30
0.0
 10
358.9261174895608
 20
297.6386555724147
 30
0.0
 10
358.9261077840125
 20
298.6042944785581
 30
0.0
 10
358.9261050016271
 20
299.0978534800597
 30
0.0
 10
358.9261050016271
 20
300.080709442324
 30
0.0
 10
358.9261077840247
 20
300.5742779592734
 30
0.0
 10
358.9261174895473
 20
301.5399077512549
 30
0.0
 10
358.926125061112
 20
302.012683028073
 30
0.0
 10
358.9261394618371
 20
302.9098246856
 30
0.0
 10
358.9261422626062
 20
303.3311787635677
 30
0.0
 10
358.9261407004948
 20
303.8317916728825
 30
0.0
 10
358.9261400535112
 20
303.9299138042138
 30
0.0
 10
358.9261389635553
 20
304.1273100750432
 30
0.0
 10
358.9261384935044
 20
304.2258118020688
 30
0.0
 10
358.9261368859387
 20
304.5119081066892
 30
0.0
 10
358.9261357890521
 20
304.6949698035099
 30
0.0
 10
358.9261300138793
 20
305.5674735330012
 30
0.0
 10
358.9261240573175
 20
306.1268490677322
 30
0.0
 10
358.9261115423912
 20
306.882770708716
 30
0.0
 10
358.926105001627
 20
307.0792814612219
 30
0.0
 10
358.9261050016271
 20
307.0792814612219
 30
0.0
  0
SPLINE
  5
85
330
1F
100
AcDbEntity
  8
0
  6
Continuous
 62
     7
370
    15
100
AcDbSpline
210
0.0
220
0.0
230
1.0
 70
     8
 71
     3
 72
    20
 73
    16
 74
     0
 42
0.00000001
 43
0.00000001
 40
0.0
 40
0.0
 40
0.0
 40
0.0
 40
0.2499999999999998
 40
0.2499999999999998
 40
0.3749999999999998
 40
0.3749999999999998
 40
0.4999999999999998
 40
0.4999999999999998
 40
0.6249999999999998
 40
0.6249999999999998
 40
0.7499999999999998
 40
0.7499999999999998
 40
0.8749999999999999
 40
0.8749999999999999
 40
1.0
 40
1.0
 40
1.0
 40
1.0
 10
228.926105001627
 20
307.0792814612215
 30
0.0
 10
228.926105001627
 20
307.0792814612294
 30
0.0
 10
228.9260984571656
 20
306.88280284492
 30
0.0
 10
228.9260890753629
 20
306.315792774223
 30
0.0
 10
228.9260859333325
 20
306.0818547789759
 30
0.0
 10
228.9260802380979
 20
305.5332234877206
 30
0.0
 10
228.9260777368819
 20
305.2172769779619
 30
0.0
 10
228.9260732170669
 20
304.5173512778613
 30
0.0
 10
228.9260702381815
 20
304.1324730220963
 30
0.0
 10
228.9260678795357
 20
303.3280311652103
 30
0.0
 10
228.9260705444026
 20
302.9093422062528
 30
0.0
 10
228.9260849400279
 20
302.013063985095
 30
0.0
 10
228.9260925136932
 20
301.5399073586063
 30
0.0
 10
228.9261022192416
 20
300.5742684536044
 30
0.0
 10
228.926105001627
 20
300.0807094526131
 30
0.0
 10
228.9261050016271
 20
299.5892814718933
 30
0.0
  0
LINE
  5
86
330
1F
100
AcDbEntity
  8
0
  6
Continuous
 62
     7
370
    15
100
AcDbLine
 10
293.9261050016
 20
236.5892804479
 30
0.0
 11
333.9261041076
 21
236.5892804479
 31
0.0
  0
LINE
  5
87
330
1F
100
AcDbEntity
  8
0
  6
Continuous
 62
     7
370
    15
100
AcDbLine
 10
253.9261058957
 20
236.5892804479
 30
0.0
 11
293.9261050016
 21
236.5892804479
 31
0.0
  0
LINE
  5
88
330
1F
100
AcDbEntity
  8
0
  6
Continuous
 62
     7
370
    15
100
AcDbLine
 10
293.9261050016
 20
246.5892820871
 30
0.0
 11
333.9261041076
 21
246.5892820871
 31
0.0
  0
LINE
  5
89
330
1F
100
AcDbEntity
  8
0
  6
Continuous
 62
     7
370
    15
100
AcDbLine
 10
253.9261058957
 20
246.5892820871
 30
0.0
 11
293.9261050016
 21
246.5892820871
 31
0.0
  0
LINE
  5
8A
330
1F
100
AcDbEntity
  8
0
  6
Continuous
 62
     7
370
    15
100
AcDbLine
 10
346.9261043758
 20
339.5892805672
 30
0.0
 11
346.9261043758
 21
259.5892823553
 31
0.0
  0
LINE
  5
8B
330
1F
100
AcDbEntity
  8
0
  6
Continuous
 62
     7
370
    15
100
AcDbLine
 10
356.9261060149
 20
339.5892805672
 30
0.0
 11
356.9261060149
 21
259.5892823553
 31
0.0
  0
LINE
  5
8C
330
1F
100
AcDbEntity
  8
0
  6
Continuous
 62
     7
370
    15
100
AcDbLine
 10
240.9261056275
 20
339.5892805672
 30
0.0
 11
240.9261056275
 21
259.5892823553
 31
0.0
  0
LINE
  5
8D
330
1F
100
AcDbEntity
  8
0
  6
Continuous
 62
     7
370
    15
100
AcDbLine
 10
230.9261039883
 20
339.5892805672
 30
0.0
 11
230.9261039883
 21
259.5892823553
 31
0.0
  0
LINE
  5
8E
330
1F
100
AcDbEntity
  8
0
  6
Continuous
 62
     7
370
    15
100
AcDbLine
 10
284.5965820417
 20
341.589280895
 30
0.0
 11
303.2556279615
 21
341.589280895
 31
0.0
  0
LINE
  5
8F
330
1F
100
AcDbEntity
  8
0
  6
Continuous
 62
     7
370
    15
100
AcDbLine
 10
303.2556279615
 20
331.3213340258
 30
0.0
 11
303.2556279615
 21
341.589280895
 31
0.0
  0
LINE
  5
90
330
1F
100
AcDbEntity
  8
0
  6
Continuous
 62
     7
370
    15
100
AcDbLine
 10
284.5965820417
 20
331.3213340258
 30
0.0
 11
303.2556279615
 21
331.3213340258
 31
0.0
  0
LINE
  5
91
330
1F
100
AcDbEntity
  8
0
  6
Continuous
 62
     7
370
    15
100
AcDbLine
 10
284.5965820417
 20
331.3213340258
 30
0.0
 11
284.5965820417
 21
341.589280895
 31
0.0
  0
LINE
  5
92
330
1F
100
AcDbEntity
  8
0
  6
Continuous
 62
     7
370
    15
100
AcDbLine
 10
301.8561993778
 20
328.7232569671
 30
0.0
 11
285.9960106254
 21
328.7232569671
 31
0.0
  0
ARC
  5
93
330
1F
100
AcDbEntity
  8
0
  6
Continuous
 62
     7
370
    15
100
AcDbCircle
 10
287.6398901589
 20
331.2846491963
 30
0.0
 40
3.043529213343348
100
AcDbArc
 50
179.3093751837
 51
237.3080009476
  0
ARC
  5
94
330
1F
100
AcDbEntity
  8
0
  6
Continuous
 62
     7
370
    15
100
AcDbCircle
 10
300.2123198444
 20
331.2846491963
 30
0.0
 40
3.043529213343348
100
AcDbArc
 50
302.6919990524
 51
0.6906248163
  0
LINE
  5
95
330
1F
100
AcDbEntity
  8
0
  6
Continuous
 62
     7
370
    15
100
AcDbLine
 10
297.0981428918
 20
325.7787688887
 30
0.0
 11
301.8561993778
 21
328.7232569671
 31
0.0
  0
LINE
  5
96
330
1F
100
AcDbEntity
  8
0
  6
Continuous
 62
     7
370
    15
100
AcDbLine
 10
290.7540671114
 20
325.7787688887
 30
0.0
 11
285.9960106254
 21
328.7232569671
 31
0.0
  0
SPLINE
  5
97
330
1F
100
AcDbEntity
  8
0
  6
Continuous
 62
     7
370
    15
100
AcDbSpline
210
0.0
220
0.0
230
1.0
 70
     8
 71
     3
 72
    16
 73
    12
 74
     0
 42
0.00000001
 43
0.00000001
 40
0.0
 40
0.0
 40
0.0
 40
0.0
 40
0.2499999999999999
 40
0.2499999999999999
 40
0.4999999999999998
 40
0.4999999999999998
 40
0.7499999999999997
 40
0.7499999999999997
 40
0.8749999999999998
 40
0.8749999999999998
 40
1.0
 40
1.0
 40
1.0
 40
1.0
 10
306.2601771648865
 20
328.7232560574375
 30
0.0
 10
306.8373541004837
 20
328.8770723729161
 30
0.0
 10
307.3756747181499
 20
329.059735964142
 30
0.0
 10
308.3895193690375
 20
329.4578288947138
 30
0.0
 10
308.8652889709268
 20
329.6738245412396
 30
0.0
 10
309.7592998087617
 20
330.1246137425855
 30
0.0
 10
310.1762511212366
 20
330.358840619481
 30
0.0
 10
310.7604259223526
 20
330.7164268468734
 30
0.0
 10
310.9482425944893
 20
330.8366883000766
 30
0.0
 10
311.3103529288746
 20
331.0783748637127
 30
0.0
 10
311.4850591886764
 20
331.2001020668376
 30
0.0
 10
311.6521987619568
 20
331.3213322687908
 30
0.0
  0
LINE
  5
98
330
1F
100
AcDbEntity
  8
0
  6
Continuous
 62
     7
370
    15
100
AcDbLine
 10
276.200011471
 20
331.3213340258
 30
0.0
 11
276.200011471
 21
341.589280895
 31
0.0
  0
LINE
  5
99
330
1F
100
AcDbEntity
  8
0
  6
Continuous
 62
     7
370
    15
100
AcDbLine
 10
276.200011471
 20
341.589280895
 30
0.0
 11
284.5965820417
 21
341.589280895
 31
0.0
  0
SPLINE
  5
9A
330
1F
100
AcDbEntity
  8
0
  6
Continuous
 62
     7
370
    15
100
AcDbSpline
210
0.0
220
0.0
230
1.0
 70
     8
 71
     3
 72
    16
 73
    12
 74
     0
 42
0.00000001
 43
0.00000001
 40
0.0
 40
0.0
 40
0.0
 40
0.0
 40
0.2499999999999999
 40
0.2499999999999999
 40
0.4999999999999999
 40
0.4999999999999999
 40
0.7499999999999998
 40
0.7499999999999998
 40
0.8749999999999998
 40
0.8749999999999998
 40
1.0
 40
1.0
 40
1.0
 40
1.0
 10
281.5920328383676
 20
328.7232560574375
 30
0.0
 10
281.0148559027704
 20
328.8770723729161
 30
0.0
 10
280.4765352851043
 20
329.059735964142
 30
0.0
 10
279.4626906342167
 20
329.4578288947138
 30
0.0
 10
278.9869210323274
 20
329.6738245412396
 30
0.0
 10
278.0929101944924
 20
330.1246137425855
 30
0.0
 10
277.6759588820175
 20
330.358840619481
 30
0.0
 10
277.0917840809015
 20
330.7164268468734
 30
0.0
 10
276.9039674087649
 20
330.8366883000766
 30
0.0
 10
276.5418570743795
 20
331.0783748637127
 30
0.0
 10
276.3671508145765
 20
331.2001020668252
 30
0.0
 10
276.2000112412973
 20
331.3213322687908
 30
0.0
  0
LINE
  5
9B
330
1F
100
AcDbEntity
  8
0
  6
Continuous
 62
     7
370
    15
100
AcDbLine
 10
311.6521985323
 20
331.3213340258
 30
0.0
 11
311.6521985323
 21
341.589280895
 31
0.0
  0
LINE
  5
9C
330
1F
100
AcDbEntity
  8
0
  6
Continuous
 62
     7
370
    15
100
AcDbLine
 10
303.2556279615
 20
341.589280895
 30
0.0
 11
311.6521985323
 21
341.589280895
 31
0.0
  0
SPLINE
  5
9D
330
1F
100
AcDbEntity
  8
0
  6
Continuous
 62
     7
370
    15
100
AcDbSpline
210
0.0
220
0.0
230
1.0
 70
     8
 71
     3
 72
     8
 73
     4
 74
     0
 42
0.00000001
 43
0.00000001
 40
0.0
 40
0.0
 40
0.0
 40
0.0
 40
1.0
 40
1.0
 40
1.0
 40
1.0
 10
289.0812192276096
 20
325.5016002917372
 30
0.0
 10
290.6119254205113
 20
324.8894099534388
 30
0.0
 10
292.2241245378208
 20
324.1850957191456
 30
0.0
 10
293.9261050016271
 20
323.3792879197728
 30
0.0
  0
ELLIPSE
  5
9E
330
1F
100
AcDbEntity
  8
0
  6
Continuous
 62
     7
370
    15
100
AcDbEllipse
 10
295.3255334564
 20
317.7536009428
 30
0.0
 11
21.91324507253734
 21
-12.2090390091189
 31
0.0
210
0.0
220
0.0
230
1.0
 40
0.1598686693
 41
1.947421856746063
 42
2.333804428094595
  0
ELLIPSE
  5
9F
330
1F
100
AcDbEntity
  8
0
  6
Continuous
 62
     7
370
    15
100
AcDbEllipse
 10
292.5266765469
 20
317.7536009428
 30
0.0
 11
21.91324507253734
 21
12.20903900911896
 31
0.0
210
0.0
220
0.0
230
1.0
 40
0.1598686693
 41
0.8077882254951998
 42
1.154519175070291
  0
SPLINE
  5
A0
330
1F
100
AcDbEntity
  8
0
  6
Continuous
 62
     7
370
    15
100
AcDbSpline
210
0.0
220
0.0
230
1.0
 70
     8
 71
     3
 72
    10
 73
     6
 74
     0
 42
0.00000001
 43
0.00000001
 40
0.0
 40
0.0
 40
0.0
 40
0.0
 40
0.5
 40
0.5
 40
1.0
 40
1.0
 40
1.0
 40
1.0
 10
293.9258820729914
 20
323.3718548632432
 30
0.0
 10
294.9055159861695
 20
323.8327281030959
 30
0.0
 10
295.8764227481319
 20
324.2779195809538
 30
0.0
 10
297.7721222805511
 20
325.1214216823493
 30
0.0
 10
298.6993386163576
 20
325.5209859900008
 30
0.0
 10
299.6023233371226
 20
325.8944944937442
 30
0.0
  0
SPLINE
  5
A1
330
1F
100
AcDbEntity
  8
0
  6
Continuous
 62
     7
370
    15
100
AcDbSpline
210
0.0
220
0.0
230
1.0
 70
     8
 71
     3
 72
     8
 73
     4
 74
     0
 42
0.00000001
 43
0.00000001
 40
0.0
 40
0.0
 40
0.0
 40
0.0
 40
0.0000359618532339
 40
0.0000359618532339
 40
0.0000359618532339
 40
0.0000359618532339
 10
293.9261050016271
 20
323.3792879197728
 30
0.0
 10
293.9261050016271
 20
323.3768485429464
 30
0.0
 10
293.9260305717102
 20
323.3743706758511
 30
0.0
 10
293.9258820729914
 20
323.3718548632432
 30
0.0
  0
SPLINE
  5
A2
330
1F
100
AcDbEntity
  8
0
  6
Continuous
 62
     7
370
    15
100
AcDbSpline
210
0.0
220
0.0
230
1.0
 70
     8
 71
     3
 72
     8
 73
     4
 74
     0
 42
0.00000001
 43
0.00000001
 40
0.0
 40
0.0
 40
0.0
 40
0.0
 40
1.0
 40
1.0
 40
1.0
 40
1.0
 10
253.0110524015504
 20
283.4038016877294
 30
0.0
 10
258.7069079656397
 20
281.5857315843939
 30
0.0
 10
264.4005552006093
 20
279.7607249067578
 30
0.0
 10
270.0962004568673
 20
277.9415353578326
 30
0.0
  0
SPLINE
  5
A3
330
1F
100
AcDbEntity
  8
0
  6
Continuous
 62
     7
370
    15
100
AcDbSpline
210
0.0
220
0.0
230
1.0
 70
    24
 71
     3
 72
     8
 73
     4
 74
     0
 42
0.00000001
 43
0.00000001
 40
0.2576069359192745
 40
0.2576069359192745
 40
0.2576069359192745
 40
0.2576069359192745
 40
0.2645562626507061
 40
0.2645562626507061
 40
0.2645562626507061
 40
0.2645562626507061
 10
252.9261050016271
 20
308.590202098022
 30
0.0
 10
252.9261050016271
 20
308.5848765139152
 30
0.0
 10
252.9261050016271
 20
308.5755373469993
 30
0.0
 10
252.9261050016271
 20
308.5622114679476
 30
0.0
  0
ARC
  5
A4
330
1F
100
AcDbEntity
  8
0
  6
Continuous
 62
     7
370
    15
100
AcDbCircle
 10
293.9261050016
 20
288.0892814612
 30
0.0
 40
22.26922466874256
100
AcDbArc
 50
348.515754775
 51
10.4994059956
  0
SPLINE
  5
A5
330
1F
100
AcDbEntity
  8
0
  6
Continuous
 62
     7
370
    15
100
AcDbSpline
210
0.0
220
0.0
230
1.0
 70
     8
 71
     3
 72
    12
 73
     8
 74
     0
 42
0.00000001
 43
0.00000001
 40
0.0
 40
0.0
 40
0.0
 40
0.0
 40
0.2500000000000006
 40
0.2500000000000006
 40
0.5000000000000011
 40
0.5000000000000011
 40
1.0
 40
1.0
 40
1.0
 40
1.0
 10
270.0962004568673
 20
277.9415353578326
 30
0.0
 10
270.3953127835983
 20
277.8433905355482
 30
0.0
 10
270.6716559074288
 20
277.7015967226953
 30
0.0
 10
271.1793055327917
 20
277.331614509812
 30
0.0
 10
271.4007295316893
 20
277.1097284822224
 30
0.0
 10
271.9539100968071
 20
276.349279260215
 30
0.0
 10
272.1586130545752
 20
275.7287849559279
 30
0.0
 10
272.1613032055567
 20
275.097219154197
 30
0.0
  0
SPLINE
  5
A6
330
1F
100
AcDbEntity
  8
0
  6
Continuous
 62
     7
370
    15
100
AcDbSpline
210
0.0
220
0.0
230
1.0
 70
     8
 71
     3
 72
     8
 73
     4
 74
     0
 42
0.00000001
 43
0.00000001
 40
0.0
 40
0.0
 40
0.0
 40
0.0
 40
1.0
 40
1.0
 40
1.0
 40
1.0
 10
315.6909067976973
 20
283.0643436506624
 30
0.0
 10
315.6909067976973
 20
283.2633550509523
 30
0.0
 10
315.7104344062291
 20
283.460411361782
 30
0.0
 10
315.7494883976239
 20
283.6555128048458
 30
0.0
  0
LINE
  5
A7
330
1F
100
AcDbEntity
  8
0
  6
Continuous
 62
     7
370
    15
100
AcDbLine
 10
334.9261061341
 20
316.0531497812
 30
0.0
 11
334.9261061341
 21
316.0549602723
 31
0.0
  0
SPLINE
  5
A8
330
1F
100
AcDbEntity
  8
0
  6
Continuous
 62
     7
370
    15
100
AcDbSpline
210
0.0
220
0.0
230
1.0
 70
     8
 71
     3
 72
    11
 73
     7
 74
     0
 42
0.00000001
 43
0.00000001
 40
0.0
 40
0.0
 40
0.0
 40
0.0
 40
0.0040000001976508
 40
0.0040000001976508
 40
0.0040000001976508
 40
0.0159798820368903
 40
0.0159798820368903
 40
0.0159798820368903
 40
0.0159798820368903
 10
319.6056732901552
 20
295.5388611214464
 30
0.0
 10
320.8821485698166
 20
295.1539195306694
 30
0.0
 10
322.1586455866693
 20
294.7690669297734
 30
0.0
 10
323.4351250120695
 20
294.3841697863918
 30
0.0
 10
327.258142445245
 20
293.2314144345647
 30
0.0
 10
331.0810044360232
 20
292.0782698148053
 30
0.0
 10
334.9025164696945
 20
290.9205875292737
 30
0.0
  0
LINE
  5
A9
330
1F
100
AcDbEntity
  8
0
  6
Continuous
 62
     7
370
    15
100
AcDbLine
 10
272.1613031865
 20
275.097218833
 30
0.0
 11
272.1613031865
 21
266.58928164
 31
0.0
  0
LINE
  5
AA
330
1F
100
AcDbEntity
  8
0
  6
Continuous
 62
     7
370
    15
100
AcDbLine
 10
315.6909068168
 20
266.58928164
 30
0.0
 11
315.6909068168
 21
283.0643444574
 31
0.0
  0
LINE
  5
AB
330
1F
100
AcDbEntity
  8
0
  6
Continuous
 62
     7
370
    15
100
AcDbLine
 10
228.9261073858
 20
319.5892810142
 30
0.0
 11
228.9261073858
 21
279.5892819083
 31
0.0
  0
LINE
  5
AC
330
1F
100
AcDbEntity
  8
0
  6
Continuous
 62
     7
370
    15
100
AcDbLine
 10
358.9261026174
 20
319.5892810142
 30
0.0
 11
358.9261026174
 21
279.5892819083
 31
0.0
  0
SPLINE
  5
AD
330
1F
100
AcDbEntity
  8
0
  6
Continuous
 62
     7
370
    15
100
AcDbSpline
210
0.0
220
0.0
230
1.0
 70
     8
 71
     3
 72
    12
 73
     8
 74
     0
 42
0.00000001
 43
0.00000001
 40
0.0
 40
0.0
 40
0.0
 40
0.0
 40
0.4999999999999951
 40
0.4999999999999951
 40
0.7499999999999976
 40
0.7499999999999976
 40
1.0
 40
1.0
 40
1.0
 40
1.0
 10
272.1613032055569
 20
266.5892814612218
 30
0.0
 10
272.1613032055568
 20
266.2369734501188
 30
0.0
 10
272.2079067465769
 20
265.8927042654562
 30
0.0
 10
272.3454411360451
 20
265.3879678190233
 30
0.0
 10
272.4031516388379
 20
265.2208364141344
 30
0.0
 10
272.5396001364749
 20
264.8976391839003
 30
0.0
 10
272.6183678988968
 20
264.7409761940436
 30
0.0
 10
272.7077458243568
 20
264.5892814612218
 30
0.0
  0
SPLINE
  5
AE
330
1F
100
AcDbEntity
  8
0
  6
Continuous
 62
     7
370
    15
100
AcDbSpline
210
0.0
220
0.0
230
1.0
 70
     8
 71
     3
 72
    12
 73
     8
 74
     0
 42
0.00000001
 43
0.00000001
 40
0.0
 40
0.0
 40
0.0
 40
0.0
 40
0.5000000000000007
 40
0.5000000000000007
 40
0.7500000000000003
 40
0.7500000000000003
 40
1.0
 40
1.0
 40
1.0
 40
1.0
 10
315.1444641788974
 20
264.5892814612218
 30
0.0
 10
315.323209386243
 20
264.8926528622914
 30
0.0
 10
315.4583048700644
 20
265.2126657670872
 30
0.0
 10
315.59679867291
 20
265.7171305343859
 30
0.0
 10
315.6321888006968
 20
265.8903870507589
 30
0.0
 10
315.679103585651
 20
266.2381285222048
 30
0.0
 10
315.6909067976973
 20
266.4131316011258
 30
0.0
 10
315.6909067976973
 20
266.5892814612218
 30
0.0
  0
SPLINE
  5
AF
330
1F
100
AcDbEntity
  8
0
  6
Continuous
 62
     7
370
    15
100
AcDbSpline
210
0.0
220
0.0
230
1.0
 70
     8
 71
     3
 72
    11
 73
     7
 74
     0
 42
0.00000001
 43
0.00000001
 40
0.0
 40
0.0
 40
0.0
 40
0.0
 40
0.0040000008296797
 40
0.0040000008296797
 40
0.0040000008296797
 40
0.0058729592084036
 40
0.0058729592084036
 40
0.0058729592084036
 40
0.0058729592084036
 10
272.7077458243568
 20
264.5892814612218
 30
0.0
 10
273.3793147596091
 20
263.4374492063882
 30
0.0
 10
274.0512711660968
 20
262.2858465700314
 30
0.0
 10
274.7237242002192
 20
261.1345407588061
 30
0.0
 10
275.0385933266651
 20
260.5954538090005
 30
0.0
 10
275.353571888061
 20
260.0564321501251
 30
0.0
 10
275.6686742148609
 20
259.5174846914973
 30
0.0
  0
SPLINE
  5
B0
330
1F
100
AcDbEntity
  8
0
  6
Continuous
 62
     7
370
    15
100
AcDbSpline
210
0.0
220
0.0
230
1.0
 70
     8
 71
     3
 72
    11
 73
     7
 74
     0
 42
0.00000001
 43
0.00000001
 40
0.0
 40
0.0
 40
0.0
 40
0.0
 40
0.0040000012747176
 40
0.0040000012747176
 40
0.0040000012747176
 40
0.0058729590586316
 40
0.0058729590586316
 40
0.0058729590586316
 40
0.0058729590586316
 10
312.1835357883933
 20
259.5174846914973
 30
0.0
 10
312.8564869337858
 20
260.6684927252159
 30
0.0
 10
313.5288765682747
 20
261.8198375069637
 30
0.0
 10
314.2008324033134
 20
262.971439922994
 30
0.0
 10
314.5154686004354
 20
263.5106655474807
 30
0.0
 10
314.8300091085132
 20
264.0499481571458
 30
0.0
 10
315.1444641788974
 20
264.5892814612218
 30
0.0
  0
ARC
  5
B1
330
1F
100
AcDbEntity
  8
0
  6
Continuous
 62
     7
370
    15
100
AcDbCircle
 10
284.8793630581
 20
325.030949847
 30
0.0
 40
4.228132754694191
100
AcDbArc
 50
329.7907474525
 51
6.3910623125
  0
ELLIPSE
  5
B2
330
1F
100
AcDbEntity
  8
0
  6
Continuous
 62
     7
370
    15
100
AcDbEllipse
 10
293.9261050016
 20
315.1555247315
 30
0.0
 11
18.88325905102812
 21
-12.28338730885616
 31
0.0
210
0.0
220
0.0
230
0.9999999999999999
 40
0.1712052707
 41
1.969495363980632
 42
2.355877935329177
  0
ARC
  5
B3
330
1F
100
AcDbEntity
  8
0
  6
Continuous
 62
     7
370
    15
100
AcDbCircle
 10
279.4814169188
 20
326.9965881814
 30
0.0
 40
2.726918629688236
100
AcDbArc
 50
341.3638119427
 51
39.286172512
  0
ARC
  5
B4
330
1F
100
AcDbEntity
  8
0
  6
Continuous
 62
     7
370
    15
100
AcDbCircle
 10
308.3707930844
 20
326.9965881814
 30
0.0
 40
2.726918629688272
100
AcDbArc
 50
140.713827488
 51
198.6361880573
  0
ELLIPSE
  5
B5
330
1F
100
AcDbEntity
  8
0
  6
Continuous
 62
     7
370
    15
100
AcDbEllipse
 10
293.9261050016
 20
315.1555247315
 30
0.0
 11
18.88325905102812
 21
12.28338730885611
 31
0.0
210
0.0
220
0.0
230
1.0
 40
0.1712052707
 41
0.7857147182606203
 42
1.13244566783575
  0
ARC
  5
B6
330
1F
100
AcDbEntity
  8
0
  6
Continuous
 62
     7
370
    15
100
AcDbCircle
 10
303.3415858797
 20
325.1845607173
 30
0.0
 40
3.806059812370572
100
AcDbArc
 50
169.2498057533
 51
209.7415570802
  0
SPLINE
  5
B7
330
1F
100
AcDbEntity
  8
0
  6
Continuous
 62
     7
370
    15
100
AcDbSpline
210
0.0
220
0.0
230
1.0
 70
     8
 71
     3
 72
    12
 73
     8
 74
     0
 42
0.00000001
 43
0.00000001
 40
0.0
 40
0.0
 40
0.0
 40
0.0
 40
0.5000000000000042
 40
0.5000000000000042
 40
0.7500000000000021
 40
0.7500000000000021
 40
1.0
 40
1.0
 40
1.0
 40
1.0
 10
275.6686742148609
 20
259.5174846914973
 30
0.0
 10
275.8441417105877
 20
259.2132073110561
 30
0.0
 10
275.976457602533
 20
258.8927142294057
 30
0.0
 10
276.1119454375827
 20
258.3882931844769
 30
0.0
 10
276.146518968457
 20
258.2152353779308
 30
0.0
 10
276.1923479014527
 20
257.8680126633134
 30
0.0
 10
276.2038732008634
 20
257.6933039435612
 30
0.0
 10
276.2038732008634
 20
257.5174846914973
 30
0.0
  0
SPLINE
  5
B8
330
1F
100
AcDbEntity
  8
0
  6
Continuous
 62
     7
370
    15
100
AcDbSpline
210
0.0
220
0.0
230
1.0
 70
     8
 71
     3
 72
    12
 73
     8
 74
     0
 42
0.00000001
 43
0.00000001
 40
0.0
 40
0.0
 40
0.0
 40
0.0
 40
0.5000000000000042
 40
0.5000000000000042
 40
0.7500000000000021
 40
0.7500000000000021
 40
1.0
 40
1.0
 40
1.0
 40
1.0
 10
311.6483368023908
 20
257.5174846914973
 30
0.0
 10
311.6483368023908
 20
257.8691304416731
 30
0.0
 10
311.6938501428243
 20
258.213057095595
 30
0.0
 10
311.8284273544068
 20
258.7177034340899
 30
0.0
 10
311.8849025270682
 20
258.8848432561809
 30
0.0
 10
312.0185715887467
 20
259.2083645291711
 30
0.0
 10
312.0957996650917
 20
259.3653418820403
 30
0.0
 10
312.1835357883933
 20
259.5174846914973
 30
0.0
  0
SPLINE
  5
B9
330
1F
100
AcDbEntity
  8
0
  6
Continuous
 62
     7
370
    15
100
AcDbSpline
210
0.0
220
0.0
230
1.0
 70
     8
 71
     3
 72
    20
 73
    16
 74
     0
 42
0.00000001
 43
0.00000001
 40
0.0
 40
0.0
 40
0.0
 40
0.0
 40
0.2499999999999998
 40
0.2499999999999998
 40
0.3749999999999995
 40
0.3749999999999995
 40
0.4999999999999991
 40
0.4999999999999991
 40
0.7499999999999993
 40
0.7499999999999993
 40
0.8749999999999997
 40
0.8749999999999997
 40
0.9374999999999998
 40
0.9374999999999998
 40
1.0
 40
1.0
 40
1.0
 40
1.0
 10
282.0653544678805
 20
326.1251798460841
 30
0.0
 10
281.3607259335816
 20
326.4291441839738
 30
0.0
 10
280.7221002444728
 20
326.7894655723543
 30
0.0
 10
279.8414806971055
 20
327.3818842587009
 30
0.0
 10
279.5610308081309
 20
327.5882849059647
 30
0.0
 10
279.0244629058711
 20
328.0157226238441
 30
0.0
 10
278.7678011756522
 20
328.2372940392858
 30
0.0
 10
278.0366876453986
 20
328.9164961419611
 30
0.0
 10
277.6029041645742
 20
329.3860444227733
 30
0.0
 10
277.0236448607775
 20
330.1038116404665
 30
0.0
 10
276.8425496594244
 20
330.3453591931589
 30
0.0
 10
276.5884398120193
 20
330.7099567830125
 30
0.0
 10
276.5066627530225
 20
330.8318699309539
 30
0.0
 10
276.3489324936114
 20
331.0762738360905
 30
0.0
 10
276.2724328420812
 20
331.1996860089101
 30
0.0
 10
276.2000112412973
 20
331.3213322687908
 30
0.0
  0
LINE
  5
BA
330
1F
100
AcDbEntity
  8
0
  6
Continuous
 62
     7
370
    15
100
AcDbLine
 10
274.9261056126
 20
341.589280895
 30
0.0
 11
276.200011471
 21
341.589280895
 31
0.0
  0
SPLINE
  5
BB
330
1F
100
AcDbEntity
  8
0
  6
Continuous
 62
     7
370
    15
100
AcDbSpline
210
0.0
220
0.0
230
1.0
 70
     8
 71
     3
 72
    13
 73
     9
 74
     0
 42
0.00000001
 43
0.00000001
 40
0.0
 40
0.0
 40
0.0
 40
0.0
 40
0.5000000000000034
 40
0.7500000000000034
 40
0.8750000000000034
 40
0.9375000000000018
 40
0.9375000000000018
 40
1.0
 40
1.0
 40
1.0
 40
1.0
 10
244.3462758288232
 20
284.8503985634766
 30
0.0
 10
245.359714320133
 20
284.7085146703556
 30
0.0
 10
246.8799151882791
 20
284.4960045795935
 30
0.0
 10
248.6530609454823
 20
284.2451352869811
 30
0.0
 10
249.5394664332131
 20
284.1185322357385
 30
0.0
 10
249.9193120578302
 20
284.0639771083857
 30
0.0
 10
250.1725323121269
 20
284.0275359615626
 30
0.0
 10
250.2991254510083
 20
284.0092583768184
 30
0.0
 10
250.4257369580675
 20
283.9909856567942
 30
0.0
  0
SPLINE
  5
BC
330
1F
100
AcDbEntity
  8
0
  6
Continuous
 62
     7
370
    15
100
AcDbSpline
210
0.0
220
0.0
230
1.0
 70
     8
 71
     3
 72
    18
 73
    14
 74
     0
 42
0.00000001
 43
0.00000001
 40
0.0
 40
0.0
 40
0.0
 40
0.0
 40
0.2500000000000007
 40
0.2500000000000007
 40
0.5000000000000004
 40
0.5000000000000004
 40
0.7500000000000001
 40
0.7500000000000001
 40
0.8750000000000002
 40
0.8750000000000002
 40
0.9375000000000001
 40
0.9375000000000001
 40
1.0
 40
1.0
 40
1.0
 40
1.0
 10
241.2129009115163
 20
283.2106312181304
 30
0.0
 10
241.3497342443943
 20
283.4914455661356
 30
0.0
 10
241.5387631430303
 20
283.7501109144585
 30
0.0
 10
241.9837957240842
 20
284.1955560998398
 30
0.0
 10
242.2370029534161
 20
284.3819442162089
 30
0.0
 10
242.7968687984621
 20
284.6770860599607
 30
0.0
 10
243.0915390603008
 20
284.7799276933346
 30
0.0
 10
243.5577152163964
 20
284.8607466713529
 30
0.0
 10
243.71651052853
 20
284.8757430698995
 30
0.0
 10
243.9527215213645
 20
284.8798921389247
 30
0.0
 10
244.0314477398072
 20
284.8782579151051
 30
0.0
 10
244.1888784892948
 20
284.8689180320527
 30
0.0
 10
244.2683867763023
 20
284.8611191006258
 30
0.0
 10
244.3462758288232
 20
284.8503985634766
 30
0.0
  0
SPLINE
  5
BD
330
1F
100
AcDbEntity
  8
0
  6
Continuous
 62
     7
370
    15
100
AcDbSpline
210
0.0
220
0.0
230
1.0
 70
     8
 71
     3
 72
    14
 73
    10
 74
     0
 42
0.00000001
 43
0.00000001
 40
0.0
 40
0.0
 40
0.0
 40
0.0
 40
0.25
 40
0.25
 40
0.5
 40
0.5
 40
0.75
 40
0.75
 40
1.0
 40
1.0
 40
1.0
 40
1.0
 10
240.9261050016271
 20
281.9702996114514
 30
0.0
 10
240.9261061221926
 20
282.0763104583081
 30
0.0
 10
240.9322798646978
 20
282.1847183639329
 30
0.0
 10
240.9564770984764
 20
282.3960003571058
 30
0.0
 10
240.9745001807746
 20
282.5006109146504
 30
0.0
 10
241.0223159594057
 20
282.7077848195758
 30
0.0
 10
241.0521072171416
 20
282.810348362594
 30
0.0
 10
241.1238101739255
 20
283.0133621318586
 30
0.0
 10
241.1664204033319
 20
283.115024555465
 30
0.0
 10
241.2129009115163
 20
283.2106312181304
 30
0.0
  0
SPLINE
  5
BE
330
1F
100
AcDbEntity
  8
0
  6
Continuous
 62
     7
370
    15
100
AcDbSpline
210
0.0
220
0.0
230
1.0
 70
     8
 71
     3
 72
    10
 73
     6
 74
     0
 42
0.00000001
 43
0.00000001
 40
0.0
 40
0.0
 40
0.0
 40
0.0
 40
0.5
 40
0.5
 40
1.0
 40
1.0
 40
1.0
 40
1.0
 10
250.4257369580675
 20
283.9909856567942
 30
0.0
 10
250.8336603207608
 20
283.9328033229243
 30
0.0
 10
251.2322215839941
 20
283.8215349807715
 30
0.0
 10
252.033349336462
 20
283.6268722763332
 30
0.0
 10
252.4363785324821
 20
283.5401873425789
 30
0.0
 10
252.8384411556241
 20
283.4492676667147
 30
0.0
  0
SPLINE
  5
BF
330
1F
100
AcDbEntity
  8
0
  6
Continuous
 62
     7
370
    15
100
AcDbSpline
210
0.0
220
0.0
230
1.0
 70
     8
 71
     3
 72
    20
 73
    16
 74
     0
 42
0.00000001
 43
0.00000001
 40
0.0
 40
0.0
 40
0.0
 40
0.0
 40
0.2499999999999997
 40
0.2499999999999997
 40
0.3749999999999996
 40
0.3749999999999996
 40
0.4999999999999996
 40
0.4999999999999996
 40
0.7499999999999992
 40
0.7499999999999992
 40
0.874999999999999
 40
0.874999999999999
 40
0.9374999999999993
 40
0.9374999999999993
 40
1.0
 40
1.0
 40
1.0
 40
1.0
 10
305.7868555353736
 20
326.1251798460841
 30
0.0
 10
306.4914840696725
 20
326.4291441839738
 30
0.0
 10
307.1301097587814
 20
326.7894655723543
 30
0.0
 10
308.0107293061486
 20
327.3818842587009
 30
0.0
 10
308.2911791951233
 20
327.5882849059646
 30
0.0
 10
308.8277470973831
 20
328.0157226238441
 30
0.0
 10
309.084408827602
 20
328.2372940392858
 30
0.0
 10
309.8155223578555
 20
328.9164961419612
 30
0.0
 10
310.24930583868
 20
329.3860444227733
 30
0.0
 10
310.8285651424766
 20
330.1038116404665
 30
0.0
 10
311.0096603438297
 20
330.3453591931589
 30
0.0
 10
311.2637701912349
 20
330.7099567830125
 30
0.0
 10
311.3455472502317
 20
330.831869930954
 30
0.0
 10
311.5032775096427
 20
331.0762738360905
 30
0.0
 10
311.5797771611684
 20
331.1996860089309
 30
0.0
 10
311.6521987619568
 20
331.3213322687908
 30
0.0
  0
LINE
  5
C0
330
1F
100
AcDbEntity
  8
0
  6
Continuous
 62
     7
370
    15
100
AcDbLine
 10
311.6521985323
 20
341.589280895
 30
0.0
 11
312.9261043907
 21
341.589280895
 31
0.0
  0
SPLINE
  5
C1
330
1F
100
AcDbEntity
  8
0
  6
Continuous
 62
     7
370
    15
100
AcDbSpline
210
0.0
220
0.0
230
1.0
 70
     8
 71
     3
 72
    24
 73
    20
 74
     0
 42
0.00000001
 43
0.00000001
 40
0.0
 40
0.0
 40
0.0
 40
0.0
 40
0.0312499999999989
 40
0.0312499999999989
 40
0.0624999999999977
 40
0.0624999999999977
 40
0.1249999999999954
 40
0.1249999999999954
 40
0.2499999999999961
 40
0.2499999999999961
 40
0.3749999999999967
 40
0.3749999999999967
 40
0.4999999999999973
 40
0.4999999999999973
 40
0.624999999999998
 40
0.624999999999998
 40
0.7499999999999986
 40
0.7499999999999986
 40
1.0
 40
1.0
 40
1.0
 40
1.0
 10
345.2312271827246
 20
286.1742753636349
 30
0.0
 10
345.262617513569
 20
286.1591251459622
 30
0.0
 10
345.2936299084198
 20
286.1435472311744
 30
0.0
 10
345.3552303782726
 20
286.1112419645843
 30
0.0
 10
345.385683234014
 20
286.0946043734656
 30
0.0
 10
345.4759322327008
 20
286.0432966621691
 30
0.0
 10
345.5346549449239
 20
286.0072147414571
 30
0.0
 10
345.7065589910388
 20
285.8934262291853
 30
0.0
 10
345.815494984829
 20
285.8102010410056
 30
0.0
 10
346.0219446837116
 20
285.6289180054424
 30
0.0
 10
346.1201547008638
 20
285.5300098618373
 30
0.0
 10
346.3005895689524
 20
285.3210590974953
 30
0.0
 10
346.382713438296
 20
285.2114177477472
 30
0.0
 10
346.5310987208816
 20
284.9820370388265
 30
0.0
 10
346.597361947485
 20
284.8622988429019
 30
0.0
 10
346.7133734388281
 20
284.6123377164868
 30
0.0
 10
346.7627725569243
 20
284.4823589966639
 30
0.0
 10
346.8806960011929
 20
284.0901069608714
 30
0.0
 10
346.9216510297895
 20
283.8210139135036
 30
0.0
 10
346.9228036846145
 20
283.5446681190181
 30
0.0
  0
SPLINE
  5
C2
330
1F
100
AcDbEntity
  8
0
  6
Continuous
 62
     7
370
    15
100
AcDbSpline
210
0.0
220
0.0
230
1.0
 70
     8
 71
     3
 72
    19
 73
    15
 74
     0
 42
0.00000001
 43
0.00000001
 40
0.0
 40
0.0
 40
0.0
 40
0.0
 40
0.1249999999999999
 40
0.1249999999999999
 40
0.2499999999999999
 40
0.2499999999999999
 40
0.3124999999999992
 40
0.3124999999999992
 40
0.3749999999999984
 40
0.4999999999999987
 40
0.4999999999999987
 40
0.7499999999999994
 40
0.7499999999999994
 40
1.0
 40
1.0
 40
1.0
 40
1.0
 10
334.9441042579177
 20
290.9080628100073
 30
0.0
 10
335.3942696695211
 20
290.7628555022406
 30
0.0
 10
335.8509639408811
 20
290.6335491523774
 30
0.0
 10
336.7437593369081
 20
290.3254359663875
 30
0.0
 10
337.1773713044383
 20
290.1405498009515
 30
0.0
 10
337.8158916321537
 20
289.8342558254529
 30
0.0
 10
338.0270843503036
 20
289.7280682998268
 30
0.0
 10
338.4506785823114
 20
289.5186553757558
 30
0.0
 10
339.0860917487483
 20
289.2045862750112
 30
0.0
 10
339.7215694965811
 20
288.8906617860172
 30
0.0
 10
340.9926169428506
 20
288.2629863422645
 30
0.0
 10
341.8400999161155
 20
287.844769292002
 30
0.0
 10
343.5352708329663
 20
287.0087403042206
 30
0.0
 10
344.3845094480538
 20
286.5893128446222
 30
0.0
 10
345.2312271827246
 20
286.1742753636349
 30
0.0
  0
SPLINE
  5
C3
330
1F
100
AcDbEntity
  8
0
  6
Continuous
 62
     7
370
    15
100
AcDbSpline
210
0.0
220
0.0
230
1.0
 70
     8
 71
     3
 72
    12
 73
     8
 74
     0
 42
0.00000001
 43
0.00000001
 40
0.0
 40
0.0
 40
0.0
 40
0.0
 40
0.4999999999999977
 40
0.4999999999999977
 40
0.7499999999999988
 40
0.7499999999999988
 40
1.0
 40
1.0
 40
1.0
 40
1.0
 10
334.9328459221082
 20
316.0510570248179
 30
0.0
 10
334.9392938486483
 20
316.0499931604149
 30
0.0
 10
334.9456376985876
 20
316.0485958608936
 30
0.0
 10
334.9549951633342
 20
316.0459927258719
 30
0.0
 10
334.9580880019095
 20
316.0450407032966
 30
0.0
 10
334.9642209795281
 20
316.0429678221684
 30
0.0
 10
334.9656198977808
 20
316.0423555333189
 30
0.0
 10
334.9702750266864
 20
316.0406420677986
 30
0.0
  0
LWPOLYLINE
  5
C4
330
1F
100
AcDbEntity
  8
0
  6
Continuous
 62
     7
370
    15
100
AcDbPolyline
 90
       13
 70
   128
 43
0.0
 10
336.2372369558
 20
315.6443904406
 10
336.2495304138
 20
315.6420062548
 10
336.1293786258
 20
315.6650415873
 10
335.9920159966
 20
315.6953226095
 10
335.8421587438
 20
315.7328269696
 10
335.702862689
 20
315.7717040992
 10
335.5511725933
 20
315.8183037555
 10
335.4200721771
 20
315.8620870924
 10
335.2643513173
 20
315.9182532942
 10
335.094340244
 20
315.9845876759
 10
335.02653251
 20
316.0122945225
 10
334.9328451843
 20
316.0510561681
 10
334.9328451843
 20
316.0510561681
  0
ARC
  5
C5
330
1F
100
AcDbEntity
  8
0
  6
Continuous
 62
     7
370
    15
100
AcDbCircle
 10
252.4079274683
 20
281.4644072416
 30
0.0
 40
2.031012478481858
100
AcDbArc
 50
72.7250508574
 51
77.762200097
  0
ARC
  5
C6
330
1F
100
AcDbEntity
  8
0
  6
Continuous
 62
     7
370
    15
100
AcDbCircle
 10
334.3363855345
 20
288.9656772289
 30
0.0
 40
2.03523478902391
100
AcDbArc
 50
72.6265718296
 51
73.8492547248
  0
SPLINE
  5
C7
330
1F
100
AcDbEntity
  8
0
  6
Continuous
 62
     7
370
    15
100
AcDbSpline
210
0.0
220
0.0
230
1.0
 70
     8
 71
     3
 72
    22
 73
    18
 74
     0
 42
0.00000001
 43
0.00000001
 40
0.0
 40
0.0
 40
0.0
 40
0.0
 40
0.125
 40
0.125
 40
0.25
 40
0.25
 40
0.375
 40
0.375
 40
0.5
 40
0.5
 40
0.625
 40
0.625
 40
0.75
 40
0.75
 40
0.875
 40
0.875
 40
1.0
 40
1.0
 40
1.0
 40
1.0
 10
315.8224715168016
 20
292.1472983143253
 30
0.0
 10
315.7811725643226
 20
292.3968131969764
 30
0.0
 10
315.7720930724214
 20
292.6466079488043
 30
0.0
 10
315.8164524938702
 20
293.1467971352567
 30
0.0
 10
315.8710569971853
 20
293.3969546621297
 30
0.0
 10
316.0384365967117
 20
293.8699736314543
 30
0.0
 10
316.1535913927955
 20
294.09951745605
 30
0.0
 10
316.4346240430261
 20
294.5187260451512
 30
0.0
 10
316.5998003733149
 20
294.709322630208
 30
0.0
 10
316.979485075028
 20
295.0496370478467
 30
0.0
 10
317.1865148815877
 20
295.1927743676036
 30
0.0
 10
317.6341048564603
 20
295.4263563592693
 30
0.0
 10
317.8739803438384
 20
295.515266065003
 30
0.0
 10
318.3622050047994
 20
295.6293936844208
 30
0.0
 10
318.6170506965512
 20
295.655821623623
 30
0.0
 10
319.116341334668
 20
295.6443009982368
 30
0.0
 10
319.3627028103305
 20
295.6076556627468
 30
0.0
 10
319.6056732901552
 20
295.5388611214464
 30
0.0
  0
LINE
  5
C8
330
1F
100
AcDbEntity
  8
0
  6
Continuous
 62
     7
370
    15
100
AcDbLine
 10
344.926104048
 20
264.4177093422
 30
0.0
 11
344.926104048
 21
282.0048663086
 31
0.0
  0
SPLINE
  5
C9
330
1F
100
AcDbEntity
  8
0
  6
Continuous
 62
     7
370
    15
100
AcDbSpline
210
0.0
220
0.0
230
1.0
 70
    24
 71
     3
 72
    14
 73
    10
 74
     0
 42
0.00000001
 43
0.00000001
 40
0.0
 40
0.0
 40
0.0
 40
0.0
 40
0.25
 40
0.25
 40
0.5
 40
0.5
 40
0.75
 40
0.75
 40
1.0
 40
1.0
 40
1.0
 40
1.0
 10
346.926105001627
 20
282.0048665383613
 30
0.0
 10
346.926105001627
 20
282.0048665383613
 30
0.0
 10
346.8740503549636
 20
282.0048665383613
 30
0.0
 10
346.6736777783355
 20
282.0048665383613
 30
0.0
 10
346.5254386864234
 20
282.0048665383613
 30
0.0
 10
346.1551984415768
 20
282.0048665383613
 30
0.0
 10
345.9333429623688
 20
282.0048665383613
 30
0.0
 10
345.4496007703455
 20
282.0048665383613
 30
0.0
 10
345.1879043894261
 20
282.0048665383613
 30
0.0
 10
344.926105001627
 20
282.0048665383613
 30
0.0
  0
SPLINE
  5
CA
330
1F
100
AcDbEntity
  8
0
  6
Continuous
 62
     7
370
    15
100
AcDbSpline
210
0.0
220
0.0
230
1.0
 70
     8
 71
     3
 72
    18
 73
    14
 74
     0
 42
0.00000001
 43
0.00000001
 40
0.0
 40
0.0
 40
0.0
 40
0.0
 40
0.1250000000000003
 40
0.1250000000000003
 40
0.2500000000000007
 40
0.2500000000000007
 40
0.5000000000000012
 40
0.5000000000000012
 40
0.7500000000000019
 40
0.7500000000000019
 40
0.875000000000001
 40
0.875000000000001
 40
1.0
 40
1.0
 40
1.0
 40
1.0
 10
344.926105001627
 20
264.4177085859681
 30
0.0
 10
345.0967182662395
 20
264.3573876877842
 30
0.0
 10
345.2571892218795
 20
264.2834763810596
 30
0.0
 10
345.560682179425
 20
264.1109136543275
 30
0.0
 10
345.7031203490114
 20
264.0120162327732
 30
0.0
 10
346.086938247519
 20
263.6965329782322
 30
0.0
 10
346.2955042791654
 20
263.4535093741792
 30
0.0
 10
346.6168389250911
 20
262.9491893996384
 30
0.0
 10
346.7345710977106
 20
262.6808304115186
 30
0.0
 10
346.8499614352265
 20
262.2754328924934
 30
0.0
 10
346.8784447374052
 20
262.1395316158357
 30
0.0
 10
346.9165203721901
 20
261.8658697104445
 30
0.0
 10
346.926105001627
 20
261.7270520803785
 30
0.0
 10
346.926105001627
 20
261.5892814612218
 30
0.0
  0
SPLINE
  5
CB
330
1F
100
AcDbEntity
  8
0
  6
Continuous
 62
     7
370
    15
100
AcDbSpline
210
0.0
220
0.0
230
1.0
 70
     8
 71
     3
 72
    18
 73
    14
 74
     0
 42
0.00000001
 43
0.00000001
 40
0.0
 40
0.0
 40
0.0
 40
0.0
 40
0.1249999999999999
 40
0.1249999999999999
 40
0.2499999999999998
 40
0.2499999999999998
 40
0.4999999999999996
 40
0.4999999999999996
 40
0.7499999999999993
 40
0.7499999999999993
 40
0.8749999999999997
 40
0.8749999999999997
 40
1.0
 40
1.0
 40
1.0
 40
1.0
 10
258.7545321263733
 20
248.5892814612219
 30
0.0
 10
258.6942112281894
 20
248.4186681966095
 30
0.0
 10
258.6202999214647
 20
248.2581972409694
 30
0.0
 10
258.4477371947326
 20
247.9547042834239
 30
0.0
 10
258.3488397731784
 20
247.8122661138375
 30
0.0
 10
258.0333565186373
 20
247.42844821533
 30
0.0
 10
257.7903329145844
 20
247.2198821836836
 30
0.0
 10
257.2860129400436
 20
246.8985475377578
 30
0.0
 10
257.0176539519238
 20
246.7808153651384
 30
0.0
 10
256.6122564328984
 20
246.6654250276225
 30
0.0
 10
256.4763551562407
 20
246.6369417254437
 30
0.0
 10
256.2026932508493
 20
246.5988660906589
 30
0.0
 10
256.063875620529
 20
246.5892814612219
 30
0.0
 10
255.926105001627
 20
246.5892814612219
 30
0.0
  0
SPLINE
  5
CC
330
1F
100
AcDbEntity
  8
0
  6
Continuous
 62
     7
370
    15
100
AcDbSpline
210
0.0
220
0.0
230
1.0
 70
     8
 71
     3
 72
    18
 73
    14
 74
     0
 42
0.00000001
 43
0.00000001
 40
0.0
 40
0.0
 40
0.0
 40
0.0
 40
0.1250000000000011
 40
0.1250000000000011
 40
0.2500000000000021
 40
0.2500000000000021
 40
0.5000000000000014
 40
0.5000000000000014
 40
0.7500000000000008
 40
0.7500000000000008
 40
0.8750000000000003
 40
0.8750000000000003
 40
1.0
 40
1.0
 40
1.0
 40
1.0
 10
329.097677876881
 20
248.5892814612219
 30
0.0
 10
329.1579987750649
 20
248.4186681966095
 30
0.0
 10
329.2319100817895
 20
248.2581972409694
 30
0.0
 10
329.4044728085216
 20
247.954704283424
 30
0.0
 10
329.5033702300759
 20
247.8122661138375
 30
0.0
 10
329.8188534846169
 20
247.4284482153301
 30
0.0
 10
330.0618770886698
 20
247.2198821836836
 30
0.0
 10
330.5661970632106
 20
246.8985475377579
 30
0.0
 10
330.8345560513304
 20
246.7808153651385
 30
0.0
 10
331.2399535703559
 20
246.6654250276226
 30
0.0
 10
331.3758548470137
 20
246.6369417254438
 30
0.0
 10
331.6495167524053
 20
246.598866090659
 30
0.0
 10
331.7883343829796
 20
246.5892814612219
 30
0.0
 10
331.9261050016271
 20
246.5892814612219
 30
0.0
  0
LINE
  5
CD
330
1F
100
AcDbEntity
  8
0
  6
Continuous
 62
     7
370
    15
100
AcDbLine
 10
240.9261056275
 20
281.9694406605
 30
0.0
 11
242.9261059553
 21
281.9694406605
 31
0.0
  0
LINE
  5
CE
330
1F
100
AcDbEntity
  8
0
  6
Continuous
 62
     7
370
    15
100
AcDbLine
 10
242.9261059553
 20
281.9694406605
 30
0.0
 11
242.9261059553
 21
264.4177093422
 31
0.0
  0
SPLINE
  5
CF
330
1F
100
AcDbEntity
  8
0
  6
Continuous
 62
     7
370
    15
100
AcDbSpline
210
0.0
220
0.0
230
1.0
 70
     8
 71
     3
 72
    18
 73
    14
 74
     0
 42
0.00000001
 43
0.00000001
 40
0.0
 40
0.0
 40
0.0
 40
0.0
 40
0.1250000000000005
 40
0.1250000000000005
 40
0.2500000000000011
 40
0.2500000000000011
 40
0.500000000000002
 40
0.500000000000002
 40
0.750000000000003
 40
0.750000000000003
 40
0.8750000000000016
 40
0.8750000000000016
 40
1.0
 40
1.0
 40
1.0
 40
1.0
 10
242.9261050016271
 20
264.4177085859681
 30
0.0
 10
242.7554917370147
 20
264.3573876877842
 30
0.0
 10
242.5950207813746
 20
264.2834763810595
 30
0.0
 10
242.2915278238292
 20
264.1109136543274
 30
0.0
 10
242.1490896542428
 20
264.0120162327731
 30
0.0
 10
241.7652717557353
 20
263.6965329782321
 30
0.0
 10
241.5567057240889
 20
263.4535093741792
 30
0.0
 10
241.2353710781632
 20
262.9491893996383
 30
0.0
 10
241.1176389055437
 20
262.6808304115186
 30
0.0
 10
241.0022485680278
 20
262.2754328924931
 30
0.0
 10
240.973765265849
 20
262.1395316158353
 30
0.0
 10
240.9356896310642
 20
261.8658697104437
 30
0.0
 10
240.9261050016272
 20
261.7270520798695
 30
0.0
 10
240.9261050016271
 20
261.5892814612218
 30
0.0
  0
SPLINE
  5
D0
330
1F
100
AcDbEntity
  8
0
  6
Continuous
 62
     7
370
    15
100
AcDbSpline
210
0.0
220
0.0
230
1.0
 70
     8
 71
     3
 72
    29
 73
    25
 74
     0
 42
0.00000001
 43
0.00000001
 40
0.0
 40
0.0
 40
0.0
 40
0.0
 40
0.0624999999999994
 40
0.0937499999999991
 40
0.1093749999999989
 40
0.1093749999999989
 40
0.1249999999999988
 40
0.1249999999999988
 40
0.1562499999999984
 40
0.1562499999999984
 40
0.1874999999999981
 40
0.1874999999999981
 40
0.203124999999998
 40
0.203124999999998
 40
0.2187499999999978
 40
0.2499999999999991
 40
0.2499999999999991
 40
0.4999999999999989
 40
0.4999999999999989
 40
0.7499999999999987
 40
0.7499999999999987
 40
0.8749999999999993
 40
0.8749999999999993
 40
1.0
 40
1.0
 40
1.0
 40
1.0
 10
344.926105001627
 20
282.0048665383613
 30
0.0
 10
344.926105001627
 20
282.2905506783523
 30
0.0
 10
344.9255925336641
 20
282.719076785074
 30
0.0
 10
344.9240931989958
 20
283.2190208742229
 30
0.0
 10
344.9232568876996
 20
283.4332821472995
 30
0.0
 10
344.9226562299949
 20
283.5761228775046
 30
0.0
 10
344.9181831338604
 20
283.6470309846664
 30
0.0
 10
344.8749551369584
 20
283.8531895208345
 30
0.0
 10
344.8130873742704
 20
283.9847320744638
 30
0.0
 10
344.6422233682093
 20
284.2089669516166
 30
0.0
 10
344.5331447295633
 20
284.3026604157506
 30
0.0
 10
344.3467637290343
 20
284.4064505674147
 30
0.0
 10
344.2816227978277
 20
284.4359170140397
 30
0.0
 10
344.1537109940601
 20
284.498737420347
 30
0.0
 10
343.9618650616582
 20
284.5930122024152
 30
0.0
 10
343.7700882088248
 20
284.6874271300616
 30
0.0
 10
342.6197345705007
 20
285.2545404951032
 30
0.0
 10
341.5980447397151
 20
285.7603580305749
 30
0.0
 10
339.5544671528476
 20
286.7715879781282
 30
0.0
 10
338.532901662133
 20
287.2776274322536
 30
0.0
 10
337.0008990315391
 20
288.0374923338556
 30
0.0
 10
336.4940695559027
 20
288.2999645559432
 30
0.0
 10
335.4353863048325
 20
288.7171725950651
 30
0.0
 10
334.8820228849656
 20
288.868296059106
 30
0.0
 10
334.339151806092
 20
289.0445261234561
 30
0.0
  0
SPLINE
  5
D1
330
1F
100
AcDbEntity
  8
0
  6
Continuous
 62
     7
370
    15
100
AcDbSpline
210
0.0
220
0.0
230
1.0
 70
     8
 71
     3
 72
    32
 73
    28
 74
     0
 42
0.00000001
 43
0.00000001
 40
0.0
 40
0.0
 40
0.0
 40
0.0
 40
0.1249999999999984
 40
0.1249999999999984
 40
0.1874999999999977
 40
0.1874999999999977
 40
0.2187499999999973
 40
0.2187499999999973
 40
0.249999999999997
 40
0.249999999999997
 40
0.5000000000000042
 40
0.7500000000000114
 40
0.7500000000000114
 40
0.8125000000000142
 40
0.8281250000000139
 40
0.8281250000000139
 40
0.8437500000000135
 40
0.8437500000000135
 40
0.8750000000000108
 40
0.8750000000000108
 40
0.9062500000000081
 40
0.9062500000000081
 40
0.9375000000000053
 40
0.9375000000000053
 40
0.9687500000000027
 40
0.9687500000000027
 40
1.0
 40
1.0
 40
1.0
 40
1.0
 10
252.4090603980273
 20
281.5320237890618
 30
0.0
 10
251.9996977879613
 20
281.623703532933
 30
0.0
 10
251.5893882053867
 20
281.7111268481844
 30
0.0
 10
250.977409528414
 20
281.8579292452626
 30
0.0
 10
250.7742769764183
 20
281.9107304140604
 30
0.0
 10
250.4678887519818
 20
281.9823387098928
 30
0.0
 10
250.3654601462176
 20
282.0048633157772
 30
0.0
 10
250.1588482143968
 20
282.0420254541576
 30
0.0
 10
250.0543926960046
 20
282.0554411130265
 30
0.0
 10
249.1172455769396
 20
282.1894221556658
 30
0.0
 10
247.4507771303407
 20
282.424553903104
 30
0.0
 10
245.7838573012509
 20
282.6564768944422
 30
0.0
 10
244.7420205200544
 20
282.8013399192758
 30
0.0
 10
244.4815607224706
 20
282.8375501297593
 30
0.0
 10
244.221102125866
 20
282.8737713986358
 30
0.0
 10
244.1169188224354
 20
282.8882611511862
 30
0.0
 10
244.0649640826212
 20
282.8967666868266
 30
0.0
 10
243.907688034456
 20
282.9092834370051
 30
0.0
 10
243.7985398304968
 20
282.9026501284174
 30
0.0
 10
243.5910258931605
 20
282.8534203112274
 30
0.0
 10
243.4921072771388
 20
282.8111047642208
 30
0.0
 10
243.3079630198251
 20
282.7006006924091
 30
0.0
 10
243.2248537140951
 20
282.6340071467716
 30
0.0
 10
243.0790977487536
 20
282.4749267290318
 30
0.0
 10
243.0216055202916
 20
282.3851262485805
 30
0.0
 10
242.9453117327153
 20
282.1827965511517
 30
0.0
 10
242.9261050016271
 20
282.0777025487543
 30
0.0
 10
242.9261050016271
 20
281.9694415402056
 30
0.0
  0
SPLINE
  5
D2
330
1F
100
AcDbEntity
  8
0
  6
Continuous
 62
     7
370
    15
100
AcDbSpline
210
0.0
220
0.0
230
1.0
 70
     8
 71
     3
 72
    10
 73
     6
 74
     0
 42
0.00000001
 43
0.00000001
 40
0.0
 40
0.0
 40
0.0
 40
0.0
 40
0.5
 40
0.5
 40
1.0
 40
1.0
 40
1.0
 40
1.0
 10
270.1826848604595
 20
275.097219154197
 30
0.0
 10
270.1826848604595
 20
275.3083199273099
 30
0.0
 10
270.1139345043645
 20
275.5157194845183
 30
0.0
 10
269.8652785341852
 20
275.8530465522236
 30
0.0
 10
269.6892876722324
 20
275.9792009814166
 30
0.0
 10
269.4882913422099
 20
276.0435794534077
 30
0.0
  0
LWPOLYLINE
  5
D3
330
1F
100
AcDbEntity
  8
0
  6
Continuous
 62
     7
370
    15
100
AcDbPolyline
 90
        9
 70
   128
 43
0.0
 10
269.4882919133
 20
276.0435785419
 10
269.6010136098
 20
276.3955123043
 10
269.7098554165
 20
276.7353239721
 10
269.8110659659
 20
277.0513142711
 10
269.9011621118
 20
277.3326016283
 10
269.9770388246
 20
277.5695002889
 10
270.0360846758
 20
277.753848142
 10
270.0762675197
 20
277.8793010181
 10
270.0961996854
 20
277.9415357178
  0
LINE
  5
D4
330
1F
100
AcDbEntity
  8
0
  6
Continuous
 62
     7
370
    15
100
AcDbLine
 10
270.1826841623
 20
275.097218833
 30
0.0
 11
272.1613031865
 21
275.097218833
 31
0.0
  0
LWPOLYLINE
  5
D5
330
1F
100
AcDbEntity
  8
0
  6
Continuous
 62
     7
370
    15
100
AcDbPolyline
 90
        9
 70
   128
 43
0.0
 10
319.6056728304
 20
295.5388613297
 10
319.5847869903
 20
295.4693036406
 10
319.5455578209
 20
295.3386609694
 10
319.4892947615
 20
295.1512825927
 10
319.4178660453
 20
294.913407906
 10
319.3336558581
 20
294.6329573421
 10
319.2394618929
 20
294.3192688069
 10
319.1384264321
 20
293.9827870829
 10
319.0339096875
 20
293.6347155152
  0
SPLINE
  5
D6
330
1F
100
AcDbEntity
  8
0
  6
Continuous
 62
     7
370
    15
100
AcDbSpline
210
0.0
220
0.0
230
1.0
 70
     8
 71
     3
 72
    22
 73
    18
 74
     0
 42
0.00000001
 43
0.00000001
 40
0.0
 40
0.0
 40
0.0
 40
0.0
 40
0.125
 40
0.125
 40
0.25
 40
0.25
 40
0.375
 40
0.375
 40
0.5
 40
0.5
 40
0.625
 40
0.625
 40
0.75
 40
0.75
 40
0.875
 40
0.875
 40
1.0
 40
1.0
 40
1.0
 40
1.0
 10
319.0339099443557
 20
293.6347154846437
 30
0.0
 10
318.9518458933726
 20
293.6593570957962
 30
0.0
 10
318.868583394308
 20
293.6734904885328
 30
0.0
 10
318.6997138367517
 20
293.681199735526
 30
0.0
 10
318.6133843991644
 20
293.6743591930187
 30
0.0
 10
318.4478196156147
 20
293.6396422541994
 30
0.0
 10
318.3663938120366
 20
293.6114082885059
 30
0.0
 10
318.2144880040468
 20
293.5353111423443
 30
0.0
 10
318.1443649988826
 20
293.4880355641679
 30
0.0
 10
318.0161959407573
 20
293.3743701653971
 30
0.0
 10
317.9607808485977
 20
293.3102518506951
 30
0.0
 10
317.8674136934221
 20
293.1686985845177
 30
0.0
 10
317.8297090513317
 20
293.090923920827
 30
0.0
 10
317.7761723281672
 20
292.9307134127627
 30
0.0
 10
317.7595429350482
 20
292.8459394424052
 30
0.0
 10
317.7482620743283
 20
292.6767091829444
 30
0.0
 10
317.7531994606514
 20
292.5922708264657
 30
0.0
 10
317.7688152070396
 20
292.5080109234889
 30
0.0
  0
LWPOLYLINE
  5
D7
330
1F
100
AcDbEntity
  8
0
  6
Continuous
 62
     7
370
    15
100
AcDbPolyline
 90
        9
 70
   128
 43
0.0
 10
315.8224710316
 20
292.1472983686
 10
315.9032334626
 20
292.1622661194
 10
316.04323546
 20
292.188211835
 10
316.238029027
 20
292.224312692
 10
316.4814301819
 20
292.2694217665
 10
316.7657089472
 20
292.3221071502
 10
317.0818408073
 20
292.3806952564
 10
317.4197861046
 20
292.4433262339
 10
317.7688160033
 20
292.5080107777
  0
SPLINE
  5
D8
330
1F
100
AcDbEntity
  8
0
  6
Continuous
 62
     7
370
    15
100
AcDbSpline
210
0.0
220
0.0
230
1.0
 70
     8
 71
     3
 72
    12
 73
     8
 74
     0
 42
0.00000001
 43
0.00000001
 40
0.0
 40
0.0
 40
0.0
 40
0.0
 40
0.2499999999999986
 40
0.2499999999999986
 40
0.4999999999999972
 40
0.4999999999999972
 40
1.0
 40
1.0
 40
1.0
 40
1.0
 10
270.9955252615189
 20
263.5892814612221
 30
0.0
 10
270.8624098069629
 20
263.8172044797444
 30
0.0
 10
270.7451709203077
 20
264.0524716497511
 30
0.0
 10
270.5421707635062
 20
264.5375668435622
 30
0.0
 10
270.4563700371402
 20
264.788266333014
 30
0.0
 10
270.2519031274526
 20
265.5452576520603
 30
0.0
 10
270.1826848604595
 20
266.0613650206085
 30
0.0
 10
270.1826848604596
 20
266.5892814612218
 30
0.0
  0
LWPOLYLINE
  5
D9
330
1F
100
AcDbEntity
  8
0
  6
Continuous
 62
     7
370
    15
100
AcDbPolyline
 90
        9
 70
   128
 43
0.0
 10
270.9955257416
 20
263.5892830109
 10
271.3046615065
 20
263.7698292053
 10
271.6038116307
 20
263.944541595
 10
271.8833145738
 20
264.1077838158
 10
272.1341383696
 20
264.2542734063
 10
272.3481860996
 20
264.3792829728
 10
272.518538037
 20
264.4787780261
 10
272.639697516
 20
264.5495399153
 10
272.7077455313
 20
264.5892813122
  0
SPLINE
  5
DA
330
1F
100
AcDbEntity
  8
0
  6
Continuous
 62
     7
370
    15
100
AcDbSpline
210
0.0
220
0.0
230
1.0
 70
     8
 71
     3
 72
    12
 73
     8
 74
     0
 42
0.00000001
 43
0.00000001
 40
0.0
 40
0.0
 40
0.0
 40
0.0
 40
0.2499999999999984
 40
0.2499999999999984
 40
0.4999999999999968
 40
0.4999999999999968
 40
1.0
 40
1.0
 40
1.0
 40
1.0
 10
317.6695251427946
 20
266.5892814612218
 30
0.0
 10
317.6695251427946
 20
266.325328518114
 30
0.0
 10
317.6519959168272
 20
266.0630602562401
 30
0.0
 10
317.5823022862061
 20
265.5418524154405
 30
0.0
 10
317.5297302400609
 20
265.2821412136378
 30
0.0
 10
317.3238555677737
 20
264.5255244576096
 30
0.0
 10
317.1229050660426
 20
264.0451093747467
 30
0.0
 10
316.8566847417353
 20
263.5892814612221
 30
0.0
  0
LWPOLYLINE
  5
DB
330
1F
100
AcDbEntity
  8
0
  6
Continuous
 62
     7
370
    15
100
AcDbPolyline
 90
        9
 70
   128
 43
0.0
 10
315.144464472
 20
264.5892813122
 10
315.2125124872
 20
264.5495399153
 10
315.3336719663
 20
264.4787780261
 10
315.5040239037
 20
264.3792829728
 10
315.7180716336
 20
264.2542734063
 10
315.9688954294
 20
264.1077838158
 10
316.2483983726
 20
263.944541595
 10
316.5475484968
 20
263.7698292053
 10
316.8566842616
 20
263.5892830109
  0
LWPOLYLINE
  5
DC
330
1F
100
AcDbEntity
  8
0
  6
Continuous
 62
     7
370
    15
100
AcDbPolyline
 90
        9
 70
   128
 43
0.0
 10
312.1835366876
 20
259.5174848354
 10
312.255950743
 20
259.4750388777
 10
312.3797477276
 20
259.402473948
 10
312.5510347128
 20
259.3020736492
 10
312.7644230664
 20
259.1769933021
 10
313.0132016779
 20
259.0311705386
 10
313.2895455748
 20
258.8691911912
 10
313.5847617925
 20
258.6961477315
 10
313.8895650447
 20
258.5174865341
  0
SPLINE
  5
DD
330
1F
100
AcDbEntity
  8
0
  6
Continuous
 62
     7
370
    15
100
AcDbSpline
210
0.0
220
0.0
230
1.0
 70
     8
 71
     3
 72
    10
 73
     6
 74
     0
 42
0.00000001
 43
0.00000001
 40
0.0
 40
0.0
 40
0.0
 40
0.0
 40
0.5
 40
0.5
 40
1.0
 40
1.0
 40
1.0
 40
1.0
 10
313.8895657353515
 20
258.5174846914971
 30
0.0
 10
313.8005501024471
 20
258.3656213560146
 30
0.0
 10
313.7319985875392
 20
258.2020822246627
 30
0.0
 10
313.6406786811149
 20
257.86560380751
 30
0.0
 10
313.6174736691423
 20
257.6935270945083
 30
0.0
 10
313.6174736691423
 20
257.5174846914974
 30
0.0
  0
SPLINE
  5
DE
330
1F
100
AcDbEntity
  8
0
  6
Continuous
 62
     7
370
    15
100
AcDbSpline
210
0.0
220
0.0
230
1.0
 70
     8
 71
     3
 72
    10
 73
     6
 74
     0
 42
0.00000001
 43
0.00000001
 40
0.0
 40
0.0
 40
0.0
 40
0.0
 40
0.5
 40
0.5
 40
1.0
 40
1.0
 40
1.0
 40
1.0
 10
274.2347363341119
 20
257.5174846914974
 30
0.0
 10
274.2347363341119
 20
257.6935198926271
 30
0.0
 10
274.2108787296183
 20
257.8692337705081
 30
0.0
 10
274.1189312970377
 20
258.2055474309008
 30
0.0
 10
274.0516532653523
 20
258.3656326762991
 30
0.0
 10
273.9626442679026
 20
258.5174846914971
 30
0.0
  0
LWPOLYLINE
  5
DF
330
1F
100
AcDbEntity
  8
0
  6
Continuous
 62
     7
370
    15
100
AcDbPolyline
 90
        9
 70
   128
 43
0.0
 10
273.9626449586
 20
258.5174865341
 10
274.2674482108
 20
258.6961477315
 10
274.5626644284
 20
258.8691911912
 10
274.8390083254
 20
259.0311705386
 10
275.0877869368
 20
259.1769933021
 10
275.3011752904
 20
259.3020736492
 10
275.4724622757
 20
259.402473948
 10
275.5962592602
 20
259.4750388777
 10
275.6686733157
 20
259.5174848354
  0
SPLINE
  5
E0
330
1F
100
AcDbEntity
  8
0
  6
Continuous
 62
     7
370
    15
100
AcDbSpline
210
0.0
220
0.0
230
1.0
 70
     8
 71
     3
 72
     8
 73
     4
 74
     0
 42
0.00000001
 43
0.00000001
 40
0.0
 40
0.0
 40
0.0
 40
0.0
 40
1.0
 40
1.0
 40
1.0
 40
1.0
 10
269.4882913422099
 20
276.0435794534077
 30
0.0
 10
263.7934640378814
 20
277.8676141512789
 30
0.0
 10
258.101701092102
 20
279.7011846819209
 30
0.0
 10
252.4090603980274
 20
281.5320237890618
 30
0.0
  0
LWPOLYLINE
  5
E1
330
1F
100
AcDbEntity
  8
0
  6
Continuous
 62
     7
370
    15
100
AcDbPolyline
 90
        9
 70
   128
 43
0.0
 10
334.33915312
 20
289.0445259651
 10
334.437001595
 20
289.3703705883
 10
334.5319964976
 20
289.6867166525
 10
334.6213699371
 20
289.9843422016
 10
334.7025179357
 20
290.2545738286
 10
334.7730749339
 20
290.4895325443
 10
334.8309808463
 20
290.6823694026
 10
334.8745518417
 20
290.8274648031
 10
334.9025175959
 20
290.9205877474
  0
SPLINE
  5
E2
330
1F
100
AcDbEntity
  8
0
  6
Continuous
 62
     7
370
    15
100
AcDbSpline
210
0.0
220
0.0
230
1.0
 70
     8
 71
     3
 72
     8
 73
     4
 74
     0
 42
0.00000001
 43
0.00000001
 40
0.0
 40
0.0
 40
0.0
 40
0.0
 40
1.0
 40
1.0
 40
1.0
 40
1.0
 10
334.3391518060893
 20
289.044526123457
 30
0.0
 10
329.2379370404634
 20
290.5763758441029
 30
0.0
 10
324.1351501893321
 20
292.1029512467505
 30
0.0
 10
319.0339099443557
 20
293.6347154846437
 30
0.0
  0
LWPOLYLINE
  5
E3
330
1F
100
AcDbEntity
  8
0
  6
Continuous
 62
     7
370
    15
100
AcDbPolyline
 90
        9
 70
   128
 43
0.0
 10
315.7494888694
 20
283.6555126375
 10
315.8299812168
 20
283.6391586131
 10
315.9695156903
 20
283.6108110165
 10
316.1636610568
 20
283.5713676429
 10
316.4062500984
 20
283.5220820522
 10
316.68958264
 20
283.4645170039
 10
317.0046602429
 20
283.4005053407
 10
317.3414805025
 20
283.3320736205
 10
317.6893443853
 20
283.2613992756
  0
SPLINE
  5
E4
330
1F
100
AcDbEntity
  8
0
  6
Continuous
 62
     7
370
    15
100
AcDbSpline
210
0.0
220
0.0
230
1.0
 70
     8
 71
     3
 72
     8
 73
     4
 74
     0
 42
0.00000001
 43
0.00000001
 40
0.0
 40
0.0
 40
0.0
 40
0.0
 40
1.0
 40
1.0
 40
1.0
 40
1.0
 10
317.6893446994903
 20
283.2614000353901
 30
0.0
 10
317.6761345876988
 20
283.1963787506381
 30
0.0
 10
317.6695251427947
 20
283.1306935833542
 30
0.0
 10
317.6695251427947
 20
283.0643436506624
 30
0.0
  0
SPLINE
  5
E5
330
1F
100
AcDbEntity
  8
0
  6
Continuous
 62
     7
370
    15
100
AcDbSpline
210
0.0
220
0.0
230
1.0
 70
     8
 71
     3
 72
     8
 73
     4
 74
     0
 42
0.00000001
 43
0.00000001
 40
0.0
 40
0.0
 40
0.0
 40
0.0
 40
0.0058759609998226
 40
0.0058759609998226
 40
0.0058759609998226
 40
0.0058759609998226
 10
273.9626442679026
 20
258.5174846914971
 30
0.0
 10
272.9721786950611
 20
260.2072486201957
 30
0.0
 10
271.9833218109194
 20
261.8979558974386
 30
0.0
 10
270.9955252615189
 20
263.5892814612221
 30
0.0
  0
SPLINE
  5
E6
330
1F
100
AcDbEntity
  8
0
  6
Continuous
 62
     7
370
    15
100
AcDbSpline
210
0.0
220
0.0
230
1.0
 70
     8
 71
     3
 72
     8
 73
     4
 74
     0
 42
0.00000001
 43
0.00000001
 40
0.0
 40
0.0
 40
0.0
 40
0.0
 40
0.0058759609998226
 40
0.0058759609998226
 40
0.0058759609998226
 40
0.0058759609998226
 10
316.8566847417353
 20
263.5892814612221
 30
0.0
 10
315.8688881923347
 20
261.8979558974386
 30
0.0
 10
314.8800313081931
 20
260.2072486201957
 30
0.0
 10
313.8895657353515
 20
258.5174846914971
 30
0.0
  0
ARC
  5
E7
330
1F
100
AcDbEntity
  8
0
  6
Continuous
 62
     7
370
    15
100
AcDbCircle
 10
293.9261050016
 20
288.0892814612
 30
0.0
 40
24.24871130596422
100
AcDbArc
 50
348.515754775
 51
10.4994059956
  0
LINE
  5
E8
330
1F
100
AcDbEntity
  8
0
  6
Continuous
 62
     7
370
    15
100
AcDbLine
 10
317.6695258409
 20
283.0643444574
 30
0.0
 11
317.6695258409
 21
266.58928164
 31
0.0
  0
LINE
  5
E9
330
1F
100
AcDbEntity
  8
0
  6
Continuous
 62
     7
370
    15
100
AcDbLine
 10
270.1826841623
 20
266.58928164
 30
0.0
 11
270.1826841623
 21
275.097218833
 31
0.0
  0
LINE
  5
EA
330
1F
100
AcDbEntity
  8
0
  6
Continuous
 62
     7
370
    15
100
AcDbLine
 10
332.9261058063
 20
264.5892813122
 30
0.0
 11
343.9261057467
 21
264.5892813122
 31
0.0
  0
ARC
  5
EB
330
1F
100
AcDbEntity
  8
0
  6
Continuous
 62
     7
370
    15
100
AcDbCircle
 10
332.9261050016
 20
260.5892814612
 30
0.0
 40
4.0
100
AcDbArc
 50
90.0
 51
180.0
  0
LINE
  5
EC
330
1F
100
AcDbEntity
  8
0
  6
Continuous
 62
     7
370
    15
100
AcDbLine
 10
328.9261051506
 20
249.5892807162
 30
0.0
 11
328.9261051506
 21
260.5892806566
 31
0.0
  0
ARC
  5
ED
330
1F
100
AcDbEntity
  8
0
  6
Continuous
 62
     7
370
    15
100
AcDbCircle
 10
331.9261050016
 20
249.5892814612
 30
0.0
 40
2.999999999999943
100
AcDbArc
 50
180.0
 51
199.4712206345
  0
ARC
  5
EE
330
1F
100
AcDbEntity
  8
0
  6
Continuous
 62
     7
370
    15
100
AcDbCircle
 10
343.9261050016
 20
261.5892814612
 30
0.0
 40
3.000000000000057
100
AcDbArc
 50
70.5287793655
 51
90.0
  0
LINE
  5
EF
330
1F
100
AcDbEntity
  8
0
  6
Continuous
 62
     7
370
    15
100
AcDbLine
 10
243.9261042566
 20
264.5892813122
 30
0.0
 11
254.926104197
 21
264.5892813122
 31
0.0
  0
LINE
  5
F0
330
1F
100
AcDbEntity
  8
0
  6
Continuous
 62
     7
370
    15
100
AcDbLine
 10
258.9261048526
 20
260.5892806566
 30
0.0
 11
258.9261048526
 21
249.5892807162
 31
0.0
  0
ARC
  5
F1
330
1F
100
AcDbEntity
  8
0
  6
Continuous
 62
     7
370
    15
100
AcDbCircle
 10
254.9261050016
 20
260.5892814612
 30
0.0
 40
4.0
100
AcDbArc
 50
0.0
 51
90.0
  0
ARC
  5
F2
330
1F
100
AcDbEntity
  8
0
  6
Continuous
 62
     7
370
    15
100
AcDbCircle
 10
243.9261050016
 20
261.5892814612
 30
0.0
 40
3.00000000000006
100
AcDbArc
 50
90.0
 51
109.4712206345
  0
ARC
  5
F3
330
1F
100
AcDbEntity
  8
0
  6
Continuous
 62
     7
370
    15
100
AcDbCircle
 10
255.9261050016
 20
249.5892814612
 30
0.0
 40
3.000000000000075
100
AcDbArc
 50
340.5287793655
 51
0.0
  0
LINE
  5
F4
330
1F
100
AcDbEntity
  8
0
  6
Continuous
 62
     8
370
    15
100
AcDbLine
 10
297.9261051916
 20
380.1966435528
 30
0.0
 11
289.9261048116
 21
380.1966435528
 31
0.0
  0
LINE
  5
F5
330
1F
100
AcDbEntity
  8
0
  6
Continuous
 62
     8
370
    15
100
AcDbLine
 10
297.7898082283
 20
381.2319240784
 30
0.0
 11
290.062401775
 21
381.2319240784
 31
0.0
  0
LINE
  5
F6
330
1F
100
AcDbEntity
  8
0
  6
Continuous
 62
     8
370
    15
100
AcDbLine
 10
297.5624016073
 20
382.0806122637
 30
0.0
 11
290.2898083959
 21
382.0806122637
 31
0.0
  0
LINE
  5
F7
330
1F
100
AcDbEntity
  8
0
  6
Continuous
 62
     8
370
    15
100
AcDbLine
 10
297.4261051097
 20
383.1158927893
 30
0.0
 11
290.4261048936
 21
383.1158927893
 31
0.0
  0
LINE
  5
F8
330
1F
100
AcDbEntity
  8
0
  6
Continuous
 62
     8
370
    15
100
AcDbLine
 10
276.2038727344
 20
257.5174845075
 30
0.0
 11
276.2038727344
 21
256.0892827129
 31
0.0
  0
LINE
  5
F9
330
1F
100
AcDbEntity
  8
0
  6
Continuous
 62
     8
370
    15
100
AcDbLine
 10
311.6483372689
 20
256.0892827129
 30
0.0
 11
311.6483372689
 21
257.5174845075
 31
0.0
  0
LINE
  5
FA
330
1F
100
AcDbEntity
  8
0
  6
Continuous
 62
     8
370
    15
100
AcDbLine
 10
258.7545328826
 20
248.5892824149
 30
0.0
 11
265.2430647106
 21
248.5892824149
 31
0.0
  0
LINE
  5
FB
330
1F
100
AcDbEntity
  8
0
  6
Continuous
 62
     8
370
    15
100
AcDbLine
 10
321.3715423883
 20
248.5892824149
 30
0.0
 11
329.0976771206
 21
248.5892824149
 31
0.0
  0
LINE
  5
FC
330
1F
100
AcDbEntity
  8
0
  6
Continuous
 62
     8
370
    15
100
AcDbLine
 10
274.2347364367
 20
256.0892827129
 30
0.0
 11
274.2347364367
 21
257.5174845075
 31
0.0
  0
LINE
  5
FD
330
1F
100
AcDbEntity
  8
0
  6
Continuous
 62
     8
370
    15
100
AcDbLine
 10
313.6174735666
 20
257.5174845075
 30
0.0
 11
313.6174735666
 21
256.0892827129
 31
0.0
  0
LINE
  5
FE
330
1F
100
AcDbEntity
  8
1
100
AcDbLine
 10
283.7413312921
 20
297.0622843368
 30
0.0
 11
305.6886706328
 21
297.0622843368
 31
0.0
  0
LINE
  5
FF
330
1F
100
AcDbEntity
  8
1
100
AcDbLine
 10
260.1366069611
 20
248.5892814612
 30
0.0
 11
323.4394814754
 21
248.5892814612
 31
0.0
  0
LINE
  5
100
330
1F
100
AcDbEntity
  8
1
100
AcDbLine
 10
276.2038732009
 20
257.5174846915
 30
0.0
 11
276.2030691077
 21
248.5892814612
 31
0.0
  0
LINE
  5
101
330
1F
100
AcDbEntity
  8
1
100
AcDbLine
 10
274.2347363341
 20
257.5174846915
 30
0.0
 11
274.2184828283
 21
248.5892814612
 31
0.0
  0
LINE
  5
102
330
1F
100
AcDbEntity
  8
1
100
AcDbLine
 10
311.6483368024
 20
257.5174846915
 30
0.0
 11
311.6002296426
 21
248.5892814612
 31
0.0
  0
LINE
  5
103
330
1F
100
AcDbEntity
  8
1
100
AcDbLine
 10
313.6174736691
 20
257.5174846915
 30
0.0
 11
313.6300505531
 21
248.5892814612
 31
0.0
  0
LINE
  5
104
330
1F
100
AcDbEntity
  8
1
100
AcDbLine
 10
252.8209933851
 20
113.3585871632
 30
0.0
 11
252.8209933851
 21
84.9464657018
 31
0.0
  0
LINE
  5
105
330
1F
100
AcDbEntity
  8
1
100
AcDbLine
 10
308.3715414843
 20
234.6182052718
 30
0.0
 11
313.9261050016
 21
234.5875905841
 31
0.0
  0
LINE
  5
106
330
1F
100
AcDbEntity
  8
1
100
AcDbLine
 10
313.9261050016
 20
234.5875905841
 30
0.0
 11
315.9261050016
 21
236.5892814612
 31
0.0
  0
LINE
  5
107
330
1F
100
AcDbEntity
  8
1
100
AcDbLine
 10
280.3736332398
 20
234.5892814612
 30
0.0
 11
273.9261050016
 21
234.5875905841
 31
0.0
  0
LINE
  5
108
330
1F
100
AcDbEntity
  8
1
100
AcDbLine
 10
273.9261050016
 20
234.5875905841
 30
0.0
 11
271.9261050016
 21
236.5892814612
 31
0.0
  0
ARC
  5
109
330
1F
100
AcDbEntity
  8
1
100
AcDbCircle
 10
294.0283285585
 20
330.6177101494
 30
0.0
 40
9.471226721203086
100
AcDbArc
 50
234.5366173361
 51
309.375623587
  0
ARC
  5
10A
330
1F
100
AcDbEntity
  8
1
100
AcDbCircle
 10
293.9261050016
 20
332.3191584574
 30
0.0
 40
7.26901020080016
100
AcDbArc
 50
244.126974513
 51
295.873025487
  0
ARC
  5
10B
330
1F
100
AcDbEntity
  8
1
100
AcDbCircle
 10
285.5840839537
 20
315.7363917825
 30
0.0
 40
18.76480818627125
100
AcDbArc
 50
217.0702176113
 51
264.3643233228
  0
ARC
  5
10C
330
1F
100
AcDbEntity
  8
1
100
AcDbCircle
 10
307.4696202559
 20
271.2817556772
 30
0.0
 40
25.84197050396245
100
AcDbArc
 50
67.8041388778
 51
93.9517824186
  0
LINE
  5
10D
330
1F
100
AcDbEntity
  8
0
  6
Continuous
 62
     7
370
    15
100
AcDbLine
 10
477.9621242281
 20
293.2785712434
 30
0.0
 11
477.9621242281
 21
295.489344771
 31
0.0
  0
LINE
  5
10E
330
1F
100
AcDbEntity
  8
0
  6
Continuous
 62
     7
370
    15
100
AcDbLine
 10
477.9621242281
 20
354.5892811632
 30
0.0
 11
477.9621242281
 21
380.1966435528
 31
0.0
  0
LINE
  5
10F
330
1F
100
AcDbEntity
  8
0
  6
Continuous
 62
     7
370
    15
100
AcDbLine
 10
469.9621238481
 20
380.1966435528
 30
0.0
 11
469.9621238481
 21
354.5892811632
 31
0.0
  0
LINE
  5
110
330
1F
100
AcDbEntity
  8
0
  6
Continuous
 62
     7
370
    15
100
AcDbLine
 10
469.9621238481
 20
295.4845917663
 30
0.0
 11
469.9621238481
 21
293.2799784718
 31
0.0
  0
ARC
  5
111
330
1F
100
AcDbEntity
  8
0
  6
Continuous
 62
     7
370
    15
100
AcDbCircle
 10
473.9621240381
 20
380.1966460671
 30
0.0
 40
4.000000000000037
100
AcDbArc
 50
165.0
 51
180.0
  0
ARC
  5
112
330
1F
100
AcDbEntity
  8
0
  6
Continuous
 62
     7
370
    15
100
AcDbCircle
 10
473.9621240381
 20
380.1966460671
 30
0.0
 40
4.0
100
AcDbArc
 50
0.0
 51
15.0
  0
LINE
  5
113
330
1F
100
AcDbEntity
  8
0
  6
Continuous
 62
     7
370
    15
100
AcDbLine
 10
477.8258272648
 20
381.2319240784
 30
0.0
 11
477.5984206438
 21
382.0806122637
 31
0.0
  0
LINE
  5
114
330
1F
100
AcDbEntity
  8
0
  6
Continuous
 62
     7
370
    15
100
AcDbLine
 10
470.3258274324
 20
382.0806122637
 30
0.0
 11
470.0984208114
 21
381.2319240784
 31
0.0
  0
ARC
  5
115
330
1F
100
AcDbEntity
  8
0
  6
Continuous
 62
     7
370
    15
100
AcDbCircle
 10
481.4621240381
 20
383.1158914516
 30
0.0
 40
4.000000000000037
100
AcDbArc
 50
180.0
 51
195.0
  0
ARC
  5
116
330
1F
100
AcDbEntity
  8
0
  6
Continuous
 62
     7
370
    15
100
AcDbCircle
 10
466.4621240381
 20
383.1158914516
 30
0.0
 40
4.0
100
AcDbArc
 50
345.0
 51
0.0
  0
LINE
  5
117
330
1F
100
AcDbEntity
  8
0
  6
Continuous
 62
     7
370
    15
100
AcDbLine
 10
477.4621241462
 20
389.0892840242
 30
0.0
 11
477.4621241462
 21
398.9892802453
 31
0.0
  0
LINE
  5
118
330
1F
100
AcDbEntity
  8
0
  6
Continuous
 62
     7
370
    15
100
AcDbLine
 10
470.4621239301
 20
398.9892802453
 30
0.0
 11
470.4621239301
 21
389.0892840242
 31
0.0
  0
LINE
  5
119
330
1F
100
AcDbEntity
  8
0
  6
Continuous
 62
     7
370
    15
100
AcDbLine
 10
477.4621241462
 20
402.0392797208
 30
0.0
 11
477.4621241462
 21
404.0392837739
 31
0.0
  0
LINE
  5
11A
330
1F
100
AcDbEntity
  8
0
  6
Continuous
 62
     7
370
    15
100
AcDbLine
 10
470.4621239301
 20
404.0392837739
 30
0.0
 11
470.4621239301
 21
402.0392797208
 31
0.0
  0
LINE
  5
11B
330
1F
100
AcDbEntity
  8
0
  6
Continuous
 62
     7
370
    15
100
AcDbLine
 10
477.4621241462
 20
404.0392837739
 30
0.0
 11
475.9121239852
 21
405.5892802095
 31
0.0
  0
LINE
  5
11C
330
1F
100
AcDbEntity
  8
0
  6
Continuous
 62
     7
370
    15
100
AcDbLine
 10
472.012124091
 20
405.5892802095
 30
0.0
 11
470.4621239301
 21
404.0392837739
 31
0.0
  0
LINE
  5
11D
330
1F
100
AcDbEntity
  8
0
  6
Continuous
 62
     7
370
    15
100
AcDbLine
 10
477.4621241462
 20
383.1158927893
 30
0.0
 11
477.4621241462
 21
386.0892779445
 31
0.0
  0
LINE
  5
11E
330
1F
100
AcDbEntity
  8
0
  6
Continuous
 62
     7
370
    15
100
AcDbLine
 10
470.4621239301
 20
386.0892779445
 30
0.0
 11
470.4621239301
 21
383.1158927893
 31
0.0
  0
LINE
  5
11F
330
1F
100
AcDbEntity
  8
0
  6
Continuous
 62
     7
370
    15
100
AcDbLine
 10
476.9621240642
 20
386.0892779445
 30
0.0
 11
476.9621240642
 21
389.0892840242
 31
0.0
  0
LINE
  5
120
330
1F
100
AcDbEntity
  8
0
  6
Continuous
 62
     7
370
    15
100
AcDbLine
 10
470.962124012
 20
389.0892840242
 30
0.0
 11
470.962124012
 21
386.0892779445
 31
0.0
  0
LINE
  5
121
330
1F
100
AcDbEntity
  8
0
  6
Continuous
 62
     7
370
    15
100
AcDbLine
 10
475.9121239852
 20
398.9892802453
 30
0.0
 11
475.9121239852
 21
402.0392797208
 31
0.0
  0
LINE
  5
122
330
1F
100
AcDbEntity
  8
0
  6
Continuous
 62
     7
370
    15
100
AcDbLine
 10
472.012124091
 20
402.0392797208
 30
0.0
 11
472.012124091
 21
398.9892802453
 31
0.0
  0
LINE
  5
123
330
1F
100
AcDbEntity
  8
0
  6
Continuous
 62
     7
370
    15
100
AcDbLine
 10
488.9421244819
 20
341.589280895
 30
0.0
 11
488.9421244819
 21
354.5892811632
 31
0.0
  0
LINE
  5
124
330
1F
100
AcDbEntity
  8
0
  6
Continuous
 62
     7
370
    15
100
AcDbLine
 10
458.9821235944
 20
354.5892811632
 30
0.0
 11
458.9821235944
 21
341.589280895
 31
0.0
  0
SPLINE
  5
125
330
1F
100
AcDbEntity
  8
0
  6
Continuous
 62
     7
370
    15
100
AcDbSpline
210
0.0
220
0.0
230
1.0
 70
     8
 71
     3
 72
     9
 73
     5
 74
     0
 42
0.00000001
 43
0.00000001
 40
0.0
 40
0.0
 40
0.0
 40
0.0
 40
0.06264965034398
 40
0.9999999999999999
 40
0.9999999999999999
 40
0.9999999999999999
 40
0.9999999999999999
 10
466.5241395790179
 20
298.9946558042632
 30
0.0
 10
466.5254814863895
 20
299.0127321469876
 30
0.0
 10
466.5469007180089
 20
299.3012627712616
 30
0.0
 10
466.6278570067159
 20
299.5908669436326
 30
0.0
 10
466.7037414122422
 20
299.8623275158664
 30
0.0
  0
SPLINE
  5
126
330
1F
100
AcDbEntity
  8
0
  6
Continuous
 62
     7
370
    15
100
AcDbSpline
210
0.0
220
0.0
230
1.0
 70
     8
 71
     3
 72
    11
 73
     7
 74
     0
 42
0.00000001
 43
0.00000001
 40
0.0
 40
0.0
 40
0.0
 40
0.0
 40
0.2142790361287482
 40
0.4589772139487393
 40
0.7187727661630701
 40
1.0
 40
1.0
 40
1.0
 40
1.0
 10
481.0774210576017
 20
300.365170605501
 30
0.0
 10
481.09028619385
 20
300.3390871481823
 30
0.0
 10
481.1178428064753
 20
300.2832174150224
 30
0.0
 10
481.3040481917736
 20
300.1093724165138
 30
0.0
 10
481.4215217964289
 20
299.9109890405942
 30
0.0
 10
481.441655412928
 20
299.6289955207616
 30
0.0
 10
481.4521210003693
 20
299.4824134181457
 30
0.0
  0
LINE
  5
127
330
1F
100
AcDbEntity
  8
0
  6
Continuous
 62
     7
370
    15
100
AcDbLine
 10
433.9621249322
 20
246.5892820871
 30
0.0
 11
433.9621249322
 21
236.5892804479
 31
0.0
  0
LINE
  5
128
330
1F
100
AcDbEntity
  8
0
  6
Continuous
 62
     7
370
    15
100
AcDbLine
 10
513.9621231441
 20
236.5892804479
 30
0.0
 11
513.9621231441
 21
246.5892820871
 31
0.0
  0
LINE
  5
129
330
1F
100
AcDbEntity
  8
0
  6
Continuous
 62
     7
370
    15
100
AcDbLine
 10
451.9621241573
 20
283.0643444574
 30
0.0
 11
451.9621241573
 21
275.2730953759
 31
0.0
  0
LINE
  5
12A
330
1F
100
AcDbEntity
  8
0
  6
Continuous
 62
     7
370
    15
100
AcDbLine
 10
495.9621239189
 20
275.2730953759
 30
0.0
 11
495.9621239189
 21
283.0643444574
 31
0.0
  0
ARC
  5
12B
330
1F
100
AcDbEntity
  8
0
  6
Continuous
 62
     7
370
    15
100
AcDbCircle
 10
491.9621240381
 20
266.5892814612
 30
0.0
 40
3.999999999999917
100
AcDbArc
 50
330.0
 51
353.9552320621
  0
ARC
  5
12C
330
1F
100
AcDbEntity
  8
0
  6
Continuous
 62
     7
370
    15
100
AcDbCircle
 10
455.9621240381
 20
266.5892814612
 30
0.0
 40
3.999999999999944
100
AcDbArc
 50
186.0447679379
 51
210.0
  0
LINE
  5
12D
330
1F
100
AcDbEntity
  8
0
  6
Continuous
 62
     7
370
    15
100
AcDbLine
 10
452.4980220679
 20
264.5892813122
 30
0.0
 11
455.4262250397
 21
259.5174848354
 31
0.0
  0
LINE
  5
12E
330
1F
100
AcDbEntity
  8
0
  6
Continuous
 62
     7
370
    15
100
AcDbLine
 10
492.4980230365
 20
259.5174848354
 30
0.0
 11
495.4262260083
 21
264.5892813122
 31
0.0
  0
ARC
  5
12F
330
1F
100
AcDbEntity
  8
0
  6
Continuous
 62
     7
370
    15
100
AcDbCircle
 10
451.9621240381
 20
257.5174846915
 30
0.0
 40
4.000000000000057
100
AcDbArc
 50
360.0
 51
30.0
  0
ARC
  5
130
330
1F
100
AcDbEntity
  8
0
  6
Continuous
 62
     7
370
    15
100
AcDbCircle
 10
495.9621240381
 20
257.5174846915
 30
0.0
 40
4.000000000000057
100
AcDbArc
 50
150.0
 51
180.0
  0
LINE
  5
131
330
1F
100
AcDbEntity
  8
0
  6
Continuous
 62
     7
370
    15
100
AcDbLine
 10
455.962124813
 20
257.5174845075
 30
0.0
 11
455.962124813
 21
256.0892827129
 31
0.0
  0
LINE
  5
132
330
1F
100
AcDbEntity
  8
0
  6
Continuous
 62
     7
370
    15
100
AcDbLine
 10
491.9621232633
 20
256.0892827129
 30
0.0
 11
491.9621232633
 21
257.5174845075
 31
0.0
  0
LINE
  5
133
330
1F
100
AcDbEntity
  8
0
  6
Continuous
 62
     7
370
    15
100
AcDbLine
 10
438.9621238891
 20
341.589280895
 30
0.0
 11
438.9621238891
 21
331.3213340258
 31
0.0
  0
ARC
  5
134
330
1F
100
AcDbEntity
  8
0
  6
Continuous
 62
     7
370
    15
100
AcDbCircle
 10
441.9621240381
 20
331.3213322688
 30
0.0
 40
3.0
100
AcDbArc
 50
180.0
 51
240.0
  0
ARC
  5
135
330
1F
100
AcDbEntity
  8
0
  6
Continuous
 62
     7
370
    15
100
AcDbCircle
 10
505.9621240381
 20
331.3213322688
 30
0.0
 40
3.000000000000028
100
AcDbArc
 50
300.0
 51
0.0
  0
LINE
  5
136
330
1F
100
AcDbEntity
  8
0
  6
Continuous
 62
     7
370
    15
100
AcDbLine
 10
508.9621241871
 20
331.3213340258
 30
0.0
 11
508.9621241871
 21
341.589280895
 31
0.0
  0
LINE
  5
137
330
1F
100
AcDbEntity
  8
0
  6
Continuous
 62
     7
370
    15
100
AcDbLine
 10
440.4621232037
 20
328.7232569671
 30
0.0
 11
444.3490333591
 21
326.4791476792
 31
0.0
  0
LINE
  5
138
330
1F
100
AcDbEntity
  8
0
  6
Continuous
 62
     7
370
    15
100
AcDbLine
 10
503.5752147172
 20
326.4791476792
 30
0.0
 11
507.4621248726
 21
328.7232569671
 31
0.0
  0
ARC
  5
139
330
1F
100
AcDbEntity
  8
0
  6
Continuous
 62
     7
370
    15
100
AcDbCircle
 10
498.9621240381
 20
283.0643436507
 30
0.0
 40
3.000000000000028
100
AcDbArc
 50
168.9119712386
 51
179.9388964499
  0
ARC
  5
13A
330
1F
100
AcDbEntity
  8
0
  6
Continuous
 62
     7
370
    15
100
AcDbCircle
 10
473.9621240381
 20
288.0892814612
 30
0.0
 40
22.49999999999985
100
AcDbArc
 50
348.635123033
 51
351.7598353948
  0
ARC
  5
13B
330
1F
100
AcDbEntity
  8
0
  6
Continuous
 62
     7
370
    15
100
AcDbCircle
 10
473.9621240381
 20
288.0892814612
 30
0.0
 40
22.49999999999996
100
AcDbArc
 50
188.2401646052
 51
191.364876967
  0
ARC
  5
13C
330
1F
100
AcDbEntity
  8
0
  6
Continuous
 62
     7
370
    15
100
AcDbCircle
 10
448.9621240381
 20
283.0643436507
 30
0.0
 40
3.000000000000048
100
AcDbArc
 50
0.0
 51
11.3310252877
  0
LINE
  5
13D
330
1F
100
AcDbEntity
  8
0
  6
Continuous
 62
     7
370
    15
100
AcDbLine
 10
477.4621241462
 20
398.9892802453
 30
0.0
 11
470.4621239301
 21
398.9892802453
 31
0.0
  0
LINE
  5
13E
330
1F
100
AcDbEntity
  8
0
  6
Continuous
 62
     7
370
    15
100
AcDbLine
 10
477.4621241462
 20
389.0892840242
 30
0.0
 11
470.4621239301
 21
389.0892840242
 31
0.0
  0
LINE
  5
13F
330
1F
100
AcDbEntity
  8
0
  6
Continuous
 62
     7
370
    15
100
AcDbLine
 10
477.4621241462
 20
404.0392837739
 30
0.0
 11
470.4621239301
 21
404.0392837739
 31
0.0
  0
LINE
  5
140
330
1F
100
AcDbEntity
  8
0
  6
Continuous
 62
     7
370
    15
100
AcDbLine
 10
477.4621241462
 20
402.0392797208
 30
0.0
 11
470.4621239301
 21
402.0392797208
 31
0.0
  0
LINE
  5
141
330
1F
100
AcDbEntity
  8
0
  6
Continuous
 62
     7
370
    15
100
AcDbLine
 10
475.9121239852
 20
405.5892802095
 30
0.0
 11
472.012124091
 21
405.5892802095
 31
0.0
  0
LINE
  5
142
330
1F
100
AcDbEntity
  8
0
  6
Continuous
 62
     7
370
    15
100
AcDbLine
 10
477.4621241462
 20
386.0892779445
 30
0.0
 11
470.4621239301
 21
386.0892779445
 31
0.0
  0
LINE
  5
143
330
1F
100
AcDbEntity
  8
0
  6
Continuous
 62
     7
370
    15
100
AcDbLine
 10
464.9954974387
 20
354.5892811632
 30
0.0
 11
458.9821235944
 21
354.5892811632
 31
0.0
  0
LINE
  5
144
330
1F
100
AcDbEntity
  8
0
  6
Continuous
 62
     7
370
    15
100
AcDbLine
 10
464.9954974387
 20
354.5892811632
 30
0.0
 11
464.9954974387
 21
347.5892818785
 31
0.0
  0
LINE
  5
145
330
1F
100
AcDbEntity
  8
0
  6
Continuous
 62
     7
370
    15
100
AcDbLine
 10
482.9287506376
 20
347.5892818785
 30
0.0
 11
464.9954974387
 21
347.5892818785
 31
0.0
  0
LINE
  5
146
330
1F
100
AcDbEntity
  8
0
  6
Continuous
 62
     7
370
    15
100
AcDbLine
 10
482.9287506376
 20
347.5892818785
 30
0.0
 11
482.9287506376
 21
354.5892811632
 31
0.0
  0
LINE
  5
147
330
1F
100
AcDbEntity
  8
0
  6
Continuous
 62
     7
370
    15
100
AcDbLine
 10
488.9421244819
 20
354.5892811632
 30
0.0
 11
482.9287506376
 21
354.5892811632
 31
0.0
  0
LINE
  5
148
330
1F
100
AcDbEntity
  8
0
  6
Continuous
 62
     7
370
    15
100
AcDbLine
 10
482.9287506376
 20
354.5892811632
 30
0.0
 11
464.9954974387
 21
354.5892811632
 31
0.0
  0
LINE
  5
149
330
1F
100
AcDbEntity
  8
0
  6
Continuous
 62
     7
370
    15
100
AcDbLine
 10
459.516687851
 20
234.5892838454
 30
0.0
 11
488.4075602252
 21
234.5892838454
 31
0.0
  0
CIRCLE
  5
14A
330
1F
100
AcDbEntity
  8
0
  6
Continuous
 62
     7
370
    15
100
AcDbCircle
 10
473.9621236531
 20
299.5892872784
 30
0.0
 40
7.489999836907756
  0
CIRCLE
  5
14B
330
1F
100
AcDbEntity
  8
0
  6
Continuous
 62
     7
370
    15
100
AcDbCircle
 10
473.9621240381
 20
299.5892814612
 30
0.0
 40
20.00000000000006
  0
CIRCLE
  5
14C
330
1F
100
AcDbEntity
  8
0
  6
Continuous
 62
     7
370
    15
100
AcDbCircle
 10
473.9621239274
 20
299.5892831425
 30
0.0
 40
7.499999721608578
  0
ARC
  5
14D
330
1F
100
AcDbEntity
  8
0
  6
Continuous
 62
     7
370
    15
100
AcDbCircle
 10
473.9621240381
 20
299.5892814612
 30
0.0
 40
22.00000000000006
100
AcDbArc
 50
225.0
 51
315.0
  0
ARC
  5
14E
330
1F
100
AcDbEntity
  8
0
  6
Continuous
 62
     7
370
    15
100
AcDbCircle
 10
473.9621240381
 20
299.5892814612
 30
0.0
 40
22.00000000000006
100
AcDbArc
 50
135.0
 51
225.0
  0
ARC
  5
14F
330
1F
100
AcDbEntity
  8
0
  6
Continuous
 62
     7
370
    15
100
AcDbCircle
 10
473.9621240381
 20
299.5892814612
 30
0.0
 40
22.00000000000002
100
AcDbArc
 50
45.0
 51
135.0
  0
ARC
  5
150
330
1F
100
AcDbEntity
  8
0
  6
Continuous
 62
     7
370
    15
100
AcDbCircle
 10
473.9621240381
 20
299.5892814612
 30
0.0
 40
21.99999999999998
100
AcDbArc
 50
315.0
 51
45.0
  0
CIRCLE
  5
151
330
1F
100
AcDbEntity
  8
0
  6
Continuous
 62
     7
370
    15
100
AcDbCircle
 10
454.5166875555
 20
280.1438449786
 30
0.0
 40
5.499999999999964
  0
CIRCLE
  5
152
330
1F
100
AcDbEntity
  8
0
  6
Continuous
 62
     7
370
    15
100
AcDbCircle
 10
493.4075605207
 20
280.1438449786
 30
0.0
 40
5.500000000000004
  0
CIRCLE
  5
153
330
1F
100
AcDbEntity
  8
0
  6
Continuous
 62
     7
370
    15
100
AcDbCircle
 10
493.4075605208
 20
319.0347179439
 30
0.0
 40
5.499999999999964
  0
CIRCLE
  5
154
330
1F
100
AcDbEntity
  8
0
  6
Continuous
 62
     7
370
    15
100
AcDbCircle
 10
454.5166875555
 20
319.0347179439
 30
0.0
 40
5.499999999999964
  0
CIRCLE
  5
155
330
1F
100
AcDbEntity
  8
0
  6
Continuous
 62
     7
370
    15
100
AcDbCircle
 10
473.9621240381
 20
299.5892814612
 30
0.0
 40
39.99999999999989
  0
SPLINE
  5
156
330
1F
100
AcDbEntity
  8
0
  6
Continuous
 62
     7
370
    15
100
AcDbSpline
210
0.0
220
0.0
230
1.0
 70
     8
 71
     3
 72
    18
 73
    14
 74
     0
 42
0.00000001
 43
0.00000001
 40
0.0
 40
0.0
 40
0.0
 40
0.0
 40
0.013003234989713
 40
0.0872626667435179
 40
0.1986808441028615
 40
0.3132867023744853
 40
0.4260896821311194
 40
0.5389098297952541
 40
0.6549269380232344
 40
0.7694729941163332
 40
0.8817489665765461
 40
0.9567295223947542
 40
1.0
 40
1.0
 40
1.0
 40
1.0
 10
481.0491242181559
 20
300.6148378150741
 30
0.0
 10
481.0035607638534
 20
300.6636629367966
 30
0.0
 10
480.6977915816749
 20
300.9913206565074
 30
0.0
 10
479.8613925478954
 20
301.5891896408064
 30
0.0
 10
478.5357416746653
 20
302.379206677975
 30
0.0
 10
476.8936971750621
 20
302.9840833330905
 30
0.0
 10
475.1747640578974
 20
303.3268255987813
 30
0.0
 10
473.4135885834779
 20
303.384345596719
 30
0.0
 10
471.6594525469456
 20
303.1447319352741
 30
0.0
 10
469.9686888964708
 20
302.6265050641344
 30
0.0
 10
468.5806037846326
 20
301.9266743146699
 30
0.0
 10
467.5922128251926
 20
301.2672149914351
 30
0.0
 10
467.1447412280945
 20
300.8563158748481
 30
0.0
 10
466.981002196302
 20
300.7059594635123
 30
0.0
  0
LINE
  5
157
330
1F
100
AcDbEntity
  8
0
  6
Continuous
 62
     7
370
    15
100
AcDbLine
 10
451.7829786722
 20
284.8452828145
 30
0.0
 11
451.9196446721
 21
283.6647364563
 31
0.0
  0
LINE
  5
158
330
1F
100
AcDbEntity
  8
0
  6
Continuous
 62
     7
370
    15
100
AcDbLine
 10
496.0046034042
 20
283.6647364563
 30
0.0
 11
496.1413550858
 21
284.8460353231
 31
0.0
  0
LINE
  5
159
330
1F
100
AcDbEntity
  8
0
  6
Continuous
 62
     7
370
    15
100
AcDbLine
 10
433.9621249322
 20
246.5892820871
 30
0.0
 11
513.9621231441
 21
246.5892820871
 31
0.0
  0
LINE
  5
15A
330
1F
100
AcDbEntity
  8
0
  6
Continuous
 62
     7
370
    15
100
AcDbLine
 10
433.9621249322
 20
236.5892804479
 30
0.0
 11
513.9621231441
 21
236.5892804479
 31
0.0
  0
SPLINE
  5
15B
330
1F
100
AcDbEntity
  8
0
  6
Continuous
 62
     7
370
    15
100
AcDbSpline
210
0.0
220
0.0
230
1.0
 70
     8
 71
     3
 72
    18
 73
    14
 74
     0
 42
0.00000001
 43
0.00000001
 40
0.0
 40
0.0
 40
0.0
 40
0.0
 40
0.1249999999999999
 40
0.1249999999999999
 40
0.2499999999999998
 40
0.2499999999999998
 40
0.4999999999999996
 40
0.4999999999999996
 40
0.7499999999999993
 40
0.7499999999999993
 40
0.8749999999999997
 40
0.8749999999999997
 40
1.0
 40
1.0
 40
1.0
 40
1.0
 10
475.4621240381201
 20
248.5892814612219
 30
0.0
 10
475.4621240381201
 20
248.4186681966095
 30
0.0
 10
475.4835297556642
 20
248.2581972409694
 30
0.0
 10
475.559030792668
 20
247.9547042834239
 30
0.0
 10
475.6136572217238
 20
247.8122661138375
 30
0.0
 10
475.8084022172602
 20
247.42844821533
 30
0.0
 10
475.9832767202938
 20
247.2198821836836
 30
0.0
 10
476.3650084695439
 20
246.8985475377578
 30
0.0
 10
476.5774723703381
 20
246.7808153651384
 30
0.0
 10
476.9034953856178
 20
246.6654250276225
 30
0.0
 10
477.0136560293656
 20
246.6369417254437
 30
0.0
 10
477.2362908000854
 20
246.5988660906589
 30
0.0
 10
477.3496348553471
 20
246.5892814612219
 30
0.0
 10
477.4621240381201
 20
246.5892814612219
 30
0.0
  0
SPLINE
  5
15C
330
1F
100
AcDbEntity
  8
0
  6
Continuous
 62
     7
370
    15
100
AcDbSpline
210
0.0
220
0.0
230
1.0
 70
     8
 71
     3
 72
    18
 73
    14
 74
     0
 42
0.00000001
 43
0.00000001
 40
0.0
 40
0.0
 40
0.0
 40
0.0
 40
0.1249999999999999
 40
0.1249999999999999
 40
0.2499999999999998
 40
0.2499999999999998
 40
0.4999999999999996
 40
0.4999999999999996
 40
0.7499999999999993
 40
0.7499999999999993
 40
0.8749999999999997
 40
0.8749999999999997
 40
1.0
 40
1.0
 40
1.0
 40
1.0
 10
472.4621240381201
 20
248.5892814612219
 30
0.0
 10
472.4621240381201
 20
248.4186681966095
 30
0.0
 10
472.4407183205759
 20
248.2581972409694
 30
0.0
 10
472.3652172835721
 20
247.9547042834239
 30
0.0
 10
472.3105908545163
 20
247.8122661138375
 30
0.0
 10
472.1158458589799
 20
247.42844821533
 30
0.0
 10
471.9409713559463
 20
247.2198821836836
 30
0.0
 10
471.5592396066963
 20
246.8985475377578
 30
0.0
 10
471.3467757059021
 20
246.7808153651384
 30
0.0
 10
471.0207526906223
 20
246.6654250276225
 30
0.0
 10
470.9105920468745
 20
246.6369417254437
 30
0.0
 10
470.6879572761547
 20
246.5988660906589
 30
0.0
 10
470.574613220893
 20
246.5892814612219
 30
0.0
 10
470.4621240381201
 20
246.5892814612219
 30
0.0
  0
LINE
  5
15D
330
1F
100
AcDbEntity
  8
0
  6
Continuous
 62
     7
370
    15
100
AcDbLine
 10
472.4621240251
 20
249.5892807162
 30
0.0
 11
472.4621240251
 21
248.5892824149
 31
0.0
  0
LINE
  5
15E
330
1F
100
AcDbEntity
  8
0
  6
Continuous
 62
     7
370
    15
100
AcDbLine
 10
475.4621240512
 20
249.5892807162
 30
0.0
 11
475.4621240512
 21
248.5892824149
 31
0.0
  0
LINE
  5
15F
330
1F
100
AcDbEntity
  8
0
  6
Continuous
 62
     7
370
    15
100
AcDbLine
 10
472.4621240251
 20
259.6174157476
 30
0.0
 11
472.4621240251
 21
249.5892807162
 31
0.0
  0
LINE
  5
160
330
1F
100
AcDbEntity
  8
0
  6
Continuous
 62
     7
370
    15
100
AcDbLine
 10
475.4621240512
 20
259.6174157476
 30
0.0
 11
475.4621240512
 21
249.5892807162
 31
0.0
  0
LINE
  5
161
330
1F
100
AcDbEntity
  8
0
  6
Continuous
 62
     7
370
    15
100
AcDbLine
 10
496.0065647695
 20
283.6723584002
 30
0.0
 11
495.9463268254
 21
283.0634783274
 31
0.0
  0
LINE
  5
162
330
1F
100
AcDbEntity
  8
0
  6
Continuous
 62
     7
370
    15
100
AcDbLine
 10
451.921581823
 20
283.6555126375
 30
0.0
 11
451.9803575907
 21
283.0643444574
 31
0.0
  0
SPLINE
  5
163
330
1F
100
AcDbEntity
  8
0
  6
Continuous
 62
     7
370
    15
100
AcDbSpline
210
0.0
220
0.0
230
1.0
 70
     8
 71
     3
 72
     9
 73
     5
 74
     0
 42
0.00000001
 43
0.00000001
 40
0.0
 40
0.0
 40
0.0
 40
0.0
 40
0.0693902605010195
 40
1.0
 40
1.0
 40
1.0
 40
1.0
 10
451.7208464179237
 20
314.3613706594536
 30
0.0
 10
451.7273185878591
 20
314.4493255346488
 30
0.0
 10
451.8205906103117
 20
315.7168647333806
 30
0.0
 10
452.2105084501464
 20
316.9367287378309
 30
0.0
 10
452.573369789501
 20
318.0719460612366
 30
0.0
  0
SPLINE
  5
164
330
1F
100
AcDbEntity
  8
0
  6
Continuous
 62
     7
370
    15
100
AcDbSpline
210
0.0
220
0.0
230
1.0
 70
     8
 71
     3
 72
     9
 73
     5
 74
     0
 42
0.00000001
 43
0.00000001
 40
0.0
 40
0.0
 40
0.0
 40
0.0
 40
0.9308237805056868
 40
1.0
 40
1.0
 40
1.0
 40
1.0
 10
495.3508782867391
 20
318.0719460612366
 30
0.0
 10
495.7137589912155
 20
316.9367311244864
 30
0.0
 10
496.1036079745314
 20
315.7171501892706
 30
0.0
 10
496.1968804997674
 20
314.4499055693631
 30
0.0
 10
496.2033327404459
 20
314.3622423773834
 30
0.0
  0
SPLINE
  5
165
330
1F
100
AcDbEntity
  8
0
  6
Continuous
 62
     7
370
    15
100
AcDbSpline
210
0.0
220
0.0
230
1.0
 70
     8
 71
     3
 72
     8
 73
     4
 74
     0
 42
0.00000001
 43
0.00000001
 40
0.0
 40
0.0
 40
0.0
 40
0.0
 40
1.0
 40
1.0
 40
1.0
 40
1.0
 10
495.0666202720799
 20
318.8147661729997
 30
0.0
 10
495.17328773796
 20
318.5727742799929
 30
0.0
 10
495.2681048179418
 20
318.3252238471683
 30
0.0
 10
495.3508068629654
 20
318.0720400819113
 30
0.0
  0
SPLINE
  5
166
330
1F
100
AcDbEntity
  8
0
  6
Continuous
 62
     7
370
    15
100
AcDbSpline
210
0.0
220
0.0
230
1.0
 70
     8
 71
     3
 72
     8
 73
     4
 74
     0
 42
0.00000001
 43
0.00000001
 40
0.0
 40
0.0
 40
0.0
 40
0.0
 40
1.0
 40
1.0
 40
1.0
 40
1.0
 10
452.5734412132747
 20
318.0720400819114
 30
0.0
 10
452.6563379866278
 20
318.3258199878277
 30
0.0
 10
452.751208371191
 20
318.5733369815918
 30
0.0
 10
452.8576278041597
 20
318.8147661729986
 30
0.0
  0
SPLINE
  5
167
330
1F
100
AcDbEntity
  8
0
  6
Continuous
 62
     7
370
    15
100
AcDbSpline
210
0.0
220
0.0
230
1.0
 70
     8
 71
     3
 72
    12
 73
     8
 74
     0
 42
0.00000001
 43
0.00000001
 40
0.0
 40
0.0
 40
0.0
 40
0.0
 40
0.2499999999999999
 40
0.2499999999999999
 40
0.4999999999999998
 40
0.4999999999999998
 40
1.0
 40
1.0
 40
1.0
 40
1.0
 10
455.0154606376817
 20
320.9087306387943
 30
0.0
 10
454.746830617924
 20
320.7643081140476
 30
0.0
 10
454.4977885557097
 20
320.6111083476075
 30
0.0
 10
454.046256349796
 20
320.2910095429717
 30
0.0
 10
453.843000080519
 20
320.1237785173463
 30
0.0
 10
453.3013628825378
 20
319.6004376531574
 30
0.0
 10
453.0305231451744
 20
319.2228297619109
 30
0.0
 10
452.8576278041597
 20
318.8147661729985
 30
0.0
  0
SPLINE
  5
168
330
1F
100
AcDbEntity
  8
0
  6
Continuous
 62
     7
370
    15
100
AcDbSpline
210
0.0
220
0.0
230
1.0
 70
     8
 71
     3
 72
    12
 73
     8
 74
     0
 42
0.00000001
 43
0.00000001
 40
0.0
 40
0.0
 40
0.0
 40
0.0
 40
0.2500000000000002
 40
0.2500000000000002
 40
0.5000000000000003
 40
0.5000000000000003
 40
1.0
 40
1.0
 40
1.0
 40
1.0
 10
495.06662027208
 20
318.8147661729996
 30
0.0
 10
494.9798885699395
 20
319.0194683323533
 30
0.0
 10
494.8672824788872
 20
319.2183448601309
 30
0.0
 10
494.5957184345912
 20
319.5988576082965
 30
0.0
 10
494.4367175706533
 20
319.7809679761546
 30
0.0
 10
493.8934843726827
 20
320.3038629474015
 30
0.0
 10
493.4434091493092
 20
320.6213040238512
 30
0.0
 10
492.9087874385581
 20
320.9087306387943
 30
0.0
  0
SPLINE
  5
169
330
1F
100
AcDbEntity
  8
0
  6
Continuous
 62
     7
370
    15
100
AcDbSpline
210
0.0
220
0.0
230
1.0
 70
     8
 71
     3
 72
    20
 73
    16
 74
     0
 42
0.00000001
 43
0.00000001
 40
0.0
 40
0.0
 40
0.0
 40
0.0
 40
0.1249999999999995
 40
0.1249999999999995
 40
0.249999999999999
 40
0.249999999999999
 40
0.3749999999999985
 40
0.3749999999999985
 40
0.499999999999998
 40
0.499999999999998
 40
0.6249999999999976
 40
0.6249999999999976
 40
0.749999999999997
 40
0.749999999999997
 40
1.0
 40
1.0
 40
1.0
 40
1.0
 10
470.4621240381201
 20
246.5892814612219
 30
0.0
 10
470.4841180079045
 20
246.5892814612219
 30
0.0
 10
470.5059491380767
 20
246.6086804767886
 30
0.0
 10
470.5492874347921
 20
246.6846594766415
 30
0.0
 10
470.5710209363456
 20
246.7421333278119
 30
0.0
 10
470.6128855845948
 20
246.8924367942408
 30
0.0
 10
470.632915715726
 20
246.9843895608713
 30
0.0
 10
470.6710973373708
 20
247.2014838939588
 30
0.0
 10
470.6893644636561
 20
247.3280323536729
 30
0.0
 10
470.7223216530044
 20
247.6045929672069
 30
0.0
 10
470.7372075973126
 20
247.7553760769352
 30
0.0
 10
470.7636104966599
 20
248.0823820380954
 30
0.0
 10
470.7749756064589
 20
248.2575369909202
 30
0.0
 10
470.8023261454099
 20
248.7989020444848
 30
0.0
 10
470.8121240381201
 20
249.1927447497234
 30
0.0
 10
470.8121240381201
 20
249.5892814612219
 30
0.0
  0
SPLINE
  5
16A
330
1F
100
AcDbEntity
  8
0
  6
Continuous
 62
     7
370
    15
100
AcDbSpline
210
0.0
220
0.0
230
1.0
 70
     8
 71
     3
 72
    22
 73
    18
 74
     0
 42
0.00000001
 43
0.00000001
 40
0.0
 40
0.0
 40
0.0
 40
0.0
 40
0.125
 40
0.125
 40
0.25
 40
0.25
 40
0.375
 40
0.375
 40
0.5
 40
0.5
 40
0.625
 40
0.625
 40
0.75
 40
0.75
 40
0.875
 40
0.875
 40
1.0
 40
1.0
 40
1.0
 40
1.0
 10
477.11212403812
 20
249.5892814612219
 30
0.0
 10
477.11212403812
 20
249.3910729066545
 30
0.0
 10
477.1145088972823
 20
249.1961461565342
 30
0.0
 10
477.1238309665538
 20
248.812593648798
 30
0.0
 10
477.1308828395652
 20
248.6219780462806
 30
0.0
 10
477.1491840506682
 20
248.258848553673
 30
0.0
 10
477.1603540811773
 20
248.0865213606152
 30
0.0
 10
477.1865987750226
 20
247.7602356488885
 30
0.0
 10
477.2017750114936
 20
247.6060516218433
 30
0.0
 10
477.2346807538925
 20
247.3295485766455
 30
0.0
 10
477.2525383668965
 20
247.2053301071889
 30
0.0
 10
477.2910225192343
 20
246.9857955224357
 30
0.0
 10
477.3112311435109
 20
246.8930905081355
 30
0.0
 10
477.3527932995476
 20
246.7435112270149
 30
0.0
 10
477.374419478979
 20
246.6858004643465
 30
0.0
 10
477.418195993961
 20
246.6086715193734
 30
0.0
 10
477.4401366449291
 20
246.5892814612219
 30
0.0
 10
477.4621240381201
 20
246.5892814612219
 30
0.0
  0
SPLINE
  5
16B
330
1F
100
AcDbEntity
  8
0
  6
Continuous
 62
     7
370
    15
100
AcDbSpline
210
0.0
220
0.0
230
1.0
 70
     8
 71
     3
 72
    12
 73
     8
 74
     0
 42
0.00000001
 43
0.00000001
 40
0.0
 40
0.0
 40
0.0
 40
0.0
 40
0.5000000000000042
 40
0.5000000000000042
 40
0.7500000000000021
 40
0.7500000000000021
 40
1.0
 40
1.0
 40
1.0
 40
1.0
 10
470.8121240381201
 20
257.5174846914973
 30
0.0
 10
470.8121240381201
 20
257.8691304416731
 30
0.0
 10
470.807722671103
 20
258.213057095595
 30
0.0
 10
470.7948392525594
 20
258.7177034340899
 30
0.0
 10
470.7894467891883
 20
258.8848432561809
 30
0.0
 10
470.7767580418368
 20
259.2083645291711
 30
0.0
 10
470.7694582300721
 20
259.3653418820403
 30
0.0
 10
470.7612257266498
 20
259.5174846914973
 30
0.0
  0
SPLINE
  5
16C
330
1F
100
AcDbEntity
  8
0
  6
Continuous
 62
     7
370
    15
100
AcDbSpline
210
0.0
220
0.0
230
1.0
 70
     8
 71
     3
 72
    12
 73
     8
 74
     0
 42
0.00000001
 43
0.00000001
 40
0.0
 40
0.0
 40
0.0
 40
0.0
 40
0.5000000000000042
 40
0.5000000000000042
 40
0.7500000000000021
 40
0.7500000000000021
 40
1.0
 40
1.0
 40
1.0
 40
1.0
 10
477.1630223495903
 20
259.5174846914973
 30
0.0
 10
477.1465577885325
 20
259.2132073110561
 30
0.0
 10
477.1339385524804
 20
258.8927142294057
 30
0.0
 10
477.1209691724051
 20
258.3882931844769
 30
0.0
 10
477.1176455828543
 20
258.2152353779308
 30
0.0
 10
477.1132358949415
 20
257.8680126633134
 30
0.0
 10
477.11212403812
 20
257.6933039435612
 30
0.0
 10
477.11212403812
 20
257.5174846914973
 30
0.0
  0
ARC
  5
16D
330
1F
100
AcDbEntity
  8
0
  6
Continuous
 62
     7
370
    15
100
AcDbCircle
 10
495.2544488912
 20
322.8951103474
 30
0.0
 40
3.073733385004178
100
AcDbArc
 50
179.8431535175
 51
220.258966075
  0
ARC
  5
16E
330
1F
100
AcDbEntity
  8
0
  6
Continuous
 62
     7
370
    15
100
AcDbCircle
 10
452.669799185
 20
322.8951103474
 30
0.0
 40
3.073733385004234
100
AcDbArc
 50
319.741033925
 51
0.1568464825
  0
LINE
  5
16F
330
1F
100
AcDbEntity
  8
0
  6
Continuous
 62
     7
370
    15
100
AcDbLine
 10
470.812124034
 20
249.5892807162
 30
0.0
 11
470.812124034
 21
257.5174845075
 31
0.0
  0
LINE
  5
170
330
1F
100
AcDbEntity
  8
0
  6
Continuous
 62
     7
370
    15
100
AcDbLine
 10
477.1121240422
 20
257.5174845075
 30
0.0
 11
477.1121240422
 21
249.5892807162
 31
0.0
  0
LINE
  5
171
330
1F
100
AcDbEntity
  8
0
  6
Continuous
 62
     7
370
    15
100
AcDbLine
 10
467.122124109
 20
341.589280895
 30
0.0
 11
480.8021239672
 21
341.589280895
 31
0.0
  0
LINE
  5
172
330
1F
100
AcDbEntity
  8
0
  6
Continuous
 62
     7
370
    15
100
AcDbLine
 10
445.3621241931
 20
331.3213340258
 30
0.0
 11
445.3621241931
 21
341.589280895
 31
0.0
  0
LINE
  5
173
330
1F
100
AcDbEntity
  8
0
  6
Continuous
 62
     7
370
    15
100
AcDbLine
 10
445.3621241931
 20
341.589280895
 30
0.0
 11
467.122124109
 21
341.589280895
 31
0.0
  0
ARC
  5
174
330
1F
100
AcDbEntity
  8
0
  6
Continuous
 62
     7
370
    15
100
AcDbCircle
 10
450.6968368188
 20
331.0749748989
 30
0.0
 40
5.340398076807756
100
AcDbArc
 50
177.3559369044
 51
206.1270946068
  0
ARC
  5
175
330
1F
100
AcDbEntity
  8
0
  6
Continuous
 62
     7
370
    15
100
AcDbCircle
 10
497.2274112574
 20
331.0749748989
 30
0.0
 40
5.340398076807756
100
AcDbArc
 50
333.8729053932
 51
2.6440630956
  0
LINE
  5
176
330
1F
100
AcDbEntity
  8
0
  6
Continuous
 62
     7
370
    15
100
AcDbLine
 10
502.5621238831
 20
331.3213340258
 30
0.0
 11
502.5621238831
 21
341.589280895
 31
0.0
  0
LINE
  5
177
330
1F
100
AcDbEntity
  8
0
  6
Continuous
 62
     7
370
    15
100
AcDbLine
 10
480.8021239672
 20
341.589280895
 30
0.0
 11
502.5621238831
 21
341.589280895
 31
0.0
  0
LINE
  5
178
330
1F
100
AcDbEntity
  8
0
  6
Continuous
 62
     7
370
    15
100
AcDbLine
 10
438.9621238891
 20
341.589280895
 30
0.0
 11
445.3621241931
 21
341.589280895
 31
0.0
  0
LINE
  5
179
330
1F
100
AcDbEntity
  8
0
  6
Continuous
 62
     7
370
    15
100
AcDbLine
 10
502.5621238831
 20
341.589280895
 30
0.0
 11
508.9621241871
 21
341.589280895
 31
0.0
  0
SPLINE
  5
17A
330
1F
100
AcDbEntity
  8
0
  6
Continuous
 62
     7
370
    15
100
AcDbSpline
210
0.0
220
0.0
230
1.0
 70
     8
 71
     3
 72
    10
 73
     6
 74
     0
 42
0.00000001
 43
0.00000001
 40
0.0
 40
0.0
 40
0.0
 40
0.0
 40
0.5
 40
0.5
 40
1.0
 40
1.0
 40
1.0
 40
1.0
 10
452.8576278041597
 20
318.8147661729985
 30
0.0
 10
452.8700867559352
 20
318.843031261141
 30
0.0
 10
452.8815208283093
 20
318.8699171512482
 30
0.0
 10
452.9032466351073
 20
318.9212904000443
 30
0.0
 10
452.9133936664277
 20
318.9454989810097
 30
0.0
 10
452.9232731777039
 20
318.9690598806005
 30
0.0
  0
SPLINE
  5
17B
330
1F
100
AcDbEntity
  8
0
  6
Continuous
 62
     7
370
    15
100
AcDbSpline
210
0.0
220
0.0
230
1.0
 70
     8
 71
     3
 72
    26
 73
    22
 74
     0
 42
0.00000001
 43
0.00000001
 40
0.0
 40
0.0
 40
0.0
 40
0.0
 40
0.1249999999999999
 40
0.1249999999999999
 40
0.2499999999999999
 40
0.2499999999999999
 40
0.3749999999999998
 40
0.3749999999999998
 40
0.4999999999999998
 40
0.4999999999999998
 40
0.6249999999999998
 40
0.6249999999999998
 40
0.7499999999999997
 40
0.7499999999999997
 40
0.8749999999999996
 40
0.8749999999999996
 40
0.9374999999999998
 40
0.9374999999999998
 40
0.9687499999999999
 40
0.9687499999999999
 40
1.0
 40
1.0
 40
1.0
 40
1.0
 10
451.0973761999122
 20
323.3718548632432
 30
0.0
 10
451.322600692853
 20
323.3235056225606
 30
0.0
 10
451.5371455733771
 20
323.2482085883899
 30
0.0
 10
451.9444960940808
 20
323.0427666998532
 30
0.0
 10
452.1361689385555
 20
322.911936769379
 30
0.0
 10
452.47475274706
 20
322.6090445115734
 30
0.0
 10
452.6263091943832
 20
322.4327266199771
 30
0.0
 10
452.8778865104961
 20
322.0526896624024
 30
0.0
 10
452.9799554458547
 20
321.8472627888833
 30
0.0
 10
453.1358836770955
 20
321.415731949791
 30
0.0
 10
453.1884597607608
 20
321.1942817702584
 30
0.0
 10
453.2484867854328
 20
320.7412715486273
 30
0.0
 10
453.2552801514575
 20
320.5105694291742
 30
0.0
 10
453.2267770531116
 20
320.0565933149786
 30
0.0
 10
453.1915191773907
 20
319.8301130042203
 30
0.0
 10
453.1093883561562
 20
319.4960757264257
 30
0.0
 10
453.0772452761833
 20
319.3861410992868
 30
0.0
 10
453.0223957085967
 20
319.2237036716544
 30
0.0
 10
453.0030645642204
 20
319.1701748194761
 30
0.0
 10
452.9631430194465
 20
319.0657792794453
 30
0.0
 10
452.942098564416
 20
319.01395512223
 30
0.0
 10
452.9232731777244
 20
318.9690598806318
 30
0.0
  0
SPLINE
  5
17C
330
1F
100
AcDbEntity
  8
0
  6
Continuous
 62
     7
370
    15
100
AcDbSpline
210
0.0
220
0.0
230
1.0
 70
     8
 71
     3
 72
    26
 73
    22
 74
     0
 42
0.00000001
 43
0.00000001
 40
0.0
 40
0.0
 40
0.0
 40
0.0
 40
0.1249999999999999
 40
0.1249999999999999
 40
0.2499999999999998
 40
0.2499999999999998
 40
0.3749999999999998
 40
0.3749999999999998
 40
0.4999999999999997
 40
0.4999999999999997
 40
0.6249999999999996
 40
0.6249999999999996
 40
0.7499999999999996
 40
0.7499999999999996
 40
0.8749999999999994
 40
0.8749999999999994
 40
0.9374999999999993
 40
0.9374999999999993
 40
0.9687499999999997
 40
0.9687499999999997
 40
1.0
 40
1.0
 40
1.0
 40
1.0
 10
496.8268718763277
 20
323.3718548632432
 30
0.0
 10
496.6016473833873
 20
323.3235056225607
 30
0.0
 10
496.3871025028635
 20
323.2482085883902
 30
0.0
 10
495.9797519821605
 20
323.0427666998541
 30
0.0
 10
495.7880791376859
 20
322.91193676938
 30
0.0
 10
495.4494953291817
 20
322.6090445115751
 30
0.0
 10
495.2979388818586
 20
322.4327266199794
 30
0.0
 10
495.0463615657456
 20
322.0526896624056
 30
0.0
 10
494.9442926303869
 20
321.847262788887
 30
0.0
 10
494.7883643991457
 20
321.4157319497955
 30
0.0
 10
494.7357883154802
 20
321.1942817702634
 30
0.0
 10
494.6757612908075
 20
320.7412715486332
 30
0.0
 10
494.6689679247811
 20
320.5105694291804
 30
0.0
 10
494.6974710231261
 20
320.0565933149854
 30
0.0
 10
494.7327288988479
 20
319.8301130042275
 30
0.0
 10
494.8148597200818
 20
319.4960757264332
 30
0.0
 10
494.8470028000543
 20
319.3861410992944
 30
0.0
 10
494.9018523676407
 20
319.2237036716618
 30
0.0
 10
494.9211835120325
 20
319.1701748194689
 30
0.0
 10
494.9611050568096
 20
319.0657792794325
 30
0.0
 10
494.9821495118257
 20
319.0139551222262
 30
0.0
 10
495.0009748985172
 20
318.9690598806282
 30
0.0
  0
SPLINE
  5
17D
330
1F
100
AcDbEntity
  8
0
  6
Continuous
 62
     7
370
    15
100
AcDbSpline
210
0.0
220
0.0
230
1.0
 70
     8
 71
     3
 72
    10
 73
     6
 74
     0
 42
0.00000001
 43
0.00000001
 40
0.0
 40
0.0
 40
0.0
 40
0.0
 40
0.5
 40
0.5
 40
1.0
 40
1.0
 40
1.0
 40
1.0
 10
495.000974898541
 20
318.9690598806122
 30
0.0
 10
495.0108391035864
 20
318.9455354836938
 30
0.0
 10
495.020972468299
 20
318.9213594777059
 30
0.0
 10
495.0426803598928
 20
318.8700274576033
 30
0.0
 10
495.0542448469333
 20
318.8428417678709
 30
0.0
 10
495.06662027208
 20
318.8147661729996
 30
0.0
  0
LINE
  5
17E
330
1F
100
AcDbEntity
  8
0
  6
Continuous
 62
     8
370
    15
100
AcDbLine
 10
477.9621242281
 20
380.1966435528
 30
0.0
 11
469.9621238481
 21
380.1966435528
 31
0.0
  0
LINE
  5
17F
330
1F
100
AcDbEntity
  8
0
  6
Continuous
 62
     8
370
    15
100
AcDbLine
 10
477.8258272648
 20
381.2319240784
 30
0.0
 11
470.0984208114
 21
381.2319240784
 31
0.0
  0
LINE
  5
180
330
1F
100
AcDbEntity
  8
0
  6
Continuous
 62
     8
370
    15
100
AcDbLine
 10
477.5984206438
 20
382.0806122637
 30
0.0
 11
470.3258274324
 21
382.0806122637
 31
0.0
  0
LINE
  5
181
330
1F
100
AcDbEntity
  8
0
  6
Continuous
 62
     8
370
    15
100
AcDbLine
 10
477.4621241462
 20
383.1158927893
 30
0.0
 11
470.4621239301
 21
383.1158927893
 31
0.0
  0
LINE
  5
182
330
1F
100
AcDbEntity
  8
0
  6
Continuous
 62
     8
370
    15
100
AcDbLine
 10
469.5811249051
 20
293.5172124086
 30
0.0
 11
469.9621238481
 21
293.5172124086
 31
0.0
  0
LINE
  5
183
330
1F
100
AcDbEntity
  8
0
  6
Continuous
 62
     8
370
    15
100
AcDbLine
 10
477.9621242281
 20
293.5172124086
 30
0.0
 11
478.2865322862
 21
293.5172124086
 31
0.0
  0
LINE
  5
184
330
1F
100
AcDbEntity
  8
0
  6
Continuous
 62
     8
370
    15
100
AcDbLine
 10
470.7612256255
 20
259.5174848354
 30
0.0
 11
470.7595296871
 21
259.7361370241
 31
0.0
  0
LINE
  5
185
330
1F
100
AcDbEntity
  8
0
  6
Continuous
 62
     8
370
    15
100
AcDbLine
 10
477.165060883
 20
259.7677759147
 30
0.0
 11
477.1630224507
 21
259.5174848354
 31
0.0
  0
LINE
  5
186
330
1F
100
AcDbEntity
  8
0
  6
Continuous
 62
     8
370
    15
100
AcDbLine
 10
451.9803575907
 20
283.0643444574
 30
0.0
 11
451.9621241573
 21
283.0643444574
 31
0.0
  0
LINE
  5
187
330
1F
100
AcDbEntity
  8
0
  6
Continuous
 62
     8
370
    15
100
AcDbLine
 10
495.9621239189
 20
283.0643444574
 30
0.0
 11
495.9438904855
 21
283.0643444574
 31
0.0
  0
LINE
  5
188
330
1F
100
AcDbEntity
  8
0
  6
Continuous
 62
     8
370
    15
100
AcDbLine
 10
467.122124109
 20
339.0001221812
 30
0.0
 11
467.122124109
 21
341.589280895
 31
0.0
  0
LINE
  5
189
330
1F
100
AcDbEntity
  8
0
  6
Continuous
 62
     8
370
    15
100
AcDbLine
 10
480.8021239672
 20
339.0001221812
 30
0.0
 11
480.8021239672
 21
341.589280895
 31
0.0
  0
LINE
  5
18A
330
1F
100
AcDbEntity
  8
0
  6
Continuous
 62
     8
370
    15
100
AcDbLine
 10
445.3621241931
 20
331.3213340258
 30
0.0
 11
449.6089532707
 21
331.3213340258
 31
0.0
  0
LINE
  5
18B
330
1F
100
AcDbEntity
  8
0
  6
Continuous
 62
     8
370
    15
100
AcDbLine
 10
446.5538855378
 20
328.7232569671
 30
0.0
 11
445.9021236483
 21
328.7232569671
 31
0.0
  0
LINE
  5
18C
330
1F
100
AcDbEntity
  8
0
  6
Continuous
 62
     8
370
    15
100
AcDbLine
 10
502.0221244279
 20
328.7232569671
 30
0.0
 11
501.3703625385
 21
328.7232569671
 31
0.0
  0
LINE
  5
18D
330
1F
100
AcDbEntity
  8
0
  6
Continuous
 62
     8
370
    15
100
AcDbLine
 10
498.3152948055
 20
331.3213340258
 30
0.0
 11
502.5621238831
 21
331.3213340258
 31
0.0
  0
LINE
  5
18E
330
1F
100
AcDbEntity
  8
0
  6
Continuous
 62
     8
370
    15
100
AcDbLine
 10
446.1452472691
 20
328.3333475953
 30
0.0
 11
445.9021236483
 21
328.7232569671
 31
0.0
  0
ARC
  5
18F
330
1F
100
AcDbEntity
  8
0
  6
Continuous
 62
     8
370
    15
100
AcDbCircle
 10
452.7363193961
 20
322.4635989037
 30
0.0
 40
3.039209841687925
100
AcDbArc
 50
8.322804715
 51
42.4600313391
  0
ARC
  5
190
330
1F
100
AcDbEntity
  8
0
  6
Continuous
 62
     8
370
    15
100
AcDbCircle
 10
495.1879286801
 20
322.4635989037
 30
0.0
 40
3.039209841687876
100
AcDbArc
 50
137.5399686609
 51
171.677195285
  0
LINE
  5
191
330
1F
100
AcDbEntity
  8
0
  6
Continuous
 62
     8
370
    15
100
AcDbLine
 10
501.7790008072
 20
328.3333475953
 30
0.0
 11
502.0221244279
 21
328.7232569671
 31
0.0
  0
LINE
  5
192
330
1F
100
AcDbEntity
  8
0
  6
Continuous
 62
     8
370
    15
100
AcDbLine
 10
438.9621238891
 20
331.3213340258
 30
0.0
 11
445.3621241931
 21
331.3213340258
 31
0.0
  0
LINE
  5
193
330
1F
100
AcDbEntity
  8
0
  6
Continuous
 62
     8
370
    15
100
AcDbLine
 10
445.9021236483
 20
328.7232569671
 30
0.0
 11
440.4621232037
 21
328.7232569671
 31
0.0
  0
LINE
  5
194
330
1F
100
AcDbEntity
  8
0
  6
Continuous
 62
     8
370
    15
100
AcDbLine
 10
507.4621248726
 20
328.7232569671
 30
0.0
 11
502.0221244279
 21
328.7232569671
 31
0.0
  0
LINE
  5
195
330
1F
100
AcDbEntity
  8
0
  6
Continuous
 62
     8
370
    15
100
AcDbLine
 10
502.5621238831
 20
331.3213340258
 30
0.0
 11
508.9621241871
 21
331.3213340258
 31
0.0
  0
LINE
  5
196
330
1F
100
AcDbEntity
  8
0
  6
Continuous
 62
     8
370
    15
100
AcDbLine
 10
496.0026662532
 20
283.6555126375
 30
0.0
 11
496.0209481154
 21
283.6555126375
 31
0.0
  0
LINE
  5
197
330
1F
100
AcDbEntity
  8
0
  6
Continuous
 62
     8
370
    15
100
AcDbLine
 10
451.9032999609
 20
283.6555126375
 30
0.0
 11
451.921581823
 21
283.6555126375
 31
0.0
  0
LINE
  5
198
330
1F
100
AcDbEntity
  8
0
  6
Continuous
 62
     8
370
    15
100
AcDbLine
 10
469.5767663155
 20
293.5203160411
 30
0.0
 11
469.9621238481
 21
293.5203160411
 31
0.0
  0
LINE
  5
199
330
1F
100
AcDbEntity
  8
0
  6
Continuous
 62
     8
370
    15
100
AcDbLine
 10
477.9621242281
 20
293.5203160411
 30
0.0
 11
478.2905965779
 21
293.5203160411
 31
0.0
  0
LINE
  5
19A
330
1F
100
AcDbEntity
  8
1
100
AcDbLine
 10
459.5753756841
 20
234.5892814612
 30
0.0
 11
454.0884918284
 21
234.573794831
 31
0.0
  0
LINE
  5
19B
330
1F
100
AcDbEntity
  8
1
100
AcDbLine
 10
455.9621240381
 20
256.2934912892
 30
0.0
 11
455.9621240381
 21
246.5892814612
 31
0.0
  0
LINE
  5
19C
330
1F
100
AcDbEntity
  8
1
100
AcDbLine
 10
454.0884918284
 20
234.573794831
 30
0.0
 11
452.0730051982
 21
236.5892814612
 31
0.0
  0
LINE
  5
19D
330
1F
100
AcDbEntity
  8
1
100
AcDbLine
 10
491.9621240381
 20
256.6952256494
 30
0.0
 11
491.9621240381
 21
246.5892814612
 31
0.0
  0
LINE
  5
19E
330
1F
100
AcDbEntity
  8
1
100
AcDbLine
 10
495.9621240381
 20
236.5583552471
 30
0.0
 11
493.9930502523
 21
234.5892814612
 31
0.0
  0
LINE
  5
19F
330
1F
100
AcDbEntity
  8
1
100
AcDbLine
 10
495.9621240381
 20
236.5583552471
 30
0.0
 11
493.9930502523
 21
234.5892814612
 31
0.0
  0
LINE
  5
1A0
330
1F
100
AcDbEntity
  8
1
100
AcDbLine
 10
488.4075605208
 20
234.5892814612
 30
0.0
 11
493.9930502523
 21
234.5892814612
 31
0.0
  0
LWPOLYLINE
  5
1A1
330
1F
100
AcDbEntity
  8
0
  6
Continuous
 62
     7
370
    15
100
AcDbPolyline
 90
        3
 70
   128
 43
0.0
 10
293.9261050016
 20
103.1525363946
 10
294.7577517882
 20
103.0651266487
 10
294.8566431698
 20
103.0427930677
  0
ARC
  5
1A2
330
1F
100
AcDbEntity
  8
0
  6
Continuous
 62
     7
370
    15
100
AcDbCircle
 10
293.9261050016
 20
99.1525362046
 30
0.0
 40
4.000000000000132
100
AcDbArc
 50
90.0
 51
256.5477718046
  0
LINE
  5
1A3
330
1F
100
AcDbEntity
  8
0
  6
Continuous
 62
     7
370
    15
100
AcDbLine
 10
240.9261056275
 20
139.1525353105
 30
0.0
 11
230.9261039883
 21
139.1525353105
 31
0.0
  0
LINE
  5
1A4
330
1F
100
AcDbEntity
  8
0
  6
Continuous
 62
     7
370
    15
100
AcDbLine
 10
230.9261039883
 20
59.1525370986
 30
0.0
 11
240.9261056275
 21
59.1525370986
 31
0.0
  0
LINE
  5
1A5
330
1F
100
AcDbEntity
  8
0
  6
Continuous
 62
     7
370
    15
100
AcDbLine
 10
346.9261043758
 20
59.1525370986
 30
0.0
 11
356.9261060149
 21
59.1525370986
 31
0.0
  0
LINE
  5
1A6
330
1F
100
AcDbEntity
  8
0
  6
Continuous
 62
     7
370
    15
100
AcDbLine
 10
356.9261060149
 20
139.1525353105
 30
0.0
 11
346.9261043758
 21
139.1525353105
 31
0.0
  0
SPLINE
  5
1A7
330
1F
100
AcDbEntity
  8
0
  6
Continuous
 62
     7
370
    15
100
AcDbSpline
210
0.0
220
0.0
230
1.0
 70
     8
 71
     3
 72
    20
 73
    16
 74
     0
 42
0.00000001
 43
0.00000001
 40
0.0
 40
0.0
 40
0.0
 40
0.0
 40
0.0058816315281089
 40
0.1497149325047814
 40
0.3112788859685833
 40
0.4905924245521087
 40
0.5381971120302705
 40
0.5869132630258039
 40
0.6367414706256415
 40
0.6876858840454985
 40
0.739753777755283
 40
0.792818987351522
 40
0.8462943555289167
 40
0.9143269008575728
 40
1.0
 40
1.0
 40
1.0
 40
1.0
 10
334.4011195988046
 20
113.4379031867908
 30
0.0
 10
334.3452565748151
 20
113.4545411399948
 30
0.0
 10
332.9232822763357
 20
113.8780545867414
 30
0.0
 10
329.9710536436506
 20
114.7591035123498
 30
0.0
 10
325.3765604767764
 20
116.1310025267868
 30
0.0
 10
321.6982395893915
 20
117.2301759168301
 30
0.0
 10
319.0896632432657
 20
118.0094920030381
 30
0.0
 10
317.7068160502464
 20
118.4225574459609
 30
0.0
 10
316.2926337928131
 20
118.8448947358304
 30
0.0
 10
314.8471391627403
 20
119.2764304150225
 30
0.0
 10
313.3724943706097
 20
119.7166042918312
 30
0.0
 10
311.8741243699784
 20
120.1633551736178
 30
0.0
 10
310.15708978673
 20
120.6778422535293
 30
0.0
 10
308.1073145321928
 20
121.2982665692485
 30
0.0
 10
306.5285406443492
 20
121.4606624824751
 30
0.0
 10
305.6485570088612
 20
121.5511794001983
 30
0.0
  0
SPLINE
  5
1A8
330
1F
100
AcDbEntity
  8
0
  6
Continuous
 62
     7
370
    15
100
AcDbSpline
210
0.0
220
0.0
230
1.0
 70
     8
 71
     3
 72
    16
 73
    12
 74
     0
 42
0.00000001
 43
0.00000001
 40
0.0
 40
0.0
 40
0.0
 40
0.0
 40
0.080239599986207
 40
0.1599706209312596
 40
0.2241649587456316
 40
0.288503342493187
 40
0.3522345339355418
 40
0.4152872633252709
 40
0.6608136796946371
 40
0.8956880368413976
 40
1.0
 40
1.0
 40
1.0
 40
1.0
 10
305.64236371374
 20
76.73784445833428
 30
0.0
 10
306.465771125649
 20
76.82638014157264
 30
0.0
 10
308.1073669833695
 20
77.0028903463175
 30
0.0
 10
310.3287054221417
 20
77.68157955502078
 30
0.0
 10
312.3662456723426
 20
78.28828083328342
 30
0.0
 10
314.1697272249147
 20
78.82673739366678
 30
0.0
 10
315.9816125498687
 20
79.36750587653107
 30
0.0
 10
319.5047835237976
 20
80.41962835253247
 30
0.0
 10
324.6547975271141
 20
81.95828894940409
 30
0.0
 10
330.2000039582961
 20
83.61499627085945
 30
0.0
 10
333.420499259141
 20
84.57445262675658
 30
0.0
 10
334.4109171122896
 20
84.86951988052591
 30
0.0
  0
LINE
  5
1A9
330
1F
100
AcDbEntity
  8
0
  6
Continuous
 62
     7
370
    15
100
AcDbLine
 10
356.9261060149
 20
77.1525363238
 30
0.0
 11
358.9261026174
 21
79.1525366516
 31
0.0
  0
LINE
  5
1AA
330
1F
100
AcDbEntity
  8
0
  6
Continuous
 62
     7
370
    15
100
AcDbLine
 10
358.9261026174
 20
119.1525357575
 30
0.0
 11
356.9261060149
 21
121.1525360854
 31
0.0
  0
LINE
  5
1AB
330
1F
100
AcDbEntity
  8
0
  6
Continuous
 62
     7
370
    15
100
AcDbLine
 10
230.9261039883
 20
121.1525360854
 30
0.0
 11
228.9261073858
 21
119.1525357575
 31
0.0
  0
LINE
  5
1AC
330
1F
100
AcDbEntity
  8
0
  6
Continuous
 62
     7
370
    15
100
AcDbLine
 10
228.9261073858
 20
79.1525366516
 30
0.0
 11
230.9261039883
 21
77.1525363238
 31
0.0
  0
ARC
  5
1AD
330
1F
100
AcDbEntity
  8
0
  6
Continuous
 62
     7
370
    15
100
AcDbCircle
 10
293.9261050016
 20
99.1525362046
 30
0.0
 40
22.4999999999999
100
AcDbArc
 50
126.5122654428
 51
233.4877345572
  0
SPLINE
  5
1AE
330
1F
100
AcDbEntity
  8
0
  6
Continuous
 62
     7
370
    15
100
AcDbSpline
210
0.0
220
0.0
230
1.0
 70
     8
 71
     3
 72
    19
 73
    15
 74
     0
 42
0.00000001
 43
0.00000001
 40
0.0
 40
0.0
 40
0.0
 40
0.0
 40
0.1727060414191072
 40
0.3585470251451657
 40
0.5155107944249467
 40
0.6436083819307677
 40
0.7128407417600999
 40
0.7679600637962356
 40
0.8109313188693873
 40
0.8552050835834297
 40
0.9124076877116356
 40
0.9442328376944107
 40
0.9778396120758431
 40
1.0
 40
1.0
 40
1.0
 40
1.0
 10
252.3920313507901
 20
113.4231482432412
 30
0.0
 10
251.6880850825738
 20
113.6092212666119
 30
0.0
 10
250.2266547917915
 20
113.9955188647802
 30
0.0
 10
248.1438747234964
 20
114.5591287954246
 30
0.0
 10
246.232518422619
 20
115.0728209059754
 30
0.0
 10
244.7899330838952
 20
115.4605347466525
 30
0.0
 10
243.7623814686898
 20
115.7370451944328
 30
0.0
 10
243.062889789196
 20
115.9233034699457
 30
0.0
 10
242.4536591194734
 20
116.0945941967647
 30
0.0
 10
241.9088949983301
 20
116.2755896974346
 30
0.0
 10
241.4770373963626
 20
116.4513596494134
 30
0.0
 10
241.1819103297796
 20
116.6201235867858
 30
0.0
 10
241.0399203677101
 20
116.7483659799028
 30
0.0
 10
241.0205660002627
 20
116.8186154852724
 30
0.0
 10
241.0128750891076
 20
116.8465307713674
 30
0.0
  0
SPLINE
  5
1AF
330
1F
100
AcDbEntity
  8
0
  6
Continuous
 62
     7
370
    15
100
AcDbSpline
210
0.0
220
0.0
230
1.0
 70
     8
 71
     3
 72
    20
 73
    16
 74
     0
 42
0.00000001
 43
0.00000001
 40
0.0
 40
0.0
 40
0.0
 40
0.0
 40
0.0526469597545268
 40
0.0949173489642826
 40
0.12826523941964
 40
0.1535166736548487
 40
0.1704092324149336
 40
0.1756995141768256
 40
0.1962257129685351
 40
0.254135723217966
 40
0.3504115151898184
 40
0.4793570374532644
 40
0.6370755362205289
 40
0.8235648404242386
 40
1.0
 40
1.0
 40
1.0
 40
1.0
 10
240.9261056274758
 20
81.24208550762398
 30
0.0
 10
240.9331578328668
 20
81.2912774767924
 30
0.0
 10
240.9458722734193
 20
81.37996581369865
 30
0.0
 10
241.036194195088
 20
81.53140915879605
 30
0.0
 10
241.1659815008524
 20
81.66421237369643
 30
0.0
 10
241.3351260948606
 20
81.7712761725597
 30
0.0
 10
241.4693306584832
 20
81.84221251405532
 30
0.0
 10
241.6278703347483
 20
81.91645390770336
 30
0.0
 10
242.0124372638236
 20
82.07020791225726
 30
0.0
 10
242.7742988910789
 20
82.30804216926788
 30
0.0
 10
244.061693113279
 20
82.64577516205017
 30
0.0
 10
245.712684347008
 20
83.09330526653774
 30
0.0
 10
247.7813410804303
 20
83.64799485894538
 30
0.0
 10
250.0370580877965
 20
84.25857558235455
 30
0.0
 10
251.6246060065147
 20
84.6786800847098
 30
0.0
 10
252.3963899404393
 20
84.88291323047146
 30
0.0
  0
SPLINE
  5
1B0
330
1F
100
AcDbEntity
  8
0
  6
Continuous
 62
     7
370
    15
100
AcDbSpline
210
0.0
220
0.0
230
1.0
 70
     8
 71
     3
 72
    20
 73
    16
 74
     0
 42
0.00000001
 43
0.00000001
 40
0.0
 40
0.0
 40
0.0
 40
0.0
 40
0.1692785530887809
 40
0.3591273135758801
 40
0.5202257378924363
 40
0.6525688000227308
 40
0.7247367735323527
 40
0.782589237568706
 40
0.8272978978509853
 40
0.8677474999935059
 40
0.9135350471996291
 40
0.9353057320129666
 40
0.955003318949758
 40
0.9756914731982753
 40
1.0
 40
1.0
 40
1.0
 40
1.0
 10
335.4464770347463
 20
84.88586552303298
 30
0.0
 10
336.1193873230555
 20
84.70831035743004
 30
0.0
 10
337.5469778813903
 20
84.33162407041372
 30
0.0
 10
339.6196747356367
 20
83.77720205796324
 30
0.0
 10
341.540638054775
 20
83.26522000714981
 30
0.0
 10
342.9965447067168
 20
82.87699940520481
 30
0.0
 10
344.0309743874609
 20
82.60085525452021
 30
0.0
 10
344.7421216735757
 20
82.4119704836471
 30
0.0
 10
345.3245403382732
 20
82.25117000719625
 30
0.0
 10
345.869701045031
 20
82.07786257019234
 30
0.0
 10
346.3063357130427
 20
81.90970607539872
 30
0.0
 10
346.6295834596288
 20
81.74101206822745
 30
0.0
 10
346.8055163421042
 20
81.58734116699954
 30
0.0
 10
346.9051153940346
 20
81.42553302304
 30
0.0
 10
346.9187425736703
 20
81.3304728902261
 30
0.0
 10
346.9261043757783
 20
81.279118618481
 30
0.0
  0
SPLINE
  5
1B1
330
1F
100
AcDbEntity
  8
0
  6
Continuous
 62
     7
370
    15
100
AcDbSpline
210
0.0
220
0.0
230
1.0
 70
     8
 71
     3
 72
    19
 73
    15
 74
     0
 42
0.00000001
 43
0.00000001
 40
0.0
 40
0.0
 40
0.0
 40
0.0
 40
0.0208914706348123
 40
0.038880609516134
 40
0.0552664537011642
 40
0.0729655612322443
 40
0.1116422293793943
 40
0.1709310830696126
 40
0.2415758559963531
 40
0.3352343653724184
 40
0.4733668318717954
 40
0.6386792886944312
 40
0.8311551526498937
 40
1.0
 40
1.0
 40
1.0
 40
1.0
 10
346.9261043757783
 20
117.0259388894962
 30
0.0
 10
346.9206991328335
 20
116.980631544593
 30
0.0
 10
346.9106395662308
 20
116.8963111434022
 30
0.0
 10
346.8311369156497
 20
116.758935559475
 30
0.0
 10
346.7085793057103
 20
116.620365671062
 30
0.0
 10
346.4536392455058
 20
116.4632777296508
 30
0.0
 10
345.9943465183992
 20
116.2672607861129
 30
0.0
 10
345.302380040396
 20
116.0441974819332
 30
0.0
 10
344.384063704504
 20
115.798393912143
 30
0.0
 10
343.1812226038452
 20
115.4776060658826
 30
0.0
 10
341.6062470944581
 20
115.0573679182346
 30
0.0
 10
339.6408718330901
 20
114.5335724229955
 30
0.0
 10
337.5539200145246
 20
113.9752785684316
 30
0.0
 10
336.1268676098439
 20
113.5987293696483
 30
0.0
 10
335.4600072891103
 20
113.4227682636307
 30
0.0
  0
SPLINE
  5
1B2
330
1F
100
AcDbEntity
  8
0
  6
Continuous
 62
     7
370
    15
100
AcDbSpline
210
0.0
220
0.0
230
1.0
 70
     8
 71
     3
 72
    10
 73
     6
 74
     0
 42
0.00000001
 43
0.00000001
 40
0.0
 40
0.0
 40
0.0
 40
0.0
 40
0.2867132232844377
 40
0.8132509429153856
 40
1.0
 40
1.0
 40
1.0
 40
1.0
 10
335.4570903868066
 20
113.4378612772749
 30
0.0
 10
335.359090914206
 20
113.4111765057194
 30
0.0
 10
335.0811192092925
 20
113.335486185683
 30
0.0
 10
334.7084173487576
 20
113.3484695364574
 30
0.0
 10
334.4722647917145
 20
113.4318060959196
 30
0.0
 10
334.4104365498411
 20
113.4536248431729
 30
0.0
  0
SPLINE
  5
1B3
330
1F
100
AcDbEntity
  8
0
  6
Continuous
 62
     7
370
    15
100
AcDbSpline
210
0.0
220
0.0
230
1.0
 70
     8
 71
     3
 72
    10
 73
     6
 74
     0
 42
0.00000001
 43
0.00000001
 40
0.0
 40
0.0
 40
0.0
 40
0.0
 40
0.0585543293963311
 40
0.5445209839163765
 40
1.0
 40
1.0
 40
1.0
 40
1.0
 10
252.4000891537057
 20
84.87936302881702
 30
0.0
 10
252.4192958758513
 20
84.88658792864605
 30
0.0
 10
252.5979071476116
 20
84.95377526738174
 30
0.0
 10
252.9677539961982
 20
84.96977613861912
 30
0.0
 10
253.2918249450161
 20
84.89710893369607
 30
0.0
 10
253.4486130864011
 20
84.86195195328459
 30
0.0
  0
SPLINE
  5
1B4
330
1F
100
AcDbEntity
  8
0
  6
Continuous
 62
     7
370
    15
100
AcDbSpline
210
0.0
220
0.0
230
1.0
 70
     8
 71
     3
 72
    19
 73
    15
 74
     0
 42
0.00000001
 43
0.00000001
 40
0.0
 40
0.0
 40
0.0
 40
0.0
 40
0.1413020988527256
 40
0.2918511707315404
 40
0.4565126940676244
 40
0.5686400274275764
 40
0.6864709768684877
 40
0.7246835703898926
 40
0.7634865312543434
 40
0.8031580452868511
 40
0.8426609299735649
 40
0.8898593313348432
 40
0.9948568315702829
 40
0.9999999999999999
 40
0.9999999999999999
 40
0.9999999999999999
 40
0.9999999999999999
 10
253.4459495038377
 20
84.8688968257235
 30
0.0
 10
254.7807980362295
 20
84.47099244230637
 30
0.0
 10
257.5378491351935
 20
83.6491443517091
 30
0.0
 10
261.8567582619253
 20
82.35954609187016
 30
0.0
 10
265.9037364515426
 20
81.15043665182003
 30
0.0
 10
269.6448676990007
 20
80.03267817145287
 30
0.0
 10
272.188369266647
 20
79.27304195218463
 30
0.0
 10
274.0382215819487
 20
78.72089859616972
 30
0.0
 10
275.1409948459132
 20
78.39171442458719
 30
0.0
 10
276.2778732478563
 20
78.05282974117266
 30
0.0
 10
277.5235508935372
 20
77.67820937241173
 30
0.0
 10
279.4184556813375
 20
77.11513376138839
 30
0.0
 10
281.0235638858526
 20
76.75806412585942
 30
0.0
 10
282.1600599044995
 20
76.73061399139212
 30
0.0
 10
282.2131301329123
 20
76.7293321700023
 30
0.0
  0
SPLINE
  5
1B5
330
1F
100
AcDbEntity
  8
0
  6
Continuous
 62
     7
370
    15
100
AcDbSpline
210
0.0
220
0.0
230
1.0
 70
     8
 71
     3
 72
    17
 73
    13
 74
     0
 42
0.00000001
 43
0.00000001
 40
0.0
 40
0.0
 40
0.0
 40
0.0
 40
0.0118625358745445
 40
0.1041368787325822
 40
0.1797161361012145
 40
0.2477242424328774
 40
0.3144403024687691
 40
0.3804827159333383
 40
0.4458625515600207
 40
0.660654814031373
 40
0.8678868434761259
 40
0.9999999999999999
 40
0.9999999999999999
 40
0.9999999999999999
 40
0.9999999999999999
 10
282.2096004203545
 20
121.5665927888082
 30
0.0
 10
282.0872060285273
 20
121.5621130821031
 30
0.0
 10
281.0127502735315
 20
121.5227873697225
 30
0.0
 10
279.1853580854094
 20
121.1366139911708
 30
0.0
 10
276.847440084302
 20
120.418758317044
 30
0.0
 10
274.8148619615505
 20
119.8163058133037
 30
0.0
 10
272.9209560914861
 20
119.250043321324
 30
0.0
 10
271.039109177602
 20
118.6884319238906
 30
0.0
 10
267.7580343503053
 20
117.7083724377148
 30
0.0
 10
263.1419797602038
 20
116.3293603393291
 30
0.0
 10
257.9021163277962
 20
114.7645092678715
 30
0.0
 10
254.6966994529511
 20
113.8091873103151
 30
0.0
 10
253.4487732738839
 20
113.437263368182
 30
0.0
  0
SPLINE
  5
1B6
330
1F
100
AcDbEntity
  8
0
  6
Continuous
 62
     7
370
    15
100
AcDbSpline
210
0.0
220
0.0
230
1.0
 70
     8
 71
     3
 72
    10
 73
     6
 74
     0
 42
0.00000001
 43
0.00000001
 40
0.0
 40
0.0
 40
0.0
 40
0.0
 40
0.2149389224089157
 40
0.7078085277763034
 40
1.0
 40
1.0
 40
1.0
 40
1.0
 10
334.4152570754873
 20
84.85529485952124
 30
0.0
 10
334.4858489134874
 20
84.87929858852064
 30
0.0
 10
334.7183126495477
 20
84.95834450488512
 30
0.0
 10
335.0824087088842
 20
84.96903553119387
 30
0.0
 10
335.3463216971722
 20
84.89768644695745
 30
0.0
 10
335.4445473343717
 20
84.87113106858
 30
0.0
  0
SPLINE
  5
1B7
330
1F
100
AcDbEntity
  8
0
  6
Continuous
 62
     7
370
    15
100
AcDbSpline
210
0.0
220
0.0
230
1.0
 70
     8
 71
     3
 72
    10
 73
     6
 74
     0
 42
0.00000001
 43
0.00000001
 40
0.0
 40
0.0
 40
0.0
 40
0.0
 40
0.4409753915132055
 40
0.9660154898400929
 40
1.0
 40
1.0
 40
1.0
 40
1.0
 10
253.4493916720735
 20
113.4461621553825
 30
0.0
 10
253.2971840542556
 20
113.4118214526559
 30
0.0
 10
252.9637529392465
 20
113.3365935569403
 30
0.0
 10
252.5890145301268
 20
113.3515049009679
 30
0.0
 10
252.4051041709587
 20
113.421988864604
 30
0.0
 10
252.3939237982618
 20
113.4262737618016
 30
0.0
  0
CIRCLE
  5
1B8
330
1F
100
AcDbEntity
  8
0
  6
Continuous
 62
     7
370
    15
100
AcDbCircle
 10
293.9261050016
 20
99.1525362046
 30
0.0
 40
1.949999999999986
  0
CIRCLE
  5
1B9
330
1F
100
AcDbEntity
  8
0
  6
Continuous
 62
     7
370
    15
100
AcDbCircle
 10
293.9261050016
 20
99.1525362046
 30
0.0
 40
3.499999999999989
  0
CIRCLE
  5
1BA
330
1F
100
AcDbEntity
  8
0
  6
Continuous
 62
     7
370
    15
100
AcDbCircle
 10
293.9261050016
 20
99.1525362046
 30
0.0
 40
3.636296694843724
  0
CIRCLE
  5
1BB
330
1F
100
AcDbEntity
  8
0
  6
Continuous
 62
     7
370
    15
100
AcDbCircle
 10
293.9261050016
 20
99.1525362046
 30
0.0
 40
3.863703305156274
  0
CIRCLE
  5
1BC
330
1F
100
AcDbEntity
  8
0
  6
Continuous
 62
     7
370
    15
100
AcDbCircle
 10
293.9261050016
 20
99.1525362046
 30
0.0
 40
3.999999999999982
  0
LINE
  5
1BD
330
1F
100
AcDbEntity
  8
0
  6
Continuous
 62
     7
370
    15
100
AcDbLine
 10
291.8300345593
 20
107.4931892366
 30
0.0
 11
292.3371854524
 21
105.4751412743
 31
0.0
  0
ARC
  5
1BE
330
1F
100
AcDbEntity
  8
0
  6
Continuous
 62
     7
370
    15
100
AcDbCircle
 10
290.6399596331
 20
105.048615293
 30
0.0
 40
1.750000000000024
100
AcDbArc
 50
235.1138436154
 51
14.106741573
  0
ARC
  5
1BF
330
1F
100
AcDbEntity
  8
0
  6
Continuous
 62
     7
370
    15
100
AcDbCircle
 10
288.6381427027
 20
102.1775999713
 30
0.0
 40
1.750000000000024
100
AcDbArc
 50
55.1138436154
 51
156.4376359297
  0
ARC
  5
1C0
330
1F
100
AcDbEntity
  8
0
  6
Continuous
 62
     7
370
    15
100
AcDbCircle
 10
293.9261050016
 20
99.8714813673
 30
0.0
 40
7.518945162694256
100
AcDbArc
 50
156.4376359297
 51
23.5623640703
  0
ARC
  5
1C1
330
1F
100
AcDbEntity
  8
0
  6
Continuous
 62
     7
370
    15
100
AcDbCircle
 10
299.2140673005
 20
102.1775999713
 30
0.0
 40
1.750000000000063
100
AcDbArc
 50
23.5623640703
 51
124.8861563846
  0
ARC
  5
1C2
330
1F
100
AcDbEntity
  8
0
  6
Continuous
 62
     7
370
    15
100
AcDbCircle
 10
297.2122503702
 20
105.048615293
 30
0.0
 40
1.750000000000024
100
AcDbArc
 50
165.893258427
 51
304.8861563846
  0
LINE
  5
1C3
330
1F
100
AcDbEntity
  8
0
  6
Continuous
 62
     7
370
    15
100
AcDbLine
 10
295.5150245509
 20
105.4751412743
 30
0.0
 11
296.022175444
 21
107.4931892366
 31
0.0
  0
CIRCLE
  5
1C4
330
1F
100
AcDbEntity
  8
0
  6
Continuous
 62
     7
370
    15
100
AcDbCircle
 10
297.2122503702
 20
105.048615293
 30
0.0
 40
0.8500000000000227
  0
CIRCLE
  5
1C5
330
1F
100
AcDbEntity
  8
0
  6
Continuous
 62
     7
370
    15
100
AcDbCircle
 10
290.6399596331
 20
105.048615293
 30
0.0
 40
0.8499999999999659
  0
CIRCLE
  5
1C6
330
1F
100
AcDbEntity
  8
0
  6
Continuous
 62
     7
370
    15
100
AcDbCircle
 10
293.9261050016
 20
99.1525362046
 30
0.0
 40
5.0
  0
ARC
  5
1C7
330
1F
100
AcDbEntity
  8
0
  6
Continuous
 62
     7
370
    15
100
AcDbCircle
 10
293.9261050016
 20
99.1525362046
 30
0.0
 40
8.500000000000014
100
AcDbArc
 50
75.893258427
 51
104.106741573
  0
CIRCLE
  5
1C8
330
1F
100
AcDbEntity
  8
0
  6
Continuous
 62
     7
370
    15
100
AcDbCircle
 10
293.9261050016
 20
99.1525362046
 30
0.0
 40
4.009999999999991
  0
CIRCLE
  5
1C9
330
1F
100
AcDbEntity
  8
0
  6
Continuous
 62
     7
370
    15
100
AcDbCircle
 10
293.9261050016
 20
99.1525362046
 30
0.0
 40
8.600000000000009
  0
ARC
  5
1CA
330
1F
100
AcDbEntity
  8
0
  6
Continuous
 62
     7
370
    15
100
AcDbCircle
 10
293.9261050016
 20
99.1525362046
 30
0.0
 40
14.98000000000001
100
AcDbArc
 50
216.7677811019
 51
323.2322188981
  0
LINE
  5
1CB
330
1F
100
AcDbEntity
  8
0
  6
Continuous
 62
     7
370
    15
100
AcDbLine
 10
281.9261048973
 20
90.1859096051
 30
0.0
 11
281.9261048973
 21
108.119162804
 31
0.0
  0
ARC
  5
1CC
330
1F
100
AcDbEntity
  8
0
  6
Continuous
 62
     7
370
    15
100
AcDbCircle
 10
293.9261050016
 20
99.1525362046
 30
0.0
 40
14.98
100
AcDbArc
 50
36.7677811019
 51
143.2322188981
  0
LINE
  5
1CD
330
1F
100
AcDbEntity
  8
0
  6
Continuous
 62
     7
370
    15
100
AcDbLine
 10
305.9261051059
 20
108.119162804
 30
0.0
 11
305.9261051059
 21
90.1859096051
 31
0.0
  0
ARC
  5
1CE
330
1F
100
AcDbEntity
  8
0
  6
Continuous
 62
     7
370
    15
100
AcDbCircle
 10
293.9261050016
 20
99.1525362046
 30
0.0
 40
14.98000000000001
100
AcDbArc
 50
323.2322188981
 51
36.7677811019
  0
ARC
  5
1CF
330
1F
100
AcDbEntity
  8
0
  6
Continuous
 62
     7
370
    15
100
AcDbCircle
 10
293.9261050016
 20
99.1525362046
 30
0.0
 40
14.98000000000001
100
AcDbArc
 50
143.2322188981
 51
216.7677811019
  0
CIRCLE
  5
1D0
330
1F
100
AcDbEntity
  8
0
  6
Continuous
 62
     7
370
    15
100
AcDbCircle
 10
293.9261050016
 20
99.1525362046
 30
0.0
 40
14.99999999999991
  0
ARC
  5
1D1
330
1F
100
AcDbEntity
  8
0
  6
Continuous
 62
     7
370
    15
100
AcDbCircle
 10
293.9261050016
 20
74.1525362046
 30
0.0
 40
10.00000000000002
100
AcDbArc
 50
201.1001960241
 51
338.8998039759
  0
LINE
  5
1D2
330
1F
100
AcDbEntity
  8
0
  6
Continuous
 62
     7
370
    15
100
AcDbLine
 10
276.200011471
 20
92.3125362755
 30
0.0
 11
284.5965820417
 21
70.5525363595
 31
0.0
  0
ARC
  5
1D3
330
1F
100
AcDbEntity
  8
0
  6
Continuous
 62
     7
370
    15
100
AcDbCircle
 10
293.9261050016
 20
99.1525362046
 30
0.0
 40
19.00000000000005
100
AcDbArc
 50
158.8998039759
 51
201.1001960241
  0
LINE
  5
1D4
330
1F
100
AcDbEntity
  8
0
  6
Continuous
 62
     7
370
    15
100
AcDbLine
 10
284.5965820417
 20
127.7525360496
 30
0.0
 11
276.200011471
 21
105.9925361336
 31
0.0
  0
ARC
  5
1D5
330
1F
100
AcDbEntity
  8
0
  6
Continuous
 62
     7
370
    15
100
AcDbCircle
 10
293.9261050016
 20
124.1525362046
 30
0.0
 40
10.00000000000002
100
AcDbArc
 50
21.1001960241
 51
158.8998039759
  0
LINE
  5
1D6
330
1F
100
AcDbEntity
  8
0
  6
Continuous
 62
     7
370
    15
100
AcDbLine
 10
311.6521985323
 20
105.9925361336
 30
0.0
 11
303.2556279615
 21
127.7525360496
 31
0.0
  0
ARC
  5
1D7
330
1F
100
AcDbEntity
  8
0
  6
Continuous
 62
     7
370
    15
100
AcDbCircle
 10
293.9261050016
 20
99.1525362046
 30
0.0
 40
18.99999999999995
100
AcDbArc
 50
338.8998039759
 51
21.1001960241
  0
LINE
  5
1D8
330
1F
100
AcDbEntity
  8
0
  6
Continuous
 62
     7
370
    15
100
AcDbLine
 10
303.2556279615
 20
70.5525363595
 30
0.0
 11
311.6521985323
 21
92.3125362755
 31
0.0
  0
CIRCLE
  5
1D9
330
1F
100
AcDbEntity
  8
0
  6
Continuous
 62
     7
370
    15
100
AcDbCircle
 10
293.9261050016
 20
74.1525362046
 30
0.0
 40
3.399999999999991
  0
CIRCLE
  5
1DA
330
1F
100
AcDbEntity
  8
0
  6
Continuous
 62
     7
370
    15
100
AcDbCircle
 10
293.9261050016
 20
124.1525362046
 30
0.0
 40
3.399999999999991
  0
LINE
  5
1DB
330
1F
100
AcDbEntity
  8
0
  6
Continuous
 62
     7
370
    15
100
AcDbLine
 10
240.9261056275
 20
139.1525353105
 30
0.0
 11
240.9261056275
 21
59.1525370986
 31
0.0
  0
LINE
  5
1DC
330
1F
100
AcDbEntity
  8
0
  6
Continuous
 62
     7
370
    15
100
AcDbLine
 10
230.9261039883
 20
139.1525353105
 30
0.0
 11
230.9261039883
 21
59.1525370986
 31
0.0
  0
LINE
  5
1DD
330
1F
100
AcDbEntity
  8
0
  6
Continuous
 62
     7
370
    15
100
AcDbLine
 10
346.9261043758
 20
139.1525353105
 30
0.0
 11
346.9261043758
 21
59.1525370986
 31
0.0
  0
LINE
  5
1DE
330
1F
100
AcDbEntity
  8
0
  6
Continuous
 62
     7
370
    15
100
AcDbLine
 10
356.9261060149
 20
139.1525353105
 30
0.0
 11
356.9261060149
 21
59.1525370986
 31
0.0
  0
SPLINE
  5
1DF
330
1F
100
AcDbEntity
  8
0
  6
Continuous
 62
     7
370
    15
100
AcDbSpline
210
0.0
220
0.0
230
1.0
 70
     8
 71
     3
 72
    12
 73
     8
 74
     0
 42
0.00000001
 43
0.00000001
 40
0.0
 40
0.0
 40
0.0
 40
0.0
 40
0.4999999999999998
 40
0.4999999999999998
 40
0.7499999999999999
 40
0.7499999999999999
 40
1.0
 40
1.0
 40
1.0
 40
1.0
 10
310.3349617891165
 20
112.6566429831549
 30
0.0
 10
310.4177239465018
 20
112.5248492042636
 30
0.0
 10
310.5028549787824
 20
112.3944940407719
 30
0.0
 10
310.6319887893888
 20
112.1999389386546
 30
0.0
 10
310.6752468724042
 20
112.1352204008939
 30
0.0
 10
310.7619268903118
 20
112.005874169656
 30
0.0
 10
310.8065416227574
 20
111.9420348598188
 30
0.0
 10
310.8487370546287
 20
111.876587385943
 30
0.0
  0
SPLINE
  5
1E0
330
1F
100
AcDbEntity
  8
0
  6
Continuous
 62
     7
370
    15
100
AcDbSpline
210
0.0
220
0.0
230
1.0
 70
     8
 71
     3
 72
    43
 73
    39
 74
     0
 42
0.00000001
 43
0.00000001
 40
0.0
 40
0.0
 40
0.0
 40
0.0
 40
0.0624999999999999
 40
0.0624999999999999
 40
0.1249999999999998
 40
0.1249999999999998
 40
0.1874999999999996
 40
0.1874999999999996
 40
0.2187499999999996
 40
0.2187499999999996
 40
0.2499999999999995
 40
0.2499999999999995
 40
0.3749999999999997
 40
0.3749999999999997
 40
0.4374999999999997
 40
0.4374999999999997
 40
0.4999999999999998
 40
0.4999999999999998
 40
0.6249999999999999
 40
0.6249999999999999
 40
0.6875
 40
0.6875
 40
0.75
 40
0.75
 40
0.78125
 40
0.78125
 40
0.8124999999999999
 40
0.8124999999999999
 40
0.8749999999999999
 40
0.8749999999999999
 40
0.9374999999999999
 40
0.9374999999999999
 40
0.9687499999999999
 40
0.9687499999999999
 40
0.9843749999999998
 40
0.9921874999999999
 40
0.9921874999999999
 40
1.0
 40
1.0
 40
1.0
 40
1.0
 10
310.8487370546287
 20
111.876587385943
 30
0.0
 10
311.155704785971
 20
111.4006550582487
 30
0.0
 10
311.4444957927747
 20
110.9128781884092
 30
0.0
 10
311.9844042475286
 20
109.9159995524652
 30
0.0
 10
312.2324769318461
 20
109.4072123249613
 30
0.0
 10
312.7086865579197
 20
108.3802659634195
 30
0.0
 10
312.9342648033232
 20
107.8610239368314
 30
0.0
 10
313.2759375581678
 20
107.0833280817754
 30
0.0
 10
313.3921919378606
 20
106.8247879298407
 30
0.0
 10
313.6088783660758
 20
106.3030799848191
 30
0.0
 10
313.7118339111368
 20
106.0406504635669
 30
0.0
 10
314.1993615501911
 20
104.7205352382892
 30
0.0
 10
314.5027430714482
 20
103.6391103441311
 30
0.0
 10
314.8144636182673
 20
101.9750830370774
 30
0.0
 10
314.8946047999565
 20
101.4103834871553
 30
0.0
 10
315.0014676596293
 20
100.2816176309429
 30
0.0
 10
315.0283947141371
 20
99.71917421934087
 30
0.0
 10
315.0289838580438
 20
98.03773816723091
 30
0.0
 10
314.9231647019114
 20
96.92458794688619
 30
0.0
 10
314.6163462899136
 20
95.26564675475916
 30
0.0
 10
314.4888443234449
 20
94.7130627307706
 30
0.0
 10
314.1861101814765
 20
93.61786247254932
 30
0.0
 10
314.0118958953639
 20
93.07848093069485
 30
0.0
 10
313.7182538611841
 20
92.28106625637814
 30
0.0
 10
313.6149734295342
 20
92.01720900234758
 30
0.0
 10
313.3978195884688
 20
91.49332069838285
 30
0.0
 10
313.2814730836653
 20
91.23422342019794
 30
0.0
 10
312.9387116243445
 20
90.45440324357179
 30
0.0
 10
312.7125193963058
 20
89.93333669985132
 30
0.0
 10
312.235354186116
 20
88.90380384679597
 30
0.0
 10
311.9869387662951
 20
88.39403378734713
 30
0.0
 10
311.5819484995587
 20
87.64584609938416
 30
0.0
 10
311.4421196970574
 20
87.39890822280213
 30
0.0
 10
311.2250956908409
 20
87.03220471145957
 30
0.0
 10
311.114758512925
 20
86.8497813178449
 30
0.0
 10
311.0016693746276
 20
86.668757629125
 30
0.0
 10
310.9256634012456
 20
86.54838705738815
 30
0.0
 10
310.8882039382999
 20
86.48727107346825
 30
0.0
 10
310.8487370546281
 20
86.4284850231939
 30
0.0
  0
SPLINE
  5
1E1
330
1F
100
AcDbEntity
  8
0
  6
Continuous
 62
     7
370
    15
100
AcDbSpline
210
0.0
220
0.0
230
1.0
 70
     8
 71
     3
 72
    18
 73
    14
 74
     0
 42
0.00000001
 43
0.00000001
 40
0.0
 40
0.0
 40
0.0
 40
0.0
 40
0.5000000000000054
 40
0.5000000000000054
 40
0.750000000000008
 40
0.750000000000008
 40
0.8750000000000087
 40
0.8750000000000087
 40
0.9375000000000068
 40
0.9375000000000068
 40
0.9687500000000034
 40
0.9687500000000034
 40
1.0
 40
1.0
 40
1.0
 40
1.0
 10
310.8487370546281
 20
86.4284850231939
 30
0.0
 10
310.7619664876769
 20
86.2991849822791
 30
0.0
 10
310.6750333929219
 20
86.16998517118805
 30
0.0
 10
310.5458995823432
 20
85.97543006911232
 30
0.0
 10
310.5030819859376
 20
85.91043646402044
 30
0.0
 10
310.4394584075819
 20
85.81255825939607
 30
0.0
 10
310.4183558331952
 20
85.77986443231809
 30
0.0
 10
310.3869285097686
 20
85.73067676558898
 30
0.0
 10
310.3764892327785
 20
85.71425720367093
 30
0.0
 10
310.360886751179
 20
85.68959114869797
 30
0.0
 10
310.3556923483023
 20
85.68136494535563
 30
0.0
 10
310.3453169176259
 20
85.66490380707766
 30
0.0
 10
310.3415847835091
 20
85.65575979660282
 30
0.0
 10
310.3349617891153
 20
85.6484294259828
 30
0.0
  0
LINE
  5
1E2
330
1F
100
AcDbEntity
  8
0
  6
Continuous
 62
     7
370
    15
100
AcDbLine
 10
334.9260875077
 20
101.0460527181
 30
0.0
 11
334.9108957738
 21
101.0467747259
 31
0.0
  0
LINE
  5
1E3
330
1F
100
AcDbEntity
  8
0
  6
Continuous
 62
     7
370
    15
100
AcDbLine
 10
358.9261026174
 20
119.1525357575
 30
0.0
 11
358.9261026174
 21
79.1525366516
 31
0.0
  0
LINE
  5
1E4
330
1F
100
AcDbEntity
  8
0
  6
Continuous
 62
     7
370
    15
100
AcDbLine
 10
228.9261073858
 20
119.1525357575
 30
0.0
 11
228.9261073858
 21
79.1525366516
 31
0.0
  0
SPLINE
  5
1E5
330
1F
100
AcDbEntity
  8
0
  6
Continuous
 62
     7
370
    15
100
AcDbSpline
210
0.0
220
0.0
230
1.0
 70
     8
 71
     3
 72
     8
 73
     4
 74
     0
 42
0.00000001
 43
0.00000001
 40
0.0
 40
0.0
 40
0.0
 40
0.0
 40
1.0
 40
1.0
 40
1.0
 40
1.0
 10
252.9261050016271
 20
100.603582348643
 30
0.0
 10
252.9234893140697
 20
100.6036861835115
 30
0.0
 10
252.9208734260188
 20
100.6037900222597
 30
0.0
 10
252.9182573404963
 20
100.6038938648881
 30
0.0
  0
SPLINE
  5
1E6
330
1F
100
AcDbEntity
  8
0
  6
Continuous
 62
     7
370
    15
100
AcDbSpline
210
0.0
220
0.0
230
1.0
 70
     8
 71
     3
 72
    11
 73
     7
 74
     0
 42
0.00000001
 43
0.00000001
 40
-0.00000006
 40
-0.00000006
 40
-0.00000006
 40
-0.00000006
 40
0.0
 40
0.0
 40
0.0
 40
0.0004393540358001
 40
0.0004393540358001
 40
0.0004393540358001
 40
0.0004393540358001
 10
273.1563265621056
 20
111.7718683909
 30
0.0
 10
273.1563405541867
 20
111.7718813626324
 30
0.0
 10
273.1563545462841
 20
111.7718943343579
 30
0.0
 10
273.1563685383977
 20
111.7719073060538
 30
0.0
 10
273.2588267310646
 20
111.8668934218752
 30
0.0
 10
273.3621606837709
 20
111.9607037134426
 30
0.0
 10
273.4663265751632
 20
112.053348743724
 30
0.0
  0
SPLINE
  5
1E7
330
1F
100
AcDbEntity
  8
0
  6
Continuous
 62
     7
370
    15
100
AcDbSpline
210
0.0
220
0.0
230
1.0
 70
     8
 71
     3
 72
    39
 73
    35
 74
     0
 42
0.00000001
 43
0.00000001
 40
0.0
 40
0.0
 40
0.0
 40
0.0
 40
0.125
 40
0.125
 40
0.2499999999999999
 40
0.2499999999999999
 40
0.3125
 40
0.3125
 40
0.375
 40
0.375
 40
0.4375000000000001
 40
0.4375000000000001
 40
0.5000000000000002
 40
0.5000000000000002
 40
0.5625000000000003
 40
0.5625000000000003
 40
0.6250000000000004
 40
0.6250000000000004
 40
0.6875000000000004
 40
0.6875000000000004
 40
0.7500000000000003
 40
0.7500000000000003
 40
0.8750000000000002
 40
0.8750000000000002
 40
0.9375
 40
0.9375
 40
0.9687499999999998
 40
0.9687499999999998
 40
0.9843749999999999
 40
0.9921875
 40
0.99609375
 40
0.998046875
 40
0.998046875
 40
1.0
 40
1.0
 40
1.0
 40
1.0
 10
273.1563265621061
 20
86.5332040182379
 30
0.0
 10
272.4044580570535
 20
87.40628767582515
 30
0.0
 10
271.7053385992048
 20
88.31815795939227
 30
0.0
 10
270.4504077234055
 20
90.22196521198055
 30
0.0
 10
269.8923885519436
 20
91.21645602202359
 30
0.0
 10
269.185638688657
 20
92.80365006401195
 30
0.0
 10
268.9711630900692
 20
93.34965077735464
 30
0.0
 10
268.5964683505473
 20
94.46196276441964
 30
0.0
 10
268.4352335908483
 20
95.02999745488306
 30
0.0
 10
268.1707589333457
 20
96.19436156838236
 30
0.0
 10
268.0692797585621
 20
96.78362430652557
 30
0.0
 10
267.9326311956495
 20
97.97001232323055
 30
0.0
 10
267.8971349423934
 20
98.56829655766134
 30
0.0
 10
267.898736725635
 20
99.7765343539216
 30
0.0
 10
267.9365983543603
 20
100.3884251130445
 30
0.0
 10
268.0793654514229
 20
101.5880976891671
 30
0.0
 10
268.1831617237621
 20
102.1736572122623
 30
0.0
 10
268.4477493529283
 20
103.3210029039348
 30
0.0
 10
268.608601171495
 20
103.8827537880918
 30
0.0
 10
268.9827107791309
 20
104.9858371463508
 30
0.0
 10
269.1971525092042
 20
105.5294683660769
 30
0.0
 10
269.9067111600892
 20
107.116226377213
 30
0.0
 10
270.4647621644794
 20
108.1067213698804
 30
0.0
 10
271.40200718975
 20
109.525799799342
 30
0.0
 10
271.7312533536081
 20
109.987632022001
 30
0.0
 10
272.2484554800224
 20
110.6665554642726
 30
0.0
 10
272.4247584077739
 20
110.8905456492449
 30
0.0
 10
272.6948655331797
 20
111.2233681958799
 30
0.0
 10
272.8313375498722
 20
111.3889850367424
 30
0.0
 10
272.9930154778406
 20
111.5808646115965
 30
0.0
 10
273.0744674894769
 20
111.6764749383265
 30
0.0
 10
273.109506652263
 20
111.7173807724169
 30
0.0
 10
273.1328952187047
 20
111.7446358307676
 30
0.0
 10
273.1430299784016
 20
111.7593410699617
 30
0.0
 10
273.1563265621056
 20
111.7718683909
 30
0.0
  0
SPLINE
  5
1E8
330
1F
100
AcDbEntity
  8
0
  6
Continuous
 62
     7
370
    15
100
AcDbSpline
210
0.0
220
0.0
230
1.0
 70
     8
 71
     3
 72
    11
 73
     7
 74
     0
 42
0.00000001
 43
0.00000001
 40
0.0
 40
0.0
 40
0.0
 40
0.0
 40
0.0004393543801028
 40
0.0004393543801028
 40
0.0004393543801028
 40
0.0004394140357798
 40
0.0004394140357798
 40
0.0004394140357798
 40
0.0004394140357798
 10
273.4663265751627
 20
86.25172366541476
 30
0.0
 10
273.3621606021402
 20
86.34436876829808
 30
0.0
 10
273.2588265691026
 20
86.43817913429781
 30
0.0
 10
273.1563682975076
 20
86.53316532640666
 30
0.0
 10
273.156354385691
 20
86.53317822366193
 30
0.0
 10
273.1563389360314
 20
86.53318991752711
 30
0.0
 10
273.1563265621061
 20
86.5332040182379
 30
0.0
  0
ARC
  5
1E9
330
1F
100
AcDbEntity
  8
0
  6
Continuous
 62
     7
370
    15
100
AcDbCircle
 10
293.9261050016
 20
99.1525362046
 30
0.0
 40
40.00000000000004
100
AcDbArc
 50
270.0
 51
337.4175326446
  0
ARC
  5
1EA
330
1F
100
AcDbEntity
  8
0
  6
Continuous
 62
     7
370
    15
100
AcDbCircle
 10
293.9261050016
 20
99.1525362046
 30
0.0
 40
40.00000000000011
100
AcDbArc
 50
22.6131952893
 51
157.3603129979
  0
ARC
  5
1EB
330
1F
100
AcDbEntity
  8
0
  6
Continuous
 62
     7
370
    15
100
AcDbCircle
 10
293.9261050016
 20
99.1525362046
 30
0.0
 40
40.00000000000004
100
AcDbArc
 50
202.6461980857
 51
270.0
  0
LWPOLYLINE
  5
1EC
330
1F
100
AcDbEntity
  8
0
  6
Continuous
 62
     8
370
    15
100
AcDbPolyline
 90
        5
 70
   128
 43
0.0
 10
308.4120565147
 20
114.3894755081
 10
308.7982424588
 20
114.1119832904
 10
310.3349228442
 20
112.6566865281
 10
310.3349619598
 20
112.656642756
 10
310.3349619598
 20
112.656642756
  0
SPLINE
  5
1ED
330
1F
100
AcDbEntity
  8
0
  6
Continuous
 62
     8
370
    15
100
AcDbSpline
210
0.0
220
0.0
230
1.0
 70
     8
 71
     3
 72
    10
 73
     6
 74
     0
 42
0.00000001
 43
0.00000001
 40
0.0
 40
0.0
 40
0.0
 40
0.0
 40
0.0000232173873073
 40
0.2978636134615254
 40
0.9999999999999999
 40
0.9999999999999999
 40
0.9999999999999999
 40
0.9999999999999999
 10
310.334961959778
 20
85.6484296531604
 30
0.0
 10
310.3349483003869
 20
85.64841475199405
 30
0.0
 10
310.1597074129739
 20
85.45724271360052
 30
0.0
 10
309.5601437286692
 20
84.823999975562
 30
0.0
 10
308.8814005528105
 20
84.27930208443814
 30
0.0
 10
308.4048192069517
 20
83.89684099566206
 30
0.0
  0
ARC
  5
1EE
330
1F
100
AcDbEntity
  8
0
  6
Continuous
 62
     8
370
    15
100
AcDbCircle
 10
293.9261050016
 20
99.1525362046
 30
0.0
 40
19.75928602329727
100
AcDbArc
 50
142.9646845111
 51
217.0353154889
  0
ARC
  5
1EF
330
1F
100
AcDbEntity
  8
0
  6
Continuous
 62
     8
370
    15
100
AcDbCircle
 10
293.9261050016
 20
99.1525362046
 30
0.0
 40
21.38904116703624
100
AcDbArc
 50
131.5608701043
 51
228.4391298957
  0
SPLINE
  5
1F0
330
1F
100
AcDbEntity
  8
0
  6
Continuous
 62
     8
370
    15
100
AcDbSpline
210
0.0
220
0.0
230
1.0
 70
     8
 71
     3
 72
    10
 73
     6
 74
     0
 42
0.00000001
 43
0.00000001
 40
0.0
 40
0.0
 40
0.0
 40
0.0
 40
0.5417822646848218
 40
0.8228101417727159
 40
1.0
 40
1.0
 40
1.0
 40
1.0
 10
273.4663263947355
 20
112.0533487559484
 30
0.0
 10
274.1826656608944
 20
112.665295510644
 30
0.0
 10
275.2705772659164
 20
113.5946651648562
 30
0.0
 10
276.8195234723251
 20
114.3564828672435
 30
0.0
 10
277.5690915441681
 20
114.7046935296101
 30
0.0
 10
277.8589447081672
 20
114.8393443585561
 30
0.0
  0
SPLINE
  5
1F1
330
1F
100
AcDbEntity
  8
0
  6
Continuous
 62
     8
370
    15
100
AcDbSpline
210
0.0
220
0.0
230
1.0
 70
     8
 71
     3
 72
    10
 73
     6
 74
     0
 42
0.00000001
 43
0.00000001
 40
0.0
 40
0.0
 40
0.0
 40
0.0
 40
0.1715725490663883
 40
0.4427763677743365
 40
1.0
 40
1.0
 40
1.0
 40
1.0
 10
277.8762766212808
 20
83.45602739464505
 30
0.0
 10
277.5941047255974
 20
83.58628614839657
 30
0.0
 10
276.8659052103571
 20
83.92244422362914
 30
0.0
 10
275.3054364660766
 20
84.68072734935959
 30
0.0
 10
274.2059033390835
 20
85.61996557406549
 30
0.0
 10
273.4663263947355
 20
86.25172365318998
 30
0.0
  0
ARC
  5
1F2
330
1F
100
AcDbEntity
  8
0
  6
Continuous
 62
     8
370
    15
100
AcDbCircle
 10
278.3910020517
 20
117.8635717597
 30
0.0
 40
7.61650324492945
100
AcDbArc
 50
229.7157876299
 51
242.4419547314
  0
ARC
  5
1F3
330
1F
100
AcDbEntity
  8
0
  6
Continuous
 62
     8
370
    15
100
AcDbCircle
 10
278.3910020517
 20
80.4415006494
 30
0.0
 40
7.61650324492945
100
AcDbArc
 50
117.5580452686
 51
130.2842123701
  0
LINE
  5
1F4
330
1F
100
AcDbEntity
  8
1
100
AcDbLine
 10
334.9167491737
 20
113.3577460229
 30
0.0
 11
334.9167491737
 21
84.9472959538
 31
0.0
  0
LINE
  5
1F5
330
1F
100
AcDbEntity
  8
1
100
AcDbLine
 10
266.506589695
 20
117.3362614018
 30
0.0
 11
266.5218175761
 21
117.340809864
 31
0.0
  0
LINE
  5
1F6
330
1F
100
AcDbEntity
  8
1
100
AcDbLine
 10
280.9327330919
 20
121.4377104591
 30
0.0
 11
278.4730019966
 21
120.9084907479
 31
0.0
  0
LINE
  5
1F7
330
1F
100
AcDbEntity
  8
1
100
AcDbLine
 10
308.1394528631
 20
121.2160470531
 30
0.0
 11
318.8473416705
 21
118.082596785
 31
0.0
  0
LINE
  5
1F8
330
1F
100
AcDbEntity
  8
1
100
AcDbLine
 10
308.4926428973
 20
77.1681336767
 30
0.0
 11
318.8473416706
 21
80.222475623
 31
0.0
  0
LINE
  5
1F9
330
1F
100
AcDbEntity
  8
1
100
AcDbLine
 10
267.8889301087
 20
80.5558548772
 30
0.0
 11
279.3595620052
 21
77.1681238751
 31
0.0
  0
LINE
  5
1FA
330
1F
100
AcDbEntity
  8
1
100
AcDbLine
 10
279.7028675443
 20
121.1731006035
 30
0.0
 11
267.8887726239
 21
117.7491697295
 31
0.0
  0
ARC
  5
1FB
330
1F
100
AcDbEntity
  8
1
100
AcDbCircle
 10
313.3715414843
 20
118.5979726872
 30
0.0
 40
5.500000000000007
100
AcDbArc
 50
354.623227438
 51
152.7546466521
  0
ARC
  5
1FC
330
1F
100
AcDbEntity
  8
1
100
AcDbCircle
 10
274.480668519
 20
118.5979726872
 30
0.0
 40
5.500000000000006
100
AcDbArc
 50
26.8467860392
 51
185.4782352374
  0
ARC
  5
1FD
330
1F
100
AcDbEntity
  8
1
100
AcDbCircle
 10
274.480668519
 20
79.7070997219
 30
0.0
 40
5.500000000000003
100
AcDbArc
 50
174.584558616
 51
332.5075340829
  0
ARC
  5
1FE
330
1F
100
AcDbEntity
  8
1
100
AcDbCircle
 10
313.3715414843
 20
79.7070997219
 30
0.0
 40
5.500000000000013
100
AcDbArc
 50
207.4923508107
 51
5.3767725505
  0
LINE
  5
1FF
330
1F
100
AcDbEntity
  8
0
  6
Continuous
 62
     7
370
    15
100
AcDbLine
 10
117.8704483429
 20
303.6939711562
 30
0.0
 11
117.8704483429
 21
305.8985844506
 31
0.0
  0
LINE
  5
200
330
1F
100
AcDbEntity
  8
0
  6
Continuous
 62
     7
370
    15
100
AcDbLine
 10
117.8704483429
 20
354.5892811632
 30
0.0
 11
117.8704483429
 21
380.1966435528
 31
0.0
  0
LINE
  5
201
330
1F
100
AcDbEntity
  8
0
  6
Continuous
 62
     7
370
    15
100
AcDbLine
 10
109.8704479629
 20
380.1966435528
 30
0.0
 11
109.8704479629
 21
354.5892811632
 31
0.0
  0
LINE
  5
202
330
1F
100
AcDbEntity
  8
0
  6
Continuous
 62
     7
370
    15
100
AcDbLine
 10
109.8704479629
 20
305.899991679
 30
0.0
 11
109.8704479629
 21
303.6892181514
 31
0.0
  0
ARC
  5
203
330
1F
100
AcDbEntity
  8
0
  6
Continuous
 62
     7
370
    15
100
AcDbCircle
 10
113.8704481529
 20
380.1966460671
 30
0.0
 40
4.0
100
AcDbArc
 50
165.0
 51
180.0
  0
ARC
  5
204
330
1F
100
AcDbEntity
  8
0
  6
Continuous
 62
     7
370
    15
100
AcDbCircle
 10
113.8704481529
 20
380.1966460671
 30
0.0
 40
4.0
100
AcDbArc
 50
0.0
 51
15.0
  0
LINE
  5
205
330
1F
100
AcDbEntity
  8
0
  6
Continuous
 62
     7
370
    15
100
AcDbLine
 10
117.7341513796
 20
381.2319240784
 30
0.0
 11
117.5067447586
 21
382.0806122637
 31
0.0
  0
LINE
  5
206
330
1F
100
AcDbEntity
  8
0
  6
Continuous
 62
     7
370
    15
100
AcDbLine
 10
110.2341515472
 20
382.0806122637
 30
0.0
 11
110.0067449262
 21
381.2319240784
 31
0.0
  0
ARC
  5
207
330
1F
100
AcDbEntity
  8
0
  6
Continuous
 62
     7
370
    15
100
AcDbCircle
 10
121.3704481529
 20
383.1158914516
 30
0.0
 40
4.000000000000014
100
AcDbArc
 50
180.0
 51
195.0
  0
ARC
  5
208
330
1F
100
AcDbEntity
  8
0
  6
Continuous
 62
     7
370
    15
100
AcDbCircle
 10
106.3704481529
 20
383.1158914516
 30
0.0
 40
4.0
100
AcDbArc
 50
345.0
 51
0.0
  0
LINE
  5
209
330
1F
100
AcDbEntity
  8
0
  6
Continuous
 62
     7
370
    15
100
AcDbLine
 10
117.3704482609
 20
383.1158927893
 30
0.0
 11
117.3704482609
 21
386.0892779445
 31
0.0
  0
LINE
  5
20A
330
1F
100
AcDbEntity
  8
0
  6
Continuous
 62
     7
370
    15
100
AcDbLine
 10
110.3704480449
 20
386.0892779445
 30
0.0
 11
110.3704480449
 21
383.1158927893
 31
0.0
  0
LINE
  5
20B
330
1F
100
AcDbEntity
  8
0
  6
Continuous
 62
     7
370
    15
100
AcDbLine
 10
117.3704482609
 20
402.0392797208
 30
0.0
 11
117.3704482609
 21
404.0392837739
 31
0.0
  0
LINE
  5
20C
330
1F
100
AcDbEntity
  8
0
  6
Continuous
 62
     7
370
    15
100
AcDbLine
 10
110.3704480449
 20
404.0392837739
 30
0.0
 11
110.3704480449
 21
402.0392797208
 31
0.0
  0
LINE
  5
20D
330
1F
100
AcDbEntity
  8
0
  6
Continuous
 62
     7
370
    15
100
AcDbLine
 10
117.3704482609
 20
404.0392837739
 30
0.0
 11
115.8204481
 21
405.5892802095
 31
0.0
  0
LINE
  5
20E
330
1F
100
AcDbEntity
  8
0
  6
Continuous
 62
     7
370
    15
100
AcDbLine
 10
111.9204482058
 20
405.5892802095
 30
0.0
 11
110.3704480449
 21
404.0392837739
 31
0.0
  0
LINE
  5
20F
330
1F
100
AcDbEntity
  8
0
  6
Continuous
 62
     7
370
    15
100
AcDbLine
 10
117.3704482609
 20
389.0892840242
 30
0.0
 11
117.3704482609
 21
398.9892802453
 31
0.0
  0
LINE
  5
210
330
1F
100
AcDbEntity
  8
0
  6
Continuous
 62
     7
370
    15
100
AcDbLine
 10
110.3704480449
 20
398.9892802453
 30
0.0
 11
110.3704480449
 21
389.0892840242
 31
0.0
  0
LINE
  5
211
330
1F
100
AcDbEntity
  8
0
  6
Continuous
 62
     7
370
    15
100
AcDbLine
 10
116.870448179
 20
386.0892779445
 30
0.0
 11
116.870448179
 21
389.0892840242
 31
0.0
  0
LINE
  5
212
330
1F
100
AcDbEntity
  8
0
  6
Continuous
 62
     7
370
    15
100
AcDbLine
 10
110.8704481268
 20
389.0892840242
 30
0.0
 11
110.8704481268
 21
386.0892779445
 31
0.0
  0
LINE
  5
213
330
1F
100
AcDbEntity
  8
0
  6
Continuous
 62
     7
370
    15
100
AcDbLine
 10
115.8204481
 20
398.9892802453
 30
0.0
 11
115.8204481
 21
402.0392797208
 31
0.0
  0
LINE
  5
214
330
1F
100
AcDbEntity
  8
0
  6
Continuous
 62
     7
370
    15
100
AcDbLine
 10
111.9204482058
 20
402.0392797208
 30
0.0
 11
111.9204482058
 21
398.9892802453
 31
0.0
  0
LINE
  5
215
330
1F
100
AcDbEntity
  8
0
  6
Continuous
 62
     7
370
    15
100
AcDbLine
 10
128.8504485967
 20
341.589280895
 30
0.0
 11
128.8504485967
 21
354.5892811632
 31
0.0
  0
LINE
  5
216
330
1F
100
AcDbEntity
  8
0
  6
Continuous
 62
     7
370
    15
100
AcDbLine
 10
98.8904477091
 20
354.5892811632
 30
0.0
 11
98.8904477091
 21
341.589280895
 31
0.0
  0
SPLINE
  5
217
330
1F
100
AcDbEntity
  8
0
  6
Continuous
 62
     7
370
    15
100
AcDbSpline
210
0.0
220
0.0
230
1.0
 70
     8
 71
     3
 72
     9
 73
     5
 74
     0
 42
0.00000001
 43
0.00000001
 40
0.0
 40
0.0
 40
0.0
 40
0.0
 40
0.06264965034398
 40
0.9999999999999999
 40
0.9999999999999999
 40
0.9999999999999999
 40
0.9999999999999999
 10
121.3084326120044
 20
300.1839071181806
 30
0.0
 10
121.3070907046328
 20
300.1658307754563
 30
0.0
 10
121.2856714730135
 20
299.8773001511822
 30
0.0
 10
121.2047151843065
 20
299.5876959788112
 30
0.0
 10
121.1288307787801
 20
299.3162354065774
 30
0.0
  0
SPLINE
  5
218
330
1F
100
AcDbEntity
  8
0
  6
Continuous
 62
     7
370
    15
100
AcDbSpline
210
0.0
220
0.0
230
1.0
 70
     8
 71
     3
 72
    11
 73
     7
 74
     0
 42
0.00000001
 43
0.00000001
 40
0.0
 40
0.0
 40
0.0
 40
0.0
 40
0.2142790361287482
 40
0.4589772139487393
 40
0.7187727661630701
 40
1.0
 40
1.0
 40
1.0
 40
1.0
 10
106.7551511334206
 20
298.8133923169428
 30
0.0
 10
106.7422859971723
 20
298.8394757742615
 30
0.0
 10
106.7147293845471
 20
298.8953455074214
 30
0.0
 10
106.5285239992487
 20
299.06919050593
 30
0.0
 10
106.4110503945934
 20
299.2675738818496
 30
0.0
 10
106.3909167780943
 20
299.5495674016823
 30
0.0
 10
106.380451190653
 20
299.6961495042981
 30
0.0
  0
LINE
  5
219
330
1F
100
AcDbEntity
  8
0
  6
Continuous
 62
     7
370
    15
100
AcDbLine
 10
73.870449047
 20
246.5892820871
 30
0.0
 11
73.870449047
 21
236.5892804479
 31
0.0
  0
LINE
  5
21A
330
1F
100
AcDbEntity
  8
0
  6
Continuous
 62
     7
370
    15
100
AcDbLine
 10
153.8704472588
 20
236.5892804479
 30
0.0
 11
153.8704472588
 21
246.5892820871
 31
0.0
  0
ARC
  5
21B
330
1F
100
AcDbEntity
  8
0
  6
Continuous
 62
     7
370
    15
100
AcDbCircle
 10
113.8704481529
 20
288.0892814612
 30
0.0
 40
22.49999999999989
100
AcDbArc
 50
348.635123033
 51
351.7598353948
  0
ARC
  5
21C
330
1F
100
AcDbEntity
  8
0
  6
Continuous
 62
     7
370
    15
100
AcDbCircle
 10
113.8704481529
 20
288.0892814612
 30
0.0
 40
22.49999999999989
100
AcDbArc
 50
188.2401646052
 51
191.364876967
  0
ARC
  5
21D
330
1F
100
AcDbEntity
  8
0
  6
Continuous
 62
     7
370
    15
100
AcDbCircle
 10
131.8704481529
 20
266.5892814612
 30
0.0
 40
3.999999999999944
100
AcDbArc
 50
330.0
 51
353.9552320621
  0
ARC
  5
21E
330
1F
100
AcDbEntity
  8
0
  6
Continuous
 62
     7
370
    15
100
AcDbCircle
 10
95.8704481529
 20
266.5892814612
 30
0.0
 40
3.999999999999931
100
AcDbArc
 50
186.0447679379
 51
210.0
  0
ARC
  5
21F
330
1F
100
AcDbEntity
  8
0
  6
Continuous
 62
     7
370
    15
100
AcDbCircle
 10
88.8704481529
 20
283.0643436507
 30
0.0
 40
3.0
100
AcDbArc
 50
359.9388964499
 51
11.183691541
  0
ARC
  5
220
330
1F
100
AcDbEntity
  8
0
  6
Continuous
 62
     7
370
    15
100
AcDbCircle
 10
138.8704481529
 20
283.0643436507
 30
0.0
 40
2.999999999999998
100
AcDbArc
 50
168.7097076206
 51
180.0
  0
LINE
  5
221
330
1F
100
AcDbEntity
  8
0
  6
Continuous
 62
     7
370
    15
100
AcDbLine
 10
135.8704480337
 20
275.2730953759
 30
0.0
 11
135.8704480337
 21
283.0643444574
 31
0.0
  0
LINE
  5
222
330
1F
100
AcDbEntity
  8
0
  6
Continuous
 62
     7
370
    15
100
AcDbLine
 10
91.8704482721
 20
283.0643444574
 30
0.0
 11
91.8704482721
 21
275.2730953759
 31
0.0
  0
LINE
  5
223
330
1F
100
AcDbEntity
  8
0
  6
Continuous
 62
     7
370
    15
100
AcDbLine
 10
132.4063471513
 20
259.5174848354
 30
0.0
 11
135.3345501231
 21
264.5892813122
 31
0.0
  0
LINE
  5
224
330
1F
100
AcDbEntity
  8
0
  6
Continuous
 62
     7
370
    15
100
AcDbLine
 10
92.4063461827
 20
264.5892813122
 30
0.0
 11
95.3345491545
 21
259.5174848354
 31
0.0
  0
ARC
  5
225
330
1F
100
AcDbEntity
  8
0
  6
Continuous
 62
     7
370
    15
100
AcDbCircle
 10
91.8704481529
 20
257.5174846915
 30
0.0
 40
4.000000000000038
100
AcDbArc
 50
360.0
 51
30.0
  0
ARC
  5
226
330
1F
100
AcDbEntity
  8
0
  6
Continuous
 62
     7
370
    15
100
AcDbCircle
 10
135.8704481529
 20
257.5174846915
 30
0.0
 40
4.000000000000038
100
AcDbArc
 50
150.0
 51
180.0
  0
LINE
  5
227
330
1F
100
AcDbEntity
  8
0
  6
Continuous
 62
     7
370
    15
100
AcDbLine
 10
131.870447378
 20
256.0892827129
 30
0.0
 11
131.870447378
 21
257.5174845075
 31
0.0
  0
LINE
  5
228
330
1F
100
AcDbEntity
  8
0
  6
Continuous
 62
     7
370
    15
100
AcDbLine
 10
95.8704489278
 20
257.5174845075
 30
0.0
 11
95.8704489278
 21
256.0892827129
 31
0.0
  0
ARC
  5
229
330
1F
100
AcDbEntity
  8
0
  6
Continuous
 62
     7
370
    15
100
AcDbCircle
 10
145.8704481529
 20
331.3213322688
 30
0.0
 40
3.0
100
AcDbArc
 50
300.0
 51
0.0
  0
LINE
  5
22A
330
1F
100
AcDbEntity
  8
0
  6
Continuous
 62
     7
370
    15
100
AcDbLine
 10
148.8704483019
 20
331.3213340258
 30
0.0
 11
148.8704483019
 21
341.589280895
 31
0.0
  0
ARC
  5
22B
330
1F
100
AcDbEntity
  8
0
  6
Continuous
 62
     7
370
    15
100
AcDbCircle
 10
81.8704481529
 20
331.3213322688
 30
0.0
 40
3.0
100
AcDbArc
 50
180.0
 51
240.0
  0
LINE
  5
22C
330
1F
100
AcDbEntity
  8
0
  6
Continuous
 62
     7
370
    15
100
AcDbLine
 10
78.8704480039
 20
341.589280895
 30
0.0
 11
78.8704480039
 21
331.3213340258
 31
0.0
  0
LINE
  5
22D
330
1F
100
AcDbEntity
  8
0
  6
Continuous
 62
     7
370
    15
100
AcDbLine
 10
143.483538832
 20
326.4791476792
 30
0.0
 11
147.3704489874
 21
328.7232569671
 31
0.0
  0
LINE
  5
22E
330
1F
100
AcDbEntity
  8
0
  6
Continuous
 62
     7
370
    15
100
AcDbLine
 10
80.3704473184
 20
328.7232569671
 30
0.0
 11
84.2573574739
 21
326.4791476792
 31
0.0
  0
LINE
  5
22F
330
1F
100
AcDbEntity
  8
0
  6
Continuous
 62
     7
370
    15
100
AcDbLine
 10
117.2744228499
 20
386.0892779445
 30
0.0
 11
110.3704480449
 21
386.0892779445
 31
0.0
  0
LINE
  5
230
330
1F
100
AcDbEntity
  8
0
  6
Continuous
 62
     7
370
    15
100
AcDbLine
 10
117.3704482609
 20
386.0892779445
 30
0.0
 11
117.2744228499
 21
386.0892779445
 31
0.0
  0
LINE
  5
231
330
1F
100
AcDbEntity
  8
0
  6
Continuous
 62
     7
370
    15
100
AcDbLine
 10
117.2744228499
 20
404.0392837739
 30
0.0
 11
110.3704480449
 21
404.0392837739
 31
0.0
  0
LINE
  5
232
330
1F
100
AcDbEntity
  8
0
  6
Continuous
 62
     7
370
    15
100
AcDbLine
 10
117.3704482609
 20
404.0392837739
 30
0.0
 11
117.2744228499
 21
404.0392837739
 31
0.0
  0
LINE
  5
233
330
1F
100
AcDbEntity
  8
0
  6
Continuous
 62
     7
370
    15
100
AcDbLine
 10
117.2744228499
 20
402.0392797208
 30
0.0
 11
110.3704480449
 21
402.0392797208
 31
0.0
  0
LINE
  5
234
330
1F
100
AcDbEntity
  8
0
  6
Continuous
 62
     7
370
    15
100
AcDbLine
 10
117.3704482609
 20
402.0392797208
 30
0.0
 11
117.2744228499
 21
402.0392797208
 31
0.0
  0
LINE
  5
235
330
1F
100
AcDbEntity
  8
0
  6
Continuous
 62
     7
370
    15
100
AcDbLine
 10
115.8204481
 20
405.5892802095
 30
0.0
 11
111.9204482058
 21
405.5892802095
 31
0.0
  0
LINE
  5
236
330
1F
100
AcDbEntity
  8
0
  6
Continuous
 62
     7
370
    15
100
AcDbLine
 10
117.2744228499
 20
389.0892840242
 30
0.0
 11
110.3704480449
 21
389.0892840242
 31
0.0
  0
LINE
  5
237
330
1F
100
AcDbEntity
  8
0
  6
Continuous
 62
     7
370
    15
100
AcDbLine
 10
117.3704482609
 20
389.0892840242
 30
0.0
 11
117.2744228499
 21
389.0892840242
 31
0.0
  0
LINE
  5
238
330
1F
100
AcDbEntity
  8
0
  6
Continuous
 62
     7
370
    15
100
AcDbLine
 10
117.2744228499
 20
398.9892802453
 30
0.0
 11
110.3704480449
 21
398.9892802453
 31
0.0
  0
LINE
  5
239
330
1F
100
AcDbEntity
  8
0
  6
Continuous
 62
     7
370
    15
100
AcDbLine
 10
117.3704482609
 20
398.9892802453
 30
0.0
 11
117.2744228499
 21
398.9892802453
 31
0.0
  0
LINE
  5
23A
330
1F
100
AcDbEntity
  8
0
  6
Continuous
 62
     7
370
    15
100
AcDbLine
 10
128.8504485967
 20
354.5892811632
 30
0.0
 11
122.8370747523
 21
354.5892811632
 31
0.0
  0
LINE
  5
23B
330
1F
100
AcDbEntity
  8
0
  6
Continuous
 62
     7
370
    15
100
AcDbLine
 10
104.9038215535
 20
354.5892811632
 30
0.0
 11
98.8904477091
 21
354.5892811632
 31
0.0
  0
LINE
  5
23C
330
1F
100
AcDbEntity
  8
0
  6
Continuous
 62
     7
370
    15
100
AcDbLine
 10
104.9038215535
 20
354.5892811632
 30
0.0
 11
104.9038215535
 21
347.5892818785
 31
0.0
  0
LINE
  5
23D
330
1F
100
AcDbEntity
  8
0
  6
Continuous
 62
     7
370
    15
100
AcDbLine
 10
104.9038215535
 20
347.5892818785
 30
0.0
 11
122.8370747523
 21
347.5892818785
 31
0.0
  0
LINE
  5
23E
330
1F
100
AcDbEntity
  8
0
  6
Continuous
 62
     7
370
    15
100
AcDbLine
 10
122.8370747523
 20
347.5892818785
 30
0.0
 11
122.8370747523
 21
354.5892811632
 31
0.0
  0
LINE
  5
23F
330
1F
100
AcDbEntity
  8
0
  6
Continuous
 62
     7
370
    15
100
AcDbLine
 10
122.8370747523
 20
354.5892811632
 30
0.0
 11
104.9038215535
 21
354.5892811632
 31
0.0
  0
LINE
  5
240
330
1F
100
AcDbEntity
  8
0
  6
Continuous
 62
     7
370
    15
100
AcDbLine
 10
99.4250119658
 20
234.5892838454
 30
0.0
 11
128.31588434
 21
234.5892838454
 31
0.0
  0
CIRCLE
  5
241
330
1F
100
AcDbEntity
  8
0
  6
Continuous
 62
     7
370
    15
100
AcDbCircle
 10
113.8704485379
 20
299.589275644
 30
0.0
 40
7.489999836907884
  0
CIRCLE
  5
242
330
1F
100
AcDbEntity
  8
0
  6
Continuous
 62
     7
370
    15
100
AcDbCircle
 10
113.8704481529
 20
299.5892814612
 30
0.0
 40
20.00000000000001
  0
CIRCLE
  5
243
330
1F
100
AcDbEntity
  8
0
  6
Continuous
 62
     7
370
    15
100
AcDbCircle
 10
113.8704482637
 20
299.5892797799
 30
0.0
 40
7.499999721608635
  0
ARC
  5
244
330
1F
100
AcDbEntity
  8
0
  6
Continuous
 62
     7
370
    15
100
AcDbCircle
 10
113.8704481529
 20
299.5892814612
 30
0.0
 40
22.00000000000001
100
AcDbArc
 50
45.0
 51
135.0
  0
ARC
  5
245
330
1F
100
AcDbEntity
  8
0
  6
Continuous
 62
     7
370
    15
100
AcDbCircle
 10
113.8704481529
 20
299.5892814612
 30
0.0
 40
22.00000000000003
100
AcDbArc
 50
315.0
 51
45.0
  0
ARC
  5
246
330
1F
100
AcDbEntity
  8
0
  6
Continuous
 62
     7
370
    15
100
AcDbCircle
 10
113.8704481529
 20
299.5892814612
 30
0.0
 40
22.00000000000003
100
AcDbArc
 50
225.0
 51
315.0
  0
ARC
  5
247
330
1F
100
AcDbEntity
  8
0
  6
Continuous
 62
     7
370
    15
100
AcDbCircle
 10
113.8704481529
 20
299.5892814612
 30
0.0
 40
22.0
100
AcDbArc
 50
135.0
 51
225.0
  0
CIRCLE
  5
248
330
1F
100
AcDbEntity
  8
0
  6
Continuous
 62
     7
370
    15
100
AcDbCircle
 10
94.4250116703
 20
319.0347179439
 30
0.0
 40
5.499999999999974
  0
CIRCLE
  5
249
330
1F
100
AcDbEntity
  8
0
  6
Continuous
 62
     7
370
    15
100
AcDbCircle
 10
94.4250116703
 20
280.1438449786
 30
0.0
 40
5.500000000000004
  0
CIRCLE
  5
24A
330
1F
100
AcDbEntity
  8
0
  6
Continuous
 62
     7
370
    15
100
AcDbCircle
 10
133.3158846355
 20
280.1438449786
 30
0.0
 40
5.499999999999984
  0
CIRCLE
  5
24B
330
1F
100
AcDbEntity
  8
0
  6
Continuous
 62
     7
370
    15
100
AcDbCircle
 10
133.3158846355
 20
319.0347179439
 30
0.0
 40
5.499999999999984
  0
CIRCLE
  5
24C
330
1F
100
AcDbEntity
  8
0
  6
Continuous
 62
     7
370
    15
100
AcDbCircle
 10
113.8704481529
 20
299.5892814612
 30
0.0
 40
39.99999999999987
  0
SPLINE
  5
24D
330
1F
100
AcDbEntity
  8
0
  6
Continuous
 62
     7
370
    15
100
AcDbSpline
210
0.0
220
0.0
230
1.0
 70
     8
 71
     3
 72
    18
 73
    14
 74
     0
 42
0.00000001
 43
0.00000001
 40
0.0
 40
0.0
 40
0.0
 40
0.0
 40
0.0135098101152472
 40
0.0877311282882418
 40
0.19909212037689
 40
0.3136391573037039
 40
0.4263842410411648
 40
0.5391464838747146
 40
0.6551040464352235
 40
0.7695913118769221
 40
0.881809658803942
 40
0.956751730925118
 40
1.0
 40
1.0
 40
1.0
 40
1.0
 10
106.7779960105147
 20
298.5694526247883
 30
0.0
 10
106.8253432422248
 20
298.5186828911895
 30
0.0
 10
107.1328106325005
 20
298.1889901735628
 30
0.0
 10
107.9710590096933
 20
297.5892458171191
 30
0.0
 10
109.2968693470937
 20
296.7993972740655
 30
0.0
 10
110.9388646722814
 20
296.1944686599451
 30
0.0
 10
112.6578108841236
 20
295.8517402304414
 30
0.0
 10
114.4189828466718
 20
295.7942165217664
 30
0.0
 10
116.1731198477944
 20
296.0338312024232
 30
0.0
 10
117.863883240695
 20
296.5520578014031
 30
0.0
 10
119.2519684156749
 20
297.2518886175849
 30
0.0
 10
120.2403593648284
 20
297.9113479299507
 30
0.0
 10
120.6878309626596
 20
298.3222470473123
 30
0.0
 10
120.8515699947204
 20
298.4726034589315
 30
0.0
  0
SPLINE
  5
24E
330
1F
100
AcDbEntity
  8
0
  6
Continuous
 62
     7
370
    15
100
AcDbSpline
210
0.0
220
0.0
230
1.0
 70
     8
 71
     3
 72
     9
 73
     5
 74
     0
 42
0.00000001
 43
0.00000001
 40
0.0
 40
0.0
 40
0.0
 40
0.0
 40
0.9308237805056868
 40
1.0
 40
1.0
 40
1.0
 40
1.0
 10
92.4816939042832
 20
318.0719460612366
 30
0.0
 10
92.11881319980685
 20
316.9367311244864
 30
0.0
 10
91.728964216491
 20
315.7171501892706
 30
0.0
 10
91.63569169125498
 20
314.4499055693631
 30
0.0
 10
91.62923945057646
 20
314.3622423773834
 30
0.0
  0
SPLINE
  5
24F
330
1F
100
AcDbEntity
  8
0
  6
Continuous
 62
     7
370
    15
100
AcDbSpline
210
0.0
220
0.0
230
1.0
 70
     8
 71
     3
 72
     8
 73
     4
 74
     0
 42
0.00000001
 43
0.00000001
 40
0.0
 40
0.0
 40
0.0
 40
0.0
 40
1.0
 40
1.0
 40
1.0
 40
1.0
 10
92.7659519189424
 20
318.8147661729997
 30
0.0
 10
92.65928445306236
 20
318.5727742799929
 30
0.0
 10
92.5644673730805
 20
318.3252238471683
 30
0.0
 10
92.48176532805694
 20
318.0720400819113
 30
0.0
  0
SPLINE
  5
250
330
1F
100
AcDbEntity
  8
0
  6
Continuous
 62
     7
370
    15
100
AcDbSpline
210
0.0
220
0.0
230
1.0
 70
     8
 71
     3
 72
    10
 73
     6
 74
     0
 42
0.00000001
 43
0.00000001
 40
0.0
 40
0.0
 40
0.0
 40
0.0
 40
0.5
 40
0.5
 40
1.0
 40
1.0
 40
1.0
 40
1.0
 10
92.83159729248138
 20
318.9690598806122
 30
0.0
 10
92.82173308743596
 20
318.9455354836938
 30
0.0
 10
92.81159972272329
 20
318.9213594777059
 30
0.0
 10
92.78989183112954
 20
318.8700274576033
 30
0.0
 10
92.778327344089
 20
318.8428417678709
 30
0.0
 10
92.76595191894235
 20
318.8147661729996
 30
0.0
  0
SPLINE
  5
251
330
1F
100
AcDbEntity
  8
0
  6
Continuous
 62
     7
370
    15
100
AcDbSpline
210
0.0
220
0.0
230
1.0
 70
     8
 71
     3
 72
    10
 73
     6
 74
     0
 42
0.00000001
 43
0.00000001
 40
0.0
 40
0.0
 40
0.0
 40
0.0
 40
0.5
 40
0.5
 40
1.0
 40
1.0
 40
1.0
 40
1.0
 10
94.99974297777474
 20
321.0388354387341
 30
0.0
 10
94.51099039116039
 20
320.7322651115234
 30
0.0
 10
94.0952445654227
 20
320.4033718582832
 30
0.0
 10
93.37895846902033
 20
319.7110498608026
 30
0.0
 10
93.07861865817202
 20
319.3463294513031
 30
0.0
 10
92.83159729249138
 20
318.9690598806077
 30
0.0
  0
SPLINE
  5
252
330
1F
100
AcDbEntity
  8
0
  6
Continuous
 62
     7
370
    15
100
AcDbSpline
210
0.0
220
0.0
230
1.0
 70
     8
 71
     3
 72
    10
 73
     6
 74
     0
 42
0.00000001
 43
0.00000001
 40
0.0
 40
0.0
 40
0.0
 40
0.0
 40
0.4999999999999999
 40
0.4999999999999999
 40
1.0
 40
1.0
 40
1.0
 40
1.0
 10
134.9092990132879
 20
318.9690598806467
 30
0.0
 10
134.6622776476079
 20
319.3463294513347
 30
0.0
 10
134.3619378367619
 20
319.711049860827
 30
0.0
 10
133.6456517403676
 20
320.4033718582946
 30
0.0
 10
133.2299059146354
 20
320.7322651115293
 30
0.0
 10
132.7411533280293
 20
321.0388354387348
 30
0.0
  0
SPLINE
  5
253
330
1F
100
AcDbEntity
  8
0
  6
Continuous
 62
     7
370
    15
100
AcDbSpline
210
0.0
220
0.0
230
1.0
 70
     8
 71
     3
 72
    10
 73
     6
 74
     0
 42
0.00000001
 43
0.00000001
 40
0.0
 40
0.0
 40
0.0
 40
0.0
 40
0.5
 40
0.5
 40
1.0
 40
1.0
 40
1.0
 40
1.0
 10
134.9749443868626
 20
318.8147661729985
 30
0.0
 10
134.9624854350872
 20
318.843031261141
 30
0.0
 10
134.951051362713
 20
318.8699171512482
 30
0.0
 10
134.9293255559151
 20
318.9212904000443
 30
0.0
 10
134.9191785245946
 20
318.9454989810097
 30
0.0
 10
134.9092990133184
 20
318.9690598806005
 30
0.0
  0
SPLINE
  5
254
330
1F
100
AcDbEntity
  8
0
  6
Continuous
 62
     7
370
    15
100
AcDbSpline
210
0.0
220
0.0
230
1.0
 70
     8
 71
     3
 72
     8
 73
     4
 74
     0
 42
0.00000001
 43
0.00000001
 40
0.0
 40
0.0
 40
0.0
 40
0.0
 40
1.0
 40
1.0
 40
1.0
 40
1.0
 10
135.2591309777476
 20
318.0720400819114
 30
0.0
 10
135.1762342043946
 20
318.3258199878277
 30
0.0
 10
135.0813638198314
 20
318.5733369815918
 30
0.0
 10
134.9749443868626
 20
318.8147661729986
 30
0.0
  0
SPLINE
  5
255
330
1F
100
AcDbEntity
  8
0
  6
Continuous
 62
     7
370
    15
100
AcDbSpline
210
0.0
220
0.0
230
1.0
 70
     8
 71
     3
 72
     9
 73
     5
 74
     0
 42
0.00000001
 43
0.00000001
 40
0.0
 40
0.0
 40
0.0
 40
0.0
 40
0.0693902605010195
 40
1.0
 40
1.0
 40
1.0
 40
1.0
 10
136.1117257730986
 20
314.3613706594536
 30
0.0
 10
136.1052536031632
 20
314.4493255346488
 30
0.0
 10
136.0119815807107
 20
315.7168647333806
 30
0.0
 10
135.622063740876
 20
316.9367287378309
 30
0.0
 10
135.2592024015214
 20
318.0719460612366
 30
0.0
  0
LINE
  5
256
330
1F
100
AcDbEntity
  8
0
  6
Continuous
 62
     7
370
    15
100
AcDbLine
 10
73.870449047
 20
246.5892820871
 30
0.0
 11
153.8704472588
 21
246.5892820871
 31
0.0
  0
LINE
  5
257
330
1F
100
AcDbEntity
  8
0
  6
Continuous
 62
     7
370
    15
100
AcDbLine
 10
73.870449047
 20
236.5892804479
 30
0.0
 11
153.8704472588
 21
236.5892804479
 31
0.0
  0
SPLINE
  5
258
330
1F
100
AcDbEntity
  8
0
  6
Continuous
 62
     7
370
    15
100
AcDbSpline
210
0.0
220
0.0
230
1.0
 70
     8
 71
     3
 72
    18
 73
    14
 74
     0
 42
0.00000001
 43
0.00000001
 40
0.0
 40
0.0
 40
0.0
 40
0.0
 40
0.1250000000000011
 40
0.1250000000000011
 40
0.2500000000000021
 40
0.2500000000000021
 40
0.5000000000000014
 40
0.5000000000000014
 40
0.7500000000000008
 40
0.7500000000000008
 40
0.8750000000000003
 40
0.8750000000000003
 40
1.0
 40
1.0
 40
1.0
 40
1.0
 10
112.3704481529023
 20
248.5892814612219
 30
0.0
 10
112.3704481529023
 20
248.4186681966095
 30
0.0
 10
112.3490424353581
 20
248.2581972409694
 30
0.0
 10
112.2735413983543
 20
247.954704283424
 30
0.0
 10
112.2189149692986
 20
247.8122661138375
 30
0.0
 10
112.0241699737622
 20
247.4284482153301
 30
0.0
 10
111.8492954707286
 20
247.2198821836836
 30
0.0
 10
111.4675637214786
 20
246.8985475377579
 30
0.0
 10
111.2550998206845
 20
246.7808153651385
 30
0.0
 10
110.9290768054048
 20
246.6654250276226
 30
0.0
 10
110.818916161657
 20
246.6369417254438
 30
0.0
 10
110.5962813909374
 20
246.598866090659
 30
0.0
 10
110.4829373359868
 20
246.5892814612219
 30
0.0
 10
110.3704481529023
 20
246.5892814612219
 30
0.0
  0
SPLINE
  5
259
330
1F
100
AcDbEntity
  8
0
  6
Continuous
 62
     7
370
    15
100
AcDbSpline
210
0.0
220
0.0
230
1.0
 70
     8
 71
     3
 72
    18
 73
    14
 74
     0
 42
0.00000001
 43
0.00000001
 40
0.0
 40
0.0
 40
0.0
 40
0.0
 40
0.1250000000000011
 40
0.1250000000000011
 40
0.2500000000000021
 40
0.2500000000000021
 40
0.5000000000000014
 40
0.5000000000000014
 40
0.7500000000000008
 40
0.7500000000000008
 40
0.8750000000000003
 40
0.8750000000000003
 40
1.0
 40
1.0
 40
1.0
 40
1.0
 10
115.3704481529023
 20
248.5892814612219
 30
0.0
 10
115.3704481529023
 20
248.4186681966095
 30
0.0
 10
115.3918538704465
 20
248.2581972409694
 30
0.0
 10
115.4673549074503
 20
247.954704283424
 30
0.0
 10
115.521981336506
 20
247.8122661138375
 30
0.0
 10
115.7167263320424
 20
247.4284482153301
 30
0.0
 10
115.891600835076
 20
247.2198821836836
 30
0.0
 10
116.273332584326
 20
246.8985475377579
 30
0.0
 10
116.4857964851201
 20
246.7808153651385
 30
0.0
 10
116.8118195003998
 20
246.6654250276226
 30
0.0
 10
116.9219801441476
 20
246.6369417254438
 30
0.0
 10
117.1446149148672
 20
246.598866090659
 30
0.0
 10
117.2579589698177
 20
246.5892814612219
 30
0.0
 10
117.3704481529023
 20
246.5892814612219
 30
0.0
  0
LINE
  5
25A
330
1F
100
AcDbEntity
  8
0
  6
Continuous
 62
     7
370
    15
100
AcDbLine
 10
112.3704481399
 20
248.5892824149
 30
0.0
 11
112.3704481399
 21
249.5892807162
 31
0.0
  0
LINE
  5
25B
330
1F
100
AcDbEntity
  8
0
  6
Continuous
 62
     7
370
    15
100
AcDbLine
 10
115.3704481659
 20
248.5892824149
 30
0.0
 11
115.3704481659
 21
249.5892807162
 31
0.0
  0
LINE
  5
25C
330
1F
100
AcDbEntity
  8
0
  6
Continuous
 62
     7
370
    15
100
AcDbLine
 10
112.3704481399
 20
249.5892807162
 30
0.0
 11
112.3704481399
 21
259.6174157476
 31
0.0
  0
LINE
  5
25D
330
1F
100
AcDbEntity
  8
0
  6
Continuous
 62
     7
370
    15
100
AcDbLine
 10
115.3704481659
 20
249.5892807162
 30
0.0
 11
115.3704481659
 21
259.6174157476
 31
0.0
  0
SPLINE
  5
25E
330
1F
100
AcDbEntity
  8
0
  6
Continuous
 62
     7
370
    15
100
AcDbSpline
210
0.0
220
0.0
230
1.0
 70
     8
 71
     3
 72
    20
 73
    16
 74
     0
 42
0.00000001
 43
0.00000001
 40
0.0
 40
0.0
 40
0.0
 40
0.0
 40
0.1249999999999995
 40
0.1249999999999995
 40
0.249999999999999
 40
0.249999999999999
 40
0.3749999999999985
 40
0.3749999999999985
 40
0.499999999999998
 40
0.499999999999998
 40
0.6249999999999976
 40
0.6249999999999976
 40
0.749999999999997
 40
0.749999999999997
 40
1.0
 40
1.0
 40
1.0
 40
1.0
 10
110.3704481529023
 20
246.5892814612219
 30
0.0
 10
110.3924421226868
 20
246.5892814612219
 30
0.0
 10
110.4142732528589
 20
246.6086804767886
 30
0.0
 10
110.4576115495743
 20
246.6846594766415
 30
0.0
 10
110.4793450511278
 20
246.7421333278119
 30
0.0
 10
110.5212096993771
 20
246.8924367942408
 30
0.0
 10
110.5412398305082
 20
246.9843895608713
 30
0.0
 10
110.579421452153
 20
247.2014838939588
 30
0.0
 10
110.5976885784383
 20
247.3280323536729
 30
0.0
 10
110.6306457677867
 20
247.6045929672069
 30
0.0
 10
110.6455317120949
 20
247.7553760769352
 30
0.0
 10
110.6719346114422
 20
248.0823820380954
 30
0.0
 10
110.6832997212411
 20
248.2575369909202
 30
0.0
 10
110.7106502601922
 20
248.7989020444848
 30
0.0
 10
110.7204481529023
 20
249.1927447497234
 30
0.0
 10
110.7204481529023
 20
249.5892814612219
 30
0.0
  0
SPLINE
  5
25F
330
1F
100
AcDbEntity
  8
0
  6
Continuous
 62
     7
370
    15
100
AcDbSpline
210
0.0
220
0.0
230
1.0
 70
     8
 71
     3
 72
    22
 73
    18
 74
     0
 42
0.00000001
 43
0.00000001
 40
0.0
 40
0.0
 40
0.0
 40
0.0
 40
0.125
 40
0.125
 40
0.25
 40
0.25
 40
0.375
 40
0.375
 40
0.5
 40
0.5
 40
0.625
 40
0.625
 40
0.75
 40
0.75
 40
0.875
 40
0.875
 40
1.0
 40
1.0
 40
1.0
 40
1.0
 10
117.0204481529023
 20
249.5892814612219
 30
0.0
 10
117.0204481529023
 20
249.3910729066545
 30
0.0
 10
117.0228330120646
 20
249.1961461565342
 30
0.0
 10
117.0321550813361
 20
248.812593648798
 30
0.0
 10
117.0392069543474
 20
248.6219780462806
 30
0.0
 10
117.0575081654505
 20
248.258848553673
 30
0.0
 10
117.0686781959595
 20
248.0865213606152
 30
0.0
 10
117.0949228898049
 20
247.7602356488885
 30
0.0
 10
117.1100991262758
 20
247.6060516218433
 30
0.0
 10
117.1430048686748
 20
247.3295485766455
 30
0.0
 10
117.1608624816788
 20
247.2053301071889
 30
0.0
 10
117.1993466340166
 20
246.9857955224357
 30
0.0
 10
117.2195552582931
 20
246.8930905081355
 30
0.0
 10
117.2611174143298
 20
246.7435112270149
 30
0.0
 10
117.2827435937612
 20
246.6858004643465
 30
0.0
 10
117.3265201087433
 20
246.6086715193734
 30
0.0
 10
117.3484607597114
 20
246.5892814612219
 30
0.0
 10
117.3704481529023
 20
246.5892814612219
 30
0.0
  0
SPLINE
  5
260
330
1F
100
AcDbEntity
  8
0
  6
Continuous
 62
     7
370
    15
100
AcDbSpline
210
0.0
220
0.0
230
1.0
 70
     8
 71
     3
 72
    12
 73
     8
 74
     0
 42
0.00000001
 43
0.00000001
 40
0.0
 40
0.0
 40
0.0
 40
0.0
 40
0.5000000000000042
 40
0.5000000000000042
 40
0.7500000000000021
 40
0.7500000000000021
 40
1.0
 40
1.0
 40
1.0
 40
1.0
 10
110.7204481529023
 20
257.5174846914973
 30
0.0
 10
110.7204481529023
 20
257.8691304416731
 30
0.0
 10
110.7160467858852
 20
258.213057095595
 30
0.0
 10
110.7031633673416
 20
258.7177034340899
 30
0.0
 10
110.6977709039706
 20
258.8848432561809
 30
0.0
 10
110.6850821566191
 20
259.2083645291711
 30
0.0
 10
110.6777823448543
 20
259.3653418820403
 30
0.0
 10
110.669549841432
 20
259.5174846914973
 30
0.0
  0
SPLINE
  5
261
330
1F
100
AcDbEntity
  8
0
  6
Continuous
 62
     7
370
    15
100
AcDbSpline
210
0.0
220
0.0
230
1.0
 70
     8
 71
     3
 72
    12
 73
     8
 74
     0
 42
0.00000001
 43
0.00000001
 40
0.0
 40
0.0
 40
0.0
 40
0.0
 40
0.4999999999999951
 40
0.4999999999999951
 40
0.7499999999999976
 40
0.7499999999999976
 40
1.0
 40
1.0
 40
1.0
 40
1.0
 10
117.0713464643725
 20
259.5174846914973
 30
0.0
 10
117.0548819033147
 20
259.2132073110561
 30
0.0
 10
117.0422626672626
 20
258.8927142294058
 30
0.0
 10
117.0292932871873
 20
258.3882931844769
 30
0.0
 10
117.0259696976366
 20
258.2152353779309
 30
0.0
 10
117.0215600097238
 20
257.8680126633134
 30
0.0
 10
117.0204481529023
 20
257.6933039435612
 30
0.0
 10
117.0204481529023
 20
257.5174846914973
 30
0.0
  0
LINE
  5
262
330
1F
100
AcDbEntity
  8
0
  6
Continuous
 62
     7
370
    15
100
AcDbLine
 10
117.020448157
 20
257.5174845075
 30
0.0
 11
117.020448157
 21
249.5892807162
 31
0.0
  0
LINE
  5
263
330
1F
100
AcDbEntity
  8
0
  6
Continuous
 62
     7
370
    15
100
AcDbLine
 10
110.7204481488
 20
249.5892807162
 30
0.0
 11
110.7204481488
 21
257.5174845075
 31
0.0
  0
LINE
  5
264
330
1F
100
AcDbEntity
  8
0
  6
Continuous
 62
     7
370
    15
100
AcDbLine
 10
107.0304482238
 20
341.589280895
 30
0.0
 11
120.710448082
 21
341.589280895
 31
0.0
  0
LINE
  5
265
330
1F
100
AcDbEntity
  8
0
  6
Continuous
 62
     7
370
    15
100
AcDbLine
 10
142.4704479979
 20
331.3213340258
 30
0.0
 11
142.4704479979
 21
341.589280895
 31
0.0
  0
LINE
  5
266
330
1F
100
AcDbEntity
  8
0
  6
Continuous
 62
     7
370
    15
100
AcDbLine
 10
120.710448082
 20
341.589280895
 30
0.0
 11
142.4704479979
 21
341.589280895
 31
0.0
  0
ARC
  5
267
330
1F
100
AcDbEntity
  8
0
  6
Continuous
 62
     7
370
    15
100
AcDbCircle
 10
137.1357353722
 20
331.0749748989
 30
0.0
 40
5.340398076807784
100
AcDbArc
 50
333.8729053932
 51
2.6440630956
  0
LINE
  5
268
330
1F
100
AcDbEntity
  8
0
  6
Continuous
 62
     7
370
    15
100
AcDbLine
 10
85.2704483079
 20
331.3213340258
 30
0.0
 11
85.2704483079
 21
341.589280895
 31
0.0
  0
LINE
  5
269
330
1F
100
AcDbEntity
  8
0
  6
Continuous
 62
     7
370
    15
100
AcDbLine
 10
85.2704483079
 20
341.589280895
 30
0.0
 11
107.0304482238
 21
341.589280895
 31
0.0
  0
ARC
  5
26A
330
1F
100
AcDbEntity
  8
0
  6
Continuous
 62
     7
370
    15
100
AcDbCircle
 10
90.6051609336
 20
331.0749748989
 30
0.0
 40
5.340398076807742
100
AcDbArc
 50
177.3559369044
 51
206.1270946068
  0
LINE
  5
26B
330
1F
100
AcDbEntity
  8
0
  6
Continuous
 62
     7
370
    15
100
AcDbLine
 10
142.4704479979
 20
341.589280895
 30
0.0
 11
148.8704483019
 21
341.589280895
 31
0.0
  0
LINE
  5
26C
330
1F
100
AcDbEntity
  8
0
  6
Continuous
 62
     7
370
    15
100
AcDbLine
 10
78.8704480039
 20
341.589280895
 30
0.0
 11
85.2704483079
 21
341.589280895
 31
0.0
  0
SPLINE
  5
26D
330
1F
100
AcDbEntity
  8
0
  6
Continuous
 62
     7
370
    15
100
AcDbSpline
210
0.0
220
0.0
230
1.0
 70
     8
 71
     3
 72
    26
 73
    22
 74
     0
 42
0.00000001
 43
0.00000001
 40
0.0
 40
0.0
 40
0.0
 40
0.0
 40
0.1249999999999999
 40
0.1249999999999999
 40
0.2499999999999999
 40
0.2499999999999999
 40
0.3749999999999998
 40
0.3749999999999998
 40
0.4999999999999998
 40
0.4999999999999998
 40
0.6249999999999998
 40
0.6249999999999998
 40
0.7499999999999997
 40
0.7499999999999997
 40
0.8749999999999996
 40
0.8749999999999996
 40
0.9374999999999998
 40
0.9374999999999998
 40
0.9687499999999999
 40
0.9687499999999999
 40
1.0
 40
1.0
 40
1.0
 40
1.0
 10
136.7351959911101
 20
323.3718548632432
 30
0.0
 10
136.5099714981694
 20
323.3235056225606
 30
0.0
 10
136.2954266176451
 20
323.2482085883899
 30
0.0
 10
135.8880760969416
 20
323.0427666998532
 30
0.0
 10
135.6964032524668
 20
322.911936769379
 30
0.0
 10
135.3578194439623
 20
322.6090445115734
 30
0.0
 10
135.2062629966392
 20
322.4327266199771
 30
0.0
 10
134.9546856805262
 20
322.0526896624024
 30
0.0
 10
134.8526167451676
 20
321.8472627888833
 30
0.0
 10
134.6966885139268
 20
321.415731949791
 30
0.0
 10
134.6441124302616
 20
321.1942817702584
 30
0.0
 10
134.5840854055895
 20
320.7412715486273
 30
0.0
 10
134.5772920395648
 20
320.5105694291742
 30
0.0
 10
134.6057951379107
 20
320.0565933149786
 30
0.0
 10
134.6410530136316
 20
319.8301130042203
 30
0.0
 10
134.7231838348662
 20
319.4960757264257
 30
0.0
 10
134.755326914839
 20
319.3861410992868
 30
0.0
 10
134.8101764824256
 20
319.2237036716544
 30
0.0
 10
134.829507626802
 20
319.1701748194761
 30
0.0
 10
134.8694291715759
 20
319.0657792794453
 30
0.0
 10
134.8904736266063
 20
319.01395512223
 30
0.0
 10
134.909299013298
 20
318.9690598806318
 30
0.0
  0
SPLINE
  5
26E
330
1F
100
AcDbEntity
  8
0
  6
Continuous
 62
     7
370
    15
100
AcDbSpline
210
0.0
220
0.0
230
1.0
 70
     8
 71
     3
 72
    26
 73
    22
 74
     0
 42
0.00000001
 43
0.00000001
 40
0.0
 40
0.0
 40
0.0
 40
0.0
 40
0.1249999999999999
 40
0.1249999999999999
 40
0.2499999999999998
 40
0.2499999999999998
 40
0.3749999999999998
 40
0.3749999999999998
 40
0.4999999999999997
 40
0.4999999999999997
 40
0.6249999999999996
 40
0.6249999999999996
 40
0.7499999999999996
 40
0.7499999999999996
 40
0.8749999999999994
 40
0.8749999999999994
 40
0.9374999999999993
 40
0.9374999999999993
 40
0.9687499999999997
 40
0.9687499999999997
 40
1.0
 40
1.0
 40
1.0
 40
1.0
 10
91.00570031469456
 20
323.3718548632432
 30
0.0
 10
91.23092480763498
 20
323.3235056225607
 30
0.0
 10
91.4454696881589
 20
323.2482085883902
 30
0.0
 10
91.8528202088619
 20
323.0427666998541
 30
0.0
 10
92.04449305333638
 20
322.91193676938
 30
0.0
 10
92.38307686184058
 20
322.6090445115751
 30
0.0
 10
92.53463330916377
 20
322.4327266199794
 30
0.0
 10
92.78621062527675
 20
322.0526896624056
 30
0.0
 10
92.8882795606354
 20
321.847262788887
 30
0.0
 10
93.0442077918766
 20
321.4157319497955
 30
0.0
 10
93.0967838755421
 20
321.1942817702634
 30
0.0
 10
93.15681090021478
 20
320.7412715486332
 30
0.0
 10
93.16360426624121
 20
320.5105694291804
 30
0.0
 10
93.13510116789628
 20
320.0565933149854
 30
0.0
 10
93.09984329217436
 20
319.8301130042275
 30
0.0
 10
93.01771247094058
 20
319.4960757264332
 30
0.0
 10
92.98556939096797
 20
319.3861410992944
 30
0.0
 10
92.93071982338161
 20
319.2237036716618
 30
0.0
 10
92.91138867898981
 20
319.1701748194689
 30
0.0
 10
92.87146713421271
 20
319.0657792794325
 30
0.0
 10
92.85042267919667
 20
319.0139551222262
 30
0.0
 10
92.83159729250515
 20
318.9690598806282
 30
0.0
  0
LINE
  5
26F
330
1F
100
AcDbEntity
  8
0
  6
Continuous
 62
     8
370
    15
100
AcDbLine
 10
117.760705016
 20
380.1966435528
 30
0.0
 11
109.8704479629
 21
380.1966435528
 31
0.0
  0
LINE
  5
270
330
1F
100
AcDbEntity
  8
0
  6
Continuous
 62
     8
370
    15
100
AcDbLine
 10
117.8704483429
 20
380.1966435528
 30
0.0
 11
117.760705016
 21
380.1966435528
 31
0.0
  0
LINE
  5
271
330
1F
100
AcDbEntity
  8
0
  6
Continuous
 62
     8
370
    15
100
AcDbLine
 10
117.6281477785
 20
381.2319240784
 30
0.0
 11
110.0067449262
 21
381.2319240784
 31
0.0
  0
LINE
  5
272
330
1F
100
AcDbEntity
  8
0
  6
Continuous
 62
     8
370
    15
100
AcDbLine
 10
117.7341513796
 20
381.2319240784
 30
0.0
 11
117.6281477785
 21
381.2319240784
 31
0.0
  0
LINE
  5
273
330
1F
100
AcDbEntity
  8
0
  6
Continuous
 62
     8
370
    15
100
AcDbLine
 10
117.4069803202
 20
382.0806122637
 30
0.0
 11
110.2341515472
 21
382.0806122637
 31
0.0
  0
LINE
  5
274
330
1F
100
AcDbEntity
  8
0
  6
Continuous
 62
     8
370
    15
100
AcDbLine
 10
117.5067447586
 20
382.0806122637
 30
0.0
 11
117.4069803202
 21
382.0806122637
 31
0.0
  0
LINE
  5
275
330
1F
100
AcDbEntity
  8
0
  6
Continuous
 62
     8
370
    15
100
AcDbLine
 10
117.2744228499
 20
383.1158927893
 30
0.0
 11
110.3704480449
 21
383.1158927893
 31
0.0
  0
LINE
  5
276
330
1F
100
AcDbEntity
  8
0
  6
Continuous
 62
     8
370
    15
100
AcDbLine
 10
117.3704482609
 20
383.1158927893
 30
0.0
 11
117.2744228499
 21
383.1158927893
 31
0.0
  0
LINE
  5
277
330
1F
100
AcDbEntity
  8
0
  6
Continuous
 62
     8
370
    15
100
AcDbLine
 10
118.2514472859
 20
305.6613505138
 30
0.0
 11
117.8704483429
 21
305.6613505138
 31
0.0
  0
LINE
  5
278
330
1F
100
AcDbEntity
  8
0
  6
Continuous
 62
     8
370
    15
100
AcDbLine
 10
109.8704479629
 20
305.6613505138
 30
0.0
 11
109.5460399048
 21
305.6613505138
 31
0.0
  0
SPLINE
  5
279
330
1F
100
AcDbEntity
  8
0
  6
Continuous
 62
     8
370
    15
100
AcDbSpline
210
0.0
220
0.0
230
1.0
 70
     8
 71
     3
 72
    12
 73
     8
 74
     0
 42
0.00000001
 43
0.00000001
 40
0.0
 40
0.0
 40
0.0
 40
0.0
 40
0.094033551361109
 40
0.3316748993744078
 40
0.5686314543593524
 40
0.7842528949851619
 40
1.0
 40
1.0
 40
1.0
 40
1.0
 10
98.96210925597207
 20
322.1236444330046
 30
0.0
 10
98.77274965509439
 20
322.1091126266651
 30
0.0
 10
98.10484096019148
 20
322.0578560768952
 30
0.0
 10
97.19128247602063
 20
321.8614056426865
 30
0.0
 10
96.23788415109267
 20
321.5735450026789
 30
0.0
 10
95.51682678424751
 20
321.2700760408367
 30
0.0
 10
95.17213734204608
 20
321.1159310970895
 30
0.0
 10
94.99974241423861
 20
321.0388361728022
 30
0.0
  0
SPLINE
  5
27A
330
1F
100
AcDbEntity
  8
0
  6
Continuous
 62
     8
370
    15
100
AcDbSpline
210
0.0
220
0.0
230
1.0
 70
     8
 71
     3
 72
    12
 73
     8
 74
     0
 42
0.00000001
 43
0.00000001
 40
0.0
 40
0.0
 40
0.0
 40
0.0
 40
0.3773721001325879
 40
0.5711302949816943
 40
0.7649870562869829
 40
0.9924532202347275
 40
1.0
 40
1.0
 40
1.0
 40
1.0
 10
132.741153891566
 20
321.0388361728022
 30
0.0
 10
132.4251599279975
 20
321.1829817676098
 30
0.0
 10
131.9469218029166
 20
321.4011375773634
 30
0.0
 10
130.9629194253702
 20
321.7485564916819
 30
0.0
 10
129.990810172524
 20
321.9610724660891
 30
0.0
 10
129.2918454915197
 20
322.1009082573296
 30
0.0
 10
128.7983123405474
 20
322.1276166082966
 30
0.0
 10
128.7824639113571
 20
322.1284742718765
 30
0.0
  0
LINE
  5
27B
330
1F
100
AcDbEntity
  8
0
  6
Continuous
 62
     8
370
    15
100
AcDbLine
 10
117.0731274871
 20
259.7361482
 30
0.0
 11
117.0713465655
 21
259.5174848354
 31
0.0
  0
LINE
  5
27C
330
1F
100
AcDbEntity
  8
0
  6
Continuous
 62
     8
370
    15
100
AcDbLine
 10
110.6695497403
 20
259.5174848354
 30
0.0
 11
110.6676083984
 21
259.7677610135
 31
0.0
  0
LINE
  5
27D
330
1F
100
AcDbEntity
  8
0
  6
Continuous
 62
     8
370
    15
100
AcDbLine
 10
120.710448082
 20
339.0001221812
 30
0.0
 11
120.710448082
 21
341.589280895
 31
0.0
  0
LINE
  5
27E
330
1F
100
AcDbEntity
  8
0
  6
Continuous
 62
     8
370
    15
100
AcDbLine
 10
107.0304482238
 20
339.0001221812
 30
0.0
 11
107.0304482238
 21
341.589280895
 31
0.0
  0
LINE
  5
27F
330
1F
100
AcDbEntity
  8
0
  6
Continuous
 62
     8
370
    15
100
AcDbLine
 10
138.2236189203
 20
331.3213340258
 30
0.0
 11
142.4704479979
 21
331.3213340258
 31
0.0
  0
LINE
  5
280
330
1F
100
AcDbEntity
  8
0
  6
Continuous
 62
     8
370
    15
100
AcDbLine
 10
141.9304485427
 20
328.7232569671
 30
0.0
 11
141.2786866533
 21
328.7232569671
 31
0.0
  0
LINE
  5
281
330
1F
100
AcDbEntity
  8
0
  6
Continuous
 62
     8
370
    15
100
AcDbLine
 10
85.2704483079
 20
331.3213340258
 30
0.0
 11
89.5172773855
 21
331.3213340258
 31
0.0
  0
LINE
  5
282
330
1F
100
AcDbEntity
  8
0
  6
Continuous
 62
     8
370
    15
100
AcDbLine
 10
86.4622096525
 20
328.7232569671
 30
0.0
 11
85.8104477631
 21
328.7232569671
 31
0.0
  0
LINE
  5
283
330
1F
100
AcDbEntity
  8
0
  6
Continuous
 62
     8
370
    15
100
AcDbLine
 10
141.687324922
 20
328.3333475953
 30
0.0
 11
141.9304485427
 21
328.7232569671
 31
0.0
  0
LINE
  5
284
330
1F
100
AcDbEntity
  8
0
  6
Continuous
 62
     8
370
    15
100
AcDbLine
 10
86.0535713838
 20
328.3333475953
 30
0.0
 11
85.8104477631
 21
328.7232569671
 31
0.0
  0
LINE
  5
285
330
1F
100
AcDbEntity
  8
0
  6
Continuous
 62
     8
370
    15
100
AcDbLine
 10
142.4704479979
 20
331.3213340258
 30
0.0
 11
148.8704483019
 21
331.3213340258
 31
0.0
  0
LINE
  5
286
330
1F
100
AcDbEntity
  8
0
  6
Continuous
 62
     8
370
    15
100
AcDbLine
 10
147.3704489874
 20
328.7232569671
 30
0.0
 11
141.9304485427
 21
328.7232569671
 31
0.0
  0
LINE
  5
287
330
1F
100
AcDbEntity
  8
0
  6
Continuous
 62
     8
370
    15
100
AcDbLine
 10
85.8104477631
 20
328.7232569671
 30
0.0
 11
80.3704473184
 21
328.7232569671
 31
0.0
  0
LINE
  5
288
330
1F
100
AcDbEntity
  8
0
  6
Continuous
 62
     8
370
    15
100
AcDbLine
 10
78.8704480039
 20
331.3213340258
 30
0.0
 11
85.2704483079
 21
331.3213340258
 31
0.0
  0
LINE
  5
289
330
1F
100
AcDbEntity
  8
0
  6
Continuous
 62
     8
370
    15
100
AcDbLine
 10
118.2558058755
 20
305.6582468813
 30
0.0
 11
117.8704483429
 21
305.6582468813
 31
0.0
  0
LINE
  5
28A
330
1F
100
AcDbEntity
  8
0
  6
Continuous
 62
     8
370
    15
100
AcDbLine
 10
109.8704479629
 20
305.6582468813
 30
0.0
 11
109.5419756131
 21
305.6582468813
 31
0.0
  0
LINE
  5
28B
330
1F
100
AcDbEntity
  8
1
100
AcDbLine
 10
128.3158846355
 20
234.6182052718
 30
0.0
 11
133.8704481529
 21
234.5892814612
 31
0.0
  0
LINE
  5
28C
330
1F
100
AcDbEntity
  8
1
100
AcDbLine
 10
99.4250116703
 20
234.6182052718
 30
0.0
 11
94.4250116703
 21
234.5892814612
 31
0.0
  0
LINE
  5
28D
330
1F
100
AcDbEntity
  8
1
100
AcDbLine
 10
94.4250116703
 20
234.5892814612
 30
0.0
 11
91.8704481529
 21
236.6467507329
 31
0.0
  0
LINE
  5
28E
330
1F
100
AcDbEntity
  8
1
100
AcDbLine
 10
133.8704481529
 20
234.5892814612
 30
0.0
 11
135.8704481529
 21
236.5892814612
 31
0.0
  0
LINE
  5
28F
330
1F
100
AcDbEntity
  8
0
  6
Continuous
 62
     7
370
    15
100
AcDbLine
 10
240.9261056275
 20
560.8583932611
 30
0.0
 11
230.9261039883
 21
560.8583932611
 31
0.0
  0
LINE
  5
290
330
1F
100
AcDbEntity
  8
0
  6
Continuous
 62
     7
370
    15
100
AcDbLine
 10
230.9261039883
 20
480.8583950493
 30
0.0
 11
240.9261056275
 21
480.8583950493
 31
0.0
  0
LINE
  5
291
330
1F
100
AcDbEntity
  8
0
  6
Continuous
 62
     7
370
    15
100
AcDbLine
 10
346.9261043758
 20
480.8583950493
 30
0.0
 11
356.9261060149
 21
480.8583950493
 31
0.0
  0
LINE
  5
292
330
1F
100
AcDbEntity
  8
0
  6
Continuous
 62
     7
370
    15
100
AcDbLine
 10
356.9261060149
 20
560.8583932611
 30
0.0
 11
346.9261043758
 21
560.8583932611
 31
0.0
  0
LINE
  5
293
330
1F
100
AcDbEntity
  8
0
  6
Continuous
 62
     7
370
    15
100
AcDbLine
 10
253.4485423059
 20
506.5739817786
 30
0.0
 11
257.0815608889
 21
505.4907213765
 31
0.0
  0
LINE
  5
294
330
1F
100
AcDbEntity
  8
0
  6
Continuous
 62
     7
370
    15
100
AcDbLine
 10
257.0872456819
 20
536.2277973312
 30
0.0
 11
253.4460240096
 21
535.1423008236
 31
0.0
  0
LINE
  5
295
330
1F
100
AcDbEntity
  8
0
  6
Continuous
 62
     7
370
    15
100
AcDbLine
 10
230.9261039883
 20
542.858394036
 30
0.0
 11
228.9261073858
 21
540.8583937082
 31
0.0
  0
LINE
  5
296
330
1F
100
AcDbEntity
  8
0
  6
Continuous
 62
     7
370
    15
100
AcDbLine
 10
228.9261073858
 20
500.8583946022
 30
0.0
 11
230.9261039883
 21
498.8583942744
 31
0.0
  0
LINE
  5
297
330
1F
100
AcDbEntity
  8
0
  6
Continuous
 62
     7
370
    15
100
AcDbLine
 10
356.9261060149
 20
498.8583942744
 30
0.0
 11
358.9261026174
 21
500.8583946022
 31
0.0
  0
LINE
  5
298
330
1F
100
AcDbEntity
  8
0
  6
Continuous
 62
     7
370
    15
100
AcDbLine
 10
358.9261026174
 20
540.8583937082
 30
0.0
 11
356.9261060149
 21
542.858394036
 31
0.0
  0
SPLINE
  5
299
330
1F
100
AcDbEntity
  8
0
  6
Continuous
 62
     7
370
    15
100
AcDbSpline
210
0.0
220
0.0
230
1.0
 70
     8
 71
     3
 72
    19
 73
    15
 74
     0
 42
0.00000001
 43
0.00000001
 40
0.0
 40
0.0
 40
0.0
 40
0.0
 40
0.163813306412516
 40
0.3397241811793746
 40
0.4883005700708887
 40
0.6095528584226079
 40
0.6750855481122019
 40
0.727258525669271
 40
0.7679326503257807
 40
0.8098413007589941
 40
0.8639899837175709
 40
0.8941170292201958
 40
0.9259319502820104
 40
1.0
 40
1.0
 40
1.0
 40
1.0
 10
252.3963675886976
 20
535.1278774309093
 30
0.0
 10
251.6909784955785
 20
535.3143286252307
 30
0.0
 10
250.228107515676
 20
535.7010003841244
 30
0.0
 10
248.1438892298768
 20
536.2649886899335
 30
0.0
 10
246.2325394263155
 20
536.7786764836271
 30
0.0
 10
244.789941667348
 20
537.1663877430096
 30
0.0
 10
243.7624111449528
 20
537.4428945195641
 30
0.0
 10
243.0628699642201
 20
537.6291585679753
 30
0.0
 10
242.453755246027
 20
537.8004314732021
 30
0.0
 10
241.9084734415404
 20
537.981517379724
 30
0.0
 10
241.4787177217001
 20
538.1569544816182
 30
0.0
 10
241.1785760883017
 20
538.3265173873905
 30
0.0
 10
240.9700736822613
 20
538.5329428544559
 30
0.0
 10
240.9442029300577
 20
538.671747315019
 30
0.0
 10
240.9261056274759
 20
538.7688448521429
 30
0.0
  0
SPLINE
  5
29A
330
1F
100
AcDbEntity
  8
0
  6
Continuous
 62
     7
370
    15
100
AcDbSpline
210
0.0
220
0.0
230
1.0
 70
     8
 71
     3
 72
    20
 73
    16
 74
     0
 42
0.00000001
 43
0.00000001
 40
0.0
 40
0.0
 40
0.0
 40
0.0
 40
0.0327972330093382
 40
0.0759621992340874
 40
0.1100165254214852
 40
0.13580328295717
 40
0.153054411796093
 40
0.1584575042671486
 40
0.1794214904685392
 40
0.2385668719787797
 40
0.3368964458641828
 40
0.4685908529649557
 40
0.6296715600763484
 40
0.8201361900864035
 40
1.0
 40
1.0
 40
1.0
 40
1.0
 10
240.9408466011869
 20
503.0082838478619
 30
0.0
 10
240.945846896553
 20
503.0385967219534
 30
0.0
 10
240.9574281611286
 20
503.1088048575127
 30
0.0
 10
241.0368692958644
 20
503.2375594079032
 30
0.0
 10
241.1658626272722
 20
503.3700234351076
 30
0.0
 10
241.335144589074
 20
503.4771395403164
 30
0.0
 10
241.4693246520232
 20
503.5480655938279
 30
0.0
 10
241.6278724856563
 20
503.6223047146632
 30
0.0
 10
242.0124206029243
 20
503.7760586506578
 30
0.0
 10
242.77429172472
 20
504.0138925107037
 30
0.0
 10
244.0616684308168
 20
504.3516237717866
 30
0.0
 10
245.712670393034
 20
504.7991653235184
 30
0.0
 10
247.7813254214666
 20
505.3538551558303
 30
0.0
 10
250.0356281415237
 20
505.9640625987647
 30
0.0
 10
251.6217552724286
 20
506.3837986998449
 30
0.0
 10
252.392117032467
 20
506.5876591819459
 30
0.0
  0
SPLINE
  5
29B
330
1F
100
AcDbEntity
  8
0
  6
Continuous
 62
     7
370
    15
100
AcDbSpline
210
0.0
220
0.0
230
1.0
 70
     8
 71
     3
 72
    20
 73
    16
 74
     0
 42
0.00000001
 43
0.00000001
 40
0.0
 40
0.0
 40
0.0
 40
0.0
 40
0.1688198119299749
 40
0.3612671365832619
 40
0.5265550817499339
 40
0.6646670666984263
 40
0.741355487220813
 40
0.803786876284193
 40
0.8510903518168373
 40
0.8883743243393646
 40
0.9270452577149089
 40
0.9447417409160201
 40
0.9611251554948183
 40
0.9791116270418578
 40
1.0
 40
1.0
 40
1.0
 40
1.0
 10
335.4600072891103
 20
506.5881620961362
 30
0.0
 10
336.1268468688738
 20
506.4122033464017
 30
0.0
 10
337.5538548887706
 20
506.0356591899628
 30
0.0
 10
339.6411573287275
 20
505.4773255029689
 30
0.0
 10
341.6054087794355
 20
504.9536576785182
 30
0.0
 10
343.1160603991235
 20
504.5510325712959
 30
0.0
 10
344.2127092394546
 20
504.2576529279414
 30
0.0
 10
344.9806298172592
 20
504.0547698981858
 30
0.0
 10
345.5771938157513
 20
503.8797124905597
 30
0.0
 10
346.0822870793394
 20
503.7064013891712
 30
0.0
 10
346.4535722628944
 20
503.5476510069179
 30
0.0
 10
346.708590211325
 20
503.3905649529822
 30
0.0
 10
346.8311338071191
 20
503.2519947249625
 30
0.0
 10
346.9106405263226
 20
503.1146192396308
 30
0.0
 10
346.9206994684037
 20
503.0302988233058
 30
0.0
 10
346.9261043757783
 20
502.9849914702708
 30
0.0
  0
SPLINE
  5
29C
330
1F
100
AcDbEntity
  8
0
  6
Continuous
 62
     7
370
    15
100
AcDbSpline
210
0.0
220
0.0
230
1.0
 70
     8
 71
     3
 72
    20
 73
    16
 74
     0
 42
0.00000001
 43
0.00000001
 40
0.0
 40
0.0
 40
0.0
 40
0.0
 40
0.0343593723187658
 40
0.0602357025413627
 40
0.080513679647752
 40
0.0973477491073516
 40
0.1099814673271848
 40
0.1226675383172852
 40
0.1381221050727804
 40
0.2031823407720421
 40
0.3087429638924325
 40
0.448458712351107
 40
0.6182865308239692
 40
0.8182078247328002
 40
1.0
 40
1.0
 40
1.0
 40
1.0
 10
346.9261043757783
 20
538.7318117412859
 30
0.0
 10
346.9176351723684
 20
538.6800214829716
 30
0.0
 10
346.9027877411455
 20
538.5892275486289
 30
0.0
 10
346.8062450624688
 20
538.4330071981288
 30
0.0
 10
346.6553840598057
 20
538.2967049134915
 30
0.0
 10
346.4859976377328
 20
538.1972221023074
 30
0.0
 10
346.3187929743254
 20
538.114483868365
 30
0.0
 10
346.1578112247462
 20
538.0457207027669
 30
0.0
 10
345.7934883029713
 20
537.9050185386197
 30
0.0
 10
345.0217849166155
 20
537.6673417139078
 30
0.0
 10
343.7268119618571
 20
537.331798820323
 30
0.0
 10
342.0564244281258
 20
536.8821611606812
 30
0.0
 10
339.9800544224123
 20
536.3302283082077
 30
0.0
 10
337.7362238959435
 20
535.7296984781001
 30
0.0
 10
336.1851505349411
 20
535.320187112488
 30
0.0
 10
335.4464472324239
 20
535.1251561063463
 30
0.0
  0
SPLINE
  5
29D
330
1F
100
AcDbEntity
  8
0
  6
Continuous
 62
     7
370
    15
100
AcDbSpline
210
0.0
220
0.0
230
1.0
 70
     8
 71
     3
 72
    10
 73
     6
 74
     0
 42
0.00000001
 43
0.00000001
 40
0.0
 40
0.0
 40
0.0
 40
0.0
 40
0.3042816204316203
 40
0.7916245559930366
 40
1.0
 40
1.0
 40
1.0
 40
1.0
 10
253.4439080447542
 20
535.1570175829464
 30
0.0
 10
253.3410226427776
 20
535.1264416524076
 30
0.0
 10
253.0733541239156
 20
535.0468947596227
 30
0.0
 10
252.7047872185599
 20
535.0465256379205
 30
0.0
 10
252.4706455987069
 20
535.1190884951988
 30
0.0
 10
252.40051756209
 20
535.1408218833739
 30
0.0
  0
SPLINE
  5
29E
330
1F
100
AcDbEntity
  8
0
  6
Continuous
 62
     7
370
    15
100
AcDbSpline
210
0.0
220
0.0
230
1.0
 70
     8
 71
     3
 72
    10
 73
     6
 74
     0
 42
0.00000001
 43
0.00000001
 40
0.0
 40
0.0
 40
0.0
 40
0.0
 40
0.227390157177478
 40
0.7636839698105433
 40
1.0
 40
1.0
 40
1.0
 40
1.0
 10
252.3958423227655
 20
506.5724292638832
 30
0.0
 10
252.472959109568
 20
506.5956354036406
 30
0.0
 10
252.7319538462593
 20
506.6735726246436
 30
0.0
 10
253.1053905540253
 20
506.6668882908814
 30
0.0
 10
253.3640224409961
 20
506.5815005716902
 30
0.0
 10
253.4431294590818
 20
506.5553832668
 30
0.0
  0
SPLINE
  5
29F
330
1F
100
AcDbEntity
  8
0
  6
Continuous
 62
     7
370
    15
100
AcDbSpline
210
0.0
220
0.0
230
1.0
 70
     8
 71
     3
 72
     9
 73
     5
 74
     0
 42
0.00000001
 43
0.00000001
 40
0.0
 40
0.0
 40
0.0
 40
0.0
 40
0.0494710613841182
 40
1.0
 40
1.0
 40
1.0
 40
1.0
 10
334.4107830018388
 20
535.1408824193412
 30
0.0
 10
334.3516983671961
 20
535.158479909007
 30
0.0
 10
333.1573711587304
 20
535.5141927070221
 30
0.0
 10
331.9649200448088
 20
535.870102640883
 30
0.0
 10
330.8314607531415
 20
536.2084053325588
 30
0.0
  0
SPLINE
  5
2A0
330
1F
100
AcDbEntity
  8
0
  6
Continuous
 62
     7
370
    15
100
AcDbSpline
210
0.0
220
0.0
230
1.0
 70
     8
 71
     3
 72
     9
 73
     5
 74
     0
 42
0.00000001
 43
0.00000001
 40
0.0
 40
0.0
 40
0.0
 40
0.0
 40
0.1772701900716579
 40
1.0
 40
1.0
 40
1.0
 40
1.0
 10
330.8024928957807
 20
505.4996788370544
 30
0.0
 10
331.0149862805791
 20
505.5631334648356
 30
0.0
 10
332.2136840690375
 20
505.9210877703824
 30
0.0
 10
333.4140087971044
 20
506.2785185946274
 30
0.0
 10
334.4015517324792
 20
506.5725875887209
 30
0.0
  0
SPLINE
  5
2A1
330
1F
100
AcDbEntity
  8
0
  6
Continuous
 62
     7
370
    15
100
AcDbSpline
210
0.0
220
0.0
230
1.0
 70
     8
 71
     3
 72
    10
 73
     6
 74
     0
 42
0.00000001
 43
0.00000001
 40
0.0
 40
0.0
 40
0.0
 40
0.0
 40
0.016259773453062
 40
0.4988624095034793
 40
1.0
 40
1.0
 40
1.0
 40
1.0
 10
334.4084546954023
 20
506.5698439124161
 30
0.0
 10
334.4136348311242
 20
506.57207177448
 30
0.0
 10
334.5725653965021
 20
506.6404243035281
 30
0.0
 10
334.9431942899714
 20
506.6747324699292
 30
0.0
 10
335.285738938109
 20
506.6159130838689
 30
0.0
 10
335.4602382571088
 20
506.5859492736989
 30
0.0
  0
SPLINE
  5
2A2
330
1F
100
AcDbEntity
  8
0
  6
Continuous
 62
     7
370
    15
100
AcDbSpline
210
0.0
220
0.0
230
1.0
 70
     8
 71
     3
 72
    10
 73
     6
 74
     0
 42
0.00000001
 43
0.00000001
 40
0.0
 40
0.0
 40
0.0
 40
0.0
 40
0.1085878273062895
 40
0.6015509890994406
 40
1.0
 40
1.0
 40
1.0
 40
1.0
 10
335.4410902649747
 20
535.1333675774866
 30
0.0
 10
335.4056104962065
 20
535.1209041961556
 30
0.0
 10
335.2090609332864
 20
535.051859998908
 30
0.0
 10
334.8443286415253
 20
535.0426260518306
 30
0.0
 10
334.5438026808289
 20
535.1185363009771
 30
0.0
 10
334.4094716996537
 20
535.1524671408469
 30
0.0
  0
CIRCLE
  5
2A3
330
1F
100
AcDbEntity
  8
0
  6
Continuous
 62
     7
370
    15
100
AcDbCircle
 10
293.9261050016
 20
520.8583941552
 30
0.0
 40
40.0
  0
LINE
  5
2A4
330
1F
100
AcDbEntity
  8
0
  6
Continuous
 62
     7
370
    15
100
AcDbLine
 10
230.9261039883
 20
560.8583932611
 30
0.0
 11
230.9261039883
 21
480.8583950493
 31
0.0
  0
LINE
  5
2A5
330
1F
100
AcDbEntity
  8
0
  6
Continuous
 62
     7
370
    15
100
AcDbLine
 10
240.9261056275
 20
560.8583932611
 30
0.0
 11
240.9261056275
 21
480.8583950493
 31
0.0
  0
LINE
  5
2A6
330
1F
100
AcDbEntity
  8
0
  6
Continuous
 62
     7
370
    15
100
AcDbLine
 10
346.9261043758
 20
560.8583932611
 30
0.0
 11
346.9261043758
 21
480.8583950493
 31
0.0
  0
LINE
  5
2A7
330
1F
100
AcDbEntity
  8
0
  6
Continuous
 62
     7
370
    15
100
AcDbLine
 10
356.9261060149
 20
560.8583932611
 30
0.0
 11
356.9261060149
 21
480.8583950493
 31
0.0
  0
LINE
  5
2A8
330
1F
100
AcDbEntity
  8
0
  6
Continuous
 62
     7
370
    15
100
AcDbLine
 10
343.9261057467
 20
522.3583941682
 30
0.0
 11
343.9261057467
 21
519.3583941422
 31
0.0
  0
SPLINE
  5
2A9
330
1F
100
AcDbEntity
  8
0
  6
Continuous
 62
     7
370
    15
100
AcDbSpline
210
0.0
220
0.0
230
1.0
 70
     8
 71
     3
 72
    18
 73
    14
 74
     0
 42
0.00000001
 43
0.00000001
 40
0.0
 40
0.0
 40
0.0
 40
0.0
 40
0.1250000000000003
 40
0.1250000000000003
 40
0.2500000000000007
 40
0.2500000000000007
 40
0.5000000000000012
 40
0.5000000000000012
 40
0.7500000000000019
 40
0.7500000000000019
 40
0.875000000000001
 40
0.875000000000001
 40
1.0
 40
1.0
 40
1.0
 40
1.0
 10
344.926105001627
 20
522.3583941551979
 30
0.0
 10
345.0967182662395
 20
522.3583941551979
 30
0.0
 10
345.2571892218795
 20
522.379799872742
 30
0.0
 10
345.560682179425
 20
522.4553009097458
 30
0.0
 10
345.7031203490114
 20
522.5099273388015
 30
0.0
 10
346.086938247519
 20
522.7046723343379
 30
0.0
 10
346.2955042791654
 20
522.8795468373715
 30
0.0
 10
346.6168389250911
 20
523.2612785866218
 30
0.0
 10
346.7345710977106
 20
523.473742487416
 30
0.0
 10
346.8499614352265
 20
523.7997655026958
 30
0.0
 10
346.8784447374052
 20
523.9099261464436
 30
0.0
 10
346.9165203721901
 20
524.1325609171637
 30
0.0
 10
346.926105001627
 20
524.2459049727369
 30
0.0
 10
346.926105001627
 20
524.3583941551979
 30
0.0
  0
SPLINE
  5
2AA
330
1F
100
AcDbEntity
  8
0
  6
Continuous
 62
     7
370
    15
100
AcDbSpline
210
0.0
220
0.0
230
1.0
 70
     8
 71
     3
 72
    18
 73
    14
 74
     0
 42
0.00000001
 43
0.00000001
 40
0.0
 40
0.0
 40
0.0
 40
0.0
 40
0.1250000000000003
 40
0.1250000000000003
 40
0.2500000000000007
 40
0.2500000000000007
 40
0.5000000000000012
 40
0.5000000000000012
 40
0.7500000000000019
 40
0.7500000000000019
 40
0.875000000000001
 40
0.875000000000001
 40
1.0
 40
1.0
 40
1.0
 40
1.0
 10
344.926105001627
 20
519.3583941551979
 30
0.0
 10
345.0967182662395
 20
519.3583941551979
 30
0.0
 10
345.2571892218795
 20
519.3369884376536
 30
0.0
 10
345.560682179425
 20
519.2614874006498
 30
0.0
 10
345.7031203490114
 20
519.206860971594
 30
0.0
 10
346.086938247519
 20
519.0121159760577
 30
0.0
 10
346.2955042791654
 20
518.837241473024
 30
0.0
 10
346.6168389250911
 20
518.4555097237738
 30
0.0
 10
346.7345710977106
 20
518.2430458229796
 30
0.0
 10
346.8499614352265
 20
517.9170228076998
 30
0.0
 10
346.8784447374052
 20
517.8068621639519
 30
0.0
 10
346.9165203721901
 20
517.5842273932319
 30
0.0
 10
346.926105001627
 20
517.4708833376587
 30
0.0
 10
346.926105001627
 20
517.3583941551977
 30
0.0
  0
LINE
  5
2AB
330
1F
100
AcDbEntity
  8
0
  6
Continuous
 62
     7
370
    15
100
AcDbLine
 10
343.9261057467
 20
519.3583941422
 30
0.0
 11
344.926104048
 21
519.3583941422
 31
0.0
  0
LINE
  5
2AC
330
1F
100
AcDbEntity
  8
0
  6
Continuous
 62
     7
370
    15
100
AcDbLine
 10
343.9261057467
 20
522.3583941682
 30
0.0
 11
344.926104048
 21
522.3583941682
 31
0.0
  0
SPLINE
  5
2AD
330
1F
100
AcDbEntity
  8
0
  6
Continuous
 62
     7
370
    15
100
AcDbSpline
210
0.0
220
0.0
230
1.0
 70
     8
 71
     3
 72
    18
 73
    14
 74
     0
 42
0.00000001
 43
0.00000001
 40
0.0
 40
0.0
 40
0.0
 40
0.0
 40
0.1250000000000005
 40
0.1250000000000005
 40
0.2500000000000011
 40
0.2500000000000011
 40
0.500000000000002
 40
0.500000000000002
 40
0.750000000000003
 40
0.750000000000003
 40
0.8750000000000016
 40
0.8750000000000016
 40
1.0
 40
1.0
 40
1.0
 40
1.0
 10
242.9261050016271
 20
522.3583941551979
 30
0.0
 10
242.7554917370147
 20
522.3583941551979
 30
0.0
 10
242.5950207813746
 20
522.379799872742
 30
0.0
 10
242.2915278238292
 20
522.4553009097458
 30
0.0
 10
242.1490896542428
 20
522.5099273388015
 30
0.0
 10
241.7652717557353
 20
522.7046723343378
 30
0.0
 10
241.5567057240889
 20
522.8795468373714
 30
0.0
 10
241.2353710781632
 20
523.2612785866214
 30
0.0
 10
241.1176389055437
 20
523.4737424874156
 30
0.0
 10
241.0022485680278
 20
523.7997655026952
 30
0.0
 10
240.973765265849
 20
523.9099261464431
 30
0.0
 10
240.9356896310642
 20
524.1325609171627
 30
0.0
 10
240.9261050016272
 20
524.2459049721133
 30
0.0
 10
240.9261050016271
 20
524.3583941551979
 30
0.0
  0
LINE
  5
2AE
330
1F
100
AcDbEntity
  8
0
  6
Continuous
 62
     7
370
    15
100
AcDbLine
 10
243.9261042566
 20
522.3583941682
 30
0.0
 11
243.9261042566
 21
519.3583941422
 31
0.0
  0
SPLINE
  5
2AF
330
1F
100
AcDbEntity
  8
0
  6
Continuous
 62
     7
370
    15
100
AcDbSpline
210
0.0
220
0.0
230
1.0
 70
     8
 71
     3
 72
    18
 73
    14
 74
     0
 42
0.00000001
 43
0.00000001
 40
0.0
 40
0.0
 40
0.0
 40
0.0
 40
0.1250000000000005
 40
0.1250000000000005
 40
0.2500000000000011
 40
0.2500000000000011
 40
0.500000000000002
 40
0.500000000000002
 40
0.750000000000003
 40
0.750000000000003
 40
0.8750000000000016
 40
0.8750000000000016
 40
1.0
 40
1.0
 40
1.0
 40
1.0
 10
242.9261050016271
 20
519.3583941551979
 30
0.0
 10
242.7554917370147
 20
519.3583941551979
 30
0.0
 10
242.5950207813746
 20
519.3369884376536
 30
0.0
 10
242.2915278238292
 20
519.2614874006498
 30
0.0
 10
242.1490896542428
 20
519.2068609715941
 30
0.0
 10
241.7652717557353
 20
519.0121159760577
 30
0.0
 10
241.5567057240889
 20
518.8372414730242
 30
0.0
 10
241.2353710781632
 20
518.4555097237741
 30
0.0
 10
241.1176389055437
 20
518.24304582298
 30
0.0
 10
241.0022485680278
 20
517.9170228077003
 30
0.0
 10
240.973765265849
 20
517.8068621639525
 30
0.0
 10
240.9356896310642
 20
517.5842273932329
 30
0.0
 10
240.9261050016272
 20
517.4708833382823
 30
0.0
 10
240.9261050016271
 20
517.3583941551977
 30
0.0
  0
LINE
  5
2B0
330
1F
100
AcDbEntity
  8
0
  6
Continuous
 62
     7
370
    15
100
AcDbLine
 10
242.9261059553
 20
522.3583941682
 30
0.0
 11
243.9261042566
 21
522.3583941682
 31
0.0
  0
LINE
  5
2B1
330
1F
100
AcDbEntity
  8
0
  6
Continuous
 62
     7
370
    15
100
AcDbLine
 10
242.9261059553
 20
519.3583941422
 30
0.0
 11
243.9261042566
 21
519.3583941422
 31
0.0
  0
LINE
  5
2B2
330
1F
100
AcDbEntity
  8
0
  6
Continuous
 62
     7
370
    15
100
AcDbLine
 10
333.8979707152
 20
519.3583941422
 30
0.0
 11
343.9261057467
 21
519.3583941422
 31
0.0
  0
LINE
  5
2B3
330
1F
100
AcDbEntity
  8
0
  6
Continuous
 62
     7
370
    15
100
AcDbLine
 10
333.8979707152
 20
522.3583941682
 30
0.0
 11
343.9261057467
 21
522.3583941682
 31
0.0
  0
LINE
  5
2B4
330
1F
100
AcDbEntity
  8
0
  6
Continuous
 62
     7
370
    15
100
AcDbLine
 10
243.9261042566
 20
522.3583941682
 30
0.0
 11
253.954239288
 21
522.3583941682
 31
0.0
  0
LINE
  5
2B5
330
1F
100
AcDbEntity
  8
0
  6
Continuous
 62
     7
370
    15
100
AcDbLine
 10
243.9261042566
 20
519.3583941422
 30
0.0
 11
253.954239288
 21
519.3583941422
 31
0.0
  0
LINE
  5
2B6
330
1F
100
AcDbEntity
  8
0
  6
Continuous
 62
     7
370
    15
100
AcDbLine
 10
228.9261073858
 20
540.8583937082
 30
0.0
 11
228.9261073858
 21
500.8583946022
 31
0.0
  0
LINE
  5
2B7
330
1F
100
AcDbEntity
  8
0
  6
Continuous
 62
     7
370
    15
100
AcDbLine
 10
358.9261026174
 20
540.8583937082
 30
0.0
 11
358.9261026174
 21
500.8583946022
 31
0.0
  0
SPLINE
  5
2B8
330
1F
100
AcDbEntity
  8
0
  6
Continuous
 62
     7
370
    15
100
AcDbSpline
210
0.0
220
0.0
230
1.0
 70
     8
 71
     3
 72
    14
 73
    10
 74
     0
 42
0.00000001
 43
0.00000001
 40
0.0
 40
0.0
 40
0.0
 40
0.0
 40
0.25
 40
0.25
 40
0.5
 40
0.5
 40
0.75
 40
0.75
 40
1.0
 40
1.0
 40
1.0
 40
1.0
 10
240.9261050016271
 20
524.3583941551977
 30
0.0
 10
240.9261061221926
 20
524.3438227809355
 30
0.0
 10
240.9322798646978
 20
524.3291879238213
 30
0.0
 10
240.9564770984764
 20
524.3012397842559
 30
0.0
 10
240.9745001807746
 20
524.2876872567975
 30
0.0
 10
241.0223159594057
 20
524.2614186541659
 30
0.0
 10
241.0521072171416
 20
524.2487020537396
 30
0.0
 10
241.1238101739255
 20
524.2240908474158
 30
0.0
 10
241.1664204033319
 20
524.2132877392793
 30
0.0
 10
241.2129009115163
 20
524.2009977679061
 30
0.0
  0
SPLINE
  5
2B9
330
1F
100
AcDbEntity
  8
0
  6
Continuous
 62
     7
370
    15
100
AcDbSpline
210
0.0
220
0.0
230
1.0
 70
     8
 71
     3
 72
    18
 73
    14
 74
     0
 42
0.00000001
 43
0.00000001
 40
0.0
 40
0.0
 40
0.0
 40
0.0
 40
0.2500000000000007
 40
0.2500000000000007
 40
0.5000000000000004
 40
0.5000000000000004
 40
0.7500000000000001
 40
0.7500000000000001
 40
0.8750000000000002
 40
0.8750000000000002
 40
0.9375000000000001
 40
0.9375000000000001
 40
1.0
 40
1.0
 40
1.0
 40
1.0
 10
241.2129009115163
 20
524.2009977679061
 30
0.0
 10
241.3497342443943
 20
524.1648850058847
 30
0.0
 10
241.5387631430303
 20
524.1381661722255
 30
0.0
 10
241.9837957240842
 20
524.0967560410813
 30
0.0
 10
242.2370029534161
 20
524.081902444468
 30
0.0
 10
242.7968687984621
 20
524.0584134186644
 30
0.0
 10
243.0915390603008
 20
524.0502669281933
 30
0.0
 10
243.5577152163964
 20
524.0429334703833
 30
0.0
 10
243.71651052853
 20
524.0417547189222
 30
0.0
 10
243.9527215213645
 20
524.0412344008197
 30
0.0
 10
244.0314477398072
 20
524.0413031436024
 30
0.0
 10
244.1888784892948
 20
524.0419342155773
 30
0.0
 10
244.2683867763023
 20
524.0437567659724
 30
0.0
 10
244.3462758288232
 20
524.0433156927407
 30
0.0
  0
SPLINE
  5
2BA
330
1F
100
AcDbEntity
  8
0
  6
Continuous
 62
     7
370
    15
100
AcDbSpline
210
0.0
220
0.0
230
1.0
 70
     8
 71
     3
 72
    13
 73
     9
 74
     0
 42
0.00000001
 43
0.00000001
 40
0.0
 40
0.0
 40
0.0
 40
0.0
 40
0.5000000000000034
 40
0.7500000000000034
 40
0.8750000000000034
 40
0.9375000000000018
 40
0.9375000000000018
 40
1.0
 40
1.0
 40
1.0
 40
1.0
 10
244.3462758288232
 20
524.0433156927407
 30
0.0
 10
245.359714320133
 20
524.037608512772
 30
0.0
 10
246.8799151882791
 20
524.0286740325427
 30
0.0
 10
248.6530609454823
 20
524.0174562990492
 30
0.0
 10
249.5394664332131
 20
524.0116283141336
 30
0.0
 10
249.9193120578302
 20
524.0090813545972
 30
0.0
 10
250.1725323121269
 20
524.00737217253
 30
0.0
 10
250.2991254510083
 20
524.005193045482
 30
0.0
 10
250.4257369580675
 20
524.0056460433854
 30
0.0
  0
SPLINE
  5
2BB
330
1F
100
AcDbEntity
  8
0
  6
Continuous
 62
     7
370
    15
100
AcDbSpline
210
0.0
220
0.0
230
1.0
 70
     8
 71
     3
 72
    10
 73
     6
 74
     0
 42
0.00000001
 43
0.00000001
 40
0.0
 40
0.0
 40
0.0
 40
0.0
 40
0.5
 40
0.5
 40
1.0
 40
1.0
 40
1.0
 40
1.0
 10
250.4257369580675
 20
524.0056460433854
 30
0.0
 10
250.8336603207608
 20
524.0070933064377
 30
0.0
 10
251.2322215839941
 20
524.0061028206864
 30
0.0
 10
252.033349336462
 20
523.9943171346616
 30
0.0
 10
252.4363785324821
 20
523.9889706535126
 30
0.0
 10
252.8384411556241
 20
523.9844849702238
 30
0.0
  0
SPLINE
  5
2BC
330
1F
100
AcDbEntity
  8
0
  6
Continuous
 62
     7
370
    15
100
AcDbSpline
210
0.0
220
0.0
230
1.0
 70
     8
 71
     3
 72
    20
 73
    16
 74
     0
 42
0.00000001
 43
0.00000001
 40
-0.0000000599967264
 40
-0.0000000599967264
 40
-0.0000000599967264
 40
-0.0000000599967264
 40
0.0
 40
0.0
 40
0.0
 40
0.0012850927065184
 40
0.0012850927065184
 40
0.0012850927065184
 40
0.0044950430086635
 40
0.0044950430086635
 40
0.0044950430086635
 40
0.0061399081633205
 40
0.0061399081633205
 40
0.0061399081633205
 40
0.0061399681633205
 40
0.0061399681633205
 40
0.0061399681633205
 40
0.0061399681633205
 10
250.4257370236216
 20
517.7111657772763
 30
0.0
 10
250.425717230745
 20
517.7111656418396
 30
0.0
 10
250.4256974378684
 20
517.7111655064026
 30
0.0
 10
250.4256776449915
 20
517.7111653709659
 30
0.0
 10
250.0017264872729
 20
517.7082643991721
 30
0.0
 10
249.5777130940427
 20
517.7054277413431
 30
0.0
 10
249.1536523772764
 20
517.7026504759275
 30
0.0
 10
248.0944192299646
 20
517.6957133287905
 30
0.0
 10
247.0348895107366
 20
517.689145833181
 30
0.0
 10
245.9752826896218
 20
517.6828805800227
 30
0.0
 10
245.4323112779683
 20
517.679670093563
 30
0.0
 10
244.8893192089385
 20
517.6765391790465
 30
0.0
 10
244.3463352974048
 20
517.6734799954347
 30
0.0
 10
244.3463154908922
 20
517.6734798838444
 30
0.0
 10
244.3462956843796
 20
517.6734797722542
 30
0.0
 10
244.346275877867
 20
517.6734796606639
 30
0.0
  0
SPLINE
  5
2BD
330
1F
100
AcDbEntity
  8
0
  6
Continuous
 62
     7
370
    15
100
AcDbSpline
210
0.0
220
0.0
230
1.0
 70
     8
 71
     3
 72
    14
 73
    10
 74
     0
 42
0.00000001
 43
0.00000001
 40
0.0
 40
0.0
 40
0.0
 40
0.0
 40
0.2500000000000003
 40
0.2500000000000003
 40
0.5000000000000006
 40
0.5000000000000006
 40
0.7500000000000009
 40
0.7500000000000009
 40
1.0
 40
1.0
 40
1.0
 40
1.0
 10
244.346275877867
 20
517.6734796606639
 30
0.0
 10
244.0344945997323
 20
517.6767245449104
 30
0.0
 10
243.7139162938222
 20
517.6763153455329
 30
0.0
 10
243.0913741872192
 20
517.6665263583166
 30
0.0
 10
242.7967426056756
 20
517.6583712131167
 30
0.0
 10
242.2376443501437
 20
517.6349189371357
 30
0.0
 10
241.9837562720367
 20
517.6200272455261
 30
0.0
 10
241.5391168648808
 20
517.5786614207575
 30
0.0
 10
241.3498493242934
 20
517.5519359501852
 30
0.0
 10
241.2129009220963
 20
517.5157919168047
 30
0.0
  0
SPLINE
  5
2BE
330
1F
100
AcDbEntity
  8
0
  6
Continuous
 62
     7
370
    15
100
AcDbSpline
210
0.0
220
0.0
230
1.0
 70
     8
 71
     3
 72
    10
 73
     6
 74
     0
 42
0.00000001
 43
0.00000001
 40
0.0
 40
0.0
 40
0.0
 40
0.0
 40
0.5
 40
0.5
 40
1.0
 40
1.0
 40
1.0
 40
1.0
 10
241.2129009220963
 20
517.5157919168047
 30
0.0
 10
241.1184542600188
 20
517.4933119528737
 30
0.0
 10
241.0462254898586
 20
517.4685070409649
 30
0.0
 10
240.9505786462578
 20
517.4159585438626
 30
0.0
 10
240.9261050016272
 20
517.3879693055923
 30
0.0
 10
240.9261050016271
 20
517.3583941551979
 30
0.0
  0
SPLINE
  5
2BF
330
1F
100
AcDbEntity
  8
0
  6
Continuous
 62
     7
370
    15
100
AcDbSpline
210
0.0
220
0.0
230
1.0
 70
     8
 71
     3
 72
    10
 73
     6
 74
     0
 42
0.00000001
 43
0.00000001
 40
0.0
 40
0.0
 40
0.0
 40
0.0
 40
0.5
 40
0.5
 40
1.0
 40
1.0
 40
1.0
 40
1.0
 10
252.8384997752774
 20
517.7323360504505
 30
0.0
 10
252.4365185587325
 20
517.7278495786588
 30
0.0
 10
252.0335929314739
 20
517.7225032007808
 30
0.0
 10
251.2325379557226
 20
517.7107160765049
 30
0.0
 10
250.8337588364898
 20
517.7097195801289
 30
0.0
 10
250.4257370236216
 20
517.7111657772763
 30
0.0
  0
ARC
  5
2C0
330
1F
100
AcDbEntity
  8
0
  6
Continuous
 62
     7
370
    15
100
AcDbCircle
 10
252.4952775885
 20
508.2344331183
 30
0.0
 40
9.50410243690896
100
AcDbArc
 50
86.8886392576
 51
87.930423271
  0
ARC
  5
2C1
330
1F
100
AcDbEntity
  8
0
  6
Continuous
 62
     7
370
    15
100
AcDbCircle
 10
252.4969959117
 20
533.4828884365
 30
0.0
 40
9.504538488840486
100
AcDbArc
 50
272.0587569782
 51
273.1003718404
  0
SPLINE
  5
2C2
330
1F
100
AcDbEntity
  8
0
  6
Continuous
 62
     7
370
    15
100
AcDbSpline
210
0.0
220
0.0
230
1.0
 70
     8
 71
     3
 72
    19
 73
    15
 74
     0
 42
0.00000001
 43
0.00000001
 40
0.0
 40
0.0
 40
0.0
 40
0.0
 40
0.2499999999999992
 40
0.2499999999999992
 40
0.4999999999999983
 40
0.4999999999999983
 40
0.624999999999998
 40
0.6874999999999978
 40
0.6874999999999978
 40
0.7499999999999976
 40
0.7499999999999976
 40
0.8749999999999988
 40
0.8749999999999988
 40
1.0
 40
1.0
 40
1.0
 40
1.0
 10
345.2312270858033
 20
517.6479898052806
 30
0.0
 10
344.3826858236113
 20
517.6507837462331
 30
0.0
 10
343.5354061393921
 20
517.6574611731589
 30
0.0
 10
341.8403701250377
 20
517.6696821263379
 30
0.0
 10
340.9929543919429
 20
517.676116071793
 30
0.0
 10
339.7220074131785
 20
517.686325127743
 30
0.0
 10
339.0865797839193
 20
517.6915693556363
 30
0.0
 10
338.4512157345226
 20
517.6970386456485
 30
0.0
 10
338.0276544487703
 20
517.7007366994177
 30
0.0
 10
337.8164798851063
 20
517.7020407906335
 30
0.0
 10
337.1780070110615
 20
517.7144083214946
 30
0.0
 10
336.744403773411
 20
517.7265028436516
 30
0.0
 10
335.8515177288389
 20
517.7479544846817
 30
0.0
 10
335.394728328453
 20
517.755596138873
 30
0.0
 10
334.944491010379
 20
517.7599027100686
 30
0.0
  0
SPLINE
  5
2C3
330
1F
100
AcDbEntity
  8
0
  6
Continuous
 62
     7
370
    15
100
AcDbSpline
210
0.0
220
0.0
230
1.0
 70
     8
 71
     3
 72
    18
 73
    14
 74
     0
 42
0.00000001
 43
0.00000001
 40
0.0
 40
0.0
 40
0.0
 40
0.0
 40
0.1250000000000001
 40
0.1250000000000001
 40
0.2500000000000003
 40
0.2500000000000003
 40
0.5000000000000006
 40
0.5000000000000006
 40
0.6250000000000007
 40
0.6250000000000007
 40
0.7500000000000009
 40
0.7500000000000009
 40
1.0
 40
1.0
 40
1.0
 40
1.0
 10
346.9228036850298
 20
517.3562937004872
 30
0.0
 10
346.9222358661061
 20
517.3735722568056
 30
0.0
 10
346.9116313244245
 20
517.3906294662808
 30
0.0
 10
346.8709993763354
 20
517.4232017599585
 30
0.0
 10
346.8409264075726
 20
517.438910796918
 30
0.0
 10
346.721176934671
 20
517.4842689433151
 30
0.0
 10
346.6058880236785
 20
517.510951837585
 30
0.0
 10
346.3823565754919
 20
517.5473310565047
 30
0.0
 10
346.2987799108013
 20
517.5588814787308
 30
0.0
 10
346.1193158799349
 20
517.5803177843121
 30
0.0
 10
346.0229664730232
 20
517.5902951985134
 30
0.0
 10
345.714323886223
 20
517.6183391848198
 30
0.0
 10
345.4787891337907
 20
517.6346914783846
 30
0.0
 10
345.2312270858033
 20
517.6479898052806
 30
0.0
  0
SPLINE
  5
2C4
330
1F
100
AcDbEntity
  8
0
  6
Continuous
 62
     7
370
    15
100
AcDbSpline
210
0.0
220
0.0
230
1.0
 70
     8
 71
     3
 72
    24
 73
    20
 74
     0
 42
0.00000001
 43
0.00000001
 40
0.0
 40
0.0
 40
0.0
 40
0.0
 40
0.0312499999999989
 40
0.0312499999999989
 40
0.0624999999999977
 40
0.0624999999999977
 40
0.1249999999999954
 40
0.1249999999999954
 40
0.2499999999999961
 40
0.2499999999999961
 40
0.3749999999999967
 40
0.3749999999999967
 40
0.4999999999999973
 40
0.4999999999999973
 40
0.624999999999998
 40
0.624999999999998
 40
0.7499999999999986
 40
0.7499999999999986
 40
1.0
 40
1.0
 40
1.0
 40
1.0
 10
345.2312271827246
 20
524.0687923781646
 30
0.0
 10
345.262617513569
 20
524.0688929490814
 30
0.0
 10
345.2936299084198
 20
524.0722023728235
 30
0.0
 10
345.3552303782726
 20
524.0757441011219
 30
0.0
 10
345.385683234014
 20
524.077554605279
 30
0.0
 10
345.4759322327008
 20
524.0831011231417
 30
0.0
 10
345.5346549449239
 20
524.0869539477594
 30
0.0
 10
345.7065589910388
 20
524.0989905119005
 30
0.0
 10
345.815494984829
 20
524.1076481424258
 30
0.0
 10
346.0219446837116
 20
524.126385372711
 30
0.0
 10
346.1201547008638
 20
524.1365518092662
 30
0.0
 10
346.3005895689524
 20
524.1581351610532
 30
0.0
 10
346.382713438296
 20
524.1695116963087
 30
0.0
 10
346.5310987208816
 20
524.1936629789624
 30
0.0
 10
346.597361947485
 20
524.2064376502011
 30
0.0
 10
346.7133734388281
 20
524.2337132309768
 30
0.0
 10
346.7627725569243
 20
524.2481977741786
 30
0.0
 10
346.8806960011929
 20
524.2930947850128
 30
0.0
 10
346.9216510297895
 20
524.3255075883143
 30
0.0
 10
346.9228036846145
 20
524.3604946083301
 30
0.0
  0
SPLINE
  5
2C5
330
1F
100
AcDbEntity
  8
0
  6
Continuous
 62
     7
370
    15
100
AcDbSpline
210
0.0
220
0.0
230
1.0
 70
     8
 71
     3
 72
    19
 73
    15
 74
     0
 42
0.00000001
 43
0.00000001
 40
0.0
 40
0.0
 40
0.0
 40
0.0
 40
0.1249999999999999
 40
0.1249999999999999
 40
0.2499999999999999
 40
0.2499999999999999
 40
0.3124999999999992
 40
0.3124999999999992
 40
0.3749999999999984
 40
0.4999999999999987
 40
0.4999999999999987
 40
0.7499999999999994
 40
0.7499999999999994
 40
1.0
 40
1.0
 40
1.0
 40
1.0
 10
334.9441042579177
 20
523.9568178250832
 30
0.0
 10
335.3942696695211
 20
523.9611246633315
 30
0.0
 10
335.8509639408811
 20
523.9687666436655
 30
0.0
 10
336.7437593369081
 20
523.9902169407417
 30
0.0
 10
337.1773713044383
 20
524.0023194512596
 30
0.0
 10
337.8158916321537
 20
524.014696387061
 30
0.0
 10
338.0270843503036
 20
524.0160070529142
 30
0.0
 10
338.4506785823114
 20
524.0197082757271
 30
0.0
 10
339.0860917487483
 20
524.0251821890957
 30
0.0
 10
339.7215694965811
 20
524.0304306616681
 30
0.0
 10
340.9926169428506
 20
524.0406476909517
 30
0.0
 10
341.8400999161155
 20
524.0470862619695
 30
0.0
 10
343.5352708329663
 20
524.0593151415736
 30
0.0
 10
344.3845094480538
 20
524.0660024198706
 30
0.0
 10
345.2312271827246
 20
524.0687923781646
 30
0.0
  0
ARC
  5
2C6
330
1F
100
AcDbEntity
  8
0
  6
Continuous
 62
     7
370
    15
100
AcDbCircle
 10
334.4648993565
 20
509.2740872025
 30
0.0
 40
8.499357276413948
100
AcDbArc
 50
86.7652674244
 51
87.0457858915
  0
ARC
  5
2C7
330
1F
100
AcDbEntity
  8
0
  6
Continuous
 62
     7
370
    15
100
AcDbCircle
 10
334.4803981283
 20
532.4309462372
 30
0.0
 40
8.486805987631946
100
AcDbArc
 50
272.8509721154
 51
273.1321052775
  0
LINE
  5
2C8
330
1F
100
AcDbEntity
  8
0
  6
Continuous
 62
     8
370
    15
100
AcDbLine
 10
253.0110516638
 20
523.9922615568
 30
0.0
 11
254.0652641148
 21
524.0052954163
 31
0.0
  0
LINE
  5
2C9
330
1F
100
AcDbEntity
  8
0
  6
Continuous
 62
     8
370
    15
100
AcDbLine
 10
254.0977523715
 20
517.7115930113
 30
0.0
 11
253.0111298949
 21
517.7245258222
 31
0.0
  0
LINE
  5
2CA
330
1F
100
AcDbEntity
  8
0
  6
Continuous
 62
     8
370
    15
100
AcDbLine
 10
334.9029385537
 20
517.7621491588
 30
0.0
 11
333.7418810517
 21
517.7477192468
 31
0.0
  0
LINE
  5
2CB
330
1F
100
AcDbEntity
  8
0
  6
Continuous
 62
     8
370
    15
100
AcDbLine
 10
333.7217197806
 20
523.9692278541
 30
0.0
 11
334.9025175959
 21
523.9546445067
 31
0.0
  0
CIRCLE
  5
2CC
330
1F
100
AcDbEntity
  8
1
100
AcDbCircle
 10
293.9261050016
 20
520.8583941552
 30
0.0
 40
7.500000000000035
  0
CIRCLE
  5
2CD
330
1F
100
AcDbEntity
  8
1
100
AcDbCircle
 10
293.9261050016
 20
520.8583941552
 30
0.0
 40
21.99999999999999
  0
CIRCLE
  5
2CE
330
1F
100
AcDbEntity
  8
1
100
AcDbCircle
 10
293.9261050016
 20
520.8583941552
 30
0.0
 40
20.00000000000001
  0
CIRCLE
  5
2CF
330
1F
100
AcDbEntity
  8
1
100
AcDbCircle
 10
274.480668519
 20
540.3038306378
 30
0.0
 40
5.500000000000023
  0
CIRCLE
  5
2D0
330
1F
100
AcDbEntity
  8
1
100
AcDbCircle
 10
313.3715414843
 20
540.3038306378
 30
0.0
 40
5.499999999999936
  0
CIRCLE
  5
2D1
330
1F
100
AcDbEntity
  8
1
100
AcDbCircle
 10
313.3715414843
 20
501.4129576726
 30
0.0
 40
5.500000000000023
  0
CIRCLE
  5
2D2
330
1F
100
AcDbEntity
  8
1
100
AcDbCircle
 10
274.480668519
 20
501.4129576726
 30
0.0
 40
5.500000000000023
  0
ENDSEC
  0
SECTION
  2
OBJECTS
  0
DICTIONARY
  5
C
330
0
100
AcDbDictionary
281
     1
  3
ACAD_GROUP
350
D
  3
ACAD_LAYOUT
350
1A
  3
ACAD_MLINESTYLE
350
17
  3
ACAD_PLOTSETTINGS
350
19
  3
ACAD_PLOTSTYLENAME
350
E
  0
DICTIONARY
  5
D
102
{ACAD_REACTORS
330
C
102
}
330
C
100
AcDbDictionary
281
     1
  0
DICTIONARY
  5
1A
102
{ACAD_REACTORS
330
C
102
}
330
C
100
AcDbDictionary
281
     1
  3
Layout1
350
1E
  3
Layout2
350
26
  3
Model
350
22
  0
DICTIONARY
  5
17
102
{ACAD_REACTORS
330
C
102
}
330
C
100
AcDbDictionary
281
     1
  3
Standard
350
18
  0
DICTIONARY
  5
19
102
{ACAD_REACTORS
330
C
102
}
330
C
100
AcDbDictionary
281
     1
  0
ACDBDICTIONARYWDFLT
  5
E
102
{ACAD_REACTORS
330
C
102
}
330
C
100
AcDbDictionary
281
     1
  3
Normal
350
F
100
AcDbDictionaryWithDefault
340
F
  0
LAYOUT
  5
1E
102
{ACAD_REACTORS
330
1A
102
}
330
1A
100
AcDbPlotSettings
  1

  2
none_device
  4

  6

 40
0.0
 41
0.0
 42
0.0
 43
0.0
 44
0.0
 45
0.0
 46
0.0
 47
0.0
 48
0.0
 49
0.0
140
0.0
141
0.0
142
1.0
143
1.0
 70
   688
 72
     0
 73
     0
 74
     5
  7

 75
    16
147
1.0
148
0.0
149
0.0
100
AcDbLayout
  1
Layout1
 70
     1
 71
     1
 10
0.0
 20
0.0
 11
420.0
 21
297.0
 12
0.0
 22
0.0
 32
0.0
 14
1.0000000000E+20
 24
1.0000000000E+20
 34
1.0000000000E+20
 15
-1.0000000000E+20
 25
-1.0000000000E+20
 35
-1.0000000000E+20
146
0.0
 13
0.0
 23
0.0
 33
0.0
 16
1.0
 26
0.0
 36
0.0
 17
0.0
 27
1.0
 37
0.0
 76
     0
330
1B
  0
LAYOUT
  5
26
102
{ACAD_REACTORS
330
1A
102
}
330
1A
100
AcDbPlotSettings
  1

  2
none_device
  4

  6

 40
0.0
 41
0.0
 42
0.0
 43
0.0
 44
0.0
 45
0.0
 46
0.0
 47
0.0
 48
0.0
 49
0.0
140
0.0
141
0.0
142
1.0
143
1.0
 70
   688
 72
     0
 73
     0
 74
     5
  7

 75
    16
147
1.0
148
0.0
149
0.0
100
AcDbLayout
  1
Layout2
 70
     1
 71
     2
 10
0.0
 20
0.0
 11
0.0
 21
0.0
 12
0.0
 22
0.0
 32
0.0
 14
0.0
 24
0.0
 34
0.0
 15
0.0
 25
0.0
 35
0.0
146
0.0
 13
0.0
 23
0.0
 33
0.0
 16
1.0
 26
0.0
 36
0.0
 17
0.0
 27
1.0
 37
0.0
 76
     0
330
23
  0
LAYOUT
  5
22
102
{ACAD_REACTORS
330
1A
102
}
330
1A
100
AcDbPlotSettings
  1

  2
none_device
  4

  6

 40
0.0
 41
0.0
 42
0.0
 43
0.0
 44
0.0
 45
0.0
 46
0.0
 47
0.0
 48
0.0
 49
0.0
140
0.0
141
0.0
142
1.0
143
1.0
 70
  1712
 72
     0
 73
     0
 74
     0
  7

 75
     0
147
1.0
148
0.0
149
0.0
100
AcDbLayout
  1
Model
 70
     1
 71
     0
 10
0.0
 20
0.0
 11
600.0
 21
600.0
 12
0.0
 22
0.0
 32
0.0
 14
0.0
 24
0.0
 34
0.0
 15
600.0
 25
600.0
 35
0.0
146
0.0
 13
0.0
 23
0.0
 33
0.0
 16
1.0
 26
0.0
 36
0.0
 17
0.0
 27
1.0
 37
0.0
 76
     0
330
1F
331
29
  0
MLINESTYLE
  5
18
102
{ACAD_REACTORS
330
17
102
}
330
17
100
AcDbMlineStyle
  2
Standard
 70
     0
  3

 62
   256
 51
90.0
 52
90.0
 71
     2
 49
0.5
 62
   256
  6
BYLAYER
 49
-0.5
 62
   256
  6
BYLAYER
  0
ACDBPLACEHOLDER
  5
F
102
{ACAD_REACTORS
330
E
102
}
330
E
  0
ENDSEC
  0
EOF
