  0
SECTION
  2
HEADER
  9
$ACADVER
  1
AC1027
  9
$ACADMAINTVER
 70
   105
  9
$DWGCODEPAGE
  3
ANSI_1252
  9
$REQUIREDVERSIONS
160
                 0
  9
$INSBASE
 10
0.0
 20
0.0
 30
0.0
  9
$EXTMIN
 10
0.0
 20
0.0
 30
0.0
  9
$EXTMAX
 10
594.0
 20
420.0
 30
0.0
  9
$LIMMIN
 10
0.0
 20
0.0
  9
$LIMMAX
 10
594.0
 20
420.0
  9
$ORTHOMODE
 70
     0
  9
$REGENMODE
 70
     1
  9
$FILLMODE
 70
     1
  9
$QTEXTMODE
 70
     0
  9
$MIRRTEXT
 70
     1
  9
$LTSCALE
 40
1.0
  9
$ATTMODE
 70
     1
  9
$TEXTSIZE
 40
2.5
  9
$TRACEWID
 40
1.0
  9
$TEXTSTYLE
  7
Standard
  9
$CLAYER
  8
0
  9
$CELTYPE
  6
ByLayer
  9
$CECOLOR
 62
   256
  9
$CELTSCALE
 40
1.0
  9
$DISPSILH
 70
     0
  9
$DIMSCALE
 40
1.0
  9
$DIMASZ
 40
2.5
  9
$DIMEXO
 40
0.625
  9
$DIMDLI
 40
3.75
  9
$DIMRND
 40
0.0
  9
$DIMDLE
 40
0.0
  9
$DIMEXE
 40
1.25
  9
$DIMTP
 40
0.0
  9
$DIMTM
 40
0.0
  9
$DIMTXT
 40
2.5
  9
$DIMCEN
 40
2.5
  9
$DIMTSZ
 40
0.0
  9
$DIMTOL
 70
     0
  9
$DIMLIM
 70
     0
  9
$DIMTIH
 70
     0
  9
$DIMTOH
 70
     0
  9
$DIMSE1
 70
     0
  9
$DIMSE2
 70
     0
  9
$DIMTAD
 70
     1
  9
$DIMZIN
 70
     8
  9
$DIMBLK
  1

  9
$DIMASO
 70
     1
  9
$DIMSHO
 70
     1
  9
$DIMPOST
  1

  9
$DIMAPOST
  1

  9
$DIMALT
 70
     0
  9
$DIMALTD
 70
     3
  9
$DIMALTF
 40
0.0393700787
  9
$DIMLFAC
 40
1.0
  9
$DIMTOFL
 70
     1
  9
$DIMTVP
 40
0.0
  9
$DIMTIX
 70
     0
  9
$DIMSOXD
 70
     0
  9
$DIMSAH
 70
     0
  9
$DIMBLK1
  1

  9
$DIMBLK2
  1

  9
$DIMSTYLE
  2
ISO-25
  9
$DIMCLRD
 70
     0
  9
$DIMCLRE
 70
     0
  9
$DIMCLRT
 70
     0
  9
$DIMTFAC
 40
1.0
  9
$DIMGAP
 40
0.625
  9
$DIMJUST
 70
     0
  9
$DIMSD1
 70
     0
  9
$DIMSD2
 70
     0
  9
$DIMTOLJ
 70
     0
  9
$DIMTZIN
 70
     8
  9
$DIMALTZ
 70
     0
  9
$DIMALTTZ
 70
     0
  9
$DIMUPT
 70
     0
  9
$DIMDEC
 70
     2
  9
$DIMTDEC
 70
     2
  9
$DIMALTU
 70
     2
  9
$DIMALTTD
 70
     3
  9
$DIMTXSTY
  7
Standard
  9
$DIMAUNIT
 70
     0
  9
$DIMADEC
 70
     0
  9
$DIMALTRND
 40
0.0
  9
$DIMAZIN
 70
     0
  9
$DIMDSEP
 70
    44
  9
$DIMATFIT
 70
     3
  9
$DIMFRAC
 70
     0
  9
$DIMLDRBLK
  1

  9
$DIMLUNIT
 70
     2
  9
$DIMLWD
 70
    -2
  9
$DIMLWE
 70
    -2
  9
$DIMTMOVE
 70
     0
  9
$DIMFXL
 40
1.0
  9
$DIMFXLON
 70
     0
  9
$DIMJOGANG
 40
0.7853981634
  9
$DIMTFILL
 70
     0
  9
$DIMTFILLCLR
 70
     0
  9
$DIMARCSYM
 70
     0
  9
$DIMLTYPE
  6

  9
$DIMLTEX1
  6

  9
$DIMLTEX2
  6

  9
$DIMTXTDIRECTION
 70
     0
  9
$LUNITS
 70
     2
  9
$LUPREC
 70
     4
  9
$SKETCHINC
 40
1.0
  9
$FILLETRAD
 40
10.0
  9
$AUNITS
 70
     0
  9
$AUPREC
 70
     0
  9
$MENU
  1
.
  9
$ELEVATION
 40
0.0
  9
$PELEVATION
 40
0.0
  9
$THICKNESS
 40
0.0
  9
$LIMCHECK
 70
     0
  9
$CHAMFERA
 40
0.0
  9
$CHAMFERB
 40
0.0
  9
$CHAMFERC
 40
0.0
  9
$CHAMFERD
 40
0.0
  9
$SKPOLY
 70
     0
  9
$TDCREATE
 40
2459643.664693438
  9
$TDUCREATE
 40
2459643.623026771
  9
$TDUPDATE
 40
2459643.664693947
  9
$TDUUPDATE
 40
2459643.62302728
  9
$TDINDWG
 40
0.0000000116
  9
$TDUSRTIMER
 40
0.0000000116
  9
$USRTIMER
 70
     1
  9
$ANGBASE
 50
0.0
  9
$ANGDIR
 70
     0
  9
$PDMODE
 70
     0
  9
$PDSIZE
 40
0.0
  9
$PLINEWID
 40
0.0
  9
$SPLFRAME
 70
     0
  9
$SPLINETYPE
 70
     6
  9
$SPLINESEGS
 70
     8
  9
$HANDSEED
  5
2D4
  9
$SURFTAB1
 70
     6
  9
$SURFTAB2
 70
     6
  9
$SURFTYPE
 70
     6
  9
$SURFU
 70
     6
  9
$SURFV
 70
     6
  9
$UCSBASE
  2

  9
$UCSNAME
  2

  9
$UCSORG
 10
0.0
 20
0.0
 30
0.0
  9
$UCSXDIR
 10
1.0
 20
0.0
 30
0.0
  9
$UCSYDIR
 10
0.0
 20
1.0
 30
0.0
  9
$UCSORTHOREF
  2

  9
$UCSORTHOVIEW
 70
     0
  9
$UCSORGTOP
 10
0.0
 20
0.0
 30
0.0
  9
$UCSORGBOTTOM
 10
0.0
 20
0.0
 30
0.0
  9
$UCSORGLEFT
 10
0.0
 20
0.0
 30
0.0
  9
$UCSORGRIGHT
 10
0.0
 20
0.0
 30
0.0
  9
$UCSORGFRONT
 10
0.0
 20
0.0
 30
0.0
  9
$UCSORGBACK
 10
0.0
 20
0.0
 30
0.0
  9
$PUCSBASE
  2

  9
$PUCSNAME
  2

  9
$PUCSORG
 10
0.0
 20
0.0
 30
0.0
  9
$PUCSXDIR
 10
1.0
 20
0.0
 30
0.0
  9
$PUCSYDIR
 10
0.0
 20
1.0
 30
0.0
  9
$PUCSORTHOREF
  2

  9
$PUCSORTHOVIEW
 70
     0
  9
$PUCSORGTOP
 10
0.0
 20
0.0
 30
0.0
  9
$PUCSORGBOTTOM
 10
0.0
 20
0.0
 30
0.0
  9
$PUCSORGLEFT
 10
0.0
 20
0.0
 30
0.0
  9
$PUCSORGRIGHT
 10
0.0
 20
0.0
 30
0.0
  9
$PUCSORGFRONT
 10
0.0
 20
0.0
 30
0.0
  9
$PUCSORGBACK
 10
0.0
 20
0.0
 30
0.0
  9
$USERI1
 70
     0
  9
$USERI2
 70
     0
  9
$USERI3
 70
     0
  9
$USERI4
 70
     0
  9
$USERI5
 70
     0
  9
$USERR1
 40
0.0
  9
$USERR2
 40
0.0
  9
$USERR3
 40
0.0
  9
$USERR4
 40
0.0
  9
$USERR5
 40
0.0
  9
$WORLDVIEW
 70
     1
  9
$SHADEDGE
 70
     3
  9
$SHADEDIF
 70
    70
  9
$TILEMODE
 70
     1
  9
$MAXACTVP
 70
    64
  9
$PINSBASE
 10
0.0
 20
0.0
 30
0.0
  9
$PLIMCHECK
 70
     0
  9
$PEXTMIN
 10
0.0
 20
0.0
 30
0.0
  9
$PEXTMAX
 10
594.0
 20
420.0
 30
0.0
  9
$PLIMMIN
 10
0.0
 20
0.0
  9
$PLIMMAX
 10
594.0
 20
420.0
  9
$UNITMODE
 70
     0
  9
$VISRETAIN
 70
     1
  9
$PLINEGEN
 70
     0
  9
$PSLTSCALE
 70
     1
  9
$TREEDEPTH
 70
  3020
  9
$CMLSTYLE
  2
Standard
  9
$CMLJUST
 70
     0
  9
$CMLSCALE
 40
20.0
  9
$PROXYGRAPHICS
 70
     1
  9
$MEASUREMENT
 70
     1
  9
$CELWEIGHT
370
    -1
  9
$ENDCAPS
280
     0
  9
$JOINSTYLE
280
     0
  9
$LWDISPLAY
290
     0
  9
$INSUNITS
 70
     4
  9
$HYPERLINKBASE
  1

  9
$STYLESHEET
  1

  9
$XEDIT
290
     1
  9
$CEPSNTYPE
380
     0
  9
$PSTYLEMODE
290
     1
  9
$FINGERPRINTGUID
  2
{0fd4d0ab-dd7c-4fc4-84aa-ed894f683060}
  9
$VERSIONGUID
  2
{FAEB1C32-E019-11D5-929B-00C0DF256EC4}
  9
$EXTNAMES
290
     1
  9
$PSVPSCALE
 40
0.0
  9
$OLESTARTUP
290
     0
  9
$SORTENTS
280
   127
  9
$INDEXCTL
280
     0
  9
$HIDETEXT
280
     1
  9
$XCLIPFRAME
280
     2
  9
$HALOGAP
280
     0
  9
$OBSCOLOR
 70
   257
  9
$OBSLTYPE
280
     0
  9
$INTERSECTIONDISPLAY
280
     0
  9
$INTERSECTIONCOLOR
 70
   257
  9
$DIMASSOC
280
     2
  9
$PROJECTNAME
  1

  9
$CAMERADISPLAY
290
     0
  9
$LENSLENGTH
 40
50.0
  9
$CAMERAHEIGHT
 40
0.0
  9
$STEPSPERSEC
 40
2.0
  9
$STEPSIZE
 40
6.0
  9
$3DDWFPREC
 40
2.0
  9
$PSOLWIDTH
 40
5.0
  9
$PSOLHEIGHT
 40
80.0
  9
$LOFTANG1
 40
1.5707963268
  9
$LOFTANG2
 40
1.5707963268
  9
$LOFTMAG1
 40
0.0
  9
$LOFTMAG2
 40
0.0
  9
$LOFTPARAM
 70
     7
  9
$LOFTNORMALS
280
     1
  9
$LATITUDE
 40
37.795
  9
$LONGITUDE
 40
-122.394
  9
$NORTHDIRECTION
 40
0.0
  9
$TIMEZONE
 70
 -8000
  9
$LIGHTGLYPHDISPLAY
280
     1
  9
$TILEMODELIGHTSYNCH
280
     1
  9
$CMATERIAL
347
44
  9
$SOLIDHIST
280
     0
  9
$SHOWHIST
280
     1
  9
$DWFFRAME
280
     2
  9
$DGNFRAME
280
     2
  9
$REALWORLDSCALE
290
     1
  9
$INTERFERECOLOR
 62
   256
  9
$CSHADOW
280
     0
  9
$SHADOWPLANELOCATION
 40
0.0
  0
ENDSEC
  0
SECTION
  2
CLASSES
  0
CLASS
  1
ACDBDICTIONARYWDFLT
  2
AcDbDictionaryWithDefault
  3
ObjectDBX Classes
 90
        0
 91
        3
280
     0
281
     0
  0
CLASS
  1
VISUALSTYLE
  2
AcDbVisualStyle
  3
ObjectDBX Classes
 90
     4095
 91
        3
280
     0
281
     0
  0
CLASS
  1
MATERIAL
  2
AcDbMaterial
  3
ObjectDBX Classes
 90
     1153
 91
        3
280
     0
281
     0
  0
CLASS
  1
SCALE
  2
AcDbScale
  3
ObjectDBX Classes
 90
     1153
 91
        3
280
     0
281
     0
  0
CLASS
  1
TABLESTYLE
  2
AcDbTableStyle
  3
ObjectDBX Classes
 90
     4095
 91
        3
280
     0
281
     0
  0
CLASS
  1
MLEADERSTYLE
  2
AcDbMLeaderStyle
  3
ACDB_MLEADERSTYLE_CLASS
 90
     4095
 91
        3
280
     0
281
     0
  0
CLASS
  1
SUN
  2
AcDbSun
  3
SCENEOE
 90
     1153
 91
        3
280
     0
281
     0
  0
CLASS
  1
DICTIONARYVAR
  2
AcDbDictionaryVar
  3
ObjectDBX Classes
 90
        0
 91
        3
280
     0
281
     0
  0
CLASS
  1
CELLSTYLEMAP
  2
AcDbCellStyleMap
  3
ObjectDBX Classes
 90
     1152
 91
        3
280
     0
281
     0
  0
ENDSEC
  0
SECTION
  2
TABLES
  0
TABLE
  2
VPORT
  5
8
330
0
100
AcDbSymbolTable
 70
     1
  0
VPORT
  5
29
330
8
100
AcDbSymbolTableRecord
100
AcDbViewportTableRecord
  2
*Active
 70
     0
 10
0.0
 20
0.0
 11
1.0
 21
1.0
 12
344.1869158879
 22
148.5
 13
0.0
 23
0.0
 14
10.0
 24
10.0
 15
10.0
 25
10.0
 16
0.0
 26
0.0
 36
1.0
 17
0.0
 27
0.0
 37
0.0
 40
297.0
 41
1.9729729729
 42
50.0
 43
0.0
 44
0.0
 50
0.0
 51
0.0
 71
     0
 72
   100
 73
     1
 74
     3
 75
     0
 76
     0
 77
     0
 78
     0
281
     0
 65
     1
110
0.0
120
0.0
130
0.0
111
1.0
121
0.0
131
0.0
112
0.0
122
1.0
132
0.0
 79
     0
146
0.0
348
2F
 60
     3
 61
     5
292
     1
282
     1
141
0.0
142
0.0
 63
   250
361
6D
  0
ENDTAB
  0
TABLE
  2
LTYPE
  5
5
330
0
100
AcDbSymbolTable
 70
     1
  0
LTYPE
  5
14
330
5
100
AcDbSymbolTableRecord
100
AcDbLinetypeTableRecord
  2
ByBlock
 70
     0
  3

 72
    65
 73
     0
 40
0.0
  0
LTYPE
  5
15
330
5
100
AcDbSymbolTableRecord
100
AcDbLinetypeTableRecord
  2
ByLayer
 70
     0
  3

 72
    65
 73
     0
 40
0.0
  0
LTYPE
  5
16
330
5
100
AcDbSymbolTableRecord
100
AcDbLinetypeTableRecord
  2
Continuous
 70
     0
  3
Solid line
 72
    65
 73
     0
 40
0.0
  0
ENDTAB
  0
TABLE
  2
LAYER
  5
2
330
0
100
AcDbSymbolTable
 70
     3
  0
LAYER
  5
10
330
2
100
AcDbSymbolTableRecord
100
AcDbLayerTableRecord
  2
0
 70
     0
 62
     7
  6
Continuous
370
    -3
390
F
347
46
348
0
  0
LAYER
  5
6E
330
2
100
AcDbSymbolTableRecord
100
AcDbLayerTableRecord
  2
Default
 70
     0
 62
     7
  6
Continuous
370
    -3
390
F
347
46
348
0
  0
LAYER
  5
71
330
2
100
AcDbSymbolTableRecord
100
AcDbLayerTableRecord
  2
52198715
 70
     0
 62
     7
  6
Continuous
370
    -3
390
F
347
46
348
0
  0
ENDTAB
  0
TABLE
  2
STYLE
  5
3
330
0
100
AcDbSymbolTable
 70
     1
  0
STYLE
  5
11
330
3
100
AcDbSymbolTableRecord
100
AcDbTextStyleTableRecord
  2
Standard
 70
     0
 40
0.0
 41
1.0
 50
0.0
 71
     0
 42
2.5
  3
txt
  4

  0
ENDTAB
  0
TABLE
  2
VIEW
  5
6
330
0
100
AcDbSymbolTable
 70
     0
  0
ENDTAB
  0
TABLE
  2
UCS
  5
7
330
0
100
AcDbSymbolTable
 70
     0
  0
ENDTAB
  0
TABLE
  2
APPID
  5
9
330
0
100
AcDbSymbolTable
 70
     1
  0
APPID
  5
12
330
9
100
AcDbSymbolTableRecord
100
AcDbRegAppTableRecord
  2
ACAD
 70
     0
  0
ENDTAB
  0
TABLE
  2
DIMSTYLE
  5
A
330
0
100
AcDbSymbolTable
 70
     1
100
AcDbDimStyleTable
  0
DIMSTYLE
105
27
330
A
100
AcDbSymbolTableRecord
100
AcDbDimStyleTableRecord
  2
ISO-25
 70
     0
 41
2.5
 42
0.625
 43
3.75
 44
1.25
 73
     0
 74
     0
 77
     1
 78
     8
140
2.5
141
2.5
143
0.0393700787
147
0.625
171
     3
172
     1
178
     0
271
     2
272
     2
274
     3
278
    44
283
     0
284
     8
340
11
  0
ENDTAB
  0
TABLE
  2
BLOCK_RECORD
  5
1
330
0
100
AcDbSymbolTable
 70
     4
  0
BLOCK_RECORD
  5
1F
330
1
100
AcDbSymbolTableRecord
100
AcDbBlockTableRecord
  2
*Model_Space
340
22
 70
     0
280
     1
281
     0
  0
BLOCK_RECORD
  5
1B
330
1
100
AcDbSymbolTableRecord
100
AcDbBlockTableRecord
  2
*Paper_Space
340
1E
 70
     0
280
     1
281
     0
  0
BLOCK_RECORD
  5
6F
330
1
100
AcDbSymbolTableRecord
100
AcDbBlockTableRecord
  2
SE
340
0
102
{BLKREFS
331
70
102
}
 70
     0
280
     1
281
     0
  0
BLOCK_RECORD
  5
108
330
1
100
AcDbSymbolTableRecord
100
AcDbBlockTableRecord
  2
SE1
340
0
102
{BLKREFS
331
109
102
}
 70
     0
280
     1
281
     0
  0
BLOCK_RECORD
  5
177
330
1
100
AcDbSymbolTableRecord
100
AcDbBlockTableRecord
  2
SE2
340
0
102
{BLKREFS
331
178
102
}
 70
     0
280
     1
281
     0
  0
BLOCK_RECORD
  5
221
330
1
100
AcDbSymbolTableRecord
100
AcDbBlockTableRecord
  2
SE3
340
0
102
{BLKREFS
331
222
102
}
 70
     0
280
     1
281
     0
  0
ENDTAB
  0
ENDSEC
  0
SECTION
  2
BLOCKS
  0
BLOCK
  5
20
330
1F
100
AcDbEntity
  8
0
100
AcDbBlockBegin
  2
*Model_Space
 70
     0
 10
0.0
 20
0.0
 30
0.0
  3
*Model_Space
  1

  0
ENDBLK
  5
21
330
1F
100
AcDbEntity
  8
0
100
AcDbBlockEnd
  0
BLOCK
  5
1C
330
1B
100
AcDbEntity
 67
     1
  8
0
100
AcDbBlockBegin
  2
*Paper_Space
 70
     0
 10
0.0
 20
0.0
 30
0.0
  3
*Paper_Space
  1

  0
ENDBLK
  5
1D
330
1B
100
AcDbEntity
 67
     1
  8
0
100
AcDbBlockEnd
  0
BLOCK
  5
106
330
6F
100
AcDbEntity
  8
0
100
AcDbBlockBegin
  2
SE
 70
     0
 10
0.0
 20
0.0
 30
0.0
  3
SE
  1

  0
LINE
  5
72
330
6F
100
AcDbEntity
  8
52198715
  6
Continuous
 62
     7
100
AcDbLine
 10
165.5111015691
 20
279.4657059413
 30
0.0
 11
165.5111015691
 21
304.9657059413
 31
0.0
  0
LINE
  5
73
330
6F
100
AcDbEntity
  8
52198715
  6
Continuous
 62
     7
100
AcDbLine
 10
170.0111015691
 20
279.4657059413
 30
0.0
 11
170.0111015691
 21
304.9657059413
 31
0.0
  0
LINE
  5
74
330
6F
100
AcDbEntity
  8
52198715
  6
Continuous
 62
     7
100
AcDbLine
 10
176.1929257629
 20
296.6336914891
 30
0.0
 11
176.1929257629
 21
302.6965370406
 31
0.0
  0
ARC
  5
75
330
6F
100
AcDbEntity
  8
52198715
  6
Continuous
 62
     7
100
AcDbCircle
 10
170.3252824103
 20
304.8048646287
 30
0.0
 40
14.26992936019974
100
AcDbArc
 50
194.5195127725
 51
200.1520593536
  0
SPLINE
  5
76
330
6F
100
AcDbEntity
  8
52198715
  6
Continuous
 62
     7
100
AcDbSpline
210
0.0
220
0.0
230
1.0
 70
     8
 71
     3
 72
     8
 73
     4
 74
     0
 42
0.000000001
 43
0.0000000001
 40
0.0
 40
0.0
 40
0.0
 40
0.0
 40
1.0
 40
1.0
 40
1.0
 40
1.0
 10
156.9289351103315
 20
284.5427208637337
 30
0.0
 10
156.7668013429324
 20
285.4336385934538
 30
0.0
 10
156.6254571122114
 20
286.3269380341212
 30
0.0
 10
156.5111015691464
 20
287.2198485531278
 30
0.0
  0
ARC
  5
77
330
6F
100
AcDbEntity
  8
52198715
  6
Continuous
 62
     7
100
AcDbCircle
 10
170.3252824103
 20
281.7859093962
 30
0.0
 40
14.26992936019851
100
AcDbArc
 50
194.5195127725
 51
200.1520593536
  0
LINE
  5
78
330
6F
100
AcDbEntity
  8
52198715
  6
Continuous
 62
     7
100
AcDbLine
 10
218.4559574346
 20
276.8697357862
 30
0.0
 11
226.093268028
 21
276.8697357862
 31
0.0
  0
ARC
  5
79
330
6F
100
AcDbEntity
  8
52198715
  6
Continuous
 62
     7
100
AcDbCircle
 10
227.9163866383
 20
280.706228325
 30
0.0
 40
10.20874114264148
100
AcDbArc
 50
194.8256525631
 51
202.0740547368
  0
ARC
  5
7A
330
6F
100
AcDbEntity
  8
52198715
  6
Continuous
 62
     7
100
AcDbCircle
 10
155.1058165
 20
280.706228325
 30
0.0
 40
10.2087411426414
100
AcDbArc
 50
337.9259452632
 51
22.0740547368
  0
SPLINE
  5
7B
330
6F
100
AcDbEntity
  8
52198715
  6
Continuous
 62
     7
100
AcDbSpline
210
0.0
220
0.0
230
1.0
 70
     8
 71
     3
 72
    10
 73
     6
 74
     0
 42
0.000000001
 43
0.0000000001
 40
0.0
 40
0.0
 40
0.0
 40
0.0
 40
0.5
 40
0.5
 40
1.0
 40
1.0
 40
1.0
 40
1.0
 10
164.5662457036611
 20
299.8886910187939
 30
0.0
 10
165.029384478177
 20
297.3437643686817
 30
0.0
 10
165.3152642764664
 20
294.7646876810651
 30
0.0
 10
165.3138482137332
 20
289.6465192804852
 30
0.0
 10
165.0297792688944
 20
287.0898168710092
 30
0.0
 10
164.5662457036611
 20
284.5427208637337
 30
0.0
  0
LINE
  5
7C
330
6F
100
AcDbEntity
  8
52198715
  6
Continuous
 62
     7
100
AcDbLine
 10
218.4559574346
 20
307.5616760963
 30
0.0
 11
226.093268028
 21
307.5616760963
 31
0.0
  0
ARC
  5
7D
330
6F
100
AcDbEntity
  8
52198715
  6
Continuous
 62
     7
100
AcDbCircle
 10
212.696920728
 20
302.6455024864
 30
0.0
 40
14.26992936019648
100
AcDbArc
 50
14.5195127725
 51
20.1520593536
  0
ARC
  5
7E
330
6F
100
AcDbEntity
  8
52198715
  6
Continuous
 62
     7
100
AcDbCircle
 10
227.9163866383
 20
303.7251835576
 30
0.0
 40
10.20874114264153
100
AcDbArc
 50
157.9259452632
 51
166.1247139329
  0
ARC
  5
7F
330
6F
100
AcDbEntity
  8
52198715
  6
Continuous
 62
     7
100
AcDbCircle
 10
155.1058165
 20
303.7251835576
 30
0.0
 40
10.20874114264138
100
AcDbArc
 50
337.9259452632
 51
22.0740547368
  0
LINE
  5
80
330
6F
100
AcDbEntity
  8
52198715
  6
Continuous
 62
     7
100
AcDbLine
 10
156.9289351103
 20
276.8697357862
 30
0.0
 11
164.5662457037
 21
276.8697357862
 31
0.0
  0
LINE
  5
81
330
6F
100
AcDbEntity
  8
52198715
  6
Continuous
 62
     7
100
AcDbLine
 10
156.9289351103
 20
284.5427208637
 30
0.0
 11
164.5662457037
 21
284.5427208637
 31
0.0
  0
LINE
  5
82
330
6F
100
AcDbEntity
  8
52198715
  6
Continuous
 62
     7
100
AcDbLine
 10
156.9289351103
 20
299.8886910188
 30
0.0
 11
164.5662457037
 21
299.8886910188
 31
0.0
  0
LINE
  5
83
330
6F
100
AcDbEntity
  8
52198715
  6
Continuous
 62
     7
100
AcDbLine
 10
156.9289351103
 20
307.5616760963
 30
0.0
 11
164.5662457037
 21
307.5616760963
 31
0.0
  0
ELLIPSE
  5
84
330
6F
100
AcDbEntity
  8
52198715
  6
Continuous
 62
     7
100
AcDbEllipse
 10
187.0111015691
 20
292.2157059413
 30
0.0
 11
3.024559436248751E-14
 21
13.24999999999963
 31
0.0
210
0.0
220
0.0
230
1.0
 40
0.8660254038
 41
0.0000000000000002
 42
3.141592653589796
  0
ELLIPSE
  5
85
330
6F
100
AcDbEntity
  8
52198715
  6
Continuous
 62
     7
100
AcDbEllipse
 10
203.9111015691
 20
292.2157059413
 30
0.0
 11
1.204081760909342E-14
 21
-15.00000000000001
 31
0.0
210
0.0
220
0.0
230
1.0
 40
0.8660254038
 41
3.141592653589792
 42
6.283185307179586
  0
ELLIPSE
  5
86
330
6F
100
AcDbEntity
  8
52198715
  6
Continuous
 62
     7
100
AcDbEllipse
 10
199.0611015691
 20
292.2157059413
 30
0.0
 11
4.334786894224967E-14
 21
14.00000000000001
 31
0.0
210
0.0
220
0.0
230
1.0
 40
0.8660254038
 41
0.0000000000000012
 42
3.141592653589793
  0
SPLINE
  5
87
330
6F
100
AcDbEntity
  8
52198715
  6
Continuous
 62
     7
100
AcDbSpline
210
0.0
220
0.0
230
1.0
 70
     8
 71
     3
 72
    14
 73
    10
 74
     0
 42
0.000000001
 43
0.0000000001
 40
0.3254432166576831
 40
0.3254432166576831
 40
0.3254432166576831
 40
0.3254432166576831
 40
0.5000000000000002
 40
0.5000000000000002
 40
0.6250000000000001
 40
0.6250000000000001
 40
0.7500000000000001
 40
0.7500000000000001
 40
1.0
 40
1.0
 40
1.0
 40
1.0
 10
176.0111015691494
 20
302.7817197805313
 30
0.0
 10
176.01110156915
 20
302.7814150620239
 30
0.0
 10
176.0111015691505
 20
302.7806885037978
 30
0.0
 10
176.0111015691505
 20
302.7787182308996
 30
0.0
 10
176.0120078053618
 20
302.7773501183736
 30
0.0
 10
176.0262230032645
 20
302.7696770123067
 30
0.0
 10
176.0384241278928
 20
302.7637905745212
 30
0.0
 10
176.087254599083
 20
302.7414934806931
 30
0.0
 10
176.135278890121
 20
302.7205958781277
 30
0.0
 10
176.1929257629228
 20
302.6965370405449
 30
0.0
  0
SPLINE
  5
88
330
6F
100
AcDbEntity
  8
52198715
  6
Continuous
 62
     7
100
AcDbSpline
210
0.0
220
0.0
230
1.0
 70
     8
 71
     3
 72
    13
 73
     9
 74
     0
 42
0.000000001
 43
0.0000000001
 40
0.0
 40
0.0
 40
0.0
 40
0.0
 40
0.0312499999999998
 40
0.0312499999999998
 40
0.0624999999999998
 40
0.1249999999999997
 40
0.1249999999999997
 40
0.2217954930841777
 40
0.2217954930841777
 40
0.2217954930841777
 40
0.2217954930841777
 10
176.1929257629228
 20
302.6965370405449
 30
0.0
 10
176.3286190903412
 20
302.689384291145
 30
0.0
 10
176.5230619161398
 20
302.6891151447445
 30
0.0
 10
176.8820533635757
 20
302.6891151447445
 30
0.0
 10
177.4205405347295
 20
302.6891151447445
 30
0.0
 10
177.9590277058833
 20
302.6891151447445
 30
0.0
 10
178.8739992200002
 20
302.6891151447445
 30
0.0
 10
179.43050854593
 20
302.6896524093911
 30
0.0
 10
179.9863145618955
 20
302.6894757263597
 30
0.0
  0
SPLINE
  5
89
330
6F
100
AcDbEntity
  8
52198715
  6
Continuous
 62
     7
100
AcDbSpline
210
0.0
220
0.0
230
1.0
 70
     8
 71
     3
 72
    11
 73
     7
 74
     0
 42
0.000000001
 43
0.0000000001
 40
0.7819948530813847
 40
0.7819948530813847
 40
0.7819948530813847
 40
0.7819948530813847
 40
0.8125000000000007
 40
0.8125000000000007
 40
0.8750000000000006
 40
1.0
 40
1.0
 40
1.0
 40
1.0
 10
180.5967798947248
 20
303.189161951618
 30
0.0
 10
180.4276714366186
 20
303.1924165603908
 30
0.0
 10
180.2521724671567
 20
303.1903266792611
 30
0.0
 10
179.7261507778992
 20
303.1903266792611
 30
0.0
 10
178.6656818683446
 20
303.1903266792542
 30
0.0
 10
177.6052129587898
 20
303.190326679275
 30
0.0
 10
176.8982336857532
 20
303.1903266793028
 30
0.0
  0
ARC
  5
8A
330
6F
100
AcDbEntity
  8
52198715
  6
Continuous
 62
     7
100
AcDbCircle
 10
176.8316890784
 20
305.6831166976
 30
0.0
 40
2.493678058676066
100
AcDbArc
 50
250.657196437
 51
271.5291379715
  0
LINE
  5
8B
330
6F
100
AcDbEntity
  8
52198715
  6
Continuous
 62
     7
100
AcDbLine
 10
176.0111015691
 20
302.7790233551
 30
0.0
 11
176.0111015691
 21
302.779823382
 31
0.0
  0
LINE
  5
8C
330
6F
100
AcDbEntity
  8
52198715
  6
Continuous
 62
     7
100
AcDbLine
 10
176.1929257629
 20
281.7349537709
 30
0.0
 11
176.1929257629
 21
287.7977203934
 31
0.0
  0
SPLINE
  5
8D
330
6F
100
AcDbEntity
  8
52198715
  6
Continuous
 62
     7
100
AcDbSpline
210
0.0
220
0.0
230
1.0
 70
     8
 71
     3
 72
    12
 73
     8
 74
     0
 42
0.000000001
 43
0.0000000001
 40
0.4998330977094442
 40
0.4998330977094442
 40
0.4998330977094442
 40
0.4998330977094442
 40
0.5000000000000001
 40
0.5000000000000001
 40
0.75
 40
0.75
 40
1.0
 40
1.0
 40
1.0
 40
1.0
 10
176.011101552792
 20
281.649527340907
 30
0.0
 10
176.0111015636904
 20
281.6495273448716
 30
0.0
 10
176.0111015691464
 20
281.6495273477076
 30
0.0
 10
176.0111015691464
 20
281.6495298996697
 30
0.0
 10
175.9984905272538
 20
281.6468857836049
 30
0.0
 10
176.0415439489949
 20
281.6701606077719
 30
0.0
 10
176.1067302929307
 20
281.699156943129
 30
0.0
 10
176.1929257629193
 20
281.7349537708598
 30
0.0
  0
SPLINE
  5
8E
330
6F
100
AcDbEntity
  8
52198715
  6
Continuous
 62
     7
100
AcDbSpline
210
0.0
220
0.0
230
1.0
 70
     8
 71
     3
 72
    12
 73
     8
 74
     0
 42
0.000000001
 43
0.0000000001
 40
0.0
 40
0.0
 40
0.0
 40
0.0
 40
0.0312499999999998
 40
0.0312499999999998
 40
0.0624999999999997
 40
0.1249999999999996
 40
0.1717682411718164
 40
0.1717682411718164
 40
0.1717682411718164
 40
0.1717682411718164
 10
176.1929257629193
 20
281.7349537708598
 30
0.0
 10
176.370965911413
 20
281.7439732109984
 30
0.0
 10
176.627974534321
 20
281.7422967377714
 30
0.0
 10
177.0916004298986
 20
281.7422967377714
 30
0.0
 10
177.7870392732652
 20
281.7422967377714
 30
0.0
 10
178.8294055997977
 20
281.7422967377714
 30
0.0
 10
179.6399589785413
 20
281.7422967377714
 30
0.0
 10
179.9868864617073
 20
281.7422967377714
 30
0.0
  0
SPLINE
  5
8F
330
6F
100
AcDbEntity
  8
52198715
  6
Continuous
 62
     7
100
AcDbSpline
210
0.0
220
0.0
230
1.0
 70
     8
 71
     3
 72
    12
 73
     8
 74
     0
 42
0.000000001
 43
0.0000000001
 40
0.0
 40
0.0
 40
0.0
 40
0.0
 40
0.1250000000000006
 40
0.1562500000000008
 40
0.1718750000000009
 40
0.1718750000000009
 40
0.1824031240781539
 40
0.1824031240781539
 40
0.1824031240781539
 40
0.1824031240781539
 10
176.8982336857532
 20
281.2410852032246
 30
0.0
 10
177.7437431570257
 20
281.2410852032246
 30
0.0
 10
178.8006299961163
 20
281.2410852032246
 30
0.0
 10
179.963205519116
 20
281.2410852032246
 30
0.0
 10
180.2802715708432
 20
281.2410852032246
 30
0.0
 10
180.4571732837347
 20
281.2410852032246
 30
0.0
 10
180.5295658917896
 20
281.2412466283545
 30
0.0
 10
180.5975208899572
 20
281.2424787686782
 30
0.0
  0
ARC
  5
90
330
6F
100
AcDbEntity
  8
52198715
  6
Continuous
 62
     7
100
AcDbCircle
 10
176.8002506209
 20
278.947684731
 30
0.0
 40
2.295492628362235
100
AcDbArc
 50
87.5535873174
 51
110.1234200034
  0
ARC
  5
91
330
6F
100
AcDbEntity
  8
52198715
  6
Continuous
 62
     7
100
AcDbCircle
 10
170.3252824103
 20
279.6265472538
 30
0.0
 40
14.26992936020013
100
AcDbArc
 50
159.8479406464
 51
165.4804872275
  0
SPLINE
  5
92
330
6F
100
AcDbEntity
  8
52198715
  6
Continuous
 62
     7
100
AcDbSpline
210
0.0
220
0.0
230
1.0
 70
     8
 71
     3
 72
     8
 73
     4
 74
     0
 42
0.000000001
 43
0.0000000001
 40
0.0
 40
0.0
 40
0.0
 40
0.0
 40
1.0
 40
1.0
 40
1.0
 40
1.0
 10
156.5111015691464
 20
297.2115633293998
 30
0.0
 10
156.6256963617611
 20
298.1063419558355
 30
0.0
 10
156.7674096606654
 20
299.0011159675444
 30
0.0
 10
156.9289351103314
 20
299.8886910187939
 30
0.0
  0
ARC
  5
93
330
6F
100
AcDbEntity
  8
52198715
  6
Continuous
 62
     7
100
AcDbCircle
 10
170.3252824103
 20
302.6455024864
 30
0.0
 40
14.26992936019866
100
AcDbArc
 50
159.8479406464
 51
165.4804872275
  0
LINE
  5
94
330
6F
100
AcDbEntity
  8
52198715
  6
Continuous
 62
     7
100
AcDbLine
 10
156.5111015691
 20
301.2272548635
 30
0.0
 11
156.5111015691
 21
297.2115633294
 31
0.0
  0
LINE
  5
95
330
6F
100
AcDbEntity
  8
52198715
  6
Continuous
 62
     7
100
AcDbLine
 10
156.5111015691
 20
306.2231122516
 30
0.0
 11
156.5111015691
 21
306.4136878768
 31
0.0
  0
LINE
  5
96
330
6F
100
AcDbEntity
  8
52198715
  6
Continuous
 62
     7
100
AcDbLine
 10
156.5111015691
 20
278.2082996309
 30
0.0
 11
156.5111015691
 21
278.0177240057
 31
0.0
  0
LINE
  5
97
330
6F
100
AcDbEntity
  8
52198715
  6
Continuous
 62
     7
100
AcDbLine
 10
156.5111015691
 20
287.2198485531
 30
0.0
 11
156.5111015691
 21
283.204157019
 31
0.0
  0
ARC
  5
98
330
6F
100
AcDbEntity
  8
52198715
  6
Continuous
 62
     7
100
AcDbCircle
 10
212.696920728
 20
281.7859093962
 30
0.0
 40
14.26992936019776
100
AcDbArc
 50
339.8479406464
 51
345.4804872275
  0
LINE
  5
99
330
6F
100
AcDbEntity
  8
52198715
  6
Continuous
 62
     7
100
AcDbLine
 10
226.5111015691
 20
306.2231122516
 30
0.0
 11
226.5111015691
 21
306.4136878768
 31
0.0
  0
LINE
  5
9A
330
6F
100
AcDbEntity
  8
52198715
  6
Continuous
 62
     7
100
AcDbLine
 10
226.5111015691
 20
278.0177240057
 30
0.0
 11
226.5111015691
 21
278.2082996309
 31
0.0
  0
LINE
  5
9B
330
6F
100
AcDbEntity
  8
52198715
  6
Continuous
 62
     7
100
AcDbLine
 10
226.5111015691
 20
278.2082996309
 30
0.0
 11
226.5111015691
 21
279.6705604117
 31
0.0
  0
LINE
  5
9C
330
6F
100
AcDbEntity
  8
52198715
  6
Continuous
 62
     7
100
AcDbLine
 10
226.5111015691
 20
305.162484995
 30
0.0
 11
226.5111015691
 21
306.2231122516
 31
0.0
  0
LINE
  5
9D
330
6F
100
AcDbEntity
  8
52198715
  6
Continuous
 62
     7
100
AcDbLine
 10
156.5111015691
 20
306.2231122516
 30
0.0
 11
156.5111015691
 21
301.2272548635
 31
0.0
  0
LINE
  5
9E
330
6F
100
AcDbEntity
  8
52198715
  6
Continuous
 62
     7
100
AcDbLine
 10
156.5111015691
 20
297.2115633294
 30
0.0
 11
156.5111015691
 21
287.2198485531
 31
0.0
  0
LINE
  5
9F
330
6F
100
AcDbEntity
  8
52198715
  6
Continuous
 62
     7
100
AcDbLine
 10
156.5111015691
 20
283.204157019
 30
0.0
 11
156.5111015691
 21
278.2082996309
 31
0.0
  0
ELLIPSE
  5
A0
330
6F
100
AcDbEntity
  8
52198715
  6
Continuous
 62
     7
100
AcDbEllipse
 10
205.3861015691
 20
292.2157059413
 30
0.0
 11
2.244915846495427E-14
 21
-15.00000000000001
 31
0.0
210
0.0
220
0.0
230
1.0
 40
0.8660254038
 41
0.0
 42
0.1415394733244454
  0
ELLIPSE
  5
A1
330
6F
100
AcDbEntity
  8
52198715
  6
Continuous
 62
     7
100
AcDbEllipse
 10
205.3861015691
 20
292.2157059413
 30
0.0
 11
2.244915846495427E-14
 21
-15.00000000000001
 31
0.0
210
0.0
220
0.0
230
1.0
 40
0.8660254038
 41
3.000053180265373
 42
6.283185307179586
  0
ELLIPSE
  5
A2
330
6F
100
AcDbEntity
  8
52198715
  6
Continuous
 62
     7
100
AcDbEllipse
 10
211.3677232252
 20
292.2157059413
 30
0.0
 11
9.53600609614543
 21
11.8723812378128
 31
0.0
210
0.0
220
0.0
230
1.0
 40
0.9354177443
 41
2.19980150278742
 42
3.229486159047998
  0
ARC
  5
A3
330
6F
100
AcDbEntity
  8
52198715
  6
Continuous
 62
     7
100
AcDbCircle
 10
177.5168352651
 20
273.6001861896
 30
0.0
 40
29.93522955309318
100
AcDbArc
 50
11.5738967686
 51
39.0113687777
  0
ELLIPSE
  5
A4
330
6F
100
AcDbEntity
  8
52198715
  6
Continuous
 62
     7
100
AcDbEllipse
 10
213.6361015691
 20
292.2157059413
 30
0.0
 11
-6.426864563189888E-14
 21
-14.85
 31
0.0
210
0.0
220
0.0
230
1.0
 40
0.8660254038
 41
2.79004305407431
 42
4.697038454434967
  0
ELLIPSE
  5
A5
330
6F
100
AcDbEntity
  8
52198715
  6
Continuous
 62
     7
100
AcDbEllipse
 10
213.6361015691
 20
292.2157059413
 30
0.0
 11
-8.144812635015292E-14
 21
14.85000000000004
 31
0.0
210
0.0
220
0.0
230
1.0
 40
0.8660254038
 41
2.585130457105736
 42
3.419928368368382
  0
ELLIPSE
  5
A6
330
6F
100
AcDbEntity
  8
52198715
  6
Continuous
 62
     7
100
AcDbEllipse
 10
214.6361015691
 20
292.2157059413
 30
0.0
 11
-1.573671136904349E-15
 21
-12.85
 31
0.0
210
0.0
220
0.0
230
1.0
 40
0.8660254038
 41
3.89815169074086
 42
4.801799164708731
  0
ELLIPSE
  5
A7
330
6F
100
AcDbEntity
  8
52198715
  6
Continuous
 62
     7
100
AcDbEllipse
 10
214.6361015691
 20
292.2157059413
 30
0.0
 11
-1.573671136904349E-15
 21
-12.85
 31
0.0
210
0.0
220
0.0
230
1.0
 40
0.8660254038
 41
5.007122589181906
 42
5.787223368660876
  0
ELLIPSE
  5
A8
330
6F
100
AcDbEntity
  8
52198715
  6
Continuous
 62
     7
100
AcDbEllipse
 10
205.8861015691
 20
292.2157059413
 30
0.0
 11
5.120293407173408E-15
 21
-14.85000000000001
 31
0.0
210
0.0
220
0.0
230
1.0
 40
0.8660254038
 41
3.141592653589793
 42
6.283185307179586
  0
LINE
  5
A9
330
6F
100
AcDbEntity
  8
52198715
  6
Continuous
 62
     7
100
AcDbLine
 10
200.7771395059
 20
292.4436522992
 30
0.0
 11
196.7771395059
 21
292.4436522992
 31
0.0
  0
LINE
  5
AA
330
6F
100
AcDbEntity
  8
52198715
  6
Continuous
 62
     7
100
AcDbLine
 10
202.8433845062
 20
279.6061397366
 30
0.0
 11
206.8433845062
 21
279.6061397366
 31
0.0
  0
LINE
  5
AB
330
6F
100
AcDbEntity
  8
52198715
  6
Continuous
 62
     7
100
AcDbLine
 10
196.7771395059
 20
292.4436522992
 30
0.0
 11
202.8433845062
 21
279.6061397366
 31
0.0
  0
ARC
  5
AC
330
6F
100
AcDbEntity
  8
52198715
  6
Continuous
 62
     7
100
AcDbCircle
 10
167.2723806299
 20
252.4831564277
 30
0.0
 40
54.50728765854198
100
AcDbArc
 50
28.0817184219
 51
42.4542057367
  0
LINE
  5
AD
330
6F
100
AcDbEntity
  8
52198715
  6
Continuous
 62
     7
100
AcDbLine
 10
207.4887881187
 20
289.2756145759
 30
0.0
 11
206.076501359
 21
289.2756145759
 31
0.0
  0
LINE
  5
AE
330
6F
100
AcDbEntity
  8
52198715
  6
Continuous
 62
     7
100
AcDbLine
 10
213.9506260248
 20
278.1413934088
 30
0.0
 11
215.3629127845
 21
278.1413934088
 31
0.0
  0
ARC
  5
AF
330
6F
100
AcDbEntity
  8
52198715
  6
Continuous
 62
     7
100
AcDbCircle
 10
255.2745637644
 20
315.7170972941
 30
0.0
 40
55.85339159608545
100
AcDbArc
 50
208.2557925307
 51
222.2801316279
  0
LINE
  5
B0
330
6F
100
AcDbEntity
  8
52198715
  6
Continuous
 62
     7
100
AcDbLine
 10
212.5838877471
 20
277.7415338909
 30
0.0
 11
204.144201531
 21
289.6754740937
 31
0.0
  0
LINE
  5
B1
330
6F
100
AcDbEntity
  8
52198715
  6
Continuous
 62
     7
100
AcDbLine
 10
203.144201531
 20
289.6754740937
 30
0.0
 11
211.5838877471
 21
277.7415338909
 31
0.0
  0
LINE
  5
B2
330
6F
100
AcDbEntity
  8
52198715
  6
Continuous
 62
     7
100
AcDbLine
 10
204.144201531
 20
289.6754740937
 30
0.0
 11
203.144201531
 21
289.6754740937
 31
0.0
  0
LINE
  5
B3
330
6F
100
AcDbEntity
  8
52198715
  6
Continuous
 62
     7
100
AcDbLine
 10
211.5838877471
 20
277.7415338909
 30
0.0
 11
212.5838877471
 21
277.7415338909
 31
0.0
  0
LINE
  5
B4
330
6F
100
AcDbEntity
  8
52198715
  6
Continuous
 62
     7
100
AcDbLine
 10
212.6703254357
 20
277.7036899793
 30
0.0
 11
211.6703254357
 21
277.7036899793
 31
0.0
  0
LINE
  5
B5
330
6F
100
AcDbEntity
  8
52198715
  6
Continuous
 62
     7
100
AcDbLine
 10
222.1018777026
 20
306.7277219032
 30
0.0
 11
221.1018777026
 21
306.7277219032
 31
0.0
  0
LINE
  5
B6
330
6F
100
AcDbEntity
  8
52198715
  6
Continuous
 62
     7
100
AcDbLine
 10
207.9315794424
 20
304.2550057885
 30
0.0
 11
208.9315794424
 21
304.2550057885
 31
0.0
  0
LINE
  5
B7
330
6F
100
AcDbEntity
  8
52198715
  6
Continuous
 62
     7
100
AcDbLine
 10
208.8599776644
 20
304.1874900557
 30
0.0
 11
207.8599776644
 21
304.1874900557
 31
0.0
  0
LINE
  5
B8
330
6F
100
AcDbEntity
  8
52198715
  6
Continuous
 62
     7
100
AcDbLine
 10
203.1293656204
 20
289.7808337381
 30
0.0
 11
204.1293656204
 21
289.7808337381
 31
0.0
  0
ARC
  5
B9
330
6F
100
AcDbEntity
  8
52198715
  6
Continuous
 62
     7
100
AcDbCircle
 10
161.6618983878
 20
312.7109667561
 30
0.0
 40
50.90441798524509
100
AcDbArc
 50
333.8340856413
 51
349.8093872446
  0
ARC
  5
BA
330
6F
100
AcDbEntity
  8
52198715
  6
Continuous
 62
     7
100
AcDbCircle
 10
181.2176212295
 20
504.4848377038
 30
0.0
 40
202.5668238249071
100
AcDbArc
 50
278.8650327772
 51
282.4018894082
  0
ARC
  5
BB
330
6F
100
AcDbEntity
  8
52198715
  6
Continuous
 62
     7
100
AcDbCircle
 10
185.3164944901
 20
269.4975603256
 30
0.0
 40
54.50728765854251
100
AcDbArc
 50
39.5852206303
 51
42.4542057367
  0
ARC
  5
BC
330
6F
100
AcDbEntity
  8
52198715
  6
Continuous
 62
     7
100
AcDbCircle
 10
184.9927975278
 20
477.7394850705
 30
0.0
 40
202.3694908568197
100
AcDbArc
 50
278.8633078125
 51
282.4036143729
  0
LINE
  5
BD
330
6F
100
AcDbEntity
  8
52198715
  6
Continuous
 62
     7
100
AcDbLine
 10
211.7632792262
 20
303.7047795215
 30
0.0
 11
210.3509924664
 21
303.7047795215
 31
0.0
  0
LINE
  5
BE
330
6F
100
AcDbEntity
  8
52198715
  6
Continuous
 62
     7
100
AcDbLine
 10
205.937388924
 20
290.2635442722
 30
0.0
 11
207.3496756838
 21
290.2635442722
 31
0.0
  0
LINE
  5
BF
330
6F
100
AcDbEntity
  8
52198715
  6
Continuous
 62
     7
100
AcDbLine
 10
224.7223984891
 20
306.644870887
 30
0.0
 11
223.3101117294
 21
306.644870887
 31
0.0
  0
LINE
  5
C0
330
6F
100
AcDbEntity
  8
52198715
  6
Continuous
 62
     7
100
AcDbLine
 10
211.0223835212
 20
304.3378568047
 30
0.0
 11
212.434670281
 21
304.3378568047
 31
0.0
  0
LINE
  5
C1
330
6F
100
AcDbEntity
  8
52198715
  6
Continuous
 62
     7
100
AcDbLine
 10
216.1734162743
 20
277.7865409956
 30
0.0
 11
214.7611295146
 21
277.7865409956
 31
0.0
  0
ARC
  5
C2
330
6F
100
AcDbEntity
  8
52198715
  6
Continuous
 62
     7
100
AcDbCircle
 10
256.0387697624
 20
281.2573570376
 30
0.0
 40
50.90441798524437
100
AcDbArc
 50
153.8340856413
 51
169.8093872446
  0
ARC
  5
C3
330
6F
100
AcDbEntity
  8
52198715
  6
Continuous
 62
     7
100
AcDbCircle
 10
254.5271607809
 20
106.4978899879
 30
0.0
 40
202.5668238248572
100
AcDbArc
 50
98.8650327772
 51
102.4018894082
  0
LINE
  5
C4
330
6F
100
AcDbEntity
  8
52198715
  6
Continuous
 62
     7
100
AcDbLine
 10
222.1883153912
 20
306.6898779916
 30
0.0
 11
222.3332063626
 21
306.4849983143
 31
0.0
  0
SPLINE
  5
C5
330
6F
100
AcDbEntity
  8
52198715
  6
Continuous
 62
     7
100
AcDbSpline
210
0.0
220
0.0
230
1.0
 70
    12
 71
     2
 72
     6
 73
     3
 74
     0
 42
0.000000001
 43
0.0000000001
 40
0.0
 40
0.0
 40
0.0
 40
1.0
 40
1.0
 40
1.0
 10
222.1883153911814
 20
306.6898779916187
 30
0.0
 41
1.0
 10
222.1451529727221
 20
306.7089717872703
 30
0.0
 41
1.0
 10
222.1018777025751
 20
306.7277219031893
 30
0.0
 41
1.0
  0
LINE
  5
C6
330
6F
100
AcDbEntity
  8
52198715
  6
Continuous
 62
     7
100
AcDbLine
 10
208.9315794424
 20
304.2550057885
 30
0.0
 11
222.1018777026
 21
306.7277219032
 31
0.0
  0
SPLINE
  5
C7
330
6F
100
AcDbEntity
  8
52198715
  6
Continuous
 62
     7
100
AcDbSpline
210
0.0
220
0.0
230
1.0
 70
    12
 71
     2
 72
     6
 73
     3
 74
     0
 42
0.000000001
 43
0.0000000001
 40
0.0
 40
0.0
 40
0.0
 40
1.0
 40
1.0
 40
1.0
 10
208.9315794423977
 20
304.2550057884762
 30
0.0
 41
1.0
 10
208.8956778864293
 20
304.2213902678428
 30
0.0
 41
1.0
 10
208.8599776644166
 20
304.1874900556551
 30
0.0
 41
1.0
  0
LINE
  5
C8
330
6F
100
AcDbEntity
  8
52198715
  6
Continuous
 62
     7
100
AcDbLine
 10
204.1293656204
 20
289.7808337381
 30
0.0
 11
208.8599776644
 21
304.1874900557
 31
0.0
  0
LINE
  5
C9
330
6F
100
AcDbEntity
  8
52198715
  6
Continuous
 62
     7
100
AcDbLine
 10
214.2528876414
 20
278.0008151462
 30
0.0
 11
212.6703254357
 21
277.7036899793
 31
0.0
  0
SPLINE
  5
CA
330
6F
100
AcDbEntity
  8
52198715
  6
Continuous
 62
     7
100
AcDbSpline
210
0.0
220
0.0
230
1.0
 70
    12
 71
     2
 72
     6
 73
     3
 74
     0
 42
0.000000001
 43
0.0000000001
 40
0.0
 40
0.0
 40
0.0
 40
1.0
 40
1.0
 40
1.0
 10
204.1293656203627
 20
289.7808337381214
 30
0.0
 41
1.0
 10
204.1366264828536
 20
289.7281244218362
 30
0.0
 41
1.0
 10
204.144201530988
 20
289.6754740937297
 30
0.0
 41
1.0
  0
SPLINE
  5
CB
330
6F
100
AcDbEntity
  8
52198715
  6
Continuous
 62
     7
100
AcDbSpline
210
0.0
220
0.0
230
1.0
 70
    12
 71
     2
 72
     6
 73
     3
 74
     0
 42
0.000000001
 43
0.0000000001
 40
0.0
 40
0.0
 40
0.0
 40
1.0
 40
1.0
 40
1.0
 10
212.5838877471114
 20
277.7415338909089
 30
0.0
 41
1.0
 10
212.6270501655707
 20
277.7224400952572
 30
0.0
 41
1.0
 10
212.6703254357177
 20
277.7036899793383
 30
0.0
 41
1.0
  0
LINE
  5
CC
330
6F
100
AcDbEntity
  8
52198715
  6
Continuous
 62
     7
100
AcDbLine
 10
221.1018777026
 20
306.7277219032
 30
0.0
 11
207.9315794424
 21
304.2550057885
 31
0.0
  0
SPLINE
  5
CD
330
6F
100
AcDbEntity
  8
52198715
  6
Continuous
 62
     7
100
AcDbSpline
210
0.0
220
0.0
230
1.0
 70
    12
 71
     2
 72
     6
 73
     3
 74
     0
 42
0.000000001
 43
0.0000000001
 40
0.0
 40
0.0
 40
0.0
 40
1.0
 40
1.0
 40
1.0
 10
207.8599776644166
 20
304.1874900556551
 30
0.0
 41
1.0
 10
207.8956778864294
 20
304.2213902678429
 30
0.0
 41
1.0
 10
207.9315794423977
 20
304.2550057884762
 30
0.0
 41
1.0
  0
LINE
  5
CE
330
6F
100
AcDbEntity
  8
52198715
  6
Continuous
 62
     7
100
AcDbLine
 10
207.8599776644
 20
304.1874900557
 30
0.0
 11
203.1293656204
 21
289.7808337381
 31
0.0
  0
SPLINE
  5
CF
330
6F
100
AcDbEntity
  8
52198715
  6
Continuous
 62
     7
100
AcDbSpline
210
0.0
220
0.0
230
1.0
 70
    12
 71
     2
 72
     6
 73
     3
 74
     0
 42
0.000000001
 43
0.0000000001
 40
0.0
 40
0.0
 40
0.0
 40
1.0
 40
1.0
 40
1.0
 10
203.144201530988
 20
289.6754740937297
 30
0.0
 41
1.0
 10
203.1366264828536
 20
289.7281244218364
 30
0.0
 41
1.0
 10
203.1293656203627
 20
289.7808337381214
 30
0.0
 41
1.0
  0
SPLINE
  5
D0
330
6F
100
AcDbEntity
  8
52198715
  6
Continuous
 62
     7
100
AcDbSpline
210
0.0
220
0.0
230
1.0
 70
    12
 71
     2
 72
     6
 73
     3
 74
     0
 42
0.000000001
 43
0.0000000001
 40
0.0
 40
0.0
 40
0.0
 40
1.0
 40
1.0
 40
1.0
 10
211.6703254357177
 20
277.7036899793383
 30
0.0
 41
1.0
 10
211.6270501655705
 20
277.7224400952572
 30
0.0
 41
1.0
 10
211.5838877471114
 20
277.7415338909089
 30
0.0
 41
1.0
  0
ELLIPSE
  5
D1
330
6F
100
AcDbEntity
  8
52198715
  6
Continuous
 62
     7
100
AcDbEllipse
 10
235.6361015691
 20
292.2157059413
 30
0.0
 11
2.228625787069851E-14
 21
12.0
 31
0.0
210
0.0
220
0.0
230
1.0
 40
0.8660254038
 41
0.0
 42
6.283185307179586
  0
ELLIPSE
  5
D2
330
6F
100
AcDbEntity
  8
52198715
  6
Continuous
 62
     7
100
AcDbEllipse
 10
221.3861015691
 20
292.2157059413
 30
0.0
 11
-1.469576158976826E-15
 21
-12.00000000000002
 31
0.0
210
0.0
220
0.0
230
1.0
 40
0.8660254038
 41
3.141592653589793
 42
6.283185307179586
  0
ELLIPSE
  5
D3
330
6F
100
AcDbEntity
  8
52198715
  6
Continuous
 62
     7
100
AcDbEllipse
 10
220.4479073833
 20
292.215705946
 30
0.0
 11
-5.860883092370378E-9
 21
-15.25000000474691
 31
0.0
210
0.0
220
0.0
230
1.0
 40
0.8660254037
 41
5.887949348886196
 42
5.953594160928867
  0
ELLIPSE
  5
D4
330
6F
100
AcDbEntity
  8
52198715
  6
Continuous
 62
     7
100
AcDbEllipse
 10
220.4479073813
 20
292.2157059418
 30
0.0
 11
1.129573732136785E-9
 21
-15.25000000052965
 31
0.0
210
0.0
220
0.0
230
1.0
 40
0.8660254038
 41
0.6519615924358781
 42
0.6650511104227901
  0
ELLIPSE
  5
D5
330
6F
100
AcDbEntity
  8
52198715
  6
Continuous
 62
     7
100
AcDbEllipse
 10
220.4479073802
 20
292.2157059365
 30
0.0
 11
5.841815011922441E-9
 21
15.25000000475281
 31
0.0
210
0.0
220
0.0
230
1.0
 40
0.8660254037
 41
5.887949348885213
 42
5.95359416092784
  0
ELLIPSE
  5
D6
330
6F
100
AcDbEntity
  8
52198715
  6
Continuous
 62
     7
100
AcDbEllipse
 10
220.4479073823
 20
292.2157059405
 30
0.0
 11
-1.672271563255273E-9
 21
15.25000000078758
 31
0.0
210
0.0
220
0.0
230
1.0
 40
0.8660254038
 41
0.6519615924001938
 42
0.7176064044516266
  0
ELLIPSE
  5
D7
330
6F
100
AcDbEntity
  8
52198715
  6
Continuous
 62
     7
100
AcDbEllipse
 10
220.4479073814
 20
292.2157059412
 30
0.0
 11
1.190527435273613E-11
 21
-15.24999999981901
 31
0.0
210
0.0
220
0.0
230
1.0
 40
0.8660254038
 41
4.840751797293999
 42
4.906396609348355
  0
ELLIPSE
  5
D8
330
6F
100
AcDbEntity
  8
52198715
  6
Continuous
 62
     7
100
AcDbEllipse
 10
219.0356206236
 20
292.215705946
 30
0.0
 11
-5.888083556473695E-9
 21
-15.25000000476939
 31
0.0
210
0.0
220
0.0
230
1.0
 40
0.8660254037
 41
5.887949348888002
 42
5.953594160930616
  0
ELLIPSE
  5
D9
330
6F
100
AcDbEntity
  8
52198715
  6
Continuous
 62
     7
100
AcDbEllipse
 10
219.0356206223
 20
292.2157059408
 30
0.0
 11
-1.050810347433534E-9
 21
15.25000000049375
 31
0.0
210
0.0
220
0.0
230
1.0
 40
0.8660254038
 41
0.6519615924410891
 42
0.7176064044933166
  0
ELLIPSE
  5
DA
330
6F
100
AcDbEntity
  8
52198715
  6
Continuous
 62
     7
100
AcDbEllipse
 10
219.0356206158
 20
292.2157059401
 30
0.0
 11
3.885175034832040E-9
 21
-15.24999999628473
 31
0.0
210
0.0
220
0.0
230
1.0
 40
0.8660254036
 41
4.840751797029743
 42
4.906396609098916
  0
ELLIPSE
  5
DB
330
6F
100
AcDbEntity
  8
52198715
  6
Continuous
 62
     7
100
AcDbEllipse
 10
217.3861015691
 20
292.2157059413
 30
0.0
 11
8.530934742798787E-15
 21
12.99999999999999
 31
0.0
210
0.0
220
0.0
230
1.0
 40
0.8660254038
 41
0.8158451476872113
 42
1.634452707751073
  0
ELLIPSE
  5
DC
330
6F
100
AcDbEntity
  8
52198715
  6
Continuous
 62
     7
100
AcDbEllipse
 10
217.3861015691
 20
292.2157059413
 30
0.0
 11
8.530934742798787E-15
 21
12.99999999999999
 31
0.0
210
0.0
220
0.0
230
1.0
 40
0.8660254038
 41
1.890674394073661
 42
2.571825910388672
  0
ELLIPSE
  5
DD
330
6F
100
AcDbEntity
  8
52198715
  6
Continuous
 62
     7
100
AcDbEllipse
 10
215.1361015691
 20
292.2157059413
 30
0.0
 11
1.546370541271028E-14
 21
12.95
 31
0.0
210
0.0
220
0.0
230
1.0
 40
0.8660254038
 41
0.8441358642336265
 42
1.572629684036375
  0
ELLIPSE
  5
DE
330
6F
100
AcDbEntity
  8
52198715
  6
Continuous
 62
     7
100
AcDbEllipse
 10
215.1361015691
 20
292.2157059413
 30
0.0
 11
1.546370541271028E-14
 21
12.95
 31
0.0
210
0.0
220
0.0
230
1.0
 40
0.8660254038
 41
1.945404556614402
 42
2.565756094048789
  0
LINE
  5
DF
330
6F
100
AcDbEntity
  8
52198715
  6
Continuous
 62
     7
100
AcDbLine
 10
155.0111015691
 20
304.7157059413
 30
0.0
 11
155.0111015691
 21
279.7157059413
 31
0.0
  0
LINE
  5
E0
330
6F
100
AcDbEntity
  8
52198715
  6
Continuous
 62
     7
100
AcDbLine
 10
135.0111015691
 20
304.7157059413
 30
0.0
 11
135.0111015691
 21
279.7157059413
 31
0.0
  0
LINE
  5
E1
330
6F
100
AcDbEntity
  8
52198715
  6
Continuous
 62
     7
100
AcDbLine
 10
228.0111015691
 20
279.7157059413
 30
0.0
 11
228.0111015691
 21
279.9822834901
 31
0.0
  0
LINE
  5
E2
330
6F
100
AcDbEntity
  8
52198715
  6
Continuous
 62
     7
100
AcDbLine
 10
228.0111015691
 20
304.2157059413
 30
0.0
 11
228.0111015691
 21
304.7157059413
 31
0.0
  0
LINE
  5
E3
330
6F
100
AcDbEntity
  8
52198715
  6
Continuous
 62
     7
100
AcDbLine
 10
248.0111015691
 20
279.7157059413
 30
0.0
 11
248.0111015691
 21
304.7157059413
 31
0.0
  0
LINE
  5
E4
330
6F
100
AcDbEntity
  8
52198715
  6
Continuous
 62
     7
100
AcDbLine
 10
164.5662457037
 20
276.8697357862
 30
0.0
 11
165.5111015691
 21
279.4657059413
 31
0.0
  0
LINE
  5
E5
330
6F
100
AcDbEntity
  8
52198715
  6
Continuous
 62
     7
100
AcDbLine
 10
165.5111015691
 20
304.9657059413
 30
0.0
 11
164.5662457037
 21
307.5616760963
 31
0.0
  0
LINE
  5
E6
330
6F
100
AcDbEntity
  8
52198715
  6
Continuous
 62
     7
100
AcDbLine
 10
165.5111015691
 20
279.4657059413
 30
0.0
 11
170.0111015691
 21
279.4657059413
 31
0.0
  0
LINE
  5
E7
330
6F
100
AcDbEntity
  8
52198715
  6
Continuous
 62
     7
100
AcDbLine
 10
170.0111015691
 20
304.9657059413
 30
0.0
 11
165.5111015691
 21
304.9657059413
 31
0.0
  0
LINE
  5
E8
330
6F
100
AcDbEntity
  8
52198715
  6
Continuous
 62
     7
100
AcDbLine
 10
170.0111015691
 20
279.4657059413
 30
0.0
 11
176.0109673936
 21
281.649478511
 31
0.0
  0
LINE
  5
E9
330
6F
100
AcDbEntity
  8
52198715
  6
Continuous
 62
     7
100
AcDbLine
 10
176.0111015691
 20
302.7818845357
 30
0.0
 11
170.0111015691
 21
304.9657059413
 31
0.0
  0
LINE
  5
EA
330
6F
100
AcDbEntity
  8
52198715
  6
Continuous
 62
     7
100
AcDbLine
 10
218.4559574346
 20
307.5616760963
 30
0.0
 11
217.960685943
 21
306.2009288566
 31
0.0
  0
LINE
  5
EB
330
6F
100
AcDbEntity
  8
52198715
  6
Continuous
 62
     7
100
AcDbLine
 10
218.0120210377
 20
278.0894410126
 30
0.0
 11
218.4559574346
 21
276.8697357862
 31
0.0
  0
LINE
  5
EC
330
6F
100
AcDbEntity
  8
52198715
  6
Continuous
 62
     7
100
AcDbLine
 10
205.3861015691
 20
307.2157059413
 30
0.0
 11
203.9111015691
 21
307.2157059413
 31
0.0
  0
LINE
  5
ED
330
6F
100
AcDbEntity
  8
52198715
  6
Continuous
 62
     7
100
AcDbLine
 10
203.9111015691
 20
277.2157059413
 30
0.0
 11
205.3861015691
 21
277.2157059413
 31
0.0
  0
LINE
  5
EE
330
6F
100
AcDbEntity
  8
52198715
  6
Continuous
 62
     7
100
AcDbLine
 10
199.2474120426
 20
306.2157059413
 30
0.0
 11
199.0611015691
 21
306.2157059413
 31
0.0
  0
LINE
  5
EF
330
6F
100
AcDbEntity
  8
52198715
  6
Continuous
 62
     7
100
AcDbLine
 10
199.0611015691
 20
278.2157059413
 30
0.0
 11
199.2474120426
 21
278.2157059413
 31
0.0
  0
LINE
  5
F0
330
6F
100
AcDbEntity
  8
52198715
  6
Continuous
 62
     7
100
AcDbLine
 10
195.1459866283
 20
305.4657059413
 30
0.0
 11
187.0111015691
 21
305.4657059413
 31
0.0
  0
LINE
  5
F1
330
6F
100
AcDbEntity
  8
52198715
  6
Continuous
 62
     7
100
AcDbLine
 10
187.0111015691
 20
278.9657059413
 30
0.0
 11
195.1459866283
 21
278.9657059413
 31
0.0
  0
LINE
  5
F2
330
6F
100
AcDbEntity
  8
52198715
  6
Continuous
 62
     7
100
AcDbLine
 10
180.6140807782
 20
303.2157059413
 30
0.0
 11
176.8982336858
 21
303.2157059413
 31
0.0
  0
ARC
  5
F3
330
6F
100
AcDbEntity
  8
52198715
  6
Continuous
 62
     7
100
AcDbCircle
 10
176.8982336858
 20
306.7157059413
 30
0.0
 40
3.5
100
AcDbArc
 50
255.3173600938
 51
270.0
  0
LINE
  5
F4
330
6F
100
AcDbEntity
  8
52198715
  6
Continuous
 62
     7
100
AcDbLine
 10
176.0111015691
 20
303.327823669
 30
0.0
 11
176.0111015691
 21
302.779823382
 31
0.0
  0
LINE
  5
F5
330
6F
100
AcDbEntity
  8
52198715
  6
Continuous
 62
     7
100
AcDbLine
 10
176.0111015691
 20
281.6528481931
 30
0.0
 11
176.0111015691
 21
281.1147251532
 31
0.0
  0
ARC
  5
F6
330
6F
100
AcDbEntity
  8
52198715
  6
Continuous
 62
     7
100
AcDbCircle
 10
176.8982336858
 20
277.7157059413
 30
0.0
 40
3.5
100
AcDbArc
 50
90.0
 51
104.67745517
  0
LINE
  5
F7
330
6F
100
AcDbEntity
  8
52198715
  6
Continuous
 62
     7
100
AcDbLine
 10
176.8982336858
 20
281.2157059413
 30
0.0
 11
180.6140807782
 21
281.2157059413
 31
0.0
  0
LINE
  5
F8
330
6F
100
AcDbEntity
  8
52198715
  6
Continuous
 62
     7
100
AcDbLine
 10
156.9289351103
 20
307.5616760963
 30
0.0
 11
156.5111015691
 21
306.4136878768
 31
0.0
  0
LINE
  5
F9
330
6F
100
AcDbEntity
  8
52198715
  6
Continuous
 62
     7
100
AcDbLine
 10
156.5111015691
 20
278.0177240057
 30
0.0
 11
156.9289351103
 21
276.8697357862
 31
0.0
  0
LINE
  5
FA
330
6F
100
AcDbEntity
  8
52198715
  6
Continuous
 62
     7
100
AcDbLine
 10
226.5111015691
 20
306.4136878768
 30
0.0
 11
226.093268028
 21
307.5616760963
 31
0.0
  0
LINE
  5
FB
330
6F
100
AcDbEntity
  8
52198715
  6
Continuous
 62
     7
100
AcDbLine
 10
226.093268028
 20
276.8697357862
 30
0.0
 11
226.5111015691
 21
278.0177240057
 31
0.0
  0
LINE
  5
FC
330
6F
100
AcDbEntity
  8
52198715
  6
Continuous
 62
     7
100
AcDbLine
 10
235.6361015691
 20
304.2157059413
 30
0.0
 11
221.3861015691
 21
304.2157059413
 31
0.0
  0
LINE
  5
FD
330
6F
100
AcDbEntity
  8
52198715
  6
Continuous
 62
     7
100
AcDbLine
 10
221.3861015691
 20
280.2157059413
 30
0.0
 11
235.6361015691
 21
280.2157059413
 31
0.0
  0
LINE
  5
FE
330
6F
100
AcDbEntity
  8
52198715
  6
Continuous
 62
     7
100
AcDbLine
 10
213.6361015691
 20
307.0657059413
 30
0.0
 11
205.8861015691
 21
307.0657059413
 31
0.0
  0
LINE
  5
FF
330
6F
100
AcDbEntity
  8
52198715
  6
Continuous
 62
     7
100
AcDbLine
 10
205.8861015691
 20
277.3657059413
 30
0.0
 11
213.6361015691
 21
277.3657059413
 31
0.0
  0
LINE
  5
100
330
6F
100
AcDbEntity
  8
52198715
  6
Continuous
 62
     7
100
AcDbLine
 10
156.5111015691
 20
302.6932059413
 30
0.0
 11
155.0111015691
 21
302.6932059413
 31
0.0
  0
LINE
  5
101
330
6F
100
AcDbEntity
  8
52198715
  6
Continuous
 62
     7
100
AcDbLine
 10
155.0111015691
 20
281.7382059413
 30
0.0
 11
156.5111015691
 21
281.7382059413
 31
0.0
  0
LINE
  5
102
330
6F
100
AcDbEntity
  8
52198715
  6
Continuous
 62
     7
100
AcDbLine
 10
155.0111015691
 20
304.7157059413
 30
0.0
 11
135.0111015691
 21
304.7157059413
 31
0.0
  0
LINE
  5
103
330
6F
100
AcDbEntity
  8
52198715
  6
Continuous
 62
     7
100
AcDbLine
 10
135.0111015691
 20
279.7157059413
 30
0.0
 11
155.0111015691
 21
279.7157059413
 31
0.0
  0
LINE
  5
104
330
6F
100
AcDbEntity
  8
52198715
  6
Continuous
 62
     7
100
AcDbLine
 10
228.0111015691
 20
279.7157059413
 30
0.0
 11
248.0111015691
 21
279.7157059413
 31
0.0
  0
LINE
  5
105
330
6F
100
AcDbEntity
  8
52198715
  6
Continuous
 62
     7
100
AcDbLine
 10
248.0111015691
 20
304.7157059413
 30
0.0
 11
228.0111015691
 21
304.7157059413
 31
0.0
  0
ENDBLK
  5
107
330
6F
100
AcDbEntity
  8
0
100
AcDbBlockEnd
  0
BLOCK
  5
175
330
108
100
AcDbEntity
  8
0
100
AcDbBlockBegin
  2
SE1
 70
     0
 10
0.0
 20
0.0
 30
0.0
  3
SE1
  1

  0
LINE
  5
10A
330
108
100
AcDbEntity
  8
52198715
  6
Continuous
 62
     7
100
AcDbLine
 10
364.0550184405
 20
307.5616760963
 30
0.0
 11
361.7365578523
 21
306.2231122516
 31
0.0
  0
LINE
  5
10B
330
108
100
AcDbEntity
  8
52198715
  6
Continuous
 62
     7
100
AcDbLine
 10
377.3450184405
 20
299.8886910188
 30
0.0
 11
375.0265578523
 21
301.2272548635
 31
0.0
  0
LINE
  5
10C
330
108
100
AcDbEntity
  8
52198715
  6
Continuous
 62
     7
100
AcDbLine
 10
377.3450184405
 20
284.5427208637
 30
0.0
 11
377.3450184405
 21
287.2198485531
 31
0.0
  0
LINE
  5
10D
330
108
100
AcDbEntity
  8
52198715
  6
Continuous
 62
     7
100
AcDbLine
 10
364.0550184405
 20
276.8697357862
 30
0.0
 11
366.3734790286
 21
278.2082996309
 31
0.0
  0
LINE
  5
10E
330
108
100
AcDbEntity
  8
52198715
  6
Continuous
 62
     7
100
AcDbLine
 10
350.7650184405
 20
284.5427208637
 30
0.0
 11
353.0834790286
 21
283.204157019
 31
0.0
  0
LINE
  5
10F
330
108
100
AcDbEntity
  8
52198715
  6
Continuous
 62
     7
100
AcDbLine
 10
350.7650184405
 20
299.8886910188
 30
0.0
 11
350.7650184405
 21
297.2115633294
 31
0.0
  0
ELLIPSE
  5
110
330
108
100
AcDbEntity
  8
52198715
  6
Continuous
 62
     7
100
AcDbEllipse
 10
368.3851454594
 20
292.2157059413
 30
0.0
 11
1.734723475976807E-15
 21
-13.24999999999963
 31
0.0
210
0.0
220
0.0
230
1.0
 40
0.5
 41
2.488200590973744
 42
3.23291491320022
  0
ELLIPSE
  5
111
330
108
100
AcDbEntity
  8
52198715
  6
Continuous
 62
     7
100
AcDbEllipse
 10
368.3851454594
 20
292.2157059413
 30
0.0
 11
1.734723475976807E-15
 21
-13.24999999999963
 31
0.0
210
0.0
220
0.0
230
1.0
 40
0.5
 41
-0.0913222596104284
 42
0.6533920626160419
  0
ELLIPSE
  5
112
330
108
100
AcDbEntity
  8
52198715
  6
Continuous
 62
     7
100
AcDbEllipse
 10
397.6568041073
 20
292.2157059413
 30
0.0
 11
-2.635573717093112E-31
 21
-15.00000000000001
 31
0.0
210
0.0
220
0.0
230
1.0
 40
0.5
 41
5.943348397725463
 42
6.283185307179586
  0
ELLIPSE
  5
113
330
108
100
AcDbEntity
  8
52198715
  6
Continuous
 62
     7
100
AcDbEllipse
 10
397.6568041073
 20
292.2157059413
 30
0.0
 11
-2.635573717093112E-31
 21
-15.00000000000001
 31
0.0
210
0.0
220
0.0
230
1.0
 40
0.5
 41
0.0
 42
3.481429563043906
  0
ELLIPSE
  5
114
330
108
100
AcDbEntity
  8
52198715
  6
Continuous
 62
     7
100
AcDbEllipse
 10
396.1568041073
 20
292.2157059413
 30
0.0
 11
2.389054684211543E-31
 21
14.0
 31
0.0
210
0.0
220
0.0
230
1.0
 40
0.5
 41
3.141592653589793
 42
6.283185307179586
  0
ELLIPSE
  5
115
330
108
100
AcDbEntity
  8
52198715
  6
Continuous
 62
     7
100
AcDbEllipse
 10
389.2563576906
 20
292.2157059413
 30
0.0
 11
-3.469446951953613E-15
 21
14.0
 31
0.0
210
0.0
220
0.0
230
1.0
 40
0.5
 41
2.812786638019404
 42
6.283185307179585
  0
ELLIPSE
  5
116
330
108
100
AcDbEntity
  8
52198715
  6
Continuous
 62
     7
100
AcDbEllipse
 10
389.2563576906
 20
292.2157059413
 30
0.0
 11
-3.469446951953613E-15
 21
14.0
 31
0.0
210
0.0
220
0.0
230
1.0
 40
0.5
 41
0.0
 42
0.328806015570377
  0
ELLIPSE
  5
117
330
108
100
AcDbEntity
  8
52198715
  6
Continuous
 62
     7
100
AcDbEllipse
 10
388.1313576906
 20
292.2157059413
 30
0.0
 11
-3.469446951953613E-15
 21
13.24999999999963
 31
0.0
210
0.0
220
0.0
230
1.0
 40
0.5
 41
3.141592653589793
 42
6.283185307179585
  0
LINE
  5
118
330
108
100
AcDbEntity
  8
52198715
  6
Continuous
 62
     7
100
AcDbLine
 10
353.0834790286
 20
301.2272548635
 30
0.0
 11
350.7650184405
 21
299.8886910188
 31
0.0
  0
LINE
  5
119
330
108
100
AcDbEntity
  8
52198715
  6
Continuous
 62
     7
100
AcDbLine
 10
350.7650184405
 20
287.2198485531
 30
0.0
 11
350.7650184405
 21
284.5427208637
 31
0.0
  0
LINE
  5
11A
330
108
100
AcDbEntity
  8
52198715
  6
Continuous
 62
     7
100
AcDbLine
 10
361.7365578523
 20
278.2082996309
 30
0.0
 11
364.0550184405
 21
276.8697357862
 31
0.0
  0
LINE
  5
11B
330
108
100
AcDbEntity
  8
52198715
  6
Continuous
 62
     7
100
AcDbLine
 10
375.0265578523
 20
283.204157019
 30
0.0
 11
377.3450184405
 21
284.5427208637
 31
0.0
  0
LINE
  5
11C
330
108
100
AcDbEntity
  8
52198715
  6
Continuous
 62
     7
100
AcDbLine
 10
377.3450184405
 20
297.2115633294
 30
0.0
 11
377.3450184405
 21
299.8886910188
 31
0.0
  0
LINE
  5
11D
330
108
100
AcDbEntity
  8
52198715
  6
Continuous
 62
     7
100
AcDbLine
 10
366.3734790286
 20
306.2231122516
 30
0.0
 11
364.0550184405
 21
307.5616760963
 31
0.0
  0
ARC
  5
11E
330
108
100
AcDbEntity
  8
52198715
  6
Continuous
 62
     7
100
AcDbCircle
 10
364.0550184405
 20
292.2157059413
 30
0.0
 40
14.19798193556369
100
AcDbArc
 50
20.6017935323
 51
39.3982064677
  0
ARC
  5
11F
330
108
100
AcDbEntity
  8
52198715
  6
Continuous
 62
     7
100
AcDbCircle
 10
364.0550184405
 20
292.2157059413
 30
0.0
 40
14.19798193556369
100
AcDbArc
 50
80.6017935323
 51
99.3982064677
  0
ARC
  5
120
330
108
100
AcDbEntity
  8
52198715
  6
Continuous
 62
     7
100
AcDbCircle
 10
364.0550184405
 20
292.2157059413
 30
0.0
 40
14.19798193556369
100
AcDbArc
 50
140.6017935323
 51
159.3982064677
  0
ARC
  5
121
330
108
100
AcDbEntity
  8
52198715
  6
Continuous
 62
     7
100
AcDbCircle
 10
364.0550184405
 20
292.2157059413
 30
0.0
 40
14.19798193556368
100
AcDbArc
 50
200.6017935323
 51
219.3982064677
  0
ARC
  5
122
330
108
100
AcDbEntity
  8
52198715
  6
Continuous
 62
     7
100
AcDbCircle
 10
364.0550184405
 20
292.2157059413
 30
0.0
 40
14.19798193556368
100
AcDbArc
 50
260.6017935323
 51
279.3982064677
  0
ARC
  5
123
330
108
100
AcDbEntity
  8
52198715
  6
Continuous
 62
     7
100
AcDbCircle
 10
364.0550184405
 20
292.2157059413
 30
0.0
 40
14.19798193556367
100
AcDbArc
 50
320.6017935323
 51
339.3982064677
  0
LINE
  5
124
330
108
100
AcDbEntity
  8
52198715
  6
Continuous
 62
     7
100
AcDbLine
 10
361.7365578523
 20
278.2082996309
 30
0.0
 11
353.0834790286
 21
283.204157019
 31
0.0
  0
LINE
  5
125
330
108
100
AcDbEntity
  8
52198715
  6
Continuous
 62
     7
100
AcDbLine
 10
350.7650184405
 20
287.2198485531
 30
0.0
 11
350.7650184405
 21
297.2115633294
 31
0.0
  0
LINE
  5
126
330
108
100
AcDbEntity
  8
52198715
  6
Continuous
 62
     7
100
AcDbLine
 10
353.0834790286
 20
301.2272548635
 30
0.0
 11
361.7365578523
 21
306.2231122516
 31
0.0
  0
LINE
  5
127
330
108
100
AcDbEntity
  8
52198715
  6
Continuous
 62
     7
100
AcDbLine
 10
366.3734790286
 20
306.2231122516
 30
0.0
 11
375.0265578523
 21
301.2272548635
 31
0.0
  0
LINE
  5
128
330
108
100
AcDbEntity
  8
52198715
  6
Continuous
 62
     7
100
AcDbLine
 10
377.3450184405
 20
297.2115633294
 30
0.0
 11
377.3450184405
 21
287.2198485531
 31
0.0
  0
LINE
  5
129
330
108
100
AcDbEntity
  8
52198715
  6
Continuous
 62
     7
100
AcDbLine
 10
375.0265578523
 20
283.204157019
 30
0.0
 11
366.3734790286
 21
278.2082996309
 31
0.0
  0
ELLIPSE
  5
12A
330
108
100
AcDbEntity
  8
52198715
  6
Continuous
 62
     7
100
AcDbEllipse
 10
400.2115790485
 20
292.2157059413
 30
0.0
 11
-2.635573717093112E-31
 21
-15.00000000000001
 31
0.0
210
0.0
220
0.0
230
1.0
 40
0.5
 41
0.0
 42
3.141592653589801
  0
ELLIPSE
  5
12B
330
108
100
AcDbEntity
  8
52198715
  6
Continuous
 62
     7
100
AcDbEllipse
 10
410.5720516684
 20
292.2157059413
 30
0.0
 11
1.805931354157811
 21
14.84061192323562
 31
0.0
210
0.0
220
0.0
230
1.0
 40
0.2923456608
 41
3.733614949742357
 42
4.763299606002932
  0
ARC
  5
12C
330
108
100
AcDbEntity
  8
52198715
  6
Continuous
 62
     7
100
AcDbCircle
 10
407.8417240051
 20
289.3893910282
 30
0.0
 40
14.41078245552404
100
AcDbArc
 50
317.2434947375
 51
12.236228359
  0
ELLIPSE
  5
12D
330
108
100
AcDbEntity
  8
52198715
  6
Continuous
 62
     7
100
AcDbEllipse
 10
414.5009982109
 20
292.2157059413
 30
0.0
 11
2.775557561562891E-14
 21
-14.84999999999999
 31
0.0
210
0.0
220
0.0
230
1.0
 40
0.5
 41
1.586146852744622
 42
3.141592653589793
  0
ELLIPSE
  5
12E
330
108
100
AcDbEntity
  8
52198715
  6
Continuous
 62
     7
100
AcDbEllipse
 10
414.5009982109
 20
292.2157059413
 30
0.0
 11
3.660807638291267E-31
 21
14.85000000000004
 31
0.0
210
0.0
220
0.0
230
1.0
 40
0.5
 41
3.141592653589793
 42
3.698054850073838
  0
ELLIPSE
  5
12F
330
108
100
AcDbEntity
  8
52198715
  6
Continuous
 62
     7
100
AcDbEllipse
 10
416.2330490185
 20
292.2157059413
 30
0.0
 11
-3.167769572528124E-31
 21
-12.84999999999999
 31
0.0
210
0.0
220
0.0
230
1.0
 40
0.5
 41
0.6154797086703798
 42
2.526112944919406
  0
ELLIPSE
  5
130
330
108
100
AcDbEntity
  8
52198715
  6
Continuous
 62
     7
100
AcDbEllipse
 10
401.0776044522
 20
292.2157059413
 30
0.0
 11
6.938893903907228E-15
 21
-14.85000000000001
 31
0.0
210
0.0
220
0.0
230
1.0
 40
0.5
 41
0.0287256683382049
 42
3.112866985251457
  0
LINE
  5
131
330
108
100
AcDbEntity
  8
52198715
  6
Continuous
 62
     7
100
AcDbLine
 10
421.9251234196
 20
292.4436522992
 30
0.0
 11
414.9969201893
 21
292.4436522992
 31
0.0
  0
LINE
  5
132
330
108
100
AcDbEntity
  8
52198715
  6
Continuous
 62
     7
100
AcDbLine
 10
411.4945720054
 20
279.6061397366
 30
0.0
 11
418.4227752357
 21
279.6061397366
 31
0.0
  0
ARC
  5
133
330
108
100
AcDbEntity
  8
52198715
  6
Continuous
 62
     7
100
AcDbCircle
 10
411.4222154499
 20
291.9096897153
 30
0.0
 40
22.51374991101442
100
AcDbArc
 50
322.2982970037
 51
353.2810906321
  0
LINE
  5
134
330
108
100
AcDbEntity
  8
52198715
  6
Continuous
 62
     7
100
AcDbLine
 10
433.7813429645
 20
289.2756145759
 30
0.0
 11
431.3351905418
 21
289.2756145759
 31
0.0
  0
LINE
  5
135
330
108
100
AcDbEntity
  8
52198715
  6
Continuous
 62
     7
100
AcDbLine
 10
426.7890625464
 20
278.1413934088
 30
0.0
 11
429.2352149691
 21
278.1413934088
 31
0.0
  0
ARC
  5
136
330
108
100
AcDbEntity
  8
52198715
  6
Continuous
 62
     7
100
AcDbCircle
 10
448.5087646947
 20
275.7683971104
 30
0.0
 40
21.84894901003342
100
AcDbArc
 50
141.8145343745
 51
173.7648532613
  0
LINE
  5
137
330
108
100
AcDbEntity
  8
52198715
  6
Continuous
 62
     7
100
AcDbLine
 10
423.7687481821
 20
277.7415338909
 30
0.0
 11
428.6414032909
 21
289.6754740937
 31
0.0
  0
LINE
  5
138
330
108
100
AcDbEntity
  8
52198715
  6
Continuous
 62
     7
100
AcDbLine
 10
426.9093524833
 20
289.6754740937
 30
0.0
 11
422.0366973746
 21
277.7415338909
 31
0.0
  0
LINE
  5
139
330
108
100
AcDbEntity
  8
52198715
  6
Continuous
 62
     7
100
AcDbLine
 10
428.6414032909
 20
289.6754740937
 30
0.0
 11
426.9093524833
 21
289.6754740937
 31
0.0
  0
LINE
  5
13A
330
108
100
AcDbEntity
  8
52198715
  6
Continuous
 62
     7
100
AcDbLine
 10
422.0366973746
 20
277.7415338909
 30
0.0
 11
423.7687481821
 21
277.7415338909
 31
0.0
  0
LINE
  5
13B
330
108
100
AcDbEntity
  8
52198715
  6
Continuous
 62
     7
100
AcDbLine
 10
423.7188433594
 20
277.7036899793
 30
0.0
 11
421.9867925518
 21
277.7036899793
 31
0.0
  0
LINE
  5
13C
330
108
100
AcDbEntity
  8
52198715
  6
Continuous
 62
     7
100
AcDbLine
 10
418.2735341192
 20
306.7277219032
 30
0.0
 11
416.5414833116
 21
306.7277219032
 31
0.0
  0
LINE
  5
13D
330
108
100
AcDbEntity
  8
52198715
  6
Continuous
 62
     7
100
AcDbLine
 10
424.1453585575
 20
304.2550057885
 30
0.0
 11
425.877409365
 21
304.2550057885
 31
0.0
  0
LINE
  5
13E
330
108
100
AcDbEntity
  8
52198715
  6
Continuous
 62
     7
100
AcDbLine
 10
425.9187486708
 20
304.1874900557
 30
0.0
 11
424.1866978633
 21
304.1874900557
 31
0.0
  0
LINE
  5
13F
330
108
100
AcDbEntity
  8
52198715
  6
Continuous
 62
     7
100
AcDbLine
 10
426.9179180003
 20
289.7808337381
 30
0.0
 11
428.6499688079
 21
289.7808337381
 31
0.0
  0
ARC
  5
140
330
108
100
AcDbEntity
  8
52198715
  6
Continuous
 62
     7
100
AcDbCircle
 10
407.0468610115
 20
292.1421447602
 30
0.0
 40
26.8805238291418
100
AcDbArc
 50
355.9925002815
 51
25.4770266191
  0
ARC
  5
141
330
108
100
AcDbEntity
  8
52198715
  6
Continuous
 62
     7
100
AcDbCircle
 10
420.1097750235
 20
283.1386934131
 30
0.0
 40
23.79898560473156
100
AcDbArc
 50
62.9687926452
 51
81.0030303506
  0
LINE
  5
142
330
108
100
AcDbEntity
  8
52198715
  6
Continuous
 62
     7
100
AcDbLine
 10
431.313464373
 20
303.7047795215
 30
0.0
 11
428.8673119503
 21
303.7047795215
 31
0.0
  0
LINE
  5
143
330
108
100
AcDbEntity
  8
52198715
  6
Continuous
 62
     7
100
AcDbLine
 10
431.4155071436
 20
290.2635442722
 30
0.0
 11
433.8616595663
 21
290.2635442722
 31
0.0
  0
LINE
  5
144
330
108
100
AcDbEntity
  8
52198715
  6
Continuous
 62
     7
100
AcDbLine
 10
423.831513378
 20
306.644870887
 30
0.0
 11
421.3853609553
 21
306.644870887
 31
0.0
  0
LINE
  5
145
330
108
100
AcDbEntity
  8
52198715
  6
Continuous
 62
     7
100
AcDbLine
 10
428.479684144
 20
304.3378568047
 30
0.0
 11
430.9258365668
 21
304.3378568047
 31
0.0
  0
LINE
  5
146
330
108
100
AcDbEntity
  8
52198715
  6
Continuous
 62
     7
100
AcDbLine
 10
428.7672705611
 20
277.7865409956
 30
0.0
 11
426.3211181384
 21
277.7865409956
 31
0.0
  0
ARC
  5
147
330
108
100
AcDbEntity
  8
52198715
  6
Continuous
 62
     7
100
AcDbCircle
 10
455.6821105051
 20
301.8261790336
 30
0.0
 40
26.88052382914197
100
AcDbArc
 50
175.9925002815
 51
205.4770266191
  0
ARC
  5
148
330
108
100
AcDbEntity
  8
52198715
  6
Continuous
 62
     7
100
AcDbCircle
 10
432.2014224986
 20
327.8440342786
 30
0.0
 40
23.79898560473374
100
AcDbArc
 50
242.9687926452
 51
261.0030303506
  0
ARC
  5
149
330
108
100
AcDbEntity
  8
52198715
  6
Continuous
 62
     7
100
AcDbCircle
 10
438.0909907002
 20
292.7828010083
 30
0.0
 40
21.84894901003418
100
AcDbArc
 50
141.8145343745
 51
142.9165282815
  0
ARC
  5
14A
330
108
100
AcDbEntity
  8
52198715
  6
Continuous
 62
     7
100
AcDbCircle
 10
430.0638895393
 20
301.3573974109
 30
0.0
 40
23.86616035122556
100
AcDbArc
 50
255.2569920109
 51
260.9774396429
  0
LINE
  5
14B
330
108
100
AcDbEntity
  8
52198715
  6
Continuous
 62
     7
100
AcDbLine
 10
425.877409365
 20
304.2550057885
 30
0.0
 11
418.2735341192
 21
306.7277219032
 31
0.0
  0
SPLINE
  5
14C
330
108
100
AcDbEntity
  8
52198715
  6
Continuous
 62
     7
100
AcDbSpline
210
0.0
220
0.0
230
1.0
 70
    12
 71
     2
 72
     6
 73
     3
 74
     0
 42
0.000000001
 43
0.0000000001
 40
0.0
 40
0.0
 40
0.0
 40
1.0
 40
1.0
 40
1.0
 10
425.8774093650278
 20
304.2550057884762
 30
0.0
 41
1.0
 10
425.8981371380305
 20
304.2213902678428
 30
0.0
 41
1.0
 10
425.9187486708197
 20
304.1874900556551
 30
0.0
 41
1.0
  0
LINE
  5
14D
330
108
100
AcDbEntity
  8
52198715
  6
Continuous
 62
     7
100
AcDbLine
 10
428.6499688079
 20
289.7808337381
 30
0.0
 11
425.9187486708
 21
304.1874900557
 31
0.0
  0
SPLINE
  5
14E
330
108
100
AcDbEntity
  8
52198715
  6
Continuous
 62
     7
100
AcDbSpline
210
0.0
220
0.0
230
1.0
 70
    12
 71
     2
 72
     6
 73
     3
 74
     0
 42
0.000000001
 43
0.0000000001
 40
0.0
 40
0.0
 40
0.0
 40
1.0
 40
1.0
 40
1.0
 10
428.6499688078859
 20
289.7808337381214
 30
0.0
 41
1.0
 10
428.6457767469722
 20
289.7281244218362
 30
0.0
 41
1.0
 10
428.6414032908928
 20
289.6754740937297
 30
0.0
 41
1.0
  0
SPLINE
  5
14F
330
108
100
AcDbEntity
  8
52198715
  6
Continuous
 62
     7
100
AcDbSpline
210
0.0
220
0.0
230
1.0
 70
    12
 71
     2
 72
     6
 73
     3
 74
     0
 42
0.000000001
 43
0.0000000001
 40
0.0
 40
0.0
 40
0.0
 40
1.0
 40
1.0
 40
1.0
 10
423.7687481821379
 20
277.7415338909089
 30
0.0
 41
1.0
 10
423.7438283482216
 20
277.7224400952572
 30
0.0
 41
1.0
 10
423.7188433593529
 20
277.7036899793383
 30
0.0
 41
1.0
  0
LINE
  5
150
330
108
100
AcDbEntity
  8
52198715
  6
Continuous
 62
     7
100
AcDbLine
 10
416.4356017023
 20
306.5527815609
 30
0.0
 11
416.4915784889
 21
306.6898779916
 31
0.0
  0
SPLINE
  5
151
330
108
100
AcDbEntity
  8
52198715
  6
Continuous
 62
     7
100
AcDbSpline
210
0.0
220
0.0
230
1.0
 70
    12
 71
     2
 72
     6
 73
     3
 74
     0
 42
0.000000001
 43
0.0000000001
 40
0.0
 40
0.0
 40
0.0
 40
1.0
 40
1.0
 40
1.0
 10
416.5414833116379
 20
306.7277219031893
 30
0.0
 41
1.0
 10
416.5164983227692
 20
306.7089717872703
 30
0.0
 41
1.0
 10
416.491578488853
 20
306.6898779916187
 30
0.0
 41
1.0
  0
LINE
  5
152
330
108
100
AcDbEntity
  8
52198715
  6
Continuous
 62
     7
100
AcDbLine
 10
416.5414833116
 20
306.7277219032
 30
0.0
 11
424.1453585575
 21
304.2550057885
 31
0.0
  0
SPLINE
  5
153
330
108
100
AcDbEntity
  8
52198715
  6
Continuous
 62
     7
100
AcDbSpline
210
0.0
220
0.0
230
1.0
 70
    12
 71
     2
 72
     6
 73
     3
 74
     0
 42
0.000000001
 43
0.0000000001
 40
0.0
 40
0.0
 40
0.0
 40
1.0
 40
1.0
 40
1.0
 10
424.1866978632508
 20
304.1874900556551
 30
0.0
 41
1.0
 10
424.1660863304616
 20
304.2213902678429
 30
0.0
 41
1.0
 10
424.145358557459
 20
304.2550057884762
 30
0.0
 41
1.0
  0
LINE
  5
154
330
108
100
AcDbEntity
  8
52198715
  6
Continuous
 62
     7
100
AcDbLine
 10
424.1866978633
 20
304.1874900557
 30
0.0
 11
426.9179180003
 21
289.7808337381
 31
0.0
  0
LINE
  5
155
330
108
100
AcDbEntity
  8
52198715
  6
Continuous
 62
     7
100
AcDbLine
 10
421.9867925518
 20
277.7036899793
 30
0.0
 11
417.9144447053
 21
279.0279831613
 31
0.0
  0
SPLINE
  5
156
330
108
100
AcDbEntity
  8
52198715
  6
Continuous
 62
     7
100
AcDbSpline
210
0.0
220
0.0
230
1.0
 70
    12
 71
     2
 72
     6
 73
     3
 74
     0
 42
0.000000001
 43
0.0000000001
 40
0.0
 40
0.0
 40
0.0
 40
1.0
 40
1.0
 40
1.0
 10
426.9093524833239
 20
289.6754740937297
 30
0.0
 41
1.0
 10
426.9137259394034
 20
289.7281244218364
 30
0.0
 41
1.0
 10
426.9179180003171
 20
289.7808337381214
 30
0.0
 41
1.0
  0
SPLINE
  5
157
330
108
100
AcDbEntity
  8
52198715
  6
Continuous
 62
     7
100
AcDbSpline
210
0.0
220
0.0
230
1.0
 70
    12
 71
     2
 72
     6
 73
     3
 74
     0
 42
0.000000001
 43
0.0000000001
 40
0.0
 40
0.0
 40
0.0
 40
1.0
 40
1.0
 40
1.0
 10
421.986792551784
 20
277.7036899793383
 30
0.0
 41
1.0
 10
422.0117775406528
 20
277.7224400952572
 30
0.0
 41
1.0
 10
422.036697374569
 20
277.7415338909089
 30
0.0
 41
1.0
  0
ELLIPSE
  5
158
330
108
100
AcDbEntity
  8
52198715
  6
Continuous
 62
     7
100
AcDbEllipse
 10
452.6061159774
 20
292.2157059413
 30
0.0
 11
2.958228394578795E-31
 21
12.0
 31
0.0
210
0.0
220
0.0
230
1.0
 40
0.5
 41
3.141592653589793
 42
6.283185307179586
  0
ELLIPSE
  5
159
330
108
100
AcDbEntity
  8
52198715
  6
Continuous
 62
     7
100
AcDbEllipse
 10
426.2993919687
 20
292.215705946
 30
0.0
 11
1.114920655798102E-9
 21
-15.25000000474481
 31
0.0
210
0.0
220
0.0
230
1.0
 40
0.4999999999
 41
0.3295911465469965
 42
0.3952359585896458
  0
ELLIPSE
  5
15A
330
108
100
AcDbEntity
  8
52198715
  6
Continuous
 62
     7
100
AcDbEllipse
 10
426.2993919692
 20
292.2157059405
 30
0.0
 11
3.179470575709331E-10
 21
15.25000000078673
 31
0.0
210
0.0
220
0.0
230
1.0
 40
0.5
 41
-0.7176064045361663
 42
-0.6519615924847475
  0
ELLIPSE
  5
15B
330
108
100
AcDbEntity
  8
52198715
  6
Continuous
 62
     7
100
AcDbEllipse
 10
426.2993919697
 20
292.2157059412
 30
0.0
 11
-2.967071033310731E-11
 21
-15.24999999981491
 31
0.0
210
0.0
220
0.0
230
1.0
 40
0.5
 41
1.37678869783154
 42
1.442433509885876
  0
ELLIPSE
  5
15C
330
108
100
AcDbEntity
  8
52198715
  6
Continuous
 62
     7
100
AcDbEllipse
 10
423.8532395459
 20
292.215705946
 30
0.0
 11
1.136306326809944E-9
 21
-15.25000000476708
 31
0.0
210
0.0
220
0.0
230
1.0
 40
0.4999999999
 41
0.3295911465460843
 42
0.3952359585886795
  0
ELLIPSE
  5
15D
330
108
100
AcDbEntity
  8
52198715
  6
Continuous
 62
     7
100
AcDbEllipse
 10
423.8532395468
 20
292.2157059418
 30
0.0
 11
1.208616540182561E-10
 21
15.24999999950645
 31
0.0
210
0.0
220
0.0
230
1.0
 40
0.5
 41
0.3295911466421826
 42
0.3952359586968781
  0
ELLIPSE
  5
15E
330
108
100
AcDbEntity
  8
52198715
  6
Continuous
 62
     7
100
AcDbEllipse
 10
423.8532395467
 20
292.2157059408
 30
0.0
 11
1.968078477965207E-10
 21
15.25000000049151
 31
0.0
210
0.0
220
0.0
230
1.0
 40
0.5
 41
-0.7176064045465225
 42
-0.6519615924943141
  0
ELLIPSE
  5
15F
330
108
100
AcDbEntity
  8
52198715
  6
Continuous
 62
     7
100
AcDbEllipse
 10
423.8532395504
 20
292.2157059401
 30
0.0
 11
-7.776765342804026E-10
 21
-15.24999999628036
 31
0.0
210
0.0
220
0.0
230
1.0
 40
0.4999999999
 41
1.376788697885519
 42
1.442433509954671
  0
ELLIPSE
  5
160
330
108
100
AcDbEntity
  8
52198715
  6
Continuous
 62
     7
100
AcDbEllipse
 10
422.7282395468
 20
292.2157059413
 30
0.0
 11
-3.204747427460360E-31
 21
-13.0
 31
0.0
210
0.0
220
0.0
230
1.0
 40
0.5
 41
2.85265070183891
 42
3.108164159463865
  0
ELLIPSE
  5
161
330
108
100
AcDbEntity
  8
52198715
  6
Continuous
 62
     7
100
AcDbEllipse
 10
422.7282395468
 20
292.2157059413
 30
0.0
 11
-3.204747427460360E-31
 21
-13.0
 31
0.0
210
0.0
220
0.0
230
1.0
 40
0.5
 41
0.2911399589155659
 42
2.600575513225178
  0
ELLIPSE
  5
162
330
108
100
AcDbEntity
  8
52198715
  6
Continuous
 62
     7
100
AcDbEllipse
 10
419.2641379317
 20
292.2157059413
 30
0.0
 11
-3.192421475816282E-31
 21
-12.95
 31
0.0
210
0.0
220
0.0
230
1.0
 40
0.5
 41
0.0
 42
3.141592653589793
  0
ELLIPSE
  5
163
330
108
100
AcDbEntity
  8
52198715
  6
Continuous
 62
     7
100
AcDbEllipse
 10
417.0990744222
 20
292.2157059413
 30
0.0
 11
-3.192421475816282E-31
 21
-12.95
 31
0.0
210
0.0
220
0.0
230
1.0
 40
0.5
 41
0.1930525722615064
 42
2.94854008132831
  0
CIRCLE
  5
164
330
108
100
AcDbEntity
  8
52198715
  6
Continuous
 62
     7
100
AcDbCircle
 10
364.0550184405
 20
292.2157059413
 30
0.0
 40
12.5
  0
LINE
  5
165
330
108
100
AcDbEntity
  8
52198715
  6
Continuous
 62
     7
100
AcDbLine
 10
400.2115790485
 20
307.2157059413
 30
0.0
 11
397.6568041073
 21
307.2157059413
 31
0.0
  0
LINE
  5
166
330
108
100
AcDbEntity
  8
52198715
  6
Continuous
 62
     7
100
AcDbLine
 10
397.6568041073
 20
277.2157059413
 30
0.0
 11
400.2115790485
 21
277.2157059413
 31
0.0
  0
LINE
  5
167
330
108
100
AcDbEntity
  8
52198715
  6
Continuous
 62
     7
100
AcDbLine
 10
395.1568041073
 20
306.357841565
 30
0.0
 11
394.9557939805
 21
306.2157059413
 31
0.0
  0
LINE
  5
168
330
108
100
AcDbEntity
  8
52198715
  6
Continuous
 62
     7
100
AcDbLine
 10
394.9557939805
 20
278.2157059413
 30
0.0
 11
395.1568041073
 21
278.0735703175
 31
0.0
  0
LINE
  5
169
330
108
100
AcDbEntity
  8
52198715
  6
Continuous
 62
     7
100
AcDbLine
 10
396.1568041073
 20
306.2157059413
 30
0.0
 11
389.2563576906
 21
306.2157059413
 31
0.0
  0
LINE
  5
16A
330
108
100
AcDbEntity
  8
52198715
  6
Continuous
 62
     7
100
AcDbLine
 10
389.2563576906
 20
278.2157059413
 30
0.0
 11
396.1568041073
 21
278.2157059413
 31
0.0
  0
LINE
  5
16B
330
108
100
AcDbEntity
  8
52198715
  6
Continuous
 62
     7
100
AcDbLine
 10
388.1313576906
 20
305.4657059413
 30
0.0
 11
368.3851454594
 21
305.4657059413
 31
0.0
  0
LINE
  5
16C
330
108
100
AcDbEntity
  8
52198715
  6
Continuous
 62
     7
100
AcDbLine
 10
368.3851454594
 20
278.9657059413
 30
0.0
 11
388.1313576906
 21
278.9657059413
 31
0.0
  0
LINE
  5
16D
330
108
100
AcDbEntity
  8
52198715
  6
Continuous
 62
     7
100
AcDbLine
 10
452.6061159774
 20
304.2157059413
 30
0.0
 11
431.0047745257
 21
304.2157059413
 31
0.0
  0
LINE
  5
16E
330
108
100
AcDbEntity
  8
52198715
  6
Continuous
 62
     7
100
AcDbLine
 10
430.6104550197
 20
280.2157059413
 30
0.0
 11
452.6061159774
 21
280.2157059413
 31
0.0
  0
LINE
  5
16F
330
108
100
AcDbEntity
  8
52198715
  6
Continuous
 62
     7
100
AcDbLine
 10
419.2641379317
 20
305.1657059413
 30
0.0
 11
418.134866673
 21
305.1657059413
 31
0.0
  0
LINE
  5
170
330
108
100
AcDbEntity
  8
52198715
  6
Continuous
 62
     7
100
AcDbLine
 10
418.134866673
 20
279.2657059413
 30
0.0
 11
419.2641379317
 21
279.2657059413
 31
0.0
  0
LINE
  5
171
330
108
100
AcDbEntity
  8
52198715
  6
Continuous
 62
     7
100
AcDbLine
 10
414.5009982109
 20
307.0657059413
 30
0.0
 11
401.2695842469
 21
307.0657059413
 31
0.0
  0
LINE
  5
172
330
108
100
AcDbEntity
  8
52198715
  6
Continuous
 62
     7
100
AcDbLine
 10
401.2695842469
 20
277.3657059413
 30
0.0
 11
414.5009982109
 21
277.3657059413
 31
0.0
  0
LINE
  5
173
330
108
100
AcDbEntity
  8
52198715
  6
Continuous
 62
     7
100
AcDbLine
 10
419.0498793115
 20
280.4613339472
 30
0.0
 11
419.942524498
 21
281.7237248763
 31
0.0
  0
LINE
  5
174
330
108
100
AcDbEntity
  8
52198715
  6
Continuous
 62
     7
100
AcDbLine
 10
419.942524498
 20
302.7076870062
 30
0.0
 11
418.7878239596
 21
304.340680168
 31
0.0
  0
ENDBLK
  5
176
330
108
100
AcDbEntity
  8
0
100
AcDbBlockEnd
  0
BLOCK
  5
21F
330
177
100
AcDbEntity
  8
0
100
AcDbBlockBegin
  2
SE2
 70
     0
 10
0.0
 20
0.0
 30
0.0
  3
SE2
  1

  0
LINE
  5
179
330
177
100
AcDbEntity
  8
52198715
  6
Continuous
 62
     7
100
AcDbLine
 10
165.5111015691
 20
151.0268509265
 30
0.0
 11
165.5111015691
 21
176.5268509265
 31
0.0
  0
LINE
  5
17A
330
177
100
AcDbEntity
  8
52198715
  6
Continuous
 62
     7
100
AcDbLine
 10
170.0111015691
 20
151.0268509265
 30
0.0
 11
170.0111015691
 21
176.5268509265
 31
0.0
  0
LINE
  5
17B
330
177
100
AcDbEntity
  8
52198715
  6
Continuous
 62
     7
100
AcDbLine
 10
176.1929257629
 20
153.8916512726
 30
0.0
 11
176.1929257629
 21
163.1426747156
 31
0.0
  0
LINE
  5
17C
330
177
100
AcDbEntity
  8
52198715
  6
Continuous
 62
     7
100
AcDbLine
 10
206.8292773754
 20
153.2768509265
 30
0.0
 11
206.8292773754
 21
174.2768509265
 31
0.0
  0
LINE
  5
17D
330
177
100
AcDbEntity
  8
52198715
  6
Continuous
 62
     7
100
AcDbLine
 10
213.0111015691
 20
151.0268509265
 30
0.0
 11
213.0111015691
 21
176.5268509265
 31
0.0
  0
LINE
  5
17E
330
177
100
AcDbEntity
  8
52198715
  6
Continuous
 62
     7
100
AcDbLine
 10
217.5111015691
 20
151.0268509265
 30
0.0
 11
217.5111015691
 21
176.5268509265
 31
0.0
  0
LINE
  5
17F
330
177
100
AcDbEntity
  8
52198715
  6
Continuous
 62
     7
100
AcDbLine
 10
156.9289351103
 20
163.7768509265
 30
0.0
 11
156.5111015691
 21
166.0953115147
 31
0.0
  0
LINE
  5
180
330
177
100
AcDbEntity
  8
52198715
  6
Continuous
 62
     7
100
AcDbLine
 10
156.9289351103
 20
150.4868509265
 30
0.0
 11
156.5111015691
 21
152.8053115147
 31
0.0
  0
LINE
  5
181
330
177
100
AcDbEntity
  8
52198715
  6
Continuous
 62
     7
100
AcDbLine
 10
156.9289351103
 20
177.0668509265
 30
0.0
 11
156.5111015691
 21
177.0668509265
 31
0.0
  0
LINE
  5
182
330
177
100
AcDbEntity
  8
52198715
  6
Continuous
 62
     7
100
AcDbLine
 10
218.4559574346
 20
177.0668509265
 30
0.0
 11
217.7076468932
 21
177.0668509265
 31
0.0
  0
LINE
  5
183
330
177
100
AcDbEntity
  8
52198715
  6
Continuous
 62
     7
100
AcDbLine
 10
165.3145562451
 20
177.0668509265
 30
0.0
 11
164.5662457037
 21
177.0668509265
 31
0.0
  0
LINE
  5
184
330
177
100
AcDbEntity
  8
52198715
  6
Continuous
 62
     7
100
AcDbLine
 10
218.4559574346
 20
150.4868509265
 30
0.0
 11
226.093268028
 21
150.4868509265
 31
0.0
  0
LINE
  5
185
330
177
100
AcDbEntity
  8
52198715
  6
Continuous
 62
     7
100
AcDbLine
 10
226.093268028
 20
150.4868509265
 30
0.0
 11
226.5111015691
 21
150.4868509265
 31
0.0
  0
LINE
  5
186
330
177
100
AcDbEntity
  8
52198715
  6
Continuous
 62
     7
100
AcDbLine
 10
218.4559574346
 20
150.4868509265
 30
0.0
 11
217.7076468932
 21
150.4868509265
 31
0.0
  0
LINE
  5
187
330
177
100
AcDbEntity
  8
52198715
  6
Continuous
 62
     7
100
AcDbLine
 10
165.3145562451
 20
150.4868509265
 30
0.0
 11
164.5662457037
 21
150.4868509265
 31
0.0
  0
LINE
  5
188
330
177
100
AcDbEntity
  8
52198715
  6
Continuous
 62
     7
100
AcDbLine
 10
218.4559574346
 20
163.7768509265
 30
0.0
 11
226.093268028
 21
163.7768509265
 31
0.0
  0
LINE
  5
189
330
177
100
AcDbEntity
  8
52198715
  6
Continuous
 62
     7
100
AcDbLine
 10
226.093268028
 20
163.7768509265
 30
0.0
 11
226.5111015691
 21
161.4583903383
 31
0.0
  0
ARC
  5
18A
330
177
100
AcDbEntity
  8
52198715
  6
Continuous
 62
     7
100
AcDbCircle
 10
247.8572547683
 20
157.1318509265
 30
0.0
 40
30.14286499157475
100
AcDbArc
 50
167.2645244266
 51
192.7354755734
  0
ARC
  5
18B
330
177
100
AcDbEntity
  8
52198715
  6
Continuous
 62
     7
100
AcDbCircle
 10
135.16494837
 20
157.1318509265
 30
0.0
 40
30.1428649915741
100
AcDbArc
 50
347.2645244266
 51
12.7354755734
  0
LINE
  5
18C
330
177
100
AcDbEntity
  8
52198715
  6
Continuous
 62
     7
100
AcDbLine
 10
218.4559574346
 20
177.0668509265
 30
0.0
 11
226.093268028
 21
177.0668509265
 31
0.0
  0
LINE
  5
18D
330
177
100
AcDbEntity
  8
52198715
  6
Continuous
 62
     7
100
AcDbLine
 10
226.093268028
 20
177.0668509265
 30
0.0
 11
226.5111015691
 21
174.7483903383
 31
0.0
  0
ARC
  5
18E
330
177
100
AcDbEntity
  8
52198715
  6
Continuous
 62
     7
100
AcDbCircle
 10
247.8572547683
 20
170.4218509265
 30
0.0
 40
30.142864991574
100
AcDbArc
 50
167.2645244266
 51
192.7354755734
  0
ARC
  5
18F
330
177
100
AcDbEntity
  8
52198715
  6
Continuous
 62
     7
100
AcDbCircle
 10
135.16494837
 20
170.4218509265
 30
0.0
 40
30.14286499157406
100
AcDbArc
 50
347.2645244266
 51
12.7354755734
  0
LINE
  5
190
330
177
100
AcDbEntity
  8
52198715
  6
Continuous
 62
     7
100
AcDbLine
 10
156.9289351103
 20
150.4868509265
 30
0.0
 11
164.5662457037
 21
150.4868509265
 31
0.0
  0
LINE
  5
191
330
177
100
AcDbEntity
  8
52198715
  6
Continuous
 62
     7
100
AcDbLine
 10
156.9289351103
 20
163.7768509265
 30
0.0
 11
164.5662457037
 21
163.7768509265
 31
0.0
  0
LINE
  5
192
330
177
100
AcDbEntity
  8
52198715
  6
Continuous
 62
     7
100
AcDbLine
 10
156.9289351103
 20
177.0668509265
 30
0.0
 11
164.5662457037
 21
177.0668509265
 31
0.0
  0
SPLINE
  5
193
330
177
100
AcDbEntity
  8
52198715
  6
Continuous
 62
     7
100
AcDbSpline
210
0.0
220
0.0
230
1.0
 70
     8
 71
     3
 72
    14
 73
    10
 74
     0
 42
0.000000001
 43
0.0000000001
 40
0.5006554792627252
 40
0.5006554792627252
 40
0.5006554792627252
 40
0.5006554792627252
 40
0.625
 40
0.625
 40
0.75
 40
0.75
 40
0.875
 40
0.875
 40
1.0
 40
1.0
 40
1.0
 40
1.0
 10
175.6004326870538
 20
153.0612010856694
 30
0.0
 10
175.6004299169769
 20
153.0611972155888
 30
0.0
 10
175.6131788166849
 20
153.0790956919042
 30
0.0
 10
175.6648823925337
 20
153.151662515837
 30
0.0
 10
175.7034005057006
 20
153.2057177574663
 30
0.0
 10
175.803989032936
 20
153.3468131473429
 30
0.0
 10
175.86606707672
 20
153.4338642153617
 30
0.0
 10
176.0131668067824
 20
153.6399985746369
 30
0.0
 10
176.0982206387324
 20
153.759125986807
 30
0.0
 10
176.1929257629193
 20
153.89165127258
 30
0.0
  0
ARC
  5
194
330
177
100
AcDbEntity
  8
52198715
  6
Continuous
 62
     7
100
AcDbCircle
 10
226.4118929518
 20
189.1159030561
 30
0.0
 40
41.30715735503691
100
AcDbArc
 50
218.3433484668
 51
240.183612497
  0
LINE
  5
195
330
177
100
AcDbEntity
  8
52198715
  6
Continuous
 62
     7
100
AcDbLine
 10
194.0143904735
 20
163.4900746417
 30
0.0
 11
175.536264969
 21
152.8217239075
 31
0.0
  0
LINE
  5
196
330
177
100
AcDbEntity
  8
52198715
  6
Continuous
 62
     7
100
AcDbLine
 10
216.9014826259
 20
137.6750652596
 30
0.0
 11
190.9207205124
 21
122.6750652596
 31
0.0
  0
LINE
  5
197
330
177
100
AcDbEntity
  8
52198715
  6
Continuous
 62
     7
100
AcDbLine
 10
215.1694318183
 20
138.6750652596
 30
0.0
 11
190.9207205124
 21
124.6750652596
 31
0.0
  0
LINE
  5
198
330
177
100
AcDbEntity
  8
52198715
  6
Continuous
 62
     7
100
AcDbLine
 10
211.1854572221
 20
145.5755116763
 30
0.0
 11
186.9367459162
 21
131.5755116763
 31
0.0
  0
LINE
  5
199
330
177
100
AcDbEntity
  8
52198715
  6
Continuous
 62
     7
100
AcDbLine
 10
209.8864191164
 20
146.3255116763
 30
0.0
 11
186.9367459162
 21
133.0755116763
 31
0.0
  0
SPLINE
  5
19A
330
177
100
AcDbEntity
  8
52198715
  6
Continuous
 62
     7
100
AcDbSpline
210
0.0
220
0.0
230
1.0
 70
     8
 71
     3
 72
    18
 73
    14
 74
     0
 42
0.000000001
 43
0.0000000001
 40
0.0
 40
0.0
 40
0.0
 40
0.0
 40
0.125
 40
0.125
 40
0.2499999999999999
 40
0.2499999999999999
 40
0.3749999999999999
 40
0.3749999999999999
 40
0.5
 40
0.5
 40
0.75
 40
0.75
 40
1.0
 40
1.0
 40
1.0
 40
1.0
 10
176.1929257629193
 20
153.89165127258
 30
0.0
 10
176.4751209683779
 20
154.2135169544622
 30
0.0
 10
176.8473902596097
 20
154.6344638807072
 30
0.0
 10
177.7482119921377
 20
155.62304081852
 30
0.0
 10
178.2774513324949
 20
156.1910218896408
 30
0.0
 10
179.4307780465768
 20
157.3689751565203
 30
0.0
 10
180.0692035999918
 20
157.9940354364087
 30
0.0
 10
181.4368440813292
 20
159.2251600772842
 30
0.0
 10
182.1634336115349
 20
159.8300250178451
 30
0.0
 10
184.5171441968941
 20
161.527637194608
 30
0.0
 10
186.2793435932194
 20
162.4311157688789
 30
0.0
 10
190.097236119333
 20
163.4253368909878
 30
0.0
 10
192.0474000030459
 20
163.5371541977121
 30
0.0
 10
194.0143904735177
 20
163.490074641699
 30
0.0
  0
LINE
  5
19B
330
177
100
AcDbEntity
  8
52198715
  6
Continuous
 62
     7
100
AcDbLine
 10
176.1929257629
 20
174.2768508029
 30
0.0
 11
176.1929257629
 21
164.4147759439
 31
0.0
  0
SPLINE
  5
19C
330
177
100
AcDbEntity
  8
52198715
  6
Continuous
 62
     7
100
AcDbSpline
210
0.0
220
0.0
230
1.0
 70
     8
 71
     3
 72
    16
 73
    12
 74
     0
 42
0.000000001
 43
0.0000000001
 40
0.0
 40
0.0
 40
0.0
 40
0.0
 40
0.2500000000000014
 40
0.2500000000000014
 40
0.5000000000000029
 40
0.5000000000000029
 40
0.6250000000000032
 40
0.6250000000000032
 40
0.7500000000000037
 40
0.7500000000000037
 40
1.0
 40
1.0
 40
1.0
 40
1.0
 10
176.0111015691464
 20
164.0227275300076
 30
0.0
 10
176.0111015691464
 20
164.1228778745543
 30
0.0
 10
176.0365258170193
 20
164.222112567883
 30
0.0
 10
176.1455537974767
 20
164.3844374822869
 30
0.0
 10
176.2242089350412
 20
164.4504954711259
 30
0.0
 10
176.3590613574865
 20
164.5054952457531
 30
0.0
 10
176.4079903029732
 20
164.5168617418754
 30
0.0
 10
176.5053102375037
 20
164.5257414403467
 30
0.0
 10
176.5542863352943
 20
164.523643840331
 30
0.0
 10
176.70125998464
 20
164.523643840331
 30
0.0
 10
176.7996899953642
 20
164.5236438403314
 30
0.0
 10
176.8982336857532
 20
164.5236438403324
 30
0.0
  0
SPLINE
  5
19D
330
177
100
AcDbEntity
  8
52198715
  6
Continuous
 62
     7
100
AcDbSpline
210
0.0
220
0.0
230
1.0
 70
     8
 71
     3
 72
    16
 73
    12
 74
     0
 42
0.000000001
 43
0.0000000001
 40
0.0
 40
0.0
 40
0.0
 40
0.0
 40
0.5000000000000003
 40
0.7500000000000004
 40
0.8750000000000006
 40
0.8750000000000006
 40
0.9062500000000002
 40
0.9062500000000002
 40
0.9375
 40
0.9375
 40
1.0
 40
1.0
 40
1.0
 40
1.0
 10
176.8982336857532
 20
164.5236438403324
 30
0.0
 10
177.5590032019977
 20
164.5236438403314
 30
0.0
 10
178.5501574763644
 20
164.5236438403358
 30
0.0
 10
179.7065041297922
 20
164.5236438403314
 30
0.0
 10
180.2020812669756
 20
164.5236438403305
 30
0.0
 10
180.408571740802
 20
164.5236438403305
 30
0.0
 10
180.4498825304028
 20
164.5216453857998
 30
0.0
 10
180.5324388820056
 20
164.5279167901665
 30
0.0
 10
180.5724643452879
 20
164.5374228733047
 30
0.0
 10
180.68746805661
 20
164.5793643592994
 30
0.0
 10
180.7576062695188
 20
164.6247498256826
 30
0.0
 10
180.8217307689021
 20
164.6763622276252
 30
0.0
  0
SPLINE
  5
19E
330
177
100
AcDbEntity
  8
52198715
  6
Continuous
 62
     7
100
AcDbSpline
210
0.0
220
0.0
230
1.0
 70
     8
 71
     3
 72
    55
 73
    51
 74
     0
 42
0.000000001
 43
0.0000000001
 40
0.0
 40
0.0
 40
0.0
 40
0.0
 40
0.0312500000000002
 40
0.0312500000000002
 40
0.0625000000000005
 40
0.0625000000000005
 40
0.0937500000000007
 40
0.0937500000000007
 40
0.1250000000000009
 40
0.1250000000000009
 40
0.1562500000000011
 40
0.1562500000000011
 40
0.1718750000000011
 40
0.1718750000000011
 40
0.1875000000000012
 40
0.1875000000000012
 40
0.2500000000000012
 40
0.2500000000000012
 40
0.3125000000000012
 40
0.3125000000000012
 40
0.3437500000000012
 40
0.3437500000000012
 40
0.3750000000000012
 40
0.3750000000000012
 40
0.4062500000000012
 40
0.4062500000000012
 40
0.4375000000000012
 40
0.4375000000000012
 40
0.5000000000000011
 40
0.5000000000000011
 40
0.562500000000001
 40
0.562500000000001
 40
0.593750000000001
 40
0.593750000000001
 40
0.625000000000001
 40
0.625000000000001
 40
0.656250000000001
 40
0.656250000000001
 40
0.687500000000001
 40
0.687500000000001
 40
0.7187500000000009
 40
0.7187500000000009
 40
0.7500000000000008
 40
0.7500000000000008
 40
0.7812500000000008
 40
0.7812500000000008
 40
0.8125000000000007
 40
0.8125000000000007
 40
0.8750000000000006
 40
1.0
 40
1.0
 40
1.0
 40
1.0
 10
180.8217307689021
 20
164.6763622276252
 30
0.0
 10
180.930004485671
 20
164.806290687748
 30
0.0
 10
180.987678620113
 20
164.9805858012758
 30
0.0
 10
180.91170271778
 20
165.3059203685153
 30
0.0
 10
180.7455576267117
 20
165.4040722982574
 30
0.0
 10
180.5956330803424
 20
165.7141861399717
 30
0.0
 10
180.610402069089
 20
165.9078693556796
 30
0.0
 10
180.7985893688584
 20
166.1958616187812
 30
0.0
 10
180.9726373344081
 20
166.2768509264664
 30
0.0
 10
181.3198626763839
 20
166.2768509264664
 30
0.0
 10
181.493475347372
 20
166.2768509264664
 30
0.0
 10
181.7538943538538
 20
166.2768509264664
 30
0.0
 10
181.8411083112218
 20
166.2843930626881
 30
0.0
 10
182.0129825327053
 20
166.2522302978236
 30
0.0
 10
182.093918342706
 20
166.2102194724328
 30
0.0
 10
182.4128606187261
 20
165.9219759630458
 30
0.0
 10
182.6395449045783
 20
165.6617917902374
 30
0.0
 10
183.127083950847
 20
165.173291751988
 30
0.0
 10
183.3724744839309
 20
164.9297563905436
 30
0.0
 10
183.7409048020196
 20
164.5634967798241
 30
0.0
 10
183.8637722735979
 20
164.4412499602929
 30
0.0
 10
184.1092733342422
 20
164.1960873022815
 30
0.0
 10
184.2562546505036
 20
164.0802392416445
 30
0.0
 10
184.3466111647902
 20
163.7480908799612
 30
0.0
 10
184.3024830991439
 20
163.5586208235361
 30
0.0
 10
184.0654047670546
 20
163.3072405661595
 30
0.0
 10
183.9399593853716
 20
163.1884219056747
 30
0.0
 10
183.5743315880534
 20
162.8217560042038
 30
0.0
 10
183.331308455837
 20
162.5774381117051
 30
0.0
 10
182.8464549115673
 20
162.08970331997
 30
0.0
 10
182.6045038195973
 20
161.8461653333637
 30
0.0
 10
182.2426548637101
 20
161.482388093034
 30
0.0
 10
182.1291848787551
 20
161.3382628193381
 30
0.0
 10
181.8005400926225
 20
161.2495239226349
 30
0.0
 10
181.6225008625936
 20
161.2768509264628
 30
0.0
 10
181.2785088486107
 20
161.2768509264628
 30
0.0
 10
181.0964355015814
 20
161.2482949410512
 30
0.0
 10
180.7855317837055
 20
161.3865384946852
 30
0.0
 10
180.6585786822117
 20
161.5275891934212
 30
0.0
 10
180.6024879705459
 20
161.8578066220517
 30
0.0
 10
180.6619299937587
 20
162.0343684830201
 30
0.0
 10
180.9190613454857
 20
162.2695468692652
 30
0.0
 10
180.9904057614276
 20
162.4530923351539
 30
0.0
 10
180.9106527156208
 20
162.7985539426623
 30
0.0
 10
180.7820680556771
 20
162.9580068255703
 30
0.0
 10
180.4362436246908
 20
163.0611493925468
 30
0.0
 10
180.2563852326766
 20
163.0300580125987
 30
0.0
 10
179.7261507778992
 20
163.0300580125987
 30
0.0
 10
178.6656818683446
 20
163.0300580125992
 30
0.0
 10
177.6052129587898
 20
163.0300580125977
 30
0.0
 10
176.8982336857532
 20
163.0300580125968
 30
0.0
  0
SPLINE
  5
19F
330
177
100
AcDbEntity
  8
52198715
  6
Continuous
 62
     7
100
AcDbSpline
210
0.0
220
0.0
230
1.0
 70
     8
 71
     3
 72
    22
 73
    18
 74
     0
 42
0.000000001
 43
0.0000000001
 40
0.0
 40
0.0
 40
0.0
 40
0.0
 40
0.1250000000000009
 40
0.1250000000000009
 40
0.1875000000000007
 40
0.1875000000000007
 40
0.2500000000000005
 40
0.2500000000000005
 40
0.3750000000000004
 40
0.3750000000000004
 40
0.5000000000000003
 40
0.5000000000000003
 40
0.6250000000000002
 40
0.6250000000000002
 40
0.7500000000000001
 40
0.7500000000000001
 40
1.0
 40
1.0
 40
1.0
 40
1.0
 10
176.8982336857532
 20
163.0300580125968
 30
0.0
 10
176.8279634093613
 20
163.0300580125977
 30
0.0
 10
176.7578014477539
 20
163.0300580125977
 30
0.0
 10
176.6527203583608
 20
163.0300580125977
 30
0.0
 10
176.6177203223933
 20
163.030058012604
 30
0.0
 10
176.5477743548939
 20
163.030058012604
 30
0.0
 10
176.5127059383952
 20
163.0290347914872
 30
0.0
 10
176.4087465700641
 20
163.0345245416018
 30
0.0
 10
176.339644048247
 20
163.0517835765219
 30
0.0
 10
176.2187505975412
 20
163.1152242924032
 30
0.0
 10
176.1662822134293
 20
163.1626538538832
 30
0.0
 10
176.0803419483321
 20
163.2698271621271
 30
0.0
 10
176.0461223619927
 20
163.3317100513476
 30
0.0
 10
176.0094404433689
 20
163.4667397742951
 30
0.0
 10
176.0111015691294
 20
163.5372083794308
 30
0.0
 10
176.0111015691294
 20
163.7452419645518
 30
0.0
 10
176.0111015691464
 20
163.8840028876974
 30
0.0
 10
176.0111015691464
 20
164.0227275300076
 30
0.0
  0
LINE
  5
1A0
330
177
100
AcDbEntity
  8
52198715
  6
Continuous
 62
     7
100
AcDbLine
 10
156.5111015691
 20
174.7483903383
 30
0.0
 11
156.9289351103
 21
177.0668509265
 31
0.0
  0
LINE
  5
1A1
330
177
100
AcDbEntity
  8
52198715
  6
Continuous
 62
     7
100
AcDbLine
 10
156.5111015691
 20
150.4868509265
 30
0.0
 11
156.9289351103
 21
150.4868509265
 31
0.0
  0
LINE
  5
1A2
330
177
100
AcDbEntity
  8
52198715
  6
Continuous
 62
     7
100
AcDbLine
 10
156.5111015691
 20
161.4583903383
 30
0.0
 11
156.9289351103
 21
163.7768509265
 31
0.0
  0
LINE
  5
1A3
330
177
100
AcDbEntity
  8
52198715
  6
Continuous
 62
     7
100
AcDbLine
 10
156.5111015691
 20
152.8053115147
 30
0.0
 11
156.5111015691
 21
150.4868509265
 31
0.0
  0
LINE
  5
1A4
330
177
100
AcDbEntity
  8
52198715
  6
Continuous
 62
     7
100
AcDbLine
 10
156.5111015691
 20
166.0953115147
 30
0.0
 11
156.5111015691
 21
161.4583903383
 31
0.0
  0
LINE
  5
1A5
330
177
100
AcDbEntity
  8
52198715
  6
Continuous
 62
     7
100
AcDbLine
 10
156.5111015691
 20
177.0668509265
 30
0.0
 11
156.5111015691
 21
174.7483903383
 31
0.0
  0
LINE
  5
1A6
330
177
100
AcDbEntity
  8
52198715
  6
Continuous
 62
     7
100
AcDbLine
 10
226.5111015691
 20
177.0668509265
 30
0.0
 11
226.093268028
 21
177.0668509265
 31
0.0
  0
LINE
  5
1A7
330
177
100
AcDbEntity
  8
52198715
  6
Continuous
 62
     7
100
AcDbLine
 10
226.5111015691
 20
166.0953115147
 30
0.0
 11
226.093268028
 21
163.7768509265
 31
0.0
  0
LINE
  5
1A8
330
177
100
AcDbEntity
  8
52198715
  6
Continuous
 62
     7
100
AcDbLine
 10
226.5111015691
 20
152.8053115147
 30
0.0
 11
226.093268028
 21
150.4868509265
 31
0.0
  0
LINE
  5
1A9
330
177
100
AcDbEntity
  8
52198715
  6
Continuous
 62
     7
100
AcDbLine
 10
226.5111015691
 20
174.7483903383
 30
0.0
 11
226.5111015691
 21
177.0668509265
 31
0.0
  0
LINE
  5
1AA
330
177
100
AcDbEntity
  8
52198715
  6
Continuous
 62
     7
100
AcDbLine
 10
226.5111015691
 20
161.4583903383
 30
0.0
 11
226.5111015691
 21
166.0953115147
 31
0.0
  0
LINE
  5
1AB
330
177
100
AcDbEntity
  8
52198715
  6
Continuous
 62
     7
100
AcDbLine
 10
226.5111015691
 20
150.4868509265
 30
0.0
 11
226.5111015691
 21
152.8053115147
 31
0.0
  0
LINE
  5
1AC
330
177
100
AcDbEntity
  8
52198715
  6
Continuous
 62
     7
100
AcDbLine
 10
226.5111015691
 20
152.8053115147
 30
0.0
 11
226.5111015691
 21
161.4583903383
 31
0.0
  0
LINE
  5
1AD
330
177
100
AcDbEntity
  8
52198715
  6
Continuous
 62
     7
100
AcDbLine
 10
226.5111015691
 20
166.0953115147
 30
0.0
 11
226.5111015691
 21
174.7483903383
 31
0.0
  0
LINE
  5
1AE
330
177
100
AcDbEntity
  8
52198715
  6
Continuous
 62
     7
100
AcDbLine
 10
156.5111015691
 20
174.7483903383
 30
0.0
 11
156.5111015691
 21
166.0953115147
 31
0.0
  0
LINE
  5
1AF
330
177
100
AcDbEntity
  8
52198715
  6
Continuous
 62
     7
100
AcDbLine
 10
156.5111015691
 20
161.4583903383
 30
0.0
 11
156.5111015691
 21
152.8053115147
 31
0.0
  0
LINE
  5
1B0
330
177
100
AcDbEntity
  8
52198715
  6
Continuous
 62
     7
100
AcDbLine
 10
218.3764826259
 20
135.1202903185
 30
0.0
 11
192.3957205124
 21
120.1202903185
 31
0.0
  0
ELLIPSE
  5
1B1
330
177
100
AcDbEntity
  8
52198715
  6
Continuous
 62
     7
100
AcDbEllipse
 10
211.3677232252
 20
117.2598176985
 30
0.0
 11
-11.08168453838971
 21
-10.49344893448664
 31
0.0
210
0.0
220
0.0
230
1.0
 40
0.1215129535
 41
3.097216085744395
 42
4.126900742004984
  0
SPLINE
  5
1B2
330
177
100
AcDbEntity
  8
52198715
  6
Continuous
 62
     7
100
AcDbSpline
210
0.0
220
0.0
230
1.0
 70
     8
 71
     3
 72
    12
 73
     8
 74
     0
 42
0.000000001
 43
0.0000000001
 40
0.0
 40
0.0
 40
0.0
 40
0.0
 40
0.2500000000000001
 40
0.2500000000000001
 40
0.5000000000000001
 40
0.5000000000000001
 40
1.0
 40
1.0
 40
1.0
 40
1.0
 10
220.4288186320992
 20
117.2526481808458
 30
0.0
 10
221.1719444427854
 20
117.0424851608752
 30
0.0
 10
221.8958389847357
 20
116.9052340570511
 30
0.0
 10
223.2690694503467
 20
116.8954537349033
 30
0.0
 10
223.888222676378
 20
117.0279284685475
 30
0.0
 10
225.4883240706249
 20
117.9493808633607
 30
0.0
 10
226.1129845014082
 20
119.2459861779396
 30
0.0
 10
226.49506363237
 20
120.7549963647224
 30
0.0
  0
ELLIPSE
  5
1B3
330
177
100
AcDbEntity
  8
52198715
  6
Continuous
 62
     7
100
AcDbEllipse
 10
211.3677232252
 20
117.2598176985
 30
0.0
 11
14.62843561977489
 21
4.350295859727384
 31
0.0
210
0.0
220
0.0
230
1.0
 40
0.1215129535
 41
3.170618695485473
 42
3.185969221435196
  0
SPLINE
  5
1B4
330
177
100
AcDbEntity
  8
52198715
  6
Continuous
 62
     7
100
AcDbSpline
210
0.0
220
0.0
230
1.0
 70
     8
 71
     3
 72
     8
 73
     4
 74
     0
 42
0.000000001
 43
0.0000000001
 40
0.9811211127277463
 40
0.9811211127277463
 40
0.9811211127277463
 40
0.9811211127277463
 40
1.0
 40
1.0
 40
1.0
 40
1.0
 10
200.9451553901237
 20
105.8604071826627
 30
0.0
 10
200.8892649449976
 20
105.8754205829756
 30
0.0
 10
200.8332570595589
 20
105.8908753714684
 30
0.0
 10
200.7771395059228
 20
105.9067459473197
 30
0.0
  0
LINE
  5
1B5
330
177
100
AcDbEntity
  8
52198715
  6
Continuous
 62
     7
100
AcDbLine
 10
200.7771395059
 20
105.9067459473
 30
0.0
 11
220.4288186321
 21
117.2526481808
 31
0.0
  0
LINE
  5
1B6
330
177
100
AcDbEntity
  8
52198715
  6
Continuous
 62
     7
100
AcDbLine
 10
225.7645280078
 20
118.0238203485
 30
0.0
 11
203.5076751305
 21
105.1738203485
 31
0.0
  0
LINE
  5
1B7
330
177
100
AcDbEntity
  8
52198715
  6
Continuous
 62
     7
100
AcDbLine
 10
218.7465788153
 20
134.1792649147
 30
0.0
 11
193.0256243229
 21
119.3292649147
 31
0.0
  0
LINE
  5
1B8
330
177
100
AcDbEntity
  8
52198715
  6
Continuous
 62
     7
100
AcDbLine
 10
200.7771395059
 20
105.9067459473
 30
0.0
 11
196.7771395059
 21
112.8349491776
 31
0.0
  0
LINE
  5
1B9
330
177
100
AcDbEntity
  8
52198715
  6
Continuous
 62
     7
100
AcDbLine
 10
226.4950636324
 20
120.7549963647
 30
0.0
 11
222.4950636324
 21
127.683199595
 31
0.0
  0
LINE
  5
1BA
330
177
100
AcDbEntity
  8
52198715
  6
Continuous
 62
     7
100
AcDbLine
 10
216.4288186321
 20
124.1808514111
 30
0.0
 11
220.4288186321
 21
117.2526481808
 31
0.0
  0
LINE
  5
1BB
330
177
100
AcDbEntity
  8
52198715
  6
Continuous
 62
     7
100
AcDbLine
 10
216.4288186321
 20
124.1808514111
 30
0.0
 11
222.4950636324
 21
127.683199595
 31
0.0
  0
LINE
  5
1BC
330
177
100
AcDbEntity
  8
52198715
  6
Continuous
 62
     7
100
AcDbLine
 10
229.6428375179
 20
116.2215115038
 30
0.0
 11
230.6428375179
 21
114.4894606962
 31
0.0
  0
LINE
  5
1BD
330
177
100
AcDbEntity
  8
52198715
  6
Continuous
 62
     7
100
AcDbLine
 10
230.6280016073
 20
114.4808951793
 30
0.0
 11
229.6280016073
 21
116.2129459868
 31
0.0
  0
LINE
  5
1BE
330
177
100
AcDbEntity
  8
52198715
  6
Continuous
 62
     7
100
AcDbLine
 10
221.1883153912
 20
111.3402908781
 30
0.0
 11
222.1883153912
 21
109.6082400705
 31
0.0
  0
LINE
  5
1BF
330
177
100
AcDbEntity
  8
52198715
  6
Continuous
 62
     7
100
AcDbLine
 10
222.1018777026
 20
109.5583352477
 30
0.0
 11
221.1018777026
 21
111.2903860553
 31
0.0
  0
LINE
  5
1C0
330
177
100
AcDbEntity
  8
52198715
  6
Continuous
 62
     7
100
AcDbLine
 10
207.9315794424
 20
103.6865108095
 30
0.0
 11
208.9315794424
 21
101.9544600019
 31
0.0
  0
LINE
  5
1C1
330
177
100
AcDbEntity
  8
52198715
  6
Continuous
 62
     7
100
AcDbLine
 10
208.8599776644
 20
101.9131206961
 30
0.0
 11
207.8599776644
 21
103.6451715037
 31
0.0
  0
LINE
  5
1C2
330
177
100
AcDbEntity
  8
52198715
  6
Continuous
 62
     7
100
AcDbLine
 10
203.1293656204
 20
100.9139513666
 30
0.0
 11
204.1293656204
 21
99.181900559
 31
0.0
  0
SPLINE
  5
1C3
330
177
100
AcDbEntity
  8
52198715
  6
Continuous
 62
     7
100
AcDbSpline
210
0.0
220
0.0
230
1.0
 70
     8
 71
     3
 72
    16
 73
    12
 74
     0
 42
0.000000001
 43
0.0000000001
 40
0.0
 40
0.0
 40
0.0
 40
0.0
 40
0.2500000000000004
 40
0.2500000000000004
 40
0.5000000000000009
 40
0.5000000000000009
 40
0.6250000000000009
 40
0.6250000000000009
 40
0.7500000000000009
 40
0.7500000000000009
 40
1.0
 40
1.0
 40
1.0
 40
1.0
 10
207.3496756837519
 20
93.97020980063618
 30
0.0
 10
207.8708030784007
 20
93.90153677026083
 30
0.0
 10
208.3646366382486
 20
93.88534360879615
 30
0.0
 10
209.2773118848343
 20
93.99714969044739
 30
0.0
 10
209.6957152525577
 20
94.12599172185568
 30
0.0
 10
210.2564601159976
 20
94.44781178320913
 30
0.0
 10
210.432830968012
 20
94.5768903652177
 30
0.0
 10
210.7593504090563
 20
94.8733365013986
 30
0.0
 10
210.9099863235256
 20
95.04074848785758
 30
0.0
 10
211.3280903771017
 20
95.59436801903635
 30
0.0
 10
211.5618175034901
 20
96.03186386270566
 30
0.0
 10
211.7632792261611
 20
96.51840499394243
 30
0.0
  0
ARC
  5
1C4
330
177
100
AcDbEntity
  8
52198715
  6
Continuous
 62
     7
100
AcDbCircle
 10
206.6428492383
 20
121.1264074918
 30
0.0
 40
24.90324760337728
100
AcDbArc
 50
283.4485978487
 51
316.5514021513
  0
ARC
  5
1C5
330
177
100
AcDbEntity
  8
52198715
  6
Continuous
 62
     7
100
AcDbCircle
 10
224.7083287774
 20
114.9887590673
 30
0.0
 40
10.55272342100524
100
AcDbArc
 50
274.4815704163
 51
325.5184295837
  0
SPLINE
  5
1C6
330
177
100
AcDbEntity
  8
52198715
  6
Continuous
 62
     7
100
AcDbSpline
210
0.0
220
0.0
230
1.0
 70
     8
 71
     3
 72
     8
 73
     4
 74
     0
 42
0.000000001
 43
0.0000000001
 40
0.0
 40
0.0
 40
0.0
 40
0.0
 40
0.1472904593669181
 40
0.1472904593669181
 40
0.1472904593669181
 40
0.1472904593669181
 10
233.5461390796746
 20
109.0947449940883
 30
0.0
 10
233.4276638727133
 20
108.8086208586732
 30
0.0
 10
233.298149826556
 20
108.5398096428685
 30
0.0
 10
233.1551659515679
 20
108.2921240236574
 30
0.0
  0
LINE
  5
1C7
330
177
100
AcDbEntity
  8
52198715
  6
Continuous
 62
     7
100
AcDbLine
 10
211.7632792262
 20
96.5184049939
 30
0.0
 11
210.3509924664
 21
98.9645574166
 31
0.0
  0
LINE
  5
1C8
330
177
100
AcDbEntity
  8
52198715
  6
Continuous
 62
     7
100
AcDbLine
 10
205.937388924
 20
96.4163622233
 30
0.0
 11
207.3496756838
 21
93.9702098006
 31
0.0
  0
LINE
  5
1C9
330
177
100
AcDbEntity
  8
52198715
  6
Continuous
 62
     7
100
AcDbLine
 10
224.7223984891
 20
104.0003559889
 30
0.0
 11
223.3101117294
 21
106.4465084116
 31
0.0
  0
LINE
  5
1CA
330
177
100
AcDbEntity
  8
52198715
  6
Continuous
 62
     7
100
AcDbLine
 10
211.0223835212
 20
99.3521852229
 30
0.0
 11
212.434670281
 21
96.9060328002
 31
0.0
  0
LINE
  5
1CB
330
177
100
AcDbEntity
  8
52198715
  6
Continuous
 62
     7
100
AcDbLine
 10
233.4070266447
 20
109.0144283923
 30
0.0
 11
231.994739885
 21
111.460580815
 31
0.0
  0
LINE
  5
1CC
330
177
100
AcDbEntity
  8
52198715
  6
Continuous
 62
     7
100
AcDbLine
 10
224.1206152192
 20
106.9144528196
 30
0.0
 11
225.5329019789
 21
104.4683003969
 31
0.0
  0
LINE
  5
1CD
330
177
100
AcDbEntity
  8
52198715
  6
Continuous
 62
     7
100
AcDbLine
 10
232.1338523199
 20
111.5408974168
 30
0.0
 11
233.5461390797
 21
109.0947449941
 31
0.0
  0
SPLINE
  5
1CE
330
177
100
AcDbEntity
  8
52198715
  6
Continuous
 62
     7
100
AcDbSpline
210
0.0
220
0.0
230
1.0
 70
     8
 71
     3
 72
    16
 73
    12
 74
     0
 42
0.000000001
 43
0.0000000001
 40
0.0
 40
0.0
 40
0.0
 40
0.0
 40
0.2500000000000003
 40
0.2500000000000003
 40
0.5000000000000006
 40
0.5000000000000006
 40
0.6250000000000006
 40
0.6250000000000006
 40
0.7500000000000006
 40
0.7500000000000006
 40
1.0
 40
1.0
 40
1.0
 40
1.0
 10
210.3509924664326
 20
98.96455741664906
 30
0.0
 10
209.8298650717838
 20
99.03323044702437
 30
0.0
 10
209.3360315119359
 20
99.0494236084891
 30
0.0
 10
208.4233562653502
 20
98.93761752683788
 30
0.0
 10
208.0049528976269
 20
98.80877549542953
 30
0.0
 10
207.4442080341869
 20
98.48695543407607
 30
0.0
 10
207.2678371821725
 20
98.35787685206753
 30
0.0
 10
206.9413177411282
 20
98.06143071588662
 30
0.0
 10
206.790681826659
 20
97.89401872942764
 30
0.0
 10
206.3725777730829
 20
97.34039919824885
 30
0.0
 10
206.1388506466944
 20
96.90290335457955
 30
0.0
 10
205.9373889240234
 20
96.41636222334282
 30
0.0
  0
ARC
  5
1CF
330
177
100
AcDbEntity
  8
52198715
  6
Continuous
 62
     7
100
AcDbCircle
 10
229.1019327721
 20
82.2261337199
 30
0.0
 40
24.90324760337749
100
AcDbArc
 50
103.4485978487
 51
136.5514021513
  0
ARC
  5
1D0
330
177
100
AcDbEntity
  8
52198715
  6
Continuous
 62
     7
100
AcDbCircle
 10
232.8193216023
 20
100.9401073948
 30
0.0
 40
10.55273879112535
100
AcDbArc
 50
94.4816102536
 51
145.5183897464
  0
SPLINE
  5
1D1
330
177
100
AcDbEntity
  8
52198715
  6
Continuous
 62
     7
100
AcDbSpline
210
0.0
220
0.0
230
1.0
 70
     8
 71
     3
 72
     8
 73
     4
 74
     0
 42
0.000000001
 43
0.0000000001
 40
0.8532450818941978
 40
0.8532450818941978
 40
0.8532450818941978
 40
0.8532450818941978
 40
1.0
 40
1.0
 40
1.0
 40
1.0
 10
231.2437608374302
 20
111.6036285587264
 30
0.0
 10
231.529977816536
 20
111.6035917205443
 30
0.0
 10
231.8273764865622
 20
111.5812841330401
 30
0.0
 10
232.133852319946
 20
111.5408974167949
 30
0.0
  0
LINE
  5
1D2
330
177
100
AcDbEntity
  8
52198715
  6
Continuous
 62
     7
100
AcDbLine
 10
222.1883153912
 20
109.6082400705
 30
0.0
 11
230.6280016073
 21
114.4808951793
 31
0.0
  0
LINE
  5
1D3
330
177
100
AcDbEntity
  8
52198715
  6
Continuous
 62
     7
100
AcDbLine
 10
230.6428375179
 20
114.4894606962
 30
0.0
 11
230.6280016073
 21
114.4808951793
 31
0.0
  0
LINE
  5
1D4
330
177
100
AcDbEntity
  8
52198715
  6
Continuous
 62
     7
100
AcDbLine
 10
222.1883153912
 20
109.6082400705
 30
0.0
 11
222.1018777026
 21
109.5583352477
 31
0.0
  0
LINE
  5
1D5
330
177
100
AcDbEntity
  8
52198715
  6
Continuous
 62
     7
100
AcDbLine
 10
208.9315794424
 20
101.9544600019
 30
0.0
 11
222.1018777026
 21
109.5583352477
 31
0.0
  0
LINE
  5
1D6
330
177
100
AcDbEntity
  8
52198715
  6
Continuous
 62
     7
100
AcDbLine
 10
208.9315794424
 20
101.9544600019
 30
0.0
 11
208.8599776644
 21
101.9131206961
 31
0.0
  0
LINE
  5
1D7
330
177
100
AcDbEntity
  8
52198715
  6
Continuous
 62
     7
100
AcDbLine
 10
204.1293656204
 20
99.181900559
 30
0.0
 11
208.8599776644
 21
101.9131206961
 31
0.0
  0
LINE
  5
1D8
330
177
100
AcDbEntity
  8
52198715
  6
Continuous
 62
     7
100
AcDbLine
 10
229.6280016073
 20
116.2129459868
 30
0.0
 11
221.1883153912
 21
111.3402908781
 31
0.0
  0
LINE
  5
1D9
330
177
100
AcDbEntity
  8
52198715
  6
Continuous
 62
     7
100
AcDbLine
 10
229.6280016073
 20
116.2129459868
 30
0.0
 11
229.6428375179
 21
116.2215115038
 31
0.0
  0
LINE
  5
1DA
330
177
100
AcDbEntity
  8
52198715
  6
Continuous
 62
     7
100
AcDbLine
 10
221.1018777026
 20
111.2903860553
 30
0.0
 11
221.1883153912
 21
111.3402908781
 31
0.0
  0
LINE
  5
1DB
330
177
100
AcDbEntity
  8
52198715
  6
Continuous
 62
     7
100
AcDbLine
 10
221.1018777026
 20
111.2903860553
 30
0.0
 11
207.9315794424
 21
103.6865108095
 31
0.0
  0
LINE
  5
1DC
330
177
100
AcDbEntity
  8
52198715
  6
Continuous
 62
     7
100
AcDbLine
 10
207.8599776644
 20
103.6451715037
 30
0.0
 11
207.9315794424
 21
103.6865108095
 31
0.0
  0
LINE
  5
1DD
330
177
100
AcDbEntity
  8
52198715
  6
Continuous
 62
     7
100
AcDbLine
 10
207.8599776644
 20
103.6451715037
 30
0.0
 11
203.1293656204
 21
100.9139513666
 31
0.0
  0
LINE
  5
1DE
330
177
100
AcDbEntity
  8
52198715
  6
Continuous
 62
     7
100
AcDbLine
 10
246.0284064146
 20
81.2257533895
 30
0.0
 11
225.2437967237
 21
69.2257533895
 31
0.0
  0
LINE
  5
1DF
330
177
100
AcDbEntity
  8
52198715
  6
Continuous
 62
     7
100
AcDbLine
 10
231.7784064146
 20
105.9074773974
 30
0.0
 11
210.9937967237
 21
93.9074773974
 31
0.0
  0
LINE
  5
1E0
330
177
100
AcDbEntity
  8
52198715
  6
Continuous
 62
     7
100
AcDbLine
 10
233.5461390797
 20
109.0947449941
 30
0.0
 11
233.4070266447
 21
109.0144283923
 31
0.0
  0
LINE
  5
1E1
330
177
100
AcDbEntity
  8
52198715
  6
Continuous
 62
     7
100
AcDbLine
 10
225.5329019789
 20
104.4683003969
 30
0.0
 11
224.7223984891
 21
104.0003559889
 31
0.0
  0
LINE
  5
1E2
330
177
100
AcDbEntity
  8
52198715
  6
Continuous
 62
     7
100
AcDbLine
 10
212.434670281
 20
96.9060328002
 30
0.0
 11
211.7632792262
 21
96.5184049939
 31
0.0
  0
LINE
  5
1E3
330
177
100
AcDbEntity
  8
52198715
  6
Continuous
 62
     7
100
AcDbLine
 10
232.1338523199
 20
111.5408974168
 30
0.0
 11
231.994739885
 21
111.460580815
 31
0.0
  0
LINE
  5
1E4
330
177
100
AcDbEntity
  8
52198715
  6
Continuous
 62
     7
100
AcDbLine
 10
224.1206152192
 20
106.9144528196
 30
0.0
 11
223.3101117294
 21
106.4465084116
 31
0.0
  0
LINE
  5
1E5
330
177
100
AcDbEntity
  8
52198715
  6
Continuous
 62
     7
100
AcDbLine
 10
211.0223835212
 20
99.3521852229
 30
0.0
 11
210.3509924664
 21
98.9645574166
 31
0.0
  0
LINE
  5
1E6
330
177
100
AcDbEntity
  8
52198715
  6
Continuous
 62
     7
100
AcDbLine
 10
229.6444318183
 20
111.6036298201
 30
0.0
 11
207.1277713199
 21
98.6036298201
 31
0.0
  0
LINE
  5
1E7
330
177
100
AcDbEntity
  8
52198715
  6
Continuous
 62
     7
100
AcDbLine
 10
226.3511305482
 20
117.2077949447
 30
0.0
 11
203.9210725901
 21
104.2577949447
 31
0.0
  0
LINE
  5
1E8
330
177
100
AcDbEntity
  8
52198715
  6
Continuous
 62
     7
100
AcDbLine
 10
155.0111015691
 20
151.2768509265
 30
0.0
 11
155.0111015691
 21
176.2768509265
 31
0.0
  0
LINE
  5
1E9
330
177
100
AcDbEntity
  8
52198715
  6
Continuous
 62
     7
100
AcDbLine
 10
135.0111015691
 20
151.2768509265
 30
0.0
 11
135.0111015691
 21
176.2768509265
 31
0.0
  0
LINE
  5
1EA
330
177
100
AcDbEntity
  8
52198715
  6
Continuous
 62
     7
100
AcDbLine
 10
228.0111015691
 20
151.2768509265
 30
0.0
 11
228.0111015691
 21
176.2768509265
 31
0.0
  0
LINE
  5
1EB
330
177
100
AcDbEntity
  8
52198715
  6
Continuous
 62
     7
100
AcDbLine
 10
248.0111015691
 20
151.2768509265
 30
0.0
 11
248.0111015691
 21
176.2768509265
 31
0.0
  0
LINE
  5
1EC
330
177
100
AcDbEntity
  8
52198715
  6
Continuous
 62
     7
100
AcDbLine
 10
165.3145576426
 20
150.4868509265
 30
0.0
 11
165.5111015691
 21
151.0268509265
 31
0.0
  0
LINE
  5
1ED
330
177
100
AcDbEntity
  8
52198715
  6
Continuous
 62
     7
100
AcDbLine
 10
165.5111015691
 20
176.5268509265
 30
0.0
 11
165.3145576426
 21
177.0668509265
 31
0.0
  0
LINE
  5
1EE
330
177
100
AcDbEntity
  8
52198715
  6
Continuous
 62
     7
100
AcDbLine
 10
165.5111015691
 20
151.0268509265
 30
0.0
 11
170.0111015691
 21
151.0268509265
 31
0.0
  0
LINE
  5
1EF
330
177
100
AcDbEntity
  8
52198715
  6
Continuous
 62
     7
100
AcDbLine
 10
170.0111015691
 20
176.5268509265
 30
0.0
 11
165.5111015691
 21
176.5268509265
 31
0.0
  0
LINE
  5
1F0
330
177
100
AcDbEntity
  8
52198715
  6
Continuous
 62
     7
100
AcDbLine
 10
170.0111015691
 20
151.0268509265
 30
0.0
 11
175.6159894243
 21
153.0668632721
 31
0.0
  0
LINE
  5
1F1
330
177
100
AcDbEntity
  8
52198715
  6
Continuous
 62
     7
100
AcDbLine
 10
176.1929257629
 20
174.2768509265
 30
0.0
 11
170.0111015691
 21
176.5268509265
 31
0.0
  0
LINE
  5
1F2
330
177
100
AcDbEntity
  8
52198715
  6
Continuous
 62
     7
100
AcDbLine
 10
205.860407052
 20
153.2768509265
 30
0.0
 11
206.8292773754
 21
153.2768509265
 31
0.0
  0
LINE
  5
1F3
330
177
100
AcDbEntity
  8
52198715
  6
Continuous
 62
     7
100
AcDbLine
 10
206.8292773754
 20
174.2768509265
 30
0.0
 11
176.1929257629
 21
174.2768509265
 31
0.0
  0
LINE
  5
1F4
330
177
100
AcDbEntity
  8
52198715
  6
Continuous
 62
     7
100
AcDbLine
 10
213.0111015691
 20
176.5268509265
 30
0.0
 11
206.8292773754
 21
174.2768509265
 31
0.0
  0
LINE
  5
1F5
330
177
100
AcDbEntity
  8
52198715
  6
Continuous
 62
     7
100
AcDbLine
 10
206.8292773754
 20
153.2768509265
 30
0.0
 11
213.0111015691
 21
151.0268509265
 31
0.0
  0
LINE
  5
1F6
330
177
100
AcDbEntity
  8
52198715
  6
Continuous
 62
     7
100
AcDbLine
 10
213.0111015691
 20
151.0268509265
 30
0.0
 11
217.5111015691
 21
151.0268509265
 31
0.0
  0
LINE
  5
1F7
330
177
100
AcDbEntity
  8
52198715
  6
Continuous
 62
     7
100
AcDbLine
 10
217.5111015691
 20
176.5268509265
 30
0.0
 11
213.0111015691
 21
176.5268509265
 31
0.0
  0
LINE
  5
1F8
330
177
100
AcDbEntity
  8
52198715
  6
Continuous
 62
     7
100
AcDbLine
 10
217.7076454957
 20
177.0668509265
 30
0.0
 11
217.5111015691
 21
176.5268509265
 31
0.0
  0
LINE
  5
1F9
330
177
100
AcDbEntity
  8
52198715
  6
Continuous
 62
     7
100
AcDbLine
 10
217.5111015691
 20
151.0268509265
 30
0.0
 11
217.7076454957
 21
150.4868509265
 31
0.0
  0
LINE
  5
1FA
330
177
100
AcDbEntity
  8
52198715
  6
Continuous
 62
     7
100
AcDbLine
 10
175.6053075772
 20
153.0793944291
 30
0.0
 11
175.536264969
 21
152.8217239075
 31
0.0
  0
LINE
  5
1FB
330
177
100
AcDbEntity
  8
52198715
  6
Continuous
 62
     7
100
AcDbLine
 10
218.3764826259
 20
135.1202903185
 30
0.0
 11
216.9014826259
 21
137.6750652596
 31
0.0
  0
LINE
  5
1FC
330
177
100
AcDbEntity
  8
52198715
  6
Continuous
 62
     7
100
AcDbLine
 10
190.9207205124
 20
122.6750652596
 30
0.0
 11
192.3957205124
 21
120.1202903185
 31
0.0
  0
LINE
  5
1FD
330
177
100
AcDbEntity
  8
52198715
  6
Continuous
 62
     7
100
AcDbLine
 10
216.9014826259
 20
137.6750652596
 30
0.0
 11
215.1694318183
 21
138.6750652596
 31
0.0
  0
LINE
  5
1FE
330
177
100
AcDbEntity
  8
52198715
  6
Continuous
 62
     7
100
AcDbLine
 10
190.9207205124
 20
124.6750652596
 30
0.0
 11
190.9207205124
 21
122.6750652596
 31
0.0
  0
LINE
  5
1FF
330
177
100
AcDbEntity
  8
52198715
  6
Continuous
 62
     7
100
AcDbLine
 10
215.1694318183
 20
138.6750652596
 30
0.0
 11
211.1854572221
 21
145.5755116763
 31
0.0
  0
LINE
  5
200
330
177
100
AcDbEntity
  8
52198715
  6
Continuous
 62
     7
100
AcDbLine
 10
186.9367459162
 20
131.5755116763
 30
0.0
 11
190.9207205124
 21
124.6750652596
 31
0.0
  0
LINE
  5
201
330
177
100
AcDbEntity
  8
52198715
  6
Continuous
 62
     7
100
AcDbLine
 10
211.1854572221
 20
145.5755116763
 30
0.0
 11
209.8864191164
 21
146.3255116763
 31
0.0
  0
LINE
  5
202
330
177
100
AcDbEntity
  8
52198715
  6
Continuous
 62
     7
100
AcDbLine
 10
186.9367459162
 20
133.0755116763
 30
0.0
 11
186.9367459162
 21
131.5755116763
 31
0.0
  0
LINE
  5
203
330
177
100
AcDbEntity
  8
52198715
  6
Continuous
 62
     7
100
AcDbLine
 10
209.8864191164
 20
146.3255116763
 30
0.0
 11
205.8662233598
 21
153.2886949832
 31
0.0
  0
LINE
  5
204
330
177
100
AcDbEntity
  8
52198715
  6
Continuous
 62
     7
100
AcDbLine
 10
175.536264969
 20
152.8217239075
 30
0.0
 11
186.9367459162
 21
133.0755116763
 31
0.0
  0
LINE
  5
205
330
177
100
AcDbEntity
  8
52198715
  6
Continuous
 62
     7
100
AcDbLine
 10
246.0284064146
 20
81.2257533895
 30
0.0
 11
231.7784064146
 21
105.9074773974
 31
0.0
  0
LINE
  5
206
330
177
100
AcDbEntity
  8
52198715
  6
Continuous
 62
     7
100
AcDbLine
 10
210.9937967237
 20
93.9074773974
 30
0.0
 11
225.2437967237
 21
69.2257533895
 31
0.0
  0
LINE
  5
207
330
177
100
AcDbEntity
  8
52198715
  6
Continuous
 62
     7
100
AcDbLine
 10
208.238780694
 20
93.9074773974
 30
0.0
 11
210.9937967237
 21
93.9074773974
 31
0.0
  0
LINE
  5
208
330
177
100
AcDbEntity
  8
52198715
  6
Continuous
 62
     7
100
AcDbLine
 10
231.7784064146
 20
105.9074773974
 30
0.0
 11
233.1559144294
 21
108.2933912669
 31
0.0
  0
LINE
  5
209
330
177
100
AcDbEntity
  8
52198715
  6
Continuous
 62
     7
100
AcDbLine
 10
231.2478740114
 20
111.6036298201
 30
0.0
 11
229.6444318183
 21
111.6036298201
 31
0.0
  0
LINE
  5
20A
330
177
100
AcDbEntity
  8
52198715
  6
Continuous
 62
     7
100
AcDbLine
 10
207.1277713199
 20
98.6036298201
 30
0.0
 11
206.3260502234
 21
97.2150081474
 31
0.0
  0
LINE
  5
20B
330
177
100
AcDbEntity
  8
52198715
  6
Continuous
 62
     7
100
AcDbLine
 10
229.6444318183
 20
111.6036298201
 30
0.0
 11
228.6444318183
 21
113.3356806276
 31
0.0
  0
LINE
  5
20C
330
177
100
AcDbEntity
  8
52198715
  6
Continuous
 62
     7
100
AcDbLine
 10
206.1277713199
 20
100.3356806276
 30
0.0
 11
207.1277713199
 21
98.6036298201
 31
0.0
  0
LINE
  5
20D
330
177
100
AcDbEntity
  8
52198715
  6
Continuous
 62
     7
100
AcDbLine
 10
227.6011305482
 20
115.0427314352
 30
0.0
 11
226.3511305482
 21
117.2077949447
 31
0.0
  0
LINE
  5
20E
330
177
100
AcDbEntity
  8
52198715
  6
Continuous
 62
     7
100
AcDbLine
 10
203.9210725901
 20
104.2577949447
 30
0.0
 11
205.1710725901
 21
102.0927314352
 31
0.0
  0
LINE
  5
20F
330
177
100
AcDbEntity
  8
52198715
  6
Continuous
 62
     7
100
AcDbLine
 10
216.2784064146
 20
132.7542649147
 30
0.0
 11
215.7784064146
 21
133.6202903185
 31
0.0
  0
LINE
  5
210
330
177
100
AcDbEntity
  8
52198715
  6
Continuous
 62
     7
100
AcDbLine
 10
194.9937967237
 20
121.6202903185
 30
0.0
 11
195.4937967237
 21
120.7542649147
 31
0.0
  0
LINE
  5
211
330
177
100
AcDbEntity
  8
52198715
  6
Continuous
 62
     7
100
AcDbLine
 10
222.4817454884
 20
127.7097664623
 30
0.0
 11
218.7465788153
 21
134.1792649147
 31
0.0
  0
LINE
  5
212
330
177
100
AcDbEntity
  8
52198715
  6
Continuous
 62
     7
100
AcDbLine
 10
193.0256243229
 20
119.3292649147
 30
0.0
 11
196.760790996
 21
112.8597664623
 31
0.0
  0
LINE
  5
213
330
177
100
AcDbEntity
  8
52198715
  6
Continuous
 62
     7
100
AcDbLine
 10
200.9407330884
 20
105.8616303956
 30
0.0
 11
203.5076751305
 21
105.1738203485
 31
0.0
  0
LINE
  5
214
330
177
100
AcDbEntity
  8
52198715
  6
Continuous
 62
     7
100
AcDbLine
 10
225.7645280078
 20
118.0238203485
 30
0.0
 11
226.4517139175
 21
120.5884330776
 31
0.0
  0
LINE
  5
215
330
177
100
AcDbEntity
  8
52198715
  6
Continuous
 62
     7
100
AcDbLine
 10
224.6623810108
 20
116.2327949447
 30
0.0
 11
224.1623810108
 21
117.0988203485
 31
0.0
  0
LINE
  5
216
330
177
100
AcDbEntity
  8
52198715
  6
Continuous
 62
     7
100
AcDbLine
 10
205.1098221275
 20
106.0988203485
 30
0.0
 11
205.6098221275
 21
105.2327949447
 31
0.0
  0
LINE
  5
217
330
177
100
AcDbEntity
  8
52198715
  6
Continuous
 62
     7
100
AcDbLine
 10
156.5111015691
 20
174.2543509265
 30
0.0
 11
155.0111015691
 21
174.2543509265
 31
0.0
  0
LINE
  5
218
330
177
100
AcDbEntity
  8
52198715
  6
Continuous
 62
     7
100
AcDbLine
 10
155.0111015691
 20
153.2993509265
 30
0.0
 11
156.5111015691
 21
153.2993509265
 31
0.0
  0
LINE
  5
219
330
177
100
AcDbEntity
  8
52198715
  6
Continuous
 62
     7
100
AcDbLine
 10
155.0111015691
 20
176.2768509265
 30
0.0
 11
135.0111015691
 21
176.2768509265
 31
0.0
  0
LINE
  5
21A
330
177
100
AcDbEntity
  8
52198715
  6
Continuous
 62
     7
100
AcDbLine
 10
135.0111015691
 20
151.2768509265
 30
0.0
 11
155.0111015691
 21
151.2768509265
 31
0.0
  0
LINE
  5
21B
330
177
100
AcDbEntity
  8
52198715
  6
Continuous
 62
     7
100
AcDbLine
 10
226.5111015691
 20
153.2993509265
 30
0.0
 11
228.0111015691
 21
153.2993509265
 31
0.0
  0
LINE
  5
21C
330
177
100
AcDbEntity
  8
52198715
  6
Continuous
 62
     7
100
AcDbLine
 10
228.0111015691
 20
174.2543509265
 30
0.0
 11
226.5111015691
 21
174.2543509265
 31
0.0
  0
LINE
  5
21D
330
177
100
AcDbEntity
  8
52198715
  6
Continuous
 62
     7
100
AcDbLine
 10
228.0111015691
 20
151.2768509265
 30
0.0
 11
248.0111015691
 21
151.2768509265
 31
0.0
  0
LINE
  5
21E
330
177
100
AcDbEntity
  8
52198715
  6
Continuous
 62
     7
100
AcDbLine
 10
248.0111015691
 20
176.2768509265
 30
0.0
 11
228.0111015691
 21
176.2768509265
 31
0.0
  0
ENDBLK
  5
220
330
177
100
AcDbEntity
  8
0
100
AcDbBlockEnd
  0
BLOCK
  5
2C7
330
221
100
AcDbEntity
  8
0
100
AcDbBlockBegin
  2
SE3
 70
     0
 10
0.0
 20
0.0
 30
0.0
  3
SE3
  1

  0
LINE
  5
223
330
221
100
AcDbEntity
  8
52198715
  6
Continuous
 62
     7
100
AcDbLine
 10
457.0260902621
 20
151.0268509265
 30
0.0
 11
457.0260902621
 21
176.5268509265
 31
0.0
  0
LINE
  5
224
330
221
100
AcDbEntity
  8
52198715
  6
Continuous
 62
     7
100
AcDbLine
 10
452.5260902621
 20
151.0268509265
 30
0.0
 11
452.5260902621
 21
176.5268509265
 31
0.0
  0
LINE
  5
225
330
221
100
AcDbEntity
  8
52198715
  6
Continuous
 62
     7
100
AcDbLine
 10
415.7079144559
 20
153.2768509265
 30
0.0
 11
415.7079144559
 21
174.2768509265
 31
0.0
  0
LINE
  5
226
330
221
100
AcDbEntity
  8
52198715
  6
Continuous
 62
     7
100
AcDbLine
 10
409.5260902621
 20
151.0268509265
 30
0.0
 11
409.5260902621
 21
176.5268509265
 31
0.0
  0
LINE
  5
227
330
221
100
AcDbEntity
  8
52198715
  6
Continuous
 62
     7
100
AcDbLine
 10
405.0260902621
 20
151.0268509265
 30
0.0
 11
405.0260902621
 21
176.5268509265
 31
0.0
  0
LINE
  5
228
330
221
100
AcDbEntity
  8
52198715
  6
Continuous
 62
     7
100
AcDbLine
 10
465.6082567209
 20
150.4868509265
 30
0.0
 11
466.0260902621
 21
150.4868509265
 31
0.0
  0
LINE
  5
229
330
221
100
AcDbEntity
  8
52198715
  6
Continuous
 62
     7
100
AcDbLine
 10
465.6082567209
 20
163.7768509265
 30
0.0
 11
466.0260902621
 21
161.4583903383
 31
0.0
  0
LINE
  5
22A
330
221
100
AcDbEntity
  8
52198715
  6
Continuous
 62
     7
100
AcDbLine
 10
465.6082567209
 20
177.0668509265
 30
0.0
 11
466.0260902621
 21
174.7483903383
 31
0.0
  0
LINE
  5
22B
330
221
100
AcDbEntity
  8
52198715
  6
Continuous
 62
     7
100
AcDbLine
 10
404.0812343966
 20
177.0668509265
 30
0.0
 11
396.4439238033
 21
177.0668509265
 31
0.0
  0
LINE
  5
22C
330
221
100
AcDbEntity
  8
52198715
  6
Continuous
 62
     7
100
AcDbLine
 10
396.4439238033
 20
177.0668509265
 30
0.0
 11
396.0260902621
 21
177.0668509265
 31
0.0
  0
LINE
  5
22D
330
221
100
AcDbEntity
  8
52198715
  6
Continuous
 62
     7
100
AcDbLine
 10
404.0812343966
 20
177.0668509265
 30
0.0
 11
404.8295449381
 21
177.0668509265
 31
0.0
  0
LINE
  5
22E
330
221
100
AcDbEntity
  8
52198715
  6
Continuous
 62
     7
100
AcDbLine
 10
457.2226355862
 20
177.0668509265
 30
0.0
 11
457.9709461276
 21
177.0668509265
 31
0.0
  0
LINE
  5
22F
330
221
100
AcDbEntity
  8
52198715
  6
Continuous
 62
     7
100
AcDbLine
 10
404.0812343966
 20
163.7768509265
 30
0.0
 11
396.4439238033
 21
163.7768509265
 31
0.0
  0
LINE
  5
230
330
221
100
AcDbEntity
  8
52198715
  6
Continuous
 62
     7
100
AcDbLine
 10
396.4439238033
 20
163.7768509265
 30
0.0
 11
396.0260902621
 21
166.0953115147
 31
0.0
  0
ARC
  5
231
330
221
100
AcDbEntity
  8
52198715
  6
Continuous
 62
     7
100
AcDbCircle
 10
374.679937063
 20
170.4218509265
 30
0.0
 40
30.14286499157414
100
AcDbArc
 50
347.2645244266
 51
12.7354755734
  0
ARC
  5
232
330
221
100
AcDbEntity
  8
52198715
  6
Continuous
 62
     7
100
AcDbCircle
 10
487.3722434612
 20
170.4218509265
 30
0.0
 40
30.142864991574
100
AcDbArc
 50
167.2645244266
 51
192.7354755734
  0
LINE
  5
233
330
221
100
AcDbEntity
  8
52198715
  6
Continuous
 62
     7
100
AcDbLine
 10
404.0812343966
 20
150.4868509265
 30
0.0
 11
396.4439238033
 21
150.4868509265
 31
0.0
  0
LINE
  5
234
330
221
100
AcDbEntity
  8
52198715
  6
Continuous
 62
     7
100
AcDbLine
 10
396.4439238033
 20
150.4868509265
 30
0.0
 11
396.0260902621
 21
152.8053115147
 31
0.0
  0
ARC
  5
235
330
221
100
AcDbEntity
  8
52198715
  6
Continuous
 62
     7
100
AcDbCircle
 10
374.679937063
 20
157.1318509265
 30
0.0
 40
30.14286499157428
100
AcDbArc
 50
347.2645244266
 51
12.7354755734
  0
ARC
  5
236
330
221
100
AcDbEntity
  8
52198715
  6
Continuous
 62
     7
100
AcDbCircle
 10
487.3722434612
 20
157.1318509265
 30
0.0
 40
30.14286499157393
100
AcDbArc
 50
167.2645244266
 51
192.7354755734
  0
LINE
  5
237
330
221
100
AcDbEntity
  8
52198715
  6
Continuous
 62
     7
100
AcDbLine
 10
404.0812343966
 20
150.4868509265
 30
0.0
 11
404.8295449381
 21
150.4868509265
 31
0.0
  0
LINE
  5
238
330
221
100
AcDbEntity
  8
52198715
  6
Continuous
 62
     7
100
AcDbLine
 10
457.2226355862
 20
150.4868509265
 30
0.0
 11
457.9709461276
 21
150.4868509265
 31
0.0
  0
LINE
  5
239
330
221
100
AcDbEntity
  8
52198715
  6
Continuous
 62
     7
100
AcDbLine
 10
465.6082567209
 20
177.0668509265
 30
0.0
 11
457.9709461276
 21
177.0668509265
 31
0.0
  0
LINE
  5
23A
330
221
100
AcDbEntity
  8
52198715
  6
Continuous
 62
     7
100
AcDbLine
 10
465.6082567209
 20
163.7768509265
 30
0.0
 11
457.9709461276
 21
163.7768509265
 31
0.0
  0
LINE
  5
23B
330
221
100
AcDbEntity
  8
52198715
  6
Continuous
 62
     7
100
AcDbLine
 10
465.6082567209
 20
150.4868509265
 30
0.0
 11
457.9709461276
 21
150.4868509265
 31
0.0
  0
SPLINE
  5
23C
330
221
100
AcDbEntity
  8
52198715
  6
Continuous
 62
     7
100
AcDbSpline
210
0.0
220
0.0
230
1.0
 70
     8
 71
     3
 72
    14
 73
    10
 74
     0
 42
0.000000001
 43
0.0000000001
 40
0.0
 40
0.0
 40
0.0
 40
0.0
 40
0.25
 40
0.25
 40
0.375
 40
0.375
 40
0.5
 40
0.5
 40
0.5006554792627252
 40
0.5006554792627252
 40
0.5006554792627252
 40
0.5006554792627252
 10
446.3442660683516
 20
153.89165127258
 30
0.0
 10
446.5335912791434
 20
153.6267196980781
 30
0.0
 10
446.6808317144885
 20
153.420273077507
 30
0.0
 10
446.8329637905229
 20
153.2068789901957
 30
0.0
 10
446.8720766029761
 20
153.1519892391707
 30
0.0
 10
446.9236643248925
 20
153.0795851482604
 30
0.0
 10
446.936620111674
 20
153.0613962574838
 30
0.0
 10
446.9367587606629
 20
153.0612016239502
 30
0.0
 10
446.9367591296147
 20
153.0612011060703
 30
0.0
 10
446.9367591442171
 20
153.0612010856694
 30
0.0
  0
ARC
  5
23D
330
221
100
AcDbEntity
  8
52198715
  6
Continuous
 62
     7
100
AcDbCircle
 10
396.1252988795
 20
189.1159030561
 30
0.0
 40
41.30715735503392
100
AcDbArc
 50
299.816387503
 51
321.6566515332
  0
LINE
  5
23E
330
221
100
AcDbEntity
  8
52198715
  6
Continuous
 62
     7
100
AcDbLine
 10
428.5228013578
 20
163.4900746417
 30
0.0
 11
447.0009268623
 21
152.8217239075
 31
0.0
  0
LINE
  5
23F
330
221
100
AcDbEntity
  8
52198715
  6
Continuous
 62
     7
100
AcDbLine
 10
405.6357092054
 20
137.6750652596
 30
0.0
 11
431.6164713189
 21
122.6750652596
 31
0.0
  0
LINE
  5
240
330
221
100
AcDbEntity
  8
52198715
  6
Continuous
 62
     7
100
AcDbLine
 10
407.3677600129
 20
138.6750652596
 30
0.0
 11
431.6164713189
 21
124.6750652596
 31
0.0
  0
LINE
  5
241
330
221
100
AcDbEntity
  8
52198715
  6
Continuous
 62
     7
100
AcDbLine
 10
411.3517346091
 20
145.5755116763
 30
0.0
 11
435.6004459151
 21
131.5755116763
 31
0.0
  0
LINE
  5
242
330
221
100
AcDbEntity
  8
52198715
  6
Continuous
 62
     7
100
AcDbLine
 10
412.6507727148
 20
146.3255116763
 30
0.0
 11
435.6004459151
 21
133.0755116763
 31
0.0
  0
SPLINE
  5
243
330
221
100
AcDbEntity
  8
52198715
  6
Continuous
 62
     7
100
AcDbSpline
210
0.0
220
0.0
230
1.0
 70
     8
 71
     3
 72
    18
 73
    14
 74
     0
 42
0.000000001
 43
0.0000000001
 40
0.0
 40
0.0
 40
0.0
 40
0.0
 40
0.125
 40
0.125
 40
0.25
 40
0.25
 40
0.375
 40
0.375
 40
0.5
 40
0.5
 40
0.75
 40
0.75
 40
1.0
 40
1.0
 40
1.0
 40
1.0
 10
428.5228013577532
 20
163.490074641699
 30
0.0
 10
429.4947436293672
 20
163.513337901641
 30
0.0
 10
430.4666780301799
 20
163.4965666677281
 30
0.0
 10
432.4105206957363
 20
163.3302599602081
 30
0.0
 10
433.3938038687085
 20
163.1765011186566
 30
0.0
 10
435.2912736060284
 20
162.6832626917544
 30
0.0
 10
436.2044059288442
 20
162.34476699687
 30
0.0
 10
437.9573976168128
 20
161.4867372721729
 30
0.0
 10
438.8004183840991
 20
160.9640697612979
 30
0.0
 10
441.13559542488
 20
159.2819871439987
 30
0.0
 10
442.5133188283014
 20
157.9738520926393
 30
0.0
 10
444.8254189886029
 20
155.6141364385433
 30
0.0
 10
445.7801266396402
 20
154.5350963715276
 30
0.0
 10
446.3442660683516
 20
153.89165127258
 30
0.0
  0
LINE
  5
244
330
221
100
AcDbEntity
  8
52198715
  6
Continuous
 62
     7
100
AcDbLine
 10
446.3442660684
 20
174.2768508029
 30
0.0
 11
446.3442660684
 21
164.4115603408
 31
0.0
  0
LINE
  5
245
330
221
100
AcDbEntity
  8
52198715
  6
Continuous
 62
     7
100
AcDbLine
 10
446.3442660684
 20
163.141371625
 30
0.0
 11
446.3442660684
 21
153.8916512726
 31
0.0
  0
SPLINE
  5
246
330
221
100
AcDbEntity
  8
52198715
  6
Continuous
 62
     7
100
AcDbSpline
210
0.0
220
0.0
230
1.0
 70
     8
 71
     3
 72
    65
 73
    61
 74
     0
 42
0.000000001
 43
0.0000000001
 40
0.0
 40
0.0
 40
0.0
 40
0.0
 40
0.1250000000000006
 40
0.1562500000000008
 40
0.1718750000000009
 40
0.1718750000000009
 40
0.187500000000001
 40
0.187500000000001
 40
0.2187500000000009
 40
0.2187500000000009
 40
0.2500000000000009
 40
0.2500000000000009
 40
0.2812500000000008
 40
0.2812500000000008
 40
0.3125000000000007
 40
0.3125000000000007
 40
0.3437500000000006
 40
0.3437500000000006
 40
0.3593750000000006
 40
0.3593750000000006
 40
0.3750000000000005
 40
0.3750000000000005
 40
0.4375000000000004
 40
0.4375000000000004
 40
0.4687500000000004
 40
0.4687500000000004
 40
0.4843750000000004
 40
0.4843750000000004
 40
0.5000000000000003
 40
0.5000000000000003
 40
0.5156250000000003
 40
0.5156250000000003
 40
0.5312500000000002
 40
0.5312500000000002
 40
0.5625000000000002
 40
0.5625000000000002
 40
0.6250000000000001
 40
0.6250000000000001
 40
0.6562500000000001
 40
0.6562500000000001
 40
0.6718750000000001
 40
0.6718750000000001
 40
0.6875
 40
0.6875
 40
0.71875
 40
0.71875
 40
0.7499999999999999
 40
0.7499999999999999
 40
0.7656249999999999
 40
0.7656249999999999
 40
0.7812499999999998
 40
0.7812499999999998
 40
0.8124999999999998
 40
0.8124999999999998
 40
0.8281249999999997
 40
0.8281249999999997
 40
0.8437499999999997
 40
0.8437499999999997
 40
0.8749999999999997
 40
1.0
 40
1.0
 40
1.0
 40
1.0
 10
445.6389581455177
 20
163.0300580125977
 30
0.0
 10
444.7934486742452
 20
163.0300580125977
 30
0.0
 10
443.7365618351546
 20
163.0300580125977
 30
0.0
 10
442.5739863121549
 20
163.0300580125977
 30
0.0
 10
442.2569202604277
 20
163.0300580125977
 30
0.0
 10
442.0455428926096
 20
163.0300580125977
 30
0.0
 10
441.937256053311
 20
163.0231640859519
 30
0.0
 10
441.6596878486448
 20
162.8723697072617
 30
0.0
 10
441.5493328875642
 20
162.6545198053379
 30
0.0
 10
441.6116560671243
 20
162.2395876133365
 30
0.0
 10
441.8334473959055
 20
162.1140930173603
 30
0.0
 10
441.9470956498283
 20
161.71387300437
 30
0.0
 10
441.857037670544
 20
161.4880863168535
 30
0.0
 10
441.517333064282
 20
161.2369878152124
 30
0.0
 10
441.2810810673632
 20
161.2768509264646
 30
0.0
 10
440.854278588268
 20
161.2768509264646
 30
0.0
 10
440.6212526346729
 20
161.2382511552073
 30
0.0
 10
440.3546593866693
 20
161.4069794853532
 30
0.0
 10
440.2860436779625
 20
161.4906269610928
 30
0.0
 10
440.1368257219377
 20
161.640029893291
 30
0.0
 10
440.0621721707608
 20
161.714844955148
 30
0.0
 10
439.6886507852851
 20
162.0894557609046
 30
0.0
 10
439.3893895616602
 20
162.3904917317136
 30
0.0
 10
438.9393486096361
 20
162.8432939396041
 30
0.0
 10
438.7891309925865
 20
162.9944480494121
 30
0.0
 10
438.5636485532701
 20
163.2211974357625
 30
0.0
 10
438.488452284767
 20
163.2967930989353
 30
0.0
 10
438.3379766082711
 20
163.4479948141922
 30
0.0
 10
438.2663678281845
 20
163.5320482710183
 30
0.0
 10
438.2083198244617
 20
163.7374163091152
 30
0.0
 10
438.2112221133165
 20
163.8507648848305
 30
0.0
 10
438.2831321851234
 20
164.0502993184182
 30
0.0
 10
438.3614895054217
 20
164.1293375160487
 30
0.0
 10
438.5893578921809
 20
164.3573051107253
 30
0.0
 10
438.7410779416544
 20
164.5092929147206
 30
0.0
 10
439.1957703835912
 20
164.9651722889366
 30
0.0
 10
439.4980376704628
 20
165.2687407506496
 30
0.0
 10
439.9499729766892
 20
165.7225157614427
 30
0.0
 10
440.1003288845808
 20
165.8734662737857
 30
0.0
 10
440.3254781690075
 20
166.0993733431996
 30
0.0
 10
440.3971927472489
 20
166.1818027170914
 30
0.0
 10
440.5880364703586
 20
166.2756998083427
 30
0.0
 10
440.699282825987
 20
166.2768509264646
 30
0.0
 10
441.0234091355204
 20
166.2768509264646
 30
0.0
 10
441.2407191751181
 20
166.2920747088418
 30
0.0
 10
441.6701518481851
 20
166.2580992779613
 30
0.0
 10
441.8623861332059
 20
166.0817250841778
 30
0.0
 10
441.9183099321277
 20
165.7668981184704
 30
0.0
 10
441.9067000420879
 20
165.655461675024
 30
0.0
 10
441.8119884300815
 20
165.462025329243
 30
0.0
 10
441.7246137361559
 20
165.3906066199055
 30
0.0
 10
441.5408889936921
 20
165.1216837801284
 30
0.0
 10
441.5603707456497
 20
164.8604834803934
 30
0.0
 10
441.773980894546
 20
164.6104658702868
 30
0.0
 10
441.8739523327164
 20
164.5498035691265
 30
0.0
 10
442.090698753702
 20
164.512779977622
 30
0.0
 10
442.2033809634023
 20
164.5236438403314
 30
0.0
 10
442.5358561745775
 20
164.5236438403314
 30
0.0
 10
443.6441068784948
 20
164.5236438403314
 30
0.0
 10
444.7523575824122
 20
164.5236438403314
 30
0.0
 10
445.6389581455462
 20
164.5236438403314
 30
0.0
  0
SPLINE
  5
247
330
221
100
AcDbEntity
  8
52198715
  6
Continuous
 62
     7
100
AcDbSpline
210
0.0
220
0.0
230
1.0
 70
     8
 71
     3
 72
    18
 73
    14
 74
     0
 42
0.000000001
 43
0.0000000001
 40
0.0
 40
0.0
 40
0.0
 40
0.0
 40
0.2499999999999997
 40
0.2499999999999997
 40
0.3749999999999995
 40
0.3749999999999995
 40
0.4999999999999993
 40
0.4999999999999993
 40
0.6249999999999991
 40
0.6249999999999991
 40
0.749999999999999
 40
0.749999999999999
 40
1.0
 40
1.0
 40
1.0
 40
1.0
 10
445.6389581455462
 20
164.5236438403314
 30
0.0
 10
445.8797189826941
 20
164.5236438403314
 30
0.0
 10
446.143575472442
 20
164.5658778016256
 30
0.0
 10
446.4233156621675
 20
164.3513126630106
 30
0.0
 10
446.492985236629
 20
164.2491380494866
 30
0.0
 10
446.5389695061475
 20
164.0143642916462
 30
0.0
 10
446.5260902621245
 20
163.8940570212619
 30
0.0
 10
446.5260902621245
 20
163.6560617962508
 30
0.0
 10
446.5395256379098
 20
163.5357815254019
 30
0.0
 10
446.4911668058031
 20
163.3023509594356
 30
0.0
 10
446.4208347920424
 20
163.1995976324282
 30
0.0
 10
446.1422765647344
 20
162.9857811649582
 30
0.0
 10
445.877915025905
 20
163.0300580125977
 30
0.0
 10
445.6389581455177
 20
163.0300580125977
 30
0.0
  0
LINE
  5
248
330
221
100
AcDbEntity
  8
52198715
  6
Continuous
 62
     7
100
AcDbLine
 10
466.0260902621
 20
177.0668509265
 30
0.0
 11
465.6082567209
 21
177.0668509265
 31
0.0
  0
LINE
  5
249
330
221
100
AcDbEntity
  8
52198715
  6
Continuous
 62
     7
100
AcDbLine
 10
466.0260902621
 20
166.0953115147
 30
0.0
 11
465.6082567209
 21
163.7768509265
 31
0.0
  0
LINE
  5
24A
330
221
100
AcDbEntity
  8
52198715
  6
Continuous
 62
     7
100
AcDbLine
 10
466.0260902621
 20
152.8053115147
 30
0.0
 11
465.6082567209
 21
150.4868509265
 31
0.0
  0
LINE
  5
24B
330
221
100
AcDbEntity
  8
52198715
  6
Continuous
 62
     7
100
AcDbLine
 10
466.0260902621
 20
174.7483903383
 30
0.0
 11
466.0260902621
 21
177.0668509265
 31
0.0
  0
LINE
  5
24C
330
221
100
AcDbEntity
  8
52198715
  6
Continuous
 62
     7
100
AcDbLine
 10
466.0260902621
 20
161.4583903383
 30
0.0
 11
466.0260902621
 21
166.0953115147
 31
0.0
  0
LINE
  5
24D
330
221
100
AcDbEntity
  8
52198715
  6
Continuous
 62
     7
100
AcDbLine
 10
466.0260902621
 20
150.4868509265
 30
0.0
 11
466.0260902621
 21
152.8053115147
 31
0.0
  0
LINE
  5
24E
330
221
100
AcDbEntity
  8
52198715
  6
Continuous
 62
     7
100
AcDbLine
 10
396.0260902621
 20
174.7483903383
 30
0.0
 11
396.4439238033
 21
177.0668509265
 31
0.0
  0
LINE
  5
24F
330
221
100
AcDbEntity
  8
52198715
  6
Continuous
 62
     7
100
AcDbLine
 10
396.0260902621
 20
150.4868509265
 30
0.0
 11
396.4439238033
 21
150.4868509265
 31
0.0
  0
LINE
  5
250
330
221
100
AcDbEntity
  8
52198715
  6
Continuous
 62
     7
100
AcDbLine
 10
396.0260902621
 20
161.4583903383
 30
0.0
 11
396.4439238033
 21
163.7768509265
 31
0.0
  0
LINE
  5
251
330
221
100
AcDbEntity
  8
52198715
  6
Continuous
 62
     7
100
AcDbLine
 10
396.0260902621
 20
152.8053115147
 30
0.0
 11
396.0260902621
 21
150.4868509265
 31
0.0
  0
LINE
  5
252
330
221
100
AcDbEntity
  8
52198715
  6
Continuous
 62
     7
100
AcDbLine
 10
396.0260902621
 20
166.0953115147
 30
0.0
 11
396.0260902621
 21
161.4583903383
 31
0.0
  0
LINE
  5
253
330
221
100
AcDbEntity
  8
52198715
  6
Continuous
 62
     7
100
AcDbLine
 10
396.0260902621
 20
177.0668509265
 30
0.0
 11
396.0260902621
 21
174.7483903383
 31
0.0
  0
LINE
  5
254
330
221
100
AcDbEntity
  8
52198715
  6
Continuous
 62
     7
100
AcDbLine
 10
396.0260902621
 20
161.4583903383
 30
0.0
 11
396.0260902621
 21
152.8053115147
 31
0.0
  0
LINE
  5
255
330
221
100
AcDbEntity
  8
52198715
  6
Continuous
 62
     7
100
AcDbLine
 10
396.0260902621
 20
174.7483903383
 30
0.0
 11
396.0260902621
 21
166.0953115147
 31
0.0
  0
LINE
  5
256
330
221
100
AcDbEntity
  8
52198715
  6
Continuous
 62
     7
100
AcDbLine
 10
466.0260902621
 20
166.0953115147
 30
0.0
 11
466.0260902621
 21
174.7483903383
 31
0.0
  0
LINE
  5
257
330
221
100
AcDbEntity
  8
52198715
  6
Continuous
 62
     7
100
AcDbLine
 10
466.0260902621
 20
152.8053115147
 30
0.0
 11
466.0260902621
 21
161.4583903383
 31
0.0
  0
LINE
  5
258
330
221
100
AcDbEntity
  8
52198715
  6
Continuous
 62
     7
100
AcDbLine
 10
404.1607092054
 20
135.1202903185
 30
0.0
 11
430.1414713189
 21
120.1202903185
 31
0.0
  0
ELLIPSE
  5
259
330
221
100
AcDbEntity
  8
52198715
  6
Continuous
 62
     7
100
AcDbEllipse
 10
411.169468606
 20
117.2598176985
 30
0.0
 11
11.08168453838971
 21
-10.49344893448664
 31
0.0
210
0.0
220
0.0
230
1.0
 40
0.1215129535
 41
3.170618695485496
 42
3.185969221435224
  0
SPLINE
  5
25A
330
221
100
AcDbEntity
  8
52198715
  6
Continuous
 62
     7
100
AcDbSpline
210
0.0
220
0.0
230
1.0
 70
     8
 71
     3
 72
     8
 73
     4
 74
     0
 42
0.000000001
 43
0.0000000001
 40
0.9811742252946533
 40
0.9811742252946533
 40
0.9811742252946533
 40
0.9811742252946533
 40
1.0
 40
1.0
 40
1.0
 40
1.0
 10
396.0863281391707
 20
120.585475071765
 30
0.0
 10
396.0712438342106
 20
120.641664334972
 30
0.0
 10
396.056514070179
 20
120.6981797931135
 30
0.0
 10
396.0421281989009
 20
120.7549963647224
 30
0.0
  0
ELLIPSE
  5
25B
330
221
100
AcDbEntity
  8
52198715
  6
Continuous
 62
     7
100
AcDbEllipse
 10
411.169468606
 20
117.2598176985
 30
0.0
 11
-14.62843561977488
 21
4.350295859727384
 31
0.0
210
0.0
220
0.0
230
1.0
 40
0.1215129535
 41
3.09721608574437
 42
4.126900742004989
  0
SPLINE
  5
25C
330
221
100
AcDbEntity
  8
52198715
  6
Continuous
 62
     7
100
AcDbSpline
210
0.0
220
0.0
230
1.0
 70
     8
 71
     3
 72
    12
 73
     8
 74
     0
 42
0.000000001
 43
0.0000000001
 40
0.0
 40
0.0
 40
0.0
 40
0.0
 40
0.5
 40
0.5
 40
0.75
 40
0.75
 40
1.0
 40
1.0
 40
1.0
 40
1.0
 10
415.6938073250773
 20
109.4090941311963
 30
0.0
 10
416.0758864560392
 20
107.9000839444136
 30
0.0
 10
416.7005468868224
 20
106.6034786298346
 30
0.0
 10
418.3006482810694
 20
105.6820262350215
 30
0.0
 10
418.9198015071006
 20
105.5495515013773
 30
0.0
 10
420.2930319727116
 20
105.559331823525
 30
0.0
 10
421.0169265146619
 20
105.6965829273492
 30
0.0
 10
421.7600523253481
 20
105.9067459473197
 30
0.0
  0
LINE
  5
25D
330
221
100
AcDbEntity
  8
52198715
  6
Continuous
 62
     7
100
AcDbLine
 10
396.0421281989
 20
120.7549963647
 30
0.0
 11
415.6938073251
 21
109.4090941312
 31
0.0
  0
LINE
  5
25E
330
221
100
AcDbEntity
  8
52198715
  6
Continuous
 62
     7
100
AcDbLine
 10
396.7726638235
 20
118.0238203485
 30
0.0
 11
419.0295167008
 21
105.1738203485
 31
0.0
  0
LINE
  5
25F
330
221
100
AcDbEntity
  8
52198715
  6
Continuous
 62
     7
100
AcDbLine
 10
403.7906130159
 20
134.1792649147
 30
0.0
 11
429.5115675083
 21
119.3292649147
 31
0.0
  0
LINE
  5
260
330
221
100
AcDbEntity
  8
52198715
  6
Continuous
 62
     7
100
AcDbLine
 10
421.7600523253
 20
105.9067459473
 30
0.0
 11
425.7600523253
 21
112.8349491776
 31
0.0
  0
LINE
  5
261
330
221
100
AcDbEntity
  8
52198715
  6
Continuous
 62
     7
100
AcDbLine
 10
419.6938073251
 20
116.3372973615
 30
0.0
 11
415.6938073251
 21
109.4090941312
 31
0.0
  0
LINE
  5
262
330
221
100
AcDbEntity
  8
52198715
  6
Continuous
 62
     7
100
AcDbLine
 10
425.7600523253
 20
112.8349491776
 30
0.0
 11
419.6938073251
 21
116.3372973615
 31
0.0
  0
LINE
  5
263
330
221
100
AcDbEntity
  8
52198715
  6
Continuous
 62
     7
100
AcDbLine
 10
396.0421281989
 20
120.7549963647
 30
0.0
 11
400.0421281989
 21
127.683199595
 31
0.0
  0
ARC
  5
264
330
221
100
AcDbEntity
  8
52198715
  6
Continuous
 62
     7
100
AcDbCircle
 10
415.872976914
 20
104.5709850728
 30
0.0
 40
10.5527234210053
100
AcDbArc
 50
214.4815704163
 51
265.5184295837
  0
LINE
  5
265
330
221
100
AcDbEntity
  8
52198715
  6
Continuous
 62
     7
100
AcDbLine
 10
415.0484037125
 20
94.0505264024
 30
0.0
 11
416.4606904723
 21
96.4966788251
 31
0.0
  0
LINE
  5
266
330
221
100
AcDbEntity
  8
52198715
  6
Continuous
 62
     7
100
AcDbLine
 10
408.5865658065
 20
101.0428068205
 30
0.0
 11
407.1742790468
 21
98.5966543978
 31
0.0
  0
ARC
  5
267
330
221
100
AcDbEntity
  8
52198715
  6
Continuous
 62
     7
100
AcDbCircle
 10
407.7619840892
 20
90.5223334003
 30
0.0
 40
10.55273879112502
100
AcDbArc
 50
34.4816102536
 51
85.5183897464
  0
LINE
  5
268
330
221
100
AcDbEntity
  8
52198715
  6
Continuous
 62
     7
100
AcDbLine
 10
409.9533040842
 20
104.0631211848
 30
0.0
 11
418.3929903003
 21
99.190466076
 31
0.0
  0
LINE
  5
269
330
221
100
AcDbEntity
  8
52198715
  6
Continuous
 62
     7
100
AcDbLine
 10
419.3929903003
 20
100.9225168836
 30
0.0
 11
410.9533040842
 21
105.7951719923
 31
0.0
  0
LINE
  5
26A
330
221
100
AcDbEntity
  8
52198715
  6
Continuous
 62
     7
100
AcDbLine
 10
418.3929903003
 20
99.190466076
 30
0.0
 11
419.3929903003
 21
100.9225168836
 31
0.0
  0
LINE
  5
26B
330
221
100
AcDbEntity
  8
52198715
  6
Continuous
 62
     7
100
AcDbLine
 10
410.9533040842
 20
105.7951719923
 30
0.0
 11
409.9533040842
 21
104.0631211848
 31
0.0
  0
LINE
  5
26C
330
221
100
AcDbEntity
  8
52198715
  6
Continuous
 62
     7
100
AcDbLine
 10
409.8668663956
 20
104.1130260076
 30
0.0
 11
410.8668663956
 21
105.8450768151
 31
0.0
  0
LINE
  5
26D
330
221
100
AcDbEntity
  8
52198715
  6
Continuous
 62
     7
100
AcDbLine
 10
397.6965681354
 20
113.448952061
 30
0.0
 11
396.6965681354
 21
111.7169012534
 31
0.0
  0
LINE
  5
26E
330
221
100
AcDbEntity
  8
52198715
  6
Continuous
 62
     7
100
AcDbLine
 10
396.6249663574
 20
111.7582405592
 30
0.0
 11
397.6249663574
 21
113.4902913667
 31
0.0
  0
LINE
  5
26F
330
221
100
AcDbEntity
  8
52198715
  6
Continuous
 62
     7
100
AcDbLine
 10
392.8943543133
 20
116.2215115038
 30
0.0
 11
391.8943543133
 21
114.4894606962
 31
0.0
  0
LINE
  5
270
330
221
100
AcDbEntity
  8
52198715
  6
Continuous
 62
     7
100
AcDbLine
 10
419.4078262109
 20
100.9139513666
 30
0.0
 11
418.4078262109
 21
99.181900559
 31
0.0
  0
SPLINE
  5
271
330
221
100
AcDbEntity
  8
52198715
  6
Continuous
 62
     7
100
AcDbSpline
210
0.0
220
0.0
230
1.0
 70
     8
 71
     3
 72
     8
 73
     4
 74
     0
 42
0.000000001
 43
0.0000000001
 40
0.0
 40
0.0
 40
0.0
 40
0.0
 40
0.1472904593669165
 40
0.1472904593669165
 40
0.1472904593669165
 40
0.1472904593669165
 10
415.187516147519
 20
93.97020980063618
 30
0.0
 10
414.8804877741329
 20
93.92975027187578
 30
0.0
 10
414.5829334093453
 20
93.90750711809254
 30
0.0
 10
414.2969394334623
 20
93.90749197655823
 30
0.0
  0
SPLINE
  5
272
330
221
100
AcDbEntity
  8
52198715
  6
Continuous
 62
     7
100
AcDbSpline
210
0.0
220
0.0
230
1.0
 70
     8
 71
     3
 72
    16
 73
    12
 74
     0
 42
0.000000001
 43
0.0000000001
 40
0.0
 40
0.0
 40
0.0
 40
0.0
 40
0.2499999999999999
 40
0.2499999999999999
 40
0.4999999999999998
 40
0.4999999999999998
 40
0.6249999999999998
 40
0.6249999999999998
 40
0.7499999999999997
 40
0.7499999999999997
 40
1.0
 40
1.0
 40
1.0
 40
1.0
 10
388.9910527515963
 20
109.0947449940883
 30
0.0
 10
389.1921438600608
 20
108.6090989165268
 30
0.0
 10
389.4250369507888
 20
108.1733299277249
 30
0.0
 10
389.9782014810892
 20
107.438833019602
 30
0.0
 10
390.2989836372257
 20
107.1409060898288
 30
0.0
 10
390.8580604175251
 20
106.8161968237249
 30
0.0
 10
391.0580311746362
 20
106.7279944763976
 30
0.0
 10
391.4780207799448
 20
106.5934434137141
 30
0.0
 10
391.6983217703509
 20
106.546694878291
 30
0.0
 10
392.3868223751711
 20
106.4614159120582
 30
0.0
 10
392.882568453033
 20
106.477750204887
 30
0.0
 10
393.4046562940055
 20
106.546549800782
 30
0.0
  0
ARC
  5
273
330
221
100
AcDbEntity
  8
52198715
  6
Continuous
 62
     7
100
AcDbCircle
 10
412.1555965996
 20
123.2849734975
 30
0.0
 40
24.90324760337678
100
AcDbArc
 50
223.4485978487
 51
256.5514021513
  0
LINE
  5
274
330
221
100
AcDbEntity
  8
52198715
  6
Continuous
 62
     7
100
AcDbLine
 10
416.5998029072
 20
96.4163622233
 30
0.0
 11
415.1875161475
 21
93.9702098006
 31
0.0
  0
LINE
  5
275
330
221
100
AcDbEntity
  8
52198715
  6
Continuous
 62
     7
100
AcDbLine
 10
393.404656294
 20
106.5465498008
 30
0.0
 11
394.8169430537
 21
108.9927022235
 31
0.0
  0
LINE
  5
276
330
221
100
AcDbEntity
  8
52198715
  6
Continuous
 62
     7
100
AcDbLine
 10
390.4033395113
 20
111.5408974168
 30
0.0
 11
388.9910527516
 21
109.0947449941
 31
0.0
  0
LINE
  5
277
330
221
100
AcDbEntity
  8
52198715
  6
Continuous
 62
     7
100
AcDbLine
 10
406.363775557
 20
99.0645988058
 30
0.0
 11
407.7760623167
 21
101.5107512285
 31
0.0
  0
LINE
  5
278
330
221
100
AcDbEntity
  8
52198715
  6
Continuous
 62
     7
100
AcDbLine
 10
395.4883341085
 20
108.6050744173
 30
0.0
 11
394.0760473488
 21
106.1589219946
 31
0.0
  0
SPLINE
  5
279
330
221
100
AcDbEntity
  8
52198715
  6
Continuous
 62
     7
100
AcDbSpline
210
0.0
220
0.0
230
1.0
 70
     8
 71
     3
 72
     8
 73
     4
 74
     0
 42
0.000000001
 43
0.0000000001
 40
0.8532450818941995
 40
0.8532450818941995
 40
0.8532450818941995
 40
0.8532450818941995
 40
1.0
 40
1.0
 40
1.0
 40
1.0
 10
416.2090839285107
 20
97.21856962985936
 30
0.0
 10
416.352160515262
 20
96.97068003586826
 30
0.0
 10
416.4815409127994
 20
96.70197143882181
 30
0.0
 10
416.5998029072475
 20
96.41636222334282
 30
0.0
  0
SPLINE
  5
27A
330
221
100
AcDbEntity
  8
52198715
  6
Continuous
 62
     7
100
AcDbSpline
210
0.0
220
0.0
230
1.0
 70
     8
 71
     3
 72
    16
 73
    12
 74
     0
 42
0.000000001
 43
0.0000000001
 40
0.0
 40
0.0
 40
0.0
 40
0.0
 40
0.2500000000000001
 40
0.2500000000000001
 40
0.5000000000000003
 40
0.5000000000000003
 40
0.6250000000000002
 40
0.6250000000000002
 40
0.7500000000000002
 40
0.7500000000000002
 40
1.0
 40
1.0
 40
1.0
 40
1.0
 10
394.8169430537341
 20
108.9927022234887
 30
0.0
 10
394.6158519452695
 20
109.4783483010502
 30
0.0
 10
394.3829588545416
 20
109.9141172898521
 30
0.0
 10
393.8297943242412
 20
110.648614197975
 30
0.0
 10
393.5090121681047
 20
110.9465411277482
 30
0.0
 10
392.9499353878052
 20
111.2712503938521
 30
0.0
 10
392.7499646306941
 20
111.3594527411794
 30
0.0
 10
392.3299750253855
 20
111.4940038038628
 30
0.0
 10
392.1096740349794
 20
111.540752339286
 30
0.0
 10
391.4211734301593
 20
111.6260313055187
 30
0.0
 10
390.9254273522973
 20
111.60969701269
 30
0.0
 10
390.4033395113248
 20
111.5408974167949
 30
0.0
  0
ARC
  5
27B
330
221
100
AcDbEntity
  8
52198715
  6
Continuous
 62
     7
100
AcDbCircle
 10
389.6965130659
 20
84.3846997256
 30
0.0
 40
24.90324760337641
100
AcDbArc
 50
43.4485978487
 51
76.5514021513
  0
LINE
  5
27C
330
221
100
AcDbEntity
  8
52198715
  6
Continuous
 62
     7
100
AcDbLine
 10
391.8943543133
 20
114.4894606962
 30
0.0
 11
396.6249663574
 21
111.7582405592
 31
0.0
  0
LINE
  5
27D
330
221
100
AcDbEntity
  8
52198715
  6
Continuous
 62
     7
100
AcDbLine
 10
396.6965681354
 20
111.7169012534
 30
0.0
 11
396.6249663574
 21
111.7582405592
 31
0.0
  0
LINE
  5
27E
330
221
100
AcDbEntity
  8
52198715
  6
Continuous
 62
     7
100
AcDbLine
 10
396.6965681354
 20
111.7169012534
 30
0.0
 11
409.8668663956
 21
104.1130260076
 31
0.0
  0
LINE
  5
27F
330
221
100
AcDbEntity
  8
52198715
  6
Continuous
 62
     7
100
AcDbLine
 10
418.4078262109
 20
99.181900559
 30
0.0
 11
418.3929903003
 21
99.190466076
 31
0.0
  0
LINE
  5
280
330
221
100
AcDbEntity
  8
52198715
  6
Continuous
 62
     7
100
AcDbLine
 10
409.9533040842
 20
104.0631211848
 30
0.0
 11
409.8668663956
 21
104.1130260076
 31
0.0
  0
LINE
  5
281
330
221
100
AcDbEntity
  8
52198715
  6
Continuous
 62
     7
100
AcDbLine
 10
397.6249663574
 20
113.4902913667
 30
0.0
 11
392.8943543133
 21
116.2215115038
 31
0.0
  0
LINE
  5
282
330
221
100
AcDbEntity
  8
52198715
  6
Continuous
 62
     7
100
AcDbLine
 10
397.6249663574
 20
113.4902913667
 30
0.0
 11
397.6965681354
 21
113.448952061
 31
0.0
  0
LINE
  5
283
330
221
100
AcDbEntity
  8
52198715
  6
Continuous
 62
     7
100
AcDbLine
 10
410.8668663956
 20
105.8450768151
 30
0.0
 11
397.6965681354
 21
113.448952061
 31
0.0
  0
LINE
  5
284
330
221
100
AcDbEntity
  8
52198715
  6
Continuous
 62
     7
100
AcDbLine
 10
419.3929903003
 20
100.9225168836
 30
0.0
 11
419.4078262109
 21
100.9139513666
 31
0.0
  0
LINE
  5
285
330
221
100
AcDbEntity
  8
52198715
  6
Continuous
 62
     7
100
AcDbLine
 10
410.8668663956
 20
105.8450768151
 30
0.0
 11
410.9533040842
 21
105.7951719923
 31
0.0
  0
LINE
  5
286
330
221
100
AcDbEntity
  8
52198715
  6
Continuous
 62
     7
100
AcDbLine
 10
376.5087854167
 20
81.2257533895
 30
0.0
 11
397.2933951075
 21
69.2257533895
 31
0.0
  0
LINE
  5
287
330
221
100
AcDbEntity
  8
52198715
  6
Continuous
 62
     7
100
AcDbLine
 10
390.7587854167
 20
105.9074773974
 30
0.0
 11
411.5433951075
 21
93.9074773974
 31
0.0
  0
LINE
  5
288
330
221
100
AcDbEntity
  8
52198715
  6
Continuous
 62
     7
100
AcDbLine
 10
407.1742790468
 20
98.5966543978
 30
0.0
 11
406.363775557
 21
99.0645988058
 31
0.0
  0
LINE
  5
289
330
221
100
AcDbEntity
  8
52198715
  6
Continuous
 62
     7
100
AcDbLine
 10
394.0760473488
 20
106.1589219946
 30
0.0
 11
393.404656294
 21
106.5465498008
 31
0.0
  0
LINE
  5
28A
330
221
100
AcDbEntity
  8
52198715
  6
Continuous
 62
     7
100
AcDbLine
 10
415.1875161475
 20
93.9702098006
 30
0.0
 11
415.0484037125
 21
94.0505264024
 31
0.0
  0
LINE
  5
28B
330
221
100
AcDbEntity
  8
52198715
  6
Continuous
 62
     7
100
AcDbLine
 10
408.5865658065
 20
101.0428068205
 30
0.0
 11
407.7760623167
 21
101.5107512285
 31
0.0
  0
LINE
  5
28C
330
221
100
AcDbEntity
  8
52198715
  6
Continuous
 62
     7
100
AcDbLine
 10
395.4883341085
 20
108.6050744173
 30
0.0
 11
394.8169430537
 21
108.9927022235
 31
0.0
  0
LINE
  5
28D
330
221
100
AcDbEntity
  8
52198715
  6
Continuous
 62
     7
100
AcDbLine
 10
416.5998029072
 20
96.4163622233
 30
0.0
 11
416.4606904723
 21
96.4966788251
 31
0.0
  0
LINE
  5
28E
330
221
100
AcDbEntity
  8
52198715
  6
Continuous
 62
     7
100
AcDbLine
 10
392.8927600129
 20
111.6036298201
 30
0.0
 11
415.4094205113
 21
98.6036298201
 31
0.0
  0
LINE
  5
28F
330
221
100
AcDbEntity
  8
52198715
  6
Continuous
 62
     7
100
AcDbLine
 10
396.1860612831
 20
117.2077949447
 30
0.0
 11
418.6161192411
 21
104.2577949447
 31
0.0
  0
LINE
  5
290
330
221
100
AcDbEntity
  8
52198715
  6
Continuous
 62
     7
100
AcDbLine
 10
467.5260902621
 20
151.2768509265
 30
0.0
 11
467.5260902621
 21
176.2768509265
 31
0.0
  0
LINE
  5
291
330
221
100
AcDbEntity
  8
52198715
  6
Continuous
 62
     7
100
AcDbLine
 10
487.5260902621
 20
151.2768509265
 30
0.0
 11
487.5260902621
 21
176.2768509265
 31
0.0
  0
LINE
  5
292
330
221
100
AcDbEntity
  8
52198715
  6
Continuous
 62
     7
100
AcDbLine
 10
394.5260902621
 20
151.2768509265
 30
0.0
 11
394.5260902621
 21
176.2768509265
 31
0.0
  0
LINE
  5
293
330
221
100
AcDbEntity
  8
52198715
  6
Continuous
 62
     7
100
AcDbLine
 10
374.5260902621
 20
151.2768509265
 30
0.0
 11
374.5260902621
 21
176.2768509265
 31
0.0
  0
LINE
  5
294
330
221
100
AcDbEntity
  8
52198715
  6
Continuous
 62
     7
100
AcDbLine
 10
457.2226341886
 20
177.0668509265
 30
0.0
 11
457.0260902621
 21
176.5268509265
 31
0.0
  0
LINE
  5
295
330
221
100
AcDbEntity
  8
52198715
  6
Continuous
 62
     7
100
AcDbLine
 10
457.0260902621
 20
151.0268509265
 30
0.0
 11
457.2226341886
 21
150.4868509265
 31
0.0
  0
LINE
  5
296
330
221
100
AcDbEntity
  8
52198715
  6
Continuous
 62
     7
100
AcDbLine
 10
457.0260902621
 20
176.5268509265
 30
0.0
 11
452.5260902621
 21
176.5268509265
 31
0.0
  0
LINE
  5
297
330
221
100
AcDbEntity
  8
52198715
  6
Continuous
 62
     7
100
AcDbLine
 10
452.5260902621
 20
151.0268509265
 30
0.0
 11
457.0260902621
 21
151.0268509265
 31
0.0
  0
LINE
  5
298
330
221
100
AcDbEntity
  8
52198715
  6
Continuous
 62
     7
100
AcDbLine
 10
452.5260902621
 20
176.5268509265
 30
0.0
 11
446.3442660684
 21
174.2768509265
 31
0.0
  0
LINE
  5
299
330
221
100
AcDbEntity
  8
52198715
  6
Continuous
 62
     7
100
AcDbLine
 10
446.921202407
 20
153.0668632721
 30
0.0
 11
452.5260902621
 21
151.0268509265
 31
0.0
  0
LINE
  5
29A
330
221
100
AcDbEntity
  8
52198715
  6
Continuous
 62
     7
100
AcDbLine
 10
446.3442660684
 20
174.2768509265
 30
0.0
 11
415.7079144559
 21
174.2768509265
 31
0.0
  0
LINE
  5
29B
330
221
100
AcDbEntity
  8
52198715
  6
Continuous
 62
     7
100
AcDbLine
 10
415.7079144559
 20
153.2768509265
 30
0.0
 11
416.6767847793
 21
153.2768509265
 31
0.0
  0
LINE
  5
29C
330
221
100
AcDbEntity
  8
52198715
  6
Continuous
 62
     7
100
AcDbLine
 10
409.5260902621
 20
151.0268509265
 30
0.0
 11
415.7079144559
 21
153.2768509265
 31
0.0
  0
LINE
  5
29D
330
221
100
AcDbEntity
  8
52198715
  6
Continuous
 62
     7
100
AcDbLine
 10
415.7079144559
 20
174.2768509265
 30
0.0
 11
409.5260902621
 21
176.5268509265
 31
0.0
  0
LINE
  5
29E
330
221
100
AcDbEntity
  8
52198715
  6
Continuous
 62
     7
100
AcDbLine
 10
409.5260902621
 20
176.5268509265
 30
0.0
 11
405.0260902621
 21
176.5268509265
 31
0.0
  0
LINE
  5
29F
330
221
100
AcDbEntity
  8
52198715
  6
Continuous
 62
     7
100
AcDbLine
 10
405.0260902621
 20
151.0268509265
 30
0.0
 11
409.5260902621
 21
151.0268509265
 31
0.0
  0
LINE
  5
2A0
330
221
100
AcDbEntity
  8
52198715
  6
Continuous
 62
     7
100
AcDbLine
 10
404.8295463356
 20
150.4868509265
 30
0.0
 11
405.0260902621
 21
151.0268509265
 31
0.0
  0
LINE
  5
2A1
330
221
100
AcDbEntity
  8
52198715
  6
Continuous
 62
     7
100
AcDbLine
 10
405.0260902621
 20
176.5268509265
 30
0.0
 11
404.8295463356
 21
177.0668509265
 31
0.0
  0
LINE
  5
2A2
330
221
100
AcDbEntity
  8
52198715
  6
Continuous
 62
     7
100
AcDbLine
 10
447.0009268623
 20
152.8217239075
 30
0.0
 11
446.9318842541
 21
153.0793944291
 31
0.0
  0
LINE
  5
2A3
330
221
100
AcDbEntity
  8
52198715
  6
Continuous
 62
     7
100
AcDbLine
 10
430.1414713189
 20
120.1202903185
 30
0.0
 11
431.6164713189
 21
122.6750652596
 31
0.0
  0
LINE
  5
2A4
330
221
100
AcDbEntity
  8
52198715
  6
Continuous
 62
     7
100
AcDbLine
 10
405.6357092054
 20
137.6750652596
 30
0.0
 11
404.1607092054
 21
135.1202903185
 31
0.0
  0
LINE
  5
2A5
330
221
100
AcDbEntity
  8
52198715
  6
Continuous
 62
     7
100
AcDbLine
 10
431.6164713189
 20
122.6750652596
 30
0.0
 11
431.6164713189
 21
124.6750652596
 31
0.0
  0
LINE
  5
2A6
330
221
100
AcDbEntity
  8
52198715
  6
Continuous
 62
     7
100
AcDbLine
 10
407.3677600129
 20
138.6750652596
 30
0.0
 11
405.6357092054
 21
137.6750652596
 31
0.0
  0
LINE
  5
2A7
330
221
100
AcDbEntity
  8
52198715
  6
Continuous
 62
     7
100
AcDbLine
 10
431.6164713189
 20
124.6750652596
 30
0.0
 11
435.6004459151
 21
131.5755116763
 31
0.0
  0
LINE
  5
2A8
330
221
100
AcDbEntity
  8
52198715
  6
Continuous
 62
     7
100
AcDbLine
 10
411.3517346091
 20
145.5755116763
 30
0.0
 11
407.3677600129
 21
138.6750652596
 31
0.0
  0
LINE
  5
2A9
330
221
100
AcDbEntity
  8
52198715
  6
Continuous
 62
     7
100
AcDbLine
 10
435.6004459151
 20
131.5755116763
 30
0.0
 11
435.6004459151
 21
133.0755116763
 31
0.0
  0
LINE
  5
2AA
330
221
100
AcDbEntity
  8
52198715
  6
Continuous
 62
     7
100
AcDbLine
 10
412.6507727148
 20
146.3255116763
 30
0.0
 11
411.3517346091
 21
145.5755116763
 31
0.0
  0
LINE
  5
2AB
330
221
100
AcDbEntity
  8
52198715
  6
Continuous
 62
     7
100
AcDbLine
 10
435.6004459151
 20
133.0755116763
 30
0.0
 11
447.0009268623
 21
152.8217239075
 31
0.0
  0
LINE
  5
2AC
330
221
100
AcDbEntity
  8
52198715
  6
Continuous
 62
     7
100
AcDbLine
 10
416.6709684714
 20
153.2886949832
 30
0.0
 11
412.6507727148
 21
146.3255116763
 31
0.0
  0
LINE
  5
2AD
330
221
100
AcDbEntity
  8
52198715
  6
Continuous
 62
     7
100
AcDbLine
 10
397.2933951075
 20
69.2257533895
 30
0.0
 11
411.5433951075
 21
93.9074773974
 31
0.0
  0
LINE
  5
2AE
330
221
100
AcDbEntity
  8
52198715
  6
Continuous
 62
     7
100
AcDbLine
 10
390.7587854167
 20
105.9074773974
 30
0.0
 11
376.5087854167
 21
81.2257533895
 31
0.0
  0
LINE
  5
2AF
330
221
100
AcDbEntity
  8
52198715
  6
Continuous
 62
     7
100
AcDbLine
 10
389.3812774019
 20
108.2933912669
 30
0.0
 11
390.7587854167
 21
105.9074773974
 31
0.0
  0
LINE
  5
2B0
330
221
100
AcDbEntity
  8
52198715
  6
Continuous
 62
     7
100
AcDbLine
 10
411.5433951075
 20
93.9074773974
 30
0.0
 11
414.2984111372
 21
93.9074773974
 31
0.0
  0
LINE
  5
2B1
330
221
100
AcDbEntity
  8
52198715
  6
Continuous
 62
     7
100
AcDbLine
 10
416.2111416078
 20
97.2150081474
 30
0.0
 11
415.4094205113
 21
98.6036298201
 31
0.0
  0
LINE
  5
2B2
330
221
100
AcDbEntity
  8
52198715
  6
Continuous
 62
     7
100
AcDbLine
 10
392.8927600129
 20
111.6036298201
 30
0.0
 11
391.2893178199
 21
111.6036298201
 31
0.0
  0
LINE
  5
2B3
330
221
100
AcDbEntity
  8
52198715
  6
Continuous
 62
     7
100
AcDbLine
 10
415.4094205113
 20
98.6036298201
 30
0.0
 11
416.4094205113
 21
100.3356806276
 31
0.0
  0
LINE
  5
2B4
330
221
100
AcDbEntity
  8
52198715
  6
Continuous
 62
     7
100
AcDbLine
 10
393.8927600129
 20
113.3356806276
 30
0.0
 11
392.8927600129
 21
111.6036298201
 31
0.0
  0
LINE
  5
2B5
330
221
100
AcDbEntity
  8
52198715
  6
Continuous
 62
     7
100
AcDbLine
 10
417.3661192411
 20
102.0927314352
 30
0.0
 11
418.6161192411
 21
104.2577949447
 31
0.0
  0
LINE
  5
2B6
330
221
100
AcDbEntity
  8
52198715
  6
Continuous
 62
     7
100
AcDbLine
 10
396.1860612831
 20
117.2077949447
 30
0.0
 11
394.9360612831
 21
115.0427314352
 31
0.0
  0
LINE
  5
2B7
330
221
100
AcDbEntity
  8
52198715
  6
Continuous
 62
     7
100
AcDbLine
 10
427.0433951075
 20
120.7542649147
 30
0.0
 11
427.5433951075
 21
121.6202903185
 31
0.0
  0
LINE
  5
2B8
330
221
100
AcDbEntity
  8
52198715
  6
Continuous
 62
     7
100
AcDbLine
 10
406.7587854167
 20
133.6202903185
 30
0.0
 11
406.2587854167
 21
132.7542649147
 31
0.0
  0
LINE
  5
2B9
330
221
100
AcDbEntity
  8
52198715
  6
Continuous
 62
     7
100
AcDbLine
 10
425.7764008353
 20
112.8597664623
 30
0.0
 11
429.5115675083
 21
119.3292649147
 31
0.0
  0
LINE
  5
2BA
330
221
100
AcDbEntity
  8
52198715
  6
Continuous
 62
     7
100
AcDbLine
 10
403.7906130159
 20
134.1792649147
 30
0.0
 11
400.0554463429
 21
127.7097664623
 31
0.0
  0
LINE
  5
2BB
330
221
100
AcDbEntity
  8
52198715
  6
Continuous
 62
     7
100
AcDbLine
 10
396.0854779138
 20
120.5884330776
 30
0.0
 11
396.7726638235
 21
118.0238203485
 31
0.0
  0
LINE
  5
2BC
330
221
100
AcDbEntity
  8
52198715
  6
Continuous
 62
     7
100
AcDbLine
 10
419.0295167008
 20
105.1738203485
 30
0.0
 11
421.5964587428
 21
105.8616303956
 31
0.0
  0
LINE
  5
2BD
330
221
100
AcDbEntity
  8
52198715
  6
Continuous
 62
     7
100
AcDbLine
 10
416.9273697038
 20
105.2327949447
 30
0.0
 11
417.4273697038
 21
106.0988203485
 31
0.0
  0
LINE
  5
2BE
330
221
100
AcDbEntity
  8
52198715
  6
Continuous
 62
     7
100
AcDbLine
 10
398.3748108205
 20
117.0988203485
 30
0.0
 11
397.8748108205
 21
116.2327949447
 31
0.0
  0
LINE
  5
2BF
330
221
100
AcDbEntity
  8
52198715
  6
Continuous
 62
     7
100
AcDbLine
 10
466.0260902621
 20
153.2993509265
 30
0.0
 11
467.5260902621
 21
153.2993509265
 31
0.0
  0
LINE
  5
2C0
330
221
100
AcDbEntity
  8
52198715
  6
Continuous
 62
     7
100
AcDbLine
 10
467.5260902621
 20
174.2543509265
 30
0.0
 11
466.0260902621
 21
174.2543509265
 31
0.0
  0
LINE
  5
2C1
330
221
100
AcDbEntity
  8
52198715
  6
Continuous
 62
     7
100
AcDbLine
 10
467.5260902621
 20
151.2768509265
 30
0.0
 11
487.5260902621
 21
151.2768509265
 31
0.0
  0
LINE
  5
2C2
330
221
100
AcDbEntity
  8
52198715
  6
Continuous
 62
     7
100
AcDbLine
 10
487.5260902621
 20
176.2768509265
 30
0.0
 11
467.5260902621
 21
176.2768509265
 31
0.0
  0
LINE
  5
2C3
330
221
100
AcDbEntity
  8
52198715
  6
Continuous
 62
     7
100
AcDbLine
 10
396.0260902621
 20
174.2543509265
 30
0.0
 11
394.5260902621
 21
174.2543509265
 31
0.0
  0
LINE
  5
2C4
330
221
100
AcDbEntity
  8
52198715
  6
Continuous
 62
     7
100
AcDbLine
 10
394.5260902621
 20
153.2993509265
 30
0.0
 11
396.0260902621
 21
153.2993509265
 31
0.0
  0
LINE
  5
2C5
330
221
100
AcDbEntity
  8
52198715
  6
Continuous
 62
     7
100
AcDbLine
 10
394.5260902621
 20
176.2768509265
 30
0.0
 11
374.5260902621
 21
176.2768509265
 31
0.0
  0
LINE
  5
2C6
330
221
100
AcDbEntity
  8
52198715
  6
Continuous
 62
     7
100
AcDbLine
 10
374.5260902621
 20
151.2768509265
 30
0.0
 11
394.5260902621
 21
151.2768509265
 31
0.0
  0
ENDBLK
  5
2C8
330
221
100
AcDbEntity
  8
0
100
AcDbBlockEnd
  0
ENDSEC
  0
SECTION
  2
ENTITIES
  0
INSERT
  5
70
330
1F
100
AcDbEntity
  8
Default
100
AcDbBlockReference
  2
SE
 10
0.0
 20
0.0
 30
0.0
  0
INSERT
  5
109
330
1F
100
AcDbEntity
  8
Default
100
AcDbBlockReference
  2
SE1
 10
0.0
 20
0.0
 30
0.0
  0
INSERT
  5
178
330
1F
100
AcDbEntity
  8
Default
100
AcDbBlockReference
  2
SE2
 10
0.0
 20
0.0
 30
0.0
  0
INSERT
  5
222
330
1F
100
AcDbEntity
  8
Default
100
AcDbBlockReference
  2
SE3
 10
0.0
 20
0.0
 30
0.0
  0
ENDSEC
  0
SECTION
  2
OBJECTS
  0
DICTIONARY
  5
C
330
0
100
AcDbDictionary
281
     1
  3
ACAD_DETAILVIEWSTYLE
350
2D0
  3
ACAD_GROUP
350
D
  3
ACAD_LAYOUT
350
1A
  3
ACAD_MATERIAL
350
43
  3
ACAD_MLEADERSTYLE
350
6B
  3
ACAD_MLINESTYLE
350
17
  3
ACAD_PLOTSETTINGS
350
19
  3
ACAD_PLOTSTYLENAME
350
E
  3
ACAD_SCALELIST
350
47
  3
ACAD_SECTIONVIEWSTYLE
350
2D1
  3
ACAD_TABLESTYLE
350
69
  3
ACAD_VISUALSTYLE
350
2A
  3
ACDB_RECOMPOSE_DATA
350
2CD
  3
AcDbVariableDictionary
350
2C9
  0
SUN
  5
6D
330
29
100
AcDbSun
 90
        1
290
     0
 63
     7
421
 16777215
 40
1.0
291
     1
 91
  2455826
 92
 54000000
292
     0
 70
     2
 71
   256
280
     1
  0
DICTIONARY
  5
2D0
102
{ACAD_REACTORS
330
C
102
}
330
C
100
AcDbDictionary
281
     1
  0
DICTIONARY
  5
D
102
{ACAD_REACTORS
330
C
102
}
330
C
100
AcDbDictionary
281
     1
  0
DICTIONARY
  5
1A
102
{ACAD_REACTORS
330
C
102
}
330
C
100
AcDbDictionary
281
     1
  3
Layout1
350
1E
  3
Model
350
22
  0
DICTIONARY
  5
43
102
{ACAD_REACTORS
330
C
102
}
330
C
100
AcDbDictionary
281
     1
  3
ByBlock
350
45
  3
ByLayer
350
44
  3
Global
350
46
  0
DICTIONARY
  5
6B
102
{ACAD_REACTORS
330
C
102
}
330
C
100
AcDbDictionary
281
     1
  3
Standard
350
6C
  0
DICTIONARY
  5
17
102
{ACAD_REACTORS
330
C
102
}
330
C
100
AcDbDictionary
281
     1
  3
Standard
350
18
  0
DICTIONARY
  5
19
102
{ACAD_REACTORS
330
C
102
}
330
C
100
AcDbDictionary
281
     1
  0
ACDBDICTIONARYWDFLT
  5
E
102
{ACAD_REACTORS
330
C
102
}
330
C
100
AcDbDictionary
281
     1
  3
Normal
350
F
100
AcDbDictionaryWithDefault
340
F
  0
DICTIONARY
  5
47
102
{ACAD_REACTORS
330
C
102
}
330
C
100
AcDbDictionary
281
     1
  3
A0
350
48
  3
A1
350
49
  3
A2
350
4A
  3
A3
350
4B
  3
A4
350
4C
  3
A5
350
4D
  3
A6
350
4E
  3
A7
350
4F
  3
A8
350
50
  3
A9
350
51
  3
B0
350
52
  3
B1
350
53
  3
B2
350
54
  3
B3
350
55
  3
B4
350
56
  3
B5
350
57
  3
B6
350
58
  3
B7
350
59
  3
B8
350
5A
  3
B9
350
5B
  3
C0
350
5C
  3
C1
350
5D
  3
C2
350
5E
  3
C3
350
5F
  3
C4
350
60
  3
C5
350
61
  3
C6
350
62
  3
C7
350
63
  3
C8
350
64
  3
C9
350
65
  3
D0
350
66
  3
D1
350
67
  3
D2
350
68
  0
DICTIONARY
  5
2D1
102
{ACAD_REACTORS
330
C
102
}
330
C
100
AcDbDictionary
281
     1
  0
DICTIONARY
  5
69
102
{ACAD_REACTORS
330
C
102
}
330
C
100
AcDbDictionary
281
     1
  3
Standard
350
6A
  0
DICTIONARY
  5
2A
102
{ACAD_REACTORS
330
C
102
}
330
C
100
AcDbDictionary
281
     1
  3
2dWireframe
350
2F
  3
Basic
350
32
  3
Brighten
350
36
  3
ColorChange
350
3A
  3
Conceptual
350
34
  3
Dim
350
35
  3
EdgeColorOff
350
3D
  3
Facepattern
350
39
  3
Flat
350
2B
  3
FlatWithEdges
350
2C
  3
Gouraud
350
2D
  3
GouraudWithEdges
350
2E
  3
Hidden
350
31
  3
JitterOff
350
3B
  3
Linepattern
350
38
  3
OverhangOff
350
3C
  3
Realistic
350
33
  3
Shaded
350
42
  3
Shaded with edges
350
41
  3
Shades of Gray
350
3E
  3
Sketchy
350
3F
  3
Thicken
350
37
  3
Wireframe
350
30
  3
X-Ray
350
40
  0
XRECORD
  5
2CD
102
{ACAD_REACTORS
330
C
102
}
330
C
100
AcDbXrecord
280
     1
 90
        1
330
6A
  0
DICTIONARY
  5
2C9
102
{ACAD_REACTORS
330
C
102
}
330
C
100
AcDbDictionary
281
     1
  3
CANNOSCALE
350
2CA
  3
CENTEREXE
350
2D2
  3
CENTERLTYPEFILE
350
2D3
  3
CMLEADERSTYLE
350
2CF
  3
CTABLESTYLE
350
2CE
  0
LAYOUT
  5
1E
102
{ACAD_REACTORS
330
1A
102
}
330
1A
100
AcDbPlotSettings
  1

  2
none_device
  4

  6

 40
0.0
 41
0.0
 42
0.0
 43
0.0
 44
0.0
 45
0.0
 46
0.0
 47
0.0
 48
0.0
 49
0.0
140
0.0
141
0.0
142
1.0
143
1.0
 70
   688
 72
     1
 73
     0
 74
     5
  7

 75
    16
 76
     0
 77
     2
 78
   300
147
1.0
148
0.0
149
0.0
100
AcDbLayout
  1
Layout1
 70
     1
 71
     1
 10
0.0
 20
0.0
 11
594.0
 21
420.0
 12
0.0
 22
0.0
 32
0.0
 14
0.0
 24
0.0
 34
0.0
 15
594.0
 25
420.0
 35
0.0
146
0.0
 13
0.0
 23
0.0
 33
0.0
 16
1.0
 26
0.0
 36
0.0
 17
0.0
 27
1.0
 37
0.0
 76
     0
330
1B
  0
LAYOUT
  5
22
102
{ACAD_REACTORS
330
1A
102
}
330
1A
100
AcDbPlotSettings
  1

  2
none_device
  4
Letter_(8.50_x_11.00_Inches)
  6

 40
6.35
 41
6.35
 42
6.35000508
 43
6.35000508
 44
215.9
 45
279.4
 46
0.0
 47
0.0
 48
0.0
 49
0.0
140
0.0
141
0.0
142
1.0
143
1.0
 70
  1712
 72
     1
 73
     0
 74
     0
  7

 75
     0
 76
     0
 77
     2
 78
   300
147
1.0
148
0.0
149
0.0
100
AcDbLayout
  1
Model
 70
     1
 71
     0
 10
0.0
 20
0.0
 11
594.0
 21
420.0
 12
0.0
 22
0.0
 32
0.0
 14
0.0
 24
0.0
 34
0.0
 15
594.0
 25
420.0
 35
0.0
146
0.0
 13
0.0
 23
0.0
 33
0.0
 16
1.0
 26
0.0
 36
0.0
 17
0.0
 27
1.0
 37
0.0
 76
     0
330
1F
331
29
  0
MATERIAL
  5
45
102
{ACAD_REACTORS
330
43
102
}
330
43
100
AcDbMaterial
  1
ByBlock
 72
     1
 94
      127
  0
MATERIAL
  5
44
102
{ACAD_REACTORS
330
43
102
}
330
43
100
AcDbMaterial
  1
ByLayer
 72
     1
 94
      127
  0
MATERIAL
  5
46
102
{ACAD_REACTORS
330
43
102
}
330
43
100
AcDbMaterial
  1
Global
 72
     1
 94
      127
  0
MLEADERSTYLE
  5
6C
102
{ACAD_REACTORS
330
6B
102
}
330
6B
100
AcDbMLeaderStyle
179
     2
170
     2
171
     1
172
     0
 90
        2
 40
0.0
 41
0.0
173
     1
 91
-1056964608
340
14
 92
       -2
290
     1
 42
2.0
291
     1
 43
8.0
  3
Standard
341
0
 44
4.0
300

342
11
174
     1
178
     6
175
     1
176
     0
 93
-1056964608
 45
4.0
292
     0
297
     0
 46
4.0
343
0
 94
-1056964608
 47
1.0
 49
1.0
140
1.0
293
     1
141
0.0
294
     1
177
     0
142
1.0
295
     0
296
     0
143
3.75
271
     0
272
     9
273
     9
298
     0
  0
MLINESTYLE
  5
18
102
{ACAD_REACTORS
330
17
102
}
330
17
100
AcDbMlineStyle
  2
Standard
 70
     0
  3

 62
   256
 51
90.0
 52
90.0
 71
     2
 49
0.5
 62
   256
  6
BYLAYER
 49
-0.5
 62
   256
  6
BYLAYER
  0
ACDBPLACEHOLDER
  5
F
102
{ACAD_REACTORS
330
E
102
}
330
E
  0
SCALE
  5
48
102
{ACAD_REACTORS
330
47
102
}
330
47
100
AcDbScale
 70
     0
300
1:1
140
1.0
141
1.0
290
     1
  0
SCALE
  5
49
102
{ACAD_REACTORS
330
47
102
}
330
47
100
AcDbScale
 70
     0
300
1:2
140
1.0
141
2.0
290
     0
  0
SCALE
  5
4A
102
{ACAD_REACTORS
330
47
102
}
330
47
100
AcDbScale
 70
     0
300
1:4
140
1.0
141
4.0
290
     0
  0
SCALE
  5
4B
102
{ACAD_REACTORS
330
47
102
}
330
47
100
AcDbScale
 70
     0
300
1:5
140
1.0
141
5.0
290
     0
  0
SCALE
  5
4C
102
{ACAD_REACTORS
330
47
102
}
330
47
100
AcDbScale
 70
     0
300
1:8
140
1.0
141
8.0
290
     0
  0
SCALE
  5
4D
102
{ACAD_REACTORS
330
47
102
}
330
47
100
AcDbScale
 70
     0
300
1:10
140
1.0
141
10.0
290
     0
  0
SCALE
  5
4E
102
{ACAD_REACTORS
330
47
102
}
330
47
100
AcDbScale
 70
     0
300
1:16
140
1.0
141
16.0
290
     0
  0
SCALE
  5
4F
102
{ACAD_REACTORS
330
47
102
}
330
47
100
AcDbScale
 70
     0
300
1:20
140
1.0
141
20.0
290
     0
  0
SCALE
  5
50
102
{ACAD_REACTORS
330
47
102
}
330
47
100
AcDbScale
 70
     0
300
1:30
140
1.0
141
30.0
290
     0
  0
SCALE
  5
51
102
{ACAD_REACTORS
330
47
102
}
330
47
100
AcDbScale
 70
     0
300
1:40
140
1.0
141
40.0
290
     0
  0
SCALE
  5
52
102
{ACAD_REACTORS
330
47
102
}
330
47
100
AcDbScale
 70
     0
300
1:50
140
1.0
141
50.0
290
     0
  0
SCALE
  5
53
102
{ACAD_REACTORS
330
47
102
}
330
47
100
AcDbScale
 70
     0
300
1:100
140
1.0
141
100.0
290
     0
  0
SCALE
  5
54
102
{ACAD_REACTORS
330
47
102
}
330
47
100
AcDbScale
 70
     0
300
2:1
140
2.0
141
1.0
290
     0
  0
SCALE
  5
55
102
{ACAD_REACTORS
330
47
102
}
330
47
100
AcDbScale
 70
     0
300
4:1
140
4.0
141
1.0
290
     0
  0
SCALE
  5
56
102
{ACAD_REACTORS
330
47
102
}
330
47
100
AcDbScale
 70
     0
300
8:1
140
8.0
141
1.0
290
     0
  0
SCALE
  5
57
102
{ACAD_REACTORS
330
47
102
}
330
47
100
AcDbScale
 70
     0
300
10:1
140
10.0
141
1.0
290
     0
  0
SCALE
  5
58
102
{ACAD_REACTORS
330
47
102
}
330
47
100
AcDbScale
 70
     0
300
100:1
140
100.0
141
1.0
290
     0
  0
SCALE
  5
59
102
{ACAD_REACTORS
330
47
102
}
330
47
100
AcDbScale
 70
     0
300
1/128" = 1'-0"
140
0.0078125
141
12.0
290
     0
  0
SCALE
  5
5A
102
{ACAD_REACTORS
330
47
102
}
330
47
100
AcDbScale
 70
     0
300
1/64" = 1'-0"
140
0.015625
141
12.0
290
     0
  0
SCALE
  5
5B
102
{ACAD_REACTORS
330
47
102
}
330
47
100
AcDbScale
 70
     0
300
1/32" = 1'-0"
140
0.03125
141
12.0
290
     0
  0
SCALE
  5
5C
102
{ACAD_REACTORS
330
47
102
}
330
47
100
AcDbScale
 70
     0
300
1/16" = 1'-0"
140
0.0625
141
12.0
290
     0
  0
SCALE
  5
5D
102
{ACAD_REACTORS
330
47
102
}
330
47
100
AcDbScale
 70
     0
300
3/32" = 1'-0"
140
0.09375
141
12.0
290
     0
  0
SCALE
  5
5E
102
{ACAD_REACTORS
330
47
102
}
330
47
100
AcDbScale
 70
     0
300
1/8" = 1'-0"
140
0.125
141
12.0
290
     0
  0
SCALE
  5
5F
102
{ACAD_REACTORS
330
47
102
}
330
47
100
AcDbScale
 70
     0
300
3/16" = 1'-0"
140
0.1875
141
12.0
290
     0
  0
SCALE
  5
60
102
{ACAD_REACTORS
330
47
102
}
330
47
100
AcDbScale
 70
     0
300
1/4" = 1'-0"
140
0.25
141
12.0
290
     0
  0
SCALE
  5
61
102
{ACAD_REACTORS
330
47
102
}
330
47
100
AcDbScale
 70
     0
300
3/8" = 1'-0"
140
0.375
141
12.0
290
     0
  0
SCALE
  5
62
102
{ACAD_REACTORS
330
47
102
}
330
47
100
AcDbScale
 70
     0
300
1/2" = 1'-0"
140
0.5
141
12.0
290
     0
  0
SCALE
  5
63
102
{ACAD_REACTORS
330
47
102
}
330
47
100
AcDbScale
 70
     0
300
3/4" = 1'-0"
140
0.75
141
12.0
290
     0
  0
SCALE
  5
64
102
{ACAD_REACTORS
330
47
102
}
330
47
100
AcDbScale
 70
     0
300
1" = 1'-0"
140
1.0
141
12.0
290
     0
  0
SCALE
  5
65
102
{ACAD_REACTORS
330
47
102
}
330
47
100
AcDbScale
 70
     0
300
1-1/2" = 1'-0"
140
1.5
141
12.0
290
     0
  0
SCALE
  5
66
102
{ACAD_REACTORS
330
47
102
}
330
47
100
AcDbScale
 70
     0
300
3" = 1'-0"
140
3.0
141
12.0
290
     0
  0
SCALE
  5
67
102
{ACAD_REACTORS
330
47
102
}
330
47
100
AcDbScale
 70
     0
300
6" = 1'-0"
140
6.0
141
12.0
290
     0
  0
SCALE
  5
68
102
{ACAD_REACTORS
330
47
102
}
330
47
100
AcDbScale
 70
     0
300
1'-0" = 1'-0"
140
12.0
141
12.0
290
     0
  0
TABLESTYLE
  5
6A
102
{ACAD_REACTORS
330
69
102
}
102
{ACAD_XDICTIONARY
360
2CB
102
}
330
69
100
AcDbTableStyle
  3
Standard
 70
     0
 71
     0
 40
0.06
 41
0.06
280
     0
281
     0
  7
Standard
140
4.5
170
     2
 62
     0
 63
   257
283
     0
 90
        4
 91
        0
  1

274
    -2
284
     1
 64
     0
275
    -2
285
     1
 65
     0
276
    -2
286
     1
 66
     0
277
    -2
287
     1
 67
     0
278
    -2
288
     1
 68
     0
279
    -2
289
     1
 69
     0
  7
Standard
140
6.0
170
     5
 62
     0
 63
   257
283
     0
 90
        4
 91
        0
  1

274
    -2
284
     1
 64
     0
275
    -2
285
     1
 65
     0
276
    -2
286
     1
 66
     0
277
    -2
287
     1
 67
     0
278
    -2
288
     1
 68
     0
279
    -2
289
     1
 69
     0
  7
Standard
140
4.5
170
     5
 62
     0
 63
   257
283
     0
 90
        4
 91
        0
  1

274
    -2
284
     1
 64
     0
275
    -2
285
     1
 65
     0
276
    -2
286
     1
 66
     0
277
    -2
287
     1
 67
     0
278
    -2
288
     1
 68
     0
279
    -2
289
     1
 69
     0
  0
VISUALSTYLE
  5
2F
102
{ACAD_REACTORS
330
2A
102
}
330
2A
100
AcDbVisualStyle
  2
2dWireframe
 70
     4
177
     3
291
     0
 70
    58
 90
        0
176
     1
 90
        2
176
     1
 90
        0
176
     1
 90
        0
176
     1
 40
0.6
176
     1
 40
30.0
176
     1
 62
     7
420
 16777215
176
     1
 90
        1
176
     1
 90
        4
176
     1
 62
     7
176
     1
 62
   257
176
     1
 90
        1
176
     1
 90
        1
176
     1
 40
1.0
176
     1
 90
        0
176
     1
 62
   257
176
     1
 40
1.0
176
     1
 90
        1
176
     1
 90
        6
176
     1
 90
        2
176
     1
 62
     7
176
     1
 90
        5
176
     1
 90
        0
176
     1
 90
        0
176
     1
290
     0
176
     1
 90
        1
176
     1
 40
0.0
176
     1
 90
        0
176
     1
290
     1
176
     1
290
     1
176
     1
290
     0
176
     1
290
     0
176
     1
290
     0
176
     1
290
     0
176
     1
290
     0
176
     1
290
     0
176
     1
290
     0
176
     1
 90
       50
176
     1
 40
0.0
176
     1
 40
1.0
176
     1
 90
        0
176
     1
 62
    18
420
        0
176
     1
 90
       50
176
     1
 90
        3
176
     1
 62
     5
420
      255
176
     1
290
     0
176
     1
 90
       50
176
     1
 90
       50
176
     1
 90
       50
176
     1
290
     0
176
     1
 90
       50
176
     1
 62
   256
176
     0
 40
1.0
176
     0
 90
        2
176
     1
  1
strokes_ogs.tif
176
     1
290
     0
176
     1
 40
1.0
176
     1
 40
1.0
176
     1
  0
VISUALSTYLE
  5
32
102
{ACAD_REACTORS
330
2A
102
}
330
2A
100
AcDbVisualStyle
  2
Basic
 70
     7
177
     3
291
     1
 70
    58
 90
        1
176
     1
 90
        0
176
     1
 90
        1
176
     1
 90
        0
176
     1
 40
0.6
176
     1
 40
30.0
176
     1
 62
     7
420
 16777215
176
     1
 90
        0
176
     1
 90
        4
176
     1
 62
     7
176
     1
 62
   257
176
     1
 90
        1
176
     1
 90
        1
176
     1
 40
1.0
176
     1
 90
        8
176
     1
 62
     7
176
     1
 40
1.0
176
     1
 90
        1
176
     1
 90
        6
176
     1
 90
        2
176
     1
 62
     7
176
     1
 90
        5
176
     1
 90
        0
176
     1
 90
        0
176
     1
290
     0
176
     1
 90
        1
176
     1
 40
0.0
176
     1
 90
        0
176
     1
290
     0
176
     1
290
     1
176
     1
290
     1
176
     1
290
     0
176
     1
290
     0
176
     1
290
     0
176
     1
290
     0
176
     1
290
     0
176
     1
290
     0
176
     1
 90
       50
176
     1
 40
0.0
176
     1
 40
1.0
176
     1
 90
        0
176
     1
 62
    18
420
        0
176
     1
 90
       50
176
     1
 90
        3
176
     1
 62
     5
420
      255
176
     1
290
     0
176
     1
 90
       50
176
     1
 90
       50
176
     1
 90
       50
176
     1
290
     0
176
     1
 90
       50
176
     1
 62
   256
176
     0
 40
1.0
176
     0
 90
        2
176
     1
  1
strokes_ogs.tif
176
     1
290
     0
176
     1
 40
1.0
176
     1
 40
1.0
176
     1
  0
VISUALSTYLE
  5
36
102
{ACAD_REACTORS
330
2A
102
}
330
2A
100
AcDbVisualStyle
  2
Brighten
 70
    12
177
     3
291
     1
 70
    58
 90
        2
176
     1
 90
        2
176
     1
 90
        0
176
     1
 90
        0
176
     1
 40
0.6
176
     1
 40
30.0
176
     1
 62
     7
420
 16777215
176
     1
 90
        1
176
     1
 90
        4
176
     1
 62
     7
176
     1
 62
   257
176
     1
 90
        1
176
     1
 90
        1
176
     1
 40
1.0
176
     1
 90
        8
176
     1
 62
     7
176
     1
 40
1.0
176
     1
 90
        1
176
     1
 90
        6
176
     1
 90
        2
176
     1
 62
     7
176
     1
 90
        5
176
     1
 90
        0
176
     1
 90
        0
176
     1
290
     0
176
     1
 90
        1
176
     1
 40
50.0
176
     1
 90
        0
176
     1
290
     0
176
     1
290
     1
176
     1
290
     1
176
     1
290
     0
176
     1
290
     0
176
     1
290
     0
176
     1
290
     0
176
     1
290
     0
176
     1
290
     0
176
     1
 90
       50
176
     1
 40
0.0
176
     1
 40
1.0
176
     1
 90
        0
176
     1
 62
    18
420
        0
176
     1
 90
       50
176
     1
 90
        3
176
     1
 62
     5
420
      255
176
     1
290
     0
176
     1
 90
       50
176
     1
 90
       50
176
     1
 90
       50
176
     1
290
     0
176
     1
 90
       50
176
     1
 62
   256
176
     0
 40
1.0
176
     0
 90
        2
176
     1
  1
strokes_ogs.tif
176
     1
290
     0
176
     1
 40
1.0
176
     1
 40
1.0
176
     1
  0
VISUALSTYLE
  5
3A
102
{ACAD_REACTORS
330
2A
102
}
330
2A
100
AcDbVisualStyle
  2
ColorChange
 70
    16
177
     3
291
     1
 70
    58
 90
        2
176
     1
 90
        2
176
     1
 90
        3
176
     1
 90
        0
176
     1
 40
0.6
176
     1
 40
30.0
176
     1
 62
     8
420
  8421504
176
     1
 90
        1
176
     1
 90
        4
176
     1
 62
     7
176
     1
 62
   257
176
     1
 90
        1
176
     1
 90
        1
176
     1
 40
1.0
176
     1
 90
        8
176
     1
 62
     8
420
  8421504
176
     1
 40
1.0
176
     1
 90
        1
176
     1
 90
        6
176
     1
 90
        2
176
     1
 62
     7
176
     1
 90
        5
176
     1
 90
        0
176
     1
 90
        0
176
     1
290
     0
176
     1
 90
        1
176
     1
 40
0.0
176
     1
 90
        0
176
     1
290
     0
176
     1
290
     1
176
     1
290
     1
176
     1
290
     0
176
     1
290
     0
176
     1
290
     0
176
     1
290
     0
176
     1
290
     0
176
     1
290
     0
176
     1
 90
       50
176
     1
 40
0.0
176
     1
 40
1.0
176
     1
 90
        0
176
     1
 62
    18
420
        0
176
     1
 90
       50
176
     1
 90
        3
176
     1
 62
     5
420
      255
176
     1
290
     0
176
     1
 90
       50
176
     1
 90
       50
176
     1
 90
       50
176
     1
290
     0
176
     1
 90
       50
176
     1
 62
   256
176
     0
 40
1.0
176
     0
 90
        2
176
     1
  1
strokes_ogs.tif
176
     1
290
     0
176
     1
 40
1.0
176
     1
 40
1.0
176
     1
  0
VISUALSTYLE
  5
34
102
{ACAD_REACTORS
330
2A
102
}
330
2A
100
AcDbVisualStyle
  2
Conceptual
 70
     9
177
     3
291
     0
 70
    58
 90
        3
176
     1
 90
        2
176
     1
 90
        0
176
     1
 90
        0
176
     1
 40
0.6
176
     1
 40
30.0
176
     1
 62
     7
420
 16777215
176
     1
 90
        2
176
     1
 90
        2
176
     1
 62
     7
176
     1
 62
   257
176
     1
 90
        1
176
     1
 90
        1
176
     1
 40
179.0
176
     1
 90
        8
176
     1
 62
     7
176
     1
 40
1.0
176
     1
 90
        1
176
     1
 90
        6
176
     1
 90
        2
176
     1
 62
     7
176
     1
 90
        3
176
     1
 90
        0
176
     1
 90
        0
176
     1
290
     0
176
     1
 90
        1
176
     1
 40
0.0
176
     1
 90
        0
176
     1
290
     0
176
     1
290
     1
176
     1
290
     1
176
     1
290
     0
176
     1
290
     0
176
     1
290
     0
176
     1
290
     0
176
     1
290
     0
176
     1
290
     0
176
     1
 90
       50
176
     1
 40
0.0
176
     1
 40
1.0
176
     1
 90
        0
176
     1
 62
    18
420
        0
176
     1
 90
       50
176
     1
 90
        3
176
     1
 62
     5
420
      255
176
     1
290
     0
176
     1
 90
       50
176
     1
 90
       50
176
     1
 90
       50
176
     1
290
     0
176
     1
 90
       50
176
     1
 62
   256
176
     0
 40
1.0
176
     0
 90
        2
176
     1
  1
strokes_ogs.tif
176
     1
290
     0
176
     1
 40
1.0
176
     1
 40
1.0
176
     1
  0
VISUALSTYLE
  5
35
102
{ACAD_REACTORS
330
2A
102
}
330
2A
100
AcDbVisualStyle
  2
Dim
 70
    11
177
     3
291
     1
 70
    58
 90
        2
176
     1
 90
        2
176
     1
 90
        0
176
     1
 90
        0
176
     1
 40
0.6
176
     1
 40
30.0
176
     1
 62
     7
420
 16777215
176
     1
 90
        1
176
     1
 90
        4
176
     1
 62
     7
176
     1
 62
   257
176
     1
 90
        1
176
     1
 90
        1
176
     1
 40
1.0
176
     1
 90
        8
176
     1
 62
     7
176
     1
 40
1.0
176
     1
 90
        1
176
     1
 90
        6
176
     1
 90
        2
176
     1
 62
     7
176
     1
 90
        5
176
     1
 90
        0
176
     1
 90
        0
176
     1
290
     0
176
     1
 90
        1
176
     1
 40
-50.0
176
     1
 90
        0
176
     1
290
     0
176
     1
290
     1
176
     1
290
     1
176
     1
290
     0
176
     1
290
     0
176
     1
290
     0
176
     1
290
     0
176
     1
290
     0
176
     1
290
     0
176
     1
 90
       50
176
     1
 40
0.0
176
     1
 40
1.0
176
     1
 90
        0
176
     1
 62
    18
420
        0
176
     1
 90
       50
176
     1
 90
        3
176
     1
 62
     5
420
      255
176
     1
290
     0
176
     1
 90
       50
176
     1
 90
       50
176
     1
 90
       50
176
     1
290
     0
176
     1
 90
       50
176
     1
 62
   256
176
     0
 40
1.0
176
     0
 90
        2
176
     1
  1
strokes_ogs.tif
176
     1
290
     0
176
     1
 40
1.0
176
     1
 40
1.0
176
     1
  0
VISUALSTYLE
  5
3D
102
{ACAD_REACTORS
330
2A
102
}
330
2A
100
AcDbVisualStyle
  2
EdgeColorOff
 70
    22
177
     3
291
     1
 70
    58
 90
        2
176
     0
 90
        2
176
     0
 90
        0
176
     0
 90
        0
176
     0
 40
0.6
176
     0
 40
30.0
176
     0
 62
     7
420
 16777215
176
     0
 90
        1
176
     0
 90
        4
176
     0
 62
     7
176
     0
 62
   257
176
     0
 90
        1
176
     0
 90
        1
176
     0
 40
1.0
176
     0
 90
        8
176
     2
 62
     7
176
     0
 40
1.0
176
     0
 90
        1
176
     0
 90
        6
176
     0
 90
        2
176
     0
 62
     7
176
     0
 90
        5
176
     0
 90
        0
176
     0
 90
        0
176
     0
290
     0
176
     0
 90
        1
176
     0
 40
0.0
176
     0
 90
        0
176
     0
290
     0
176
     0
290
     1
176
     0
290
     1
176
     0
290
     0
176
     0
290
     0
176
     0
290
     0
176
     0
290
     0
176
     0
290
     0
176
     0
290
     0
176
     0
 90
       50
176
     0
 40
0.0
176
     0
 40
1.0
176
     0
 90
        0
176
     0
 62
    18
420
        0
176
     0
 90
       50
176
     0
 90
        3
176
     0
 62
     5
420
      255
176
     0
290
     0
176
     0
 90
       50
176
     0
 90
       50
176
     0
 90
       50
176
     0
290
     0
176
     0
 90
       50
176
     0
 62
   256
176
     0
 40
1.0
176
     0
 90
        2
176
     0
  1
strokes_ogs.tif
176
     0
290
     0
176
     0
 40
1.0
176
     0
 40
1.0
176
     0
  0
VISUALSTYLE
  5
39
102
{ACAD_REACTORS
330
2A
102
}
330
2A
100
AcDbVisualStyle
  2
Facepattern
 70
    15
177
     3
291
     1
 70
    58
 90
        2
176
     1
 90
        2
176
     1
 90
        0
176
     1
 90
        0
176
     1
 40
0.6
176
     1
 40
30.0
176
     1
 62
     7
420
 16777215
176
     1
 90
        1
176
     1
 90
        4
176
     1
 62
     7
176
     1
 62
   257
176
     1
 90
        1
176
     1
 90
        1
176
     1
 40
1.0
176
     1
 90
        8
176
     1
 62
     7
176
     1
 40
1.0
176
     1
 90
        1
176
     1
 90
        6
176
     1
 90
        2
176
     1
 62
     7
176
     1
 90
        5
176
     1
 90
        0
176
     1
 90
        0
176
     1
290
     0
176
     1
 90
        1
176
     1
 40
0.0
176
     1
 90
        0
176
     1
290
     0
176
     1
290
     1
176
     1
290
     1
176
     1
290
     0
176
     1
290
     0
176
     1
290
     0
176
     1
290
     0
176
     1
290
     0
176
     1
290
     0
176
     1
 90
       50
176
     1
 40
0.0
176
     1
 40
1.0
176
     1
 90
        0
176
     1
 62
    18
420
        0
176
     1
 90
       50
176
     1
 90
        3
176
     1
 62
     5
420
      255
176
     1
290
     0
176
     1
 90
       50
176
     1
 90
       50
176
     1
 90
       50
176
     1
290
     0
176
     1
 90
       50
176
     1
 62
   256
176
     0
 40
1.0
176
     0
 90
        2
176
     1
  1
strokes_ogs.tif
176
     1
290
     0
176
     1
 40
1.0
176
     1
 40
1.0
176
     1
  0
VISUALSTYLE
  5
2B
102
{ACAD_REACTORS
330
2A
102
}
330
2A
100
AcDbVisualStyle
  2
Flat
 70
     0
177
     3
291
     1
 70
    58
 90
        2
176
     1
 90
        1
176
     1
 90
        1
176
     1
 90
        2
176
     1
 40
0.6
176
     1
 40
30.0
176
     1
 62
     7
420
 16777215
176
     1
 90
        0
176
     1
 90
        0
176
     1
 62
     7
176
     1
 62
   257
176
     1
 90
        1
176
     1
 90
        1
176
     1
 40
1.0
176
     1
 90
        8
176
     1
 62
     7
176
     1
 40
1.0
176
     1
 90
        1
176
     1
 90
        6
176
     1
 90
        2
176
     1
 62
     7
176
     1
 90
        5
176
     1
 90
        0
176
     1
 90
        0
176
     1
290
     0
176
     1
 90
       13
176
     1
 40
0.0
176
     1
 90
        0
176
     1
290
     0
176
     1
290
     1
176
     1
290
     1
176
     1
290
     0
176
     1
290
     0
176
     1
290
     0
176
     1
290
     0
176
     1
290
     0
176
     1
290
     0
176
     1
 90
       50
176
     1
 40
0.0
176
     1
 40
1.0
176
     1
 90
        0
176
     1
 62
    18
420
        0
176
     1
 90
       50
176
     1
 90
        3
176
     1
 62
     5
420
      255
176
     1
290
     0
176
     1
 90
       50
176
     1
 90
       50
176
     1
 90
       50
176
     1
290
     0
176
     1
 90
       50
176
     1
 62
   256
176
     0
 40
1.0
176
     0
 90
        2
176
     1
  1
strokes_ogs.tif
176
     1
290
     0
176
     1
 40
1.0
176
     1
 40
1.0
176
     1
  0
VISUALSTYLE
  5
2C
102
{ACAD_REACTORS
330
2A
102
}
330
2A
100
AcDbVisualStyle
  2
FlatWithEdges
 70
     1
177
     3
291
     1
 70
    58
 90
        2
176
     1
 90
        1
176
     1
 90
        1
176
     1
 90
        2
176
     1
 40
0.6
176
     1
 40
30.0
176
     1
 62
     7
420
 16777215
176
     1
 90
        1
176
     1
 90
        0
176
     1
 62
     7
176
     1
 62
   257
176
     1
 90
        1
176
     1
 90
        1
176
     1
 40
1.0
176
     1
 90
        0
176
     1
 62
   257
176
     1
 40
1.0
176
     1
 90
        1
176
     1
 90
        6
176
     1
 90
        2
176
     1
 62
     7
176
     1
 90
        5
176
     1
 90
        0
176
     1
 90
        0
176
     1
290
     0
176
     1
 90
       13
176
     1
 40
0.0
176
     1
 90
        0
176
     1
290
     0
176
     1
290
     1
176
     1
290
     1
176
     1
290
     0
176
     1
290
     0
176
     1
290
     0
176
     1
290
     0
176
     1
290
     0
176
     1
290
     0
176
     1
 90
       50
176
     1
 40
0.0
176
     1
 40
1.0
176
     1
 90
        0
176
     1
 62
    18
420
        0
176
     1
 90
       50
176
     1
 90
        3
176
     1
 62
     5
420
      255
176
     1
290
     0
176
     1
 90
       50
176
     1
 90
       50
176
     1
 90
       50
176
     1
290
     0
176
     1
 90
       50
176
     1
 62
   256
176
     0
 40
1.0
176
     0
 90
        2
176
     1
  1
strokes_ogs.tif
176
     1
290
     0
176
     1
 40
1.0
176
     1
 40
1.0
176
     1
  0
VISUALSTYLE
  5
2D
102
{ACAD_REACTORS
330
2A
102
}
330
2A
100
AcDbVisualStyle
  2
Gouraud
 70
     2
177
     3
291
     1
 70
    58
 90
        2
176
     1
 90
        2
176
     1
 90
        1
176
     1
 90
        2
176
     1
 40
0.6
176
     1
 40
30.0
176
     1
 62
     7
420
 16777215
176
     1
 90
        0
176
     1
 90
        0
176
     1
 62
     7
176
     1
 62
   257
176
     1
 90
        1
176
     1
 90
        1
176
     1
 40
1.0
176
     1
 90
        0
176
     1
 62
     7
176
     1
 40
1.0
176
     1
 90
        1
176
     1
 90
        6
176
     1
 90
        2
176
     1
 62
     7
176
     1
 90
        5
176
     1
 90
        0
176
     1
 90
        0
176
     1
290
     0
176
     1
 90
       13
176
     1
 40
0.0
176
     1
 90
        0
176
     1
290
     0
176
     1
290
     1
176
     1
290
     1
176
     1
290
     0
176
     1
290
     0
176
     1
290
     0
176
     1
290
     0
176
     1
290
     0
176
     1
290
     0
176
     1
 90
       50
176
     1
 40
0.0
176
     1
 40
1.0
176
     1
 90
        0
176
     1
 62
    18
420
        0
176
     1
 90
       50
176
     1
 90
        3
176
     1
 62
     5
420
      255
176
     1
290
     0
176
     1
 90
       50
176
     1
 90
       50
176
     1
 90
       50
176
     1
290
     0
176
     1
 90
       50
176
     1
 62
   256
176
     0
 40
1.0
176
     0
 90
        2
176
     1
  1
strokes_ogs.tif
176
     1
290
     0
176
     1
 40
1.0
176
     1
 40
1.0
176
     1
  0
VISUALSTYLE
  5
2E
102
{ACAD_REACTORS
330
2A
102
}
330
2A
100
AcDbVisualStyle
  2
GouraudWithEdges
 70
     3
177
     3
291
     1
 70
    58
 90
        2
176
     1
 90
        2
176
     1
 90
        1
176
     1
 90
        2
176
     1
 40
0.6
176
     1
 40
30.0
176
     1
 62
     7
420
 16777215
176
     1
 90
        1
176
     1
 90
        0
176
     1
 62
     7
176
     1
 62
   257
176
     1
 90
        1
176
     1
 90
        1
176
     1
 40
1.0
176
     1
 90
        0
176
     1
 62
   257
176
     1
 40
1.0
176
     1
 90
        1
176
     1
 90
        6
176
     1
 90
        2
176
     1
 62
     7
176
     1
 90
        5
176
     1
 90
        0
176
     1
 90
        0
176
     1
290
     0
176
     1
 90
       13
176
     1
 40
0.0
176
     1
 90
        0
176
     1
290
     0
176
     1
290
     1
176
     1
290
     1
176
     1
290
     0
176
     1
290
     0
176
     1
290
     0
176
     1
290
     0
176
     1
290
     0
176
     1
290
     0
176
     1
 90
       50
176
     1
 40
0.0
176
     1
 40
1.0
176
     1
 90
        0
176
     1
 62
    18
420
        0
176
     1
 90
       50
176
     1
 90
        3
176
     1
 62
     5
420
      255
176
     1
290
     0
176
     1
 90
       50
176
     1
 90
       50
176
     1
 90
       50
176
     1
290
     0
176
     1
 90
       50
176
     1
 62
   256
176
     0
 40
1.0
176
     0
 90
        2
176
     1
  1
strokes_ogs.tif
176
     1
290
     0
176
     1
 40
1.0
176
     1
 40
1.0
176
     1
  0
VISUALSTYLE
  5
31
102
{ACAD_REACTORS
330
2A
102
}
330
2A
100
AcDbVisualStyle
  2
Hidden
 70
     6
177
     3
291
     0
 70
    58
 90
        1
176
     1
 90
        2
176
     1
 90
        2
176
     1
 90
        0
176
     1
 40
0.6
176
     1
 40
30.0
176
     1
 62
     7
420
 16777215
176
     1
 90
        2
176
     1
 90
        2
176
     1
 62
     7
176
     1
 62
   257
176
     1
 90
        2
176
     1
 90
        1
176
     1
 40
40.0
176
     1
 90
        0
176
     1
 62
   257
176
     1
 40
1.0
176
     1
 90
        1
176
     1
 90
        6
176
     1
 90
        2
176
     1
 62
     7
176
     1
 90
        3
176
     1
 90
        0
176
     1
 90
        0
176
     1
290
     0
176
     1
 90
        1
176
     1
 40
0.0
176
     1
 90
        0
176
     1
290
     0
176
     1
290
     1
176
     1
290
     1
176
     1
290
     0
176
     1
290
     0
176
     1
290
     0
176
     1
290
     0
176
     1
290
     0
176
     1
290
     0
176
     1
 90
       50
176
     1
 40
0.0
176
     1
 40
1.0
176
     1
 90
        0
176
     1
 62
    18
420
        0
176
     1
 90
       50
176
     1
 90
        3
176
     1
 62
     5
420
      255
176
     1
290
     0
176
     1
 90
       50
176
     1
 90
       50
176
     1
 90
       50
176
     1
290
     0
176
     1
 90
       50
176
     1
 62
   256
176
     0
 40
1.0
176
     0
 90
        2
176
     1
  1
strokes_ogs.tif
176
     1
290
     0
176
     1
 40
1.0
176
     1
 40
1.0
176
     1
  0
VISUALSTYLE
  5
3B
102
{ACAD_REACTORS
330
2A
102
}
330
2A
100
AcDbVisualStyle
  2
JitterOff
 70
    20
177
     3
291
     1
 70
    58
 90
        2
176
     0
 90
        2
176
     0
 90
        0
176
     0
 90
        0
176
     0
 40
0.6
176
     0
 40
30.0
176
     0
 62
     7
420
 16777215
176
     0
 90
        1
176
     0
 90
        4
176
     0
 62
     7
176
     0
 62
   257
176
     0
 90
        1
176
     0
 90
        1
176
     0
 40
1.0
176
     0
 90
       10
176
     2
 62
     7
176
     0
 40
1.0
176
     0
 90
        1
176
     0
 90
        6
176
     0
 90
        2
176
     0
 62
     7
176
     0
 90
        5
176
     0
 90
        0
176
     0
 90
        0
176
     0
290
     0
176
     0
 90
        1
176
     0
 40
0.0
176
     0
 90
        0
176
     0
290
     0
176
     0
290
     1
176
     0
290
     1
176
     0
290
     0
176
     0
290
     0
176
     0
290
     0
176
     0
290
     0
176
     0
290
     0
176
     0
290
     0
176
     0
 90
       50
176
     0
 40
0.0
176
     0
 40
1.0
176
     0
 90
        0
176
     0
 62
    18
420
        0
176
     0
 90
       50
176
     0
 90
        3
176
     0
 62
     5
420
      255
176
     0
290
     0
176
     0
 90
       50
176
     0
 90
       50
176
     0
 90
       50
176
     0
290
     0
176
     0
 90
       50
176
     0
 62
   256
176
     0
 40
1.0
176
     0
 90
        2
176
     0
  1
strokes_ogs.tif
176
     0
290
     0
176
     0
 40
1.0
176
     0
 40
1.0
176
     0
  0
VISUALSTYLE
  5
38
102
{ACAD_REACTORS
330
2A
102
}
330
2A
100
AcDbVisualStyle
  2
Linepattern
 70
    14
177
     3
291
     1
 70
    58
 90
        2
176
     1
 90
        2
176
     1
 90
        0
176
     1
 90
        0
176
     1
 40
0.6
176
     1
 40
30.0
176
     1
 62
     7
420
 16777215
176
     1
 90
        1
176
     1
 90
        4
176
     1
 62
     7
176
     1
 62
   257
176
     1
 90
        7
176
     1
 90
        7
176
     1
 40
1.0
176
     1
 90
        8
176
     1
 62
     7
176
     1
 40
1.0
176
     1
 90
        1
176
     1
 90
        6
176
     1
 90
        2
176
     1
 62
     7
176
     1
 90
        5
176
     1
 90
        0
176
     1
 90
        0
176
     1
290
     0
176
     1
 90
        1
176
     1
 40
0.0
176
     1
 90
        0
176
     1
290
     0
176
     1
290
     1
176
     1
290
     1
176
     1
290
     0
176
     1
290
     0
176
     1
290
     0
176
     1
290
     0
176
     1
290
     0
176
     1
290
     0
176
     1
 90
       50
176
     1
 40
0.0
176
     1
 40
1.0
176
     1
 90
        0
176
     1
 62
    18
420
        0
176
     1
 90
       50
176
     1
 90
        3
176
     1
 62
     5
420
      255
176
     1
290
     0
176
     1
 90
       50
176
     1
 90
       50
176
     1
 90
       50
176
     1
290
     0
176
     1
 90
       50
176
     1
 62
   256
176
     0
 40
1.0
176
     0
 90
        2
176
     1
  1
strokes_ogs.tif
176
     1
290
     0
176
     1
 40
1.0
176
     1
 40
1.0
176
     1
  0
VISUALSTYLE
  5
3C
102
{ACAD_REACTORS
330
2A
102
}
330
2A
100
AcDbVisualStyle
  2
OverhangOff
 70
    21
177
     3
291
     1
 70
    58
 90
        2
176
     0
 90
        2
176
     0
 90
        0
176
     0
 90
        0
176
     0
 40
0.6
176
     0
 40
30.0
176
     0
 62
     7
420
 16777215
176
     0
 90
        1
176
     0
 90
        4
176
     0
 62
     7
176
     0
 62
   257
176
     0
 90
        1
176
     0
 90
        1
176
     0
 40
1.0
176
     0
 90
        9
176
     2
 62
     7
176
     0
 40
1.0
176
     0
 90
        1
176
     0
 90
        6
176
     0
 90
        2
176
     0
 62
     7
176
     0
 90
        5
176
     0
 90
        0
176
     0
 90
        0
176
     0
290
     0
176
     0
 90
        1
176
     0
 40
0.0
176
     0
 90
        0
176
     0
290
     0
176
     0
290
     1
176
     0
290
     1
176
     0
290
     0
176
     0
290
     0
176
     0
290
     0
176
     0
290
     0
176
     0
290
     0
176
     0
290
     0
176
     0
 90
       50
176
     0
 40
0.0
176
     0
 40
1.0
176
     0
 90
        0
176
     0
 62
    18
420
        0
176
     0
 90
       50
176
     0
 90
        3
176
     0
 62
     5
420
      255
176
     0
290
     0
176
     0
 90
       50
176
     0
 90
       50
176
     0
 90
       50
176
     0
290
     0
176
     0
 90
       50
176
     0
 62
   256
176
     0
 40
1.0
176
     0
 90
        2
176
     0
  1
strokes_ogs.tif
176
     0
290
     0
176
     0
 40
1.0
176
     0
 40
1.0
176
     0
  0
VISUALSTYLE
  5
33
102
{ACAD_REACTORS
330
2A
102
}
330
2A
100
AcDbVisualStyle
  2
Realistic
 70
     8
177
     3
291
     0
 70
    58
 90
        2
176
     1
 90
        3
176
     1
 90
        0
176
     1
 90
        2
176
     1
 40
0.6
176
     1
 40
30.0
176
     1
 62
     7
420
 16777215
176
     1
 90
        0
176
     1
 90
        0
176
     1
 62
     7
176
     1
 62
   257
176
     1
 90
        1
176
     1
 90
        1
176
     1
 40
1.0
176
     1
 90
        8
176
     1
 62
   257
176
     1
 40
1.0
176
     1
 90
        1
176
     1
 90
        6
176
     1
 90
        2
176
     1
 62
     7
176
     1
 90
        3
176
     1
 90
        0
176
     1
 90
        0
176
     1
290
     0
176
     1
 90
       13
176
     1
 40
0.0
176
     1
 90
        0
176
     1
290
     0
176
     1
290
     1
176
     1
290
     1
176
     1
290
     0
176
     1
290
     0
176
     1
290
     0
176
     1
290
     0
176
     1
290
     0
176
     1
290
     0
176
     1
 90
       50
176
     1
 40
0.0
176
     1
 40
1.0
176
     1
 90
        0
176
     1
 62
    18
420
        0
176
     1
 90
       50
176
     1
 90
        3
176
     1
 62
     5
420
      255
176
     1
290
     0
176
     1
 90
       50
176
     1
 90
       50
176
     1
 90
       50
176
     1
290
     0
176
     1
 90
       50
176
     1
 62
   256
176
     0
 40
1.0
176
     0
 90
        2
176
     1
  1
strokes_ogs.tif
176
     1
290
     0
176
     1
 40
1.0
176
     1
 40
1.0
176
     1
  0
VISUALSTYLE
  5
42
102
{ACAD_REACTORS
330
2A
102
}
330
2A
100
AcDbVisualStyle
  2
Shaded
 70
    27
177
     3
291
     0
 70
    58
 90
        2
176
     1
 90
        2
176
     1
 90
        1
176
     1
 90
        2
176
     1
 40
0.6
176
     1
 40
30.0
176
     1
 62
     7
420
 16777215
176
     1
 90
        0
176
     1
 90
        4
176
     1
 62
     7
176
     1
 62
   257
176
     1
 90
        1
176
     1
 90
        1
176
     1
 40
1.0
176
     1
 90
        8
176
     1
 62
   257
176
     1
 40
1.0
176
     1
 90
        1
176
     1
 90
        6
176
     1
 90
        2
176
     1
 62
     8
420
  7895160
176
     1
 90
        3
176
     1
 90
        0
176
     1
 90
        0
176
     1
290
     0
176
     1
 90
        5
176
     1
 40
0.0
176
     1
 90
        0
176
     1
290
     0
176
     1
290
     1
176
     1
290
     1
176
     1
290
     0
176
     1
290
     0
176
     1
290
     0
176
     1
290
     0
176
     1
290
     0
176
     1
290
     0
176
     1
 90
       50
176
     1
 40
0.0
176
     1
 40
1.0
176
     1
 90
        0
176
     1
 62
    18
420
        0
176
     1
 90
       50
176
     1
 90
        3
176
     1
 62
     5
420
      255
176
     1
290
     0
176
     1
 90
       50
176
     1
 90
       50
176
     1
 90
       50
176
     1
290
     0
176
     1
 90
       50
176
     1
 62
   256
176
     0
 40
1.0
176
     0
 90
        2
176
     1
  1
strokes_ogs.tif
176
     1
290
     0
176
     1
 40
1.0
176
     1
 40
1.0
176
     1
  0
VISUALSTYLE
  5
41
102
{ACAD_REACTORS
330
2A
102
}
330
2A
100
AcDbVisualStyle
  2
Shaded with edges
 70
    26
177
     3
291
     0
 70
    58
 90
        2
176
     1
 90
        2
176
     1
 90
        1
176
     1
 90
        2
176
     1
 40
0.6
176
     1
 40
30.0
176
     1
 62
     7
420
 16777215
176
     1
 90
        1
176
     1
 90
       10
176
     1
 62
     7
176
     1
 62
   257
176
     1
 90
        2
176
     1
 90
        1
176
     1
 40
1.0
176
     1
 90
        8
176
     1
 62
   257
176
     1
 40
1.0
176
     1
 90
        1
176
     1
 90
        6
176
     1
 90
        2
176
     1
 62
     7
176
     1
 90
        3
176
     1
 90
        0
176
     1
 90
        0
176
     1
290
     0
176
     1
 90
        5
176
     1
 40
0.0
176
     1
 90
        0
176
     1
290
     0
176
     1
290
     1
176
     1
290
     1
176
     1
290
     0
176
     1
290
     0
176
     1
290
     0
176
     1
290
     0
176
     1
290
     0
176
     1
290
     0
176
     1
 90
       50
176
     1
 40
0.0
176
     1
 40
1.0
176
     1
 90
        0
176
     1
 62
    18
420
        0
176
     1
 90
       50
176
     1
 90
        3
176
     1
 62
     5
420
      255
176
     1
290
     0
176
     1
 90
       50
176
     1
 90
       50
176
     1
 90
       50
176
     1
290
     0
176
     1
 90
       50
176
     1
 62
   256
176
     0
 40
1.0
176
     0
 90
        2
176
     1
  1
strokes_ogs.tif
176
     1
290
     0
176
     1
 40
1.0
176
     1
 40
1.0
176
     1
  0
VISUALSTYLE
  5
3E
102
{ACAD_REACTORS
330
2A
102
}
330
2A
100
AcDbVisualStyle
  2
Shades of Gray
 70
    23
177
     3
291
     0
 70
    58
 90
        2
176
     1
 90
        2
176
     1
 90
        3
176
     1
 90
        0
176
     1
 40
0.6
176
     1
 40
30.0
176
     1
 62
     7
420
 16777215
176
     1
 90
        2
176
     1
 90
        2
176
     1
 62
     7
176
     1
 62
     7
176
     1
 90
        1
176
     1
 90
        1
176
     1
 40
40.0
176
     1
 90
        8
176
     1
 62
     7
176
     1
 40
1.0
176
     1
 90
        1
176
     1
 90
        6
176
     1
 90
        2
176
     1
 62
     7
176
     1
 90
        3
176
     1
 90
        0
176
     1
 90
        0
176
     1
290
     0
176
     1
 90
        1
176
     1
 40
0.0
176
     1
 90
        0
176
     1
290
     0
176
     1
290
     1
176
     1
290
     1
176
     1
290
     0
176
     1
290
     0
176
     1
290
     0
176
     1
290
     0
176
     1
290
     0
176
     1
290
     0
176
     1
 90
       50
176
     1
 40
0.0
176
     1
 40
1.0
176
     1
 90
        0
176
     1
 62
    18
420
        0
176
     1
 90
       50
176
     1
 90
        3
176
     1
 62
     5
420
      255
176
     1
290
     0
176
     1
 90
       50
176
     1
 90
       50
176
     1
 90
       50
176
     1
290
     0
176
     1
 90
       50
176
     1
 62
   256
176
     0
 40
1.0
176
     0
 90
        2
176
     1
  1
strokes_ogs.tif
176
     1
290
     0
176
     1
 40
1.0
176
     1
 40
1.0
176
     1
  0
VISUALSTYLE
  5
3F
102
{ACAD_REACTORS
330
2A
102
}
330
2A
100
AcDbVisualStyle
  2
Sketchy
 70
    24
177
     3
291
     0
 70
    58
 90
        1
176
     1
 90
        2
176
     1
 90
        2
176
     1
 90
        0
176
     1
 40
0.6
176
     1
 40
30.0
176
     1
 62
     7
420
 16777215
176
     1
 90
        2
176
     1
 90
        2
176
     1
 62
     7
176
     1
 62
     7
176
     1
 90
        1
176
     1
 90
        1
176
     1
 40
40.0
176
     1
 90
       11
176
     1
 62
     7
176
     1
 40
1.0
176
     1
 90
        1
176
     1
 90
        6
176
     1
 90
        2
176
     1
 62
     7
176
     1
 90
        6
176
     1
 90
        0
176
     1
 90
        0
176
     1
290
     0
176
     1
 90
        1
176
     1
 40
0.0
176
     1
 90
        0
176
     1
290
     0
176
     1
290
     1
176
     1
290
     1
176
     1
290
     0
176
     1
290
     0
176
     1
290
     0
176
     1
290
     0
176
     1
290
     0
176
     1
290
     0
176
     1
 90
       50
176
     1
 40
0.0
176
     1
 40
1.0
176
     1
 90
        0
176
     1
 62
    18
420
        0
176
     1
 90
       50
176
     1
 90
        3
176
     1
 62
     5
420
      255
176
     1
290
     0
176
     1
 90
       50
176
     1
 90
       50
176
     1
 90
       50
176
     1
290
     0
176
     1
 90
       50
176
     1
 62
   256
176
     0
 40
1.0
176
     0
 90
        2
176
     1
  1
strokes_ogs.tif
176
     1
290
     0
176
     1
 40
1.0
176
     1
 40
1.0
176
     1
  0
VISUALSTYLE
  5
37
102
{ACAD_REACTORS
330
2A
102
}
330
2A
100
AcDbVisualStyle
  2
Thicken
 70
    13
177
     3
291
     1
 70
    58
 90
        2
176
     1
 90
        2
176
     1
 90
        0
176
     1
 90
        0
176
     1
 40
0.6
176
     1
 40
30.0
176
     1
 62
     7
420
 16777215
176
     1
 90
        1
176
     1
 90
        4
176
     1
 62
     7
176
     1
 62
   257
176
     1
 90
        1
176
     1
 90
        1
176
     1
 40
1.0
176
     1
 90
       12
176
     1
 62
     7
176
     1
 40
1.0
176
     1
 90
        1
176
     1
 90
        6
176
     1
 90
        2
176
     1
 62
     7
176
     1
 90
        5
176
     1
 90
        0
176
     1
 90
        0
176
     1
290
     0
176
     1
 90
        1
176
     1
 40
0.0
176
     1
 90
        0
176
     1
290
     0
176
     1
290
     1
176
     1
290
     1
176
     1
290
     0
176
     1
290
     0
176
     1
290
     0
176
     1
290
     0
176
     1
290
     0
176
     1
290
     0
176
     1
 90
       50
176
     1
 40
0.0
176
     1
 40
1.0
176
     1
 90
        0
176
     1
 62
    18
420
        0
176
     1
 90
       50
176
     1
 90
        3
176
     1
 62
     5
420
      255
176
     1
290
     0
176
     1
 90
       50
176
     1
 90
       50
176
     1
 90
       50
176
     1
290
     0
176
     1
 90
       50
176
     1
 62
   256
176
     0
 40
1.0
176
     0
 90
        2
176
     1
  1
strokes_ogs.tif
176
     1
290
     0
176
     1
 40
1.0
176
     1
 40
1.0
176
     1
  0
VISUALSTYLE
  5
30
102
{ACAD_REACTORS
330
2A
102
}
330
2A
100
AcDbVisualStyle
  2
Wireframe
 70
     5
177
     3
291
     0
 70
    58
 90
        0
176
     1
 90
        2
176
     1
 90
        0
176
     1
 90
        0
176
     1
 40
0.6
176
     1
 40
30.0
176
     1
 62
     7
420
 16777215
176
     1
 90
        1
176
     1
 90
        4
176
     1
 62
     7
176
     1
 62
   257
176
     1
 90
        1
176
     1
 90
        1
176
     1
 40
1.0
176
     1
 90
        0
176
     1
 62
   257
176
     1
 40
1.0
176
     1
 90
        1
176
     1
 90
        6
176
     1
 90
        2
176
     1
 62
     7
176
     1
 90
        3
176
     1
 90
        0
176
     1
 90
        0
176
     1
290
     0
176
     1
 90
        1
176
     1
 40
0.0
176
     1
 90
        0
176
     1
290
     0
176
     1
290
     1
176
     1
290
     1
176
     1
290
     0
176
     1
290
     0
176
     1
290
     0
176
     1
290
     0
176
     1
290
     0
176
     1
290
     0
176
     1
 90
       50
176
     1
 40
0.0
176
     1
 40
1.0
176
     1
 90
        0
176
     1
 62
    18
420
        0
176
     1
 90
       50
176
     1
 90
        3
176
     1
 62
     5
420
      255
176
     1
290
     0
176
     1
 90
       50
176
     1
 90
       50
176
     1
 90
       50
176
     1
290
     0
176
     1
 90
       50
176
     1
 62
   256
176
     0
 40
1.0
176
     0
 90
        2
176
     1
  1
strokes_ogs.tif
176
     1
290
     0
176
     1
 40
1.0
176
     1
 40
1.0
176
     1
  0
VISUALSTYLE
  5
40
102
{ACAD_REACTORS
330
2A
102
}
330
2A
100
AcDbVisualStyle
  2
X-Ray
 70
    25
177
     3
291
     0
 70
    58
 90
        2
176
     1
 90
        2
176
     1
 90
        1
176
     1
 90
        1
176
     1
 40
0.5
176
     1
 40
30.0
176
     1
 62
     7
420
 16777215
176
     1
 90
        1
176
     1
 90
        0
176
     1
 62
     7
176
     1
 62
   257
176
     1
 90
        1
176
     1
 90
        1
176
     1
 40
1.0
176
     1
 90
        8
176
     1
 62
     7
176
     1
 40
1.0
176
     1
 90
        1
176
     1
 90
        6
176
     1
 90
        2
176
     1
 62
     7
176
     1
 90
        3
176
     1
 90
        0
176
     1
 90
        0
176
     1
290
     0
176
     1
 90
       13
176
     1
 40
0.0
176
     1
 90
        0
176
     1
290
     0
176
     1
290
     1
176
     1
290
     1
176
     1
290
     0
176
     1
290
     0
176
     1
290
     0
176
     1
290
     0
176
     1
290
     0
176
     1
290
     0
176
     1
 90
       50
176
     1
 40
0.0
176
     1
 40
1.0
176
     1
 90
        0
176
     1
 62
    18
420
        0
176
     1
 90
       50
176
     1
 90
        3
176
     1
 62
     5
420
      255
176
     1
290
     0
176
     1
 90
       50
176
     1
 90
       50
176
     1
 90
       50
176
     1
290
     0
176
     1
 90
       50
176
     1
 62
   256
176
     0
 40
1.0
176
     0
 90
        2
176
     1
  1
strokes_ogs.tif
176
     1
290
     0
176
     1
 40
1.0
176
     1
 40
1.0
176
     1
  0
DICTIONARYVAR
  5
2CA
102
{ACAD_REACTORS
330
2C9
102
}
330
2C9
100
DictionaryVariables
280
     0
  1
1:1
  0
DICTIONARYVAR
  5
2D2
102
{ACAD_REACTORS
330
2C9
102
}
330
2C9
100
DictionaryVariables
280
     0
  1
3.500000
  0
DICTIONARYVAR
  5
2D3
102
{ACAD_REACTORS
330
2C9
102
}
330
2C9
100
DictionaryVariables
280
     0
  1
acadiso.lin
  0
DICTIONARYVAR
  5
2CF
102
{ACAD_REACTORS
330
2C9
102
}
330
2C9
100
DictionaryVariables
280
     0
  1
Standard
  0
DICTIONARYVAR
  5
2CE
102
{ACAD_REACTORS
330
2C9
102
}
330
2C9
100
DictionaryVariables
280
     0
  1
Standard
  0
DICTIONARY
  5
2CB
330
6A
100
AcDbDictionary
280
     1
281
     1
  3
ACAD_ROUNDTRIP_2008_TABLESTYLE_CELLSTYLEMAP
360
2CC
  0
CELLSTYLEMAP
  5
2CC
102
{ACAD_REACTORS
330
2CB
102
}
330
2CB
100
AcDbCellStyleMap
 90
        3
300
CELLSTYLE
  1
TABLEFORMAT_BEGIN
 90
        5
170
     1
 91
        0
 92
    32768
 62
   257
 93
        1
300
CONTENTFORMAT
  1
CONTENTFORMAT_BEGIN
 90
        0
 91
        0
 92
        4
 93
        0
300

 40
0.0
140
1.0
 94
        5
 62
     0
340
11
144
6.0
309
CONTENTFORMAT_END
171
     1
301
MARGIN
  1
CELLMARGIN_BEGIN
 40
1.5
 40
1.5
 40
1.5
 40
1.5
 40
1.5
 40
1.5
309
CELLMARGIN_END
 94
        6
 95
        1
302
GRIDFORMAT
  1
GRIDFORMAT_BEGIN
 90
        0
 91
        1
 62
     0
 92
       -2
340
14
 93
        0
 40
0.045
309
GRIDFORMAT_END
 95
        2
302
GRIDFORMAT
  1
GRIDFORMAT_BEGIN
 90
        0
 91
        1
 62
     0
 92
       -2
340
14
 93
        0
 40
0.045
309
GRIDFORMAT_END
 95
        4
302
GRIDFORMAT
  1
GRIDFORMAT_BEGIN
 90
        0
 91
        1
 62
     0
 92
       -2
340
14
 93
        0
 40
0.045
309
GRIDFORMAT_END
 95
        8
302
GRIDFORMAT
  1
GRIDFORMAT_BEGIN
 90
        0
 91
        1
 62
     0
 92
       -2
340
14
 93
        0
 40
0.045
309
GRIDFORMAT_END
 95
       16
302
GRIDFORMAT
  1
GRIDFORMAT_BEGIN
 90
        0
 91
        1
 62
     0
 92
       -2
340
14
 93
        0
 40
0.045
309
GRIDFORMAT_END
 95
       32
302
GRIDFORMAT
  1
GRIDFORMAT_BEGIN
 90
        0
 91
        1
 62
     0
 92
       -2
340
14
 93
        0
 40
0.045
309
GRIDFORMAT_END
309
TABLEFORMAT_END
  1
CELLSTYLE_BEGIN
 90
        1
 91
        1
300
_TITLE
309
CELLSTYLE_END
300
CELLSTYLE
  1
TABLEFORMAT_BEGIN
 90
        5
170
     1
 91
        0
 92
        0
 62
   257
 93
        1
300
CONTENTFORMAT
  1
CONTENTFORMAT_BEGIN
 90
        0
 91
        0
 92
        4
 93
        0
300

 40
0.0
140
1.0
 94
        5
 62
     0
340
11
144
4.5
309
CONTENTFORMAT_END
171
     1
301
MARGIN
  1
CELLMARGIN_BEGIN
 40
1.5
 40
1.5
 40
1.5
 40
1.5
 40
1.5
 40
1.5
309
CELLMARGIN_END
 94
        6
 95
        1
302
GRIDFORMAT
  1
GRIDFORMAT_BEGIN
 90
        0
 91
        1
 62
     0
 92
       -2
340
14
 93
        0
 40
0.045
309
GRIDFORMAT_END
 95
        2
302
GRIDFORMAT
  1
GRIDFORMAT_BEGIN
 90
        0
 91
        1
 62
     0
 92
       -2
340
14
 93
        0
 40
0.045
309
GRIDFORMAT_END
 95
        4
302
GRIDFORMAT
  1
GRIDFORMAT_BEGIN
 90
        0
 91
        1
 62
     0
 92
       -2
340
14
 93
        0
 40
0.045
309
GRIDFORMAT_END
 95
        8
302
GRIDFORMAT
  1
GRIDFORMAT_BEGIN
 90
        0
 91
        1
 62
     0
 92
       -2
340
14
 93
        0
 40
0.045
309
GRIDFORMAT_END
 95
       16
302
GRIDFORMAT
  1
GRIDFORMAT_BEGIN
 90
        0
 91
        1
 62
     0
 92
       -2
340
14
 93
        0
 40
0.045
309
GRIDFORMAT_END
 95
       32
302
GRIDFORMAT
  1
GRIDFORMAT_BEGIN
 90
        0
 91
        1
 62
     0
 92
       -2
340
14
 93
        0
 40
0.045
309
GRIDFORMAT_END
309
TABLEFORMAT_END
  1
CELLSTYLE_BEGIN
 90
        2
 91
        1
300
_HEADER
309
CELLSTYLE_END
300
CELLSTYLE
  1
TABLEFORMAT_BEGIN
 90
        5
170
     1
 91
        0
 92
        0
 62
   257
 93
        1
300
CONTENTFORMAT
  1
CONTENTFORMAT_BEGIN
 90
        0
 91
        0
 92
        4
 93
        0
300

 40
0.0
140
1.0
 94
        2
 62
     0
340
11
144
4.5
309
CONTENTFORMAT_END
171
     1
301
MARGIN
  1
CELLMARGIN_BEGIN
 40
1.5
 40
1.5
 40
1.5
 40
1.5
 40
1.5
 40
1.5
309
CELLMARGIN_END
 94
        6
 95
        1
302
GRIDFORMAT
  1
GRIDFORMAT_BEGIN
 90
        0
 91
        1
 62
     0
 92
       -2
340
14
 93
        0
 40
0.045
309
GRIDFORMAT_END
 95
        2
302
GRIDFORMAT
  1
GRIDFORMAT_BEGIN
 90
        0
 91
        1
 62
     0
 92
       -2
340
14
 93
        0
 40
0.045
309
GRIDFORMAT_END
 95
        4
302
GRIDFORMAT
  1
GRIDFORMAT_BEGIN
 90
        0
 91
        1
 62
     0
 92
       -2
340
14
 93
        0
 40
0.045
309
GRIDFORMAT_END
 95
        8
302
GRIDFORMAT
  1
GRIDFORMAT_BEGIN
 90
        0
 91
        1
 62
     0
 92
       -2
340
14
 93
        0
 40
0.045
309
GRIDFORMAT_END
 95
       16
302
GRIDFORMAT
  1
GRIDFORMAT_BEGIN
 90
        0
 91
        1
 62
     0
 92
       -2
340
14
 93
        0
 40
0.045
309
GRIDFORMAT_END
 95
       32
302
GRIDFORMAT
  1
GRIDFORMAT_BEGIN
 90
        0
 91
        1
 62
     0
 92
       -2
340
14
 93
        0
 40
0.045
309
GRIDFORMAT_END
309
TABLEFORMAT_END
  1
CELLSTYLE_BEGIN
 90
        3
 91
        2
300
_DATA
309
CELLSTYLE_END
  0
ENDSEC
  0
EOF
