  0
SECTION
  2
HEADER
  9
$ACADVER
  1
AC1014
  9
$ACADMAINTVER
 70
         0
  9
$DWGCODEPAGE
  3
ANSI_1252
  9
$INSBASE
 10
0.0
 20
0.0
 30
0.0
  9
$EXTMIN
 10
0.0
 20
0.0
 30
0.0
  9
$EXTMAX
 10
420.0
 20
297.0
 30
0.0
  9
$LIMMIN
 10
0.0
 20
0.0
  9
$LIMMAX
 10
420.0
 20
297.0
  9
$ORTHOMODE
 70
         0
  9
$REGENMODE
 70
         1
  9
$FILLMODE
 70
         1
  9
$QTEXTMODE
 70
         0
  9
$MIRRTEXT
 70
         1
  9
$DRAGMODE
 70
         2
  9
$LTSCALE
 40
25.4
  9
$OSMODE
 70
         0
  9
$ATTMODE
 70
         1
  9
$TEXTSIZE
 40
0.2
  9
$TRACEWID
 40
0.05
  9
$TEXTSTYLE
  7
Standard
  9
$CLAYER
  8
0
  9
$CELTYPE
  6
CONTINUOUS
  9
$CECOLOR
 62
       256
  9
$CELTSCALE
 40
1.0
  9
$DELOBJ
 70
         1
  9
$DISPSILH
 70
         0
  9
$DIMSCALE
 40
1.0
  9
$DIMASZ
 40
0.18
  9
$DIMEXO
 40
0.0625
  9
$DIMDLI
 40
0.38
  9
$DIMRND
 40
0.0
  9
$DIMDLE
 40
0.0
  9
$DIMEXE
 40
0.18
  9
$DIMTP
 40
0.0
  9
$DIMTM
 40
0.0
  9
$DIMTXT
 40
0.18
  9
$DIMCEN
 40
0.09
  9
$DIMTSZ
 40
0.0
  9
$DIMTOL
 70
         0
  9
$DIMLIM
 70
         0
  9
$DIMTIH
 70
         1
  9
$DIMTOH
 70
         1
  9
$DIMSE1
 70
         0
  9
$DIMSE2
 70
         0
  9
$DIMTAD
 70
         0
  9
$DIMZIN
 70
         0
  9
$DIMBLK
  1

  9
$DIMASO
 70
         1
  9
$DIMSHO
 70
         1
  9
$DIMPOST
  1

  9
$DIMAPOST
  1

  9
$DIMALT
 70
         0
  9
$DIMALTD
 70
         2
  9
$DIMALTF
 40
25.4
  9
$DIMLFAC
 40
1.0
  9
$DIMTOFL
 70
         0
  9
$DIMTVP
 40
0.0
  9
$DIMTIX
 70
         0
  9
$DIMSOXD
 70
         0
  9
$DIMSAH
 70
         0
  9
$DIMBLK1
  1

  9
$DIMBLK2
  1

  9
$DIMSTYLE
  2
Standard
  9
$DIMCLRD
 70
         0
  9
$DIMCLRE
 70
         0
  9
$DIMCLRT
 70
         0
  9
$DIMTFAC
 40
1.0
  9
$DIMGAP
 40
0.09
  9
$DIMJUST
 70
         0
  9
$DIMSD1
 70
         0
  9
$DIMSD2
 70
         0
  9
$DIMTOLJ
 70
         1
  9
$DIMTZIN
 70
         0
  9
$DIMALTZ
 70
         0
  9
$DIMALTTZ
 70
         0
  9
$DIMFIT
 70
         3
  9
$DIMUPT
 70
         0
  9
$DIMUNIT
 70
         2
  9
$DIMDEC
 70
         4
  9
$DIMTDEC
 70
         4
  9
$DIMALTU
 70
         2
  9
$DIMALTTD
 70
         2
  9
$DIMTXSTY
  7
Standard
  9
$DIMAUNIT
 70
         0
  9
$LUNITS
 70
         2
  9
$LUPREC
 70
         4
  9
$SKETCHINC
 40
0.1
  9
$FILLETRAD
 40
0.0
  9
$AUNITS
 70
         0
  9
$AUPREC
 70
         0
  9
$MENU
  1
acad
  9
$ELEVATION
 40
0.0
  9
$PELEVATION
 40
0.0
  9
$THICKNESS
 40
0.0
  9
$LIMCHECK
 70
         0
  9
$BLIPMODE
 70
         1
  9
$CHAMFERA
 40
0.0
  9
$CHAMFERB
 40
0.0
  9
$CHAMFERC
 40
0.0
  9
$CHAMFERD
 40
0.0
  9
$SKPOLY
 70
         0
  9
$TDCREATE
 40
0.000000000
  9
$TDUPDATE
 40
0.000000000
  9
$TDINDWG
 40
0.0000000000
  9
$TDUSRTIMER
 40
0.0000000000
  9
$USRTIMER
 70
         1
  9
$ANGBASE
 50
0.0
  9
$ANGDIR
 70
         0
  9
$PDMODE
 70
         0
  9
$PDSIZE
 40
0.0
  9
$PLINEWID
 40
0.0
  9
$COORDS
 70
         0
  9
$SPLFRAME
 70
         0
  9
$SPLINETYPE
 70
         6
  9
$SPLINESEGS
 70
         8
  9
$ATTDIA
 70
         0
  9
$ATTREQ
 70
         1
  9
$HANDLING
 70
         1
  9
$HANDSEED
  5
2A0
  9
$SURFTAB1
 70
         6
  9
$SURFTAB2
 70
         6
  9
$SURFTYPE
 70
         6
  9
$SURFU
 70
         6
  9
$SURFV
 70
         6
  9
$UCSNAME
  2

  9
$UCSORG
 10
0.0
 20
0.0
 30
0.0
  9
$UCSXDIR
 10
1.0
 20
0.0
 30
0.0
  9
$UCSYDIR
 10
0.0
 20
1.0
 30
0.0
  9
$PUCSNAME
  2

  9
$PUCSORG
 10
0.0
 20
0.0
 30
0.0
  9
$PUCSXDIR
 10
1.0
 20
0.0
 30
0.0
  9
$PUCSYDIR
 10
0.0
 20
1.0
 30
0.0
  9
$USERI1
 70
         0
  9
$USERI2
 70
         0
  9
$USERI3
 70
         0
  9
$USERI4
 70
         0
  9
$USERI5
 70
         0
  9
$USERR1
 40
0.0
  9
$USERR2
 40
0.0
  9
$USERR3
 40
0.0
  9
$USERR4
 40
0.0
  9
$USERR5
 40
0.0
  9
$WORLDVIEW
 70
         1
  9
$SHADEDGE
 70
         3
  9
$SHADEDIF
 70
        70
  9
$TILEMODE
 70
         1
  9
$MAXACTVP
 70
        16
  9
$PINSBASE
 10
0.0
 20
0.0
 30
0.0
  9
$PLIMCHECK
 70
         0
  9
$PEXTMIN
 10
1.0000000000E+20
 20
1.0000000000E+20
 30
1.0000000000E+20
  9
$PEXTMAX
 10
-1.0000000000E+20
 20
-1.0000000000E+20
 30
-1.0000000000E+20
  9
$PLIMMIN
 10
0.0
 20
0.0
  9
$PLIMMAX
 10
12.0
 20
9.0
  9
$UNITMODE
 70
         0
  9
$VISRETAIN
 70
         0
  9
$PLINEGEN
 70
         1
  9
$PSLTSCALE
 70
         0
  9
$TREEDEPTH
 70
      3020
  9
$PICKSTYLE
 70
         1
  9
$CMLSTYLE
  2
Standard
  9
$CMLJUST
 70
         0
  9
$CMLSCALE
 40
1.0
  9
$PROXYGRAPHICS
 70
         0
  9
$MEASUREMENT
 70
         0
  0
ENDSEC
  0
SECTION
  2
CLASSES
  0
CLASS
  1
LWPOLYLINE
  2
AcDbPolyline
  3
"AutoCAD"
 90
        0
280
         0
281
         1
  0
CLASS
  1
IMAGE
  2
AcDbRasterImage
  3
ISM
 90
      127
280
         0
281
         1
  0
CLASS
  1
OLE2FRAME
  2
AcDbOle2Frame
  3
""
 90
        0
280
         0
281
         1
  0
CLASS
  1
HATCH
  2
AcDbHatch
  3
"ACAD_SEDONA"
 90
        0
280
         0
281
         1
  0
CLASS
  1
DICTIONARYVAR
  2
AcDbDictionaryVar
  3
"AutoCAD"
 90
        0
280
         0
281
         0
  0
CLASS
  1
RASTERVARIABLES
  2
AcDbRasterVariables
  3
ISM
 90
        0
280
         0
281
         0
  0
CLASS
  1
IMAGEDEF
  2
AcDbRasterImageDef
  3
ISM
 90
        0
280
         0
281
         0
  0
CLASS
  1
IMAGEDEF_REACTOR
  2
AcDbRasterImageDefReactor
  3
ISM
 90
        1
280
         0
281
         0
  0
CLASS
  1
IDBUFFER
  2
AcDbIdBuffer
  3
"Acad"
 90
        0
280
         0
281
         0
  0
CLASS
  1
SPATIAL_FILTER
  2
AcDbSpatialFilter
  3
"Acad"
 90
        0
280
         0
281
         0
  0
CLASS
  1
XRECORD
  2
AcDbXrecord
  3
"<Built In>"
 90
        0
280
         0
281
         0
  0
CLASS
  1
SORTENTSTABLE
  2
AcDbSortentsTable
  3
"AutoCAD"
 90
        0
280
         0
281
         0
  0
CLASS
  1
LAYER_INDEX
  2
AcDbLayerIndex
  3
"Acad"
 90
        0
280
         0
281
         0
  0
CLASS
  1
SPATIAL_INDEX
  2
AcDbSpatialIndex
  3
"Acad"
 90
        0
280
         0
281
         0
  0
CLASS
  1
OBJECT_PTR
  2
CAseDLPNTableRecord
  3
"ASE-LPNTableRecord"
 90
        1
280
         0
281
         0
  0
CLASS
  1
LAYOUT
  2
AcDbLayout
  3
"AutoCAD 2000"
 90
        1
280
         0
281
         0
  0
CLASS
  1
PLOTSETTINGS
  2
AcDbPlotSettings
  3
"AutoCAD 2000"
 90
        1
280
         0
281
         0
  0
CLASS
  1
ACDBDICTIONARYWDFLT
  2
AcDbDictionaryWithDefault
  3
"AutoCAD 2000"
 90
        1
280
         0
281
         0
  0
CLASS
  1
ACDBPLACEHOLDER
  2
AcDbPlaceHolder
  3
"AutoCAD 2000"
 90
        1
280
         0
281
         0
  0
CLASS
  1
VBA_PROJECT
  2
AcDbVbaProject
  3
"acadvba"
 90
        1
280
         0
281
         0
  0
CLASS
  1
WIPEOUT
  2
AcDbWipeout
  3
WipeOut|AutoCAD Express Tool|expresstools@autodesk.com
 90
      127
280
         0
281
         1
  0
CLASS
  1
WIPEOUTVARIABLES
  2
AcDbWipeoutVariables
  3
WipeOut|AutoCAD Express Tool|expresstools@autodesk.com
 90
        0
280
         0
281
         0
  0
CLASS
  1
RTEXT
  2
RText
  3
RText|AutoCAD Express Tool|expresstools@autodesk.com
 90
        0
280
         0
281
         1
  0
CLASS
  1
ARCALIGNEDTEXT
  2
AcDbArcAlignedText
  3
ATEXT|AutoCAD Express Tool|expresstools@autodesk.com
 90
        0
280
         0
281
         1
  0
ENDSEC
  0
SECTION
  2
TABLES
  0
TABLE
  2
VPORT
  5
7
100
AcDbSymbolTable
 70
         1
  0
VPORT
  5
15
100
AcDbSymbolTableRecord
100
AcDbViewportTableRecord
  2
*ACTIVE
 70
         0
 10
0.0
 20
0.0
 11
1.0
 21
1.0
 12
210.0
 22
148.5
 13
0.0
 23
0.0
 14
1.0
 24
1.0
 15
0.0
 25
0.0
 16
0.0
 26
0.0
 36
1.0
 17
0.0
 27
0.0
 37
0.0
 40
297.0
 41
1.604229
 42
50.0
 43
0.0
 44
0.0
 50
0.0
 51
0.0
 71
         0
 72
       100
 73
         1
 74
         1
 75
         0
 76
         0
 77
         0
 78
         0
  0
ENDTAB
  0
TABLE
  2
LTYPE
  5
4
100
AcDbSymbolTable
 70
         7
  0
LTYPE
  5
11
100
AcDbSymbolTableRecord
100
AcDbLinetypeTableRecord
  2
ByBlock
 70
        64
  3

 72
        65
 73
         0
 40
0.0
  0
LTYPE
  5
12
100
AcDbSymbolTableRecord
100
AcDbLinetypeTableRecord
  2
ByLayer
 70
        64
  3

 72
        65
 73
         0
 40
0.0
  0
LTYPE
  5
13
100
AcDbSymbolTableRecord
100
AcDbLinetypeTableRecord
  2
CONTINUOUS
 70
         0
  3
Solid line
 72
        65
 73
         0
 40
0.0
  0
LTYPE
  5
28
100
AcDbSymbolTableRecord
100
AcDbLinetypeTableRecord
  2
HIDDEN2
 70
        64
  3
_ _ _ _ _ _ _ _ _ _ _ _ _ _ _ _ _ _ _ _ _ _ _ _
 72
        65
 73
         2
 40
0.1875
 49
0.125
 74
         0
 49
-0.0625
 74
         0
  0
LTYPE
  5
29
100
AcDbSymbolTableRecord
100
AcDbLinetypeTableRecord
  2
CENTER2
 70
        64
  3
___ _ ___ _ ___ _ ___ _ ___ _ ___ _ ___ _ ___ _
 72
        65
 73
         4
 40
1.125
 49
0.75
 74
         0
 49
-0.125
 74
         0
 49
0.125
 74
         0
 49
-0.125
 74
         0
  0
LTYPE
  5
2A
100
AcDbSymbolTableRecord
100
AcDbLinetypeTableRecord
  2
PHANTOM2
 70
        64
  3
___ _ _ ___ _ _ ___ _ _ ___ _ _ ___ _ _ ___ _ _
 72
        65
 73
         6
 40
1.25
 49
0.625
 74
         0
 49
-0.125
 74
         0
 49
0.125
 74
         0
 49
-0.125
 74
         0
 49
0.125
 74
         0
 49
-0.125
 74
         0
  0
LTYPE
  5
2B
100
AcDbSymbolTableRecord
100
AcDbLinetypeTableRecord
  2
DOT2
 70
        64
  3
...............................................
 72
        65
 73
         2
 40
0.125
 49
0.0
 74
         0
 49
-0.125
 74
         0
  0
ENDTAB
  0
TABLE
  2
LAYER
  5
2
100
AcDbSymbolTable
 70
         3
  0
LAYER
  5
14
100
AcDbSymbolTableRecord
100
AcDbLayerTableRecord
  2
0
 70
         0
 62
         7
  6
CONTINUOUS
  0
LAYER
  5
2D
100
AcDbSymbolTableRecord
100
AcDbLayerTableRecord
  2
DEFAULT
 70
         0
 62
         7
  6
CONTINUOUS
  0
LAYER
  5
37
100
AcDbSymbolTableRecord
100
AcDbLayerTableRecord
  2
BPV_STRAIGHT_DN2
 70
         0
 62
         7
  6
CONTINUOUS
  0
ENDTAB
  0
TABLE
  2
STYLE
  5
3
100
AcDbSymbolTable
 70
         1
  0
STYLE
  5
17
100
AcDbSymbolTableRecord
100
AcDbTextStyleTableRecord
  2
Standard
 70
         0
 40
0.0
 41
1.0
 50
0.0
 71
         0
 42
0.2
  3
txt
  4

  0
ENDTAB
  0
TABLE
  2
VIEW
  5
5
100
AcDbSymbolTable
 70
         0
  0
ENDTAB
  0
TABLE
  2
UCS
  5
6
100
AcDbSymbolTable
 70
         0
  0
ENDTAB
  0
TABLE
  2
APPID
  5
8
100
AcDbSymbolTable
 70
         1
  0
APPID
  5
16
100
AcDbSymbolTableRecord
100
AcDbRegAppTableRecord
  2
ACAD
 70
         0
  0
ENDTAB
  0
TABLE
  2
DIMSTYLE
  5
9
100
AcDbSymbolTable
 70
         1
  0
DIMSTYLE
105
18
100
AcDbSymbolTableRecord
100
AcDbDimStyleTableRecord
  2
Standard
 70
         0
  3

  4

  5

  6

  7

 40
1.0
 41
0.18
 42
0.0625
 43
0.38
 44
0.18
 45
0.0
 46
0.0
 47
0.0
 48
0.0
 71
         0
 72
         0
 73
         1
 74
         1
 75
         0
 76
         0
 77
         0
 78
         0
140
0.18
141
0.09
142
0.0
143
25.4
144
1.0
145
0.0
146
1.0
147
0.09
170
         0
171
         2
172
         0
173
         0
174
         0
175
         0
176
         0
177
         0
178
         0
270
         2
271
         4
272
         4
273
         2
274
         2
275
         0
280
         0
281
         0
282
         0
283
         1
284
         0
285
         0
286
         0
287
         0
288
         0
340
17
  0
ENDTAB
  0
TABLE
  2
BLOCK_RECORD
  5
1
100
AcDbSymbolTable
 70
         8
  0
BLOCK_RECORD
  5
A
100
AcDbSymbolTableRecord
100
AcDbBlockTableRecord
  2
*MODEL_SPACE
  0
BLOCK_RECORD
  5
B
100
AcDbSymbolTableRecord
100
AcDbBlockTableRecord
  2
*PAPER_SPACE
  0
BLOCK_RECORD
  5
38
100
AcDbSymbolTableRecord
100
AcDbBlockTableRecord
  2
SE0
  0
BLOCK_RECORD
  5
39
100
AcDbSymbolTableRecord
100
AcDbBlockTableRecord
  2
SE1
  0
BLOCK_RECORD
  5
3F
100
AcDbSymbolTableRecord
100
AcDbBlockTableRecord
  2
SE2
  0
BLOCK_RECORD
  5
40
100
AcDbSymbolTableRecord
100
AcDbBlockTableRecord
  2
SE3
  0
BLOCK_RECORD
  5
46
100
AcDbSymbolTableRecord
100
AcDbBlockTableRecord
  2
SE4
  0
BLOCK_RECORD
  5
47
100
AcDbSymbolTableRecord
100
AcDbBlockTableRecord
  2
SE5
  0
BLOCK_RECORD
  5
4D
100
AcDbSymbolTableRecord
100
AcDbBlockTableRecord
  2
SE6
  0
BLOCK_RECORD
  5
4E
100
AcDbSymbolTableRecord
100
AcDbBlockTableRecord
  2
SE7
  0
ENDTAB
  0
ENDSEC
  0
SECTION
  2
BLOCKS
  0
BLOCK
  5
D
100
AcDbEntity
  8
0
100
AcDbBlockBegin
  2
*MODEL_SPACE
 70
         0
 10
0.0
 20
0.0
 30
0.0
  3
*MODEL_SPACE
  1

  0
ENDBLK
  5
E
100
AcDbEntity
  8
0
100
AcDbBlockEnd
  0
BLOCK
  5
F
100
AcDbEntity
 67
         1
  8
0
100
AcDbBlockBegin
  2
*PAPER_SPACE
 70
         0
 10
0.0
 20
0.0
 30
0.0
  3
*PAPER_SPACE
  1

  0
ENDBLK
  5
10
100
AcDbEntity
 67
         1
  8
0
100
AcDbBlockEnd
  0
BLOCK
  5
FC
100
AcDbEntity
  8
0
 62
         1
 48
0.0
100
AcDbBlockBegin
  2
SE0
 70
         0
 10
0.0
 20
0.0
 30
0.0
  3
SE0
  1

  0
ENDBLK
  5
FD
100
AcDbEntity
  8
0
 62
         1
 48
0.0
100
AcDbBlockEnd
  0
BLOCK
  5
54
100
AcDbEntity
  8
0
 62
         1
 48
0.0
100
AcDbBlockBegin
  2
SE1
 70
         0
 10
0.0
 20
0.0
 30
0.0
  3
SE1
  1

  0
LINE
  5
55
100
AcDbEntity
  8
BPV_STRAIGHT_DN2
  6
CONTINUOUS
 62
         7
100
AcDbLine
 10
102.4053625579
 20
100.6149284693
 30
0.0
 11
100.8487382309
 21
97.9187760466
 31
0.0
  0
LINE
  5
56
100
AcDbEntity
  8
BPV_STRAIGHT_DN2
  6
CONTINUOUS
 62
         7
100
AcDbLine
 10
77.4660523287
 20
111.4187760466
 30
0.0
 11
79.0226766557
 21
114.1149284693
 31
0.0
  0
LINE
  5
57
100
AcDbEntity
  8
BPV_STRAIGHT_DN2
  6
CONTINUOUS
 62
         7
100
AcDbLine
 10
79.9645868198
 20
113.5711163825
 30
0.0
 11
79.0226766557
 21
114.1149284693
 31
0.0
  0
LINE
  5
58
100
AcDbEntity
  8
BPV_STRAIGHT_DN2
  6
CONTINUOUS
 62
         7
100
AcDbLine
 10
99.8383752598
 20
97.1687760466
 30
0.0
 11
77.3217147614
 21
110.1687760466
 31
0.0
  0
LINE
  5
59
100
AcDbEntity
  8
BPV_STRAIGHT_DN2
  6
CONTINUOUS
 62
         7
100
AcDbLine
 10
96.5883752598
 20
91.539610922
 30
0.0
 11
74.0717147614
 21
104.539610922
 31
0.0
  0
LINE
  5
5A
100
AcDbEntity
  8
BPV_STRAIGHT_DN2
  6
CONTINUOUS
 62
         7
100
AcDbLine
 10
75.8306122236
 20
106.4108623447
 30
0.0
 11
85.6381348465
 21
100.7484865182
 31
0.0
  0
LINE
  5
5B
100
AcDbEntity
  8
BPV_STRAIGHT_DN2
  6
CONTINUOUS
 62
         7
100
AcDbLine
 10
86.6381348465
 20
102.4805373258
 30
0.0
 11
76.8306122236
 21
108.1429131522
 31
0.0
  0
LINE
  5
5C
100
AcDbEntity
  8
BPV_STRAIGHT_DN2
  6
CONTINUOUS
 62
         7
100
AcDbLine
 10
76.8306122236
 20
108.1429131522
 30
0.0
 11
75.8306122236
 21
106.4108623447
 31
0.0
  0
LINE
  5
5D
100
AcDbEntity
  8
BPV_STRAIGHT_DN2
  6
CONTINUOUS
 62
         7
100
AcDbLine
 10
85.6381348465
 20
100.7484865182
 30
0.0
 11
86.6381348465
 21
102.4805373258
 31
0.0
  0
ARC
  5
5E
100
AcDbEntity
  8
BPV_STRAIGHT_DN2
  6
CONTINUOUS
 62
         7
100
AcDbCircle
 10
92.4275644734
 20
123.8328752392
 30
0.0
 40
19.0907491844
100
AcDbArc
 50
222.7463074371
 51
257.2536925629
  0
LINE
  5
5F
100
AcDbEntity
  8
BPV_STRAIGHT_DN2
  6
CONTINUOUS
 62
         7
100
AcDbLine
 10
74.8887020595
 20
106.9546744314
 30
0.0
 11
75.8887020595
 21
108.686725239
 31
0.0
  0
LINE
  5
60
100
AcDbEntity
  8
BPV_STRAIGHT_DN2
  6
CONTINUOUS
 62
         7
100
AcDbLine
 10
79.9645868198
 20
113.5711163825
 30
0.0
 11
78.4079624927
 21
110.8749639598
 31
0.0
  0
LINE
  5
61
100
AcDbEntity
  8
BPV_STRAIGHT_DN2
  6
CONTINUOUS
 62
         7
100
AcDbLine
 10
77.4660523287
 20
111.4187760466
 30
0.0
 11
77.0330397186
 21
110.6687762057
 31
0.0
  0
LINE
  5
62
100
AcDbEntity
  8
BPV_STRAIGHT_DN2
  6
CONTINUOUS
 62
         7
100
AcDbLine
 10
88.2154851157
 20
105.2125881334
 30
0.0
 11
89.7721094427
 21
107.9087405561
 31
0.0
  0
LINE
  5
63
100
AcDbEntity
  8
BPV_STRAIGHT_DN2
  6
CONTINUOUS
 62
         7
100
AcDbLine
 10
102.838375172
 20
101.3649283173
 30
0.0
 11
102.4053625579
 21
100.6149284693
 31
0.0
  0
LINE
  5
64
100
AcDbEntity
  8
BPV_STRAIGHT_DN2
  6
CONTINUOUS
 62
         7
100
AcDbLine
 10
100.4157256208
 20
97.1687762057
 30
0.0
 11
100.8487382309
 21
97.9187760466
 31
0.0
  0
LINE
  5
65
100
AcDbEntity
  8
BPV_STRAIGHT_DN2
  6
CONTINUOUS
 62
         7
100
AcDbLine
 10
116.222349856
 20
127.5466524771
 30
0.0
 11
95.4377401652
 21
139.5466524771
 31
0.0
  0
ARC
  5
66
100
AcDbEntity
  8
BPV_STRAIGHT_DN2
  6
CONTINUOUS
 62
         7
100
AcDbCircle
 10
87.4438504132
 20
88.2008292766
 30
0.0
 40
19.0907491844
100
AcDbArc
 50
42.7463074371
 51
77.2536925629
  0
LINE
  5
67
100
AcDbEntity
  8
BPV_STRAIGHT_DN2
  6
CONTINUOUS
 62
         7
100
AcDbLine
 10
98.4185022787
 20
84.7094839031
 30
0.0
 11
99.9185019809
 21
87.3075595987
 31
0.0
  0
ARC
  5
68
100
AcDbEntity
  8
BPV_STRAIGHT_DN2
  6
CONTINUOUS
 62
         7
100
AcDbCircle
 10
151.7429903984
 20
-21.6122617971
 30
0.0
 40
101.0097857398
100
AcDbArc
 50
131.0711110384
 51
137.0371304538
  0
LINE
  5
69
100
AcDbEntity
  8
BPV_STRAIGHT_DN2
  6
CONTINUOUS
 62
         7
100
AcDbLine
 10
10.0350103422
 20
56.6187945514
 30
0.0
 11
11.1892888229
 21
56.6187945514
 31
0.0
  0
LINE
  5
6A
100
AcDbEntity
  8
BPV_STRAIGHT_DN2
  6
CONTINUOUS
 62
         7
100
AcDbLine
 10
96.0350103422
 20
15.6187945514
 30
0.0
 11
97.1892888229
 21
15.6187945514
 31
0.0
  0
LINE
  5
6B
100
AcDbEntity
  8
BPV_STRAIGHT_DN2
  6
CONTINUOUS
 62
         7
100
AcDbLine
 10
21.125079679
 20
56.6187945514
 30
0.0
 11
19.9708011983
 21
56.6187945514
 31
0.0
  0
ARC
  5
6C
100
AcDbEntity
  8
BPV_STRAIGHT_DN2
  6
CONTINUOUS
 62
         7
100
AcDbCircle
 10
-25.3810870891
 20
46.3687945514
 30
0.0
 40
46.4957661646
100
AcDbArc
 50
347.2645244266
 51
12.7354755734
  0
LINE
  5
6D
100
AcDbEntity
  8
BPV_STRAIGHT_DN2
  6
CONTINUOUS
 62
         7
100
AcDbLine
 10
21.125079679
 20
15.6187945514
 30
0.0
 11
19.9708011983
 21
15.6187945514
 31
0.0
  0
LINE
  5
6E
100
AcDbEntity
  8
BPV_STRAIGHT_DN2
  6
CONTINUOUS
 62
         7
100
AcDbLine
 10
19.9708011983
 20
56.6187945514
 30
0.0
 11
11.1892888229
 21
56.6187945514
 31
0.0
  0
ARC
  5
6F
100
AcDbEntity
  8
BPV_STRAIGHT_DN2
  6
CONTINUOUS
 62
         7
100
AcDbCircle
 10
142.5411771103
 20
25.8687945514
 30
0.0
 40
46.4957661646
100
AcDbArc
 50
167.2645244266
 51
192.7354755734
  0
ARC
  5
70
100
AcDbEntity
  8
BPV_STRAIGHT_DN2
  6
CONTINUOUS
 62
         7
100
AcDbCircle
 10
1266.1773616663
 20
912.602750115
 30
0.0
 40
1502.1702588181
100
AcDbArc
 50
215.1200723791
 51
215.2429215922
  0
ARC
  5
71
100
AcDbEntity
  8
BPV_STRAIGHT_DN2
  6
CONTINUOUS
 62
         7
100
AcDbCircle
 10
36.7769143556
 20
178.7257720606
 30
0.0
 40
137.7719862979
100
AcDbArc
 50
285.3259037281
 51
287.3179385374
  0
LINE
  5
72
100
AcDbEntity
  8
BPV_STRAIGHT_DN2
  6
CONTINUOUS
 62
         7
100
AcDbLine
 10
77.7880226056
 20
47.1993138532
 30
0.0
 11
77.8244821071
 21
47.2283580954
 31
0.0
  0
ARC
  5
73
100
AcDbEntity
  8
BPV_STRAIGHT_DN2
  6
CONTINUOUS
 62
         7
100
AcDbCircle
 10
-15.6648682314
 20
37.757889226
 30
0.0
 40
54.2030221043
100
AcDbArc
 50
11.3406395359
 51
17.2064421693
  0
LINE
  5
74
100
AcDbEntity
  8
BPV_STRAIGHT_DN2
  6
CONTINUOUS
 62
         7
100
AcDbLine
 10
37.4798630933
 20
48.4164603151
 30
0.0
 11
62.5861974009
 21
33.9213114443
 31
0.0
  0
LINE
  5
75
100
AcDbEntity
  8
BPV_STRAIGHT_DN2
  6
CONTINUOUS
 62
         7
100
AcDbLine
 10
41.9444734254
 20
63.8935966211
 30
0.0
 11
73.1913046856
 21
45.8532301817
 31
0.0
  0
SPLINE
  5
76
100
AcDbEntity
  8
BPV_STRAIGHT_DN2
  6
CONTINUOUS
 62
         7
100
AcDbSpline
210
0.0
220
0.0
230
1.0
 70
         8
 71
         3
 72
        12
 73
         8
 74
         0
 42
0.0
 43
0.0
 40
0.0
 40
0.0
 40
0.0
 40
0.0
 40
0.2500000000000001
 40
0.2500000000000001
 40
0.5000000000000001
 40
0.5000000000000001
 40
1.0
 40
1.0
 40
1.0
 40
1.0
 10
62.586197400892971
 20
33.921311444272931
 30
0.0
 10
63.07379811091986
 20
35.231727744935419
 30
0.0
 10
63.751982212792825
 20
36.429016996266625
 30
0.0
 10
65.35430929971821
 20
38.677662384024565
 30
0.0
 10
66.274435806887666
 20
39.722483161168498
 30
0.0
 10
69.117409698723037
 20
42.61398431948674
 30
0.0
 10
71.177188058969946
 20
44.302450841437299
 30
0.0
 10
73.191304685628012
 20
45.853230181690002
 30
0.0
  0
SPLINE
  5
77
100
AcDbEntity
  8
BPV_STRAIGHT_DN2
  6
CONTINUOUS
 62
         7
100
AcDbSpline
210
0.0
220
0.0
230
1.0
 70
         8
 71
         3
 72
        16
 73
        12
 74
         0
 42
0.0
 43
0.0
 40
0.0
 40
0.0
 40
0.0
 40
0.0
 40
0.25
 40
0.25
 40
0.4999999999999999
 40
0.4999999999999999
 40
0.625
 40
0.625
 40
0.75
 40
0.75
 40
1.0
 40
1.0
 40
1.0
 40
1.0
 10
39.335607914081841
 20
45.783969903280742
 30
0.0
 10
40.712911293167721
 20
44.261315328517888
 30
0.0
 10
42.205743920881986
 20
42.685031116856436
 30
0.0
 10
45.52125752200002
 20
39.61259967355744
 30
0.0
 10
47.314780314204832
 20
38.148886639740539
 30
0.0
 10
50.277421103805082
 20
36.380299844490374
 30
0.0
 10
51.327796342629647
 20
35.856412180971311
 30
0.0
 10
53.47702946927226
 20
35.014905968109765
 30
0.0
 10
54.576535025695755
 20
34.694032748876865
 30
0.0
 10
57.940986272397325
 20
33.993004034881494
 30
0.0
 10
60.281150029215041
 20
33.872940400719585
 30
0.0
 10
62.586197400892971
 20
33.921311444272931
 30
0.0
  0
LINE
  5
78
100
AcDbEntity
  8
BPV_STRAIGHT_DN2
  6
CONTINUOUS
 62
         7
100
AcDbLine
 10
95.4185022787
 20
79.5133314804
 30
0.0
 11
97.6146547014
 21
77.3171790576
 31
0.0
  0
LINE
  5
79
100
AcDbEntity
  8
BPV_STRAIGHT_DN2
  6
CONTINUOUS
 62
         7
100
AcDbLine
 10
98.4185022787
 20
84.7094839031
 30
0.0
 11
95.4185022787
 21
79.5133314804
 31
0.0
  0
LINE
  5
7A
100
AcDbEntity
  8
BPV_STRAIGHT_DN2
  6
CONTINUOUS
 62
         7
100
AcDbLine
 10
64.2415877425
 20
97.5133314804
 30
0.0
 11
67.2415877425
 21
102.7094839031
 31
0.0
  0
LINE
  5
7B
100
AcDbEntity
  8
BPV_STRAIGHT_DN2
  6
CONTINUOUS
 62
         7
100
AcDbLine
 10
64.2415877425
 20
97.5133314804
 30
0.0
 11
61.2415877425
 21
98.3171790576
 31
0.0
  0
LINE
  5
7C
100
AcDbEntity
  8
BPV_STRAIGHT_DN2
  6
CONTINUOUS
 62
         7
100
AcDbLine
 10
99.5524768749
 20
88.6735855182
 30
0.0
 11
70.1076131462
 21
105.6735855182
 31
0.0
  0
LINE
  5
7D
100
AcDbEntity
  8
BPV_STRAIGHT_DN2
  6
CONTINUOUS
 62
         7
100
AcDbLine
 10
98.4185022787
 20
84.7094839031
 30
0.0
 11
67.2415877425
 21
102.7094839031
 31
0.0
  0
LINE
  5
7E
100
AcDbEntity
  8
BPV_STRAIGHT_DN2
  6
CONTINUOUS
 62
         7
100
AcDbLine
 10
93.3125338415
 20
69.8656871479
 30
0.0
 11
56.9394668825
 21
90.8656871479
 31
0.0
  0
LINE
  5
7F
100
AcDbEntity
  8
BPV_STRAIGHT_DN2
  6
CONTINUOUS
 62
         7
100
AcDbLine
 10
52.2704353198
 20
88.7786872591
 30
0.0
 11
93.8396547014
 21
64.7786872591
 31
0.0
  0
LINE
  5
80
100
AcDbEntity
  8
BPV_STRAIGHT_DN2
  6
CONTINUOUS
 62
         7
100
AcDbLine
 10
50.8954353198
 20
86.3971173987
 30
0.0
 11
92.4646547014
 21
62.3971173987
 31
0.0
  0
LINE
  5
81
100
AcDbEntity
  8
BPV_STRAIGHT_DN2
  6
CONTINUOUS
 62
         7
100
AcDbLine
 10
85.3800450106
 20
54.5384853736
 30
0.0
 11
85.3800450106
 21
16.8687945514
 31
0.0
  0
LINE
  5
82
100
AcDbEntity
  8
BPV_STRAIGHT_DN2
  6
CONTINUOUS
 62
         7
100
AcDbLine
 10
77.8244821071
 20
19.6187945514
 30
0.0
 11
77.8244821071
 21
47.2283580954
 31
0.0
  0
LINE
  5
83
100
AcDbEntity
  8
BPV_STRAIGHT_DN2
  6
CONTINUOUS
 62
         7
100
AcDbLine
 10
41.9444734254
 20
67.8935966211
 30
0.0
 11
77.7880226056
 21
47.1993138532
 31
0.0
  0
LINE
  5
84
100
AcDbEntity
  8
BPV_STRAIGHT_DN2
  6
CONTINUOUS
 62
         7
100
AcDbLine
 10
50.8954353198
 20
83.3971173987
 30
0.0
 11
89.8665784901
 21
60.8971173987
 31
0.0
  0
LINE
  5
85
100
AcDbEntity
  8
BPV_STRAIGHT_DN2
  6
CONTINUOUS
 62
         7
100
AcDbLine
 10
39.3356079141
 20
45.7839699033
 30
0.0
 11
39.3356079141
 21
36.8665446837
 31
0.0
  0
LINE
  5
86
100
AcDbEntity
  8
BPV_STRAIGHT_DN2
  6
CONTINUOUS
 62
         7
100
AcDbLine
 10
10.0350103422
 20
15.6187945514
 30
0.0
 11
11.1892888229
 21
15.6187945514
 31
0.0
  0
LINE
  5
87
100
AcDbEntity
  8
BPV_STRAIGHT_DN2
  6
CONTINUOUS
 62
         7
100
AcDbLine
 10
95.5800450106
 20
55.3687945514
 30
0.0
 11
95.5800450106
 21
16.8687945514
 31
0.0
  0
ARC
  5
88
100
AcDbEntity
  8
BPV_STRAIGHT_DN2
  6
CONTINUOUS
 62
         7
100
AcDbCircle
 10
56.5411771103
 20
25.8687945514
 30
0.0
 40
46.4957661646
100
AcDbArc
 50
167.2645244266
 51
192.7354755734
  0
LINE
  5
89
100
AcDbEntity
  8
BPV_STRAIGHT_DN2
  6
CONTINUOUS
 62
         7
100
AcDbLine
 10
107.5800450106
 20
55.3687945514
 30
0.0
 11
107.5800450106
 21
16.8687945514
 31
0.0
  0
LINE
  5
8A
100
AcDbEntity
  8
BPV_STRAIGHT_DN2
  6
CONTINUOUS
 62
         7
100
AcDbLine
 10
19.9708011983
 20
15.6187945514
 30
0.0
 11
11.1892888229
 21
15.6187945514
 31
0.0
  0
LINE
  5
8B
100
AcDbEntity
  8
BPV_STRAIGHT_DN2
  6
CONTINUOUS
 62
         7
100
AcDbLine
 10
96.0350103422
 20
56.6187945514
 30
0.0
 11
97.1892888229
 21
56.6187945514
 31
0.0
  0
LINE
  5
8C
100
AcDbEntity
  8
BPV_STRAIGHT_DN2
  6
CONTINUOUS
 62
         7
100
AcDbLine
 10
19.9708011983
 20
36.1187945514
 30
0.0
 11
11.1892888229
 21
36.1187945514
 31
0.0
  0
ARC
  5
8D
100
AcDbEntity
  8
BPV_STRAIGHT_DN2
  6
CONTINUOUS
 62
         7
100
AcDbCircle
 10
142.5411771103
 20
46.3687945514
 30
0.0
 40
46.4957661646
100
AcDbArc
 50
167.2645244266
 51
192.7354755734
  0
LINE
  5
8E
100
AcDbEntity
  8
BPV_STRAIGHT_DN2
  6
CONTINUOUS
 62
         7
100
AcDbLine
 10
105.9708011983
 20
15.6187945514
 30
0.0
 11
97.1892888229
 21
15.6187945514
 31
0.0
  0
ARC
  5
8F
100
AcDbEntity
  8
BPV_STRAIGHT_DN2
  6
CONTINUOUS
 62
         7
100
AcDbCircle
 10
-25.3810870891
 20
25.8687945514
 30
0.0
 40
46.4957661646
100
AcDbArc
 50
347.2645244266
 51
12.7354755734
  0
LINE
  5
90
100
AcDbEntity
  8
BPV_STRAIGHT_DN2
  6
CONTINUOUS
 62
         7
100
AcDbLine
 10
105.9708011983
 20
56.6187945514
 30
0.0
 11
97.1892888229
 21
56.6187945514
 31
0.0
  0
ARC
  5
91
100
AcDbEntity
  8
BPV_STRAIGHT_DN2
  6
CONTINUOUS
 62
         7
100
AcDbCircle
 10
56.5411771103
 20
46.3687945514
 30
0.0
 40
46.4957661646
100
AcDbArc
 50
167.2645244266
 51
192.7354755734
  0
ARC
  5
92
100
AcDbEntity
  8
BPV_STRAIGHT_DN2
  6
CONTINUOUS
 62
         7
100
AcDbCircle
 10
60.6189129109
 20
46.3687945514
 30
0.0
 40
46.4957661646
100
AcDbArc
 50
347.2645244266
 51
12.7354755734
  0
ARC
  5
93
100
AcDbEntity
  8
BPV_STRAIGHT_DN2
  6
CONTINUOUS
 62
         7
100
AcDbCircle
 10
60.6189129109
 20
25.8687945514
 30
0.0
 40
46.4957661646
100
AcDbArc
 50
347.2645244266
 51
12.7354755734
  0
LINE
  5
94
100
AcDbEntity
  8
BPV_STRAIGHT_DN2
  6
CONTINUOUS
 62
         7
100
AcDbLine
 10
107.125079679
 20
15.6187945514
 30
0.0
 11
105.9708011983
 21
15.6187945514
 31
0.0
  0
LINE
  5
95
100
AcDbEntity
  8
BPV_STRAIGHT_DN2
  6
CONTINUOUS
 62
         7
100
AcDbLine
 10
39.3356079141
 20
19.6187945514
 30
0.0
 11
39.3356079141
 21
35.3710444191
 31
0.0
  0
LINE
  5
96
100
AcDbEntity
  8
BPV_STRAIGHT_DN2
  6
CONTINUOUS
 62
         7
100
AcDbLine
 10
31.7800450106
 20
55.3687945514
 30
0.0
 11
31.7800450106
 21
16.8687945514
 31
0.0
  0
LINE
  5
97
100
AcDbEntity
  8
BPV_STRAIGHT_DN2
  6
CONTINUOUS
 62
         7
100
AcDbLine
 10
9.5800450106
 20
55.3687945514
 30
0.0
 11
9.5800450106
 21
16.8687945514
 31
0.0
  0
LINE
  5
98
100
AcDbEntity
  8
BPV_STRAIGHT_DN2
  6
CONTINUOUS
 62
         7
100
AcDbLine
 10
21.5800450106
 20
55.3687945514
 30
0.0
 11
21.5800450106
 21
16.8687945514
 31
0.0
  0
LINE
  5
99
100
AcDbEntity
  8
BPV_STRAIGHT_DN2
  6
CONTINUOUS
 62
         7
100
AcDbLine
 10
44.1255717443
 20
33.6187945514
 30
0.0
 11
46.6255717443
 21
36.1187945514
 31
0.0
  0
LINE
  5
9A
100
AcDbEntity
  8
BPV_STRAIGHT_DN2
  6
CONTINUOUS
 62
         7
100
AcDbLine
 10
46.6255717443
 20
36.1187945514
 30
0.0
 11
44.1255717443
 21
38.6187945514
 31
0.0
  0
LINE
  5
9B
100
AcDbEntity
  8
BPV_STRAIGHT_DN2
  6
CONTINUOUS
 62
         7
100
AcDbLine
 10
42.8629989545
 20
35.3710444191
 30
0.0
 11
42.8629989545
 21
33.6187945514
 31
0.0
  0
LINE
  5
9C
100
AcDbEntity
  8
BPV_STRAIGHT_DN2
  6
CONTINUOUS
 62
         7
100
AcDbLine
 10
44.1255717443
 20
38.6187945514
 30
0.0
 11
42.8629989545
 21
38.6187945514
 31
0.0
  0
LINE
  5
9D
100
AcDbEntity
  8
BPV_STRAIGHT_DN2
  6
CONTINUOUS
 62
         7
100
AcDbLine
 10
42.8629989545
 20
38.6187945514
 30
0.0
 11
42.8629989545
 21
36.8665446837
 31
0.0
  0
LINE
  5
9E
100
AcDbEntity
  8
BPV_STRAIGHT_DN2
  6
CONTINUOUS
 62
         7
100
AcDbLine
 10
42.8629989545
 20
36.8665446837
 30
0.0
 11
38.0800450106
 21
36.8665446837
 31
0.0
  0
LINE
  5
9F
100
AcDbEntity
  8
BPV_STRAIGHT_DN2
  6
CONTINUOUS
 62
         7
100
AcDbLine
 10
38.0800450106
 20
36.8665446837
 30
0.0
 11
38.0800450106
 21
35.3710444191
 31
0.0
  0
LINE
  5
A0
100
AcDbEntity
  8
BPV_STRAIGHT_DN2
  6
CONTINUOUS
 62
         7
100
AcDbLine
 10
38.0800450106
 20
35.3710444191
 30
0.0
 11
42.8629989545
 21
35.3710444191
 31
0.0
  0
LINE
  5
A1
100
AcDbEntity
  8
BPV_STRAIGHT_DN2
  6
CONTINUOUS
 62
         7
100
AcDbLine
 10
42.8629989545
 20
33.6187945514
 30
0.0
 11
44.1255717443
 21
33.6187945514
 31
0.0
  0
LINE
  5
A2
100
AcDbEntity
  8
BPV_STRAIGHT_DN2
  6
CONTINUOUS
 62
         7
100
AcDbLine
 10
68.7415863965
 20
105.3075577831
 30
0.0
 11
67.2415877425
 21
102.7094839031
 31
0.0
  0
LINE
  5
A3
100
AcDbEntity
  8
BPV_STRAIGHT_DN2
  6
CONTINUOUS
 62
         7
100
AcDbLine
 10
93.8646547014
 20
64.8219885293
 30
0.0
 11
52.2954353198
 21
88.8219885293
 31
0.0
  0
LINE
  5
A4
100
AcDbEntity
  8
BPV_STRAIGHT_DN2
  6
CONTINUOUS
 62
         7
100
AcDbLine
 10
95.3646547014
 20
67.4200647406
 30
0.0
 11
53.7954353198
 21
91.4200647406
 31
0.0
  0
LINE
  5
A5
100
AcDbEntity
  8
BPV_STRAIGHT_DN2
  6
CONTINUOUS
 62
         7
100
AcDbLine
 10
98.3294777976
 20
95.7305373258
 30
0.0
 11
88.5219551746
 21
101.3929131522
 31
0.0
  0
LINE
  5
A6
100
AcDbEntity
  8
BPV_STRAIGHT_DN2
  6
CONTINUOUS
 62
         7
100
AcDbLine
 10
99.9068280668
 20
98.4625881334
 30
0.0
 11
101.4634523938
 21
101.1587405561
 31
0.0
  0
LINE
  5
A7
100
AcDbEntity
  8
BPV_STRAIGHT_DN2
  6
CONTINUOUS
 62
         7
100
AcDbLine
 10
101.972349856
 20
102.8649284693
 30
0.0
 11
81.1877401652
 21
114.8649284693
 31
0.0
  0
ARC
  5
A8
100
AcDbEntity
  8
BPV_STRAIGHT_DN2
  6
CONTINUOUS
 62
         7
100
AcDbCircle
 10
104.1189074245
 20
117.0828752392
 30
0.0
 40
19.0907491844
100
AcDbArc
 50
222.7463074371
 51
257.2536925629
  0
LINE
  5
A9
100
AcDbEntity
  8
BPV_STRAIGHT_DN2
  6
CONTINUOUS
 62
         7
100
AcDbLine
 10
91.6559297709
 20
106.8211163825
 30
0.0
 11
90.0993054438
 21
104.1249639598
 31
0.0
  0
LINE
  5
AA
100
AcDbEntity
  8
BPV_STRAIGHT_DN2
  6
CONTINUOUS
 62
         7
100
AcDbLine
 10
87.5219551746
 20
99.6608623447
 30
0.0
 11
97.3294777976
 21
93.9984865182
 31
0.0
  0
LINE
  5
AB
100
AcDbEntity
  8
BPV_STRAIGHT_DN2
  6
CONTINUOUS
 62
         7
100
AcDbLine
 10
97.3294777976
 20
93.9984865182
 30
0.0
 11
98.3294777976
 21
95.7305373258
 31
0.0
  0
LINE
  5
AC
100
AcDbEntity
  8
BPV_STRAIGHT_DN2
  6
CONTINUOUS
 62
         7
100
AcDbLine
 10
88.5219551746
 20
101.3929131522
 30
0.0
 11
87.5219551746
 21
99.6608623447
 31
0.0
  0
LINE
  5
AD
100
AcDbEntity
  8
BPV_STRAIGHT_DN2
  6
CONTINUOUS
 62
         7
100
AcDbLine
 10
64.7195373215
 20
63.4105906857
 30
0.0
 11
66.0800450106
 21
64.6976328763
 31
0.0
  0
LINE
  5
AE
100
AcDbEntity
  8
BPV_STRAIGHT_DN2
  6
CONTINUOUS
 62
         7
100
AcDbLine
 10
66.0800450106
 20
64.6976328763
 30
0.0
 11
62.2500890691
 21
66.9088589701
 31
0.0
  0
LINE
  5
AF
100
AcDbEntity
  8
BPV_STRAIGHT_DN2
  6
CONTINUOUS
 62
         7
100
AcDbLine
 10
61.4570419372
 20
59.8611714457
 30
0.0
 11
63.8096093986
 21
63.935937817
 31
0.0
  0
LINE
  5
B0
100
AcDbEntity
  8
BPV_STRAIGHT_DN2
  6
CONTINUOUS
 62
         7
100
AcDbLine
 10
63.8096093986
 20
63.935937817
 30
0.0
 11
64.7195373215
 21
63.4105906857
 31
0.0
  0
LINE
  5
B1
100
AcDbEntity
  8
BPV_STRAIGHT_DN2
  6
CONTINUOUS
 62
         7
100
AcDbLine
 10
62.2500890691
 20
66.9088589701
 30
0.0
 11
60.8969551882
 21
65.6175595094
 31
0.0
  0
LINE
  5
B2
100
AcDbEntity
  8
BPV_STRAIGHT_DN2
  6
CONTINUOUS
 62
         7
100
AcDbLine
 10
62.1328054304
 20
64.9040410394
 30
0.0
 11
59.780237969
 21
60.8292746681
 31
0.0
  0
LINE
  5
B3
100
AcDbEntity
  8
BPV_STRAIGHT_DN2
  6
CONTINUOUS
 62
         7
100
AcDbLine
 10
60.8969551882
 20
65.6175595094
 30
0.0
 11
62.1328054304
 21
64.9040410394
 31
0.0
  0
LINE
  5
B4
100
AcDbEntity
  8
BPV_STRAIGHT_DN2
  6
CONTINUOUS
 62
         7
100
AcDbLine
 10
59.780237969
 20
60.8292746681
 30
0.0
 11
61.4570419372
 21
59.8611714457
 31
0.0
  0
LINE
  5
B5
100
AcDbEntity
  8
BPV_STRAIGHT_DN2
  6
CONTINUOUS
 62
         7
100
AcDbLine
 10
64.6007765691
 20
59.9829890112
 30
0.0
 11
65.6994739801
 21
59.3486557652
 31
0.0
  0
LINE
  5
B6
100
AcDbEntity
  8
BPV_STRAIGHT_DN2
  6
CONTINUOUS
 62
         7
100
AcDbLine
 10
66.8643625386
 20
62.3846409434
 30
0.0
 11
64.6007765691
 21
59.9829890113
 31
0.0
  0
LINE
  5
B7
100
AcDbEntity
  8
BPV_STRAIGHT_DN2
  6
CONTINUOUS
 62
         7
100
AcDbLine
 10
65.431524518
 20
57.5665028578
 30
0.0
 11
66.8643625386
 21
62.3846409434
 31
0.0
  0
LINE
  5
B8
100
AcDbEntity
  8
BPV_STRAIGHT_DN2
  6
CONTINUOUS
 62
         7
100
AcDbLine
 10
67.2086122767
 20
56.5405007619
 30
0.0
 11
65.431524518
 21
57.5665028578
 31
0.0
  0
LINE
  5
B9
100
AcDbEntity
  8
BPV_STRAIGHT_DN2
  6
CONTINUOUS
 62
         7
100
AcDbLine
 10
68.7891821167
 20
63.1335118388
 30
0.0
 11
67.2086122767
 21
56.5405007619
 31
0.0
  0
LINE
  5
BA
100
AcDbEntity
  8
BPV_STRAIGHT_DN2
  6
CONTINUOUS
 62
         7
100
AcDbLine
 10
64.4198380429
 20
58.1506003165
 30
0.0
 11
61.6295890474
 21
59.7615513252
 31
0.0
  0
LINE
  5
BB
100
AcDbEntity
  8
BPV_STRAIGHT_DN2
  6
CONTINUOUS
 62
         7
100
AcDbLine
 10
65.6994739801
 20
59.3486557652
 30
0.0
 11
64.4198380429
 21
58.1506003165
 31
0.0
  0
LINE
  5
BC
100
AcDbEntity
  8
BPV_STRAIGHT_DN2
  6
CONTINUOUS
 62
         7
100
AcDbLine
 10
61.6295890474
 20
59.7615513252
 30
0.0
 11
66.5490192075
 21
64.4268704975
 31
0.0
  0
LINE
  5
BD
100
AcDbEntity
  8
BPV_STRAIGHT_DN2
  6
CONTINUOUS
 62
         7
100
AcDbLine
 10
66.5490192075
 20
64.4268704975
 30
0.0
 11
68.7891821167
 21
63.1335118388
 31
0.0
  0
LINE
  5
BE
100
AcDbEntity
  8
BPV_STRAIGHT_DN2
  6
CONTINUOUS
 62
         7
100
AcDbLine
 10
102.8409197022
 20
101.3605213658
 30
0.0
 11
101.972349856
 21
102.8649284693
 31
0.0
  0
LINE
  5
BF
100
AcDbEntity
  8
BPV_STRAIGHT_DN2
  6
CONTINUOUS
 62
         7
100
AcDbLine
 10
75.8306122236
 20
106.4108623447
 30
0.0
 11
74.8887020595
 21
106.9546744314
 31
0.0
  0
LINE
  5
C0
100
AcDbEntity
  8
BPV_STRAIGHT_DN2
  6
CONTINUOUS
 62
         7
100
AcDbLine
 10
98.2713879617
 20
93.4546744314
 30
0.0
 11
97.3294777976
 21
93.9984865182
 31
0.0
  0
LINE
  5
C1
100
AcDbEntity
  8
BPV_STRAIGHT_DN2
  6
CONTINUOUS
 62
         7
100
AcDbLine
 10
87.5219551746
 20
99.6608623447
 30
0.0
 11
85.6381348465
 21
100.7484865182
 31
0.0
  0
LINE
  5
C2
100
AcDbEntity
  8
BPV_STRAIGHT_DN2
  6
CONTINUOUS
 62
         7
100
AcDbLine
 10
76.8306122236
 20
108.1429131522
 30
0.0
 11
75.8887020595
 21
108.686725239
 31
0.0
  0
LINE
  5
C3
100
AcDbEntity
  8
BPV_STRAIGHT_DN2
  6
CONTINUOUS
 62
         7
100
AcDbLine
 10
99.2713879617
 20
95.186725239
 30
0.0
 11
98.3294777976
 21
95.7305373258
 31
0.0
  0
LINE
  5
C4
100
AcDbEntity
  8
BPV_STRAIGHT_DN2
  6
CONTINUOUS
 62
         7
100
AcDbLine
 10
88.5219551746
 20
101.3929131522
 30
0.0
 11
86.6381348465
 21
102.4805373258
 31
0.0
  0
LINE
  5
C5
100
AcDbEntity
  8
BPV_STRAIGHT_DN2
  6
CONTINUOUS
 62
         7
100
AcDbLine
 10
99.2713879617
 20
95.186725239
 30
0.0
 11
98.2713879617
 21
93.4546744314
 31
0.0
  0
LINE
  5
C6
100
AcDbEntity
  8
BPV_STRAIGHT_DN2
  6
CONTINUOUS
 62
         7
100
AcDbLine
 10
102.4053625579
 20
100.6149284693
 30
0.0
 11
101.4634523938
 21
101.1587405561
 31
0.0
  0
LINE
  5
C7
100
AcDbEntity
  8
BPV_STRAIGHT_DN2
  6
CONTINUOUS
 62
         7
100
AcDbLine
 10
91.6559297709
 20
106.8211163825
 30
0.0
 11
89.7721094427
 21
107.9087405561
 31
0.0
  0
LINE
  5
C8
100
AcDbEntity
  8
BPV_STRAIGHT_DN2
  6
CONTINUOUS
 62
         7
100
AcDbLine
 10
79.0226766557
 20
114.1149284693
 30
0.0
 11
79.4556892699
 21
114.8649283173
 31
0.0
  0
ARC
  5
C9
100
AcDbEntity
  8
BPV_STRAIGHT_DN2
  6
CONTINUOUS
 62
         7
100
AcDbCircle
 10
75.7525074621
 20
94.9508292766
 30
0.0
 40
19.0907491844
100
AcDbArc
 50
42.7463074371
 51
77.2536925629
  0
LINE
  5
CA
100
AcDbEntity
  8
BPV_STRAIGHT_DN2
  6
CONTINUOUS
 62
         7
100
AcDbLine
 10
31.7800450106
 20
16.8687945514
 30
0.0
 11
39.3356079141
 21
19.6187945514
 31
0.0
  0
LINE
  5
CB
100
AcDbEntity
  8
BPV_STRAIGHT_DN2
  6
CONTINUOUS
 62
         7
100
AcDbLine
 10
100.8487382309
 20
97.9187760466
 30
0.0
 11
99.9068280668
 21
98.4625881334
 31
0.0
  0
LINE
  5
CC
100
AcDbEntity
  8
BPV_STRAIGHT_DN2
  6
CONTINUOUS
 62
         7
100
AcDbLine
 10
78.4079624927
 20
110.8749639598
 30
0.0
 11
77.4660523287
 21
111.4187760466
 31
0.0
  0
LINE
  5
CD
100
AcDbEntity
  8
BPV_STRAIGHT_DN2
  6
CONTINUOUS
 62
         7
100
AcDbLine
 10
90.0993054438
 20
104.1249639598
 30
0.0
 11
88.2154851157
 21
105.2125881334
 31
0.0
  0
LINE
  5
CE
100
AcDbEntity
  8
BPV_STRAIGHT_DN2
  6
CONTINUOUS
 62
         7
100
AcDbLine
 10
93.3125338415
 20
69.8656871479
 30
0.0
 11
97.6146547014
 21
77.3171790576
 31
0.0
  0
LINE
  5
CF
100
AcDbEntity
  8
BPV_STRAIGHT_DN2
  6
CONTINUOUS
 62
         7
100
AcDbLine
 10
95.3646547014
 20
67.4200647406
 30
0.0
 11
93.3125338415
 21
69.8656871479
 31
0.0
  0
LINE
  5
D0
100
AcDbEntity
  8
BPV_STRAIGHT_DN2
  6
CONTINUOUS
 62
         7
100
AcDbLine
 10
93.8646547014
 20
64.8219885293
 30
0.0
 11
95.3646547014
 21
67.4200647406
 31
0.0
  0
LINE
  5
D1
100
AcDbEntity
  8
BPV_STRAIGHT_DN2
  6
CONTINUOUS
 62
         7
100
AcDbLine
 10
50.8954353198
 20
86.3971173987
 30
0.0
 11
50.8954353198
 21
83.3971173987
 31
0.0
  0
LINE
  5
D2
100
AcDbEntity
  8
BPV_STRAIGHT_DN2
  6
CONTINUOUS
 62
         7
100
AcDbLine
 10
52.2704353198
 20
88.7786872591
 30
0.0
 11
50.8954353198
 21
86.3971173987
 31
0.0
  0
LINE
  5
D3
100
AcDbEntity
  8
BPV_STRAIGHT_DN2
  6
CONTINUOUS
 62
         7
100
AcDbLine
 10
50.8954353198
 20
83.3971173987
 30
0.0
 11
41.9444734254
 21
67.8935966211
 31
0.0
  0
LINE
  5
D4
100
AcDbEntity
  8
BPV_STRAIGHT_DN2
  6
CONTINUOUS
 62
         7
100
AcDbLine
 10
10.0350078034
 20
56.6187945514
 30
0.0
 11
9.5800450106
 21
55.3687945514
 31
0.0
  0
LINE
  5
D5
100
AcDbEntity
  8
BPV_STRAIGHT_DN2
  6
CONTINUOUS
 62
         7
100
AcDbLine
 10
39.3356079141
 20
19.6187945514
 30
0.0
 11
77.8244821071
 21
19.6187945514
 31
0.0
  0
LINE
  5
D6
100
AcDbEntity
  8
BPV_STRAIGHT_DN2
  6
CONTINUOUS
 62
         7
100
AcDbLine
 10
41.9444734254
 20
63.8935966211
 30
0.0
 11
36.1095972955
 21
53.7872947082
 31
0.0
  0
LINE
  5
D7
100
AcDbEntity
  8
BPV_STRAIGHT_DN2
  6
CONTINUOUS
 62
         7
100
AcDbLine
 10
107.125079679
 20
56.6187945514
 30
0.0
 11
105.9708011983
 21
56.6187945514
 31
0.0
  0
SPLINE
  5
D8
100
AcDbEntity
  8
BPV_STRAIGHT_DN2
  6
CONTINUOUS
 62
         7
100
AcDbSpline
210
0.0
220
0.0
230
1.0
 70
         8
 71
         3
 72
        12
 73
         8
 74
         0
 42
0.0
 43
0.0
 40
0.0
 40
0.0
 40
0.0
 40
0.0
 40
0.25
 40
0.25
 40
0.5
 40
0.5
 40
0.5004264164077491
 40
0.5004264164077491
 40
0.5004264164077491
 40
0.5004264164077491
 10
85.38004501058164
 20
54.538485373589218
 30
0.0
 10
85.785042111900211
 20
54.799222481472206
 30
0.0
 10
86.107975904591399
 20
55.006174072586553
 30
0.0
 10
86.555192163810787
 20
55.292446794461618
 30
0.0
 10
86.674410260807008
 20
55.368545682180176
 30
0.0
 10
86.674799482269492
 20
55.368794344564165
 30
0.0
 10
86.67479979861919
 20
55.368794546863505
 30
0.0
 10
86.674799768640312
 20
55.368794528094071
 30
0.0
  0
LINE
  5
D9
100
AcDbEntity
  8
BPV_STRAIGHT_DN2
  6
CONTINUOUS
 62
         7
100
AcDbLine
 10
107.1250822177
 20
15.6187945514
 30
0.0
 11
107.5800450106
 21
16.8687945514
 31
0.0
  0
LINE
  5
DA
100
AcDbEntity
  8
BPV_STRAIGHT_DN2
  6
CONTINUOUS
 62
         7
100
AcDbLine
 10
105.9708011983
 20
36.1187945514
 30
0.0
 11
97.1892888229
 21
36.1187945514
 31
0.0
  0
LINE
  5
DB
100
AcDbEntity
  8
BPV_STRAIGHT_DN2
  6
CONTINUOUS
 62
         7
100
AcDbLine
 10
41.9444734254
 20
67.8935966211
 30
0.0
 11
41.9444734254
 21
63.8935966211
 31
0.0
  0
LINE
  5
DC
100
AcDbEntity
  8
BPV_STRAIGHT_DN2
  6
CONTINUOUS
 62
         7
100
AcDbLine
 10
99.9248417682
 20
87.2839008176
 30
0.0
 11
99.5524768749
 21
88.6735855182
 31
0.0
  0
LINE
  5
DD
100
AcDbEntity
  8
BPV_STRAIGHT_DN2
  6
CONTINUOUS
 62
         7
100
AcDbLine
 10
77.030921466
 20
110.6724448087
 30
0.0
 11
77.3217147614
 21
110.1687760466
 31
0.0
  0
LINE
  5
DE
100
AcDbEntity
  8
BPV_STRAIGHT_DN2
  6
CONTINUOUS
 62
         7
100
AcDbLine
 10
96.0450739896
 20
90.6985855182
 30
0.0
 11
96.5450739896
 21
91.564610922
 31
0.0
  0
LINE
  5
DF
100
AcDbEntity
  8
BPV_STRAIGHT_DN2
  6
CONTINUOUS
 62
         7
100
AcDbLine
 10
101.972349856
 20
102.8649284693
 30
0.0
 11
116.222349856
 21
127.5466524771
 31
0.0
  0
LINE
  5
E0
100
AcDbEntity
  8
BPV_STRAIGHT_DN2
  6
CONTINUOUS
 62
         7
100
AcDbLine
 10
98.8383752598
 20
95.436725239
 30
0.0
 11
99.8383752598
 21
97.1687760466
 31
0.0
  0
LINE
  5
E1
100
AcDbEntity
  8
BPV_STRAIGHT_DN2
  6
CONTINUOUS
 62
         7
100
AcDbLine
 10
96.5883752598
 20
91.539610922
 30
0.0
 11
97.8383752598
 21
93.7046744314
 31
0.0
  0
LINE
  5
E2
100
AcDbEntity
  8
BPV_STRAIGHT_DN2
  6
CONTINUOUS
 62
         7
100
AcDbLine
 10
81.1877401652
 20
114.8649284693
 30
0.0
 11
79.4512497595
 21
114.8649284693
 31
0.0
  0
LINE
  5
E3
100
AcDbEntity
  8
BPV_STRAIGHT_DN2
  6
CONTINUOUS
 62
         7
100
AcDbLine
 10
36.1172630118
 20
53.7901762994
 30
0.0
 11
31.7800450106
 21
55.3687945514
 31
0.0
  0
LINE
  5
E4
100
AcDbEntity
  8
BPV_STRAIGHT_DN2
  6
CONTINUOUS
 62
         7
100
AcDbLine
 10
61.2415877425
 20
98.3171790576
 30
0.0
 11
56.9394668825
 21
90.8656871479
 31
0.0
  0
LINE
  5
E5
100
AcDbEntity
  8
BPV_STRAIGHT_DN2
  6
CONTINUOUS
 62
         7
100
AcDbLine
 10
56.9394668825
 20
90.8656871479
 30
0.0
 11
53.7954353198
 21
91.4200647406
 31
0.0
  0
LINE
  5
E6
100
AcDbEntity
  8
BPV_STRAIGHT_DN2
  6
CONTINUOUS
 62
         7
100
AcDbLine
 10
53.7954353198
 20
91.4200647406
 30
0.0
 11
52.2954353198
 21
88.8219885293
 31
0.0
  0
LINE
  5
E7
100
AcDbEntity
  8
BPV_STRAIGHT_DN2
  6
CONTINUOUS
 62
         7
100
AcDbLine
 10
89.8665784901
 20
60.8971173987
 30
0.0
 11
92.4646547014
 21
62.3971173987
 31
0.0
  0
LINE
  5
E8
100
AcDbEntity
  8
BPV_STRAIGHT_DN2
  6
CONTINUOUS
 62
         7
100
AcDbLine
 10
92.4646547014
 20
62.3971173987
 30
0.0
 11
93.8396547014
 21
64.7786872591
 31
0.0
  0
LINE
  5
E9
100
AcDbEntity
  8
BPV_STRAIGHT_DN2
  6
CONTINUOUS
 62
         7
100
AcDbLine
 10
86.6650816857
 20
55.3519622733
 30
0.0
 11
89.8665784901
 21
60.8971173987
 31
0.0
  0
LINE
  5
EA
100
AcDbEntity
  8
BPV_STRAIGHT_DN2
  6
CONTINUOUS
 62
         7
100
AcDbLine
 10
9.5800450106
 20
16.8687945514
 30
0.0
 11
10.0350078034
 21
15.6187945514
 31
0.0
  0
LINE
  5
EB
100
AcDbEntity
  8
BPV_STRAIGHT_DN2
  6
CONTINUOUS
 62
         7
100
AcDbLine
 10
95.5800450106
 20
55.3687945514
 30
0.0
 11
86.6563213564
 21
55.3687945514
 31
0.0
  0
LINE
  5
EC
100
AcDbEntity
  8
BPV_STRAIGHT_DN2
  6
CONTINUOUS
 62
         7
100
AcDbLine
 10
31.7800450106
 20
55.3687945514
 30
0.0
 11
21.5800450106
 21
55.3687945514
 31
0.0
  0
LINE
  5
ED
100
AcDbEntity
  8
BPV_STRAIGHT_DN2
  6
CONTINUOUS
 62
         7
100
AcDbLine
 10
77.8244821071
 20
19.6187945514
 30
0.0
 11
85.3800450106
 21
16.8687945514
 31
0.0
  0
LINE
  5
EE
100
AcDbEntity
  8
BPV_STRAIGHT_DN2
  6
CONTINUOUS
 62
         7
100
AcDbLine
 10
96.0350078034
 20
56.6187945514
 30
0.0
 11
95.5800450106
 21
55.3687945514
 31
0.0
  0
LINE
  5
EF
100
AcDbEntity
  8
BPV_STRAIGHT_DN2
  6
CONTINUOUS
 62
         7
100
AcDbLine
 10
21.1250822177
 20
15.6187945514
 30
0.0
 11
21.5800450106
 21
16.8687945514
 31
0.0
  0
LINE
  5
F0
100
AcDbEntity
  8
BPV_STRAIGHT_DN2
  6
CONTINUOUS
 62
         7
100
AcDbLine
 10
107.5800450106
 20
55.3687945514
 30
0.0
 11
107.1250822177
 21
56.6187945514
 31
0.0
  0
LINE
  5
F1
100
AcDbEntity
  8
BPV_STRAIGHT_DN2
  6
CONTINUOUS
 62
         7
100
AcDbLine
 10
70.1076131462
 20
105.6735855182
 30
0.0
 11
68.7366173876
 21
105.3062283118
 31
0.0
  0
LINE
  5
F2
100
AcDbEntity
  8
BPV_STRAIGHT_DN2
  6
CONTINUOUS
 62
         7
100
AcDbLine
 10
99.8383752598
 20
97.1687760466
 30
0.0
 11
100.4192233727
 21
97.1687760466
 31
0.0
  0
LINE
  5
F3
100
AcDbEntity
  8
BPV_STRAIGHT_DN2
  6
CONTINUOUS
 62
         7
100
AcDbLine
 10
74.1150160316
 20
104.514610922
 30
0.0
 11
73.6150160316
 21
103.6485855182
 31
0.0
  0
LINE
  5
F4
100
AcDbEntity
  8
BPV_STRAIGHT_DN2
  6
CONTINUOUS
 62
         7
100
AcDbLine
 10
95.4377401652
 20
139.5466524771
 30
0.0
 11
81.1877401652
 21
114.8649284693
 31
0.0
  0
LINE
  5
F5
100
AcDbEntity
  8
BPV_STRAIGHT_DN2
  6
CONTINUOUS
 62
         7
100
AcDbLine
 10
77.3217147614
 20
110.1687760466
 30
0.0
 11
76.3217147614
 21
108.436725239
 31
0.0
  0
LINE
  5
F6
100
AcDbEntity
  8
BPV_STRAIGHT_DN2
  6
CONTINUOUS
 62
         7
100
AcDbLine
 10
75.3217147614
 20
106.7046744314
 30
0.0
 11
74.0717147614
 21
104.539610922
 31
0.0
  0
LINE
  5
F7
100
AcDbEntity
  8
BPV_STRAIGHT_DN2
  6
CONTINUOUS
 62
         7
100
AcDbLine
 10
85.3800450106
 20
16.8687945514
 30
0.0
 11
95.5800450106
 21
16.8687945514
 31
0.0
  0
LINE
  5
F8
100
AcDbEntity
  8
BPV_STRAIGHT_DN2
  6
CONTINUOUS
 62
         7
100
AcDbLine
 10
21.5800450106
 20
16.8687945514
 30
0.0
 11
31.7800450106
 21
16.8687945514
 31
0.0
  0
LINE
  5
F9
100
AcDbEntity
  8
BPV_STRAIGHT_DN2
  6
CONTINUOUS
 62
         7
100
AcDbLine
 10
95.5800450106
 20
16.8687945514
 30
0.0
 11
96.0350078034
 21
15.6187945514
 31
0.0
  0
LINE
  5
FA
100
AcDbEntity
  8
BPV_STRAIGHT_DN2
  6
CONTINUOUS
 62
         7
100
AcDbLine
 10
21.5800450106
 20
55.3687945514
 30
0.0
 11
21.1250822177
 21
56.6187945514
 31
0.0
  0
ENDBLK
  5
FB
100
AcDbEntity
  8
BPV_STRAIGHT_DN2
  6
CONTINUOUS
 62
         7
100
AcDbBlockEnd
  0
BLOCK
  5
187
100
AcDbEntity
  8
0
 62
         1
 48
0.0
100
AcDbBlockBegin
  2
SE2
 70
         0
 10
0.0
 20
0.0
 30
0.0
  3
SE2
  1

  0
ENDBLK
  5
188
100
AcDbEntity
  8
0
 62
         1
 48
0.0
100
AcDbBlockEnd
  0
BLOCK
  5
FE
100
AcDbEntity
  8
0
 62
         1
 48
0.0
100
AcDbBlockBegin
  2
SE3
 70
         0
 10
0.0
 20
0.0
 30
0.0
  3
SE3
  1

  0
ELLIPSE
  5
FF
100
AcDbEntity
  8
BPV_STRAIGHT_DN2
  6
CONTINUOUS
 62
         7
100
AcDbEllipse
 10
105.8300450106
 20
197.0360268771
 30
0.0
 11
0.0000000000000416
 21
12.000000000000004
 31
0.0
210
0.0
220
0.0
230
1.0
 40
0.8660254038
 41
3.3107926549232554
 42
6.1139853058461311
  0
LINE
  5
100
100
AcDbEntity
  8
BPV_STRAIGHT_DN2
  6
CONTINUOUS
 62
         7
100
AcDbLine
 10
39.3356079141
 20
180.5529789265
 30
0.0
 11
38.0800450106
 21
180.095534097
 31
0.0
  0
ARC
  5
101
100
AcDbEntity
  8
BPV_STRAIGHT_DN2
  6
CONTINUOUS
 62
         7
100
AcDbCircle
 10
157.2920676823
 20
197.0360268771
 30
0.0
 40
61.2570596744
100
AcDbArc
 50
168.8596298
 51
191.1403702
  0
ARC
  5
102
100
AcDbEntity
  8
BPV_STRAIGHT_DN2
  6
CONTINUOUS
 62
         7
100
AcDbCircle
 10
-40.1319776612
 20
197.0360268771
 30
0.0
 40
61.2570596744
100
AcDbArc
 50
348.8596298
 51
11.1403702
  0
ARC
  5
103
100
AcDbEntity
  8
BPV_STRAIGHT_DN2
  6
CONTINUOUS
 62
         7
100
AcDbCircle
 10
5.3779645786
 20
179.2825060995
 30
0.0
 40
15.7471176391
100
AcDbArc
 50
337.9259452632
 51
22.0740547368
  0
LINE
  5
104
100
AcDbEntity
  8
BPV_STRAIGHT_DN2
  6
CONTINUOUS
 62
         7
100
AcDbLine
 10
105.9708011983
 20
173.3646658403
 30
0.0
 11
97.1892888229
 21
173.3646658403
 31
0.0
  0
ARC
  5
105
100
AcDbEntity
  8
BPV_STRAIGHT_DN2
  6
CONTINUOUS
 62
         7
100
AcDbCircle
 10
111.7821254426
 20
214.7895476546
 30
0.0
 40
15.7471176391
100
AcDbArc
 50
157.9259452632
 51
202.0740547368
  0
LINE
  5
106
100
AcDbEntity
  8
BPV_STRAIGHT_DN2
  6
CONTINUOUS
 62
         7
100
AcDbLine
 10
61.4300450106
 20
174.5360268771
 30
0.0
 11
70.3810069049
 21
174.5360268771
 31
0.0
  0
ELLIPSE
  5
107
100
AcDbEntity
  8
BPV_STRAIGHT_DN2
  6
CONTINUOUS
 62
         7
100
AcDbEllipse
 10
59.697994203
 20
197.0360268771
 30
0.0
 11
0.0000000000000104
 21
20.500000000000025
 31
0.0
210
0.0
220
0.0
230
1.0
 40
0.8660254038
 41
-0.6353263859645226
 42
0.0000000000000011
  0
ELLIPSE
  5
108
100
AcDbEntity
  8
BPV_STRAIGHT_DN2
  6
CONTINUOUS
 62
         7
100
AcDbEllipse
 10
59.697994203
 20
197.0360268771
 30
0.0
 11
0.0000000000000104
 21
20.500000000000025
 31
0.0
210
0.0
220
0.0
230
1.0
 40
0.8660254038
 41
3.141592653589794
 42
3.7769190395543148
  0
ELLIPSE
  5
109
100
AcDbEntity
  8
BPV_STRAIGHT_DN2
  6
CONTINUOUS
 62
         7
100
AcDbEllipse
 10
51.8800450106
 20
197.0360268771
 30
0.0
 11
0.0000000000000134
 21
-20.500000000000014
 31
0.0
210
0.0
220
0.0
230
1.0
 40
0.8660254038
 41
2.494281217386543
 42
3.7345918781091809
  0
ELLIPSE
  5
10A
100
AcDbEntity
  8
BPV_STRAIGHT_DN2
  6
CONTINUOUS
 62
         7
100
AcDbEllipse
 10
51.8800450106
 20
197.0360268771
 30
0.0
 11
-0.0000000000000455
 21
20.500000000000014
 31
0.0
210
0.0
220
0.0
230
1.0
 40
0.8660254038
 41
2.5485934290704053
 42
3.7889040897930357
  0
SPLINE
  5
10B
100
AcDbEntity
  8
BPV_STRAIGHT_DN2
  6
CONTINUOUS
 62
         7
100
AcDbSpline
210
0.0
220
0.0
230
1.0
 70
         8
 71
         3
 72
        12
 73
         8
 74
         0
 42
0.0
 43
0.0
 40
0.0
 40
0.0
 40
0.0
 40
0.0
 40
0.2499999999999999
 40
0.2499999999999999
 40
0.3749999999999999
 40
0.3749999999999999
 40
0.4364274996748669
 40
0.4364274996748669
 40
0.4364274996748669
 40
0.4364274996748669
 10
62.586197400892971
 20
180.68301284313162
 30
0.0
 10
60.309838473044096
 20
180.68943194220327
 30
0.0
 10
58.034622344912314
 20
180.66844129702335
 30
0.0
 10
54.625741084532358
 20
180.5971704471981
 30
0.0
 10
53.505319950502177
 20
180.56831544773385
 30
0.0
 10
51.911362832628086
 20
180.54209208772843
 30
0.0
 10
51.396176434970208
 20
180.53623851977875
 30
0.0
 10
50.89035147506393
 20
180.53597225475315
 30
0.0
  0
SPLINE
  5
10C
100
AcDbEntity
  8
BPV_STRAIGHT_DN2
  6
CONTINUOUS
 62
         7
100
AcDbSpline
210
0.0
220
0.0
230
1.0
 70
         8
 71
         3
 72
         8
 73
         4
 74
         0
 42
0.0
 43
0.0
 40
0.8541583446471016
 40
0.8541583446471016
 40
0.8541583446471016
 40
0.8541583446471016
 40
1.0
 40
1.0
 40
1.0
 40
1.0
 10
63.631371707137589
 20
180.53183503345193
 30
0.0
 10
63.224980983278705
 20
180.53320350013098
 30
0.0
 10
62.870577113943973
 20
180.58031263947746
 30
0.0
 10
62.586197400892971
 20
180.68301284313162
 30
0.0
  0
SPLINE
  5
10D
100
AcDbEntity
  8
BPV_STRAIGHT_DN2
  6
CONTINUOUS
 62
         7
100
AcDbSpline
210
0.0
220
0.0
230
1.0
 70
         8
 71
         3
 72
         8
 73
         4
 74
         0
 42
0.0
 43
0.0
 40
0.0
 40
0.0
 40
0.0
 40
0.0
 40
0.1468114643433159
 40
0.1468114643433159
 40
0.1468114643433159
 40
0.1468114643433159
 10
62.586197400892971
 20
213.38904091099138
 30
0.0
 10
62.872538897908534
 20
213.49244958857471
 30
0.0
 10
63.224604544522961
 20
213.53738665836349
 30
0.0
 10
63.628703441978281
 20
213.53699384680121
 30
0.0
  0
SPLINE
  5
10E
100
AcDbEntity
  8
BPV_STRAIGHT_DN2
  6
CONTINUOUS
 62
         7
100
AcDbSpline
210
0.0
220
0.0
230
1.0
 70
         8
 71
         3
 72
        12
 73
         8
 74
         0
 42
0.0
 43
0.0
 40
0.5649839521120111
 40
0.5649839521120111
 40
0.5649839521120111
 40
0.5649839521120111
 40
0.625
 40
0.625
 40
0.75
 40
0.75
 40
1.0
 40
1.0
 40
1.0
 40
1.0
 10
50.875586571546357
 20
213.53593872371707
 30
0.0
 10
51.3760932691957
 20
213.53580035003424
 30
0.0
 10
51.886458992946821
 20
213.53025022696528
 30
0.0
 10
53.47702946927226
 20
213.50444414019358
 30
0.0
 10
54.576535025695755
 20
213.47607601522469
 30
0.0
 10
57.940986272397325
 20
213.405256001136
 30
0.0
 10
60.281150029215041
 20
213.38254091344589
 30
0.0
 10
62.586197400892971
 20
213.38904091099138
 30
0.0
  0
LINE
  5
10F
100
AcDbEntity
  8
BPV_STRAIGHT_DN2
  6
CONTINUOUS
 62
         7
100
AcDbLine
 10
46.6255717443
 20
180.5360268771
 30
0.0
 11
50.8990272754
 21
180.5360268771
 31
0.0
  0
ELLIPSE
  5
110
100
AcDbEntity
  8
BPV_STRAIGHT_DN2
  6
CONTINUOUS
 62
         7
100
AcDbEllipse
 10
82.8300450106
 20
197.0360268771
 30
0.0
 11
-0.0000000000000625
 21
20.999999999999989
 31
0.0
210
0.0
220
0.0
230
1.0
 40
0.8660254038
 41
3.2524156821286923
 42
3.5527305159121374
  0
ELLIPSE
  5
111
100
AcDbEntity
  8
BPV_STRAIGHT_DN2
  6
CONTINUOUS
 62
         7
100
AcDbEllipse
 10
82.8300450106
 20
197.0360268771
 30
0.0
 11
-0.0000000000000278
 21
-20.999999999999979
 31
0.0
210
0.0
220
0.0
230
1.0
 40
0.8660254038
 41
2.7304547912674457
 42
3.030769625050886
  0
ELLIPSE
  5
112
100
AcDbEntity
  8
BPV_STRAIGHT_DN2
  6
CONTINUOUS
 62
         7
100
AcDbEllipse
 10
73.0550450106
 20
197.0360268771
 30
0.0
 11
-0.0000000000000243
 21
-23.999999999999989
 31
0.0
210
0.0
220
0.0
230
1.0
 40
0.8660254038
 41
0.0
 42
0.6400208045415534
  0
ELLIPSE
  5
113
100
AcDbEntity
  8
BPV_STRAIGHT_DN2
  6
CONTINUOUS
 62
         7
100
AcDbEllipse
 10
73.0550450106
 20
197.0360268771
 30
0.0
 11
-0.0000000000000243
 21
-23.999999999999989
 31
0.0
210
0.0
220
0.0
230
1.0
 40
0.8660254038
 41
2.5015718490482417
 42
3.1415926535897936
  0
ELLIPSE
  5
114
100
AcDbEntity
  8
BPV_STRAIGHT_DN2
  6
CONTINUOUS
 62
         7
100
AcDbEllipse
 10
71.6800450106
 20
197.0360268771
 30
0.0
 11
-0.0000000000000312
 21
-24.000000000000007
 31
0.0
210
0.0
220
0.0
230
1.0
 40
0.8660254038
 41
0.0000000000000001
 42
0.6627999233203431
  0
ELLIPSE
  5
115
100
AcDbEntity
  8
BPV_STRAIGHT_DN2
  6
CONTINUOUS
 62
         7
100
AcDbEllipse
 10
71.6800450106
 20
197.0360268771
 30
0.0
 11
-0.0000000000000312
 21
-24.000000000000007
 31
0.0
210
0.0
220
0.0
230
1.0
 40
0.8660254038
 41
2.4787927302694484
 42
3.4313356965391661
  0
ELLIPSE
  5
116
100
AcDbEntity
  8
BPV_STRAIGHT_DN2
  6
CONTINUOUS
 62
         7
100
AcDbEllipse
 10
71.6800450106
 20
197.0360268771
 30
0.0
 11
-0.0000000000000312
 21
-24.000000000000007
 31
0.0
210
0.0
220
0.0
230
1.0
 40
0.8660254038
 41
5.9277641054893664
 42
6.2831853071795862
  0
ELLIPSE
  5
117
100
AcDbEntity
  8
BPV_STRAIGHT_DN2
  6
CONTINUOUS
 62
         7
100
AcDbEllipse
 10
70.3810069049
 20
197.0360268771
 30
0.0
 11
-0.0000000000000416
 21
22.500000000000004
 31
0.0
210
0.0
220
0.0
230
1.0
 40
0.8660254038
 41
3.1415926535897931
 42
3.7826874885136994
  0
ELLIPSE
  5
118
100
AcDbEntity
  8
BPV_STRAIGHT_DN2
  6
CONTINUOUS
 62
         7
100
AcDbEllipse
 10
70.3810069049
 20
197.0360268771
 30
0.0
 11
-0.0000000000000416
 21
22.500000000000004
 31
0.0
210
0.0
220
0.0
230
1.0
 40
0.8660254038
 41
5.6420904722556742
 42
6.2831853071795862
  0
ELLIPSE
  5
119
100
AcDbEntity
  8
BPV_STRAIGHT_DN2
  6
CONTINUOUS
 62
         7
100
AcDbEllipse
 10
61.4300450106
 20
197.0360268771
 30
0.0
 11
0.0000000000000399
 21
22.500000000000007
 31
0.0
210
0.0
220
0.0
230
1.0
 40
0.8660254038
 41
-0.7475843496690218
 42
0.4248244274788917
  0
ELLIPSE
  5
11A
100
AcDbEntity
  8
BPV_STRAIGHT_DN2
  6
CONTINUOUS
 62
         7
100
AcDbEllipse
 10
61.4300450106
 20
197.0360268771
 30
0.0
 11
0.0000000000000399
 21
22.500000000000007
 31
0.0
210
0.0
220
0.0
230
1.0
 40
0.8660254038
 41
2.7167682261109052
 42
3.8891770032588164
  0
LINE
  5
11B
100
AcDbEntity
  8
BPV_STRAIGHT_DN2
  6
CONTINUOUS
 62
         7
100
AcDbLine
 10
77.8244821071
 20
213.5360268771
 30
0.0
 11
77.8244821071
 21
180.5360268771
 31
0.0
  0
LINE
  5
11C
100
AcDbEntity
  8
BPV_STRAIGHT_DN2
  6
CONTINUOUS
 62
         7
100
AcDbLine
 10
85.3800450106
 20
216.2860268771
 30
0.0
 11
85.3800450106
 21
177.7860268771
 31
0.0
  0
ARC
  5
11D
100
AcDbEntity
  8
BPV_STRAIGHT_DN2
  6
CONTINUOUS
 62
         7
100
AcDbCircle
 10
71.2920676823
 20
197.0360268771
 30
0.0
 40
61.2570596744
100
AcDbArc
 50
168.8596298
 51
191.1403702
  0
ARC
  5
11E
100
AcDbEntity
  8
BPV_STRAIGHT_DN2
  6
CONTINUOUS
 62
         7
100
AcDbCircle
 10
25.7821254426
 20
214.7895476546
 30
0.0
 40
15.7471176391
100
AcDbArc
 50
157.9259452632
 51
202.0740547368
  0
LINE
  5
11F
100
AcDbEntity
  8
BPV_STRAIGHT_DN2
  6
CONTINUOUS
 62
         7
100
AcDbLine
 10
95.5800450106
 20
177.7860268771
 30
0.0
 11
95.5800450106
 21
216.2860268771
 31
0.0
  0
ARC
  5
120
100
AcDbEntity
  8
BPV_STRAIGHT_DN2
  6
CONTINUOUS
 62
         7
100
AcDbCircle
 10
25.7821254426
 20
179.2825060995
 30
0.0
 40
15.7471176391
100
AcDbArc
 50
157.9259452632
 51
202.0740547368
  0
LINE
  5
121
100
AcDbEntity
  8
BPV_STRAIGHT_DN2
  6
CONTINUOUS
 62
         7
100
AcDbLine
 10
107.5800450106
 20
177.7860268771
 30
0.0
 11
107.5800450106
 21
216.2860268771
 31
0.0
  0
LINE
  5
122
100
AcDbEntity
  8
BPV_STRAIGHT_DN2
  6
CONTINUOUS
 62
         7
100
AcDbLine
 10
19.9708011983
 20
208.8717073954
 30
0.0
 11
11.1892888229
 21
208.8717073954
 31
0.0
  0
LINE
  5
123
100
AcDbEntity
  8
BPV_STRAIGHT_DN2
  6
CONTINUOUS
 62
         7
100
AcDbLine
 10
19.9708011983
 20
185.2003463587
 30
0.0
 11
11.1892888229
 21
185.2003463587
 31
0.0
  0
LINE
  5
124
100
AcDbEntity
  8
BPV_STRAIGHT_DN2
  6
CONTINUOUS
 62
         7
100
AcDbLine
 10
19.9708011983
 20
173.3646658403
 30
0.0
 11
11.1892888229
 21
173.3646658403
 31
0.0
  0
LINE
  5
125
100
AcDbEntity
  8
BPV_STRAIGHT_DN2
  6
CONTINUOUS
 62
         7
100
AcDbLine
 10
105.9708011983
 20
185.2003463587
 30
0.0
 11
97.1892888229
 21
185.2003463587
 31
0.0
  0
LINE
  5
126
100
AcDbEntity
  8
BPV_STRAIGHT_DN2
  6
CONTINUOUS
 62
         7
100
AcDbLine
 10
19.9708011983
 20
220.7073879138
 30
0.0
 11
11.1892888229
 21
220.7073879138
 31
0.0
  0
ARC
  5
127
100
AcDbEntity
  8
BPV_STRAIGHT_DN2
  6
CONTINUOUS
 62
         7
100
AcDbCircle
 10
111.7821254426
 20
179.2825060995
 30
0.0
 40
15.7471176391
100
AcDbArc
 50
157.9259452632
 51
202.0740547368
  0
LINE
  5
128
100
AcDbEntity
  8
BPV_STRAIGHT_DN2
  6
CONTINUOUS
 62
         7
100
AcDbLine
 10
105.9708011983
 20
208.8717073954
 30
0.0
 11
97.1892888229
 21
208.8717073954
 31
0.0
  0
ARC
  5
129
100
AcDbEntity
  8
BPV_STRAIGHT_DN2
  6
CONTINUOUS
 62
         7
100
AcDbCircle
 10
5.3779645786
 20
214.7895476546
 30
0.0
 40
15.7471176391
100
AcDbArc
 50
337.9259452632
 51
22.0740547368
  0
ARC
  5
12A
100
AcDbEntity
  8
BPV_STRAIGHT_DN2
  6
CONTINUOUS
 62
         7
100
AcDbCircle
 10
91.3779645786
 20
214.7895476546
 30
0.0
 40
15.7471176391
100
AcDbArc
 50
337.9259452632
 51
22.0740547368
  0
ARC
  5
12B
100
AcDbEntity
  8
BPV_STRAIGHT_DN2
  6
CONTINUOUS
 62
         7
100
AcDbCircle
 10
45.8680223388
 20
197.0360268771
 30
0.0
 40
61.2570596744
100
AcDbArc
 50
348.8596298
 51
11.1403702
  0
ARC
  5
12C
100
AcDbEntity
  8
BPV_STRAIGHT_DN2
  6
CONTINUOUS
 62
         7
100
AcDbCircle
 10
91.3779645786
 20
179.2825060995
 30
0.0
 40
15.7471176391
100
AcDbArc
 50
337.9259452632
 51
22.0740547368
  0
LINE
  5
12D
100
AcDbEntity
  8
BPV_STRAIGHT_DN2
  6
CONTINUOUS
 62
         7
100
AcDbLine
 10
31.7800450106
 20
177.7860268771
 30
0.0
 11
31.7800450106
 21
216.2860268771
 31
0.0
  0
LINE
  5
12E
100
AcDbEntity
  8
BPV_STRAIGHT_DN2
  6
CONTINUOUS
 62
         7
100
AcDbLine
 10
39.3356079141
 20
213.5190748276
 30
0.0
 11
39.3356079141
 21
180.5529789265
 31
0.0
  0
LINE
  5
12F
100
AcDbEntity
  8
BPV_STRAIGHT_DN2
  6
CONTINUOUS
 62
         7
100
AcDbLine
 10
9.5800450106
 20
177.7860268771
 30
0.0
 11
9.5800450106
 21
216.2860268771
 31
0.0
  0
LINE
  5
130
100
AcDbEntity
  8
BPV_STRAIGHT_DN2
  6
CONTINUOUS
 62
         7
100
AcDbLine
 10
21.5800450106
 20
177.7860268771
 30
0.0
 11
21.5800450106
 21
216.2860268771
 31
0.0
  0
ARC
  5
131
100
AcDbEntity
  8
BPV_STRAIGHT_DN2
  6
CONTINUOUS
 62
         7
100
AcDbCircle
 10
46.6255717443
 20
197.0360268771
 30
0.0
 40
17.0
100
AcDbArc
 50
90.0
 51
98.4565193353
  0
LINE
  5
132
100
AcDbEntity
  8
BPV_STRAIGHT_DN2
  6
CONTINUOUS
 62
         7
100
AcDbLine
 10
42.8629989545
 20
180.5529789265
 30
0.0
 11
39.3356079141
 21
180.5529789265
 31
0.0
  0
LINE
  5
133
100
AcDbEntity
  8
BPV_STRAIGHT_DN2
  6
CONTINUOUS
 62
         7
100
AcDbLine
 10
42.8629989545
 20
213.3455333074
 30
0.0
 11
42.8629989545
 21
213.8511985979
 31
0.0
  0
LINE
  5
134
100
AcDbEntity
  8
BPV_STRAIGHT_DN2
  6
CONTINUOUS
 62
         7
100
AcDbLine
 10
42.8629989545
 20
214.0195739076
 30
0.0
 11
42.8629989545
 21
213.8511985979
 31
0.0
  0
LINE
  5
135
100
AcDbEntity
  8
BPV_STRAIGHT_DN2
  6
CONTINUOUS
 62
         7
100
AcDbLine
 10
38.0800450106
 20
214.0360268771
 30
0.0
 11
38.0800450106
 21
214.0195739076
 31
0.0
  0
LINE
  5
136
100
AcDbEntity
  8
BPV_STRAIGHT_DN2
  6
CONTINUOUS
 62
         7
100
AcDbLine
 10
38.0800450106
 20
214.0195739076
 30
0.0
 11
42.8629989545
 21
214.0195739076
 31
0.0
  0
LINE
  5
137
100
AcDbEntity
  8
BPV_STRAIGHT_DN2
  6
CONTINUOUS
 62
         7
100
AcDbLine
 10
38.0800450106
 20
213.9765196572
 30
0.0
 11
38.0800450106
 21
214.0195739076
 31
0.0
  0
LINE
  5
138
100
AcDbEntity
  8
BPV_STRAIGHT_DN2
  6
CONTINUOUS
 62
         7
100
AcDbLine
 10
44.1255717443
 20
213.3455333074
 30
0.0
 11
44.1255717443
 21
213.8511985979
 31
0.0
  0
LINE
  5
139
100
AcDbEntity
  8
BPV_STRAIGHT_DN2
  6
CONTINUOUS
 62
         7
100
AcDbLine
 10
46.6255717443
 20
213.536026877
 30
0.0
 11
46.6255717443
 21
214.0360268769
 31
0.0
  0
LINE
  5
13A
100
AcDbEntity
  8
BPV_STRAIGHT_DN2
  6
CONTINUOUS
 62
         7
100
AcDbLine
 10
42.8629989545
 20
213.8511985979
 30
0.0
 11
44.1255717443
 21
213.8511985979
 31
0.0
  0
LINE
  5
13B
100
AcDbEntity
  8
BPV_STRAIGHT_DN2
  6
CONTINUOUS
 62
         7
100
AcDbLine
 10
39.3356079141
 20
213.5190748276
 30
0.0
 11
42.8629989545
 21
213.5190748276
 31
0.0
  0
ELLIPSE
  5
13C
100
AcDbEntity
  8
BPV_STRAIGHT_DN2
  6
CONTINUOUS
 62
         7
100
AcDbEllipse
 10
74.5800450106
 20
197.0360268771
 30
0.0
 11
0.0000000000000104
 21
24.000000000000004
 31
0.0
210
0.0
220
0.0
230
1.0
 40
0.8660254038
 41
3.1415926535897931
 42
3.7816134581313467
  0
ELLIPSE
  5
13D
100
AcDbEntity
  8
BPV_STRAIGHT_DN2
  6
CONTINUOUS
 62
         7
100
AcDbEllipse
 10
74.5800450106
 20
197.0360268771
 30
0.0
 11
0.0000000000000104
 21
24.000000000000004
 31
0.0
210
0.0
220
0.0
230
1.0
 40
0.8660254038
 41
5.6431645026380313
 42
6.2831853071795862
  0
ELLIPSE
  5
13E
100
AcDbEntity
  8
BPV_STRAIGHT_DN2
  6
CONTINUOUS
 62
         7
100
AcDbEllipse
 10
73.0800450106
 20
197.0360268771
 30
0.0
 11
0.0000000000000069
 21
24.0
 31
0.0
210
0.0
220
0.0
230
1.0
 40
0.8660254038
 41
3.1415926535897931
 42
3.7816134581313463
  0
ELLIPSE
  5
13F
100
AcDbEntity
  8
BPV_STRAIGHT_DN2
  6
CONTINUOUS
 62
         7
100
AcDbEllipse
 10
73.0800450106
 20
197.0360268771
 30
0.0
 11
0.0000000000000069
 21
24.0
 31
0.0
210
0.0
220
0.0
230
1.0
 40
0.8660254038
 41
5.6431645026380313
 42
6.2831853071795862
  0
ELLIPSE
  5
140
100
AcDbEntity
  8
BPV_STRAIGHT_DN2
  6
CONTINUOUS
 62
         7
100
AcDbEllipse
 10
66.0800450139
 20
197.0360267427
 30
0.0
 11
-58.520495286009499
 21
0.0000000011957396
 31
0.0
210
0.0
220
0.0
230
1.0
 40
0.3930247005
 41
4.7123889804502408
 42
4.7201779761737885
  0
LINE
  5
141
100
AcDbEntity
  8
BPV_STRAIGHT_DN2
  6
CONTINUOUS
 62
         7
100
AcDbLine
 10
61.4570419372
 20
219.9813201507
 30
0.0
 11
61.6295890474
 21
219.9813201507
 31
0.0
  0
LINE
  5
142
100
AcDbEntity
  8
BPV_STRAIGHT_DN2
  6
CONTINUOUS
 62
         7
100
AcDbLine
 10
66.0800450106
 20
220.033244332
 30
0.0
 11
66.0800450106
 21
220.0360268771
 31
0.0
  0
LINE
  5
143
100
AcDbEntity
  8
BPV_STRAIGHT_DN2
  6
CONTINUOUS
 62
         7
100
AcDbLine
 10
59.780237969
 20
219.4552340211
 30
0.0
 11
59.780237969
 21
219.7648243818
 31
0.0
  0
LINE
  5
144
100
AcDbEntity
  8
BPV_STRAIGHT_DN2
  6
CONTINUOUS
 62
         7
100
AcDbLine
 10
61.4570419372
 20
219.536026877
 30
0.0
 11
61.4570419372
 21
219.9813201507
 31
0.0
  0
ELLIPSE
  5
145
100
AcDbEntity
  8
BPV_STRAIGHT_DN2
  6
CONTINUOUS
 62
         7
100
AcDbEllipse
 10
62.8300450107
 20
197.036026876
 30
0.0
 11
-0.0000000004626959
 21
23.00000000109511
 31
0.0
210
0.0
220
0.0
230
1.0
 40
0.8660254038
 41
0.0689854598571299
 42
0.1537183065080067
  0
ELLIPSE
  5
146
100
AcDbEntity
  8
BPV_STRAIGHT_DN2
  6
CONTINUOUS
 62
         7
100
AcDbEllipse
 10
63.6687272219
 20
197.036026879
 30
0.0
 11
-0.0000000004836149
 21
22.999999997921417
 31
0.0
210
0.0
220
0.0
230
1.0
 40
0.8660254038
 41
6.1810554914289364
 42
6.2363752627162254
  0
ELLIPSE
  5
147
100
AcDbEntity
  8
BPV_STRAIGHT_DN2
  6
CONTINUOUS
 62
         7
100
AcDbEllipse
 10
61.393183911
 20
197.0360269594
 30
0.0
 11
68.548629006684948
 21
-0.0000000060405102
 31
0.0
210
0.0
220
0.0
230
1.0
 40
0.3355282265
 41
1.4908967821898609
 42
1.5239862825335113
  0
ELLIPSE
  5
148
100
AcDbEntity
  8
BPV_STRAIGHT_DN2
  6
CONTINUOUS
 62
         7
100
AcDbEllipse
 10
69.1159651428
 20
197.0360268732
 30
0.0
 11
-28.210424461727822
 21
0.0000000011823781
 31
0.0
210
0.0
220
0.0
230
1.0
 40
0.8153014512
 41
4.7922885251550493
 42
4.8433688110502651
  0
ELLIPSE
  5
149
100
AcDbEntity
  8
BPV_STRAIGHT_DN2
  6
CONTINUOUS
 62
         7
100
AcDbEllipse
 10
62.8300450112
 20
197.0360268807
 30
0.0
 11
-0.0000000022525662
 21
22.999999996316827
 31
0.0
210
0.0
220
0.0
230
1.0
 40
0.8660254039
 41
6.0615520563740004
 42
6.1522054764574428
  0
ELLIPSE
  5
14A
100
AcDbEntity
  8
BPV_STRAIGHT_DN2
  6
CONTINUOUS
 62
         7
100
AcDbEllipse
 10
71.3541174487
 20
197.0360268772
 30
0.0
 11
0.0000000000374249
 21
22.999999999824741
 31
0.0
210
0.0
220
0.0
230
1.0
 40
0.8199286598
 41
0.1364333947275897
 42
0.2216332507052277
  0
ELLIPSE
  5
14B
100
AcDbEntity
  8
BPV_STRAIGHT_DN2
  6
CONTINUOUS
 62
         7
100
AcDbEllipse
 10
62.8300450106
 20
197.0360268772
 30
0.0
 11
0.0000000000088662
 21
-22.999999999816065
 31
0.0
210
0.0
220
0.0
230
1.0
 40
0.8660254038
 41
3.0616931088617259
 42
3.2018973349851403
  0
ELLIPSE
  5
14C
100
AcDbEntity
  8
BPV_STRAIGHT_DN2
  6
CONTINUOUS
 62
         7
100
AcDbEllipse
 10
59.8063010729
 20
197.0360266791
 30
0.0
 11
57.803199923532624
 21
0.0000000216756162
 31
0.0
210
0.0
220
0.0
230
1.0
 40
0.3979018502
 41
1.4686665105643766
 42
1.4908967814689584
  0
ELLIPSE
  5
14D
100
AcDbEntity
  8
BPV_STRAIGHT_DN2
  6
CONTINUOUS
 62
         7
100
AcDbEllipse
 10
65.1670591449
 20
197.0360268753
 30
0.0
 11
-58.695527752189449
 21
0.0000000000037399
 31
0.0
210
0.0
220
0.0
230
1.0
 40
0.3918526825
 41
4.6888422498580038
 42
4.7123889803860965
  0
LINE
  5
14E
100
AcDbEntity
  8
BPV_STRAIGHT_DN2
  6
CONTINUOUS
 62
         7
100
AcDbLine
 10
65.431524518
 20
219.3346009532
 30
0.0
 11
65.431524518
 21
219.8390180368
 31
0.0
  0
LINE
  5
14F
100
AcDbEntity
  8
BPV_STRAIGHT_DN2
  6
CONTINUOUS
 62
         7
100
AcDbLine
 10
68.7891821167
 20
219.3175012789
 30
0.0
 11
68.7891821167
 21
219.8222968992
 31
0.0
  0
LINE
  5
150
100
AcDbEntity
  8
BPV_STRAIGHT_DN2
  6
CONTINUOUS
 62
         7
100
AcDbLine
 10
67.2086122767
 20
218.9606142528
 30
0.0
 11
67.2086122767
 21
219.4734405336
 31
0.0
  0
LINE
  5
151
100
AcDbEntity
  8
BPV_STRAIGHT_DN2
  6
CONTINUOUS
 62
         7
100
AcDbLine
 10
65.6994739801
 20
219.8667332996
 30
0.0
 11
65.6994739801
 21
219.9161803615
 31
0.0
  0
LINE
  5
152
100
AcDbEntity
  8
BPV_STRAIGHT_DN2
  6
CONTINUOUS
 62
         7
100
AcDbLine
 10
64.4198380429
 20
219.4610146694
 30
0.0
 11
64.4198380429
 21
219.9626506469
 31
0.0
  0
LINE
  5
153
100
AcDbEntity
  8
BPV_STRAIGHT_DN2
  6
CONTINUOUS
 62
         7
100
AcDbLine
 10
61.6295890474
 20
219.536026877
 30
0.0
 11
61.6295890474
 21
219.9942180219
 31
0.0
  0
ELLIPSE
  5
154
100
AcDbEntity
  8
BPV_STRAIGHT_DN2
  6
CONTINUOUS
 62
         7
100
AcDbEllipse
 10
66.0800450106
 20
197.0360268778
 30
0.0
 11
-0.0000000001879399
 21
22.999999999310557
 31
0.0
210
0.0
220
0.0
230
1.0
 40
0.8660254038
 41
6.1467519124447465
 42
6.2596385766432068
  0
ARC
  5
155
100
AcDbEntity
  8
BPV_STRAIGHT_DN2
  6
CONTINUOUS
 62
         7
100
AcDbCircle
 10
46.6255717443
 20
197.0360268771
 30
0.0
 40
17.0
100
AcDbArc
 50
261.5434806647
 51
270.0
  0
LINE
  5
156
100
AcDbEntity
  8
BPV_STRAIGHT_DN2
  6
CONTINUOUS
 62
         7
100
AcDbLine
 10
44.1255717443
 20
180.2208551563
 30
0.0
 11
42.8629989545
 21
180.2208551563
 31
0.0
  0
LINE
  5
157
100
AcDbEntity
  8
BPV_STRAIGHT_DN2
  6
CONTINUOUS
 62
         7
100
AcDbLine
 10
42.8629989545
 20
180.2208551563
 30
0.0
 11
42.8629989545
 21
180.0524798465
 31
0.0
  0
LINE
  5
158
100
AcDbEntity
  8
BPV_STRAIGHT_DN2
  6
CONTINUOUS
 62
         7
100
AcDbLine
 10
46.6255717443
 20
180.5360268771
 30
0.0
 11
46.6255717443
 21
180.0360268771
 31
0.0
  0
LINE
  5
159
100
AcDbEntity
  8
BPV_STRAIGHT_DN2
  6
CONTINUOUS
 62
         7
100
AcDbLine
 10
44.1255717443
 20
180.7265204468
 30
0.0
 11
44.1255717443
 21
180.2208551563
 31
0.0
  0
LINE
  5
15A
100
AcDbEntity
  8
BPV_STRAIGHT_DN2
  6
CONTINUOUS
 62
         7
100
AcDbLine
 10
42.8629989545
 20
180.0524798465
 30
0.0
 11
38.0800450106
 21
180.0524798465
 31
0.0
  0
LINE
  5
15B
100
AcDbEntity
  8
BPV_STRAIGHT_DN2
  6
CONTINUOUS
 62
         7
100
AcDbLine
 10
38.0800450106
 20
180.0360268771
 30
0.0
 11
38.0800450106
 21
180.0524798465
 31
0.0
  0
LINE
  5
15C
100
AcDbEntity
  8
BPV_STRAIGHT_DN2
  6
CONTINUOUS
 62
         7
100
AcDbLine
 10
38.0800450106
 20
180.095534097
 30
0.0
 11
38.0800450106
 21
180.0524798465
 31
0.0
  0
LINE
  5
15D
100
AcDbEntity
  8
BPV_STRAIGHT_DN2
  6
CONTINUOUS
 62
         7
100
AcDbLine
 10
42.8629989545
 20
180.7265204468
 30
0.0
 11
42.8629989545
 21
180.2208551563
 31
0.0
  0
ELLIPSE
  5
15E
100
AcDbEntity
  8
BPV_STRAIGHT_DN2
  6
CONTINUOUS
 62
         7
100
AcDbEllipse
 10
59.8063009838
 20
197.0360263099
 30
0.0
 11
56.546609096569746
 21
0.0000000633345036
 31
0.0
210
0.0
220
0.0
230
1.0
 40
0.3979018535
 41
1.4711521001150307
 42
1.4891173191268272
  0
ELLIPSE
  5
15F
100
AcDbEntity
  8
BPV_STRAIGHT_DN2
  6
CONTINUOUS
 62
         7
100
AcDbEllipse
 10
62.8300450106
 20
197.0360268771
 30
0.0
 11
0.0000000000150088
 21
-22.499999999913445
 31
0.0
210
0.0
220
0.0
230
1.0
 40
0.8660254038
 41
3.0599136477173139
 42
3.141592653589218
  0
LINE
  5
160
100
AcDbEntity
  8
BPV_STRAIGHT_DN2
  6
CONTINUOUS
 62
         7
100
AcDbLine
 10
44.1255717443
 20
180.7265204468
 30
0.0
 11
42.8629989545
 21
180.7265204468
 31
0.0
  0
ELLIPSE
  5
161
100
AcDbEntity
  8
BPV_STRAIGHT_DN2
  6
CONTINUOUS
 62
         7
100
AcDbEllipse
 10
71.3541174484
 20
197.0360268794
 30
0.0
 11
0.0000000010613906
 21
22.499999997646746
 31
0.0
210
0.0
220
0.0
230
1.0
 40
0.8199286599
 41
0.1394848447218059
 42
0.226643543829551
  0
ELLIPSE
  5
162
100
AcDbEntity
  8
BPV_STRAIGHT_DN2
  6
CONTINUOUS
 62
         7
100
AcDbEllipse
 10
62.8300450099
 20
197.0360268731
 30
0.0
 11
0.0000000024905685
 21
22.500000003958643
 31
0.0
210
0.0
220
0.0
230
1.0
 40
0.8660254037
 41
6.056541763516317
 42
6.1492774850314742
  0
ARC
  5
163
100
AcDbEntity
  8
BPV_STRAIGHT_DN2
  6
CONTINUOUS
 62
         7
100
AcDbCircle
 10
46.6255717443
 20
197.0360268771
 30
0.0
 40
16.5
100
AcDbArc
 50
261.2852579814
 51
270.0
  0
LINE
  5
164
100
AcDbEntity
  8
BPV_STRAIGHT_DN2
  6
CONTINUOUS
 62
         7
100
AcDbLine
 10
65.1670591449
 20
220.0360268771
 30
0.0
 11
62.8300450106
 21
220.0360268771
 31
0.0
  0
LINE
  5
165
100
AcDbEntity
  8
BPV_STRAIGHT_DN2
  6
CONTINUOUS
 62
         7
100
AcDbLine
 10
38.0800450106
 20
180.0360268771
 30
0.0
 11
46.6255717443
 21
180.0360268771
 31
0.0
  0
LINE
  5
166
100
AcDbEntity
  8
BPV_STRAIGHT_DN2
  6
CONTINUOUS
 62
         7
100
AcDbLine
 10
31.7800450106
 20
177.7860268771
 30
0.0
 11
38.0800450106
 21
180.0790393529
 31
0.0
  0
LINE
  5
167
100
AcDbEntity
  8
BPV_STRAIGHT_DN2
  6
CONTINUOUS
 62
         7
100
AcDbLine
 10
73.0800450106
 20
173.0360268771
 30
0.0
 11
74.5800450106
 21
173.0360268771
 31
0.0
  0
LINE
  5
168
100
AcDbEntity
  8
BPV_STRAIGHT_DN2
  6
CONTINUOUS
 62
         7
100
AcDbLine
 10
73.0550450106
 20
221.0360268771
 30
0.0
 11
71.6800450106
 21
221.0360268771
 31
0.0
  0
LINE
  5
169
100
AcDbEntity
  8
BPV_STRAIGHT_DN2
  6
CONTINUOUS
 62
         7
100
AcDbLine
 10
62.8300450106
 20
219.5360268771
 30
0.0
 11
61.4300450106
 21
219.5360268771
 31
0.0
  0
LINE
  5
16A
100
AcDbEntity
  8
BPV_STRAIGHT_DN2
  6
CONTINUOUS
 62
         7
100
AcDbLine
 10
11.1892888229
 20
220.7073879138
 30
0.0
 11
9.5800450106
 21
216.2860268771
 31
0.0
  0
LINE
  5
16B
100
AcDbEntity
  8
BPV_STRAIGHT_DN2
  6
CONTINUOUS
 62
         7
100
AcDbLine
 10
50.8804240505
 20
213.5360268771
 30
0.0
 11
46.6255717443
 21
213.5360268771
 31
0.0
  0
LINE
  5
16C
100
AcDbEntity
  8
BPV_STRAIGHT_DN2
  6
CONTINUOUS
 62
         7
100
AcDbLine
 10
59.697994203
 20
217.5360268771
 30
0.0
 11
51.8800450106
 21
217.5360268771
 31
0.0
  0
ARC
  5
16D
100
AcDbEntity
  8
BPV_STRAIGHT_DN2
  6
CONTINUOUS
 62
         7
100
AcDbCircle
 10
46.6255717443
 20
197.0360268771
 30
0.0
 40
16.5
100
AcDbArc
 50
90.0
 51
98.7147420186
  0
LINE
  5
16E
100
AcDbEntity
  8
BPV_STRAIGHT_DN2
  6
CONTINUOUS
 62
         7
100
AcDbLine
 10
42.8629989545
 20
213.3455333074
 30
0.0
 11
44.1255717443
 21
213.3455333074
 31
0.0
  0
LINE
  5
16F
100
AcDbEntity
  8
BPV_STRAIGHT_DN2
  6
CONTINUOUS
 62
         7
100
AcDbLine
 10
105.9708011983
 20
173.3646658403
 30
0.0
 11
107.5800450106
 21
177.7860268771
 31
0.0
  0
LINE
  5
170
100
AcDbEntity
  8
BPV_STRAIGHT_DN2
  6
CONTINUOUS
 62
         7
100
AcDbLine
 10
38.0800450106
 20
213.9765196572
 30
0.0
 11
39.3356079141
 21
213.5190748276
 31
0.0
  0
LINE
  5
171
100
AcDbEntity
  8
BPV_STRAIGHT_DN2
  6
CONTINUOUS
 62
         7
100
AcDbLine
 10
105.9708011983
 20
220.7073879138
 30
0.0
 11
97.1892888229
 21
220.7073879138
 31
0.0
  0
LINE
  5
172
100
AcDbEntity
  8
BPV_STRAIGHT_DN2
  6
CONTINUOUS
 62
         7
100
AcDbLine
 10
46.6255717443
 20
214.0360268771
 30
0.0
 11
38.0800450106
 21
214.0360268771
 31
0.0
  0
LINE
  5
173
100
AcDbEntity
  8
BPV_STRAIGHT_DN2
  6
CONTINUOUS
 62
         7
100
AcDbLine
 10
38.0800450106
 20
213.9930144012
 30
0.0
 11
31.7800450106
 21
216.2860268771
 31
0.0
  0
LINE
  5
174
100
AcDbEntity
  8
BPV_STRAIGHT_DN2
  6
CONTINUOUS
 62
         7
100
AcDbLine
 10
74.5800450106
 20
221.0360268771
 30
0.0
 11
73.0800450106
 21
221.0360268771
 31
0.0
  0
LINE
  5
175
100
AcDbEntity
  8
BPV_STRAIGHT_DN2
  6
CONTINUOUS
 62
         7
100
AcDbLine
 10
71.6800450106
 20
173.0360268771
 30
0.0
 11
73.0550450106
 21
173.0360268771
 31
0.0
  0
LINE
  5
176
100
AcDbEntity
  8
BPV_STRAIGHT_DN2
  6
CONTINUOUS
 62
         7
100
AcDbLine
 10
9.5800450106
 20
177.7860268771
 30
0.0
 11
11.1892888229
 21
173.3646658403
 31
0.0
  0
LINE
  5
177
100
AcDbEntity
  8
BPV_STRAIGHT_DN2
  6
CONTINUOUS
 62
         7
100
AcDbLine
 10
77.8244821071
 20
213.5360268771
 30
0.0
 11
63.632475381
 21
213.5360268771
 31
0.0
  0
LINE
  5
178
100
AcDbEntity
  8
BPV_STRAIGHT_DN2
  6
CONTINUOUS
 62
         7
100
AcDbLine
 10
31.7800450106
 20
216.2860268771
 30
0.0
 11
21.5800450106
 21
216.2860268771
 31
0.0
  0
LINE
  5
179
100
AcDbEntity
  8
BPV_STRAIGHT_DN2
  6
CONTINUOUS
 62
         7
100
AcDbLine
 10
85.3800450106
 20
216.2860268771
 30
0.0
 11
77.8244821071
 21
213.5360268771
 31
0.0
  0
LINE
  5
17A
100
AcDbEntity
  8
BPV_STRAIGHT_DN2
  6
CONTINUOUS
 62
         7
100
AcDbLine
 10
95.5800450106
 20
216.2860268771
 30
0.0
 11
85.3800450106
 21
216.2860268771
 31
0.0
  0
LINE
  5
17B
100
AcDbEntity
  8
BPV_STRAIGHT_DN2
  6
CONTINUOUS
 62
         7
100
AcDbLine
 10
19.9708011983
 20
173.3646658403
 30
0.0
 11
21.5800450106
 21
177.7860268771
 31
0.0
  0
LINE
  5
17C
100
AcDbEntity
  8
BPV_STRAIGHT_DN2
  6
CONTINUOUS
 62
         7
100
AcDbLine
 10
97.1892888229
 20
220.7073879138
 30
0.0
 11
95.5800450106
 21
216.2860268771
 31
0.0
  0
LINE
  5
17D
100
AcDbEntity
  8
BPV_STRAIGHT_DN2
  6
CONTINUOUS
 62
         7
100
AcDbLine
 10
51.8800450106
 20
176.5360268771
 30
0.0
 11
59.697994203
 21
176.5360268771
 31
0.0
  0
LINE
  5
17E
100
AcDbEntity
  8
BPV_STRAIGHT_DN2
  6
CONTINUOUS
 62
         7
100
AcDbLine
 10
107.5800450106
 20
216.2860268771
 30
0.0
 11
105.9708011983
 21
220.7073879138
 31
0.0
  0
LINE
  5
17F
100
AcDbEntity
  8
BPV_STRAIGHT_DN2
  6
CONTINUOUS
 62
         7
100
AcDbLine
 10
70.3810069049
 20
219.5360268771
 30
0.0
 11
68.7891821167
 21
219.5360268771
 31
0.0
  0
LINE
  5
180
100
AcDbEntity
  8
BPV_STRAIGHT_DN2
  6
CONTINUOUS
 62
         7
100
AcDbLine
 10
63.6365151492
 20
180.5360268771
 30
0.0
 11
77.8244821071
 21
180.5360268771
 31
0.0
  0
LINE
  5
181
100
AcDbEntity
  8
BPV_STRAIGHT_DN2
  6
CONTINUOUS
 62
         7
100
AcDbLine
 10
21.5800450106
 20
177.7860268771
 30
0.0
 11
31.7800450106
 21
177.7860268771
 31
0.0
  0
LINE
  5
182
100
AcDbEntity
  8
BPV_STRAIGHT_DN2
  6
CONTINUOUS
 62
         7
100
AcDbLine
 10
77.8244821071
 20
180.5360268771
 30
0.0
 11
85.3800450106
 21
177.7860268771
 31
0.0
  0
LINE
  5
183
100
AcDbEntity
  8
BPV_STRAIGHT_DN2
  6
CONTINUOUS
 62
         7
100
AcDbLine
 10
85.3800450106
 20
177.7860268771
 30
0.0
 11
95.5800450106
 21
177.7860268771
 31
0.0
  0
LINE
  5
184
100
AcDbEntity
  8
BPV_STRAIGHT_DN2
  6
CONTINUOUS
 62
         7
100
AcDbLine
 10
21.5800450106
 20
216.2860268771
 30
0.0
 11
19.9708011983
 21
220.7073879138
 31
0.0
  0
LINE
  5
185
100
AcDbEntity
  8
BPV_STRAIGHT_DN2
  6
CONTINUOUS
 62
         7
100
AcDbLine
 10
95.5800450106
 20
177.7860268771
 30
0.0
 11
97.1892888229
 21
173.3646658403
 31
0.0
  0
ENDBLK
  5
186
100
AcDbEntity
  8
BPV_STRAIGHT_DN2
  6
CONTINUOUS
 62
         7
100
AcDbBlockEnd
  0
BLOCK
  5
220
100
AcDbEntity
  8
0
 62
         1
 48
0.0
100
AcDbBlockBegin
  2
SE4
 70
         0
 10
0.0
 20
0.0
 30
0.0
  3
SE4
  1

  0
ENDBLK
  5
221
100
AcDbEntity
  8
0
 62
         1
 48
0.0
100
AcDbBlockEnd
  0
BLOCK
  5
189
100
AcDbEntity
  8
0
 62
         1
 48
0.0
100
AcDbBlockBegin
  2
SE5
 70
         0
 10
0.0
 20
0.0
 30
0.0
  3
SE5
  1

  0
LINE
  5
18A
100
AcDbEntity
  8
BPV_STRAIGHT_DN2
  6
CONTINUOUS
 62
         7
100
AcDbLine
 10
186.3984452275
 20
101.1587405561
 30
0.0
 11
187.9550695545
 21
98.4625881334
 31
0.0
  0
LINE
  5
18B
100
AcDbEntity
  8
BPV_STRAIGHT_DN2
  6
CONTINUOUS
 62
         7
100
AcDbLine
 10
197.7625921775
 20
104.1249639598
 30
0.0
 11
196.2059678504
 21
106.8211163825
 31
0.0
  0
ARC
  5
18C
100
AcDbEntity
  8
BPV_STRAIGHT_DN2
  6
CONTINUOUS
 62
         7
100
AcDbCircle
 10
200.4180472081
 20
88.2008292766
 30
0.0
 40
19.0907491844
100
AcDbArc
 50
102.7463074371
 51
137.2536925629
  0
LINE
  5
18D
100
AcDbEntity
  8
BPV_STRAIGHT_DN2
  6
CONTINUOUS
 62
         7
100
AcDbLine
 10
198.0897881785
 20
107.9087405561
 30
0.0
 11
196.2059678504
 21
106.8211163825
 31
0.0
  0
ARC
  5
18E
100
AcDbEntity
  8
BPV_STRAIGHT_DN2
  6
CONTINUOUS
 62
         7
100
AcDbCircle
 10
212.1093901592
 20
94.9508292766
 30
0.0
 40
19.0907491844
100
AcDbArc
 50
102.7463074371
 51
137.2536925629
  0
LINE
  5
18F
100
AcDbEntity
  8
BPV_STRAIGHT_DN2
  6
CONTINUOUS
 62
         7
100
AcDbLine
 10
209.4539351285
 20
110.8749639598
 30
0.0
 11
207.8973108015
 21
113.5711163825
 31
0.0
  0
LINE
  5
190
100
AcDbEntity
  8
BPV_STRAIGHT_DN2
  6
CONTINUOUS
 62
         7
100
AcDbLine
 10
198.0897881785
 20
107.9087405561
 30
0.0
 11
199.6464125056
 21
105.2125881334
 31
0.0
  0
ARC
  5
191
100
AcDbEntity
  8
BPV_STRAIGHT_DN2
  6
CONTINUOUS
 62
         7
100
AcDbCircle
 10
195.4343331479
 20
123.8328752392
 30
0.0
 40
19.0907491844
100
AcDbArc
 50
282.7463074371
 51
317.2536925629
  0
LINE
  5
192
100
AcDbEntity
  8
BPV_STRAIGHT_DN2
  6
CONTINUOUS
 62
         7
100
AcDbLine
 10
208.8392209656
 20
114.1149284693
 30
0.0
 11
207.8973108015
 21
113.5711163825
 31
0.0
  0
LINE
  5
193
100
AcDbEntity
  8
BPV_STRAIGHT_DN2
  6
CONTINUOUS
 62
         7
100
AcDbLine
 10
199.6464125056
 20
105.2125881334
 30
0.0
 11
197.7625921775
 21
104.1249639598
 31
0.0
  0
LINE
  5
194
100
AcDbEntity
  8
BPV_STRAIGHT_DN2
  6
CONTINUOUS
 62
         7
100
AcDbLine
 10
188.0235223615
 20
97.1687760466
 30
0.0
 11
210.5401828599
 21
110.1687760466
 31
0.0
  0
LINE
  5
195
100
AcDbEntity
  8
BPV_STRAIGHT_DN2
  6
CONTINUOUS
 62
         7
100
AcDbLine
 10
201.2237627748
 20
102.4805373258
 30
0.0
 11
199.3399424466
 21
101.3929131522
 31
0.0
  0
LINE
  5
196
100
AcDbEntity
  8
BPV_STRAIGHT_DN2
  6
CONTINUOUS
 62
         7
100
AcDbLine
 10
202.2237627748
 20
100.7484865182
 30
0.0
 11
200.3399424466
 21
99.6608623447
 31
0.0
  0
LINE
  5
197
100
AcDbEntity
  8
BPV_STRAIGHT_DN2
  6
CONTINUOUS
 62
         7
100
AcDbLine
 10
191.2735223615
 20
91.539610922
 30
0.0
 11
213.7901828599
 21
104.539610922
 31
0.0
  0
LINE
  5
198
100
AcDbEntity
  8
BPV_STRAIGHT_DN2
  6
CONTINUOUS
 62
         7
100
AcDbLine
 10
208.8392209656
 20
114.1149284693
 30
0.0
 11
210.3958452926
 21
111.4187760466
 31
0.0
  0
LINE
  5
199
100
AcDbEntity
  8
BPV_STRAIGHT_DN2
  6
CONTINUOUS
 62
         7
100
AcDbLine
 10
211.9731955618
 20
108.686725239
 30
0.0
 11
212.9731955618
 21
106.9546744314
 31
0.0
  0
LINE
  5
19A
100
AcDbEntity
  8
BPV_STRAIGHT_DN2
  6
CONTINUOUS
 62
         7
100
AcDbLine
 10
210.3958452926
 20
111.4187760466
 30
0.0
 11
210.8288579027
 21
110.6687762057
 31
0.0
  0
LINE
  5
19B
100
AcDbEntity
  8
BPV_STRAIGHT_DN2
  6
CONTINUOUS
 62
         7
100
AcDbLine
 10
190.5324198237
 20
93.9984865182
 30
0.0
 11
200.3399424466
 21
99.6608623447
 31
0.0
  0
LINE
  5
19C
100
AcDbEntity
  8
BPV_STRAIGHT_DN2
  6
CONTINUOUS
 62
         7
100
AcDbLine
 10
189.5324198237
 20
95.7305373258
 30
0.0
 11
190.5324198237
 21
93.9984865182
 31
0.0
  0
LINE
  5
19D
100
AcDbEntity
  8
BPV_STRAIGHT_DN2
  6
CONTINUOUS
 62
         7
100
AcDbLine
 10
202.2237627748
 20
100.7484865182
 30
0.0
 11
212.0312853977
 21
106.4108623447
 31
0.0
  0
LINE
  5
19E
100
AcDbEntity
  8
BPV_STRAIGHT_DN2
  6
CONTINUOUS
 62
         7
100
AcDbLine
 10
212.0312853977
 20
106.4108623447
 30
0.0
 11
211.0312853977
 21
108.1429131522
 31
0.0
  0
LINE
  5
19F
100
AcDbEntity
  8
BPV_STRAIGHT_DN2
  6
CONTINUOUS
 62
         7
100
AcDbLine
 10
200.3399424466
 20
99.6608623447
 30
0.0
 11
199.3399424466
 21
101.3929131522
 31
0.0
  0
LINE
  5
1A0
100
AcDbEntity
  8
BPV_STRAIGHT_DN2
  6
CONTINUOUS
 62
         7
100
AcDbLine
 10
201.2237627748
 20
102.4805373258
 30
0.0
 11
202.2237627748
 21
100.7484865182
 31
0.0
  0
LINE
  5
1A1
100
AcDbEntity
  8
BPV_STRAIGHT_DN2
  6
CONTINUOUS
 62
         7
100
AcDbLine
 10
199.3399424466
 20
101.3929131522
 30
0.0
 11
189.5324198237
 21
95.7305373258
 31
0.0
  0
LINE
  5
1A2
100
AcDbEntity
  8
BPV_STRAIGHT_DN2
  6
CONTINUOUS
 62
         7
100
AcDbLine
 10
185.0235224492
 20
101.3649283173
 30
0.0
 11
185.4565350634
 21
100.6149284693
 31
0.0
  0
ARC
  5
1A3
100
AcDbEntity
  8
BPV_STRAIGHT_DN2
  6
CONTINUOUS
 62
         7
100
AcDbCircle
 10
183.7429901968
 20
117.0828752392
 30
0.0
 40
19.0907491844
100
AcDbArc
 50
282.7463074371
 51
317.2536925629
  0
LINE
  5
1A4
100
AcDbEntity
  8
BPV_STRAIGHT_DN2
  6
CONTINUOUS
 62
         7
100
AcDbLine
 10
187.4461720005
 20
97.1687762057
 30
0.0
 11
187.0131593904
 21
97.9187760466
 31
0.0
  0
LINE
  5
1A5
100
AcDbEntity
  8
BPV_STRAIGHT_DN2
  6
CONTINUOUS
 62
         7
100
AcDbLine
 10
171.6395477653
 20
127.5466524771
 30
0.0
 11
192.4241574561
 21
139.5466524771
 31
0.0
  0
LINE
  5
1A6
100
AcDbEntity
  8
BPV_STRAIGHT_DN2
  6
CONTINUOUS
 62
         7
100
AcDbLine
 10
189.4433953426
 20
84.7094839031
 30
0.0
 11
187.9433956403
 21
87.3075595987
 31
0.0
  0
LINE
  5
1A7
100
AcDbEntity
  8
BPV_STRAIGHT_DN2
  6
CONTINUOUS
 62
         7
100
AcDbLine
 10
277.8268872791
 20
56.6187945514
 30
0.0
 11
276.6726087984
 21
56.6187945514
 31
0.0
  0
LINE
  5
1A8
100
AcDbEntity
  8
BPV_STRAIGHT_DN2
  6
CONTINUOUS
 62
         7
100
AcDbLine
 10
266.7368179423
 20
56.6187945514
 30
0.0
 11
267.891096423
 21
56.6187945514
 31
0.0
  0
LINE
  5
1A9
100
AcDbEntity
  8
BPV_STRAIGHT_DN2
  6
CONTINUOUS
 62
         7
100
AcDbLine
 10
191.8268872791
 20
15.6187945514
 30
0.0
 11
190.6726087984
 21
15.6187945514
 31
0.0
  0
LINE
  5
1AA
100
AcDbEntity
  8
BPV_STRAIGHT_DN2
  6
CONTINUOUS
 62
         7
100
AcDbLine
 10
266.7368179423
 20
15.6187945514
 30
0.0
 11
267.891096423
 21
15.6187945514
 31
0.0
  0
ARC
  5
1AB
100
AcDbEntity
  8
BPV_STRAIGHT_DN2
  6
CONTINUOUS
 62
         7
100
AcDbCircle
 10
313.2429847104
 20
46.3687945514
 30
0.0
 40
46.4957661646
100
AcDbArc
 50
167.2645244266
 51
192.7354755734
  0
ARC
  5
1AC
100
AcDbEntity
  8
BPV_STRAIGHT_DN2
  6
CONTINUOUS
 62
         7
100
AcDbCircle
 10
313.2429847104
 20
25.8687945514
 30
0.0
 40
46.4957661646
100
AcDbArc
 50
167.2645244266
 51
192.7354755734
  0
LINE
  5
1AD
100
AcDbEntity
  8
BPV_STRAIGHT_DN2
  6
CONTINUOUS
 62
         7
100
AcDbLine
 10
267.891096423
 20
56.6187945514
 30
0.0
 11
276.6726087984
 21
56.6187945514
 31
0.0
  0
LINE
  5
1AE
100
AcDbEntity
  8
BPV_STRAIGHT_DN2
  6
CONTINUOUS
 62
         7
100
AcDbLine
 10
181.891096423
 20
56.6187945514
 30
0.0
 11
190.6726087984
 21
56.6187945514
 31
0.0
  0
LINE
  5
1AF
100
AcDbEntity
  8
BPV_STRAIGHT_DN2
  6
CONTINUOUS
 62
         7
100
AcDbLine
 10
181.891096423
 20
36.1187945514
 30
0.0
 11
190.6726087984
 21
36.1187945514
 31
0.0
  0
LINE
  5
1B0
100
AcDbEntity
  8
BPV_STRAIGHT_DN2
  6
CONTINUOUS
 62
         7
100
AcDbLine
 10
210.0374155142
 20
47.2283580954
 30
0.0
 11
210.0738750157
 21
47.1993138532
 31
0.0
  0
ARC
  5
1B1
100
AcDbEntity
  8
BPV_STRAIGHT_DN2
  6
CONTINUOUS
 62
         7
100
AcDbCircle
 10
-978.3154643331
 20
912.6027503178
 30
0.0
 40
1502.1702591704
100
AcDbArc
 50
324.7570784078
 51
324.8799276209
  0
LINE
  5
1B2
100
AcDbEntity
  8
BPV_STRAIGHT_DN2
  6
CONTINUOUS
 62
         7
100
AcDbLine
 10
225.2757002204
 20
33.9213114443
 30
0.0
 11
250.3820345279
 21
48.4164603151
 31
0.0
  0
ARC
  5
1B3
100
AcDbEntity
  8
BPV_STRAIGHT_DN2
  6
CONTINUOUS
 62
         7
100
AcDbCircle
 10
303.5267658526
 20
37.7578892259
 30
0.0
 40
54.2030221043
100
AcDbArc
 50
162.7935578307
 51
168.6593604641
  0
LINE
  5
1B4
100
AcDbEntity
  8
BPV_STRAIGHT_DN2
  6
CONTINUOUS
 62
         7
100
AcDbLine
 10
245.9174241959
 20
63.8935966211
 30
0.0
 11
214.6705929357
 21
45.8532301817
 31
0.0
  0
SPLINE
  5
1B5
100
AcDbEntity
  8
BPV_STRAIGHT_DN2
  6
CONTINUOUS
 62
         7
100
AcDbSpline
210
0.0
220
0.0
230
1.0
 70
         8
 71
         3
 72
        18
 73
        14
 74
         0
 42
0.0
 43
0.0
 40
0.0
 40
0.0
 40
0.0
 40
0.0
 40
0.2499999999999999
 40
0.2499999999999999
 40
0.3749999999999999
 40
0.3749999999999999
 40
0.4999999999999999
 40
0.4999999999999999
 40
0.6249999999999999
 40
0.6249999999999999
 40
0.7499999999999998
 40
0.7499999999999998
 40
1.0
 40
1.0
 40
1.0
 40
1.0
 10
225.27570022039222
 20
33.921311444272931
 30
0.0
 10
227.55205914824111
 20
33.873542423039368
 30
0.0
 10
229.82727527637286
 20
33.980551808462153
 30
0.0
 10
233.23615653675284
 20
34.680398147329008
 30
0.0
 10
234.35657767078303
 20
35.006142212301263
 30
0.0
 10
236.49408034696273
 20
35.838502211251765
 30
0.0
 10
237.52134246317681
 20
36.346706135330493
 30
0.0
 10
239.50397644284499
 20
37.522313288907014
 30
0.0
 10
240.46399610856361
 20
38.193325257768507
 30
0.0
 10
242.27609578227364
 20
39.606097774262004
 30
0.0
 10
243.13624101024701
 20
40.351342420797224
 30
0.0
 10
245.61812527031196
 20
42.646936743185876
 30
0.0
 10
247.14793073100128
 20
44.260148330888704
 30
0.0
 10
248.52628970720338
 20
45.783969903279804
 30
0.0
  0
SPLINE
  5
1B6
100
AcDbEntity
  8
BPV_STRAIGHT_DN2
  6
CONTINUOUS
 62
         7
100
AcDbSpline
210
0.0
220
0.0
230
1.0
 70
         8
 71
         3
 72
        10
 73
         6
 74
         0
 42
0.0
 43
0.0
 40
0.0
 40
0.0
 40
0.0
 40
0.0
 40
0.5
 40
0.5
 40
1.0
 40
1.0
 40
1.0
 40
1.0
 10
214.6705929356572
 20
45.853230181690002
 30
0.0
 10
216.68561185584986
 20
44.301756115941373
 30
0.0
 10
218.71429564114638
 20
42.639820035497536
 30
0.0
 10
222.50273201018462
 20
38.796382014044099
 30
0.0
 10
224.30073969775253
 20
36.541496639038236
 30
0.0
 10
225.27570022039222
 20
33.921311444272931
 30
0.0
  0
LINE
  5
1B7
100
AcDbEntity
  8
BPV_STRAIGHT_DN2
  6
CONTINUOUS
 62
         7
100
AcDbLine
 10
192.4433953426
 20
79.5133314804
 30
0.0
 11
189.4433953426
 21
84.7094839031
 31
0.0
  0
LINE
  5
1B8
100
AcDbEntity
  8
BPV_STRAIGHT_DN2
  6
CONTINUOUS
 62
         7
100
AcDbLine
 10
192.4433953426
 20
79.5133314804
 30
0.0
 11
190.2472429199
 21
77.3171790576
 31
0.0
  0
ARC
  5
1B9
100
AcDbEntity
  8
BPV_STRAIGHT_DN2
  6
CONTINUOUS
 62
         7
100
AcDbCircle
 10
251.0867237389
 20
178.7317155726
 30
0.0
 40
137.7781784698
100
AcDbArc
 50
252.6821062312
 51
254.6740515033
  0
LINE
  5
1BA
100
AcDbEntity
  8
BPV_STRAIGHT_DN2
  6
CONTINUOUS
 62
         7
100
AcDbLine
 10
220.6203098788
 20
102.7094839031
 30
0.0
 11
223.6203098788
 21
97.5133314804
 31
0.0
  0
LINE
  5
1BB
100
AcDbEntity
  8
BPV_STRAIGHT_DN2
  6
CONTINUOUS
 62
         7
100
AcDbLine
 10
223.6203098788
 20
97.5133314804
 30
0.0
 11
226.6203098788
 21
98.3171790576
 31
0.0
  0
LINE
  5
1BC
100
AcDbEntity
  8
BPV_STRAIGHT_DN2
  6
CONTINUOUS
 62
         7
100
AcDbLine
 10
188.3094207464
 20
88.6735855182
 30
0.0
 11
217.754284475
 21
105.6735855182
 31
0.0
  0
LINE
  5
1BD
100
AcDbEntity
  8
BPV_STRAIGHT_DN2
  6
CONTINUOUS
 62
         7
100
AcDbLine
 10
220.6203098788
 20
102.7094839031
 30
0.0
 11
189.4433953426
 21
84.7094839031
 31
0.0
  0
LINE
  5
1BE
100
AcDbEntity
  8
BPV_STRAIGHT_DN2
  6
CONTINUOUS
 62
         7
100
AcDbLine
 10
194.5493637798
 20
69.8656871479
 30
0.0
 11
230.9224307388
 21
90.8656871479
 31
0.0
  0
LINE
  5
1BF
100
AcDbEntity
  8
BPV_STRAIGHT_DN2
  6
CONTINUOUS
 62
         7
100
AcDbLine
 10
235.5914623015
 20
88.7786872591
 30
0.0
 11
194.0222429199
 21
64.7786872591
 31
0.0
  0
LINE
  5
1C0
100
AcDbEntity
  8
BPV_STRAIGHT_DN2
  6
CONTINUOUS
 62
         7
100
AcDbLine
 10
236.9664623015
 20
86.3971173987
 30
0.0
 11
195.3972429199
 21
62.3971173987
 31
0.0
  0
LINE
  5
1C1
100
AcDbEntity
  8
BPV_STRAIGHT_DN2
  6
CONTINUOUS
 62
         7
100
AcDbLine
 10
202.4818526107
 20
54.5384853736
 30
0.0
 11
202.4818526107
 21
16.8687945514
 31
0.0
  0
LINE
  5
1C2
100
AcDbEntity
  8
BPV_STRAIGHT_DN2
  6
CONTINUOUS
 62
         7
100
AcDbLine
 10
210.0374155142
 20
19.6187945514
 30
0.0
 11
210.0374155142
 21
47.2283580954
 31
0.0
  0
LINE
  5
1C3
100
AcDbEntity
  8
BPV_STRAIGHT_DN2
  6
CONTINUOUS
 62
         7
100
AcDbLine
 10
245.9174241959
 20
67.8935966211
 30
0.0
 11
210.0738750157
 21
47.1993138532
 31
0.0
  0
LINE
  5
1C4
100
AcDbEntity
  8
BPV_STRAIGHT_DN2
  6
CONTINUOUS
 62
         7
100
AcDbLine
 10
236.9664623015
 20
83.3971173987
 30
0.0
 11
197.9953191312
 21
60.8971173987
 31
0.0
  0
LINE
  5
1C5
100
AcDbEntity
  8
BPV_STRAIGHT_DN2
  6
CONTINUOUS
 62
         7
100
AcDbLine
 10
180.2818526107
 20
55.3687945514
 30
0.0
 11
180.2818526107
 21
16.8687945514
 31
0.0
  0
ARC
  5
1C6
100
AcDbEntity
  8
BPV_STRAIGHT_DN2
  6
CONTINUOUS
 62
         7
100
AcDbCircle
 10
231.320720511
 20
46.3687945514
 30
0.0
 40
46.4957661646
100
AcDbArc
 50
347.2645244266
 51
12.7354755734
  0
LINE
  5
1C7
100
AcDbEntity
  8
BPV_STRAIGHT_DN2
  6
CONTINUOUS
 62
         7
100
AcDbLine
 10
277.8268872791
 20
15.6187945514
 30
0.0
 11
276.6726087984
 21
15.6187945514
 31
0.0
  0
LINE
  5
1C8
100
AcDbEntity
  8
BPV_STRAIGHT_DN2
  6
CONTINUOUS
 62
         7
100
AcDbLine
 10
192.2818526107
 20
55.3687945514
 30
0.0
 11
192.2818526107
 21
16.8687945514
 31
0.0
  0
ARC
  5
1C9
100
AcDbEntity
  8
BPV_STRAIGHT_DN2
  6
CONTINUOUS
 62
         7
100
AcDbCircle
 10
231.320720511
 20
25.8687945514
 30
0.0
 40
46.4957661646
100
AcDbArc
 50
347.2645244266
 51
12.7354755734
  0
LINE
  5
1CA
100
AcDbEntity
  8
BPV_STRAIGHT_DN2
  6
CONTINUOUS
 62
         7
100
AcDbLine
 10
181.891096423
 20
15.6187945514
 30
0.0
 11
190.6726087984
 21
15.6187945514
 31
0.0
  0
LINE
  5
1CB
100
AcDbEntity
  8
BPV_STRAIGHT_DN2
  6
CONTINUOUS
 62
         7
100
AcDbLine
 10
267.891096423
 20
15.6187945514
 30
0.0
 11
276.6726087984
 21
15.6187945514
 31
0.0
  0
LINE
  5
1CC
100
AcDbEntity
  8
BPV_STRAIGHT_DN2
  6
CONTINUOUS
 62
         7
100
AcDbLine
 10
267.891096423
 20
36.1187945514
 30
0.0
 11
276.6726087984
 21
36.1187945514
 31
0.0
  0
LINE
  5
1CD
100
AcDbEntity
  8
BPV_STRAIGHT_DN2
  6
CONTINUOUS
 62
         7
100
AcDbLine
 10
191.8268872791
 20
56.6187945514
 30
0.0
 11
190.6726087984
 21
56.6187945514
 31
0.0
  0
ARC
  5
1CE
100
AcDbEntity
  8
BPV_STRAIGHT_DN2
  6
CONTINUOUS
 62
         7
100
AcDbCircle
 10
145.320720511
 20
46.3687945514
 30
0.0
 40
46.4957661646
100
AcDbArc
 50
347.2645244266
 51
12.7354755734
  0
ARC
  5
1CF
100
AcDbEntity
  8
BPV_STRAIGHT_DN2
  6
CONTINUOUS
 62
         7
100
AcDbCircle
 10
145.320720511
 20
25.8687945514
 30
0.0
 40
46.4957661646
100
AcDbArc
 50
347.2645244266
 51
12.7354755734
  0
LINE
  5
1D0
100
AcDbEntity
  8
BPV_STRAIGHT_DN2
  6
CONTINUOUS
 62
         7
100
AcDbLine
 10
180.7368179423
 20
15.6187945514
 30
0.0
 11
181.891096423
 21
15.6187945514
 31
0.0
  0
ARC
  5
1D1
100
AcDbEntity
  8
BPV_STRAIGHT_DN2
  6
CONTINUOUS
 62
         7
100
AcDbCircle
 10
227.2429847104
 20
46.3687945514
 30
0.0
 40
46.4957661646
100
AcDbArc
 50
167.2645244266
 51
192.7354755734
  0
ARC
  5
1D2
100
AcDbEntity
  8
BPV_STRAIGHT_DN2
  6
CONTINUOUS
 62
         7
100
AcDbCircle
 10
227.2429847104
 20
25.8687945514
 30
0.0
 40
46.4957661646
100
AcDbArc
 50
167.2645244266
 51
192.7354755734
  0
LINE
  5
1D3
100
AcDbEntity
  8
BPV_STRAIGHT_DN2
  6
CONTINUOUS
 62
         7
100
AcDbLine
 10
256.0818526107
 20
55.3687945514
 30
0.0
 11
256.0818526107
 21
16.8687945514
 31
0.0
  0
LINE
  5
1D4
100
AcDbEntity
  8
BPV_STRAIGHT_DN2
  6
CONTINUOUS
 62
         7
100
AcDbLine
 10
248.5262897072
 20
19.6187945514
 30
0.0
 11
248.5262897072
 21
35.3710444191
 31
0.0
  0
LINE
  5
1D5
100
AcDbEntity
  8
BPV_STRAIGHT_DN2
  6
CONTINUOUS
 62
         7
100
AcDbLine
 10
248.5262897072
 20
36.8665446837
 30
0.0
 11
248.5262897072
 21
45.7839699033
 31
0.0
  0
ARC
  5
1D6
100
AcDbEntity
  8
BPV_STRAIGHT_DN2
  6
CONTINUOUS
 62
         7
100
AcDbCircle
 10
136.3301411026
 20
-21.3939357947
 30
0.0
 40
100.7064125065
100
AcDbArc
 50
42.9538752078
 51
48.9378833001
  0
LINE
  5
1D7
100
AcDbEntity
  8
BPV_STRAIGHT_DN2
  6
CONTINUOUS
 62
         7
100
AcDbLine
 10
278.2818526107
 20
55.3687945514
 30
0.0
 11
278.2818526107
 21
16.8687945514
 31
0.0
  0
LINE
  5
1D8
100
AcDbEntity
  8
BPV_STRAIGHT_DN2
  6
CONTINUOUS
 62
         7
100
AcDbLine
 10
266.2818526107
 20
55.3687945514
 30
0.0
 11
266.2818526107
 21
16.8687945514
 31
0.0
  0
LINE
  5
1D9
100
AcDbEntity
  8
BPV_STRAIGHT_DN2
  6
CONTINUOUS
 62
         7
100
AcDbLine
 10
243.736325877
 20
38.6187945514
 30
0.0
 11
241.236325877
 21
36.1187945514
 31
0.0
  0
LINE
  5
1DA
100
AcDbEntity
  8
BPV_STRAIGHT_DN2
  6
CONTINUOUS
 62
         7
100
AcDbLine
 10
219.1203112248
 20
105.3075577831
 30
0.0
 11
220.6203098788
 21
102.7094839031
 31
0.0
  0
LINE
  5
1DB
100
AcDbEntity
  8
BPV_STRAIGHT_DN2
  6
CONTINUOUS
 62
         7
100
AcDbLine
 10
193.9972429199
 20
64.8219885293
 30
0.0
 11
235.5664623015
 21
88.8219885293
 31
0.0
  0
LINE
  5
1DC
100
AcDbEntity
  8
BPV_STRAIGHT_DN2
  6
CONTINUOUS
 62
         7
100
AcDbLine
 10
192.4972429199
 20
67.4200647406
 30
0.0
 11
234.0664623015
 21
91.4200647406
 31
0.0
  0
LINE
  5
1DD
100
AcDbEntity
  8
BPV_STRAIGHT_DN2
  6
CONTINUOUS
 62
         7
100
AcDbLine
 10
185.8895477653
 20
102.8649284693
 30
0.0
 11
206.6741574561
 21
114.8649284693
 31
0.0
  0
LINE
  5
1DE
100
AcDbEntity
  8
BPV_STRAIGHT_DN2
  6
CONTINUOUS
 62
         7
100
AcDbLine
 10
241.236325877
 20
36.1187945514
 30
0.0
 11
243.736325877
 21
33.6187945514
 31
0.0
  0
LINE
  5
1DF
100
AcDbEntity
  8
BPV_STRAIGHT_DN2
  6
CONTINUOUS
 62
         7
100
AcDbLine
 10
243.736325877
 20
33.6187945514
 30
0.0
 11
244.9988986668
 21
33.6187945514
 31
0.0
  0
LINE
  5
1E0
100
AcDbEntity
  8
BPV_STRAIGHT_DN2
  6
CONTINUOUS
 62
         7
100
AcDbLine
 10
244.9988986668
 20
33.6187945514
 30
0.0
 11
244.9988986668
 21
35.3710444191
 31
0.0
  0
LINE
  5
1E1
100
AcDbEntity
  8
BPV_STRAIGHT_DN2
  6
CONTINUOUS
 62
         7
100
AcDbLine
 10
249.7818526107
 20
35.3710444191
 30
0.0
 11
249.7818526107
 21
36.8665446837
 31
0.0
  0
LINE
  5
1E2
100
AcDbEntity
  8
BPV_STRAIGHT_DN2
  6
CONTINUOUS
 62
         7
100
AcDbLine
 10
244.9988986668
 20
38.6187945514
 30
0.0
 11
243.736325877
 21
38.6187945514
 31
0.0
  0
LINE
  5
1E3
100
AcDbEntity
  8
BPV_STRAIGHT_DN2
  6
CONTINUOUS
 62
         7
100
AcDbLine
 10
244.9988986668
 20
35.3710444191
 30
0.0
 11
249.7818526107
 21
35.3710444191
 31
0.0
  0
LINE
  5
1E4
100
AcDbEntity
  8
BPV_STRAIGHT_DN2
  6
CONTINUOUS
 62
         7
100
AcDbLine
 10
249.7818526107
 20
36.8665446837
 30
0.0
 11
244.9988986668
 21
36.8665446837
 31
0.0
  0
LINE
  5
1E5
100
AcDbEntity
  8
BPV_STRAIGHT_DN2
  6
CONTINUOUS
 62
         7
100
AcDbLine
 10
244.9988986668
 20
36.8665446837
 30
0.0
 11
244.9988986668
 21
38.6187945514
 31
0.0
  0
LINE
  5
1E6
100
AcDbEntity
  8
BPV_STRAIGHT_DN2
  6
CONTINUOUS
 62
         7
100
AcDbLine
 10
208.4106478618
 20
114.8649284693
 30
0.0
 11
206.6741574561
 21
114.8649284693
 31
0.0
  0
LINE
  5
1E7
100
AcDbEntity
  8
BPV_STRAIGHT_DN2
  6
CONTINUOUS
 62
         7
100
AcDbLine
 10
212.9731955618
 20
106.9546744314
 30
0.0
 11
212.0312853977
 21
106.4108623447
 31
0.0
  0
LINE
  5
1E8
100
AcDbEntity
  8
BPV_STRAIGHT_DN2
  6
CONTINUOUS
 62
         7
100
AcDbLine
 10
211.9731955618
 20
108.686725239
 30
0.0
 11
211.0312853977
 21
108.1429131522
 31
0.0
  0
LINE
  5
1E9
100
AcDbEntity
  8
BPV_STRAIGHT_DN2
  6
CONTINUOUS
 62
         7
100
AcDbLine
 10
189.5324198237
 20
95.7305373258
 30
0.0
 11
188.5905096596
 21
95.186725239
 31
0.0
  0
LINE
  5
1EA
100
AcDbEntity
  8
BPV_STRAIGHT_DN2
  6
CONTINUOUS
 62
         7
100
AcDbLine
 10
189.5905096596
 20
93.4546744314
 30
0.0
 11
188.5905096596
 21
95.186725239
 31
0.0
  0
LINE
  5
1EB
100
AcDbEntity
  8
BPV_STRAIGHT_DN2
  6
CONTINUOUS
 62
         7
100
AcDbLine
 10
190.5324198237
 20
93.9984865182
 30
0.0
 11
189.5905096596
 21
93.4546744314
 31
0.0
  0
LINE
  5
1EC
100
AcDbEntity
  8
BPV_STRAIGHT_DN2
  6
CONTINUOUS
 62
         7
100
AcDbLine
 10
211.0312853977
 20
108.1429131522
 30
0.0
 11
201.2237627748
 21
102.4805373258
 31
0.0
  0
LINE
  5
1ED
100
AcDbEntity
  8
BPV_STRAIGHT_DN2
  6
CONTINUOUS
 62
         7
100
AcDbLine
 10
186.3984452275
 20
101.1587405561
 30
0.0
 11
185.4565350634
 21
100.6149284693
 31
0.0
  0
LINE
  5
1EE
100
AcDbEntity
  8
BPV_STRAIGHT_DN2
  6
CONTINUOUS
 62
         7
100
AcDbLine
 10
187.0131593904
 20
97.9187760466
 30
0.0
 11
185.4565350634
 21
100.6149284693
 31
0.0
  0
LINE
  5
1EF
100
AcDbEntity
  8
BPV_STRAIGHT_DN2
  6
CONTINUOUS
 62
         7
100
AcDbLine
 10
208.8392209656
 20
114.1149284693
 30
0.0
 11
208.4062083514
 21
114.8649283173
 31
0.0
  0
LINE
  5
1F0
100
AcDbEntity
  8
BPV_STRAIGHT_DN2
  6
CONTINUOUS
 62
         7
100
AcDbLine
 10
256.0818526107
 20
55.3687945514
 30
0.0
 11
251.7446346095
 21
53.7901762994
 31
0.0
  0
LINE
  5
1F1
100
AcDbEntity
  8
BPV_STRAIGHT_DN2
  6
CONTINUOUS
 62
         7
100
AcDbLine
 10
210.3958452926
 20
111.4187760466
 30
0.0
 11
209.4539351285
 21
110.8749639598
 31
0.0
  0
LINE
  5
1F2
100
AcDbEntity
  8
BPV_STRAIGHT_DN2
  6
CONTINUOUS
 62
         7
100
AcDbLine
 10
187.9550695545
 20
98.4625881334
 30
0.0
 11
187.0131593904
 21
97.9187760466
 31
0.0
  0
LINE
  5
1F3
100
AcDbEntity
  8
BPV_STRAIGHT_DN2
  6
CONTINUOUS
 62
         7
100
AcDbLine
 10
230.9224307388
 20
90.8656871479
 30
0.0
 11
226.6203098788
 21
98.3171790576
 31
0.0
  0
LINE
  5
1F4
100
AcDbEntity
  8
BPV_STRAIGHT_DN2
  6
CONTINUOUS
 62
         7
100
AcDbLine
 10
234.0664623015
 20
91.4200647406
 30
0.0
 11
230.9224307388
 21
90.8656871479
 31
0.0
  0
LINE
  5
1F5
100
AcDbEntity
  8
BPV_STRAIGHT_DN2
  6
CONTINUOUS
 62
         7
100
AcDbLine
 10
235.5664623015
 20
88.8219885293
 30
0.0
 11
234.0664623015
 21
91.4200647406
 31
0.0
  0
LINE
  5
1F6
100
AcDbEntity
  8
BPV_STRAIGHT_DN2
  6
CONTINUOUS
 62
         7
100
AcDbLine
 10
195.3972429199
 20
62.3971173987
 30
0.0
 11
197.9953191312
 21
60.8971173987
 31
0.0
  0
LINE
  5
1F7
100
AcDbEntity
  8
BPV_STRAIGHT_DN2
  6
CONTINUOUS
 62
         7
100
AcDbLine
 10
194.0222429199
 20
64.7786872591
 30
0.0
 11
195.3972429199
 21
62.3971173987
 31
0.0
  0
LINE
  5
1F8
100
AcDbEntity
  8
BPV_STRAIGHT_DN2
  6
CONTINUOUS
 62
         7
100
AcDbLine
 10
197.9953191312
 20
60.8971173987
 30
0.0
 11
201.1968159356
 21
55.3519622733
 31
0.0
  0
LINE
  5
1F9
100
AcDbEntity
  8
BPV_STRAIGHT_DN2
  6
CONTINUOUS
 62
         7
100
AcDbLine
 10
277.8268898179
 20
15.6187945514
 30
0.0
 11
278.2818526107
 21
16.8687945514
 31
0.0
  0
LINE
  5
1FA
100
AcDbEntity
  8
BPV_STRAIGHT_DN2
  6
CONTINUOUS
 62
         7
100
AcDbLine
 10
210.0374155142
 20
19.6187945514
 30
0.0
 11
248.5262897072
 21
19.6187945514
 31
0.0
  0
LINE
  5
1FB
100
AcDbEntity
  8
BPV_STRAIGHT_DN2
  6
CONTINUOUS
 62
         7
100
AcDbLine
 10
251.7523003258
 20
53.7872947082
 30
0.0
 11
245.9174241959
 21
63.8935966211
 31
0.0
  0
LINE
  5
1FC
100
AcDbEntity
  8
BPV_STRAIGHT_DN2
  6
CONTINUOUS
 62
         7
100
AcDbLine
 10
180.7368179423
 20
56.6187945514
 30
0.0
 11
181.891096423
 21
56.6187945514
 31
0.0
  0
SPLINE
  5
1FD
100
AcDbEntity
  8
BPV_STRAIGHT_DN2
  6
CONTINUOUS
 62
         7
100
AcDbSpline
210
0.0
220
0.0
230
1.0
 70
         8
 71
         3
 72
        10
 73
         6
 74
         0
 42
0.0
 43
0.0
 40
0.5004264164077491
 40
0.5004264164077491
 40
0.5004264164077491
 40
0.5004264164077491
 40
0.75
 40
0.75
 40
1.0
 40
1.0
 40
1.0
 40
1.0
 10
201.18709785264488
 20
55.368794528094071
 30
0.0
 10
201.18711539872811
 20
55.368783542691908
 30
0.0
 10
201.30576928844266
 20
55.293044500427946
 30
0.0
 10
201.7514762911199
 20
55.007740987432399
 30
0.0
 10
202.07661746384554
 20
54.799375735175239
 30
0.0
 10
202.48185261070356
 20
54.538485373589218
 30
0.0
  0
LINE
  5
1FE
100
AcDbEntity
  8
BPV_STRAIGHT_DN2
  6
CONTINUOUS
 62
         7
100
AcDbLine
 10
180.7368154035
 20
56.6187945514
 30
0.0
 11
180.2818526107
 21
55.3687945514
 31
0.0
  0
LINE
  5
1FF
100
AcDbEntity
  8
BPV_STRAIGHT_DN2
  6
CONTINUOUS
 62
         7
100
AcDbLine
 10
245.9174241959
 20
63.8935966211
 30
0.0
 11
245.9174241959
 21
67.8935966211
 31
0.0
  0
LINE
  5
200
100
AcDbEntity
  8
BPV_STRAIGHT_DN2
  6
CONTINUOUS
 62
         7
100
AcDbLine
 10
219.1252802337
 20
105.3062283118
 30
0.0
 11
217.754284475
 21
105.6735855182
 31
0.0
  0
LINE
  5
201
100
AcDbEntity
  8
BPV_STRAIGHT_DN2
  6
CONTINUOUS
 62
         7
100
AcDbLine
 10
187.4426742486
 20
97.1687760466
 30
0.0
 11
188.0235223615
 21
97.1687760466
 31
0.0
  0
LINE
  5
202
100
AcDbEntity
  8
BPV_STRAIGHT_DN2
  6
CONTINUOUS
 62
         7
100
AcDbLine
 10
214.2468815897
 20
103.6485855182
 30
0.0
 11
213.7468815897
 21
104.514610922
 31
0.0
  0
LINE
  5
203
100
AcDbEntity
  8
BPV_STRAIGHT_DN2
  6
CONTINUOUS
 62
         7
100
AcDbLine
 10
206.6741574561
 20
114.8649284693
 30
0.0
 11
192.4241574561
 21
139.5466524771
 31
0.0
  0
LINE
  5
204
100
AcDbEntity
  8
BPV_STRAIGHT_DN2
  6
CONTINUOUS
 62
         7
100
AcDbLine
 10
211.5401828599
 20
108.436725239
 30
0.0
 11
210.5401828599
 21
110.1687760466
 31
0.0
  0
LINE
  5
205
100
AcDbEntity
  8
BPV_STRAIGHT_DN2
  6
CONTINUOUS
 62
         7
100
AcDbLine
 10
213.7901828599
 20
104.539610922
 30
0.0
 11
212.5401828599
 21
106.7046744314
 31
0.0
  0
LINE
  5
206
100
AcDbEntity
  8
BPV_STRAIGHT_DN2
  6
CONTINUOUS
 62
         7
100
AcDbLine
 10
185.8895477653
 20
102.8649284693
 30
0.0
 11
185.0209779191
 21
101.3605213658
 31
0.0
  0
LINE
  5
207
100
AcDbEntity
  8
BPV_STRAIGHT_DN2
  6
CONTINUOUS
 62
         7
100
AcDbLine
 10
248.5262897072
 20
19.6187945514
 30
0.0
 11
256.0818526107
 21
16.8687945514
 31
0.0
  0
LINE
  5
208
100
AcDbEntity
  8
BPV_STRAIGHT_DN2
  6
CONTINUOUS
 62
         7
100
AcDbLine
 10
190.2472429199
 20
77.3171790576
 30
0.0
 11
194.5493637798
 21
69.8656871479
 31
0.0
  0
LINE
  5
209
100
AcDbEntity
  8
BPV_STRAIGHT_DN2
  6
CONTINUOUS
 62
         7
100
AcDbLine
 10
194.5493637798
 20
69.8656871479
 30
0.0
 11
192.4972429199
 21
67.4200647406
 31
0.0
  0
LINE
  5
20A
100
AcDbEntity
  8
BPV_STRAIGHT_DN2
  6
CONTINUOUS
 62
         7
100
AcDbLine
 10
192.4972429199
 20
67.4200647406
 30
0.0
 11
193.9972429199
 21
64.8219885293
 31
0.0
  0
LINE
  5
20B
100
AcDbEntity
  8
BPV_STRAIGHT_DN2
  6
CONTINUOUS
 62
         7
100
AcDbLine
 10
236.9664623015
 20
83.3971173987
 30
0.0
 11
236.9664623015
 21
86.3971173987
 31
0.0
  0
LINE
  5
20C
100
AcDbEntity
  8
BPV_STRAIGHT_DN2
  6
CONTINUOUS
 62
         7
100
AcDbLine
 10
236.9664623015
 20
86.3971173987
 30
0.0
 11
235.5914623015
 21
88.7786872591
 31
0.0
  0
LINE
  5
20D
100
AcDbEntity
  8
BPV_STRAIGHT_DN2
  6
CONTINUOUS
 62
         7
100
AcDbLine
 10
245.9174241959
 20
67.8935966211
 30
0.0
 11
236.9664623015
 21
83.3971173987
 31
0.0
  0
LINE
  5
20E
100
AcDbEntity
  8
BPV_STRAIGHT_DN2
  6
CONTINUOUS
 62
         7
100
AcDbLine
 10
278.2818526107
 20
55.3687945514
 30
0.0
 11
277.8268898179
 21
56.6187945514
 31
0.0
  0
LINE
  5
20F
100
AcDbEntity
  8
BPV_STRAIGHT_DN2
  6
CONTINUOUS
 62
         7
100
AcDbLine
 10
192.2818526107
 20
16.8687945514
 30
0.0
 11
202.4818526107
 21
16.8687945514
 31
0.0
  0
LINE
  5
210
100
AcDbEntity
  8
BPV_STRAIGHT_DN2
  6
CONTINUOUS
 62
         7
100
AcDbLine
 10
256.0818526107
 20
16.8687945514
 30
0.0
 11
266.2818526107
 21
16.8687945514
 31
0.0
  0
LINE
  5
211
100
AcDbEntity
  8
BPV_STRAIGHT_DN2
  6
CONTINUOUS
 62
         7
100
AcDbLine
 10
202.4818526107
 20
16.8687945514
 30
0.0
 11
210.0374155142
 21
19.6187945514
 31
0.0
  0
LINE
  5
212
100
AcDbEntity
  8
BPV_STRAIGHT_DN2
  6
CONTINUOUS
 62
         7
100
AcDbLine
 10
266.7368154035
 20
56.6187945514
 30
0.0
 11
266.2818526107
 21
55.3687945514
 31
0.0
  0
LINE
  5
213
100
AcDbEntity
  8
BPV_STRAIGHT_DN2
  6
CONTINUOUS
 62
         7
100
AcDbLine
 10
191.8268898179
 20
15.6187945514
 30
0.0
 11
192.2818526107
 21
16.8687945514
 31
0.0
  0
LINE
  5
214
100
AcDbEntity
  8
BPV_STRAIGHT_DN2
  6
CONTINUOUS
 62
         7
100
AcDbLine
 10
180.2818526107
 20
16.8687945514
 30
0.0
 11
180.7368154035
 21
15.6187945514
 31
0.0
  0
LINE
  5
215
100
AcDbEntity
  8
BPV_STRAIGHT_DN2
  6
CONTINUOUS
 62
         7
100
AcDbLine
 10
188.3094207464
 20
88.6735855182
 30
0.0
 11
187.9370558531
 21
87.2839008176
 31
0.0
  0
LINE
  5
216
100
AcDbEntity
  8
BPV_STRAIGHT_DN2
  6
CONTINUOUS
 62
         7
100
AcDbLine
 10
210.5401828599
 20
110.1687760466
 30
0.0
 11
210.8309761553
 21
110.6724448087
 31
0.0
  0
LINE
  5
217
100
AcDbEntity
  8
BPV_STRAIGHT_DN2
  6
CONTINUOUS
 62
         7
100
AcDbLine
 10
191.3168236317
 20
91.564610922
 30
0.0
 11
191.8168236317
 21
90.6985855182
 31
0.0
  0
LINE
  5
218
100
AcDbEntity
  8
BPV_STRAIGHT_DN2
  6
CONTINUOUS
 62
         7
100
AcDbLine
 10
171.6395477653
 20
127.5466524771
 30
0.0
 11
185.8895477653
 21
102.8649284693
 31
0.0
  0
LINE
  5
219
100
AcDbEntity
  8
BPV_STRAIGHT_DN2
  6
CONTINUOUS
 62
         7
100
AcDbLine
 10
188.0235223615
 20
97.1687760466
 30
0.0
 11
189.0235223615
 21
95.436725239
 31
0.0
  0
LINE
  5
21A
100
AcDbEntity
  8
BPV_STRAIGHT_DN2
  6
CONTINUOUS
 62
         7
100
AcDbLine
 10
190.0235223615
 20
93.7046744314
 30
0.0
 11
191.2735223615
 21
91.539610922
 31
0.0
  0
LINE
  5
21B
100
AcDbEntity
  8
BPV_STRAIGHT_DN2
  6
CONTINUOUS
 62
         7
100
AcDbLine
 10
201.2055762649
 20
55.3687945514
 30
0.0
 11
192.2818526107
 21
55.3687945514
 31
0.0
  0
LINE
  5
21C
100
AcDbEntity
  8
BPV_STRAIGHT_DN2
  6
CONTINUOUS
 62
         7
100
AcDbLine
 10
266.2818526107
 20
55.3687945514
 30
0.0
 11
256.0818526107
 21
55.3687945514
 31
0.0
  0
LINE
  5
21D
100
AcDbEntity
  8
BPV_STRAIGHT_DN2
  6
CONTINUOUS
 62
         7
100
AcDbLine
 10
266.2818526107
 20
16.8687945514
 30
0.0
 11
266.7368154035
 21
15.6187945514
 31
0.0
  0
LINE
  5
21E
100
AcDbEntity
  8
BPV_STRAIGHT_DN2
  6
CONTINUOUS
 62
         7
100
AcDbLine
 10
192.2818526107
 20
55.3687945514
 30
0.0
 11
191.8268898179
 21
56.6187945514
 31
0.0
  0
ENDBLK
  5
21F
100
AcDbEntity
  8
BPV_STRAIGHT_DN2
  6
CONTINUOUS
 62
         7
100
AcDbBlockEnd
  0
BLOCK
  5
29C
100
AcDbEntity
  8
0
 62
         1
 48
0.0
100
AcDbBlockBegin
  2
SE6
 70
         0
 10
0.0
 20
0.0
 30
0.0
  3
SE6
  1

  0
ENDBLK
  5
29D
100
AcDbEntity
  8
0
 62
         1
 48
0.0
100
AcDbBlockEnd
  0
BLOCK
  5
222
100
AcDbEntity
  8
0
 62
         1
 48
0.0
100
AcDbBlockBegin
  2
SE7
 70
         0
 10
0.0
 20
0.0
 30
0.0
  3
SE7
  1

  0
ELLIPSE
  5
223
100
AcDbEntity
  8
BPV_STRAIGHT_DN2
  6
CONTINUOUS
 62
         7
100
AcDbEllipse
 10
199.7420619623
 20
197.0360268771
 30
0.0
 11
0.0000000000017634
 21
14.999999999995211
 31
0.0
210
0.0
220
0.0
230
1.0
 40
0.5
 41
3.0690206897877954
 42
3.1415926535897931
  0
ARC
  5
224
100
AcDbEntity
  8
BPV_STRAIGHT_DN2
  6
CONTINUOUS
 62
         7
100
AcDbCircle
 10
208.4505781754
 20
195.8093159336
 30
0.0
 40
16.5596803148
100
AcDbArc
 50
205.7545453393
 51
236.032243959
  0
LINE
  5
225
100
AcDbEntity
  8
BPV_STRAIGHT_DN2
  6
CONTINUOUS
 62
         7
100
AcDbLine
 10
199.1982498755
 20
182.0755097183
 30
0.0
 11
201.8944022982
 21
182.0755097183
 31
0.0
  0
LINE
  5
226
100
AcDbEntity
  8
BPV_STRAIGHT_DN2
  6
CONTINUOUS
 62
         7
100
AcDbLine
 10
196.2320264718
 20
188.6138581336
 30
0.0
 11
193.5358740491
 21
188.6138581336
 31
0.0
  0
ARC
  5
227
100
AcDbEntity
  8
BPV_STRAIGHT_DN2
  6
CONTINUOUS
 62
         7
100
AcDbCircle
 10
186.9796981719
 20
174.8800519184
 30
0.0
 40
16.5596803148
100
AcDbArc
 50
25.7545453393
 51
56.032243959
  0
LINE
  5
228
100
AcDbEntity
  8
BPV_STRAIGHT_DN2
  6
CONTINUOUS
 62
         7
100
AcDbLine
 10
195.688214385
 20
203.5743752924
 30
0.0
 11
192.9920619623
 21
203.5743752924
 31
0.0
  0
ELLIPSE
  5
229
100
AcDbEntity
  8
BPV_STRAIGHT_DN2
  6
CONTINUOUS
 62
         7
100
AcDbEllipse
 10
205.1702651926
 20
197.036026877
 30
0.0
 11
-0.0000000000017616
 21
14.999999999924814
 31
0.0
210
0.0
220
0.0
230
1.0
 40
0.5
 41
3.0690206897875045
 42
3.1415926535897896
  0
ELLIPSE
  5
22A
100
AcDbEntity
  8
BPV_STRAIGHT_DN2
  6
CONTINUOUS
 62
         7
100
AcDbEllipse
 10
199.7420619624
 20
197.036026877
 30
0.0
 11
-0.000000000048835
 21
15.000000000106592
 31
0.0
210
0.0
220
0.0
230
1.0
 40
0.5
 41
0.9746255873908656
 42
1.1197695149941103
  0
ELLIPSE
  5
22B
100
AcDbEntity
  8
BPV_STRAIGHT_DN2
  6
CONTINUOUS
 62
         7
100
AcDbEllipse
 10
199.7420619622
 20
197.036026877
 30
0.0
 11
0.0000000000596319
 21
-14.999999999868237
 31
0.0
210
0.0
220
0.0
230
1.0
 40
0.5
 41
5.1634157921753774
 42
5.3085597197804768
  0
ELLIPSE
  5
22C
100
AcDbEntity
  8
BPV_STRAIGHT_DN2
  6
CONTINUOUS
 62
         7
100
AcDbEllipse
 10
202.438214385
 20
197.036026877
 30
0.0
 11
-0.0000000000017477
 21
14.999999999922496
 31
0.0
210
0.0
220
0.0
230
1.0
 40
0.5
 41
3.069020689787489
 42
3.2141646173919822
  0
ELLIPSE
  5
22D
100
AcDbEntity
  8
BPV_STRAIGHT_DN2
  6
CONTINUOUS
 62
         7
100
AcDbEllipse
 10
203.438214385
 20
197.0360268771
 30
0.0
 11
-0.0000000000000008
 21
-13.000000000000005
 31
0.0
210
0.0
220
0.0
230
1.0
 40
0.5
 41
3.2263084006586538
 42
6.1984695601107518
  0
LINE
  5
22E
100
AcDbEntity
  8
BPV_STRAIGHT_DN2
  6
CONTINUOUS
 62
         7
100
AcDbLine
 10
205.7896561821
 20
211.9965440358
 30
0.0
 11
204.6264531058
 21
211.9965440358
 31
0.0
  0
LINE
  5
22F
100
AcDbEntity
  8
BPV_STRAIGHT_DN2
  6
CONTINUOUS
 62
         7
100
AcDbLine
 10
204.6264531058
 20
211.9965440358
 30
0.0
 11
198.9640772794
 21
205.4581956205
 31
0.0
  0
ARC
  5
230
100
AcDbEntity
  8
BPV_STRAIGHT_DN2
  6
CONTINUOUS
 62
         7
100
AcDbCircle
 10
186.9592020735
 20
219.2097519776
 30
0.0
 40
16.5858546528
100
AcDbArc
 50
303.9922173758
 51
334.220993326
  0
LINE
  5
231
100
AcDbEntity
  8
BPV_STRAIGHT_DN2
  6
CONTINUOUS
 62
         7
100
AcDbLine
 10
198.9640772794
 20
205.4581956205
 30
0.0
 11
200.6961280869
 21
205.4581956205
 31
0.0
  0
LINE
  5
232
100
AcDbEntity
  8
BPV_STRAIGHT_DN2
  6
CONTINUOUS
 62
         7
100
AcDbLine
 10
200.6961280869
 20
205.4581956205
 30
0.0
 11
204.0836349778
 21
209.3697516512
 31
0.0
  0
ELLIPSE
  5
233
100
AcDbEntity
  8
BPV_STRAIGHT_DN2
  6
CONTINUOUS
 62
         7
100
AcDbEllipse
 10
206.9023160002
 20
197.0360268771
 30
0.0
 11
-0.0000000000000008
 21
-13.000000000000005
 31
0.0
210
0.0
220
0.0
230
1.0
 40
0.5
 41
3.6980488095341668
 42
5.7267291512352125
  0
LINE
  5
234
100
AcDbEntity
  8
BPV_STRAIGHT_DN2
  6
CONTINUOUS
 62
         7
100
AcDbLine
 10
201.8944022982
 20
211.9965440358
 30
0.0
 11
199.1982498755
 21
211.9965440358
 31
0.0
  0
LINE
  5
235
100
AcDbEntity
  8
BPV_STRAIGHT_DN2
  6
CONTINUOUS
 62
         7
100
AcDbLine
 10
193.5358740491
 20
205.4581956205
 30
0.0
 11
196.2320264718
 21
205.4581956205
 31
0.0
  0
LINE
  5
236
100
AcDbEntity
  8
BPV_STRAIGHT_DN2
  6
CONTINUOUS
 62
         7
100
AcDbLine
 10
192.9920619623
 20
190.4976784618
 30
0.0
 11
195.688214385
 21
190.4976784618
 31
0.0
  0
ARC
  5
237
100
AcDbEntity
  8
BPV_STRAIGHT_DN2
  6
CONTINUOUS
 62
         7
100
AcDbCircle
 10
167.5632139873
 20
197.0360268771
 30
0.0
 40
28.8750003874
100
AcDbArc
 50
346.9126475141
 51
13.0873524859
  0
LINE
  5
238
100
AcDbEntity
  8
BPV_STRAIGHT_DN2
  6
CONTINUOUS
 62
         7
100
AcDbLine
 10
198.4202651926
 20
190.4976784618
 30
0.0
 11
200.1523160002
 21
190.4976784618
 31
0.0
  0
LINE
  5
239
100
AcDbEntity
  8
BPV_STRAIGHT_DN2
  6
CONTINUOUS
 62
         7
100
AcDbLine
 10
200.1523160002
 20
203.5743752924
 30
0.0
 11
198.4202651926
 21
203.5743752924
 31
0.0
  0
LINE
  5
23A
100
AcDbEntity
  8
BPV_STRAIGHT_DN2
  6
CONTINUOUS
 62
         7
100
AcDbLine
 10
198.4202651926
 20
203.5743752924
 30
0.0
 11
198.4202651926
 21
190.4976784618
 31
0.0
  0
LINE
  5
23B
100
AcDbEntity
  8
BPV_STRAIGHT_DN2
  6
CONTINUOUS
 62
         7
100
AcDbLine
 10
204.6264531058
 20
182.0755097183
 30
0.0
 11
205.7896561821
 21
182.0755097183
 31
0.0
  0
LINE
  5
23C
100
AcDbEntity
  8
BPV_STRAIGHT_DN2
  6
CONTINUOUS
 62
         7
100
AcDbLine
 10
200.6961280869
 20
188.6138581336
 30
0.0
 11
198.9640772794
 21
188.6138581336
 31
0.0
  0
LINE
  5
23D
100
AcDbEntity
  8
BPV_STRAIGHT_DN2
  6
CONTINUOUS
 62
         7
100
AcDbLine
 10
200.1523160002
 20
190.4976784618
 30
0.0
 11
200.1523160002
 21
203.5743752924
 31
0.0
  0
LINE
  5
23E
100
AcDbEntity
  8
BPV_STRAIGHT_DN2
  6
CONTINUOUS
 62
         7
100
AcDbLine
 10
204.0836349778
 20
184.7023021029
 30
0.0
 11
200.6961280869
 21
188.6138581336
 31
0.0
  0
ARC
  5
23F
100
AcDbEntity
  8
BPV_STRAIGHT_DN2
  6
CONTINUOUS
 62
         7
100
AcDbCircle
 10
193.7296981719
 20
195.8093159336
 30
0.0
 40
16.5596803148
100
AcDbArc
 50
303.967756041
 51
308.2831707818
  0
ELLIPSE
  5
240
100
AcDbEntity
  8
BPV_STRAIGHT_DN2
  6
CONTINUOUS
 62
         7
100
AcDbEllipse
 10
173.5603379545
 20
197.0360268771
 30
0.0
 11
0.0000000000000007
 21
11.999999999999998
 31
0.0
210
0.0
220
0.0
230
1.0
 40
0.5
 41
0.0000000000000001
 42
3.1415926535897931
  0
LINE
  5
241
100
AcDbEntity
  8
BPV_STRAIGHT_DN2
  6
CONTINUOUS
 62
         7
100
AcDbLine
 10
250.4881958802
 20
208.8717073954
 30
0.0
 11
250.4881958802
 21
185.2003463587
 31
0.0
  0
LINE
  5
242
100
AcDbEntity
  8
BPV_STRAIGHT_DN2
  6
CONTINUOUS
 62
         7
100
AcDbLine
 10
250.4633938105
 20
219.5360268771
 30
0.0
 11
248.0385226799
 21
219.5360268771
 31
0.0
  0
ELLIPSE
  5
243
100
AcDbEntity
  8
BPV_STRAIGHT_DN2
  6
CONTINUOUS
 62
         7
100
AcDbEllipse
 10
253.4633938105
 20
197.0360268771
 30
0.0
 11
0.0000000000000013
 21
20.500000000000032
 31
0.0
210
0.0
220
0.0
230
1.0
 40
0.5
 41
0.0000000000000002
 42
3.1415926535897931
  0
LINE
  5
244
100
AcDbEntity
  8
BPV_STRAIGHT_DN2
  6
CONTINUOUS
 62
         7
100
AcDbLine
 10
209.5936589512
 20
207.8526807035
 30
0.0
 11
204.3975065285
 21
207.8526807035
 31
0.0
  0
LINE
  5
245
100
AcDbEntity
  8
BPV_STRAIGHT_DN2
  6
CONTINUOUS
 62
         7
100
AcDbLine
 10
204.3975065285
 20
186.2193730507
 30
0.0
 11
209.5936589512
 21
186.2193730507
 31
0.0
  0
ELLIPSE
  5
246
100
AcDbEntity
  8
BPV_STRAIGHT_DN2
  6
CONTINUOUS
 62
         7
100
AcDbEllipse
 10
214.416744415
 20
197.0360268771
 30
0.0
 11
-0.0000000000000082
 21
-21.000000000000011
 31
0.0
210
0.0
220
0.0
230
1.0
 40
0.2679491924
 41
4.1712894544275461
 42
5.2534885063418342
  0
ELLIPSE
  5
247
100
AcDbEntity
  8
BPV_STRAIGHT_DN2
  6
CONTINUOUS
 62
         7
100
AcDbEllipse
 10
209.9334049134
 20
197.0360268771
 30
0.0
 11
0.0000000000000059
 21
-17.000000000000014
 31
0.0
210
0.0
220
0.0
230
1.0
 40
0.5
 41
3.7570723622601818
 42
5.6677055985091975
  0
ELLIPSE
  5
248
100
AcDbEntity
  8
BPV_STRAIGHT_DN2
  6
CONTINUOUS
 62
         7
100
AcDbEllipse
 10
213.3975065285
 20
197.0360268771
 30
0.0
 11
-0.0000000000000057
 21
20.999999999999986
 31
0.0
210
0.0
220
0.0
230
1.0
 40
0.5
 41
2.1118958527520437
 42
3.1415926535897927
  0
ELLIPSE
  5
249
100
AcDbEntity
  8
BPV_STRAIGHT_DN2
  6
CONTINUOUS
 62
         7
100
AcDbEllipse
 10
213.3975065285
 20
197.0360268771
 30
0.0
 11
-0.0000000000000013
 21
-20.999999999999979
 31
0.0
210
0.0
220
0.0
230
1.0
 40
0.5
 41
3.1415926535897931
 42
4.1712894544275443
  0
ELLIPSE
  5
24A
100
AcDbEntity
  8
BPV_STRAIGHT_DN2
  6
CONTINUOUS
 62
         7
100
AcDbEllipse
 10
230.2850019023
 20
197.0360268771
 30
0.0
 11
-0.0000000000000055
 21
23.950000000009442
 31
0.0
210
0.0
220
0.0
230
1.0
 40
0.5
 41
0.6154797086706301
 42
2.5261129449191628
  0
ELLIPSE
  5
24B
100
AcDbEntity
  8
BPV_STRAIGHT_DN2
  6
CONTINUOUS
 62
         7
100
AcDbEllipse
 10
230.3283031725
 20
197.0360268771
 30
0.0
 11
-0.0000000000000015
 21
-24.000000000000004
 31
0.0
210
0.0
220
0.0
230
1.0
 40
0.5
 41
3.1415926535897931
 42
6.2831853071795862
  0
ELLIPSE
  5
24C
100
AcDbEntity
  8
BPV_STRAIGHT_DN2
  6
CONTINUOUS
 62
         7
100
AcDbEllipse
 10
232.7098730329
 20
197.0360268771
 30
0.0
 11
-0.0000000000000015
 21
-24.000000000000014
 31
0.0
210
0.0
220
0.0
230
1.0
 40
0.5
 41
0.0000000000000001
 42
0.339836909454122
  0
ELLIPSE
  5
24D
100
AcDbEntity
  8
BPV_STRAIGHT_DN2
  6
CONTINUOUS
 62
         7
100
AcDbEllipse
 10
232.7098730329
 20
197.0360268771
 30
0.0
 11
-0.0000000000000015
 21
-24.000000000000014
 31
0.0
210
0.0
220
0.0
230
1.0
 40
0.5
 41
2.8017557441356677
 42
6.2831853071795862
  0
ELLIPSE
  5
24E
100
AcDbEntity
  8
BPV_STRAIGHT_DN2
  6
CONTINUOUS
 62
         7
100
AcDbEllipse
 10
250.4633938105
 20
197.0360268771
 30
0.0
 11
0.0000000000000083
 21
22.500000000000007
 31
0.0
210
0.0
220
0.0
230
1.0
 40
0.5
 41
-0.3398369094541185
 42
3.4814295630439132
  0
ELLIPSE
  5
24F
100
AcDbEntity
  8
BPV_STRAIGHT_DN2
  6
CONTINUOUS
 62
         7
100
AcDbEllipse
 10
234.9598730329
 20
197.0360268771
 30
0.0
 11
-0.0000000000000056
 21
22.5
 31
0.0
210
0.0
220
0.0
230
1.0
 40
0.5
 41
0.0
 42
3.1415926535897927
  0
LINE
  5
250
100
AcDbEntity
  8
BPV_STRAIGHT_DN2
  6
CONTINUOUS
 62
         7
100
AcDbLine
 10
250.4881958802
 20
185.2003463587
 30
0.0
 11
270.9881958802
 21
173.3646658403
 31
0.0
  0
LINE
  5
251
100
AcDbEntity
  8
BPV_STRAIGHT_DN2
  6
CONTINUOUS
 62
         7
100
AcDbLine
 10
270.9881958802
 20
173.3646658403
 30
0.0
 11
291.4881958802
 21
185.2003463587
 31
0.0
  0
LINE
  5
252
100
AcDbEntity
  8
BPV_STRAIGHT_DN2
  6
CONTINUOUS
 62
         7
100
AcDbLine
 10
291.4881958802
 20
185.2003463587
 30
0.0
 11
291.4881958802
 21
208.8717073954
 31
0.0
  0
LINE
  5
253
100
AcDbEntity
  8
BPV_STRAIGHT_DN2
  6
CONTINUOUS
 62
         7
100
AcDbLine
 10
291.4881958802
 20
208.8717073954
 30
0.0
 11
270.9881958802
 21
220.7073879138
 31
0.0
  0
LINE
  5
254
100
AcDbEntity
  8
BPV_STRAIGHT_DN2
  6
CONTINUOUS
 62
         7
100
AcDbLine
 10
270.9881958802
 20
220.7073879138
 30
0.0
 11
250.4881958802
 21
208.8717073954
 31
0.0
  0
CIRCLE
  5
255
100
AcDbEntity
  8
BPV_STRAIGHT_DN2
  6
CONTINUOUS
 62
         7
100
AcDbCircle
 10
270.9881958802
 20
197.0360268771
 30
0.0
 40
19.25
  0
ARC
  5
256
100
AcDbEntity
  8
BPV_STRAIGHT_DN2
  6
CONTINUOUS
 62
         7
100
AcDbCircle
 10
225.9508285476
 20
197.0360268771
 30
0.0
 40
24.1152584489
100
AcDbArc
 50
153.3499607741
 51
206.6500392259
  0
ELLIPSE
  5
257
100
AcDbEntity
  8
BPV_STRAIGHT_DN2
  6
CONTINUOUS
 62
         7
100
AcDbEllipse
 10
227.686925691
 20
197.0360268771
 30
0.0
 11
0.0000000000000015
 21
24.0
 31
0.0
210
0.0
220
0.0
230
1.0
 40
0.5
 41
0.0000000000000001
 42
3.1415926535897931
  0
ELLIPSE
  5
258
100
AcDbEntity
  8
BPV_STRAIGHT_DN2
  6
CONTINUOUS
 62
         7
100
AcDbEllipse
 10
230.2850019023
 20
197.0360268771
 30
0.0
 11
-0.0000000000000015
 21
-24.000000000000004
 31
0.0
210
0.0
220
0.0
230
1.0
 40
0.5
 41
0.0
 42
0.0018041971755244
  0
ELLIPSE
  5
259
100
AcDbEntity
  8
BPV_STRAIGHT_DN2
  6
CONTINUOUS
 62
         7
100
AcDbEllipse
 10
230.2850019023
 20
197.0360268771
 30
0.0
 11
-0.0000000000000015
 21
-24.000000000000004
 31
0.0
210
0.0
220
0.0
230
1.0
 40
0.5
 41
3.1397884564142688
 42
6.2831853071795862
  0
ARC
  5
25A
100
AcDbEntity
  8
BPV_STRAIGHT_DN2
  6
CONTINUOUS
 62
         7
100
AcDbCircle
 10
193.7092020735
 20
198.2449876787
 30
0.0
 40
16.5858546528
100
AcDbArc
 50
51.6986009615
 51
56.0077826242
  0
LINE
  5
25B
100
AcDbEntity
  8
BPV_STRAIGHT_DN2
  6
CONTINUOUS
 62
         7
100
AcDbLine
 10
247.2458189859
 20
219.9813201507
 30
0.0
 11
243.1710526146
 21
219.9813201507
 31
0.0
  0
ELLIPSE
  5
25C
100
AcDbEntity
  8
BPV_STRAIGHT_DN2
  6
CONTINUOUS
 62
         7
100
AcDbEllipse
 10
243.9637563071
 20
197.036026943
 30
0.0
 11
0.0000000020585006
 21
22.999999934028068
 31
0.0
210
0.0
220
0.0
230
1.0
 40
0.5000000007
 41
0.0232504915944337
 42
0.0689854600199071
  0
ELLIPSE
  5
25D
100
AcDbEntity
  8
BPV_STRAIGHT_DN2
  6
CONTINUOUS
 62
         7
100
AcDbEllipse
 10
242.4093575521
 20
197.0360267427
 30
0.0
 11
55.360470985093265
 21
0.0000000011695791
 31
0.0
210
0.0
220
0.0
230
1.0
 40
0.4154588956
 41
1.547545835280222
 42
1.5707963267287317
  0
ELLIPSE
  5
25E
100
AcDbEntity
  8
BPV_STRAIGHT_DN2
  6
CONTINUOUS
 62
         7
100
AcDbEllipse
 10
242.4093575553
 20
197.036026877
 30
0.0
 11
-0.000000000003135
 21
23.000000000078625
 31
0.0
210
0.0
220
0.0
230
1.0
 40
0.5
 41
0.0000000000000017
 42
0.1934855135343306
  0
ELLIPSE
  5
25F
100
AcDbEntity
  8
BPV_STRAIGHT_DN2
  6
CONTINUOUS
 62
         7
100
AcDbEllipse
 10
229.3453652173
 20
197.0360264301
 30
0.0
 11
56.442356047514529
 21
0.0000001085666505
 31
0.0
210
0.0
220
0.0
230
1.0
 40
0.4074953999
 41
1.3539419612414292
 42
1.3773108104024854
  0
LINE
  5
260
100
AcDbEntity
  8
BPV_STRAIGHT_DN2
  6
CONTINUOUS
 62
         7
100
AcDbLine
 10
243.6963997459
 20
219.9813201507
 30
0.0
 11
243.6963997459
 21
220.0298104255
 31
0.0
  0
LINE
  5
261
100
AcDbEntity
  8
BPV_STRAIGHT_DN2
  6
CONTINUOUS
 62
         7
100
AcDbLine
 10
240.1981314615
 20
219.0971219689
 30
0.0
 11
240.1981314615
 21
219.6068469031
 31
0.0
  0
LINE
  5
262
100
AcDbEntity
  8
BPV_STRAIGHT_DN2
  6
CONTINUOUS
 62
         7
100
AcDbLine
 10
242.2029493922
 20
219.7648243818
 30
0.0
 11
246.2777157635
 21
219.7648243818
 31
0.0
  0
ELLIPSE
  5
263
100
AcDbEntity
  8
BPV_STRAIGHT_DN2
  6
CONTINUOUS
 62
         7
100
AcDbEllipse
 10
243.9637563086
 20
197.0360268774
 30
0.0
 11
0.0000000000314415
 21
22.999999999712639
 31
0.0
210
0.0
220
0.0
230
1.0
 40
0.5
 41
0.1537183065308661
 42
0.2168543629298264
  0
LINE
  5
264
100
AcDbEntity
  8
BPV_STRAIGHT_DN2
  6
CONTINUOUS
 62
         7
100
AcDbLine
 10
246.2777157635
 20
219.2587232934
 30
0.0
 11
246.2777157635
 21
219.7648243818
 31
0.0
  0
LINE
  5
265
100
AcDbEntity
  8
BPV_STRAIGHT_DN2
  6
CONTINUOUS
 62
         7
100
AcDbLine
 10
247.2458189859
 20
219.4801014495
 30
0.0
 11
247.2458189859
 21
219.9813201507
 31
0.0
  0
ELLIPSE
  5
266
100
AcDbEntity
  8
BPV_STRAIGHT_DN2
  6
CONTINUOUS
 62
         7
100
AcDbEllipse
 10
237.1509896379
 20
197.0360268732
 30
0.0
 11
94.861888474727465
 21
0.0000000003986894
 31
0.0
210
0.0
220
0.0
230
1.0
 40
0.2424577496
 41
1.4398164961624982
 42
1.4460245404676113
  0
ELLIPSE
  5
267
100
AcDbEntity
  8
BPV_STRAIGHT_DN2
  6
CONTINUOUS
 62
         7
100
AcDbEllipse
 10
248.0385226802
 20
197.0360268807
 30
0.0
 11
-0.0000000004354454
 21
22.999999996315179
 31
0.0
210
0.0
220
0.0
230
1.0
 40
0.5
 41
6.0742912898931722
 42
6.1522054765327958
  0
LINE
  5
268
100
AcDbEntity
  8
BPV_STRAIGHT_DN2
  6
CONTINUOUS
 62
         7
100
AcDbLine
 10
241.4894309222
 20
218.9850782353
 30
0.0
 11
241.4894309222
 21
219.497345973
 31
0.0
  0
LINE
  5
269
100
AcDbEntity
  8
BPV_STRAIGHT_DN2
  6
CONTINUOUS
 62
         7
100
AcDbLine
 10
242.2029493922
 20
219.2587232934
 30
0.0
 11
242.2029493922
 21
219.7648243818
 31
0.0
  0
ELLIPSE
  5
26A
100
AcDbEntity
  8
BPV_STRAIGHT_DN2
  6
CONTINUOUS
 62
         7
100
AcDbEllipse
 10
248.03852268
 20
197.036026876
 30
0.0
 11
-0.0000000000899232
 21
23.000000001094957
 31
0.0
210
0.0
220
0.0
230
1.0
 40
0.5
 41
0.0689854598725904
 42
0.1537183065234781
  0
LINE
  5
26B
100
AcDbEntity
  8
BPV_STRAIGHT_DN2
  6
CONTINUOUS
 62
         7
100
AcDbLine
 10
249.5404875738
 20
219.536026877
 30
0.0
 11
249.5404875738
 21
219.8390180368
 31
0.0
  0
ELLIPSE
  5
26C
100
AcDbEntity
  8
BPV_STRAIGHT_DN2
  6
CONTINUOUS
 62
         7
100
AcDbEllipse
 10
248.0385226799
 20
197.0360268772
 30
0.0
 11
0.0000000000011747
 21
-22.999999999816286
 31
0.0
210
0.0
220
0.0
230
1.0
 40
0.5
 41
3.0616931088620416
 42
3.201897334985448
  0
ELLIPSE
  5
26D
100
AcDbEntity
  8
BPV_STRAIGHT_DN2
  6
CONTINUOUS
 62
         7
100
AcDbEllipse
 10
243.9906954613
 20
197.0360268753
 30
0.0
 11
55.663636242098001
 21
0.0000000000044426
 31
0.0
210
0.0
220
0.0
230
1.0
 40
0.4131961466
 41
1.5104916454003456
 42
1.5850400025095628
  0
LINE
  5
26E
100
AcDbEntity
  8
BPV_STRAIGHT_DN2
  6
CONTINUOUS
 62
         7
100
AcDbLine
 10
248.9563901151
 20
219.536026877
 30
0.0
 11
248.9563901151
 21
219.9626506469
 31
0.0
  0
LINE
  5
26F
100
AcDbEntity
  8
BPV_STRAIGHT_DN2
  6
CONTINUOUS
 62
         7
100
AcDbLine
 10
247.3454391064
 20
219.4932871873
 30
0.0
 11
247.3454391064
 21
219.9942180219
 31
0.0
  0
ELLIPSE
  5
270
100
AcDbEntity
  8
BPV_STRAIGHT_DN2
  6
CONTINUOUS
 62
         7
100
AcDbEllipse
 10
243.9906954613
 20
197.0360268759
 30
0.0
 11
54.45355719261542
 21
-0.0000000000258453
 31
0.0
210
0.0
220
0.0
230
1.0
 40
0.4131961466
 41
1.5091498597501269
 42
1.510982689941508
  0
ELLIPSE
  5
271
100
AcDbEntity
  8
BPV_STRAIGHT_DN2
  6
CONTINUOUS
 62
         7
100
AcDbEllipse
 10
248.0385226799
 20
197.0360268771
 30
0.0
 11
0.0000000000031072
 21
-22.499999999914195
 31
0.0
210
0.0
220
0.0
230
1.0
 40
0.5
 41
3.1415926535897922
 42
3.2032391206358661
  0
LINE
  5
272
100
AcDbEntity
  8
BPV_STRAIGHT_DN2
  6
CONTINUOUS
 62
         7
100
AcDbLine
 10
242.2029493922
 20
219.2587232934
 30
0.0
 11
246.2777157635
 21
219.2587232934
 31
0.0
  0
ELLIPSE
  5
273
100
AcDbEntity
  8
BPV_STRAIGHT_DN2
  6
CONTINUOUS
 62
         7
100
AcDbEllipse
 10
243.9637563088
 20
197.0360268747
 30
0.0
 11
-0.000000000305414
 21
22.500000002331738
 31
0.0
210
0.0
220
0.0
230
1.0
 40
0.5
 41
0.1571623569824258
 42
0.2217529991889584
  0
ELLIPSE
  5
274
100
AcDbEntity
  8
BPV_STRAIGHT_DN2
  6
CONTINUOUS
 62
         7
100
AcDbEllipse
 10
229.3453652609
 20
197.0360265267
 30
0.0
 11
55.215348195668312
 21
0.0000000875759218
 31
0.0
210
0.0
220
0.0
230
1.0
 40
0.4074953991
 41
1.3490433254090917
 42
1.3729547890952782
  0
ELLIPSE
  5
275
100
AcDbEntity
  8
BPV_STRAIGHT_DN2
  6
CONTINUOUS
 62
         7
100
AcDbEllipse
 10
206.9023160002
 20
197.036026877
 30
0.0
 11
-0.0000000000273661
 21
15.000000000056753
 31
0.0
210
0.0
220
0.0
230
1.0
 40
0.5
 41
0.974625587392505
 42
1.1197695149961409
  0
ELLIPSE
  5
276
100
AcDbEntity
  8
BPV_STRAIGHT_DN2
  6
CONTINUOUS
 62
         7
100
AcDbEllipse
 10
206.9023160002
 20
197.0360268772
 30
0.0
 11
-0.0000000000603554
 21
-15.000000000128329
 31
0.0
210
0.0
220
0.0
230
1.0
 40
0.5
 41
5.1634157921863979
 42
5.3085597197894723
  0
ELLIPSE
  5
277
100
AcDbEntity
  8
BPV_STRAIGHT_DN2
  6
CONTINUOUS
 62
         7
100
AcDbEllipse
 10
205.1702651926
 20
197.036026877
 30
0.0
 11
0.0000000000000268
 21
-15.000000000062713
 31
0.0
210
0.0
220
0.0
230
1.0
 40
0.5
 41
3.1415926535897931
 42
3.2141646173916851
  0
ELLIPSE
  5
278
100
AcDbEntity
  8
BPV_STRAIGHT_DN2
  6
CONTINUOUS
 62
         7
100
AcDbEllipse
 10
205.1702651926
 20
197.036026877
 30
0.0
 11
0.0000000000095748
 21
-14.999999999981428
 31
0.0
210
0.0
220
0.0
230
1.0
 40
0.5
 41
5.1634157921800874
 42
5.3085597197842995
  0
ELLIPSE
  5
279
100
AcDbEntity
  8
BPV_STRAIGHT_DN2
  6
CONTINUOUS
 62
         7
100
AcDbEllipse
 10
205.1702651927
 20
197.036026877
 30
0.0
 11
-0.0000000000554964
 21
15.00000000012108
 31
0.0
210
0.0
220
0.0
230
1.0
 40
0.5
 41
0.9746255873903464
 42
1.1197695149934781
  0
LINE
  5
27A
100
AcDbEntity
  8
BPV_STRAIGHT_DN2
  6
CONTINUOUS
 62
         7
100
AcDbLine
 10
248.0385226799
 20
220.0360268771
 30
0.0
 11
243.9906954613
 21
220.0360268771
 31
0.0
  0
LINE
  5
27B
100
AcDbEntity
  8
BPV_STRAIGHT_DN2
  6
CONTINUOUS
 62
         7
100
AcDbLine
 10
198.9640772794
 20
188.6138581336
 30
0.0
 11
204.6264531058
 21
182.0755097183
 31
0.0
  0
ELLIPSE
  5
27C
100
AcDbEntity
  8
BPV_STRAIGHT_DN2
  6
CONTINUOUS
 62
         7
100
AcDbEllipse
 10
199.7420619623
 20
197.0360268772
 30
0.0
 11
-0.0000000000000009
 21
-14.999999999825791
 31
0.0
210
0.0
220
0.0
230
1.0
 40
0.5
 41
3.1415926535897931
 42
3.2141646173922624
  0
ARC
  5
27D
100
AcDbEntity
  8
BPV_STRAIGHT_DN2
  6
CONTINUOUS
 62
         7
100
AcDbCircle
 10
208.4710742738
 20
198.2449876787
 30
0.0
 40
16.5858546528
100
AcDbArc
 50
123.9922173758
 51
154.220993326
  0
ARC
  5
27E
100
AcDbEntity
  8
BPV_STRAIGHT_DN2
  6
CONTINUOUS
 62
         7
100
AcDbCircle
 10
221.1170623422
 20
197.0360268771
 30
0.0
 40
28.87500037
100
AcDbArc
 50
166.9126475061
 51
193.0873524939
  0
ELLIPSE
  5
27F
100
AcDbEntity
  8
BPV_STRAIGHT_DN2
  6
CONTINUOUS
 62
         7
100
AcDbEllipse
 10
202.438214385
 20
197.0360268769
 30
0.0
 11
-0.0000000000017356
 21
-15.000000000174269
 31
0.0
210
0.0
220
0.0
230
1.0
 40
0.5
 41
3.0690206897882257
 42
3.2141646173914755
  0
ELLIPSE
  5
280
100
AcDbEntity
  8
BPV_STRAIGHT_DN2
  6
CONTINUOUS
 62
         7
100
AcDbEllipse
 10
202.4382143851
 20
197.036026877
 30
0.0
 11
-0.0000000000253399
 21
15.000000000053378
 31
0.0
210
0.0
220
0.0
230
1.0
 40
0.5
 41
0.9746255873926397
 42
1.1197695149962996
  0
ELLIPSE
  5
281
100
AcDbEntity
  8
BPV_STRAIGHT_DN2
  6
CONTINUOUS
 62
         7
100
AcDbEllipse
 10
202.4382143851
 20
197.0360268771
 30
0.0
 11
-0.000000000041662
 21
-15.000000000091207
 31
0.0
210
0.0
220
0.0
230
1.0
 40
0.5
 41
5.1634157921848072
 42
5.3085597197881675
  0
LINE
  5
282
100
AcDbEntity
  8
BPV_STRAIGHT_DN2
  6
CONTINUOUS
 62
         7
100
AcDbLine
 10
221.8774506717
 20
218.0360268771
 30
0.0
 11
213.3975065285
 21
218.0360268771
 31
0.0
  0
LINE
  5
283
100
AcDbEntity
  8
BPV_STRAIGHT_DN2
  6
CONTINUOUS
 62
         7
100
AcDbLine
 10
230.2850019023
 20
221.0360268771
 30
0.0
 11
227.686925691
 21
221.0360268771
 31
0.0
  0
LINE
  5
284
100
AcDbEntity
  8
BPV_STRAIGHT_DN2
  6
CONTINUOUS
 62
         7
100
AcDbLine
 10
223.4000999422
 20
216.6319448193
 30
0.0
 11
223.3712324288
 21
216.5911199903
 31
0.0
  0
LINE
  5
285
100
AcDbEntity
  8
BPV_STRAIGHT_DN2
  6
CONTINUOUS
 62
         7
100
AcDbLine
 10
236.7098730329
 20
174.4086098791
 30
0.0
 11
236.8900678795
 21
174.5360268771
 31
0.0
  0
LINE
  5
286
100
AcDbEntity
  8
BPV_STRAIGHT_DN2
  6
CONTINUOUS
 62
         7
100
AcDbLine
 10
230.3283031725
 20
173.0360268771
 30
0.0
 11
232.7098730329
 21
173.0360268771
 31
0.0
  0
LINE
  5
287
100
AcDbEntity
  8
BPV_STRAIGHT_DN2
  6
CONTINUOUS
 62
         7
100
AcDbLine
 10
234.9598730329
 20
174.5360268771
 30
0.0
 11
250.4633938105
 21
174.5360268771
 31
0.0
  0
LINE
  5
288
100
AcDbEntity
  8
BPV_STRAIGHT_DN2
  6
CONTINUOUS
 62
         7
100
AcDbLine
 10
253.4633938105
 20
176.5360268771
 30
0.0
 11
265.4952374354
 21
176.5360268771
 31
0.0
  0
LINE
  5
289
100
AcDbEntity
  8
BPV_STRAIGHT_DN2
  6
CONTINUOUS
 62
         7
100
AcDbLine
 10
254.2133938105
 20
175.8228234415
 30
0.0
 11
255.2220157819
 21
176.5360268771
 31
0.0
  0
LINE
  5
28A
100
AcDbEntity
  8
BPV_STRAIGHT_DN2
  6
CONTINUOUS
 62
         7
100
AcDbLine
 10
207.335328702
 20
214.1824550765
 30
0.0
 11
205.0259276253
 21
210.9164687528
 31
0.0
  0
LINE
  5
28B
100
AcDbEntity
  8
BPV_STRAIGHT_DN2
  6
CONTINUOUS
 62
         7
100
AcDbLine
 10
205.8175747669
 20
212.0360268771
 30
0.0
 11
205.1702651926
 21
212.0360268771
 31
0.0
  0
LINE
  5
28C
100
AcDbEntity
  8
BPV_STRAIGHT_DN2
  6
CONTINUOUS
 62
         7
100
AcDbLine
 10
205.1702651926
 20
182.0360268771
 30
0.0
 11
205.8175747669
 21
182.0360268771
 31
0.0
  0
LINE
  5
28D
100
AcDbEntity
  8
BPV_STRAIGHT_DN2
  6
CONTINUOUS
 62
         7
100
AcDbLine
 10
202.438214385
 20
212.0360268771
 30
0.0
 11
199.7420619623
 21
212.0360268771
 31
0.0
  0
LINE
  5
28E
100
AcDbEntity
  8
BPV_STRAIGHT_DN2
  6
CONTINUOUS
 62
         7
100
AcDbLine
 10
199.7420619623
 20
182.0360268771
 30
0.0
 11
202.438214385
 21
182.0360268771
 31
0.0
  0
LINE
  5
28F
100
AcDbEntity
  8
BPV_STRAIGHT_DN2
  6
CONTINUOUS
 62
         7
100
AcDbLine
 10
195.9005535072
 20
209.0360268771
 30
0.0
 11
173.5603379545
 21
209.0360268771
 31
0.0
  0
LINE
  5
290
100
AcDbEntity
  8
BPV_STRAIGHT_DN2
  6
CONTINUOUS
 62
         7
100
AcDbLine
 10
213.3975065285
 20
176.0360268771
 30
0.0
 11
221.8774506717
 21
176.0360268771
 31
0.0
  0
LINE
  5
291
100
AcDbEntity
  8
BPV_STRAIGHT_DN2
  6
CONTINUOUS
 62
         7
100
AcDbLine
 10
227.686925691
 20
173.0360268771
 30
0.0
 11
230.2850019023
 21
173.0360268771
 31
0.0
  0
LINE
  5
292
100
AcDbEntity
  8
BPV_STRAIGHT_DN2
  6
CONTINUOUS
 62
         7
100
AcDbLine
 10
223.3712324288
 20
177.4809337638
 30
0.0
 11
223.4000999422
 21
177.4401089348
 31
0.0
  0
LINE
  5
293
100
AcDbEntity
  8
BPV_STRAIGHT_DN2
  6
CONTINUOUS
 62
         7
100
AcDbLine
 10
236.8900678795
 20
219.5360268771
 30
0.0
 11
236.7098730329
 21
219.663443875
 31
0.0
  0
LINE
  5
294
100
AcDbEntity
  8
BPV_STRAIGHT_DN2
  6
CONTINUOUS
 62
         7
100
AcDbLine
 10
232.7098730329
 20
221.0360268771
 30
0.0
 11
230.3283031725
 21
221.0360268771
 31
0.0
  0
LINE
  5
295
100
AcDbEntity
  8
BPV_STRAIGHT_DN2
  6
CONTINUOUS
 62
         7
100
AcDbLine
 10
240.1981314615
 20
219.5360268771
 30
0.0
 11
234.9598730329
 21
219.5360268771
 31
0.0
  0
LINE
  5
296
100
AcDbEntity
  8
BPV_STRAIGHT_DN2
  6
CONTINUOUS
 62
         7
100
AcDbLine
 10
265.4952374354
 20
217.5360268771
 30
0.0
 11
253.4633938105
 21
217.5360268771
 31
0.0
  0
LINE
  5
297
100
AcDbEntity
  8
BPV_STRAIGHT_DN2
  6
CONTINUOUS
 62
         7
100
AcDbLine
 10
255.2220157819
 20
217.5360268771
 30
0.0
 11
254.2133938105
 21
218.2492303127
 31
0.0
  0
LINE
  5
298
100
AcDbEntity
  8
BPV_STRAIGHT_DN2
  6
CONTINUOUS
 62
         7
100
AcDbLine
 10
205.0259276253
 20
183.1555850013
 30
0.0
 11
207.335328702
 21
179.8895986776
 31
0.0
  0
LINE
  5
299
100
AcDbEntity
  8
BPV_STRAIGHT_DN2
  6
CONTINUOUS
 62
         7
100
AcDbLine
 10
173.5603379545
 20
185.0360268771
 30
0.0
 11
195.8994434962
 21
185.0360268771
 31
0.0
  0
ELLIPSE
  5
29A
100
AcDbEntity
  8
BPV_STRAIGHT_DN2
  6
CONTINUOUS
 62
         7
100
AcDbEllipse
 10
248.0385226799
 20
197.0360268776
 30
0.0
 11
0.000000000038769
 21
22.499999999437065
 31
0.0
210
0.0
220
0.0
230
1.0
 40
0.5
 41
0.0705209886589426
 42
0.1571623570000174
  0
ENDBLK
  5
29B
100
AcDbEntity
  8
BPV_STRAIGHT_DN2
  6
CONTINUOUS
 62
         7
100
AcDbBlockEnd
  0
ENDSEC
  0
SECTION
  2
ENTITIES
  0
INSERT
  5
3A
102
{ACAD_XDICTIONARY
360
3B
102
}
100
AcDbEntity
  8
0
 62
         0
 48
0.0
100
AcDbBlockReference
  2
SE1
 10
0.0
 20
0.0
 30
0.0
  0
INSERT
  5
3E
100
AcDbEntity
  8
0
 62
         0
 48
0.0
100
AcDbBlockReference
  2
SE0
 10
0.0
 20
0.0
 30
0.0
  0
INSERT
  5
41
102
{ACAD_XDICTIONARY
360
42
102
}
100
AcDbEntity
  8
0
 62
         0
 48
0.0
100
AcDbBlockReference
  2
SE3
 10
0.0
 20
0.0
 30
0.0
  0
INSERT
  5
45
100
AcDbEntity
  8
0
 62
         0
 48
0.0
100
AcDbBlockReference
  2
SE2
 10
0.0
 20
0.0
 30
0.0
  0
INSERT
  5
48
102
{ACAD_XDICTIONARY
360
49
102
}
100
AcDbEntity
  8
0
 62
         0
 48
0.0
100
AcDbBlockReference
  2
SE5
 10
0.0
 20
0.0
 30
0.0
  0
INSERT
  5
4C
100
AcDbEntity
  8
0
 62
         0
 48
0.0
100
AcDbBlockReference
  2
SE4
 10
0.0
 20
0.0
 30
0.0
  0
INSERT
  5
4F
102
{ACAD_XDICTIONARY
360
50
102
}
100
AcDbEntity
  8
0
 62
         0
 48
0.0
100
AcDbBlockReference
  2
SE7
 10
0.0
 20
0.0
 30
0.0
  0
INSERT
  5
53
100
AcDbEntity
  8
0
 62
         0
 48
0.0
100
AcDbBlockReference
  2
SE6
 10
0.0
 20
0.0
 30
0.0
  0
ENDSEC
  0
SECTION
  2
OBJECTS
  0
DICTIONARY
  5
19
100
AcDbDictionary
  3
ACAD_GROUP
350
1A
  3
ACAD_MLINESTYLE
350
1B
  3
ACDBVARIABLEDICTIONARY
350
29E
  0
DICTIONARY
  5
1A
102
{ACAD_REACTORS
330
19
102
}
100
AcDbDictionary
  0
DICTIONARY
  5
1B
102
{ACAD_REACTORS
330
19
102
}
100
AcDbDictionary
  3
STANDARD
350
1C
  0
MLINESTYLE
  5
1C
102
{ACAD_REACTORS
330
1B
102
}
100
AcDbMlineStyle
  2
Standard
 70
         0
  3

 62
         0
 51
90.0
 52
90.0
 71
         2
 49
0.5
 62
       256
  6
ByLayer
 49
-0.5
 62
       256
  6
ByLayer
  0
DICTIONARY
  5
22
102
{ACAD_REACTORS
330
19
102
}
100
AcDbDictionary
  0
DICTIONARY
  5
3B
100
AcDbDictionary
  3
ACAD_FILTER
350
3C
  0
DICTIONARY
  5
3C
100
AcDbDictionary
  3
SPATIAL
350
3D
  0
SPATIAL_FILTER
  5
3D
100
AcDbFilter
100
AcDbSpatialFilter
 70
         2
 10
3.2300450106
 20
9.2687945514
 10
122.572349856
 20
145.8966524771
210
0.0
220
0.0
230
1.0
 11
0.0
 21
0.0
 31
0.0
 71
         1
 72
         0
 73
         0
 40
1.0
 40
0.0
 40
0.0
 40
0.0
 40
0.0
 40
1.0
 40
0.0
 40
0.0
 40
0.0
 40
0.0
 40
1.0
 40
0.0
 40
1.0
 40
0.0
 40
0.0
 40
0.0
 40
0.0
 40
1.0
 40
0.0
 40
0.0
 40
0.0
 40
0.0
 40
1.0
 40
0.0
  0
DICTIONARY
  5
42
100
AcDbDictionary
  3
ACAD_FILTER
350
43
  0
DICTIONARY
  5
43
100
AcDbDictionary
  3
SPATIAL
350
44
  0
SPATIAL_FILTER
  5
44
100
AcDbFilter
100
AcDbSpatialFilter
 70
         2
 10
3.2300450106
 20
166.6860268771
 10
122.572349856
 20
227.3860268771
210
0.0
220
0.0
230
1.0
 11
0.0
 21
0.0
 31
0.0
 71
         1
 72
         0
 73
         0
 40
1.0
 40
0.0
 40
0.0
 40
0.0
 40
0.0
 40
1.0
 40
0.0
 40
0.0
 40
0.0
 40
0.0
 40
1.0
 40
0.0
 40
1.0
 40
0.0
 40
0.0
 40
0.0
 40
0.0
 40
1.0
 40
0.0
 40
0.0
 40
0.0
 40
0.0
 40
1.0
 40
0.0
  0
DICTIONARY
  5
49
100
AcDbDictionary
  3
ACAD_FILTER
350
4A
  0
DICTIONARY
  5
4A
100
AcDbDictionary
  3
SPATIAL
350
4B
  0
SPATIAL_FILTER
  5
4B
100
AcDbFilter
100
AcDbSpatialFilter
 70
         2
 10
165.2895477653
 20
9.2687945514
 10
284.6318526107
 20
145.8966524771
210
0.0
220
0.0
230
1.0
 11
0.0
 21
0.0
 31
0.0
 71
         1
 72
         0
 73
         0
 40
1.0
 40
0.0
 40
0.0
 40
0.0
 40
0.0
 40
1.0
 40
0.0
 40
0.0
 40
0.0
 40
0.0
 40
1.0
 40
0.0
 40
1.0
 40
0.0
 40
0.0
 40
0.0
 40
0.0
 40
1.0
 40
0.0
 40
0.0
 40
0.0
 40
0.0
 40
1.0
 40
0.0
  0
DICTIONARY
  5
50
100
AcDbDictionary
  3
ACAD_FILTER
350
51
  0
DICTIONARY
  5
51
100
AcDbDictionary
  3
SPATIAL
350
52
  0
SPATIAL_FILTER
  5
52
100
AcDbFilter
100
AcDbSpatialFilter
 70
         2
 10
161.2103379545
 20
166.6860268771
 10
297.8381958802
 20
227.3860268771
210
0.0
220
0.0
230
1.0
 11
0.0
 21
0.0
 31
0.0
 71
         1
 72
         0
 73
         0
 40
1.0
 40
0.0
 40
0.0
 40
0.0
 40
0.0
 40
1.0
 40
0.0
 40
0.0
 40
0.0
 40
0.0
 40
1.0
 40
0.0
 40
1.0
 40
0.0
 40
0.0
 40
0.0
 40
0.0
 40
1.0
 40
0.0
 40
0.0
 40
0.0
 40
0.0
 40
1.0
 40
0.0
  0
DICTIONARY
  5
29E
100
AcDbDictionary
  3
DIMASSOC
350
29F
  0
DICTIONARYVAR
  5
29F
100
DictionaryVariables
280
         0
  1
2
  0
ENDSEC
  0
EOF
