  0
SECTION
  2
HEADER
  9
$ACADVER
  1
AC1014
  9
$ACADMAINTVER
 70
         0
  9
$DWGCODEPAGE
  3
ANSI_1252
  9
$INSBASE
 10
0.0
 20
0.0
 30
0.0
  9
$EXTMIN
 10
0.0
 20
0.0
 30
0.0
  9
$EXTMAX
 10
420.0
 20
297.0
 30
0.0
  9
$LIMMIN
 10
0.0
 20
0.0
  9
$LIMMAX
 10
420.0
 20
297.0
  9
$ORTHOMODE
 70
         0
  9
$REGENMODE
 70
         1
  9
$FILLMODE
 70
         1
  9
$QTEXTMODE
 70
         0
  9
$MIRRTEXT
 70
         1
  9
$DRAGMODE
 70
         2
  9
$LTSCALE
 40
25.4
  9
$OSMODE
 70
         0
  9
$ATTMODE
 70
         1
  9
$TEXTSIZE
 40
0.2
  9
$TRACEWID
 40
0.05
  9
$TEXTSTYLE
  7
Standard
  9
$CLAYER
  8
0
  9
$CELTYPE
  6
CONTINUOUS
  9
$CECOLOR
 62
       256
  9
$CELTSCALE
 40
1.0
  9
$DELOBJ
 70
         1
  9
$DISPSILH
 70
         0
  9
$DIMSCALE
 40
1.0
  9
$DIMASZ
 40
0.18
  9
$DIMEXO
 40
0.0625
  9
$DIMDLI
 40
0.38
  9
$DIMRND
 40
0.0
  9
$DIMDLE
 40
0.0
  9
$DIMEXE
 40
0.18
  9
$DIMTP
 40
0.0
  9
$DIMTM
 40
0.0
  9
$DIMTXT
 40
0.18
  9
$DIMCEN
 40
0.09
  9
$DIMTSZ
 40
0.0
  9
$DIMTOL
 70
         0
  9
$DIMLIM
 70
         0
  9
$DIMTIH
 70
         1
  9
$DIMTOH
 70
         1
  9
$DIMSE1
 70
         0
  9
$DIMSE2
 70
         0
  9
$DIMTAD
 70
         0
  9
$DIMZIN
 70
         0
  9
$DIMBLK
  1

  9
$DIMASO
 70
         1
  9
$DIMSHO
 70
         1
  9
$DIMPOST
  1

  9
$DIMAPOST
  1

  9
$DIMALT
 70
         0
  9
$DIMALTD
 70
         2
  9
$DIMALTF
 40
25.4
  9
$DIMLFAC
 40
1.0
  9
$DIMTOFL
 70
         0
  9
$DIMTVP
 40
0.0
  9
$DIMTIX
 70
         0
  9
$DIMSOXD
 70
         0
  9
$DIMSAH
 70
         0
  9
$DIMBLK1
  1

  9
$DIMBLK2
  1

  9
$DIMSTYLE
  2
Standard
  9
$DIMCLRD
 70
         0
  9
$DIMCLRE
 70
         0
  9
$DIMCLRT
 70
         0
  9
$DIMTFAC
 40
1.0
  9
$DIMGAP
 40
0.09
  9
$DIMJUST
 70
         0
  9
$DIMSD1
 70
         0
  9
$DIMSD2
 70
         0
  9
$DIMTOLJ
 70
         1
  9
$DIMTZIN
 70
         0
  9
$DIMALTZ
 70
         0
  9
$DIMALTTZ
 70
         0
  9
$DIMFIT
 70
         3
  9
$DIMUPT
 70
         0
  9
$DIMUNIT
 70
         2
  9
$DIMDEC
 70
         4
  9
$DIMTDEC
 70
         4
  9
$DIMALTU
 70
         2
  9
$DIMALTTD
 70
         2
  9
$DIMTXSTY
  7
Standard
  9
$DIMAUNIT
 70
         0
  9
$LUNITS
 70
         2
  9
$LUPREC
 70
         4
  9
$SKETCHINC
 40
0.1
  9
$FILLETRAD
 40
0.0
  9
$AUNITS
 70
         0
  9
$AUPREC
 70
         0
  9
$MENU
  1
acad
  9
$ELEVATION
 40
0.0
  9
$PELEVATION
 40
0.0
  9
$THICKNESS
 40
0.0
  9
$LIMCHECK
 70
         0
  9
$BLIPMODE
 70
         1
  9
$CHAMFERA
 40
0.0
  9
$CHAMFERB
 40
0.0
  9
$CHAMFERC
 40
0.0
  9
$CHAMFERD
 40
0.0
  9
$SKPOLY
 70
         0
  9
$TDCREATE
 40
0.000000000
  9
$TDUPDATE
 40
0.000000000
  9
$TDINDWG
 40
0.0000000000
  9
$TDUSRTIMER
 40
0.0000000000
  9
$USRTIMER
 70
         1
  9
$ANGBASE
 50
0.0
  9
$ANGDIR
 70
         0
  9
$PDMODE
 70
         0
  9
$PDSIZE
 40
0.0
  9
$PLINEWID
 40
0.0
  9
$COORDS
 70
         0
  9
$SPLFRAME
 70
         0
  9
$SPLINETYPE
 70
         6
  9
$SPLINESEGS
 70
         8
  9
$ATTDIA
 70
         0
  9
$ATTREQ
 70
         1
  9
$HANDLING
 70
         1
  9
$HANDSEED
  5
2B5
  9
$SURFTAB1
 70
         6
  9
$SURFTAB2
 70
         6
  9
$SURFTYPE
 70
         6
  9
$SURFU
 70
         6
  9
$SURFV
 70
         6
  9
$UCSNAME
  2

  9
$UCSORG
 10
0.0
 20
0.0
 30
0.0
  9
$UCSXDIR
 10
1.0
 20
0.0
 30
0.0
  9
$UCSYDIR
 10
0.0
 20
1.0
 30
0.0
  9
$PUCSNAME
  2

  9
$PUCSORG
 10
0.0
 20
0.0
 30
0.0
  9
$PUCSXDIR
 10
1.0
 20
0.0
 30
0.0
  9
$PUCSYDIR
 10
0.0
 20
1.0
 30
0.0
  9
$USERI1
 70
         0
  9
$USERI2
 70
         0
  9
$USERI3
 70
         0
  9
$USERI4
 70
         0
  9
$USERI5
 70
         0
  9
$USERR1
 40
0.0
  9
$USERR2
 40
0.0
  9
$USERR3
 40
0.0
  9
$USERR4
 40
0.0
  9
$USERR5
 40
0.0
  9
$WORLDVIEW
 70
         1
  9
$SHADEDGE
 70
         3
  9
$SHADEDIF
 70
        70
  9
$TILEMODE
 70
         1
  9
$MAXACTVP
 70
        16
  9
$PINSBASE
 10
0.0
 20
0.0
 30
0.0
  9
$PLIMCHECK
 70
         0
  9
$PEXTMIN
 10
1.0000000000E+20
 20
1.0000000000E+20
 30
1.0000000000E+20
  9
$PEXTMAX
 10
-1.0000000000E+20
 20
-1.0000000000E+20
 30
-1.0000000000E+20
  9
$PLIMMIN
 10
0.0
 20
0.0
  9
$PLIMMAX
 10
12.0
 20
9.0
  9
$UNITMODE
 70
         0
  9
$VISRETAIN
 70
         0
  9
$PLINEGEN
 70
         1
  9
$PSLTSCALE
 70
         0
  9
$TREEDEPTH
 70
      3020
  9
$PICKSTYLE
 70
         1
  9
$CMLSTYLE
  2
Standard
  9
$CMLJUST
 70
         0
  9
$CMLSCALE
 40
1.0
  9
$PROXYGRAPHICS
 70
         0
  9
$MEASUREMENT
 70
         0
  0
ENDSEC
  0
SECTION
  2
CLASSES
  0
CLASS
  1
LWPOLYLINE
  2
AcDbPolyline
  3
"AutoCAD"
 90
        0
280
         0
281
         1
  0
CLASS
  1
IMAGE
  2
AcDbRasterImage
  3
ISM
 90
      127
280
         0
281
         1
  0
CLASS
  1
OLE2FRAME
  2
AcDbOle2Frame
  3
""
 90
        0
280
         0
281
         1
  0
CLASS
  1
HATCH
  2
AcDbHatch
  3
"ACAD_SEDONA"
 90
        0
280
         0
281
         1
  0
CLASS
  1
DICTIONARYVAR
  2
AcDbDictionaryVar
  3
"AutoCAD"
 90
        0
280
         0
281
         0
  0
CLASS
  1
RASTERVARIABLES
  2
AcDbRasterVariables
  3
ISM
 90
        0
280
         0
281
         0
  0
CLASS
  1
IMAGEDEF
  2
AcDbRasterImageDef
  3
ISM
 90
        0
280
         0
281
         0
  0
CLASS
  1
IMAGEDEF_REACTOR
  2
AcDbRasterImageDefReactor
  3
ISM
 90
        1
280
         0
281
         0
  0
CLASS
  1
IDBUFFER
  2
AcDbIdBuffer
  3
"Acad"
 90
        0
280
         0
281
         0
  0
CLASS
  1
SPATIAL_FILTER
  2
AcDbSpatialFilter
  3
"Acad"
 90
        0
280
         0
281
         0
  0
CLASS
  1
XRECORD
  2
AcDbXrecord
  3
"<Built In>"
 90
        0
280
         0
281
         0
  0
CLASS
  1
SORTENTSTABLE
  2
AcDbSortentsTable
  3
"AutoCAD"
 90
        0
280
         0
281
         0
  0
CLASS
  1
LAYER_INDEX
  2
AcDbLayerIndex
  3
"Acad"
 90
        0
280
         0
281
         0
  0
CLASS
  1
SPATIAL_INDEX
  2
AcDbSpatialIndex
  3
"Acad"
 90
        0
280
         0
281
         0
  0
CLASS
  1
OBJECT_PTR
  2
CAseDLPNTableRecord
  3
"ASE-LPNTableRecord"
 90
        1
280
         0
281
         0
  0
CLASS
  1
LAYOUT
  2
AcDbLayout
  3
"AutoCAD 2000"
 90
        1
280
         0
281
         0
  0
CLASS
  1
PLOTSETTINGS
  2
AcDbPlotSettings
  3
"AutoCAD 2000"
 90
        1
280
         0
281
         0
  0
CLASS
  1
ACDBDICTIONARYWDFLT
  2
AcDbDictionaryWithDefault
  3
"AutoCAD 2000"
 90
        1
280
         0
281
         0
  0
CLASS
  1
ACDBPLACEHOLDER
  2
AcDbPlaceHolder
  3
"AutoCAD 2000"
 90
        1
280
         0
281
         0
  0
CLASS
  1
VBA_PROJECT
  2
AcDbVbaProject
  3
"acadvba"
 90
        1
280
         0
281
         0
  0
CLASS
  1
WIPEOUT
  2
AcDbWipeout
  3
WipeOut|AutoCAD Express Tool|expresstools@autodesk.com
 90
      127
280
         0
281
         1
  0
CLASS
  1
WIPEOUTVARIABLES
  2
AcDbWipeoutVariables
  3
WipeOut|AutoCAD Express Tool|expresstools@autodesk.com
 90
        0
280
         0
281
         0
  0
CLASS
  1
RTEXT
  2
RText
  3
RText|AutoCAD Express Tool|expresstools@autodesk.com
 90
        0
280
         0
281
         1
  0
CLASS
  1
ARCALIGNEDTEXT
  2
AcDbArcAlignedText
  3
ATEXT|AutoCAD Express Tool|expresstools@autodesk.com
 90
        0
280
         0
281
         1
  0
ENDSEC
  0
SECTION
  2
TABLES
  0
TABLE
  2
VPORT
  5
7
100
AcDbSymbolTable
 70
         1
  0
VPORT
  5
15
100
AcDbSymbolTableRecord
100
AcDbViewportTableRecord
  2
*ACTIVE
 70
         0
 10
0.0
 20
0.0
 11
1.0
 21
1.0
 12
210.0
 22
148.5
 13
0.0
 23
0.0
 14
1.0
 24
1.0
 15
0.0
 25
0.0
 16
0.0
 26
0.0
 36
1.0
 17
0.0
 27
0.0
 37
0.0
 40
297.0
 41
1.604229
 42
50.0
 43
0.0
 44
0.0
 50
0.0
 51
0.0
 71
         0
 72
       100
 73
         1
 74
         1
 75
         0
 76
         0
 77
         0
 78
         0
  0
ENDTAB
  0
TABLE
  2
LTYPE
  5
4
100
AcDbSymbolTable
 70
         7
  0
LTYPE
  5
11
100
AcDbSymbolTableRecord
100
AcDbLinetypeTableRecord
  2
ByBlock
 70
        64
  3

 72
        65
 73
         0
 40
0.0
  0
LTYPE
  5
12
100
AcDbSymbolTableRecord
100
AcDbLinetypeTableRecord
  2
ByLayer
 70
        64
  3

 72
        65
 73
         0
 40
0.0
  0
LTYPE
  5
13
100
AcDbSymbolTableRecord
100
AcDbLinetypeTableRecord
  2
CONTINUOUS
 70
         0
  3
Solid line
 72
        65
 73
         0
 40
0.0
  0
LTYPE
  5
28
100
AcDbSymbolTableRecord
100
AcDbLinetypeTableRecord
  2
HIDDEN2
 70
        64
  3
_ _ _ _ _ _ _ _ _ _ _ _ _ _ _ _ _ _ _ _ _ _ _ _
 72
        65
 73
         2
 40
0.1875
 49
0.125
 74
         0
 49
-0.0625
 74
         0
  0
LTYPE
  5
29
100
AcDbSymbolTableRecord
100
AcDbLinetypeTableRecord
  2
CENTER2
 70
        64
  3
___ _ ___ _ ___ _ ___ _ ___ _ ___ _ ___ _ ___ _
 72
        65
 73
         4
 40
1.125
 49
0.75
 74
         0
 49
-0.125
 74
         0
 49
0.125
 74
         0
 49
-0.125
 74
         0
  0
LTYPE
  5
2A
100
AcDbSymbolTableRecord
100
AcDbLinetypeTableRecord
  2
PHANTOM2
 70
        64
  3
___ _ _ ___ _ _ ___ _ _ ___ _ _ ___ _ _ ___ _ _
 72
        65
 73
         6
 40
1.25
 49
0.625
 74
         0
 49
-0.125
 74
         0
 49
0.125
 74
         0
 49
-0.125
 74
         0
 49
0.125
 74
         0
 49
-0.125
 74
         0
  0
LTYPE
  5
2B
100
AcDbSymbolTableRecord
100
AcDbLinetypeTableRecord
  2
DOT2
 70
        64
  3
...............................................
 72
        65
 73
         2
 40
0.125
 49
0.0
 74
         0
 49
-0.125
 74
         0
  0
ENDTAB
  0
TABLE
  2
LAYER
  5
2
100
AcDbSymbolTable
 70
         3
  0
LAYER
  5
14
100
AcDbSymbolTableRecord
100
AcDbLayerTableRecord
  2
0
 70
         0
 62
         7
  6
CONTINUOUS
  0
LAYER
  5
2D
100
AcDbSymbolTableRecord
100
AcDbLayerTableRecord
  2
DEFAULT
 70
         0
 62
         7
  6
CONTINUOUS
  0
LAYER
  5
37
100
AcDbSymbolTableRecord
100
AcDbLayerTableRecord
  2
BPV_STRAIGHT_DN2
 70
         0
 62
         7
  6
CONTINUOUS
  0
ENDTAB
  0
TABLE
  2
STYLE
  5
3
100
AcDbSymbolTable
 70
         1
  0
STYLE
  5
17
100
AcDbSymbolTableRecord
100
AcDbTextStyleTableRecord
  2
Standard
 70
         0
 40
0.0
 41
1.0
 50
0.0
 71
         0
 42
0.2
  3
txt
  4

  0
ENDTAB
  0
TABLE
  2
VIEW
  5
5
100
AcDbSymbolTable
 70
         0
  0
ENDTAB
  0
TABLE
  2
UCS
  5
6
100
AcDbSymbolTable
 70
         0
  0
ENDTAB
  0
TABLE
  2
APPID
  5
8
100
AcDbSymbolTable
 70
         1
  0
APPID
  5
16
100
AcDbSymbolTableRecord
100
AcDbRegAppTableRecord
  2
ACAD
 70
         0
  0
ENDTAB
  0
TABLE
  2
DIMSTYLE
  5
9
100
AcDbSymbolTable
 70
         1
  0
DIMSTYLE
105
18
100
AcDbSymbolTableRecord
100
AcDbDimStyleTableRecord
  2
Standard
 70
         0
  3

  4

  5

  6

  7

 40
1.0
 41
0.18
 42
0.0625
 43
0.38
 44
0.18
 45
0.0
 46
0.0
 47
0.0
 48
0.0
 71
         0
 72
         0
 73
         1
 74
         1
 75
         0
 76
         0
 77
         0
 78
         0
140
0.18
141
0.09
142
0.0
143
25.4
144
1.0
145
0.0
146
1.0
147
0.09
170
         0
171
         2
172
         0
173
         0
174
         0
175
         0
176
         0
177
         0
178
         0
270
         2
271
         4
272
         4
273
         2
274
         2
275
         0
280
         0
281
         0
282
         0
283
         1
284
         0
285
         0
286
         0
287
         0
288
         0
340
17
  0
ENDTAB
  0
TABLE
  2
BLOCK_RECORD
  5
1
100
AcDbSymbolTable
 70
         8
  0
BLOCK_RECORD
  5
A
100
AcDbSymbolTableRecord
100
AcDbBlockTableRecord
  2
*MODEL_SPACE
  0
BLOCK_RECORD
  5
B
100
AcDbSymbolTableRecord
100
AcDbBlockTableRecord
  2
*PAPER_SPACE
  0
BLOCK_RECORD
  5
38
100
AcDbSymbolTableRecord
100
AcDbBlockTableRecord
  2
SE0
  0
BLOCK_RECORD
  5
39
100
AcDbSymbolTableRecord
100
AcDbBlockTableRecord
  2
SE1
  0
BLOCK_RECORD
  5
3F
100
AcDbSymbolTableRecord
100
AcDbBlockTableRecord
  2
SE2
  0
BLOCK_RECORD
  5
40
100
AcDbSymbolTableRecord
100
AcDbBlockTableRecord
  2
SE3
  0
BLOCK_RECORD
  5
46
100
AcDbSymbolTableRecord
100
AcDbBlockTableRecord
  2
SE4
  0
BLOCK_RECORD
  5
47
100
AcDbSymbolTableRecord
100
AcDbBlockTableRecord
  2
SE5
  0
BLOCK_RECORD
  5
4D
100
AcDbSymbolTableRecord
100
AcDbBlockTableRecord
  2
SE6
  0
BLOCK_RECORD
  5
4E
100
AcDbSymbolTableRecord
100
AcDbBlockTableRecord
  2
SE7
  0
ENDTAB
  0
ENDSEC
  0
SECTION
  2
BLOCKS
  0
BLOCK
  5
D
100
AcDbEntity
  8
0
100
AcDbBlockBegin
  2
*MODEL_SPACE
 70
         0
 10
0.0
 20
0.0
 30
0.0
  3
*MODEL_SPACE
  1

  0
ENDBLK
  5
E
100
AcDbEntity
  8
0
100
AcDbBlockEnd
  0
BLOCK
  5
F
100
AcDbEntity
 67
         1
  8
0
100
AcDbBlockBegin
  2
*PAPER_SPACE
 70
         0
 10
0.0
 20
0.0
 30
0.0
  3
*PAPER_SPACE
  1

  0
ENDBLK
  5
10
100
AcDbEntity
 67
         1
  8
0
100
AcDbBlockEnd
  0
BLOCK
  5
F9
100
AcDbEntity
  8
0
 62
         1
 48
0.0
100
AcDbBlockBegin
  2
SE0
 70
         0
 10
0.0
 20
0.0
 30
0.0
  3
SE0
  1

  0
ENDBLK
  5
FA
100
AcDbEntity
  8
0
 62
         1
 48
0.0
100
AcDbBlockEnd
  0
BLOCK
  5
54
100
AcDbEntity
  8
0
 62
         1
 48
0.0
100
AcDbBlockBegin
  2
SE1
 70
         0
 10
0.0
 20
0.0
 30
0.0
  3
SE1
  1

  0
LINE
  5
55
100
AcDbEntity
  8
BPV_STRAIGHT_DN2
  6
CONTINUOUS
 62
         7
100
AcDbLine
 10
93.9809674434
 20
83.8038471184
 30
0.0
 11
92.4243431164
 21
81.1076946957
 31
0.0
  0
LINE
  5
56
100
AcDbEntity
  8
BPV_STRAIGHT_DN2
  6
CONTINUOUS
 62
         7
100
AcDbLine
 10
69.0416572142
 20
94.6076946957
 30
0.0
 11
70.5982815412
 21
97.3038471184
 31
0.0
  0
LINE
  5
57
100
AcDbEntity
  8
BPV_STRAIGHT_DN2
  6
CONTINUOUS
 62
         7
100
AcDbLine
 10
71.5401917053
 20
96.7600350316
 30
0.0
 11
70.5982815412
 21
97.3038471184
 31
0.0
  0
LINE
  5
58
100
AcDbEntity
  8
BPV_STRAIGHT_DN2
  6
CONTINUOUS
 62
         7
100
AcDbLine
 10
91.4139801453
 20
80.3576946957
 30
0.0
 11
68.8973196469
 21
93.3576946957
 31
0.0
  0
LINE
  5
59
100
AcDbEntity
  8
BPV_STRAIGHT_DN2
  6
CONTINUOUS
 62
         7
100
AcDbLine
 10
88.1639801453
 20
74.7285295711
 30
0.0
 11
65.6473196469
 21
87.7285295711
 31
0.0
  0
LINE
  5
5A
100
AcDbEntity
  8
BPV_STRAIGHT_DN2
  6
CONTINUOUS
 62
         7
100
AcDbLine
 10
67.4062171091
 20
89.5997809938
 30
0.0
 11
77.213739732
 21
83.9374051673
 31
0.0
  0
LINE
  5
5B
100
AcDbEntity
  8
BPV_STRAIGHT_DN2
  6
CONTINUOUS
 62
         7
100
AcDbLine
 10
68.4062171091
 20
91.3318318013
 30
0.0
 11
67.4062171091
 21
89.5997809938
 31
0.0
  0
LINE
  5
5C
100
AcDbEntity
  8
BPV_STRAIGHT_DN2
  6
CONTINUOUS
 62
         7
100
AcDbLine
 10
71.5401917053
 20
96.7600350316
 30
0.0
 11
69.9835673783
 21
94.0638826089
 31
0.0
  0
LINE
  5
5D
100
AcDbEntity
  8
BPV_STRAIGHT_DN2
  6
CONTINUOUS
 62
         7
100
AcDbLine
 10
78.213739732
 20
85.6694559749
 30
0.0
 11
68.4062171091
 21
91.3318318013
 31
0.0
  0
LINE
  5
5E
100
AcDbEntity
  8
BPV_STRAIGHT_DN2
  6
CONTINUOUS
 62
         7
100
AcDbLine
 10
94.4165245877
 20
84.5494400149
 30
0.0
 11
93.5479547415
 21
86.0538471184
 31
0.0
  0
LINE
  5
5F
100
AcDbEntity
  8
BPV_STRAIGHT_DN2
  6
CONTINUOUS
 62
         7
100
AcDbLine
 10
77.213739732
 20
83.9374051673
 30
0.0
 11
78.213739732
 21
85.6694559749
 31
0.0
  0
ARC
  5
60
100
AcDbEntity
  8
BPV_STRAIGHT_DN2
  6
CONTINUOUS
 62
         7
100
AcDbCircle
 10
84.0031693589
 20
107.0217938883
 30
0.0
 40
19.0907491844
100
AcDbArc
 50
222.7463074371
 51
257.2536925629
  0
LINE
  5
61
100
AcDbEntity
  8
BPV_STRAIGHT_DN2
  6
CONTINUOUS
 62
         7
100
AcDbLine
 10
79.7910900012
 20
88.4015067825
 30
0.0
 11
81.3477143283
 21
91.0976592052
 31
0.0
  0
LINE
  5
62
100
AcDbEntity
  8
BPV_STRAIGHT_DN2
  6
CONTINUOUS
 62
         7
100
AcDbLine
 10
66.464306945
 20
90.1435930805
 30
0.0
 11
67.464306945
 21
91.8756438881
 31
0.0
  0
LINE
  5
63
100
AcDbEntity
  8
BPV_STRAIGHT_DN2
  6
CONTINUOUS
 62
         7
100
AcDbLine
 10
69.0416572142
 20
94.6076946957
 30
0.0
 11
68.6086446042
 21
93.8576948548
 31
0.0
  0
LINE
  5
64
100
AcDbEntity
  8
BPV_STRAIGHT_DN2
  6
CONTINUOUS
 62
         7
100
AcDbLine
 10
91.9913305063
 20
80.3576948548
 30
0.0
 11
92.4243431164
 21
81.1076946957
 31
0.0
  0
LINE
  5
65
100
AcDbEntity
  8
BPV_STRAIGHT_DN2
  6
CONTINUOUS
 62
         7
100
AcDbLine
 10
107.7979547415
 20
110.7355711262
 30
0.0
 11
87.0133450507
 21
122.7355711262
 31
0.0
  0
ARC
  5
66
100
AcDbEntity
  8
BPV_STRAIGHT_DN2
  6
CONTINUOUS
 62
         7
100
AcDbCircle
 10
79.0194552987
 20
71.3897479257
 30
0.0
 40
19.0907491844
100
AcDbArc
 50
42.7463074371
 51
77.2536925629
  0
LINE
  5
67
100
AcDbEntity
  8
BPV_STRAIGHT_DN2
  6
CONTINUOUS
 62
         7
100
AcDbLine
 10
94.4139800576
 20
84.5538469664
 30
0.0
 11
93.9809674434
 21
83.8038471184
 31
0.0
  0
LINE
  5
68
100
AcDbEntity
  8
BPV_STRAIGHT_DN2
  6
CONTINUOUS
 62
         7
100
AcDbLine
 10
72.7633450507
 20
98.0538471184
 30
0.0
 11
71.026854645
 21
98.0538471184
 31
0.0
  0
ARC
  5
69
100
AcDbEntity
  8
BPV_STRAIGHT_DN2
  6
CONTINUOUS
 62
         7
100
AcDbCircle
 10
144.1101488962
 20
-36.5217093022
 30
0.0
 40
105.4340804424
100
AcDbArc
 50
131.2283994721
 51
132.9854776241
  0
LINE
  5
6A
100
AcDbEntity
  8
BPV_STRAIGHT_DN2
  6
CONTINUOUS
 62
         7
100
AcDbLine
 10
11.6076830265
 20
44.9009799402
 30
0.0
 11
10.6786294643
 21
44.9009799402
 31
0.0
  0
LINE
  5
6B
100
AcDbEntity
  8
BPV_STRAIGHT_DN2
  6
CONTINUOUS
 62
         7
100
AcDbLine
 10
21.1326703279
 20
44.9009799402
 30
0.0
 11
20.2036167657
 21
44.9009799402
 31
0.0
  0
ARC
  5
6C
100
AcDbEntity
  8
BPV_STRAIGHT_DN2
  6
CONTINUOUS
 62
         7
100
AcDbCircle
 10
-16.2991225876
 20
36.6509799402
 30
0.0
 40
37.4234215471
100
AcDbArc
 50
347.2645244266
 51
12.7354755734
  0
LINE
  5
6D
100
AcDbEntity
  8
BPV_STRAIGHT_DN2
  6
CONTINUOUS
 62
         7
100
AcDbLine
 10
20.2036167657
 20
11.9009799402
 30
0.0
 11
21.1326703279
 21
11.9009799402
 31
0.0
  0
LINE
  5
6E
100
AcDbEntity
  8
BPV_STRAIGHT_DN2
  6
CONTINUOUS
 62
         7
100
AcDbLine
 10
84.6786294643
 20
11.9009799402
 30
0.0
 11
85.6076830265
 21
11.9009799402
 31
0.0
  0
LINE
  5
6F
100
AcDbEntity
  8
BPV_STRAIGHT_DN2
  6
CONTINUOUS
 62
         7
100
AcDbLine
 10
83.4271198661
 20
55.5240468992
 30
0.0
 11
81.0329788628
 21
58.377273041
 31
0.0
  0
LINE
  5
70
100
AcDbEntity
  8
BPV_STRAIGHT_DN2
  6
CONTINUOUS
 62
         7
100
AcDbLine
 10
81.9271198661
 20
52.9259706878
 30
0.0
 11
83.4271198661
 21
55.5240468992
 31
0.0
  0
LINE
  5
71
100
AcDbEntity
  8
BPV_STRAIGHT_DN2
  6
CONTINUOUS
 62
         7
100
AcDbLine
 10
81.0329788628
 20
58.377273041
 30
0.0
 11
84.1280817604
 21
63.7381485143
 31
0.0
  0
LINE
  5
72
100
AcDbEntity
  8
BPV_STRAIGHT_DN2
  6
CONTINUOUS
 62
         7
100
AcDbLine
 10
48.5341799261
 20
66.5877020976
 30
0.0
 11
40.9667116808
 21
53.4804626121
 31
0.0
  0
LINE
  5
73
100
AcDbEntity
  8
BPV_STRAIGHT_DN2
  6
CONTINUOUS
 62
         7
100
AcDbLine
 10
49.8591799261
 20
71.3826694176
 30
0.0
 11
48.5341799261
 21
69.0877020976
 31
0.0
  0
LINE
  5
74
100
AcDbEntity
  8
BPV_STRAIGHT_DN2
  6
CONTINUOUS
 62
         7
100
AcDbLine
 10
48.5341799261
 20
69.0877020976
 30
0.0
 11
48.5341799261
 21
66.5877020976
 31
0.0
  0
LINE
  5
75
100
AcDbEntity
  8
BPV_STRAIGHT_DN2
  6
CONTINUOUS
 62
         7
100
AcDbLine
 10
20.2036167657
 20
44.9009799402
 30
0.0
 11
11.6076830265
 21
44.9009799402
 31
0.0
  0
ARC
  5
76
100
AcDbEntity
  8
BPV_STRAIGHT_DN2
  6
CONTINUOUS
 62
         7
100
AcDbCircle
 10
122.1104223798
 20
20.1509799402
 30
0.0
 40
37.4234215471
100
AcDbArc
 50
167.2645244266
 51
192.7354755734
  0
LINE
  5
77
100
AcDbEntity
  8
BPV_STRAIGHT_DN2
  6
CONTINUOUS
 62
         7
100
AcDbLine
 10
82.6639801453
 20
65.2022501295
 30
0.0
 11
84.1280817604
 21
63.7381485143
 31
0.0
  0
LINE
  5
78
100
AcDbEntity
  8
BPV_STRAIGHT_DN2
  6
CONTINUOUS
 62
         7
100
AcDbLine
 10
10.6786275718
 20
44.9009799402
 30
0.0
 11
10.4056498961
 21
44.1509799402
 31
0.0
  0
LINE
  5
79
100
AcDbEntity
  8
BPV_STRAIGHT_DN2
  6
CONTINUOUS
 62
         7
100
AcDbLine
 10
55.0522167493
 20
73.377273041
 30
0.0
 11
51.3841799261
 21
74.0240468992
 31
0.0
  0
LINE
  5
7A
100
AcDbEntity
  8
BPV_STRAIGHT_DN2
  6
CONTINUOUS
 62
         7
100
AcDbLine
 10
51.3841799261
 20
74.0240468992
 30
0.0
 11
49.8841799261
 21
71.4259706878
 31
0.0
  0
LINE
  5
7B
100
AcDbEntity
  8
BPV_STRAIGHT_DN2
  6
CONTINUOUS
 62
         7
100
AcDbLine
 10
35.1554487539
 20
41.9009799402
 30
0.0
 11
33.5874740899
 21
41.9009799402
 31
0.0
  0
LINE
  5
7C
100
AcDbEntity
  8
BPV_STRAIGHT_DN2
  6
CONTINUOUS
 62
         7
100
AcDbLine
 10
58.1473196469
 20
78.7381485143
 30
0.0
 11
55.0522167493
 21
73.377273041
 31
0.0
  0
LINE
  5
7D
100
AcDbEntity
  8
BPV_STRAIGHT_DN2
  6
CONTINUOUS
 62
         7
100
AcDbLine
 10
74.614251311
 20
42.7597108013
 30
0.0
 11
78.4120563567
 21
49.3377020976
 31
0.0
  0
LINE
  5
7E
100
AcDbEntity
  8
BPV_STRAIGHT_DN2
  6
CONTINUOUS
 62
         7
100
AcDbLine
 10
80.5771198661
 20
50.5877020976
 30
0.0
 11
81.9021198661
 21
52.8826694176
 31
0.0
  0
LINE
  5
7F
100
AcDbEntity
  8
BPV_STRAIGHT_DN2
  6
CONTINUOUS
 62
         7
100
AcDbLine
 10
78.4120563567
 20
49.3377020976
 30
0.0
 11
80.5771198661
 21
50.5877020976
 31
0.0
  0
LINE
  5
80
100
AcDbEntity
  8
BPV_STRAIGHT_DN2
  6
CONTINUOUS
 62
         7
100
AcDbLine
 10
10.4056498961
 20
12.6509799402
 30
0.0
 11
10.6786275718
 21
11.9009799402
 31
0.0
  0
LINE
  5
81
100
AcDbEntity
  8
BPV_STRAIGHT_DN2
  6
CONTINUOUS
 62
         7
100
AcDbLine
 10
54.3096444795
 20
47.5089675766
 30
0.0
 11
55.5994936858
 21
46.7642727901
 31
0.0
  0
LINE
  5
82
100
AcDbEntity
  8
BPV_STRAIGHT_DN2
  6
CONTINUOUS
 62
         7
100
AcDbLine
 10
61.2396015162
 20
49.2814577079
 30
0.0
 11
60.0237785624
 21
44.2099107257
 31
0.0
  0
LINE
  5
83
100
AcDbEntity
  8
BPV_STRAIGHT_DN2
  6
CONTINUOUS
 62
         7
100
AcDbLine
 10
33.5874740899
 20
14.9009799402
 30
0.0
 11
72.2238257023
 21
14.9009799402
 31
0.0
  0
LINE
  5
84
100
AcDbEntity
  8
BPV_STRAIGHT_DN2
  6
CONTINUOUS
 62
         7
100
AcDbLine
 10
57.8785676133
 20
45.4484488446
 30
0.0
 11
55.7322222321
 21
46.6876419282
 31
0.0
  0
LINE
  5
85
100
AcDbEntity
  8
BPV_STRAIGHT_DN2
  6
CONTINUOUS
 62
         7
100
AcDbLine
 10
58.8629029496
 20
46.370029959
 30
0.0
 11
57.8785676133
 21
45.4484488446
 31
0.0
  0
LINE
  5
86
100
AcDbEntity
  8
BPV_STRAIGHT_DN2
  6
CONTINUOUS
 62
         7
100
AcDbLine
 10
58.0177510949
 20
46.8579786098
 30
0.0
 11
58.8629029496
 21
46.370029959
 31
0.0
  0
LINE
  5
87
100
AcDbEntity
  8
BPV_STRAIGHT_DN2
  6
CONTINUOUS
 62
         7
100
AcDbLine
 10
59.7589710715
 20
48.705403173
 30
0.0
 11
58.017751095
 21
46.8579786098
 31
0.0
  0
LINE
  5
88
100
AcDbEntity
  8
BPV_STRAIGHT_DN2
  6
CONTINUOUS
 62
         7
100
AcDbLine
 10
58.6567879787
 20
44.9991431071
 30
0.0
 11
59.7589710715
 21
48.7054031729
 31
0.0
  0
LINE
  5
89
100
AcDbEntity
  8
BPV_STRAIGHT_DN2
  6
CONTINUOUS
 62
         7
100
AcDbLine
 10
60.0237785624
 20
44.2099107257
 30
0.0
 11
58.6567879787
 21
44.9991431071
 31
0.0
  0
LINE
  5
8A
100
AcDbEntity
  8
BPV_STRAIGHT_DN2
  6
CONTINUOUS
 62
         7
100
AcDbLine
 10
55.7322222321
 20
46.6876419282
 30
0.0
 11
59.5163992783
 21
50.2763489838
 31
0.0
  0
LINE
  5
8B
100
AcDbEntity
  8
BPV_STRAIGHT_DN2
  6
CONTINUOUS
 62
         7
100
AcDbLine
 10
59.5163992783
 20
50.2763489838
 30
0.0
 11
61.2396015162
 21
49.2814577079
 31
0.0
  0
LINE
  5
8C
100
AcDbEntity
  8
BPV_STRAIGHT_DN2
  6
CONTINUOUS
 62
         7
100
AcDbLine
 10
48.3308694264
 20
33.4009799402
 30
0.0
 11
48.3308694264
 21
31.6487300726
 31
0.0
  0
LINE
  5
8D
100
AcDbEntity
  8
BPV_STRAIGHT_DN2
  6
CONTINUOUS
 62
         7
100
AcDbLine
 10
49.5934422162
 20
33.4009799402
 30
0.0
 11
48.3308694264
 21
33.4009799402
 31
0.0
  0
LINE
  5
8E
100
AcDbEntity
  8
BPV_STRAIGHT_DN2
  6
CONTINUOUS
 62
         7
100
AcDbLine
 10
49.5934422162
 20
28.4009799402
 30
0.0
 11
52.0934422163
 21
30.9009799403
 31
0.0
  0
LINE
  5
8F
100
AcDbEntity
  8
BPV_STRAIGHT_DN2
  6
CONTINUOUS
 62
         7
100
AcDbLine
 10
52.0934422162
 20
30.9009799402
 30
0.0
 11
49.5934422162
 21
33.4009799402
 31
0.0
  0
LINE
  5
90
100
AcDbEntity
  8
BPV_STRAIGHT_DN2
  6
CONTINUOUS
 62
         7
100
AcDbLine
 10
48.3308694264
 20
31.6487300726
 30
0.0
 11
43.5479154825
 21
31.6487300726
 31
0.0
  0
LINE
  5
91
100
AcDbEntity
  8
BPV_STRAIGHT_DN2
  6
CONTINUOUS
 62
         7
100
AcDbLine
 10
43.5479154825
 20
30.1532298079
 30
0.0
 11
48.3308694264
 21
30.1532298079
 31
0.0
  0
LINE
  5
92
100
AcDbEntity
  8
BPV_STRAIGHT_DN2
  6
CONTINUOUS
 62
         7
100
AcDbLine
 10
48.3308694264
 20
30.1532298079
 30
0.0
 11
48.3308694264
 21
28.4009799402
 31
0.0
  0
LINE
  5
93
100
AcDbEntity
  8
BPV_STRAIGHT_DN2
  6
CONTINUOUS
 62
         7
100
AcDbLine
 10
43.5479154825
 20
31.6487300726
 30
0.0
 11
43.5479154825
 21
30.1532298079
 31
0.0
  0
LINE
  5
94
100
AcDbEntity
  8
BPV_STRAIGHT_DN2
  6
CONTINUOUS
 62
         7
100
AcDbLine
 10
48.3308694264
 20
28.4009799402
 30
0.0
 11
49.5934422162
 21
28.4009799402
 31
0.0
  0
LINE
  5
95
100
AcDbEntity
  8
BPV_STRAIGHT_DN2
  6
CONTINUOUS
 62
         7
100
AcDbLine
 10
86.6639801453
 20
72.1304533597
 30
0.0
 11
82.6639801453
 21
65.2022501295
 31
0.0
  0
LINE
  5
96
100
AcDbEntity
  8
BPV_STRAIGHT_DN2
  6
CONTINUOUS
 62
         7
100
AcDbLine
 10
60.1473196469
 20
78.2022501295
 30
0.0
 11
64.1473196469
 21
85.1304533597
 31
0.0
  0
LINE
  5
97
100
AcDbEntity
  8
BPV_STRAIGHT_DN2
  6
CONTINUOUS
 62
         7
100
AcDbLine
 10
60.1473196469
 20
78.2022501295
 30
0.0
 11
58.1473196469
 21
78.7381485143
 31
0.0
  0
LINE
  5
98
100
AcDbEntity
  8
BPV_STRAIGHT_DN2
  6
CONTINUOUS
 62
         7
100
AcDbLine
 10
87.6639801453
 20
73.8625041673
 30
0.0
 11
65.1473196469
 21
86.8625041673
 31
0.0
  0
LINE
  5
99
100
AcDbEntity
  8
BPV_STRAIGHT_DN2
  6
CONTINUOUS
 62
         7
100
AcDbLine
 10
36.9188169156
 20
33.8782055153
 30
0.0
 11
55.8924828766
 21
22.9237543652
 31
0.0
  0
LINE
  5
9A
100
AcDbEntity
  8
BPV_STRAIGHT_DN2
  6
CONTINUOUS
 62
         7
100
AcDbLine
 10
40.9667116808
 20
51.9804626121
 30
0.0
 11
66.4885792637
 21
37.2454054929
 31
0.0
  0
LINE
  5
9B
100
AcDbEntity
  8
BPV_STRAIGHT_DN2
  6
CONTINUOUS
 62
         7
100
AcDbLine
 10
40.9667116808
 20
53.4804626121
 30
0.0
 11
68.2302346573
 21
37.7398602826
 31
0.0
  0
LINE
  5
9C
100
AcDbEntity
  8
BPV_STRAIGHT_DN2
  6
CONTINUOUS
 62
         7
100
AcDbLine
 10
48.5341799261
 20
69.0877020976
 30
0.0
 11
80.5771198661
 21
50.5877020976
 31
0.0
  0
LINE
  5
9D
100
AcDbEntity
  8
BPV_STRAIGHT_DN2
  6
CONTINUOUS
 62
         7
100
AcDbLine
 10
48.5341799261
 20
66.5877020976
 30
0.0
 11
78.4120563567
 21
49.3377020976
 31
0.0
  0
LINE
  5
9E
100
AcDbEntity
  8
BPV_STRAIGHT_DN2
  6
CONTINUOUS
 62
         7
100
AcDbLine
 10
49.8591799261
 20
71.3826694176
 30
0.0
 11
81.9021198661
 21
52.8826694176
 31
0.0
  0
SPLINE
  5
9F
100
AcDbEntity
  8
BPV_STRAIGHT_DN2
  6
CONTINUOUS
 62
         7
100
AcDbSpline
210
0.0
220
0.0
230
1.0
 70
         8
 71
         3
 72
        16
 73
        12
 74
         0
 42
0.0
 43
0.0
 40
0.0
 40
0.0
 40
0.0
 40
0.0
 40
0.25
 40
0.25
 40
0.5
 40
0.5
 40
0.625
 40
0.625
 40
0.75
 40
0.75
 40
1.0
 40
1.0
 40
1.0
 40
1.0
 10
36.918816915598583
 20
33.878205515283867
 30
0.0
 10
38.076069521025993
 20
32.441758312960296
 30
0.0
 10
39.313251037175462
 20
30.946236330039145
 30
0.0
 10
41.920847950983259
 20
28.059649017643412
 30
0.0
 10
43.2973013673842
 20
26.644141322192276
 30
0.0
 10
45.601095179431837
 20
24.889741614577673
 30
0.0
 10
46.428707025712058
 20
24.361526788132942
 30
0.0
 10
48.173711092740142
 20
23.540314216278038
 30
0.0
 10
49.092413214330627
 20
23.246355859280158
 30
0.0
 10
51.989404193274666
 20
22.694121691964789
 30
0.0
 10
53.942245502181095
 20
22.754949889849165
 30
0.0
 10
55.892482876608895
 20
22.923754365180514
 30
0.0
  0
SPLINE
  5
A0
100
AcDbEntity
  8
BPV_STRAIGHT_DN2
  6
CONTINUOUS
 62
         7
100
AcDbSpline
210
0.0
220
0.0
230
1.0
 70
         8
 71
         3
 72
        18
 73
        14
 74
         0
 42
0.0
 43
0.0
 40
0.0
 40
0.0
 40
0.0
 40
0.0
 40
0.125
 40
0.125
 40
0.25
 40
0.25
 40
0.375
 40
0.375
 40
0.5
 40
0.5
 40
0.75
 40
0.75
 40
1.0
 40
1.0
 40
1.0
 40
1.0
 10
55.892482876608895
 20
22.923754365180514
 30
0.0
 10
55.892482876608888
 20
23.664646034569365
 30
0.0
 10
55.957635701227552
 20
24.419600213943475
 30
0.0
 10
56.273035267472544
 20
25.947186941222473
 30
0.0
 10
56.528002511752902
 20
26.717159994178417
 30
0.0
 10
57.195950843030673
 20
28.16561507996558
 30
0.0
 10
57.615908200708809
 20
28.865484188601442
 30
0.0
 10
58.544379432329748
 20
30.16899307000595
 30
0.0
 10
59.052430158539558
 20
30.777406764505681
 30
0.0
 10
60.657059177846442
 20
32.519711256569572
 30
0.0
 10
61.826714682637679
 20
33.567422688354
 30
0.0
 10
64.157232665916467
 20
35.502560026974123
 30
0.0
 10
65.333212738773938
 20
36.398828007194886
 30
0.0
 10
66.488579263710633
 20
37.245405492933898
 30
0.0
  0
ARC
  5
A1
100
AcDbEntity
  8
BPV_STRAIGHT_DN2
  6
CONTINUOUS
 62
         7
100
AcDbCircle
 10
13.0278782296
 20
32.8098498352
 30
0.0
 40
23.914814136
100
AcDbArc
 50
2.5604485063
 51
22.3427502212
  0
LINE
  5
A2
100
AcDbEntity
  8
BPV_STRAIGHT_DN2
  6
CONTINUOUS
 62
         7
100
AcDbLine
 10
72.2238257023
 20
14.9009799402
 30
0.0
 11
72.2238257023
 21
40.6061187263
 31
0.0
  0
LINE
  5
A3
100
AcDbEntity
  8
BPV_STRAIGHT_DN2
  6
CONTINUOUS
 62
         7
100
AcDbLine
 10
78.4056498961
 20
44.1509799402
 30
0.0
 11
78.4056498961
 21
12.6509799402
 31
0.0
  0
LINE
  5
A4
100
AcDbEntity
  8
BPV_STRAIGHT_DN2
  6
CONTINUOUS
 62
         7
100
AcDbLine
 10
66.4885792637
 20
37.2454054929
 30
0.0
 11
68.2302346573
 21
37.7398602826
 31
0.0
  0
ARC
  5
A5
100
AcDbEntity
  8
BPV_STRAIGHT_DN2
  6
CONTINUOUS
 62
         7
100
AcDbCircle
 10
148.2821048779
 20
-69.5820489739
 30
0.0
 40
133.8891113283
100
AcDbArc
 50
124.6156940342
 51
126.7194145471
  0
LINE
  5
A6
100
AcDbEntity
  8
BPV_STRAIGHT_DN2
  6
CONTINUOUS
 62
         7
100
AcDbLine
 10
33.5874740899
 20
41.9009799402
 30
0.0
 11
33.5874740899
 21
14.9009799402
 31
0.0
  0
LINE
  5
A7
100
AcDbEntity
  8
BPV_STRAIGHT_DN2
  6
CONTINUOUS
 62
         7
100
AcDbLine
 10
10.6786294643
 20
11.9009799402
 30
0.0
 11
11.6076830265
 21
11.9009799402
 31
0.0
  0
ARC
  5
A8
100
AcDbEntity
  8
BPV_STRAIGHT_DN2
  6
CONTINUOUS
 62
         7
100
AcDbCircle
 10
48.1104223798
 20
20.1509799402
 30
0.0
 40
37.4234215471
100
AcDbArc
 50
167.2645244266
 51
192.7354755734
  0
LINE
  5
A9
100
AcDbEntity
  8
BPV_STRAIGHT_DN2
  6
CONTINUOUS
 62
         7
100
AcDbLine
 10
95.4056498961
 20
44.1509799402
 30
0.0
 11
95.4056498961
 21
12.6509799402
 31
0.0
  0
LINE
  5
AA
100
AcDbEntity
  8
BPV_STRAIGHT_DN2
  6
CONTINUOUS
 62
         7
100
AcDbLine
 10
84.4056498961
 20
44.1509799402
 30
0.0
 11
84.4056498961
 21
12.6509799402
 31
0.0
  0
LINE
  5
AB
100
AcDbEntity
  8
BPV_STRAIGHT_DN2
  6
CONTINUOUS
 62
         7
100
AcDbLine
 10
20.2036167657
 20
11.9009799402
 30
0.0
 11
11.6076830265
 21
11.9009799402
 31
0.0
  0
LINE
  5
AC
100
AcDbEntity
  8
BPV_STRAIGHT_DN2
  6
CONTINUOUS
 62
         7
100
AcDbLine
 10
20.2036167657
 20
28.4009799402
 30
0.0
 11
11.6076830265
 21
28.4009799402
 31
0.0
  0
LINE
  5
AD
100
AcDbEntity
  8
BPV_STRAIGHT_DN2
  6
CONTINUOUS
 62
         7
100
AcDbLine
 10
85.6076830265
 20
44.9009799402
 30
0.0
 11
84.6786294643
 21
44.9009799402
 31
0.0
  0
ARC
  5
AE
100
AcDbEntity
  8
BPV_STRAIGHT_DN2
  6
CONTINUOUS
 62
         7
100
AcDbCircle
 10
122.1104223798
 20
36.6509799402
 30
0.0
 40
37.4234215471
100
AcDbArc
 50
167.2645244266
 51
192.7354755734
  0
LINE
  5
AF
100
AcDbEntity
  8
BPV_STRAIGHT_DN2
  6
CONTINUOUS
 62
         7
100
AcDbLine
 10
94.2036167657
 20
11.9009799402
 30
0.0
 11
85.6076830265
 21
11.9009799402
 31
0.0
  0
LINE
  5
B0
100
AcDbEntity
  8
BPV_STRAIGHT_DN2
  6
CONTINUOUS
 62
         7
100
AcDbLine
 10
94.2036167657
 20
44.9009799402
 30
0.0
 11
85.6076830265
 21
44.9009799402
 31
0.0
  0
ARC
  5
B1
100
AcDbEntity
  8
BPV_STRAIGHT_DN2
  6
CONTINUOUS
 62
         7
100
AcDbCircle
 10
-16.2991225876
 20
20.1509799402
 30
0.0
 40
37.4234215471
100
AcDbArc
 50
347.2645244266
 51
12.7354755734
  0
ARC
  5
B2
100
AcDbEntity
  8
BPV_STRAIGHT_DN2
  6
CONTINUOUS
 62
         7
100
AcDbCircle
 10
57.7008774124
 20
36.6509799402
 30
0.0
 40
37.4234215471
100
AcDbArc
 50
347.2645244266
 51
12.7354755734
  0
LINE
  5
B3
100
AcDbEntity
  8
BPV_STRAIGHT_DN2
  6
CONTINUOUS
 62
         7
100
AcDbLine
 10
95.1326703279
 20
11.9009799402
 30
0.0
 11
94.2036167657
 21
11.9009799402
 31
0.0
  0
ARC
  5
B4
100
AcDbEntity
  8
BPV_STRAIGHT_DN2
  6
CONTINUOUS
 62
         7
100
AcDbCircle
 10
57.7008774124
 20
20.1509799402
 30
0.0
 40
37.4234215471
100
AcDbArc
 50
347.2645244266
 51
12.7354755734
  0
ARC
  5
B5
100
AcDbEntity
  8
BPV_STRAIGHT_DN2
  6
CONTINUOUS
 62
         7
100
AcDbCircle
 10
48.1104223798
 20
36.6509799402
 30
0.0
 40
37.4234215471
100
AcDbArc
 50
167.2645244266
 51
192.7354755734
  0
LINE
  5
B6
100
AcDbEntity
  8
BPV_STRAIGHT_DN2
  6
CONTINUOUS
 62
         7
100
AcDbLine
 10
27.4056498961
 20
44.1509799402
 30
0.0
 11
27.4056498961
 21
12.6509799402
 31
0.0
  0
LINE
  5
B7
100
AcDbEntity
  8
BPV_STRAIGHT_DN2
  6
CONTINUOUS
 62
         7
100
AcDbLine
 10
10.4056498961
 20
44.1509799402
 30
0.0
 11
10.4056498961
 21
12.6509799402
 31
0.0
  0
LINE
  5
B8
100
AcDbEntity
  8
BPV_STRAIGHT_DN2
  6
CONTINUOUS
 62
         7
100
AcDbLine
 10
21.4056498961
 20
44.1509799402
 30
0.0
 11
21.4056498961
 21
12.6509799402
 31
0.0
  0
LINE
  5
B9
100
AcDbEntity
  8
BPV_STRAIGHT_DN2
  6
CONTINUOUS
 62
         7
100
AcDbLine
 10
95.1326722204
 20
11.9009799402
 30
0.0
 11
95.4056498961
 21
12.6509799402
 31
0.0
  0
LINE
  5
BA
100
AcDbEntity
  8
BPV_STRAIGHT_DN2
  6
CONTINUOUS
 62
         7
100
AcDbLine
 10
27.4056498961
 20
44.1509799402
 30
0.0
 11
21.4056498961
 21
44.1509799402
 31
0.0
  0
LINE
  5
BB
100
AcDbEntity
  8
BPV_STRAIGHT_DN2
  6
CONTINUOUS
 62
         7
100
AcDbLine
 10
78.4056498961
 20
44.1509799402
 30
0.0
 11
74.6072221621
 21
42.768465308
 31
0.0
  0
LINE
  5
BC
100
AcDbEntity
  8
BPV_STRAIGHT_DN2
  6
CONTINUOUS
 62
         7
100
AcDbLine
 10
27.4056498961
 20
12.6509799402
 30
0.0
 11
33.5874740899
 21
14.9009799402
 31
0.0
  0
LINE
  5
BD
100
AcDbEntity
  8
BPV_STRAIGHT_DN2
  6
CONTINUOUS
 62
         7
100
AcDbLine
 10
84.4056498961
 20
44.1509799402
 30
0.0
 11
78.4056498961
 21
44.1509799402
 31
0.0
  0
LINE
  5
BE
100
AcDbEntity
  8
BPV_STRAIGHT_DN2
  6
CONTINUOUS
 62
         7
100
AcDbLine
 10
95.4056498961
 20
44.1509799402
 30
0.0
 11
95.1326722204
 21
44.9009799402
 31
0.0
  0
LINE
  5
BF
100
AcDbEntity
  8
BPV_STRAIGHT_DN2
  6
CONTINUOUS
 62
         7
100
AcDbLine
 10
21.1326722204
 20
11.9009799402
 30
0.0
 11
21.4056498961
 21
12.6509799402
 31
0.0
  0
LINE
  5
C0
100
AcDbEntity
  8
BPV_STRAIGHT_DN2
  6
CONTINUOUS
 62
         7
100
AcDbLine
 10
40.9667116808
 20
53.4804626121
 30
0.0
 11
40.9667116808
 21
51.9804626121
 31
0.0
  0
LINE
  5
C1
100
AcDbEntity
  8
BPV_STRAIGHT_DN2
  6
CONTINUOUS
 62
         7
100
AcDbLine
 10
21.4056498961
 20
12.6509799402
 30
0.0
 11
27.4056498961
 21
12.6509799402
 31
0.0
  0
LINE
  5
C2
100
AcDbEntity
  8
BPV_STRAIGHT_DN2
  6
CONTINUOUS
 62
         7
100
AcDbLine
 10
72.2238257023
 20
14.9009799402
 30
0.0
 11
78.4056498961
 21
12.6509799402
 31
0.0
  0
LINE
  5
C3
100
AcDbEntity
  8
BPV_STRAIGHT_DN2
  6
CONTINUOUS
 62
         7
100
AcDbLine
 10
33.5874740899
 20
41.9009799402
 30
0.0
 11
27.4056498961
 21
44.1509799402
 31
0.0
  0
LINE
  5
C4
100
AcDbEntity
  8
BPV_STRAIGHT_DN2
  6
CONTINUOUS
 62
         7
100
AcDbLine
 10
78.4056498961
 20
12.6509799402
 30
0.0
 11
84.4056498961
 21
12.6509799402
 31
0.0
  0
LINE
  5
C5
100
AcDbEntity
  8
BPV_STRAIGHT_DN2
  6
CONTINUOUS
 62
         7
100
AcDbLine
 10
21.4056498961
 20
44.1509799402
 30
0.0
 11
21.1326722204
 21
44.9009799402
 31
0.0
  0
LINE
  5
C6
100
AcDbEntity
  8
BPV_STRAIGHT_DN2
  6
CONTINUOUS
 62
         7
100
AcDbLine
 10
40.9667116808
 20
51.9804626121
 30
0.0
 11
35.1401266447
 21
41.8885212949
 31
0.0
  0
LINE
  5
C7
100
AcDbEntity
  8
BPV_STRAIGHT_DN2
  6
CONTINUOUS
 62
         7
100
AcDbLine
 10
68.6065263515
 20
93.8613634578
 30
0.0
 11
68.8973196469
 21
93.3576946957
 31
0.0
  0
LINE
  5
C8
100
AcDbEntity
  8
BPV_STRAIGHT_DN2
  6
CONTINUOUS
 62
         7
100
AcDbLine
 10
87.6206788751
 20
73.8875041673
 30
0.0
 11
88.1206788751
 21
74.7535295711
 31
0.0
  0
LINE
  5
C9
100
AcDbEntity
  8
BPV_STRAIGHT_DN2
  6
CONTINUOUS
 62
         7
100
AcDbLine
 10
90.4139801453
 20
78.6256438881
 30
0.0
 11
91.4139801453
 21
80.3576946957
 31
0.0
  0
LINE
  5
CA
100
AcDbEntity
  8
BPV_STRAIGHT_DN2
  6
CONTINUOUS
 62
         7
100
AcDbLine
 10
88.1639801453
 20
74.7285295711
 30
0.0
 11
89.4139801453
 21
76.8935930805
 31
0.0
  0
LINE
  5
CB
100
AcDbEntity
  8
BPV_STRAIGHT_DN2
  6
CONTINUOUS
 62
         7
100
AcDbLine
 10
93.5479547415
 20
86.0538471184
 30
0.0
 11
107.7979547415
 21
110.7355711262
 31
0.0
  0
LINE
  5
CC
100
AcDbEntity
  8
BPV_STRAIGHT_DN2
  6
CONTINUOUS
 62
         7
100
AcDbLine
 10
93.5479547415
 20
86.0538471184
 30
0.0
 11
72.7633450507
 21
98.0538471184
 31
0.0
  0
LINE
  5
CD
100
AcDbEntity
  8
BPV_STRAIGHT_DN2
  6
CONTINUOUS
 62
         7
100
AcDbLine
 10
91.4139801453
 20
80.3576946957
 30
0.0
 11
91.9948282582
 21
80.3576946957
 31
0.0
  0
LINE
  5
CE
100
AcDbEntity
  8
BPV_STRAIGHT_DN2
  6
CONTINUOUS
 62
         7
100
AcDbLine
 10
83.2315346564
 20
90.0100350316
 30
0.0
 11
81.6749103294
 21
87.3138826089
 31
0.0
  0
LINE
  5
CF
100
AcDbEntity
  8
BPV_STRAIGHT_DN2
  6
CONTINUOUS
 62
         7
100
AcDbLine
 10
91.4824329523
 20
81.6515067825
 30
0.0
 11
93.0390572793
 21
84.3476592052
 31
0.0
  0
LINE
  5
D0
100
AcDbEntity
  8
BPV_STRAIGHT_DN2
  6
CONTINUOUS
 62
         7
100
AcDbLine
 10
79.0975600602
 20
82.8497809938
 30
0.0
 11
88.9050826831
 21
77.1874051673
 31
0.0
  0
LINE
  5
D1
100
AcDbEntity
  8
BPV_STRAIGHT_DN2
  6
CONTINUOUS
 62
         7
100
AcDbLine
 10
89.9050826831
 20
78.9194559749
 30
0.0
 11
80.0975600602
 21
84.5818318013
 31
0.0
  0
LINE
  5
D2
100
AcDbEntity
  8
BPV_STRAIGHT_DN2
  6
CONTINUOUS
 62
         7
100
AcDbLine
 10
88.9050826831
 20
77.1874051673
 30
0.0
 11
89.9050826831
 21
78.9194559749
 31
0.0
  0
LINE
  5
D3
100
AcDbEntity
  8
BPV_STRAIGHT_DN2
  6
CONTINUOUS
 62
         7
100
AcDbLine
 10
80.0975600602
 20
84.5818318013
 30
0.0
 11
79.0975600602
 21
82.8497809938
 31
0.0
  0
ARC
  5
D4
100
AcDbEntity
  8
BPV_STRAIGHT_DN2
  6
CONTINUOUS
 62
         7
100
AcDbCircle
 10
95.69451231
 20
100.2717938883
 30
0.0
 40
19.0907491844
100
AcDbArc
 50
222.7463074371
 51
257.2536925629
  0
LINE
  5
D5
100
AcDbEntity
  8
BPV_STRAIGHT_DN2
  6
CONTINUOUS
 62
         7
100
AcDbLine
 10
55.5994936858
 20
46.7642727901
 30
0.0
 11
57.4091609638
 21
49.8987084604
 31
0.0
  0
LINE
  5
D6
100
AcDbEntity
  8
BPV_STRAIGHT_DN2
  6
CONTINUOUS
 62
         7
100
AcDbLine
 10
57.4091609638
 20
49.8987084604
 30
0.0
 11
58.1091055199
 21
49.4945952825
 31
0.0
  0
LINE
  5
D7
100
AcDbEntity
  8
BPV_STRAIGHT_DN2
  6
CONTINUOUS
 62
         7
100
AcDbLine
 10
65.6906209171
 20
87.7035295711
 30
0.0
 11
65.1906209171
 21
86.8375041673
 31
0.0
  0
LINE
  5
D8
100
AcDbEntity
  8
BPV_STRAIGHT_DN2
  6
CONTINUOUS
 62
         7
100
AcDbLine
 10
68.8973196469
 20
93.3576946957
 30
0.0
 11
67.8973196469
 21
91.6256438881
 31
0.0
  0
LINE
  5
D9
100
AcDbEntity
  8
BPV_STRAIGHT_DN2
  6
CONTINUOUS
 62
         7
100
AcDbLine
 10
66.8973196469
 20
89.8935930805
 30
0.0
 11
65.6473196469
 21
87.7285295711
 31
0.0
  0
LINE
  5
DA
100
AcDbEntity
  8
BPV_STRAIGHT_DN2
  6
CONTINUOUS
 62
         7
100
AcDbLine
 10
56.1193117575
 20
50.6434032468
 30
0.0
 11
54.3096444795
 21
47.5089675766
 31
0.0
  0
LINE
  5
DB
100
AcDbEntity
  8
BPV_STRAIGHT_DN2
  6
CONTINUOUS
 62
         7
100
AcDbLine
 10
58.1091055199
 20
49.4945952825
 30
0.0
 11
59.1556498961
 21
50.4846277367
 31
0.0
  0
LINE
  5
DC
100
AcDbEntity
  8
BPV_STRAIGHT_DN2
  6
CONTINUOUS
 62
         7
100
AcDbLine
 10
59.1556498961
 20
50.4846277367
 30
0.0
 11
56.2095299411
 21
52.1855708858
 31
0.0
  0
LINE
  5
DD
100
AcDbEntity
  8
BPV_STRAIGHT_DN2
  6
CONTINUOUS
 62
         7
100
AcDbLine
 10
56.2095299411
 20
52.1855708858
 30
0.0
 11
55.1686577251
 21
51.1922636084
 31
0.0
  0
LINE
  5
DE
100
AcDbEntity
  8
BPV_STRAIGHT_DN2
  6
CONTINUOUS
 62
         7
100
AcDbLine
 10
55.168657725
 20
51.1922636084
 30
0.0
 11
56.1193117575
 21
50.6434032468
 31
0.0
  0
LINE
  5
DF
100
AcDbEntity
  8
BPV_STRAIGHT_DN2
  6
CONTINUOUS
 62
         7
100
AcDbLine
 10
87.0133450507
 20
122.7355711262
 30
0.0
 11
72.7633450507
 21
98.0538471184
 31
0.0
  0
LINE
  5
E0
100
AcDbEntity
  8
BPV_STRAIGHT_DN2
  6
CONTINUOUS
 62
         7
100
AcDbLine
 10
67.4062171091
 20
89.5997809938
 30
0.0
 11
66.464306945
 21
90.1435930805
 31
0.0
  0
LINE
  5
E1
100
AcDbEntity
  8
BPV_STRAIGHT_DN2
  6
CONTINUOUS
 62
         7
100
AcDbLine
 10
89.8469928472
 20
76.6435930805
 30
0.0
 11
88.9050826831
 21
77.1874051673
 31
0.0
  0
LINE
  5
E2
100
AcDbEntity
  8
BPV_STRAIGHT_DN2
  6
CONTINUOUS
 62
         7
100
AcDbLine
 10
79.0975600602
 20
82.8497809938
 30
0.0
 11
77.213739732
 21
83.9374051673
 31
0.0
  0
LINE
  5
E3
100
AcDbEntity
  8
BPV_STRAIGHT_DN2
  6
CONTINUOUS
 62
         7
100
AcDbLine
 10
68.4062171091
 20
91.3318318013
 30
0.0
 11
67.464306945
 21
91.8756438881
 31
0.0
  0
LINE
  5
E4
100
AcDbEntity
  8
BPV_STRAIGHT_DN2
  6
CONTINUOUS
 62
         7
100
AcDbLine
 10
90.8469928472
 20
78.3756438881
 30
0.0
 11
89.9050826831
 21
78.9194559749
 31
0.0
  0
LINE
  5
E5
100
AcDbEntity
  8
BPV_STRAIGHT_DN2
  6
CONTINUOUS
 62
         7
100
AcDbLine
 10
80.0975600602
 20
84.5818318013
 30
0.0
 11
78.213739732
 21
85.6694559749
 31
0.0
  0
LINE
  5
E6
100
AcDbEntity
  8
BPV_STRAIGHT_DN2
  6
CONTINUOUS
 62
         7
100
AcDbLine
 10
90.8469928472
 20
78.3756438881
 30
0.0
 11
89.8469928472
 21
76.6435930805
 31
0.0
  0
LINE
  5
E7
100
AcDbEntity
  8
BPV_STRAIGHT_DN2
  6
CONTINUOUS
 62
         7
100
AcDbLine
 10
93.9809674434
 20
83.8038471184
 30
0.0
 11
93.0390572793
 21
84.3476592052
 31
0.0
  0
LINE
  5
E8
100
AcDbEntity
  8
BPV_STRAIGHT_DN2
  6
CONTINUOUS
 62
         7
100
AcDbLine
 10
83.2315346564
 20
90.0100350316
 30
0.0
 11
81.3477143283
 21
91.0976592052
 31
0.0
  0
LINE
  5
E9
100
AcDbEntity
  8
BPV_STRAIGHT_DN2
  6
CONTINUOUS
 62
         7
100
AcDbLine
 10
70.5982815412
 20
97.3038471184
 30
0.0
 11
71.0312941554
 21
98.0538469664
 31
0.0
  0
ARC
  5
EA
100
AcDbEntity
  8
BPV_STRAIGHT_DN2
  6
CONTINUOUS
 62
         7
100
AcDbCircle
 10
67.3281123476
 20
78.1397479257
 30
0.0
 40
19.0907491844
100
AcDbArc
 50
42.7463074371
 51
77.2536925629
  0
LINE
  5
EB
100
AcDbEntity
  8
BPV_STRAIGHT_DN2
  6
CONTINUOUS
 62
         7
100
AcDbLine
 10
92.4243431164
 20
81.1076946957
 30
0.0
 11
91.4824329523
 21
81.6515067825
 31
0.0
  0
LINE
  5
EC
100
AcDbEntity
  8
BPV_STRAIGHT_DN2
  6
CONTINUOUS
 62
         7
100
AcDbLine
 10
69.9835673783
 20
94.0638826089
 30
0.0
 11
69.0416572142
 21
94.6076946957
 31
0.0
  0
LINE
  5
ED
100
AcDbEntity
  8
BPV_STRAIGHT_DN2
  6
CONTINUOUS
 62
         7
100
AcDbLine
 10
81.6749103294
 20
87.3138826089
 30
0.0
 11
79.7910900012
 21
88.4015067825
 31
0.0
  0
LINE
  5
EE
100
AcDbEntity
  8
BPV_STRAIGHT_DN2
  6
CONTINUOUS
 62
         7
100
AcDbLine
 10
64.1473196469
 20
85.1304533597
 30
0.0
 11
65.1473196469
 21
86.8625041673
 31
0.0
  0
LINE
  5
EF
100
AcDbEntity
  8
BPV_STRAIGHT_DN2
  6
CONTINUOUS
 62
         7
100
AcDbLine
 10
87.6639801453
 20
73.8625041673
 30
0.0
 11
86.6639801453
 21
72.1304533597
 31
0.0
  0
LINE
  5
F0
100
AcDbEntity
  8
BPV_STRAIGHT_DN2
  6
CONTINUOUS
 62
         7
100
AcDbLine
 10
81.9271198661
 20
52.9259706878
 30
0.0
 11
49.8841799261
 21
71.4259706878
 31
0.0
  0
LINE
  5
F1
100
AcDbEntity
  8
BPV_STRAIGHT_DN2
  6
CONTINUOUS
 62
         7
100
AcDbLine
 10
83.4271198661
 20
55.5240468992
 30
0.0
 11
51.3841799261
 21
74.0240468992
 31
0.0
  0
LINE
  5
F2
100
AcDbEntity
  8
BPV_STRAIGHT_DN2
  6
CONTINUOUS
 62
         7
100
AcDbLine
 10
86.6639801453
 20
72.1304533597
 30
0.0
 11
64.1473196469
 21
85.1304533597
 31
0.0
  0
LINE
  5
F3
100
AcDbEntity
  8
BPV_STRAIGHT_DN2
  6
CONTINUOUS
 62
         7
100
AcDbLine
 10
81.0329788628
 20
58.377273041
 30
0.0
 11
55.0522167493
 21
73.377273041
 31
0.0
  0
LINE
  5
F4
100
AcDbEntity
  8
BPV_STRAIGHT_DN2
  6
CONTINUOUS
 62
         7
100
AcDbLine
 10
95.1326703279
 20
44.9009799402
 30
0.0
 11
94.2036167657
 21
44.9009799402
 31
0.0
  0
LINE
  5
F5
100
AcDbEntity
  8
BPV_STRAIGHT_DN2
  6
CONTINUOUS
 62
         7
100
AcDbLine
 10
84.6786275718
 20
44.9009799402
 30
0.0
 11
84.4056498961
 21
44.1509799402
 31
0.0
  0
LINE
  5
F6
100
AcDbEntity
  8
BPV_STRAIGHT_DN2
  6
CONTINUOUS
 62
         7
100
AcDbLine
 10
94.2036167657
 20
28.4009799402
 30
0.0
 11
85.6076830265
 21
28.4009799402
 31
0.0
  0
LINE
  5
F7
100
AcDbEntity
  8
BPV_STRAIGHT_DN2
  6
CONTINUOUS
 62
         7
100
AcDbLine
 10
84.4056498961
 20
12.6509799402
 30
0.0
 11
84.6786275718
 21
11.9009799402
 31
0.0
  0
ENDBLK
  5
F8
100
AcDbEntity
  8
BPV_STRAIGHT_DN2
  6
CONTINUOUS
 62
         7
100
AcDbBlockEnd
  0
BLOCK
  5
18C
100
AcDbEntity
  8
0
 62
         1
 48
0.0
100
AcDbBlockBegin
  2
SE2
 70
         0
 10
0.0
 20
0.0
 30
0.0
  3
SE2
  1

  0
ENDBLK
  5
18D
100
AcDbEntity
  8
0
 62
         1
 48
0.0
100
AcDbBlockEnd
  0
BLOCK
  5
FB
100
AcDbEntity
  8
0
 62
         1
 48
0.0
100
AcDbBlockBegin
  2
SE3
 70
         0
 10
0.0
 20
0.0
 30
0.0
  3
SE3
  1

  0
ELLIPSE
  5
FC
100
AcDbEntity
  8
BPV_STRAIGHT_DN2
  6
CONTINUOUS
 62
         7
100
AcDbEllipse
 10
97.4056498961
 20
179.4607739113
 30
0.0
 11
0.0
 21
11.999999999999998
 31
0.0
210
0.0
220
0.0
230
1.0
 40
0.8660254038
 41
3.1415926535897931
 42
6.2831853071795862
  0
LINE
  5
FD
100
AcDbEntity
  8
BPV_STRAIGHT_DN2
  6
CONTINUOUS
 62
         7
100
AcDbLine
 10
58.4533530763
 20
197.2107739113
 30
0.0
 11
56.6556498961
 21
197.2107739113
 31
0.0
  0
LINE
  5
FE
100
AcDbEntity
  8
BPV_STRAIGHT_DN2
  6
CONTINUOUS
 62
         7
100
AcDbLine
 10
48.3308694264
 20
162.4607739113
 30
0.0
 11
49.2924012421
 21
162.4607739113
 31
0.0
  0
LINE
  5
FF
100
AcDbEntity
  8
BPV_STRAIGHT_DN2
  6
CONTINUOUS
 62
         7
100
AcDbLine
 10
48.2807393093
 20
196.4607739113
 30
0.0
 11
47.4173118289
 21
196.4607739113
 31
0.0
  0
ARC
  5
100
100
AcDbEntity
  8
BPV_STRAIGHT_DN2
  6
CONTINUOUS
 62
         7
100
AcDbCircle
 10
-28.1717899639
 20
179.4607739113
 30
0.0
 40
49.3044620318
100
AcDbArc
 50
348.8596296551
 51
11.1403703449
  0
ARC
  5
101
100
AcDbEntity
  8
BPV_STRAIGHT_DN2
  6
CONTINUOUS
 62
         7
100
AcDbCircle
 10
133.9830897561
 20
179.4607739113
 30
0.0
 40
49.3044620318
100
AcDbArc
 50
168.8596296551
 51
191.1403703449
  0
LINE
  5
102
100
AcDbEntity
  8
BPV_STRAIGHT_DN2
  6
CONTINUOUS
 62
         7
100
AcDbLine
 10
65.9056498961
 20
160.9607739113
 30
0.0
 11
67.4056498961
 21
160.9607739113
 31
0.0
  0
ARC
  5
103
100
AcDbEntity
  8
BPV_STRAIGHT_DN2
  6
CONTINUOUS
 62
         7
100
AcDbCircle
 10
8.4581629011
 20
165.1713547489
 30
0.0
 40
12.6745093193
100
AcDbArc
 50
337.9259452632
 51
22.0740547368
  0
LINE
  5
104
100
AcDbEntity
  8
BPV_STRAIGHT_DN2
  6
CONTINUOUS
 62
         7
100
AcDbLine
 10
94.2036167657
 20
160.408215028
 30
0.0
 11
85.6076830265
 21
160.408215028
 31
0.0
  0
LINE
  5
105
100
AcDbEntity
  8
BPV_STRAIGHT_DN2
  6
CONTINUOUS
 62
         7
100
AcDbLine
 10
65.8806498961
 20
197.9607739113
 30
0.0
 11
64.5556498961
 21
197.9607739113
 31
0.0
  0
LINE
  5
106
100
AcDbEntity
  8
BPV_STRAIGHT_DN2
  6
CONTINUOUS
 62
         7
100
AcDbLine
 10
56.6556498961
 20
196.7107739113
 30
0.0
 11
55.9056498961
 21
196.7107739113
 31
0.0
  0
LINE
  5
107
100
AcDbEntity
  8
BPV_STRAIGHT_DN2
  6
CONTINUOUS
 62
         7
100
AcDbLine
 10
47.4173118289
 20
162.4607739113
 30
0.0
 11
48.2807393093
 21
162.4607739113
 31
0.0
  0
ARC
  5
108
100
AcDbEntity
  8
BPV_STRAIGHT_DN2
  6
CONTINUOUS
 62
         7
100
AcDbCircle
 10
97.3531368911
 20
193.7501930737
 30
0.0
 40
12.6745093193
100
AcDbArc
 50
157.9259452632
 51
202.0740547368
  0
LINE
  5
109
100
AcDbEntity
  8
BPV_STRAIGHT_DN2
  6
CONTINUOUS
 62
         7
100
AcDbLine
 10
49.2924012421
 20
196.4607739113
 30
0.0
 11
48.3308694264
 21
196.4607739113
 31
0.0
  0
LINE
  5
10A
100
AcDbEntity
  8
BPV_STRAIGHT_DN2
  6
CONTINUOUS
 62
         7
100
AcDbLine
 10
11.6076830265
 20
198.5133327946
 30
0.0
 11
10.4056498961
 21
195.2107739113
 31
0.0
  0
ELLIPSE
  5
10B
100
AcDbEntity
  8
BPV_STRAIGHT_DN2
  6
CONTINUOUS
 62
         7
100
AcDbEllipse
 10
47.4173118289
 20
179.4607739113
 30
0.0
 11
19.05255888325765
 21
0.0
 31
0.0
210
0.0
220
0.0
230
1.0
 40
0.8660254038
 41
1.5228285954394418
 42
1.5707963267948966
  0
LINE
  5
10C
100
AcDbEntity
  8
BPV_STRAIGHT_DN2
  6
CONTINUOUS
 62
         7
100
AcDbLine
 10
67.4056498961
 20
197.9607739113
 30
0.0
 11
65.9056498961
 21
197.9607739113
 31
0.0
  0
ELLIPSE
  5
10D
100
AcDbEntity
  8
BPV_STRAIGHT_DN2
  6
CONTINUOUS
 62
         7
100
AcDbEllipse
 10
46.4056498961
 20
179.4607739113
 30
0.0
 11
19.05255888325765
 21
0.0
 31
0.0
210
0.0
220
0.0
230
1.0
 40
0.8660254038
 41
1.4026899659733398
 42
1.4695757515237564
  0
ELLIPSE
  5
10E
100
AcDbEntity
  8
BPV_STRAIGHT_DN2
  6
CONTINUOUS
 62
         7
100
AcDbEllipse
 10
42.0510446116
 20
179.4607739235
 30
0.0
 11
45.078838307199668
 21
-0.0000000027820603
 31
0.0
210
0.0
220
0.0
230
1.0
 40
0.3660254037
 41
1.3461371678244591
 42
1.4026899660800087
  0
ELLIPSE
  5
10F
100
AcDbEntity
  8
BPV_STRAIGHT_DN2
  6
CONTINUOUS
 62
         7
100
AcDbEllipse
 10
46.4056498961
 20
179.4607739113
 30
0.0
 11
19.05255888325765
 21
0.0
 31
0.0
210
0.0
220
0.0
230
1.0
 40
0.8660254038
 41
4.8136095556558303
 42
4.8804953412050942
  0
ELLIPSE
  5
110
100
AcDbEntity
  8
BPV_STRAIGHT_DN2
  6
CONTINUOUS
 62
         7
100
AcDbEllipse
 10
42.0510446108
 20
179.4607739005
 30
0.0
 11
45.078838309321078
 21
0.0000000024434234
 31
0.0
210
0.0
220
0.0
230
1.0
 40
0.3660254037
 41
4.8804953411115086
 42
4.937048139364113
  0
LINE
  5
111
100
AcDbEntity
  8
BPV_STRAIGHT_DN2
  6
CONTINUOUS
 62
         7
100
AcDbLine
 10
64.5556498961
 20
160.9607739113
 30
0.0
 11
65.8806498961
 21
160.9607739113
 31
0.0
  0
ELLIPSE
  5
112
100
AcDbEntity
  8
BPV_STRAIGHT_DN2
  6
CONTINUOUS
 62
         7
100
AcDbEllipse
 10
54.3296931392
 20
179.4607742637
 30
0.0
 11
43.3523993051042
 21
-0.0000000391627054
 31
0.0
210
0.0
220
0.0
230
1.0
 40
0.3979018445
 41
1.470817731685734
 42
1.4888435362322947
  0
ELLIPSE
  5
113
100
AcDbEntity
  8
BPV_STRAIGHT_DN2
  6
CONTINUOUS
 62
         7
100
AcDbEllipse
 10
56.6556498961
 20
179.460773911
 30
0.0
 11
-0.0000000000175884
 21
-17.250000000287244
 31
0.0
210
0.0
220
0.0
230
1.0
 40
0.8660254038
 41
3.0596398616001945
 42
3.1415926535897931
  0
ELLIPSE
  5
114
100
AcDbEntity
  8
BPV_STRAIGHT_DN2
  6
CONTINUOUS
 62
         7
100
AcDbEllipse
 10
47.4173118289
 20
179.4607739113
 30
0.0
 11
19.05255888325765
 21
0.0
 31
0.0
210
0.0
220
0.0
230
1.0
 40
0.8660254038
 41
4.7123889803846897
 42
4.760356711740144
  0
LINE
  5
115
100
AcDbEntity
  8
BPV_STRAIGHT_DN2
  6
CONTINUOUS
 62
         7
100
AcDbLine
 10
41.6430869858
 20
192.9607739113
 30
0.0
 11
33.5874740899
 21
192.9607739113
 31
0.0
  0
ELLIPSE
  5
116
100
AcDbEntity
  8
BPV_STRAIGHT_DN2
  6
CONTINUOUS
 62
         7
100
AcDbEllipse
 10
63.2126286945
 20
179.4607739126
 30
0.0
 11
0.0000000005826312
 21
17.249999998712596
 31
0.0
210
0.0
220
0.0
230
1.0
 40
0.8199286598
 41
0.1399544138739917
 42
0.2274148688839066
  0
ELLIPSE
  5
117
100
AcDbEntity
  8
BPV_STRAIGHT_DN2
  6
CONTINUOUS
 62
         7
100
AcDbEllipse
 10
56.6556498959
 20
179.4607739102
 30
0.0
 11
0.0000000007070681
 21
17.250000001118501
 31
0.0
210
0.0
220
0.0
230
1.0
 40
0.8660254038
 41
6.055770438374747
 42
6.1488269228259078
  0
LINE
  5
118
100
AcDbEntity
  8
BPV_STRAIGHT_DN2
  6
CONTINUOUS
 62
         7
100
AcDbLine
 10
10.4056498961
 20
163.7107739113
 30
0.0
 11
11.6076830265
 21
160.408215028
 31
0.0
  0
LINE
  5
119
100
AcDbEntity
  8
BPV_STRAIGHT_DN2
  6
CONTINUOUS
 62
         7
100
AcDbLine
 10
55.5994936858
 20
196.7071510526
 30
0.0
 11
55.5994936858
 21
197.1688289168
 31
0.0
  0
LINE
  5
11A
100
AcDbEntity
  8
BPV_STRAIGHT_DN2
  6
CONTINUOUS
 62
         7
100
AcDbLine
 10
59.1556498961
 20
197.2086404499
 30
0.0
 11
59.1556498961
 21
197.2107739113
 31
0.0
  0
ELLIPSE
  5
11B
100
AcDbEntity
  8
BPV_STRAIGHT_DN2
  6
CONTINUOUS
 62
         7
100
AcDbEllipse
 10
56.6556498961
 20
179.460773911
 30
0.0
 11
-0.0000000001045553
 21
17.750000000327944
 31
0.0
210
0.0
220
0.0
230
1.0
 40
0.8660254038
 41
0.0687608838133321
 42
0.1532147271862084
  0
ELLIPSE
  5
11C
100
AcDbEntity
  8
BPV_STRAIGHT_DN2
  6
CONTINUOUS
 62
         7
100
AcDbEllipse
 10
63.2126286945
 20
179.4607739128
 30
0.0
 11
0.0000000006739609
 21
17.749999998507324
 31
0.0
210
0.0
220
0.0
230
1.0
 40
0.8199286599
 41
0.1359871908440875
 42
0.2209009114110879
  0
ELLIPSE
  5
11D
100
AcDbEntity
  8
BPV_STRAIGHT_DN2
  6
CONTINUOUS
 62
         7
100
AcDbEllipse
 10
56.6556498961
 20
179.4607739114
 30
0.0
 11
0.0000000000066371
 21
-17.749999999890758
 31
0.0
210
0.0
220
0.0
230
1.0
 40
0.8660254038
 41
3.061953355355628
 42
3.2017010916492854
  0
ELLIPSE
  5
11E
100
AcDbEntity
  8
BPV_STRAIGHT_DN2
  6
CONTINUOUS
 62
         7
100
AcDbEllipse
 10
54.3296931367
 20
179.4607742546
 30
0.0
 11
44.608990613987373
 21
-0.0000000382686924
 31
0.0
210
0.0
220
0.0
230
1.0
 40
0.3979018447
 41
1.4689996150719169
 42
1.4911570299287276
  0
ELLIPSE
  5
11F
100
AcDbEntity
  8
BPV_STRAIGHT_DN2
  6
CONTINUOUS
 62
         7
100
AcDbEllipse
 10
57.3007900606
 20
179.4607739435
 30
0.0
 11
-0.0000000081206066
 21
17.749999967660557
 31
0.0
210
0.0
220
0.0
230
1.0
 40
0.8660254046
 41
6.1813885938157709
 42
6.2365275183021343
  0
ELLIPSE
  5
120
100
AcDbEntity
  8
BPV_STRAIGHT_DN2
  6
CONTINUOUS
 62
         7
100
AcDbEllipse
 10
55.5503721317
 20
179.4607739988
 30
0.0
 11
52.90165930610106
 21
-0.0000000063871875
 31
0.0
210
0.0
220
0.0
230
1.0
 40
0.3355282262
 41
1.491157028724674
 42
1.524138538601727
  0
ELLIPSE
  5
121
100
AcDbEntity
  8
BPV_STRAIGHT_DN2
  6
CONTINUOUS
 62
         7
100
AcDbEllipse
 10
61.4909730718
 20
179.460773931
 30
0.0
 11
-21.771088429152655
 21
-0.0000000063732612
 31
0.0
210
0.0
220
0.0
230
1.0
 40
0.8153014507
 41
4.7920282783084618
 42
4.842940651531551
  0
ELLIPSE
  5
122
100
AcDbEntity
  8
BPV_STRAIGHT_DN2
  6
CONTINUOUS
 62
         7
100
AcDbEllipse
 10
56.6556498958
 20
179.4607739092
 30
0.0
 11
0.0000000012745499
 21
17.750000002095209
 31
0.0
210
0.0
220
0.0
230
1.0
 40
0.8660254037
 41
6.0622843958839594
 42
6.1526336358200222
  0
ELLIPSE
  5
123
100
AcDbEntity
  8
BPV_STRAIGHT_DN2
  6
CONTINUOUS
 62
         7
100
AcDbEllipse
 10
58.4533530762
 20
179.460773914
 30
0.0
 11
-45.297635542674783
 21
-0.0000000000478867
 31
0.0
210
0.0
220
0.0
230
1.0
 40
0.3918526825
 41
4.6889187971817679
 42
4.7123889803817738
  0
LINE
  5
124
100
AcDbEntity
  8
BPV_STRAIGHT_DN2
  6
CONTINUOUS
 62
         7
100
AcDbLine
 10
63.4731181414
 20
196.7107739113
 30
0.0
 11
61.2396015162
 21
196.7107739113
 31
0.0
  0
LINE
  5
125
100
AcDbEntity
  8
BPV_STRAIGHT_DN2
  6
CONTINUOUS
 62
         7
100
AcDbLine
 10
72.2238257023
 20
192.9607739113
 30
0.0
 11
57.3678556549
 21
192.9607739113
 31
0.0
  0
LINE
  5
126
100
AcDbEntity
  8
BPV_STRAIGHT_DN2
  6
CONTINUOUS
 62
         7
100
AcDbLine
 10
58.8629029496
 20
197.0809744749
 30
0.0
 11
58.8629029496
 21
197.118885487
 31
0.0
  0
LINE
  5
127
100
AcDbEntity
  8
BPV_STRAIGHT_DN2
  6
CONTINUOUS
 62
         7
100
AcDbLine
 10
57.8785676133
 20
196.652878582
 30
0.0
 11
57.8785676133
 21
197.1545146975
 31
0.0
  0
LINE
  5
128
100
AcDbEntity
  8
BPV_STRAIGHT_DN2
  6
CONTINUOUS
 62
         7
100
AcDbLine
 10
55.7322222321
 20
196.70961147
 30
0.0
 11
55.7322222321
 21
197.1787179737
 31
0.0
  0
LINE
  5
129
100
AcDbEntity
  8
BPV_STRAIGHT_DN2
  6
CONTINUOUS
 62
         7
100
AcDbLine
 10
58.6567879787
 20
196.5553079839
 30
0.0
 11
58.6567879787
 21
197.0597254473
 31
0.0
  0
LINE
  5
12A
100
AcDbEntity
  8
BPV_STRAIGHT_DN2
  6
CONTINUOUS
 62
         7
100
AcDbLine
 10
61.2396015162
 20
196.5421095595
 30
0.0
 11
61.2396015162
 21
197.046905593
 31
0.0
  0
LINE
  5
12B
100
AcDbEntity
  8
BPV_STRAIGHT_DN2
  6
CONTINUOUS
 62
         7
100
AcDbLine
 10
60.0237785624
 20
196.2666294102
 30
0.0
 11
60.0237785624
 21
196.7794568592
 31
0.0
  0
ELLIPSE
  5
12C
100
AcDbEntity
  8
BPV_STRAIGHT_DN2
  6
CONTINUOUS
 62
         7
100
AcDbEllipse
 10
59.1556498961
 20
179.4607739117
 30
0.0
 11
-0.0000000001212815
 21
17.749999999561162
 31
0.0
210
0.0
220
0.0
230
1.0
 40
0.8660254038
 41
6.1471981163646667
 42
6.2597151239751438
  0
ELLIPSE
  5
12D
100
AcDbEntity
  8
BPV_STRAIGHT_DN2
  6
CONTINUOUS
 62
         7
100
AcDbEllipse
 10
49.2924012421
 20
179.4607739113
 30
0.0
 11
19.629909152447276
 21
0.0
 31
0.0
210
0.0
220
0.0
230
1.0
 40
0.8660254038
 41
4.7123889803846897
 42
4.7277254128276454
  0
ELLIPSE
  5
12E
100
AcDbEntity
  8
BPV_STRAIGHT_DN2
  6
CONTINUOUS
 62
         7
100
AcDbEllipse
 10
49.4025898862
 20
179.4607739115
 30
0.0
 11
0.0000000000310967
 21
-17.000000000175518
 31
0.0
210
0.0
220
0.0
230
1.0
 40
0.7320508076
 41
0.0153364324415162
 42
0.2179431826037585
  0
ELLIPSE
  5
12F
100
AcDbEntity
  8
BPV_STRAIGHT_DN2
  6
CONTINUOUS
 62
         7
100
AcDbEllipse
 10
46.4056498961
 20
179.4607739113
 30
0.0
 11
19.629909152447276
 21
0.0
 31
0.0
210
0.0
220
0.0
230
1.0
 40
0.8660254038
 41
4.8106227193683342
 42
4.8755060205621774
  0
LINE
  5
130
100
AcDbEntity
  8
BPV_STRAIGHT_DN2
  6
CONTINUOUS
 62
         7
100
AcDbLine
 10
48.3308694264
 20
162.5427318461
 30
0.0
 11
48.3308694264
 21
162.4791939086
 31
0.0
  0
ELLIPSE
  5
131
100
AcDbEntity
  8
BPV_STRAIGHT_DN2
  6
CONTINUOUS
 62
         7
100
AcDbEllipse
 10
47.4173118289
 20
179.4607739113
 30
0.0
 11
19.629909152447276
 21
0.0
 31
0.0
210
0.0
220
0.0
230
1.0
 40
0.8660254038
 41
4.5139722382611591
 42
4.7589448604404723
  0
ELLIPSE
  5
132
100
AcDbEntity
  8
BPV_STRAIGHT_DN2
  6
CONTINUOUS
 62
         7
100
AcDbEllipse
 10
42.0510445963
 20
179.4607739276
 30
0.0
 11
46.444863752191459
 21
-0.0000000035608273
 31
0.0
210
0.0
220
0.0
230
1.0
 40
0.366025404
 41
4.8755060206937388
 42
4.9303321630956756
  0
LINE
  5
133
100
AcDbEntity
  8
BPV_STRAIGHT_DN2
  6
CONTINUOUS
 62
         7
100
AcDbLine
 10
48.3308694264
 20
163.0452280075
 30
0.0
 11
48.3308694264
 21
162.5427318461
 31
0.0
  0
ELLIPSE
  5
134
100
AcDbEntity
  8
BPV_STRAIGHT_DN2
  6
CONTINUOUS
 62
         7
100
AcDbEllipse
 10
48.2807393093
 20
179.4607739113
 30
0.0
 11
19.629909152447276
 21
0.0
 31
0.0
210
0.0
220
0.0
230
1.0
 40
0.8660254038
 41
4.7123889803846897
 42
4.7149427452126744
  0
LINE
  5
135
100
AcDbEntity
  8
BPV_STRAIGHT_DN2
  6
CONTINUOUS
 62
         7
100
AcDbLine
 10
52.0934422162
 20
163.3754173566
 30
0.0
 11
52.0934422162
 21
162.8629217763
 31
0.0
  0
LINE
  5
136
100
AcDbEntity
  8
BPV_STRAIGHT_DN2
  6
CONTINUOUS
 62
         7
100
AcDbLine
 10
49.5934422162
 20
163.1933683071
 30
0.0
 11
49.5934422162
 21
162.6864338321
 31
0.0
  0
LINE
  5
137
100
AcDbEntity
  8
BPV_STRAIGHT_DN2
  6
CONTINUOUS
 62
         7
100
AcDbLine
 10
55.9056498961
 20
162.2107739113
 30
0.0
 11
63.4731181414
 21
162.2107739113
 31
0.0
  0
LINE
  5
138
100
AcDbEntity
  8
BPV_STRAIGHT_DN2
  6
CONTINUOUS
 62
         7
100
AcDbLine
 10
43.5479154825
 20
163.2941063915
 30
0.0
 11
43.5479154825
 21
162.7943157112
 31
0.0
  0
ELLIPSE
  5
139
100
AcDbEntity
  8
BPV_STRAIGHT_DN2
  6
CONTINUOUS
 62
         7
100
AcDbEllipse
 10
42.0510446062
 20
179.4607739135
 30
0.0
 11
46.444863725461317
 21
-0.0000000005433431
 31
0.0
210
0.0
220
0.0
230
1.0
 40
0.3660254038
 41
1.35285314420529
 42
1.4076792866390946
  0
ELLIPSE
  5
13A
100
AcDbEntity
  8
BPV_STRAIGHT_DN2
  6
CONTINUOUS
 62
         7
100
AcDbEllipse
 10
49.4025898862
 20
179.4607739113
 30
0.0
 11
-0.0000000000028762
 21
16.999999999977696
 31
0.0
210
0.0
220
0.0
230
1.0
 40
0.7320508076
 41
6.0652421245716335
 42
6.267848874736325
  0
ELLIPSE
  5
13B
100
AcDbEntity
  8
BPV_STRAIGHT_DN2
  6
CONTINUOUS
 62
         7
100
AcDbEllipse
 10
49.2924012421
 20
179.4607739113
 30
0.0
 11
19.629909152447276
 21
0.0
 31
0.0
210
0.0
220
0.0
230
1.0
 40
0.8660254038
 41
1.5554598943518385
 42
1.5707963267948963
  0
LINE
  5
13C
100
AcDbEntity
  8
BPV_STRAIGHT_DN2
  6
CONTINUOUS
 62
         7
100
AcDbLine
 10
48.3308694264
 20
196.4607184768
 30
0.0
 11
48.3308694264
 21
196.4607739113
 31
0.0
  0
ELLIPSE
  5
13D
100
AcDbEntity
  8
BPV_STRAIGHT_DN2
  6
CONTINUOUS
 62
         7
100
AcDbEllipse
 10
48.2807393093
 20
179.4607739113
 30
0.0
 11
19.629909152447276
 21
0.0
 31
0.0
210
0.0
220
0.0
230
1.0
 40
0.8660254038
 41
1.5682425619669134
 42
1.5707963267948966
  0
LINE
  5
13E
100
AcDbEntity
  8
BPV_STRAIGHT_DN2
  6
CONTINUOUS
 62
         7
100
AcDbLine
 10
48.3308694264
 20
162.4607739113
 30
0.0
 11
48.3308694264
 21
162.4608293459
 31
0.0
  0
LINE
  5
13F
100
AcDbEntity
  8
BPV_STRAIGHT_DN2
  6
CONTINUOUS
 62
         7
100
AcDbLine
 10
57.3663122059
 20
165.9607739113
 30
0.0
 11
72.2238257023
 21
165.9607739113
 31
0.0
  0
LINE
  5
140
100
AcDbEntity
  8
BPV_STRAIGHT_DN2
  6
CONTINUOUS
 62
         7
100
AcDbLine
 10
52.0934422162
 20
195.5461304659
 30
0.0
 11
52.0934422162
 21
196.0586260462
 31
0.0
  0
LINE
  5
141
100
AcDbEntity
  8
BPV_STRAIGHT_DN2
  6
CONTINUOUS
 62
         7
100
AcDbLine
 10
48.3308694264
 20
196.442353914
 30
0.0
 11
48.3308694264
 21
196.3788159765
 31
0.0
  0
ELLIPSE
  5
142
100
AcDbEntity
  8
BPV_STRAIGHT_DN2
  6
CONTINUOUS
 62
         7
100
AcDbEllipse
 10
47.4173118289
 20
179.4607739113
 30
0.0
 11
19.629909152447276
 21
0.0
 31
0.0
210
0.0
220
0.0
230
1.0
 40
0.8660254038
 41
1.5242404467391144
 42
1.7692130689184271
  0
LINE
  5
143
100
AcDbEntity
  8
BPV_STRAIGHT_DN2
  6
CONTINUOUS
 62
         7
100
AcDbLine
 10
48.3308694264
 20
195.8763198151
 30
0.0
 11
48.3308694264
 21
196.3788159765
 31
0.0
  0
LINE
  5
144
100
AcDbEntity
  8
BPV_STRAIGHT_DN2
  6
CONTINUOUS
 62
         7
100
AcDbLine
 10
49.5934422162
 20
195.7281795154
 30
0.0
 11
49.5934422162
 21
196.2351139905
 31
0.0
  0
LINE
  5
145
100
AcDbEntity
  8
BPV_STRAIGHT_DN2
  6
CONTINUOUS
 62
         7
100
AcDbLine
 10
43.5479154825
 20
195.6274414311
 30
0.0
 11
43.5479154825
 21
196.1272321114
 31
0.0
  0
ELLIPSE
  5
146
100
AcDbEntity
  8
BPV_STRAIGHT_DN2
  6
CONTINUOUS
 62
         7
100
AcDbEllipse
 10
46.4056498961
 20
179.4607739113
 30
0.0
 11
19.629909152447276
 21
0.0
 31
0.0
210
0.0
220
0.0
230
1.0
 40
0.8660254038
 41
1.407679286617409
 42
1.4725625878112523
  0
LINE
  5
147
100
AcDbEntity
  8
BPV_STRAIGHT_DN2
  6
CONTINUOUS
 62
         7
100
AcDbLine
 10
33.5874740899
 20
165.9607739113
 30
0.0
 11
41.6322521945
 21
165.9607739113
 31
0.0
  0
ELLIPSE
  5
148
100
AcDbEntity
  8
BPV_STRAIGHT_DN2
  6
CONTINUOUS
 62
         7
100
AcDbEllipse
 10
65.8806498961
 20
179.4607739113
 30
0.0
 11
-0.0000000000000451
 21
18.500000000000007
 31
0.0
210
0.0
220
0.0
230
1.0
 40
0.8660254038
 41
3.1415926535897931
 42
3.7920491263078882
  0
ELLIPSE
  5
149
100
AcDbEntity
  8
BPV_STRAIGHT_DN2
  6
CONTINUOUS
 62
         7
100
AcDbEllipse
 10
65.8806498961
 20
179.4607739113
 30
0.0
 11
-0.0000000000000451
 21
18.500000000000007
 31
0.0
210
0.0
220
0.0
230
1.0
 40
0.8660254038
 41
5.6327288344614868
 42
6.2831853071795862
  0
ELLIPSE
  5
14A
100
AcDbEntity
  8
BPV_STRAIGHT_DN2
  6
CONTINUOUS
 62
         7
100
AcDbEllipse
 10
64.5556498961
 20
179.4607739113
 30
0.0
 11
-0.0000000000000451
 21
18.500000000000007
 31
0.0
210
0.0
220
0.0
230
1.0
 40
0.8660254038
 41
0.0
 42
0.2904329123000983
  0
ELLIPSE
  5
14B
100
AcDbEntity
  8
BPV_STRAIGHT_DN2
  6
CONTINUOUS
 62
         7
100
AcDbEllipse
 10
64.5556498961
 20
179.4607739113
 30
0.0
 11
-0.0000000000000451
 21
18.500000000000007
 31
0.0
210
0.0
220
0.0
230
1.0
 40
0.8660254038
 41
2.7718833663633751
 42
3.8221726310174153
  0
ELLIPSE
  5
14C
100
AcDbEntity
  8
BPV_STRAIGHT_DN2
  6
CONTINUOUS
 62
         7
100
AcDbEllipse
 10
64.5556498961
 20
179.4607739113
 30
0.0
 11
-0.0000000000000451
 21
18.500000000000007
 31
0.0
210
0.0
220
0.0
230
1.0
 40
0.8660254038
 41
5.6026053297519578
 42
6.2831853071795862
  0
ELLIPSE
  5
14D
100
AcDbEntity
  8
BPV_STRAIGHT_DN2
  6
CONTINUOUS
 62
         7
100
AcDbEllipse
 10
63.4731181414
 20
179.4607739113
 30
0.0
 11
-0.0000000000000035
 21
-17.250000000000011
 31
0.0
210
0.0
220
0.0
230
1.0
 40
0.8660254038
 41
0.0000000000000002
 42
0.6585633465146715
  0
ELLIPSE
  5
14E
100
AcDbEntity
  8
BPV_STRAIGHT_DN2
  6
CONTINUOUS
 62
         7
100
AcDbEllipse
 10
63.4731181414
 20
179.4607739113
 30
0.0
 11
-0.0000000000000035
 21
-17.250000000000011
 31
0.0
210
0.0
220
0.0
230
1.0
 40
0.8660254038
 41
2.4830293070751219
 42
3.1415926535897931
  0
ELLIPSE
  5
14F
100
AcDbEntity
  8
BPV_STRAIGHT_DN2
  6
CONTINUOUS
 62
         7
100
AcDbEllipse
 10
55.9056498961
 20
179.4607739113
 30
0.0
 11
0.0000000000000069
 21
17.249999999999986
 31
0.0
210
0.0
220
0.0
230
1.0
 40
0.8660254038
 41
-0.6719508964959144
 42
0.2673224150137816
  0
ELLIPSE
  5
150
100
AcDbEntity
  8
BPV_STRAIGHT_DN2
  6
CONTINUOUS
 62
         7
100
AcDbEllipse
 10
55.9056498961
 20
179.4607739113
 30
0.0
 11
0.0000000000000069
 21
17.249999999999986
 31
0.0
210
0.0
220
0.0
230
1.0
 40
0.8660254038
 41
2.8742702385760124
 42
3.8135435500857078
  0
ELLIPSE
  5
151
100
AcDbEntity
  8
BPV_STRAIGHT_DN2
  6
CONTINUOUS
 62
         7
100
AcDbEllipse
 10
55.2561308433
 20
179.4607739113
 30
0.0
 11
0.0000000000000243
 21
16.5
 31
0.0
210
0.0
220
0.0
230
1.0
 40
0.8660254038
 41
-0.6125547383393384
 42
0.0000000000000013
  0
ELLIPSE
  5
152
100
AcDbEntity
  8
BPV_STRAIGHT_DN2
  6
CONTINUOUS
 62
         7
100
AcDbEllipse
 10
55.2561308433
 20
179.4607739113
 30
0.0
 11
0.0000000000000243
 21
16.5
 31
0.0
210
0.0
220
0.0
230
1.0
 40
0.8660254038
 41
3.141592653589794
 42
3.7541473919291342
  0
ELLIPSE
  5
153
100
AcDbEntity
  8
BPV_STRAIGHT_DN2
  6
CONTINUOUS
 62
         7
100
AcDbEllipse
 10
46.4056498961
 20
179.4607739113
 30
0.0
 11
-0.0000000000000659
 21
-16.500000000000007
 31
0.0
210
0.0
220
0.0
230
1.0
 40
0.8660254038
 41
2.4155625397411962
 42
3.754147391929139
  0
ELLIPSE
  5
154
100
AcDbEntity
  8
BPV_STRAIGHT_DN2
  6
CONTINUOUS
 62
         7
100
AcDbEllipse
 10
46.4056498961
 20
179.4607739113
 30
0.0
 11
-0.0000000000003142
 21
16.500000000000266
 31
0.0
210
0.0
220
0.0
230
1.0
 40
0.8660254038
 41
2.5290379152504148
 42
3.8676227674383896
  0
SPLINE
  5
155
100
AcDbEntity
  8
BPV_STRAIGHT_DN2
  6
CONTINUOUS
 62
         7
100
AcDbSpline
210
0.0
220
0.0
230
1.0
 70
         8
 71
         3
 72
        12
 73
         8
 74
         0
 42
0.0
 43
0.0
 40
0.0
 40
0.0
 40
0.0
 40
0.0
 40
0.125
 40
0.125
 40
0.25
 40
0.25
 40
0.3063683897044882
 40
0.3063683897044882
 40
0.3063683897044882
 40
0.3063683897044882
 10
55.892482876608895
 20
191.79973659055983
 30
0.0
 10
55.892482876608888
 20
192.12861600331163
 30
0.0
 10
55.957635701227552
 20
192.38428469852187
 30
0.0
 10
56.273035267472544
 20
192.7591728942738
 30
0.0
 10
56.528002511752902
 20
192.87501706711791
 30
0.0
 10
57.012581364751497
 20
192.94989943532744
 30
0.0
 10
57.180671018206631
 20
192.96072248617719
 30
0.0
 10
57.362421229181976
 20
192.96063260615199
 30
0.0
  0
SPLINE
  5
156
100
AcDbEntity
  8
BPV_STRAIGHT_DN2
  6
CONTINUOUS
 62
         7
100
AcDbSpline
210
0.0
220
0.0
230
1.0
 70
         8
 71
         3
 72
        14
 73
        10
 74
         0
 42
0.0
 43
0.0
 40
0.3143491852346045
 40
0.3143491852346045
 40
0.3143491852346045
 40
0.3143491852346045
 40
0.5
 40
0.5
 40
0.625
 40
0.625
 40
0.75
 40
0.75
 40
1.0
 40
1.0
 40
1.0
 40
1.0
 10
41.639750207234634
 20
192.95895683592258
 30
0.0
 10
42.639998543720537
 20
192.95641871514562
 30
0.0
 10
43.692627380060976
 20
192.83263477014017
 30
0.0
 10
45.601095179431837
 20
192.5099140786246
 30
0.0
 10
46.428707025712058
 20
192.34960506713128
 30
0.0
 10
48.173711092740142
 20
192.06288004684362
 30
0.0
 10
49.092413214330627
 20
191.93955657795334
 30
0.0
 10
51.989404193274666
 20
191.70178832856408
 30
0.0
 10
53.942245502181095
 20
191.72480483061352
 30
0.0
 10
55.892482876608895
 20
191.79973659055983
 30
0.0
  0
SPLINE
  5
157
100
AcDbEntity
  8
BPV_STRAIGHT_DN2
  6
CONTINUOUS
 62
         7
100
AcDbSpline
210
0.0
220
0.0
230
1.0
 70
         8
 71
         3
 72
        16
 73
        12
 74
         0
 42
0.0
 43
0.0
 40
0.0
 40
0.0
 40
0.0
 40
0.0
 40
0.125
 40
0.125
 40
0.25
 40
0.25
 40
0.375
 40
0.375
 40
0.5
 40
0.5
 40
0.6859207339199465
 40
0.6859207339199465
 40
0.6859207339199465
 40
0.6859207339199465
 10
55.892482876609286
 20
167.12181123205369
 30
0.0
 10
54.923123948928975
 20
167.15905581131526
 30
0.0
 10
53.950709910024585
 20
167.1832885412189
 30
0.0
 10
51.993571196268171
 20
167.17453031930356
 30
0.0
 10
51.007849577903372
 20
167.13919723641675
 30
0.0
 10
49.108432079405937
 20
166.98330791709191
 30
0.0
 10
48.180046018147415
 20
166.8597642169978
 30
0.0
 10
46.416473892720063
 20
166.56987698216423
 30
0.0
 10
45.605542067478794
 20
166.41241564449746
 30
0.0
 10
43.688850313194017
 20
166.08822991645272
 30
0.0
 10
42.634234296922024
 20
165.9647833154788
 30
0.0
 10
41.634380271857843
 20
165.96261950038084
 30
0.0
  0
SPLINE
  5
158
100
AcDbEntity
  8
BPV_STRAIGHT_DN2
  6
CONTINUOUS
 62
         7
100
AcDbSpline
210
0.0
220
0.0
230
1.0
 70
         8
 71
         3
 72
        12
 73
         8
 74
         0
 42
0.0
 43
0.0
 40
0.6939501246805848
 40
0.6939501246805848
 40
0.6939501246805848
 40
0.6939501246805848
 40
0.7499999999999999
 40
0.7499999999999999
 40
0.875
 40
0.875
 40
1.0
 40
1.0
 40
1.0
 40
1.0
 10
57.362038310360248
 20
165.96090348659556
 30
0.0
 10
57.181053720160719
 20
165.96082911884636
 30
0.0
 10
57.013638933137116
 20
165.9715855336764
 30
0.0
 10
56.528666609953149
 20
166.04620547807698
 30
0.0
 10
56.273643773734925
 20
166.16189754796025
 30
0.0
 10
55.957678623524174
 20
166.53696671430799
 30
0.0
 10
55.892482876608888
 20
166.79279819019163
 30
0.0
 10
55.892482876609286
 20
167.12181123205369
 30
0.0
  0
LINE
  5
159
100
AcDbEntity
  8
BPV_STRAIGHT_DN2
  6
CONTINUOUS
 62
         7
100
AcDbLine
 10
72.2238257023
 20
192.9607739113
 30
0.0
 11
72.2238257023
 21
165.9607739113
 31
0.0
  0
LINE
  5
15A
100
AcDbEntity
  8
BPV_STRAIGHT_DN2
  6
CONTINUOUS
 62
         7
100
AcDbLine
 10
78.4056498961
 20
163.7107739113
 30
0.0
 11
78.4056498961
 21
195.2107739113
 31
0.0
  0
LINE
  5
15B
100
AcDbEntity
  8
BPV_STRAIGHT_DN2
  6
CONTINUOUS
 62
         7
100
AcDbLine
 10
33.5874740899
 20
165.9607739113
 30
0.0
 11
33.5874740899
 21
192.9607739113
 31
0.0
  0
ARC
  5
15C
100
AcDbEntity
  8
BPV_STRAIGHT_DN2
  6
CONTINUOUS
 62
         7
100
AcDbCircle
 10
23.3531368911
 20
165.1713547489
 30
0.0
 40
12.6745093193
100
AcDbArc
 50
157.9259452632
 51
202.0740547368
  0
ARC
  5
15D
100
AcDbEntity
  8
BPV_STRAIGHT_DN2
  6
CONTINUOUS
 62
         7
100
AcDbCircle
 10
23.3531368911
 20
193.7501930737
 30
0.0
 40
12.6745093193
100
AcDbArc
 50
157.9259452632
 51
202.0740547368
  0
ARC
  5
15E
100
AcDbEntity
  8
BPV_STRAIGHT_DN2
  6
CONTINUOUS
 62
         7
100
AcDbCircle
 10
59.9830897561
 20
179.4607739113
 30
0.0
 40
49.3044620318
100
AcDbArc
 50
168.8596296551
 51
191.1403703449
  0
LINE
  5
15F
100
AcDbEntity
  8
BPV_STRAIGHT_DN2
  6
CONTINUOUS
 62
         7
100
AcDbLine
 10
95.4056498961
 20
163.7107739113
 30
0.0
 11
95.4056498961
 21
195.2107739113
 31
0.0
  0
LINE
  5
160
100
AcDbEntity
  8
BPV_STRAIGHT_DN2
  6
CONTINUOUS
 62
         7
100
AcDbLine
 10
84.4056498961
 20
163.7107739113
 30
0.0
 11
84.4056498961
 21
195.2107739113
 31
0.0
  0
LINE
  5
161
100
AcDbEntity
  8
BPV_STRAIGHT_DN2
  6
CONTINUOUS
 62
         7
100
AcDbLine
 10
20.2036167657
 20
160.408215028
 30
0.0
 11
11.6076830265
 21
160.408215028
 31
0.0
  0
LINE
  5
162
100
AcDbEntity
  8
BPV_STRAIGHT_DN2
  6
CONTINUOUS
 62
         7
100
AcDbLine
 10
20.2036167657
 20
188.9870533529
 30
0.0
 11
11.6076830265
 21
188.9870533529
 31
0.0
  0
LINE
  5
163
100
AcDbEntity
  8
BPV_STRAIGHT_DN2
  6
CONTINUOUS
 62
         7
100
AcDbLine
 10
20.2036167657
 20
169.9344944697
 30
0.0
 11
11.6076830265
 21
169.9344944697
 31
0.0
  0
LINE
  5
164
100
AcDbEntity
  8
BPV_STRAIGHT_DN2
  6
CONTINUOUS
 62
         7
100
AcDbLine
 10
94.2036167657
 20
169.9344944697
 30
0.0
 11
85.6076830265
 21
169.9344944697
 31
0.0
  0
LINE
  5
165
100
AcDbEntity
  8
BPV_STRAIGHT_DN2
  6
CONTINUOUS
 62
         7
100
AcDbLine
 10
20.2036167657
 20
198.5133327946
 30
0.0
 11
11.6076830265
 21
198.5133327946
 31
0.0
  0
ARC
  5
166
100
AcDbEntity
  8
BPV_STRAIGHT_DN2
  6
CONTINUOUS
 62
         7
100
AcDbCircle
 10
97.3531368911
 20
165.1713547489
 30
0.0
 40
12.6745093193
100
AcDbArc
 50
157.9259452632
 51
202.0740547368
  0
LINE
  5
167
100
AcDbEntity
  8
BPV_STRAIGHT_DN2
  6
CONTINUOUS
 62
         7
100
AcDbLine
 10
94.2036167657
 20
188.9870533529
 30
0.0
 11
85.6076830265
 21
188.9870533529
 31
0.0
  0
ARC
  5
168
100
AcDbEntity
  8
BPV_STRAIGHT_DN2
  6
CONTINUOUS
 62
         7
100
AcDbCircle
 10
8.4581629011
 20
193.7501930737
 30
0.0
 40
12.6745093193
100
AcDbArc
 50
337.9259452632
 51
22.0740547368
  0
ARC
  5
169
100
AcDbEntity
  8
BPV_STRAIGHT_DN2
  6
CONTINUOUS
 62
         7
100
AcDbCircle
 10
82.4581629011
 20
193.7501930737
 30
0.0
 40
12.6745093193
100
AcDbArc
 50
337.9259452632
 51
22.0740547368
  0
ARC
  5
16A
100
AcDbEntity
  8
BPV_STRAIGHT_DN2
  6
CONTINUOUS
 62
         7
100
AcDbCircle
 10
45.8282100361
 20
179.4607739113
 30
0.0
 40
49.3044620318
100
AcDbArc
 50
348.8596296551
 51
11.1403703449
  0
ARC
  5
16B
100
AcDbEntity
  8
BPV_STRAIGHT_DN2
  6
CONTINUOUS
 62
         7
100
AcDbCircle
 10
82.4581629011
 20
165.1713547489
 30
0.0
 40
12.6745093193
100
AcDbArc
 50
337.9259452632
 51
22.0740547368
  0
LINE
  5
16C
100
AcDbEntity
  8
BPV_STRAIGHT_DN2
  6
CONTINUOUS
 62
         7
100
AcDbLine
 10
27.4056498961
 20
163.7107739113
 30
0.0
 11
27.4056498961
 21
195.2107739113
 31
0.0
  0
LINE
  5
16D
100
AcDbEntity
  8
BPV_STRAIGHT_DN2
  6
CONTINUOUS
 62
         7
100
AcDbLine
 10
10.4056498961
 20
163.7107739113
 30
0.0
 11
10.4056498961
 21
195.2107739113
 31
0.0
  0
LINE
  5
16E
100
AcDbEntity
  8
BPV_STRAIGHT_DN2
  6
CONTINUOUS
 62
         7
100
AcDbLine
 10
21.4056498961
 20
163.7107739113
 30
0.0
 11
21.4056498961
 21
195.2107739113
 31
0.0
  0
LINE
  5
16F
100
AcDbEntity
  8
BPV_STRAIGHT_DN2
  6
CONTINUOUS
 62
         7
100
AcDbLine
 10
94.2036167657
 20
160.408215028
 30
0.0
 11
95.4056498961
 21
163.7107739113
 31
0.0
  0
LINE
  5
170
100
AcDbEntity
  8
BPV_STRAIGHT_DN2
  6
CONTINUOUS
 62
         7
100
AcDbLine
 10
27.4056498961
 20
195.2107739113
 30
0.0
 11
21.4056498961
 21
195.2107739113
 31
0.0
  0
LINE
  5
171
100
AcDbEntity
  8
BPV_STRAIGHT_DN2
  6
CONTINUOUS
 62
         7
100
AcDbLine
 10
27.4056498961
 20
163.7107739113
 30
0.0
 11
33.5874740899
 21
165.9607739113
 31
0.0
  0
LINE
  5
172
100
AcDbEntity
  8
BPV_STRAIGHT_DN2
  6
CONTINUOUS
 62
         7
100
AcDbLine
 10
78.4056498961
 20
195.2107739113
 30
0.0
 11
72.2238257023
 21
192.9607739113
 31
0.0
  0
LINE
  5
173
100
AcDbEntity
  8
BPV_STRAIGHT_DN2
  6
CONTINUOUS
 62
         7
100
AcDbLine
 10
84.4056498961
 20
195.2107739113
 30
0.0
 11
78.4056498961
 21
195.2107739113
 31
0.0
  0
LINE
  5
174
100
AcDbEntity
  8
BPV_STRAIGHT_DN2
  6
CONTINUOUS
 62
         7
100
AcDbLine
 10
20.2036167657
 20
160.408215028
 30
0.0
 11
21.4056498961
 21
163.7107739113
 31
0.0
  0
LINE
  5
175
100
AcDbEntity
  8
BPV_STRAIGHT_DN2
  6
CONTINUOUS
 62
         7
100
AcDbLine
 10
95.4056498961
 20
195.2107739113
 30
0.0
 11
94.2036167657
 21
198.5133327946
 31
0.0
  0
LINE
  5
176
100
AcDbEntity
  8
BPV_STRAIGHT_DN2
  6
CONTINUOUS
 62
         7
100
AcDbLine
 10
21.4056498961
 20
163.7107739113
 30
0.0
 11
27.4056498961
 21
163.7107739113
 31
0.0
  0
LINE
  5
177
100
AcDbEntity
  8
BPV_STRAIGHT_DN2
  6
CONTINUOUS
 62
         7
100
AcDbLine
 10
33.5874740899
 20
192.9607739113
 30
0.0
 11
27.4056498961
 21
195.2107739113
 31
0.0
  0
LINE
  5
178
100
AcDbEntity
  8
BPV_STRAIGHT_DN2
  6
CONTINUOUS
 62
         7
100
AcDbLine
 10
72.2238257023
 20
165.9607739113
 30
0.0
 11
78.4056498961
 21
163.7107739113
 31
0.0
  0
LINE
  5
179
100
AcDbEntity
  8
BPV_STRAIGHT_DN2
  6
CONTINUOUS
 62
         7
100
AcDbLine
 10
78.4056498961
 20
163.7107739113
 30
0.0
 11
84.4056498961
 21
163.7107739113
 31
0.0
  0
LINE
  5
17A
100
AcDbEntity
  8
BPV_STRAIGHT_DN2
  6
CONTINUOUS
 62
         7
100
AcDbLine
 10
21.4056498961
 20
195.2107739113
 30
0.0
 11
20.2036167657
 21
198.5133327946
 31
0.0
  0
LINE
  5
17B
100
AcDbEntity
  8
BPV_STRAIGHT_DN2
  6
CONTINUOUS
 62
         7
100
AcDbLine
 10
47.4173118289
 20
195.9607739113
 30
0.0
 11
46.4056498961
 21
195.9607739113
 31
0.0
  0
LINE
  5
17C
100
AcDbEntity
  8
BPV_STRAIGHT_DN2
  6
CONTINUOUS
 62
         7
100
AcDbLine
 10
95.4056498961
 20
167.4607739113
 30
0.0
 11
97.4056498961
 21
167.4607739113
 31
0.0
  0
LINE
  5
17D
100
AcDbEntity
  8
BPV_STRAIGHT_DN2
  6
CONTINUOUS
 62
         7
100
AcDbLine
 10
55.2561308433
 20
195.9607739113
 30
0.0
 11
52.0934422162
 21
195.9607739113
 31
0.0
  0
LINE
  5
17E
100
AcDbEntity
  8
BPV_STRAIGHT_DN2
  6
CONTINUOUS
 62
         7
100
AcDbLine
 10
55.5994936858
 20
197.1688289168
 30
0.0
 11
55.7322222321
 21
197.1688289168
 31
0.0
  0
ELLIPSE
  5
17F
100
AcDbEntity
  8
BPV_STRAIGHT_DN2
  6
CONTINUOUS
 62
         7
100
AcDbEllipse
 10
59.1556498834
 20
179.4607743312
 30
0.0
 11
-45.162555478519124
 21
-0.0000000058144009
 31
0.0
210
0.0
220
0.0
230
1.0
 40
0.3930246947
 41
4.7123889800530829
 42
4.7201526590077245
  0
LINE
  5
180
100
AcDbEntity
  8
BPV_STRAIGHT_DN2
  6
CONTINUOUS
 62
         7
100
AcDbLine
 10
54.3096444795
 20
196.6120475942
 30
0.0
 11
54.3096444795
 21
197.0028427207
 31
0.0
  0
LINE
  5
181
100
AcDbEntity
  8
BPV_STRAIGHT_DN2
  6
CONTINUOUS
 62
         7
100
AcDbLine
 10
97.4056498961
 20
191.4607739113
 30
0.0
 11
95.4056498961
 21
191.4607739113
 31
0.0
  0
LINE
  5
182
100
AcDbEntity
  8
BPV_STRAIGHT_DN2
  6
CONTINUOUS
 62
         7
100
AcDbLine
 10
52.0934422162
 20
162.9607739113
 30
0.0
 11
55.2561308433
 21
162.9607739113
 31
0.0
  0
LINE
  5
183
100
AcDbEntity
  8
BPV_STRAIGHT_DN2
  6
CONTINUOUS
 62
         7
100
AcDbLine
 10
46.4056498961
 20
162.9607739113
 30
0.0
 11
47.4173118289
 21
162.9607739113
 31
0.0
  0
ELLIPSE
  5
184
100
AcDbEntity
  8
BPV_STRAIGHT_DN2
  6
CONTINUOUS
 62
         7
100
AcDbEllipse
 10
65.9056498961
 20
179.4607739113
 30
0.0
 11
0.0000000000000035
 21
-18.500000000000004
 31
0.0
210
0.0
220
0.0
230
1.0
 40
0.8660254038
 41
0.0
 42
0.6498820275492291
  0
ELLIPSE
  5
185
100
AcDbEntity
  8
BPV_STRAIGHT_DN2
  6
CONTINUOUS
 62
         7
100
AcDbEllipse
 10
65.9056498961
 20
179.4607739113
 30
0.0
 11
0.0000000000000035
 21
-18.500000000000004
 31
0.0
210
0.0
220
0.0
230
1.0
 40
0.8660254038
 41
2.4917106260405637
 42
3.1415926535897931
  0
ELLIPSE
  5
186
100
AcDbEntity
  8
BPV_STRAIGHT_DN2
  6
CONTINUOUS
 62
         7
100
AcDbEllipse
 10
67.4056498961
 20
179.4607739113
 30
0.0
 11
0.0000000000000278
 21
-18.500000000000011
 31
0.0
210
0.0
220
0.0
230
1.0
 40
0.8660254038
 41
0.0
 42
0.6149702707565563
  0
ELLIPSE
  5
187
100
AcDbEntity
  8
BPV_STRAIGHT_DN2
  6
CONTINUOUS
 62
         7
100
AcDbEllipse
 10
67.4056498961
 20
179.4607739113
 30
0.0
 11
0.0000000000000278
 21
-18.500000000000011
 31
0.0
210
0.0
220
0.0
230
1.0
 40
0.8660254038
 41
2.5266223828332257
 42
3.1415926535897931
  0
LINE
  5
188
100
AcDbEntity
  8
BPV_STRAIGHT_DN2
  6
CONTINUOUS
 62
         7
100
AcDbLine
 10
85.6076830265
 20
198.5133327946
 30
0.0
 11
84.4056498961
 21
195.2107739113
 31
0.0
  0
LINE
  5
189
100
AcDbEntity
  8
BPV_STRAIGHT_DN2
  6
CONTINUOUS
 62
         7
100
AcDbLine
 10
94.2036167657
 20
198.5133327946
 30
0.0
 11
85.6076830265
 21
198.5133327946
 31
0.0
  0
LINE
  5
18A
100
AcDbEntity
  8
BPV_STRAIGHT_DN2
  6
CONTINUOUS
 62
         7
100
AcDbLine
 10
84.4056498961
 20
163.7107739113
 30
0.0
 11
85.6076830265
 21
160.408215028
 31
0.0
  0
ENDBLK
  5
18B
100
AcDbEntity
  8
BPV_STRAIGHT_DN2
  6
CONTINUOUS
 62
         7
100
AcDbBlockEnd
  0
BLOCK
  5
222
100
AcDbEntity
  8
0
 62
         1
 48
0.0
100
AcDbBlockBegin
  2
SE4
 70
         0
 10
0.0
 20
0.0
 30
0.0
  3
SE4
  1

  0
ENDBLK
  5
223
100
AcDbEntity
  8
0
 62
         1
 48
0.0
100
AcDbBlockEnd
  0
BLOCK
  5
18E
100
AcDbEntity
  8
0
 62
         1
 48
0.0
100
AcDbBlockBegin
  2
SE5
 70
         0
 10
0.0
 20
0.0
 30
0.0
  3
SE5
  1

  0
ARC
  5
18F
100
AcDbEntity
  8
BPV_STRAIGHT_DN2
  6
CONTINUOUS
 62
         7
100
AcDbCircle
 10
187.1690775182
 20
71.3897479257
 30
0.0
 40
19.0907491844
100
AcDbArc
 50
102.7463074371
 51
137.2536925629
  0
LINE
  5
190
100
AcDbEntity
  8
BPV_STRAIGHT_DN2
  6
CONTINUOUS
 62
         7
100
AcDbLine
 10
184.8408184887
 20
91.0976592052
 30
0.0
 11
182.9569981605
 21
90.0100350316
 31
0.0
  0
LINE
  5
191
100
AcDbEntity
  8
BPV_STRAIGHT_DN2
  6
CONTINUOUS
 62
         7
100
AcDbLine
 10
173.1494755376
 20
84.3476592052
 30
0.0
 11
174.7060998646
 21
81.6515067825
 31
0.0
  0
LINE
  5
192
100
AcDbEntity
  8
BPV_STRAIGHT_DN2
  6
CONTINUOUS
 62
         7
100
AcDbLine
 10
184.5136224876
 20
87.3138826089
 30
0.0
 11
182.9569981605
 21
90.0100350316
 31
0.0
  0
LINE
  5
193
100
AcDbEntity
  8
BPV_STRAIGHT_DN2
  6
CONTINUOUS
 62
         7
100
AcDbLine
 10
196.2049654387
 20
94.0638826089
 30
0.0
 11
194.6483411116
 21
96.7600350316
 31
0.0
  0
ARC
  5
194
100
AcDbEntity
  8
BPV_STRAIGHT_DN2
  6
CONTINUOUS
 62
         7
100
AcDbCircle
 10
198.8604204693
 20
78.1397479257
 30
0.0
 40
19.0907491844
100
AcDbArc
 50
102.7463074371
 51
137.2536925629
  0
ARC
  5
195
100
AcDbEntity
  8
BPV_STRAIGHT_DN2
  6
CONTINUOUS
 62
         7
100
AcDbCircle
 10
182.185363458
 20
107.0217938883
 30
0.0
 40
19.0907491844
100
AcDbArc
 50
282.7463074371
 51
317.2536925629
  0
LINE
  5
196
100
AcDbEntity
  8
BPV_STRAIGHT_DN2
  6
CONTINUOUS
 62
         7
100
AcDbLine
 10
184.8408184887
 20
91.0976592052
 30
0.0
 11
186.3974428157
 21
88.4015067825
 31
0.0
  0
LINE
  5
197
100
AcDbEntity
  8
BPV_STRAIGHT_DN2
  6
CONTINUOUS
 62
         7
100
AcDbLine
 10
195.5902512757
 20
97.3038471184
 30
0.0
 11
194.6483411116
 21
96.7600350316
 31
0.0
  0
LINE
  5
198
100
AcDbEntity
  8
BPV_STRAIGHT_DN2
  6
CONTINUOUS
 62
         7
100
AcDbLine
 10
174.7745526716
 20
80.3576946957
 30
0.0
 11
197.29121317
 21
93.3576946957
 31
0.0
  0
LINE
  5
199
100
AcDbEntity
  8
BPV_STRAIGHT_DN2
  6
CONTINUOUS
 62
         7
100
AcDbLine
 10
186.3974428157
 20
88.4015067825
 30
0.0
 11
184.5136224876
 21
87.3138826089
 31
0.0
  0
LINE
  5
19A
100
AcDbEntity
  8
BPV_STRAIGHT_DN2
  6
CONTINUOUS
 62
         7
100
AcDbLine
 10
178.0245526716
 20
74.7285295711
 30
0.0
 11
200.54121317
 21
87.7285295711
 31
0.0
  0
LINE
  5
19B
100
AcDbEntity
  8
BPV_STRAIGHT_DN2
  6
CONTINUOUS
 62
         7
100
AcDbLine
 10
188.9747930849
 20
83.9374051673
 30
0.0
 11
187.0909727568
 21
82.8497809938
 31
0.0
  0
LINE
  5
19C
100
AcDbEntity
  8
BPV_STRAIGHT_DN2
  6
CONTINUOUS
 62
         7
100
AcDbLine
 10
187.9747930849
 20
85.6694559749
 30
0.0
 11
186.0909727568
 21
84.5818318013
 31
0.0
  0
LINE
  5
19D
100
AcDbEntity
  8
BPV_STRAIGHT_DN2
  6
CONTINUOUS
 62
         7
100
AcDbLine
 10
195.5902512757
 20
97.3038471184
 30
0.0
 11
197.1468756027
 21
94.6076946957
 31
0.0
  0
LINE
  5
19E
100
AcDbEntity
  8
BPV_STRAIGHT_DN2
  6
CONTINUOUS
 62
         7
100
AcDbLine
 10
195.1616781719
 20
98.0538471184
 30
0.0
 11
193.4251877662
 21
98.0538471184
 31
0.0
  0
LINE
  5
19F
100
AcDbEntity
  8
BPV_STRAIGHT_DN2
  6
CONTINUOUS
 62
         7
100
AcDbLine
 10
198.7242258719
 20
91.8756438881
 30
0.0
 11
199.7242258719
 21
90.1435930805
 31
0.0
  0
LINE
  5
1A0
100
AcDbEntity
  8
BPV_STRAIGHT_DN2
  6
CONTINUOUS
 62
         7
100
AcDbLine
 10
177.2834501338
 20
77.1874051673
 30
0.0
 11
187.0909727568
 21
82.8497809938
 31
0.0
  0
LINE
  5
1A1
100
AcDbEntity
  8
BPV_STRAIGHT_DN2
  6
CONTINUOUS
 62
         7
100
AcDbLine
 10
188.9747930849
 20
83.9374051673
 30
0.0
 11
198.7823157078
 21
89.5997809938
 31
0.0
  0
LINE
  5
1A2
100
AcDbEntity
  8
BPV_STRAIGHT_DN2
  6
CONTINUOUS
 62
         7
100
AcDbLine
 10
187.9747930849
 20
85.6694559749
 30
0.0
 11
188.9747930849
 21
83.9374051673
 31
0.0
  0
LINE
  5
1A3
100
AcDbEntity
  8
BPV_STRAIGHT_DN2
  6
CONTINUOUS
 62
         7
100
AcDbLine
 10
197.1468756027
 20
94.6076946957
 30
0.0
 11
197.5798882128
 21
93.8576948548
 31
0.0
  0
LINE
  5
1A4
100
AcDbEntity
  8
BPV_STRAIGHT_DN2
  6
CONTINUOUS
 62
         7
100
AcDbLine
 10
186.0909727568
 20
84.5818318013
 30
0.0
 11
176.2834501338
 21
78.9194559749
 31
0.0
  0
LINE
  5
1A5
100
AcDbEntity
  8
BPV_STRAIGHT_DN2
  6
CONTINUOUS
 62
         7
100
AcDbLine
 10
176.2834501338
 20
78.9194559749
 30
0.0
 11
177.2834501338
 21
77.1874051673
 31
0.0
  0
LINE
  5
1A6
100
AcDbEntity
  8
BPV_STRAIGHT_DN2
  6
CONTINUOUS
 62
         7
100
AcDbLine
 10
198.7823157078
 20
89.5997809938
 30
0.0
 11
197.7823157078
 21
91.3318318013
 31
0.0
  0
LINE
  5
1A7
100
AcDbEntity
  8
BPV_STRAIGHT_DN2
  6
CONTINUOUS
 62
         7
100
AcDbLine
 10
187.0909727568
 20
82.8497809938
 30
0.0
 11
186.0909727568
 21
84.5818318013
 31
0.0
  0
ARC
  5
1A8
100
AcDbEntity
  8
BPV_STRAIGHT_DN2
  6
CONTINUOUS
 62
         7
100
AcDbCircle
 10
170.4940205069
 20
100.2717938883
 30
0.0
 40
19.0907491844
100
AcDbArc
 50
282.7463074371
 51
317.2536925629
  0
LINE
  5
1A9
100
AcDbEntity
  8
BPV_STRAIGHT_DN2
  6
CONTINUOUS
 62
         7
100
AcDbLine
 10
174.1972023106
 20
80.3576948548
 30
0.0
 11
173.7641897005
 21
81.1076946957
 31
0.0
  0
LINE
  5
1AA
100
AcDbEntity
  8
BPV_STRAIGHT_DN2
  6
CONTINUOUS
 62
         7
100
AcDbLine
 10
158.3905780754
 20
110.7355711262
 30
0.0
 11
179.1751877662
 21
122.7355711262
 31
0.0
  0
LINE
  5
1AB
100
AcDbEntity
  8
BPV_STRAIGHT_DN2
  6
CONTINUOUS
 62
         7
100
AcDbLine
 10
171.7745527594
 20
84.5538469664
 30
0.0
 11
172.2075653735
 21
83.8038471184
 31
0.0
  0
LINE
  5
1AC
100
AcDbEntity
  8
BPV_STRAIGHT_DN2
  6
CONTINUOUS
 62
         7
100
AcDbLine
 10
172.6405780754
 20
86.0538471184
 30
0.0
 11
171.7720082292
 21
84.5494400149
 31
0.0
  0
LINE
  5
1AD
100
AcDbEntity
  8
BPV_STRAIGHT_DN2
  6
CONTINUOUS
 62
         7
100
AcDbLine
 10
179.5245526716
 20
72.1304533597
 30
0.0
 11
178.5245526716
 21
73.8625041673
 31
0.0
  0
ARC
  5
1AE
100
AcDbEntity
  8
BPV_STRAIGHT_DN2
  6
CONTINUOUS
 62
         7
100
AcDbCircle
 10
122.0783839205
 20
-36.5217093024
 30
0.0
 40
105.4340804426
100
AcDbArc
 50
47.0145223759
 51
48.7716005279
  0
LINE
  5
1AF
100
AcDbEntity
  8
BPV_STRAIGHT_DN2
  6
CONTINUOUS
 62
         7
100
AcDbLine
 10
254.5808497904
 20
44.9009799402
 30
0.0
 11
255.5099033526
 21
44.9009799402
 31
0.0
  0
LINE
  5
1B0
100
AcDbEntity
  8
BPV_STRAIGHT_DN2
  6
CONTINUOUS
 62
         7
100
AcDbLine
 10
181.5099033526
 20
11.9009799402
 30
0.0
 11
180.5808497904
 21
11.9009799402
 31
0.0
  0
LINE
  5
1B1
100
AcDbEntity
  8
BPV_STRAIGHT_DN2
  6
CONTINUOUS
 62
         7
100
AcDbLine
 10
245.055862489
 20
44.9009799402
 30
0.0
 11
245.9849160512
 21
44.9009799402
 31
0.0
  0
LINE
  5
1B2
100
AcDbEntity
  8
BPV_STRAIGHT_DN2
  6
CONTINUOUS
 62
         7
100
AcDbLine
 10
245.9849160512
 20
11.9009799402
 30
0.0
 11
245.055862489
 21
11.9009799402
 31
0.0
  0
LINE
  5
1B3
100
AcDbEntity
  8
BPV_STRAIGHT_DN2
  6
CONTINUOUS
 62
         7
100
AcDbLine
 10
214.8043528908
 20
74.0240468992
 30
0.0
 11
211.1363160676
 21
73.377273041
 31
0.0
  0
LINE
  5
1B4
100
AcDbEntity
  8
BPV_STRAIGHT_DN2
  6
CONTINUOUS
 62
         7
100
AcDbLine
 10
216.3043528908
 20
71.4259706878
 30
0.0
 11
214.8043528908
 21
74.0240468992
 31
0.0
  0
LINE
  5
1B5
100
AcDbEntity
  8
BPV_STRAIGHT_DN2
  6
CONTINUOUS
 62
         7
100
AcDbLine
 10
245.9849160512
 20
44.9009799402
 30
0.0
 11
254.5808497904
 21
44.9009799402
 31
0.0
  0
ARC
  5
1B6
100
AcDbEntity
  8
BPV_STRAIGHT_DN2
  6
CONTINUOUS
 62
         7
100
AcDbCircle
 10
282.4876554045
 20
20.1509799402
 30
0.0
 40
37.4234215471
100
AcDbArc
 50
167.2645244266
 51
192.7354755734
  0
ARC
  5
1B7
100
AcDbEntity
  8
BPV_STRAIGHT_DN2
  6
CONTINUOUS
 62
         7
100
AcDbCircle
 10
282.4876554045
 20
36.6509799402
 30
0.0
 40
37.4234215471
100
AcDbArc
 50
167.2645244266
 51
192.7354755734
  0
LINE
  5
1B8
100
AcDbEntity
  8
BPV_STRAIGHT_DN2
  6
CONTINUOUS
 62
         7
100
AcDbLine
 10
171.9849160512
 20
28.4009799402
 30
0.0
 11
180.5808497904
 21
28.4009799402
 31
0.0
  0
LINE
  5
1B9
100
AcDbEntity
  8
BPV_STRAIGHT_DN2
  6
CONTINUOUS
 62
         7
100
AcDbLine
 10
171.9849160512
 20
44.9009799402
 30
0.0
 11
180.5808497904
 21
44.9009799402
 31
0.0
  0
LINE
  5
1BA
100
AcDbEntity
  8
BPV_STRAIGHT_DN2
  6
CONTINUOUS
 62
         7
100
AcDbLine
 10
211.1363160676
 20
73.377273041
 30
0.0
 11
208.04121317
 21
78.7381485143
 31
0.0
  0
LINE
  5
1BB
100
AcDbEntity
  8
BPV_STRAIGHT_DN2
  6
CONTINUOUS
 62
         7
100
AcDbLine
 10
187.7764764603
 20
49.3377020976
 30
0.0
 11
191.5742815059
 21
42.7597108013
 31
0.0
  0
LINE
  5
1BC
100
AcDbEntity
  8
BPV_STRAIGHT_DN2
  6
CONTINUOUS
 62
         7
100
AcDbLine
 10
184.2864129508
 20
52.8826694176
 30
0.0
 11
185.6114129508
 21
50.5877020976
 31
0.0
  0
LINE
  5
1BD
100
AcDbEntity
  8
BPV_STRAIGHT_DN2
  6
CONTINUOUS
 62
         7
100
AcDbLine
 10
185.6114129508
 20
50.5877020976
 30
0.0
 11
187.7764764603
 21
49.3377020976
 31
0.0
  0
LINE
  5
1BE
100
AcDbEntity
  8
BPV_STRAIGHT_DN2
  6
CONTINUOUS
 62
         7
100
AcDbLine
 10
183.5245526716
 20
65.2022501295
 30
0.0
 11
179.5245526716
 21
72.1304533597
 31
0.0
  0
LINE
  5
1BF
100
AcDbEntity
  8
BPV_STRAIGHT_DN2
  6
CONTINUOUS
 62
         7
100
AcDbLine
 10
183.5245526716
 20
65.2022501295
 30
0.0
 11
182.0604510565
 21
63.7381485143
 31
0.0
  0
LINE
  5
1C0
100
AcDbEntity
  8
BPV_STRAIGHT_DN2
  6
CONTINUOUS
 62
         7
100
AcDbLine
 10
197.9582981596
 20
37.7398602826
 30
0.0
 11
199.6999535532
 21
37.2454054929
 31
0.0
  0
ARC
  5
1C1
100
AcDbEntity
  8
BPV_STRAIGHT_DN2
  6
CONTINUOUS
 62
         7
100
AcDbCircle
 10
117.906427939
 20
-69.5820489739
 30
0.0
 40
133.8891113283
100
AcDbArc
 50
53.2805854529
 51
55.3843059658
  0
LINE
  5
1C2
100
AcDbEntity
  8
BPV_STRAIGHT_DN2
  6
CONTINUOUS
 62
         7
100
AcDbLine
 10
255.5099052451
 20
11.9009799402
 30
0.0
 11
255.7828829208
 21
12.6509799402
 31
0.0
  0
LINE
  5
1C3
100
AcDbEntity
  8
BPV_STRAIGHT_DN2
  6
CONTINUOUS
 62
         7
100
AcDbLine
 10
185.1555539541
 20
58.377273041
 30
0.0
 11
182.7614129508
 21
55.5240468992
 31
0.0
  0
LINE
  5
1C4
100
AcDbEntity
  8
BPV_STRAIGHT_DN2
  6
CONTINUOUS
 62
         7
100
AcDbLine
 10
182.7614129508
 20
55.5240468992
 30
0.0
 11
184.2614129508
 21
52.9259706878
 31
0.0
  0
LINE
  5
1C5
100
AcDbEntity
  8
BPV_STRAIGHT_DN2
  6
CONTINUOUS
 62
         7
100
AcDbLine
 10
193.9647071146
 20
14.9009799402
 30
0.0
 11
232.601058727
 21
14.9009799402
 31
0.0
  0
LINE
  5
1C6
100
AcDbEntity
  8
BPV_STRAIGHT_DN2
  6
CONTINUOUS
 62
         7
100
AcDbLine
 10
182.0604510565
 20
63.7381485143
 30
0.0
 11
185.1555539541
 21
58.377273041
 31
0.0
  0
LINE
  5
1C7
100
AcDbEntity
  8
BPV_STRAIGHT_DN2
  6
CONTINUOUS
 62
         7
100
AcDbLine
 10
225.2218211361
 20
53.4804626121
 30
0.0
 11
217.6543528908
 21
66.5877020976
 31
0.0
  0
LINE
  5
1C8
100
AcDbEntity
  8
BPV_STRAIGHT_DN2
  6
CONTINUOUS
 62
         7
100
AcDbLine
 10
217.6543528908
 20
69.0877020976
 30
0.0
 11
216.3293528908
 21
71.3826694176
 31
0.0
  0
LINE
  5
1C9
100
AcDbEntity
  8
BPV_STRAIGHT_DN2
  6
CONTINUOUS
 62
         7
100
AcDbLine
 10
217.6543528908
 20
66.5877020976
 30
0.0
 11
217.6543528908
 21
69.0877020976
 31
0.0
  0
LINE
  5
1CA
100
AcDbEntity
  8
BPV_STRAIGHT_DN2
  6
CONTINUOUS
 62
         7
100
AcDbLine
 10
255.7828829208
 20
44.1509799402
 30
0.0
 11
255.5099052451
 21
44.9009799402
 31
0.0
  0
LINE
  5
1CB
100
AcDbEntity
  8
BPV_STRAIGHT_DN2
  6
CONTINUOUS
 62
         7
100
AcDbLine
 10
232.601058727
 20
41.9009799402
 30
0.0
 11
231.0330840631
 21
41.9009799402
 31
0.0
  0
LINE
  5
1CC
100
AcDbEntity
  8
BPV_STRAIGHT_DN2
  6
CONTINUOUS
 62
         7
100
AcDbLine
 10
217.8576633906
 20
33.4009799402
 30
0.0
 11
216.5950906007
 21
33.4009799402
 31
0.0
  0
LINE
  5
1CD
100
AcDbEntity
  8
BPV_STRAIGHT_DN2
  6
CONTINUOUS
 62
         7
100
AcDbLine
 10
216.5950906007
 20
33.4009799402
 30
0.0
 11
214.0950906007
 21
30.9009799402
 31
0.0
  0
LINE
  5
1CE
100
AcDbEntity
  8
BPV_STRAIGHT_DN2
  6
CONTINUOUS
 62
         7
100
AcDbLine
 10
214.0950906007
 20
30.9009799402
 30
0.0
 11
216.5950906007
 21
28.4009799402
 31
0.0
  0
LINE
  5
1CF
100
AcDbEntity
  8
BPV_STRAIGHT_DN2
  6
CONTINUOUS
 62
         7
100
AcDbLine
 10
216.5950906007
 20
28.4009799402
 30
0.0
 11
217.8576633906
 21
28.4009799402
 31
0.0
  0
LINE
  5
1D0
100
AcDbEntity
  8
BPV_STRAIGHT_DN2
  6
CONTINUOUS
 62
         7
100
AcDbLine
 10
217.8576633906
 20
28.4009799402
 30
0.0
 11
217.8576633906
 21
30.1532298079
 31
0.0
  0
LINE
  5
1D1
100
AcDbEntity
  8
BPV_STRAIGHT_DN2
  6
CONTINUOUS
 62
         7
100
AcDbLine
 10
217.8576633906
 20
30.1532298079
 30
0.0
 11
222.6406173344
 21
30.1532298079
 31
0.0
  0
LINE
  5
1D2
100
AcDbEntity
  8
BPV_STRAIGHT_DN2
  6
CONTINUOUS
 62
         7
100
AcDbLine
 10
222.6406173345
 20
30.1532298079
 30
0.0
 11
222.6406173345
 21
31.6487300726
 31
0.0
  0
LINE
  5
1D3
100
AcDbEntity
  8
BPV_STRAIGHT_DN2
  6
CONTINUOUS
 62
         7
100
AcDbLine
 10
222.6406173345
 20
31.6487300726
 30
0.0
 11
217.8576633906
 21
31.6487300726
 31
0.0
  0
LINE
  5
1D4
100
AcDbEntity
  8
BPV_STRAIGHT_DN2
  6
CONTINUOUS
 62
         7
100
AcDbLine
 10
217.8576633906
 20
31.6487300726
 30
0.0
 11
217.8576633906
 21
33.4009799402
 31
0.0
  0
LINE
  5
1D5
100
AcDbEntity
  8
BPV_STRAIGHT_DN2
  6
CONTINUOUS
 62
         7
100
AcDbLine
 10
202.04121317
 20
85.1304533597
 30
0.0
 11
206.04121317
 21
78.2022501295
 31
0.0
  0
LINE
  5
1D6
100
AcDbEntity
  8
BPV_STRAIGHT_DN2
  6
CONTINUOUS
 62
         7
100
AcDbLine
 10
206.04121317
 20
78.2022501295
 30
0.0
 11
208.04121317
 21
78.7381485143
 31
0.0
  0
LINE
  5
1D7
100
AcDbEntity
  8
BPV_STRAIGHT_DN2
  6
CONTINUOUS
 62
         7
100
AcDbLine
 10
201.04121317
 20
86.8625041673
 30
0.0
 11
178.5245526716
 21
73.8625041673
 31
0.0
  0
LINE
  5
1D8
100
AcDbEntity
  8
BPV_STRAIGHT_DN2
  6
CONTINUOUS
 62
         7
100
AcDbLine
 10
225.2218211361
 20
51.9804626121
 30
0.0
 11
199.6999535532
 21
37.2454054929
 31
0.0
  0
LINE
  5
1D9
100
AcDbEntity
  8
BPV_STRAIGHT_DN2
  6
CONTINUOUS
 62
         7
100
AcDbLine
 10
225.2218211361
 20
53.4804626121
 30
0.0
 11
197.9582981596
 21
37.7398602826
 31
0.0
  0
LINE
  5
1DA
100
AcDbEntity
  8
BPV_STRAIGHT_DN2
  6
CONTINUOUS
 62
         7
100
AcDbLine
 10
216.3293528908
 20
71.3826694176
 30
0.0
 11
184.2864129508
 21
52.8826694176
 31
0.0
  0
LINE
  5
1DB
100
AcDbEntity
  8
BPV_STRAIGHT_DN2
  6
CONTINUOUS
 62
         7
100
AcDbLine
 10
217.6543528908
 20
69.0877020976
 30
0.0
 11
185.6114129508
 21
50.5877020976
 31
0.0
  0
LINE
  5
1DC
100
AcDbEntity
  8
BPV_STRAIGHT_DN2
  6
CONTINUOUS
 62
         7
100
AcDbLine
 10
217.6543528908
 20
66.5877020976
 30
0.0
 11
187.7764764603
 21
49.3377020976
 31
0.0
  0
SPLINE
  5
1DD
100
AcDbEntity
  8
BPV_STRAIGHT_DN2
  6
CONTINUOUS
 62
         7
100
AcDbSpline
210
0.0
220
0.0
230
1.0
 70
         8
 71
         3
 72
        18
 73
        14
 74
         0
 42
0.0
 43
0.0
 40
0.0
 40
0.0
 40
0.0
 40
0.0
 40
0.125
 40
0.125
 40
0.25
 40
0.25
 40
0.375
 40
0.375
 40
0.5
 40
0.5
 40
0.75
 40
0.75
 40
1.0
 40
1.0
 40
1.0
 40
1.0
 10
210.29604994031317
 20
22.923754365180528
 30
0.0
 10
211.26540886799347
 20
22.839850668461136
 30
0.0
 10
212.23782290689786
 20
22.78729449567323
 30
0.0
 10
214.19496162065425
 20
22.806488928430117
 30
0.0
 10
215.18068323901906
 20
22.881233923693102
 30
0.0
 10
217.08010073751652
 20
23.243297301148527
 30
0.0
 10
218.00848679877501
 20
23.537028778763826
 30
0.0
 10
219.77205892420238
 20
24.367588987269443
 30
0.0
 10
220.58299074944364
 20
24.886510197720714
 30
0.0
 10
222.89470344481461
 20
26.646475871574435
 30
0.0
 10
224.27039460950311
 20
28.062753150585518
 30
0.0
 10
226.86954062629914
 20
30.939776574245869
 30
0.0
 10
228.1181859322034
 20
32.448861571898284
 30
0.0
 10
229.26971590132385
 20
33.878205515283859
 30
0.0
  0
SPLINE
  5
1DE
100
AcDbEntity
  8
BPV_STRAIGHT_DN2
  6
CONTINUOUS
 62
         7
100
AcDbSpline
210
0.0
220
0.0
230
1.0
 70
         8
 71
         3
 72
        18
 73
        14
 74
         0
 42
0.0
 43
0.0
 40
0.0
 40
0.0
 40
0.0
 40
0.0
 40
0.2499999999999998
 40
0.2499999999999998
 40
0.4999999999999999
 40
0.4999999999999999
 40
0.6249999999999999
 40
0.6249999999999999
 40
0.7499999999999999
 40
0.7499999999999999
 40
0.875
 40
0.875
 40
1.0
 40
1.0
 40
1.0
 40
1.0
 10
199.69995355321183
 20
37.245405492933898
 30
0.0
 10
200.85602712327761
 20
36.398309930485233
 30
0.0
 10
202.03024155878521
 20
35.503193764506946
 30
0.0
 10
204.35265530807484
 20
33.575275192030389
 30
0.0
 10
205.50476338696734
 20
32.546474542299478
 30
0.0
 10
207.12662915223345
 20
30.788788930702076
 30
0.0
 10
207.63829789792305
 20
30.176517498685744
 30
0.0
 10
208.56944301320172
 20
28.870640475134422
 30
0.0
 10
208.99019946137176
 20
28.1701574682331
 30
0.0
 10
209.6598662069693
 20
26.719221388768524
 30
0.0
 10
209.91488904318754
 20
25.949529826990904
 30
0.0
 10
210.2308541933983
 20
24.420411171816177
 30
0.0
 10
210.29604994031357
 20
23.664947071030632
 30
0.0
 10
210.29604994031317
 20
22.923754365180528
 30
0.0
  0
LINE
  5
1DF
100
AcDbEntity
  8
BPV_STRAIGHT_DN2
  6
CONTINUOUS
 62
         7
100
AcDbLine
 10
210.2960499403
 20
22.9237543652
 30
0.0
 11
229.2697159013
 21
33.8782055153
 31
0.0
  0
ARC
  5
1E0
100
AcDbEntity
  8
BPV_STRAIGHT_DN2
  6
CONTINUOUS
 62
         7
100
AcDbCircle
 10
253.1606545874
 20
32.8098498352
 30
0.0
 40
23.914814136
100
AcDbArc
 50
157.6572497788
 51
177.4395514937
  0
LINE
  5
1E1
100
AcDbEntity
  8
BPV_STRAIGHT_DN2
  6
CONTINUOUS
 62
         7
100
AcDbLine
 10
193.9647071146
 20
14.9009799402
 30
0.0
 11
193.9647071146
 21
40.6061187263
 31
0.0
  0
LINE
  5
1E2
100
AcDbEntity
  8
BPV_STRAIGHT_DN2
  6
CONTINUOUS
 62
         7
100
AcDbLine
 10
187.7828829208
 20
44.1509799402
 30
0.0
 11
187.7828829208
 21
12.6509799402
 31
0.0
  0
LINE
  5
1E3
100
AcDbEntity
  8
BPV_STRAIGHT_DN2
  6
CONTINUOUS
 62
         7
100
AcDbLine
 10
232.601058727
 20
41.9009799402
 30
0.0
 11
232.601058727
 21
14.9009799402
 31
0.0
  0
LINE
  5
1E4
100
AcDbEntity
  8
BPV_STRAIGHT_DN2
  6
CONTINUOUS
 62
         7
100
AcDbLine
 10
181.7828829208
 20
44.1509799402
 30
0.0
 11
181.7828829208
 21
12.6509799402
 31
0.0
  0
ARC
  5
1E5
100
AcDbEntity
  8
BPV_STRAIGHT_DN2
  6
CONTINUOUS
 62
         7
100
AcDbCircle
 10
218.0781104371
 20
36.6509799402
 30
0.0
 40
37.4234215471
100
AcDbArc
 50
347.2645244266
 51
12.7354755734
  0
LINE
  5
1E6
100
AcDbEntity
  8
BPV_STRAIGHT_DN2
  6
CONTINUOUS
 62
         7
100
AcDbLine
 10
255.5099033526
 20
11.9009799402
 30
0.0
 11
254.5808497904
 21
11.9009799402
 31
0.0
  0
LINE
  5
1E7
100
AcDbEntity
  8
BPV_STRAIGHT_DN2
  6
CONTINUOUS
 62
         7
100
AcDbLine
 10
170.7828829208
 20
44.1509799402
 30
0.0
 11
170.7828829208
 21
12.6509799402
 31
0.0
  0
ARC
  5
1E8
100
AcDbEntity
  8
BPV_STRAIGHT_DN2
  6
CONTINUOUS
 62
         7
100
AcDbCircle
 10
218.0781104371
 20
20.1509799402
 30
0.0
 40
37.4234215471
100
AcDbArc
 50
347.2645244266
 51
12.7354755734
  0
LINE
  5
1E9
100
AcDbEntity
  8
BPV_STRAIGHT_DN2
  6
CONTINUOUS
 62
         7
100
AcDbLine
 10
245.9849160512
 20
11.9009799402
 30
0.0
 11
254.5808497904
 21
11.9009799402
 31
0.0
  0
LINE
  5
1EA
100
AcDbEntity
  8
BPV_STRAIGHT_DN2
  6
CONTINUOUS
 62
         7
100
AcDbLine
 10
245.9849160512
 20
28.4009799402
 30
0.0
 11
254.5808497904
 21
28.4009799402
 31
0.0
  0
LINE
  5
1EB
100
AcDbEntity
  8
BPV_STRAIGHT_DN2
  6
CONTINUOUS
 62
         7
100
AcDbLine
 10
171.9849160512
 20
11.9009799402
 30
0.0
 11
180.5808497904
 21
11.9009799402
 31
0.0
  0
LINE
  5
1EC
100
AcDbEntity
  8
BPV_STRAIGHT_DN2
  6
CONTINUOUS
 62
         7
100
AcDbLine
 10
180.5808497904
 20
44.9009799402
 30
0.0
 11
181.5099033526
 21
44.9009799402
 31
0.0
  0
ARC
  5
1ED
100
AcDbEntity
  8
BPV_STRAIGHT_DN2
  6
CONTINUOUS
 62
         7
100
AcDbCircle
 10
144.0781104371
 20
20.1509799402
 30
0.0
 40
37.4234215471
100
AcDbArc
 50
347.2645244266
 51
12.7354755734
  0
ARC
  5
1EE
100
AcDbEntity
  8
BPV_STRAIGHT_DN2
  6
CONTINUOUS
 62
         7
100
AcDbCircle
 10
144.0781104371
 20
36.6509799402
 30
0.0
 40
37.4234215471
100
AcDbArc
 50
347.2645244266
 51
12.7354755734
  0
LINE
  5
1EF
100
AcDbEntity
  8
BPV_STRAIGHT_DN2
  6
CONTINUOUS
 62
         7
100
AcDbLine
 10
171.055862489
 20
11.9009799402
 30
0.0
 11
171.9849160512
 21
11.9009799402
 31
0.0
  0
ARC
  5
1F0
100
AcDbEntity
  8
BPV_STRAIGHT_DN2
  6
CONTINUOUS
 62
         7
100
AcDbCircle
 10
208.4876554045
 20
36.6509799402
 30
0.0
 40
37.4234215471
100
AcDbArc
 50
167.2645244266
 51
192.7354755734
  0
ARC
  5
1F1
100
AcDbEntity
  8
BPV_STRAIGHT_DN2
  6
CONTINUOUS
 62
         7
100
AcDbCircle
 10
208.4876554045
 20
20.1509799402
 30
0.0
 40
37.4234215471
100
AcDbArc
 50
167.2645244266
 51
192.7354755734
  0
LINE
  5
1F2
100
AcDbEntity
  8
BPV_STRAIGHT_DN2
  6
CONTINUOUS
 62
         7
100
AcDbLine
 10
238.7828829208
 20
44.1509799402
 30
0.0
 11
238.7828829208
 21
12.6509799402
 31
0.0
  0
LINE
  5
1F3
100
AcDbEntity
  8
BPV_STRAIGHT_DN2
  6
CONTINUOUS
 62
         7
100
AcDbLine
 10
255.7828829208
 20
44.1509799402
 30
0.0
 11
255.7828829208
 21
12.6509799402
 31
0.0
  0
LINE
  5
1F4
100
AcDbEntity
  8
BPV_STRAIGHT_DN2
  6
CONTINUOUS
 62
         7
100
AcDbLine
 10
244.7828829208
 20
44.1509799402
 30
0.0
 11
244.7828829208
 21
12.6509799402
 31
0.0
  0
LINE
  5
1F5
100
AcDbEntity
  8
BPV_STRAIGHT_DN2
  6
CONTINUOUS
 62
         7
100
AcDbLine
 10
171.0558605965
 20
44.9009799402
 30
0.0
 11
170.7828829208
 21
44.1509799402
 31
0.0
  0
LINE
  5
1F6
100
AcDbEntity
  8
BPV_STRAIGHT_DN2
  6
CONTINUOUS
 62
         7
100
AcDbLine
 10
238.7828829208
 20
12.6509799402
 30
0.0
 11
244.7828829208
 21
12.6509799402
 31
0.0
  0
LINE
  5
1F7
100
AcDbEntity
  8
BPV_STRAIGHT_DN2
  6
CONTINUOUS
 62
         7
100
AcDbLine
 10
187.7828829208
 20
12.6509799402
 30
0.0
 11
193.9647071146
 21
14.9009799402
 31
0.0
  0
LINE
  5
1F8
100
AcDbEntity
  8
BPV_STRAIGHT_DN2
  6
CONTINUOUS
 62
         7
100
AcDbLine
 10
181.7828829208
 20
12.6509799402
 30
0.0
 11
187.7828829208
 21
12.6509799402
 31
0.0
  0
LINE
  5
1F9
100
AcDbEntity
  8
BPV_STRAIGHT_DN2
  6
CONTINUOUS
 62
         7
100
AcDbLine
 10
238.7828829208
 20
44.1509799402
 30
0.0
 11
232.601058727
 21
41.9009799402
 31
0.0
  0
LINE
  5
1FA
100
AcDbEntity
  8
BPV_STRAIGHT_DN2
  6
CONTINUOUS
 62
         7
100
AcDbLine
 10
170.7828829208
 20
12.6509799402
 30
0.0
 11
171.0558605965
 21
11.9009799402
 31
0.0
  0
LINE
  5
1FB
100
AcDbEntity
  8
BPV_STRAIGHT_DN2
  6
CONTINUOUS
 62
         7
100
AcDbLine
 10
245.0558605965
 20
44.9009799402
 30
0.0
 11
244.7828829208
 21
44.1509799402
 31
0.0
  0
LINE
  5
1FC
100
AcDbEntity
  8
BPV_STRAIGHT_DN2
  6
CONTINUOUS
 62
         7
100
AcDbLine
 10
225.2218211361
 20
51.9804626121
 30
0.0
 11
225.2218211361
 21
53.4804626121
 31
0.0
  0
LINE
  5
1FD
100
AcDbEntity
  8
BPV_STRAIGHT_DN2
  6
CONTINUOUS
 62
         7
100
AcDbLine
 10
244.7828829208
 20
44.1509799402
 30
0.0
 11
238.7828829208
 21
44.1509799402
 31
0.0
  0
LINE
  5
1FE
100
AcDbEntity
  8
BPV_STRAIGHT_DN2
  6
CONTINUOUS
 62
         7
100
AcDbLine
 10
191.5813106548
 20
42.768465308
 30
0.0
 11
187.7828829208
 21
44.1509799402
 31
0.0
  0
LINE
  5
1FF
100
AcDbEntity
  8
BPV_STRAIGHT_DN2
  6
CONTINUOUS
 62
         7
100
AcDbLine
 10
187.7828829208
 20
44.1509799402
 30
0.0
 11
181.7828829208
 21
44.1509799402
 31
0.0
  0
LINE
  5
200
100
AcDbEntity
  8
BPV_STRAIGHT_DN2
  6
CONTINUOUS
 62
         7
100
AcDbLine
 10
232.601058727
 20
14.9009799402
 30
0.0
 11
238.7828829208
 21
12.6509799402
 31
0.0
  0
LINE
  5
201
100
AcDbEntity
  8
BPV_STRAIGHT_DN2
  6
CONTINUOUS
 62
         7
100
AcDbLine
 10
244.7828829208
 20
12.6509799402
 30
0.0
 11
245.0558605965
 21
11.9009799402
 31
0.0
  0
LINE
  5
202
100
AcDbEntity
  8
BPV_STRAIGHT_DN2
  6
CONTINUOUS
 62
         7
100
AcDbLine
 10
231.0484061722
 20
41.8885212949
 30
0.0
 11
225.2218211361
 21
51.9804626121
 31
0.0
  0
LINE
  5
203
100
AcDbEntity
  8
BPV_STRAIGHT_DN2
  6
CONTINUOUS
 62
         7
100
AcDbLine
 10
174.1937045587
 20
80.3576946957
 30
0.0
 11
174.7745526716
 21
80.3576946957
 31
0.0
  0
LINE
  5
204
100
AcDbEntity
  8
BPV_STRAIGHT_DN2
  6
CONTINUOUS
 62
         7
100
AcDbLine
 10
200.9979118998
 20
86.8375041673
 30
0.0
 11
200.4979118998
 21
87.7035295711
 31
0.0
  0
LINE
  5
205
100
AcDbEntity
  8
BPV_STRAIGHT_DN2
  6
CONTINUOUS
 62
         7
100
AcDbLine
 10
200.54121317
 20
87.7285295711
 30
0.0
 11
199.29121317
 21
89.8935930805
 31
0.0
  0
LINE
  5
206
100
AcDbEntity
  8
BPV_STRAIGHT_DN2
  6
CONTINUOUS
 62
         7
100
AcDbLine
 10
198.29121317
 20
91.6256438881
 30
0.0
 11
197.29121317
 21
93.3576946957
 31
0.0
  0
LINE
  5
207
100
AcDbEntity
  8
BPV_STRAIGHT_DN2
  6
CONTINUOUS
 62
         7
100
AcDbLine
 10
193.4251877662
 20
98.0538471184
 30
0.0
 11
179.1751877662
 21
122.7355711262
 31
0.0
  0
LINE
  5
208
100
AcDbEntity
  8
BPV_STRAIGHT_DN2
  6
CONTINUOUS
 62
         7
100
AcDbLine
 10
172.6405780754
 20
86.0538471184
 30
0.0
 11
193.4251877662
 21
98.0538471184
 31
0.0
  0
LINE
  5
209
100
AcDbEntity
  8
BPV_STRAIGHT_DN2
  6
CONTINUOUS
 62
         7
100
AcDbLine
 10
197.29121317
 20
93.3576946957
 30
0.0
 11
197.5820064654
 21
93.8613634578
 31
0.0
  0
LINE
  5
20A
100
AcDbEntity
  8
BPV_STRAIGHT_DN2
  6
CONTINUOUS
 62
         7
100
AcDbLine
 10
178.0678539418
 20
74.7535295711
 30
0.0
 11
178.5678539418
 21
73.8875041673
 31
0.0
  0
LINE
  5
20B
100
AcDbEntity
  8
BPV_STRAIGHT_DN2
  6
CONTINUOUS
 62
         7
100
AcDbLine
 10
176.7745526716
 20
76.8935930805
 30
0.0
 11
178.0245526716
 21
74.7285295711
 31
0.0
  0
LINE
  5
20C
100
AcDbEntity
  8
BPV_STRAIGHT_DN2
  6
CONTINUOUS
 62
         7
100
AcDbLine
 10
174.7745526716
 20
80.3576946957
 30
0.0
 11
175.7745526716
 21
78.6256438881
 31
0.0
  0
LINE
  5
20D
100
AcDbEntity
  8
BPV_STRAIGHT_DN2
  6
CONTINUOUS
 62
         7
100
AcDbLine
 10
158.3905780754
 20
110.7355711262
 30
0.0
 11
172.6405780754
 21
86.0538471184
 31
0.0
  0
LINE
  5
20E
100
AcDbEntity
  8
BPV_STRAIGHT_DN2
  6
CONTINUOUS
 62
         7
100
AcDbLine
 10
199.7242258719
 20
90.1435930805
 30
0.0
 11
198.7823157078
 21
89.5997809938
 31
0.0
  0
LINE
  5
20F
100
AcDbEntity
  8
BPV_STRAIGHT_DN2
  6
CONTINUOUS
 62
         7
100
AcDbLine
 10
198.7242258719
 20
91.8756438881
 30
0.0
 11
197.7823157078
 21
91.3318318013
 31
0.0
  0
LINE
  5
210
100
AcDbEntity
  8
BPV_STRAIGHT_DN2
  6
CONTINUOUS
 62
         7
100
AcDbLine
 10
176.2834501338
 20
78.9194559749
 30
0.0
 11
175.3415399697
 21
78.3756438881
 31
0.0
  0
LINE
  5
211
100
AcDbEntity
  8
BPV_STRAIGHT_DN2
  6
CONTINUOUS
 62
         7
100
AcDbLine
 10
176.3415399697
 20
76.6435930805
 30
0.0
 11
175.3415399697
 21
78.3756438881
 31
0.0
  0
LINE
  5
212
100
AcDbEntity
  8
BPV_STRAIGHT_DN2
  6
CONTINUOUS
 62
         7
100
AcDbLine
 10
177.2834501338
 20
77.1874051673
 30
0.0
 11
176.3415399697
 21
76.6435930805
 31
0.0
  0
LINE
  5
213
100
AcDbEntity
  8
BPV_STRAIGHT_DN2
  6
CONTINUOUS
 62
         7
100
AcDbLine
 10
197.7823157078
 20
91.3318318013
 30
0.0
 11
187.9747930849
 21
85.6694559749
 31
0.0
  0
LINE
  5
214
100
AcDbEntity
  8
BPV_STRAIGHT_DN2
  6
CONTINUOUS
 62
         7
100
AcDbLine
 10
173.1494755376
 20
84.3476592052
 30
0.0
 11
172.2075653735
 21
83.8038471184
 31
0.0
  0
LINE
  5
215
100
AcDbEntity
  8
BPV_STRAIGHT_DN2
  6
CONTINUOUS
 62
         7
100
AcDbLine
 10
173.7641897005
 20
81.1076946957
 30
0.0
 11
172.2075653735
 21
83.8038471184
 31
0.0
  0
LINE
  5
216
100
AcDbEntity
  8
BPV_STRAIGHT_DN2
  6
CONTINUOUS
 62
         7
100
AcDbLine
 10
195.5902512757
 20
97.3038471184
 30
0.0
 11
195.1572386615
 21
98.0538469664
 31
0.0
  0
LINE
  5
217
100
AcDbEntity
  8
BPV_STRAIGHT_DN2
  6
CONTINUOUS
 62
         7
100
AcDbLine
 10
197.1468756027
 20
94.6076946957
 30
0.0
 11
196.2049654387
 21
94.0638826089
 31
0.0
  0
LINE
  5
218
100
AcDbEntity
  8
BPV_STRAIGHT_DN2
  6
CONTINUOUS
 62
         7
100
AcDbLine
 10
174.7060998646
 20
81.6515067825
 30
0.0
 11
173.7641897005
 21
81.1076946957
 31
0.0
  0
LINE
  5
219
100
AcDbEntity
  8
BPV_STRAIGHT_DN2
  6
CONTINUOUS
 62
         7
100
AcDbLine
 10
201.04121317
 20
86.8625041673
 30
0.0
 11
202.04121317
 21
85.1304533597
 31
0.0
  0
LINE
  5
21A
100
AcDbEntity
  8
BPV_STRAIGHT_DN2
  6
CONTINUOUS
 62
         7
100
AcDbLine
 10
184.2614129508
 20
52.9259706878
 30
0.0
 11
216.3043528908
 21
71.4259706878
 31
0.0
  0
LINE
  5
21B
100
AcDbEntity
  8
BPV_STRAIGHT_DN2
  6
CONTINUOUS
 62
         7
100
AcDbLine
 10
182.7614129508
 20
55.5240468992
 30
0.0
 11
214.8043528908
 21
74.0240468992
 31
0.0
  0
LINE
  5
21C
100
AcDbEntity
  8
BPV_STRAIGHT_DN2
  6
CONTINUOUS
 62
         7
100
AcDbLine
 10
202.04121317
 20
85.1304533597
 30
0.0
 11
179.5245526716
 21
72.1304533597
 31
0.0
  0
LINE
  5
21D
100
AcDbEntity
  8
BPV_STRAIGHT_DN2
  6
CONTINUOUS
 62
         7
100
AcDbLine
 10
185.1555539541
 20
58.377273041
 30
0.0
 11
211.1363160676
 21
73.377273041
 31
0.0
  0
LINE
  5
21E
100
AcDbEntity
  8
BPV_STRAIGHT_DN2
  6
CONTINUOUS
 62
         7
100
AcDbLine
 10
171.055862489
 20
44.9009799402
 30
0.0
 11
171.9849160512
 21
44.9009799402
 31
0.0
  0
LINE
  5
21F
100
AcDbEntity
  8
BPV_STRAIGHT_DN2
  6
CONTINUOUS
 62
         7
100
AcDbLine
 10
181.5099052451
 20
11.9009799402
 30
0.0
 11
181.7828829208
 21
12.6509799402
 31
0.0
  0
LINE
  5
220
100
AcDbEntity
  8
BPV_STRAIGHT_DN2
  6
CONTINUOUS
 62
         7
100
AcDbLine
 10
181.7828829208
 20
44.1509799402
 30
0.0
 11
181.5099052451
 21
44.9009799402
 31
0.0
  0
ENDBLK
  5
221
100
AcDbEntity
  8
BPV_STRAIGHT_DN2
  6
CONTINUOUS
 62
         7
100
AcDbBlockEnd
  0
BLOCK
  5
2B1
100
AcDbEntity
  8
0
 62
         1
 48
0.0
100
AcDbBlockBegin
  2
SE6
 70
         0
 10
0.0
 20
0.0
 30
0.0
  3
SE6
  1

  0
ENDBLK
  5
2B2
100
AcDbEntity
  8
0
 62
         1
 48
0.0
100
AcDbBlockEnd
  0
BLOCK
  5
224
100
AcDbEntity
  8
0
 62
         1
 48
0.0
100
AcDbBlockBegin
  2
SE7
 70
         0
 10
0.0
 20
0.0
 30
0.0
  3
SE7
  1

  0
ELLIPSE
  5
225
100
AcDbEntity
  8
BPV_STRAIGHT_DN2
  6
CONTINUOUS
 62
         7
100
AcDbEllipse
 10
236.9973415446
 20
179.4607739144
 30
0.0
 11
0.000000000237967
 21
17.249999996911221
 31
0.0
210
0.0
220
0.0
230
1.0
 40
0.5
 41
0.0707572385599387
 42
0.1576923767630668
  0
ELLIPSE
  5
226
100
AcDbEntity
  8
BPV_STRAIGHT_DN2
  6
CONTINUOUS
 62
         7
100
AcDbEllipse
 10
192.5979951442
 20
179.4607739114
 30
0.0
 11
-0.000000000000006
 21
15.000000000134868
 31
0.0
210
0.0
220
0.0
230
1.0
 40
0.5
 41
3.0690206897880543
 42
3.1415926535897922
  0
ARC
  5
227
100
AcDbEntity
  8
BPV_STRAIGHT_DN2
  6
CONTINUOUS
 62
         7
100
AcDbCircle
 10
201.3065113573
 20
178.2340629678
 30
0.0
 40
16.5596803148
100
AcDbArc
 50
205.7545453393
 51
236.032243959
  0
LINE
  5
228
100
AcDbEntity
  8
BPV_STRAIGHT_DN2
  6
CONTINUOUS
 62
         7
100
AcDbLine
 10
192.0541830574
 20
164.5002567526
 30
0.0
 11
194.7503354801
 21
164.5002567526
 31
0.0
  0
LINE
  5
229
100
AcDbEntity
  8
BPV_STRAIGHT_DN2
  6
CONTINUOUS
 62
         7
100
AcDbLine
 10
189.0879596537
 20
171.0386051679
 30
0.0
 11
186.391807231
 21
171.0386051679
 31
0.0
  0
ARC
  5
22A
100
AcDbEntity
  8
BPV_STRAIGHT_DN2
  6
CONTINUOUS
 62
         7
100
AcDbCircle
 10
179.8356313538
 20
157.3047989526
 30
0.0
 40
16.5596803148
100
AcDbArc
 50
25.7545453393
 51
56.032243959
  0
LINE
  5
22B
100
AcDbEntity
  8
BPV_STRAIGHT_DN2
  6
CONTINUOUS
 62
         7
100
AcDbLine
 10
188.5441475669
 20
185.9991223266
 30
0.0
 11
185.8479951442
 21
185.9991223266
 31
0.0
  0
ELLIPSE
  5
22C
100
AcDbEntity
  8
BPV_STRAIGHT_DN2
  6
CONTINUOUS
 62
         7
100
AcDbEllipse
 10
192.5979951443
 20
179.4607739112
 30
0.0
 11
-0.0000000000561625
 21
15.000000000123073
 31
0.0
210
0.0
220
0.0
230
1.0
 40
0.5
 41
0.9746255873902747
 42
1.1197695149934004
  0
ELLIPSE
  5
22D
100
AcDbEntity
  8
BPV_STRAIGHT_DN2
  6
CONTINUOUS
 62
         7
100
AcDbEllipse
 10
192.5979951441
 20
179.4607739112
 30
0.0
 11
0.0000000000605548
 21
-14.999999999869715
 31
0.0
210
0.0
220
0.0
230
1.0
 40
0.5
 41
5.1634157921754085
 42
5.3085597197804821
  0
ELLIPSE
  5
22E
100
AcDbEntity
  8
BPV_STRAIGHT_DN2
  6
CONTINUOUS
 62
         7
100
AcDbEllipse
 10
195.2941475669
 20
179.4607739112
 30
0.0
 11
0.0000000000000009
 21
14.999999999923658
 31
0.0
210
0.0
220
0.0
230
1.0
 40
0.5
 41
3.069020689787552
 42
3.2141646173920342
  0
ELLIPSE
  5
22F
100
AcDbEntity
  8
BPV_STRAIGHT_DN2
  6
CONTINUOUS
 62
         7
100
AcDbEllipse
 10
196.2941475669
 20
179.4607739113
 30
0.0
 11
-0.0000000000000008
 21
-13.000000000000005
 31
0.0
210
0.0
220
0.0
230
1.0
 40
0.5
 41
3.2263084006586538
 42
6.198469560110726
  0
ELLIPSE
  5
230
100
AcDbEntity
  8
BPV_STRAIGHT_DN2
  6
CONTINUOUS
 62
         7
100
AcDbEllipse
 10
198.0261983745
 20
179.4607739114
 30
0.0
 11
0.0000000000000009
 21
15.000000000105386
 31
0.0
210
0.0
220
0.0
230
1.0
 40
0.5
 41
3.069020689787993
 42
3.1415926535897931
  0
LINE
  5
231
100
AcDbEntity
  8
BPV_STRAIGHT_DN2
  6
CONTINUOUS
 62
         7
100
AcDbLine
 10
191.8200104612
 20
187.8829426547
 30
0.0
 11
193.5520612688
 21
187.8829426547
 31
0.0
  0
ELLIPSE
  5
232
100
AcDbEntity
  8
BPV_STRAIGHT_DN2
  6
CONTINUOUS
 62
         7
100
AcDbEllipse
 10
199.758249182
 20
179.4607739111
 30
0.0
 11
-0.0000000000017616
 21
14.999999999840384
 31
0.0
210
0.0
220
0.0
230
1.0
 40
0.5
 41
3.0690206897873162
 42
3.2141646173921505
  0
LINE
  5
233
100
AcDbEntity
  8
BPV_STRAIGHT_DN2
  6
CONTINUOUS
 62
         7
100
AcDbLine
 10
193.5520612688
 20
187.8829426547
 30
0.0
 11
199.2144370953
 21
194.4212910701
 31
0.0
  0
ELLIPSE
  5
234
100
AcDbEntity
  8
BPV_STRAIGHT_DN2
  6
CONTINUOUS
 62
         7
100
AcDbEllipse
 10
199.758249182
 20
179.4607739113
 30
0.0
 11
-0.0000000000000008
 21
-13.000000000000005
 31
0.0
210
0.0
220
0.0
230
1.0
 40
0.5
 41
3.1415926535897931
 42
6.2831853071795862
  0
ELLIPSE
  5
235
100
AcDbEntity
  8
BPV_STRAIGHT_DN2
  6
CONTINUOUS
 62
         7
100
AcDbEllipse
 10
201.9233126915
 20
179.4607739113
 30
0.0
 11
-0.0000000000000008
 21
-13.000000000000005
 31
0.0
210
0.0
220
0.0
230
1.0
 40
0.5
 41
3.3579321258675447
 42
6.0668458349018346
  0
ELLIPSE
  5
236
100
AcDbEntity
  8
BPV_STRAIGHT_DN2
  6
CONTINUOUS
 62
         7
100
AcDbEllipse
 10
201.9233126915
 20
179.4607739113
 30
0.0
 11
-0.0000000000000008
 21
-12.950000000000001
 31
0.0
210
0.0
220
0.0
230
1.0
 40
0.5
 41
3.3686647377963799
 42
6.056113222972999
  0
LINE
  5
237
100
AcDbEntity
  8
BPV_STRAIGHT_DN2
  6
CONTINUOUS
 62
         7
100
AcDbLine
 10
194.7503354801
 20
194.4212910701
 30
0.0
 11
192.0541830574
 21
194.4212910701
 31
0.0
  0
LINE
  5
238
100
AcDbEntity
  8
BPV_STRAIGHT_DN2
  6
CONTINUOUS
 62
         7
100
AcDbLine
 10
186.391807231
 20
187.8829426547
 30
0.0
 11
189.0879596537
 21
187.8829426547
 31
0.0
  0
LINE
  5
239
100
AcDbEntity
  8
BPV_STRAIGHT_DN2
  6
CONTINUOUS
 62
         7
100
AcDbLine
 10
199.2144370953
 20
194.4212910701
 30
0.0
 11
197.4823862877
 21
194.4212910701
 31
0.0
  0
LINE
  5
23A
100
AcDbEntity
  8
BPV_STRAIGHT_DN2
  6
CONTINUOUS
 62
         7
100
AcDbLine
 10
197.4823862877
 20
194.4212910701
 30
0.0
 11
191.8200104612
 21
187.8829426547
 31
0.0
  0
ARC
  5
23B
100
AcDbEntity
  8
BPV_STRAIGHT_DN2
  6
CONTINUOUS
 62
         7
100
AcDbCircle
 10
179.8151352554
 20
201.6344990119
 30
0.0
 40
16.5858546528
100
AcDbArc
 50
303.9922173758
 51
334.220993326
  0
LINE
  5
23C
100
AcDbEntity
  8
BPV_STRAIGHT_DN2
  6
CONTINUOUS
 62
         7
100
AcDbLine
 10
185.8479951442
 20
172.922425496
 30
0.0
 11
188.5441475669
 21
172.922425496
 31
0.0
  0
LINE
  5
23D
100
AcDbEntity
  8
BPV_STRAIGHT_DN2
  6
CONTINUOUS
 62
         7
100
AcDbLine
 10
197.4823862877
 20
164.5002567526
 30
0.0
 11
199.2144370953
 21
164.5002567526
 31
0.0
  0
ARC
  5
23E
100
AcDbEntity
  8
BPV_STRAIGHT_DN2
  6
CONTINUOUS
 62
         7
100
AcDbCircle
 10
160.4191471692
 20
179.4607739113
 30
0.0
 40
28.8750003874
100
AcDbArc
 50
346.9126475141
 51
13.0873524859
  0
LINE
  5
23F
100
AcDbEntity
  8
BPV_STRAIGHT_DN2
  6
CONTINUOUS
 62
         7
100
AcDbLine
 10
201.4259151952
 20
165.7979714864
 30
0.0
 11
200.3020612688
 21
164.5002567526
 31
0.0
  0
LINE
  5
240
100
AcDbEntity
  8
BPV_STRAIGHT_DN2
  6
CONTINUOUS
 62
         7
100
AcDbLine
 10
199.2144370953
 20
164.5002567526
 30
0.0
 11
193.5520612688
 21
171.0386051679
 31
0.0
  0
LINE
  5
241
100
AcDbEntity
  8
BPV_STRAIGHT_DN2
  6
CONTINUOUS
 62
         7
100
AcDbLine
 10
191.2761983745
 20
172.922425496
 30
0.0
 11
193.008249182
 21
172.922425496
 31
0.0
  0
LINE
  5
242
100
AcDbEntity
  8
BPV_STRAIGHT_DN2
  6
CONTINUOUS
 62
         7
100
AcDbLine
 10
193.008249182
 20
172.922425496
 30
0.0
 11
193.008249182
 21
185.9991223266
 31
0.0
  0
LINE
  5
243
100
AcDbEntity
  8
BPV_STRAIGHT_DN2
  6
CONTINUOUS
 62
         7
100
AcDbLine
 10
193.008249182
 20
185.9991223266
 30
0.0
 11
191.2761983745
 21
185.9991223266
 31
0.0
  0
LINE
  5
244
100
AcDbEntity
  8
BPV_STRAIGHT_DN2
  6
CONTINUOUS
 62
         7
100
AcDbLine
 10
191.2761983745
 20
185.9991223266
 30
0.0
 11
191.2761983745
 21
172.922425496
 31
0.0
  0
ARC
  5
245
100
AcDbEntity
  8
BPV_STRAIGHT_DN2
  6
CONTINUOUS
 62
         7
100
AcDbCircle
 10
186.5856313538
 20
178.2340629678
 30
0.0
 40
16.5596803148
100
AcDbArc
 50
303.967756041
 51
308.2831707818
  0
LINE
  5
246
100
AcDbEntity
  8
BPV_STRAIGHT_DN2
  6
CONTINUOUS
 62
         7
100
AcDbLine
 10
193.5520612688
 20
171.0386051679
 30
0.0
 11
191.8200104612
 21
171.0386051679
 31
0.0
  0
ELLIPSE
  5
247
100
AcDbEntity
  8
BPV_STRAIGHT_DN2
  6
CONTINUOUS
 62
         7
100
AcDbEllipse
 10
166.4162711363
 20
179.4607739113
 30
0.0
 11
0.0000000000000146
 21
12.000000000000004
 31
0.0
210
0.0
220
0.0
230
1.0
 40
0.5
 41
0.0
 42
3.1415926535897931
  0
LINE
  5
248
100
AcDbEntity
  8
BPV_STRAIGHT_DN2
  6
CONTINUOUS
 62
         7
100
AcDbLine
 10
236.9973415448
 20
197.2107739113
 30
0.0
 11
233.8836282997
 21
197.2107739113
 31
0.0
  0
LINE
  5
249
100
AcDbEntity
  8
BPV_STRAIGHT_DN2
  6
CONTINUOUS
 62
         7
100
AcDbLine
 10
251.195726051
 20
196.4607739113
 30
0.0
 11
249.7508623223
 21
196.4607739113
 31
0.0
  0
LINE
  5
24A
100
AcDbEntity
  8
BPV_STRAIGHT_DN2
  6
CONTINUOUS
 62
         7
100
AcDbLine
 10
238.2508623223
 20
188.9870533529
 30
0.0
 11
238.2508623223
 21
169.9344944697
 31
0.0
  0
LINE
  5
24B
100
AcDbEntity
  8
BPV_STRAIGHT_DN2
  6
CONTINUOUS
 62
         7
100
AcDbLine
 10
220.9758715747
 20
197.9607739113
 30
0.0
 11
218.3777953634
 21
197.9607739113
 31
0.0
  0
LINE
  5
24C
100
AcDbEntity
  8
BPV_STRAIGHT_DN2
  6
CONTINUOUS
 62
         7
100
AcDbLine
 10
212.9636934065
 20
194.4607739113
 30
0.0
 11
204.5213889028
 21
194.4607739113
 31
0.0
  0
LINE
  5
24D
100
AcDbEntity
  8
BPV_STRAIGHT_DN2
  6
CONTINUOUS
 62
         7
100
AcDbLine
 10
215.6786828549
 20
194.5659606585
 30
0.0
 11
215.6498153415
 21
194.5251358294
 31
0.0
  0
LINE
  5
24E
100
AcDbEntity
  8
BPV_STRAIGHT_DN2
  6
CONTINUOUS
 62
         7
100
AcDbLine
 10
226.3974734983
 20
162.018806642
 30
0.0
 11
226.668956214
 21
162.2107739113
 31
0.0
  0
LINE
  5
24F
100
AcDbEntity
  8
BPV_STRAIGHT_DN2
  6
CONTINUOUS
 62
         7
100
AcDbLine
 10
221.0191728449
 20
160.9607739113
 30
0.0
 11
223.314140165
 21
160.9607739113
 31
0.0
  0
LINE
  5
250
100
AcDbEntity
  8
BPV_STRAIGHT_DN2
  6
CONTINUOUS
 62
         7
100
AcDbLine
 10
249.7508623223
 20
162.4607739113
 30
0.0
 11
251.195726051
 21
162.4607739113
 31
0.0
  0
LINE
  5
251
100
AcDbEntity
  8
BPV_STRAIGHT_DN2
  6
CONTINUOUS
 62
         7
100
AcDbLine
 10
225.189140165
 20
162.2107739113
 30
0.0
 11
238.2963796504
 21
162.2107739113
 31
0.0
  0
ELLIPSE
  5
252
100
AcDbEntity
  8
BPV_STRAIGHT_DN2
  6
CONTINUOUS
 62
         7
100
AcDbEllipse
 10
251.4162842802
 20
179.4607739113
 30
0.0
 11
-32.999999999999993
 21
0.000000000000002
 31
0.0
210
0.0
220
0.0
230
1.0
 40
0.5
 41
4.7460858702507185
 42
4.7628777600078607
  0
LINE
  5
253
100
AcDbEntity
  8
BPV_STRAIGHT_DN2
  6
CONTINUOUS
 62
         7
100
AcDbLine
 10
218.3777953634
 20
160.9607739113
 30
0.0
 11
220.9758715747
 21
160.9607739113
 31
0.0
  0
ELLIPSE
  5
254
100
AcDbEntity
  8
BPV_STRAIGHT_DN2
  6
CONTINUOUS
 62
         7
100
AcDbEllipse
 10
251.4162842802
 20
179.4607739113
 30
0.0
 11
-32.999999999999993
 21
0.000000000000002
 31
0.0
210
0.0
220
0.0
230
1.0
 40
0.5
 41
1.520307547171726
 42
1.5370994369288675
  0
LINE
  5
255
100
AcDbEntity
  8
BPV_STRAIGHT_DN2
  6
CONTINUOUS
 62
         7
100
AcDbLine
 10
204.5213889028
 20
164.4607739113
 30
0.0
 11
212.9636934065
 21
164.4607739113
 31
0.0
  0
LINE
  5
256
100
AcDbEntity
  8
BPV_STRAIGHT_DN2
  6
CONTINUOUS
 62
         7
100
AcDbLine
 10
215.6498153415
 20
164.3964119932
 30
0.0
 11
215.6786828549
 21
164.3555871641
 31
0.0
  0
LINE
  5
257
100
AcDbEntity
  8
BPV_STRAIGHT_DN2
  6
CONTINUOUS
 62
         7
100
AcDbLine
 10
226.668956214
 20
196.7107739113
 30
0.0
 11
226.3974734983
 21
196.9027411806
 31
0.0
  0
LINE
  5
258
100
AcDbEntity
  8
BPV_STRAIGHT_DN2
  6
CONTINUOUS
 62
         7
100
AcDbLine
 10
223.314140165
 20
197.9607739113
 30
0.0
 11
221.0191728449
 21
197.9607739113
 31
0.0
  0
ELLIPSE
  5
259
100
AcDbEntity
  8
BPV_STRAIGHT_DN2
  6
CONTINUOUS
 62
         7
100
AcDbEllipse
 10
233.8836282996
 20
179.4607739078
 30
0.0
 11
41.747727184160446
 21
0.000000000083005
 31
0.0
210
0.0
220
0.0
230
1.0
 40
0.4131961466
 41
1.5089434213861579
 42
1.5107824042235047
  0
ELLIPSE
  5
25A
100
AcDbEntity
  8
BPV_STRAIGHT_DN2
  6
CONTINUOUS
 62
         7
100
AcDbEllipse
 10
236.9973415448
 20
179.460773911
 30
0.0
 11
-0.0000000000030334
 21
-17.250000000287038
 31
0.0
210
0.0
220
0.0
230
1.0
 40
0.5
 41
3.1415926535897931
 42
3.2034455589998476
  0
LINE
  5
25B
100
AcDbEntity
  8
BPV_STRAIGHT_DN2
  6
CONTINUOUS
 62
         7
100
AcDbLine
 10
230.9662713768
 20
196.7107739113
 30
0.0
 11
225.189140165
 21
196.7107739113
 31
0.0
  0
LINE
  5
25C
100
AcDbEntity
  8
BPV_STRAIGHT_DN2
  6
CONTINUOUS
 62
         7
100
AcDbLine
 10
232.5084390157
 20
196.4967411017
 30
0.0
 11
235.642874686
 21
196.4967411018
 31
0.0
  0
ELLIPSE
  5
25D
100
AcDbEntity
  8
BPV_STRAIGHT_DN2
  6
CONTINUOUS
 62
         7
100
AcDbEllipse
 10
233.8629058755
 20
179.4607739017
 30
0.0
 11
-0.0000000012325026
 21
17.250000009590128
 31
0.0
210
0.0
220
0.0
230
1.0
 40
0.4999999999
 41
0.1576923766630475
 42
0.2225071128023446
  0
ELLIPSE
  5
25E
100
AcDbEntity
  8
BPV_STRAIGHT_DN2
  6
CONTINUOUS
 62
         7
100
AcDbEllipse
 10
222.617989531
 20
179.4607733496
 30
0.0
 11
42.331767333772255
 21
0.0000001403933492
 31
0.0
210
0.0
220
0.0
230
1.0
 40
0.4074954023
 41
1.3482892093526404
 42
1.3722842937334392
  0
LINE
  5
25F
100
AcDbEntity
  8
BPV_STRAIGHT_DN2
  6
CONTINUOUS
 62
         7
100
AcDbLine
 10
233.6572469801
 20
197.1688289168
 30
0.0
 11
233.6572469801
 21
197.2060075721
 31
0.0
  0
LINE
  5
260
100
AcDbEntity
  8
BPV_STRAIGHT_DN2
  6
CONTINUOUS
 62
         7
100
AcDbLine
 10
236.3875694724
 20
196.6676101132
 30
0.0
 11
236.3875694724
 21
197.1688289168
 31
0.0
  0
LINE
  5
261
100
AcDbEntity
  8
BPV_STRAIGHT_DN2
  6
CONTINUOUS
 62
         7
100
AcDbLine
 10
230.9662713768
 20
196.3720030097
 30
0.0
 11
230.9662713768
 21
196.8817288109
 31
0.0
  0
LINE
  5
262
100
AcDbEntity
  8
BPV_STRAIGHT_DN2
  6
CONTINUOUS
 62
         7
100
AcDbLine
 10
231.9595786542
 20
196.2855140867
 30
0.0
 11
231.9595786542
 21
196.7977829374
 31
0.0
  0
LINE
  5
263
100
AcDbEntity
  8
BPV_STRAIGHT_DN2
  6
CONTINUOUS
 62
         7
100
AcDbLine
 10
232.5084390157
 20
196.4967411017
 30
0.0
 11
232.5084390157
 21
197.0028427207
 31
0.0
  0
ELLIPSE
  5
264
100
AcDbEntity
  8
BPV_STRAIGHT_DN2
  6
CONTINUOUS
 62
         7
100
AcDbEllipse
 10
236.9973415448
 20
179.460773911
 30
0.0
 11
-0.0000000000197539
 21
17.750000000327404
 31
0.0
210
0.0
220
0.0
230
1.0
 40
0.5
 41
0.0687608838179035
 42
0.153214727190755
  0
ELLIPSE
  5
265
100
AcDbEntity
  8
BPV_STRAIGHT_DN2
  6
CONTINUOUS
 62
         7
100
AcDbEllipse
 10
228.6223161375
 20
179.460773931
 30
0.0
 11
73.20863127536785
 21
-0.0000000022122418
 31
0.0
210
0.0
220
0.0
230
1.0
 40
0.2424577495
 41
1.4402446554167321
 42
1.4464321899000363
  0
ELLIPSE
  5
266
100
AcDbEntity
  8
BPV_STRAIGHT_DN2
  6
CONTINUOUS
 62
         7
100
AcDbEllipse
 10
236.9973415446
 20
179.4607739092
 30
0.0
 11
0.0000000002445971
 21
17.75000000209155
 31
0.0
210
0.0
220
0.0
230
1.0
 40
0.5
 41
6.0622843958286978
 42
6.1526336357647233
  0
ELLIPSE
  5
267
100
AcDbEntity
  8
BPV_STRAIGHT_DN2
  6
CONTINUOUS
 62
         7
100
AcDbEllipse
 10
233.8836282998
 20
179.460773914
 30
0.0
 11
42.957806225373695
 21
-0.0000000000433729
 31
0.0
210
0.0
220
0.0
230
1.0
 40
0.4131961466
 41
1.510687888733621
 42
1.5849937036058526
  0
ELLIPSE
  5
268
100
AcDbEntity
  8
BPV_STRAIGHT_DN2
  6
CONTINUOUS
 62
         7
100
AcDbEllipse
 10
236.9973415448
 20
179.4607739114
 30
0.0
 11
0.0000000000013798
 21
-17.749999999890647
 31
0.0
210
0.0
220
0.0
230
1.0
 40
0.5
 41
3.0619533553559113
 42
3.2017010916495461
  0
LINE
  5
269
100
AcDbEntity
  8
BPV_STRAIGHT_DN2
  6
CONTINUOUS
 62
         7
100
AcDbLine
 10
238.9419315369
 20
196.6623886915
 30
0.0
 11
238.9419315369
 21
196.7794568592
 31
0.0
  0
LINE
  5
26A
100
AcDbEntity
  8
BPV_STRAIGHT_DN2
  6
CONTINUOUS
 62
         7
100
AcDbLine
 10
238.1526991554
 20
196.7107739113
 30
0.0
 11
238.1526991554
 21
197.0597254473
 31
0.0
  0
LINE
  5
26B
100
AcDbEntity
  8
BPV_STRAIGHT_DN2
  6
CONTINUOUS
 62
         7
100
AcDbLine
 10
237.703393418
 20
196.7107739113
 30
0.0
 11
237.703393418
 21
197.1545146975
 31
0.0
  0
LINE
  5
26C
100
AcDbEntity
  8
BPV_STRAIGHT_DN2
  6
CONTINUOUS
 62
         7
100
AcDbLine
 10
236.4642003344
 20
196.6777870611
 30
0.0
 11
236.4642003344
 21
197.1787179737
 31
0.0
  0
LINE
  5
26D
100
AcDbEntity
  8
BPV_STRAIGHT_DN2
  6
CONTINUOUS
 62
         7
100
AcDbLine
 10
249.7508623223
 20
162.4811804996
 30
0.0
 11
249.7508623223
 21
162.4607739113
 31
0.0
  0
LINE
  5
26E
100
AcDbEntity
  8
BPV_STRAIGHT_DN2
  6
CONTINUOUS
 62
         7
100
AcDbLine
 10
249.7508623223
 20
162.9817996585
 30
0.0
 11
249.7508623223
 21
162.4811804996
 31
0.0
  0
LINE
  5
26F
100
AcDbEntity
  8
BPV_STRAIGHT_DN2
  6
CONTINUOUS
 62
         7
100
AcDbLine
 10
249.7508623223
 20
196.4607739113
 30
0.0
 11
249.7508623223
 21
196.440367323
 31
0.0
  0
ELLIPSE
  5
270
100
AcDbEntity
  8
BPV_STRAIGHT_DN2
  6
CONTINUOUS
 62
         7
100
AcDbEllipse
 10
251.4162842802
 20
179.4607739113
 30
0.0
 11
-34.000000000000007
 21
0.0000000000000021
 31
0.0
210
0.0
220
0.0
230
1.0
 40
0.5
 41
4.7190674582194374
 42
4.7613915880887694
  0
ELLIPSE
  5
271
100
AcDbEntity
  8
BPV_STRAIGHT_DN2
  6
CONTINUOUS
 62
         7
100
AcDbEllipse
 10
251.4162842802
 20
179.4607739113
 30
0.0
 11
-34.000000000000007
 21
0.0000000000000021
 31
0.0
210
0.0
220
0.0
230
1.0
 40
0.5
 41
1.5217937190908164
 42
1.564117848960149
  0
LINE
  5
272
100
AcDbEntity
  8
BPV_STRAIGHT_DN2
  6
CONTINUOUS
 62
         7
100
AcDbLine
 10
238.2963796504
 20
196.7107739113
 30
0.0
 11
236.9973415448
 21
196.7107739113
 31
0.0
  0
LINE
  5
273
100
AcDbEntity
  8
BPV_STRAIGHT_DN2
  6
CONTINUOUS
 62
         7
100
AcDbLine
 10
249.7508623223
 20
195.9397481641
 30
0.0
 11
249.7508623223
 21
196.440367323
 31
0.0
  0
LINE
  5
274
100
AcDbEntity
  8
BPV_STRAIGHT_DN2
  6
CONTINUOUS
 62
         7
100
AcDbLine
 10
198.0213889028
 20
171.9774591378
 30
0.0
 11
204.9495921331
 21
171.9774591378
 31
0.0
  0
LINE
  5
275
100
AcDbEntity
  8
BPV_STRAIGHT_DN2
  6
CONTINUOUS
 62
         7
100
AcDbLine
 10
204.9495921331
 20
186.9440886848
 30
0.0
 11
198.0213889028
 21
186.9440886848
 31
0.0
  0
ELLIPSE
  5
276
100
AcDbEntity
  8
BPV_STRAIGHT_DN2
  6
CONTINUOUS
 62
         7
100
AcDbEllipse
 10
208.4329316347
 20
179.4607739113
 30
0.0
 11
-0.0000000000000009
 21
-14.999999999996827
 31
0.0
210
0.0
220
0.0
230
1.0
 40
0.2679491924
 41
4.1900741585790051
 42
5.2347038021903716
  0
ELLIPSE
  5
277
100
AcDbEntity
  8
BPV_STRAIGHT_DN2
  6
CONTINUOUS
 62
         7
100
AcDbEllipse
 10
202.7893380953
 20
179.4607739113
 30
0.0
 11
0.0000000000000008
 21
13.000000000000016
 31
0.0
210
0.0
220
0.0
230
1.0
 40
0.5
 41
1.5707963267948966
 42
2.5261129449188391
  0
ELLIPSE
  5
278
100
AcDbEntity
  8
BPV_STRAIGHT_DN2
  6
CONTINUOUS
 62
         7
100
AcDbEllipse
 10
220.9758715747
 20
179.4607739113
 30
0.0
 11
-0.0000000000000011
 21
-18.45000000000945
 31
0.0
210
0.0
220
0.0
230
1.0
 40
0.5
 41
3.7570723622603244
 42
5.6677055985090545
  0
ELLIPSE
  5
279
100
AcDbEntity
  8
BPV_STRAIGHT_DN2
  6
CONTINUOUS
 62
         7
100
AcDbEllipse
 10
202.7893380953
 20
179.4607739113
 30
0.0
 11
-0.0000000000000008
 21
-13.000000000003853
 31
0.0
210
0.0
220
0.0
230
1.0
 40
0.5
 41
3.7570723622611641
 42
4.7123889803846897
  0
ELLIPSE
  5
27A
100
AcDbEntity
  8
BPV_STRAIGHT_DN2
  6
CONTINUOUS
 62
         7
100
AcDbEllipse
 10
221.0191728449
 20
179.4607739113
 30
0.0
 11
-0.0000000000000011
 21
-18.500000000000004
 31
0.0
210
0.0
220
0.0
230
1.0
 40
0.5
 41
3.1415926535897931
 42
6.2831853071795862
  0
ELLIPSE
  5
27B
100
AcDbEntity
  8
BPV_STRAIGHT_DN2
  6
CONTINUOUS
 62
         7
100
AcDbEllipse
 10
223.314140165
 20
179.4607739113
 30
0.0
 11
-0.0000000000000011
 21
-18.500000000000004
 31
0.0
210
0.0
220
0.0
230
1.0
 40
0.5
 41
0.0000000000000001
 42
0.339836909454124
  0
ELLIPSE
  5
27C
100
AcDbEntity
  8
BPV_STRAIGHT_DN2
  6
CONTINUOUS
 62
         7
100
AcDbEllipse
 10
223.314140165
 20
179.4607739113
 30
0.0
 11
-0.0000000000000011
 21
-18.500000000000004
 31
0.0
210
0.0
220
0.0
230
1.0
 40
0.5
 41
2.8017557441356691
 42
6.2831853071795862
  0
ELLIPSE
  5
27D
100
AcDbEntity
  8
BPV_STRAIGHT_DN2
  6
CONTINUOUS
 62
         7
100
AcDbEllipse
 10
225.189140165
 20
179.4607739113
 30
0.0
 11
-0.0000000000000045
 21
-17.250000000000007
 31
0.0
210
0.0
220
0.0
230
1.0
 40
0.5
 41
3.1415926535897931
 42
6.2831853071795836
  0
ELLIPSE
  5
27E
100
AcDbEntity
  8
BPV_STRAIGHT_DN2
  6
CONTINUOUS
 62
         7
100
AcDbEllipse
 10
238.2963796504
 20
179.4607739113
 30
0.0
 11
0.0000000000000045
 21
17.249999999999982
 31
0.0
210
0.0
220
0.0
230
1.0
 40
0.5
 41
-0.2959629214975705
 42
3.4375555750873605
  0
ELLIPSE
  5
27F
100
AcDbEntity
  8
BPV_STRAIGHT_DN2
  6
CONTINUOUS
 62
         7
100
AcDbEllipse
 10
239.4213796504
 20
179.4607739113
 30
0.0
 11
-0.0000000000000025
 21
16.5
 31
0.0
210
0.0
220
0.0
230
1.0
 40
0.5
 41
-0.0000000000000038
 42
3.1415926535897958
  0
LINE
  5
280
100
AcDbEntity
  8
BPV_STRAIGHT_DN2
  6
CONTINUOUS
 62
         7
100
AcDbLine
 10
238.2508623223
 20
169.9344944697
 30
0.0
 11
254.7508623223
 21
160.408215028
 31
0.0
  0
LINE
  5
281
100
AcDbEntity
  8
BPV_STRAIGHT_DN2
  6
CONTINUOUS
 62
         7
100
AcDbLine
 10
254.7508623223
 20
160.408215028
 30
0.0
 11
271.2508623223
 21
169.9344944697
 31
0.0
  0
LINE
  5
282
100
AcDbEntity
  8
BPV_STRAIGHT_DN2
  6
CONTINUOUS
 62
         7
100
AcDbLine
 10
271.2508623223
 20
169.9344944697
 30
0.0
 11
271.2508623223
 21
188.9870533529
 31
0.0
  0
LINE
  5
283
100
AcDbEntity
  8
BPV_STRAIGHT_DN2
  6
CONTINUOUS
 62
         7
100
AcDbLine
 10
271.2508623223
 20
188.9870533529
 30
0.0
 11
254.7508623223
 21
198.5133327946
 31
0.0
  0
LINE
  5
284
100
AcDbEntity
  8
BPV_STRAIGHT_DN2
  6
CONTINUOUS
 62
         7
100
AcDbLine
 10
254.7508623223
 20
198.5133327946
 30
0.0
 11
238.2508623223
 21
188.9870533529
 31
0.0
  0
CIRCLE
  5
285
100
AcDbEntity
  8
BPV_STRAIGHT_DN2
  6
CONTINUOUS
 62
         7
100
AcDbCircle
 10
254.7508623223
 20
179.4607739113
 30
0.0
 40
15.75
  0
LINE
  5
286
100
AcDbEntity
  8
BPV_STRAIGHT_DN2
  6
CONTINUOUS
 62
         7
100
AcDbLine
 10
200.1912618839
 20
191.7082226252
 30
0.0
 11
199.0365613455
 21
190.0752294634
 31
0.0
  0
LINE
  5
287
100
AcDbEntity
  8
BPV_STRAIGHT_DN2
  6
CONTINUOUS
 62
         7
100
AcDbLine
 10
199.0365613455
 20
168.8463183593
 30
0.0
 11
200.1912618839
 21
167.2133251974
 31
0.0
  0
LINE
  5
288
100
AcDbEntity
  8
BPV_STRAIGHT_DN2
  6
CONTINUOUS
 62
         7
100
AcDbLine
 10
199.758249182
 20
194.4607739113
 30
0.0
 11
198.0261983745
 21
194.4607739113
 31
0.0
  0
LINE
  5
289
100
AcDbEntity
  8
BPV_STRAIGHT_DN2
  6
CONTINUOUS
 62
         7
100
AcDbLine
 10
198.0261983745
 20
164.4607739113
 30
0.0
 11
199.758249182
 21
164.4607739113
 31
0.0
  0
LINE
  5
28A
100
AcDbEntity
  8
BPV_STRAIGHT_DN2
  6
CONTINUOUS
 62
         7
100
AcDbLine
 10
195.2941475669
 20
194.4607739113
 30
0.0
 11
192.5979951442
 21
194.4607739113
 31
0.0
  0
LINE
  5
28B
100
AcDbEntity
  8
BPV_STRAIGHT_DN2
  6
CONTINUOUS
 62
         7
100
AcDbLine
 10
192.5979951442
 20
164.4607739113
 30
0.0
 11
195.2941475669
 21
164.4607739113
 31
0.0
  0
LINE
  5
28C
100
AcDbEntity
  8
BPV_STRAIGHT_DN2
  6
CONTINUOUS
 62
         7
100
AcDbLine
 10
200.7797315161
 20
192.4607739113
 30
0.0
 11
199.758249182
 21
192.4607739113
 31
0.0
  0
LINE
  5
28D
100
AcDbEntity
  8
BPV_STRAIGHT_DN2
  6
CONTINUOUS
 62
         7
100
AcDbLine
 10
188.7564866891
 20
191.4607739113
 30
0.0
 11
166.4162711363
 21
191.4607739113
 31
0.0
  0
LINE
  5
28E
100
AcDbEntity
  8
BPV_STRAIGHT_DN2
  6
CONTINUOUS
 62
         7
100
AcDbLine
 10
239.4213796504
 20
162.9607739113
 30
0.0
 11
249.7508623223
 21
162.9607739113
 31
0.0
  0
ARC
  5
28F
100
AcDbEntity
  8
BPV_STRAIGHT_DN2
  6
CONTINUOUS
 62
         7
100
AcDbCircle
 10
186.5651352554
 20
180.6697347129
 30
0.0
 40
16.5858546528
100
AcDbArc
 50
51.6986009615
 51
56.0077826242
  0
LINE
  5
290
100
AcDbEntity
  8
BPV_STRAIGHT_DN2
  6
CONTINUOUS
 62
         7
100
AcDbLine
 10
200.3020612688
 20
194.4212910701
 30
0.0
 11
201.4259151952
 21
193.1235763362
 31
0.0
  0
LINE
  5
291
100
AcDbEntity
  8
BPV_STRAIGHT_DN2
  6
CONTINUOUS
 62
         7
100
AcDbLine
 10
236.3875694724
 20
197.1688289168
 30
0.0
 11
233.2531338022
 21
197.1688289168
 31
0.0
  0
ELLIPSE
  5
292
100
AcDbEntity
  8
BPV_STRAIGHT_DN2
  6
CONTINUOUS
 62
         7
100
AcDbEllipse
 10
233.8629058748
 20
179.4607738997
 30
0.0
 11
-0.000000000379088
 21
17.750000011564495
 31
0.0
210
0.0
220
0.0
230
1.0
 40
0.4999999998
 41
0.0231749075492256
 42
0.0687608837860317
  0
LINE
  5
293
100
AcDbEntity
  8
BPV_STRAIGHT_DN2
  6
CONTINUOUS
 62
         7
100
AcDbLine
 10
199.758249182
 20
166.4607739113
 30
0.0
 11
200.7797315161
 21
166.4607739113
 31
0.0
  0
LINE
  5
294
100
AcDbEntity
  8
BPV_STRAIGHT_DN2
  6
CONTINUOUS
 62
         7
100
AcDbLine
 10
235.642874686
 20
196.4967411018
 30
0.0
 11
235.642874686
 21
197.0028427207
 31
0.0
  0
LINE
  5
295
100
AcDbEntity
  8
BPV_STRAIGHT_DN2
  6
CONTINUOUS
 62
         7
100
AcDbLine
 10
232.5084390157
 20
197.0028427207
 30
0.0
 11
235.642874686
 21
197.0028427207
 31
0.0
  0
ELLIPSE
  5
296
100
AcDbEntity
  8
BPV_STRAIGHT_DN2
  6
CONTINUOUS
 62
         7
100
AcDbEllipse
 10
232.6672145378
 20
179.4607743312
 30
0.0
 11
42.723841108319753
 21
-0.0000000071527053
 31
0.0
210
0.0
220
0.0
230
1.0
 40
0.4154588895
 41
1.5476214193036761
 42
1.5707963271452006
  0
ELLIPSE
  5
297
100
AcDbEntity
  8
BPV_STRAIGHT_DN2
  6
CONTINUOUS
 62
         7
100
AcDbEllipse
 10
232.6672145258
 20
179.4607739112
 30
0.0
 11
-0.0000000000049637
 21
17.750000000052498
 31
0.0
210
0.0
220
0.0
230
1.0
 40
0.5
 41
0.0
 42
0.1928487058458183
  0
ELLIPSE
  5
298
100
AcDbEntity
  8
BPV_STRAIGHT_DN2
  6
CONTINUOUS
 62
         7
100
AcDbEllipse
 10
222.6179896305
 20
179.4607735318
 30
0.0
 11
43.558774821469726
 21
0.0000000931833046
 31
0.0
210
0.0
220
0.0
230
1.0
 40
0.4074954002
 41
1.3546580002635855
 42
1.3779476177485035
  0
ELLIPSE
  5
299
100
AcDbEntity
  8
BPV_STRAIGHT_DN2
  6
CONTINUOUS
 62
         7
100
AcDbEllipse
 10
233.8629058735
 20
179.4607739221
 30
0.0
 11
0.000000001314297
 21
17.749999989292551
 31
0.0
210
0.0
220
0.0
230
1.0
 40
0.5000000001
 41
0.1532147272757553
 42
0.2161383236879829
  0
LINE
  5
29A
100
AcDbEntity
  8
BPV_STRAIGHT_DN2
  6
CONTINUOUS
 62
         7
100
AcDbLine
 10
166.4162711363
 20
167.4607739113
 30
0.0
 11
188.755376678
 21
167.4607739113
 31
0.0
  0
LINE
  5
29B
100
AcDbEntity
  8
BPV_STRAIGHT_DN2
  6
CONTINUOUS
 62
         7
100
AcDbLine
 10
249.7508623223
 20
195.9607739113
 30
0.0
 11
239.4213796504
 21
195.9607739113
 31
0.0
  0
ELLIPSE
  5
29C
100
AcDbEntity
  8
BPV_STRAIGHT_DN2
  6
CONTINUOUS
 62
         7
100
AcDbEllipse
 10
199.758249182
 20
179.4607739113
 30
0.0
 11
-0.0000000000008613
 21
-15.000000000006615
 31
0.0
210
0.0
220
0.0
230
1.0
 40
0.5
 41
3.0690206897878105
 42
3.2141646173918308
  0
ELLIPSE
  5
29D
100
AcDbEntity
  8
BPV_STRAIGHT_DN2
  6
CONTINUOUS
 62
         7
100
AcDbEllipse
 10
199.7582491821
 20
179.4607739112
 30
0.0
 11
-0.0000000000394051
 21
15.000000000084745
 31
0.0
210
0.0
220
0.0
230
1.0
 40
0.5
 41
0.9746255873915219
 42
1.1197695149949425
  0
ELLIPSE
  5
29E
100
AcDbEntity
  8
BPV_STRAIGHT_DN2
  6
CONTINUOUS
 62
         7
100
AcDbEllipse
 10
199.7582491821
 20
179.4607739114
 30
0.0
 11
-0.0000000000466164
 21
-15.000000000100274
 31
0.0
210
0.0
220
0.0
230
1.0
 40
0.5
 41
5.1634157921851935
 42
5.3085597197884908
  0
ELLIPSE
  5
29F
100
AcDbEntity
  8
BPV_STRAIGHT_DN2
  6
CONTINUOUS
 62
         7
100
AcDbEllipse
 10
198.0261983745
 20
179.4607739114
 30
0.0
 11
0.000000000000013
 21
-14.999999999876643
 31
0.0
210
0.0
220
0.0
230
1.0
 40
0.5
 41
3.1415926535897931
 42
3.214164617392143
  0
ELLIPSE
  5
2A0
100
AcDbEntity
  8
BPV_STRAIGHT_DN2
  6
CONTINUOUS
 62
         7
100
AcDbEllipse
 10
198.0261983745
 20
179.4607739112
 30
0.0
 11
-0.0000000000507848
 21
15.000000000108809
 31
0.0
210
0.0
220
0.0
230
1.0
 40
0.5
 41
0.9746255873907589
 42
1.1197695149939864
  0
ELLIPSE
  5
2A1
100
AcDbEntity
  8
BPV_STRAIGHT_DN2
  6
CONTINUOUS
 62
         7
100
AcDbEllipse
 10
198.0261983744
 20
179.4607739112
 30
0.0
 11
0.0000000000589242
 21
-14.999999999871603
 31
0.0
210
0.0
220
0.0
230
1.0
 40
0.5
 41
5.1634157921755071
 42
5.3085597197805638
  0
LINE
  5
2A2
100
AcDbEntity
  8
BPV_STRAIGHT_DN2
  6
CONTINUOUS
 62
         7
100
AcDbLine
 10
191.8200104612
 20
171.0386051679
 30
0.0
 11
197.4823862877
 21
164.5002567526
 31
0.0
  0
ELLIPSE
  5
2A3
100
AcDbEntity
  8
BPV_STRAIGHT_DN2
  6
CONTINUOUS
 62
         7
100
AcDbEllipse
 10
192.5979951442
 20
179.4607739112
 30
0.0
 11
-0.0000000000017426
 21
-15.000000000137083
 31
0.0
210
0.0
220
0.0
230
1.0
 40
0.5
 41
3.1415926535897931
 42
3.2141646173915825
  0
ARC
  5
2A4
100
AcDbEntity
  8
BPV_STRAIGHT_DN2
  6
CONTINUOUS
 62
         7
100
AcDbCircle
 10
201.3270074557
 20
180.6697347129
 30
0.0
 40
16.5858546528
100
AcDbArc
 50
123.9922173758
 51
154.220993326
  0
ARC
  5
2A5
100
AcDbEntity
  8
BPV_STRAIGHT_DN2
  6
CONTINUOUS
 62
         7
100
AcDbCircle
 10
213.9729955241
 20
179.4607739113
 30
0.0
 40
28.87500037
100
AcDbArc
 50
166.9126475061
 51
193.0873524939
  0
ELLIPSE
  5
2A6
100
AcDbEntity
  8
BPV_STRAIGHT_DN2
  6
CONTINUOUS
 62
         7
100
AcDbEllipse
 10
195.2941475669
 20
179.4607739115
 30
0.0
 11
0.0000000000008942
 21
-14.999999999791807
 31
0.0
210
0.0
220
0.0
230
1.0
 40
0.5
 41
3.0690206897872057
 42
3.2141646173923224
  0
ELLIPSE
  5
2A7
100
AcDbEntity
  8
BPV_STRAIGHT_DN2
  6
CONTINUOUS
 62
         7
100
AcDbEllipse
 10
195.2941475669
 20
179.4607739113
 30
0.0
 11
-0.0000000000274702
 21
15.000000000060098
 31
0.0
210
0.0
220
0.0
230
1.0
 40
0.5
 41
0.9746255873924261
 42
1.1197695149960349
  0
ELLIPSE
  5
2A8
100
AcDbEntity
  8
BPV_STRAIGHT_DN2
  6
CONTINUOUS
 62
         7
100
AcDbEllipse
 10
195.294147567
 20
179.4607739115
 30
0.0
 11
-0.0000000001038345
 21
-15.000000000222963
 31
0.0
210
0.0
220
0.0
230
1.0
 40
0.5
 41
5.1634157921903965
 42
5.3085597197927292
  0
ARC
  5
2A9
100
AcDbEntity
  8
BPV_STRAIGHT_DN2
  6
CONTINUOUS
 62
         7
100
AcDbCircle
 10
214.6621183326
 20
179.1504049214
 30
0.0
 40
18.3754015618
100
AcDbArc
 50
154.903962981
 51
179.0322018923
  0
ARC
  5
2AA
100
AcDbEntity
  8
BPV_STRAIGHT_DN2
  6
CONTINUOUS
 62
         7
100
AcDbCircle
 10
214.9896835715
 20
179.8469595218
 30
0.0
 40
18.70433266
100
AcDbArc
 50
181.1830616132
 51
204.8807735134
  0
ELLIPSE
  5
2AB
100
AcDbEntity
  8
BPV_STRAIGHT_DN2
  6
CONTINUOUS
 62
         7
100
AcDbEllipse
 10
218.3777953634
 20
179.4607739113
 30
0.0
 11
-0.0000000000000011
 21
-18.500000000000007
 31
0.0
210
0.0
220
0.0
230
1.0
 40
0.5
 41
3.1415926535897931
 42
6.2831853071795862
  0
ELLIPSE
  5
2AC
100
AcDbEntity
  8
BPV_STRAIGHT_DN2
  6
CONTINUOUS
 62
         7
100
AcDbEllipse
 10
220.9758715747
 20
179.4607739113
 30
0.0
 11
-0.0000000000000011
 21
-18.500000000000007
 31
0.0
210
0.0
220
0.0
230
1.0
 40
0.5
 41
0.0000000000000001
 42
0.0023406100983012
  0
ELLIPSE
  5
2AD
100
AcDbEntity
  8
BPV_STRAIGHT_DN2
  6
CONTINUOUS
 62
         7
100
AcDbEllipse
 10
220.9758715747
 20
179.4607739113
 30
0.0
 11
-0.0000000000000011
 21
-18.500000000000007
 31
0.0
210
0.0
220
0.0
230
1.0
 40
0.5
 41
3.1392520434914921
 42
6.2831853071795862
  0
ELLIPSE
  5
2AE
100
AcDbEntity
  8
BPV_STRAIGHT_DN2
  6
CONTINUOUS
 62
         7
100
AcDbEllipse
 10
204.5213889028
 20
179.4607739113
 30
0.0
 11
0.0000000000000079
 21
14.999999999997046
 31
0.0
210
0.0
220
0.0
230
1.0
 40
0.5
 41
2.0931111486005993
 42
3.1415926535897931
  0
ELLIPSE
  5
2AF
100
AcDbEntity
  8
BPV_STRAIGHT_DN2
  6
CONTINUOUS
 62
         7
100
AcDbEllipse
 10
204.5213889028
 20
179.4607739113
 30
0.0
 11
-0.0000000000000009
 21
-14.999999999996813
 31
0.0
210
0.0
220
0.0
230
1.0
 40
0.5
 41
3.1415926535897896
 42
4.1900741585790069
  0
ENDBLK
  5
2B0
100
AcDbEntity
  8
BPV_STRAIGHT_DN2
  6
CONTINUOUS
 62
         7
100
AcDbBlockEnd
  0
ENDSEC
  0
SECTION
  2
ENTITIES
  0
INSERT
  5
3A
102
{ACAD_XDICTIONARY
360
3B
102
}
100
AcDbEntity
  8
0
 62
         0
 48
0.0
100
AcDbBlockReference
  2
SE1
 10
0.0
 20
0.0
 30
0.0
  0
INSERT
  5
3E
100
AcDbEntity
  8
0
 62
         0
 48
0.0
100
AcDbBlockReference
  2
SE0
 10
0.0
 20
0.0
 30
0.0
  0
INSERT
  5
41
102
{ACAD_XDICTIONARY
360
42
102
}
100
AcDbEntity
  8
0
 62
         0
 48
0.0
100
AcDbBlockReference
  2
SE3
 10
0.0
 20
0.0
 30
0.0
  0
INSERT
  5
45
100
AcDbEntity
  8
0
 62
         0
 48
0.0
100
AcDbBlockReference
  2
SE2
 10
0.0
 20
0.0
 30
0.0
  0
INSERT
  5
48
102
{ACAD_XDICTIONARY
360
49
102
}
100
AcDbEntity
  8
0
 62
         0
 48
0.0
100
AcDbBlockReference
  2
SE5
 10
0.0
 20
0.0
 30
0.0
  0
INSERT
  5
4C
100
AcDbEntity
  8
0
 62
         0
 48
0.0
100
AcDbBlockReference
  2
SE4
 10
0.0
 20
0.0
 30
0.0
  0
INSERT
  5
4F
102
{ACAD_XDICTIONARY
360
50
102
}
100
AcDbEntity
  8
0
 62
         0
 48
0.0
100
AcDbBlockReference
  2
SE7
 10
0.0
 20
0.0
 30
0.0
  0
INSERT
  5
53
100
AcDbEntity
  8
0
 62
         0
 48
0.0
100
AcDbBlockReference
  2
SE6
 10
0.0
 20
0.0
 30
0.0
  0
ENDSEC
  0
SECTION
  2
OBJECTS
  0
DICTIONARY
  5
19
100
AcDbDictionary
  3
ACAD_GROUP
350
1A
  3
ACAD_MLINESTYLE
350
1B
  3
ACDBVARIABLEDICTIONARY
350
2B3
  0
DICTIONARY
  5
1A
102
{ACAD_REACTORS
330
19
102
}
100
AcDbDictionary
  0
DICTIONARY
  5
1B
102
{ACAD_REACTORS
330
19
102
}
100
AcDbDictionary
  3
STANDARD
350
1C
  0
MLINESTYLE
  5
1C
102
{ACAD_REACTORS
330
1B
102
}
100
AcDbMlineStyle
  2
Standard
 70
         0
  3

 62
         0
 51
90.0
 52
90.0
 71
         2
 49
0.5
 62
       256
  6
ByLayer
 49
-0.5
 62
       256
  6
ByLayer
  0
DICTIONARY
  5
22
102
{ACAD_REACTORS
330
19
102
}
100
AcDbDictionary
  0
DICTIONARY
  5
3B
100
AcDbDictionary
  3
ACAD_FILTER
350
3C
  0
DICTIONARY
  5
3C
100
AcDbDictionary
  3
SPATIAL
350
3D
  0
SPATIAL_FILTER
  5
3D
100
AcDbFilter
100
AcDbSpatialFilter
 70
         2
 10
4.0556498961
 20
5.5509799402
 10
114.1479547415
 20
129.0855711262
210
0.0
220
0.0
230
1.0
 11
0.0
 21
0.0
 31
0.0
 71
         1
 72
         0
 73
         0
 40
1.0
 40
0.0
 40
0.0
 40
0.0
 40
0.0
 40
1.0
 40
0.0
 40
0.0
 40
0.0
 40
0.0
 40
1.0
 40
0.0
 40
1.0
 40
0.0
 40
0.0
 40
0.0
 40
0.0
 40
1.0
 40
0.0
 40
0.0
 40
0.0
 40
0.0
 40
1.0
 40
0.0
  0
DICTIONARY
  5
42
100
AcDbDictionary
  3
ACAD_FILTER
350
43
  0
DICTIONARY
  5
43
100
AcDbDictionary
  3
SPATIAL
350
44
  0
SPATIAL_FILTER
  5
44
100
AcDbFilter
100
AcDbSpatialFilter
 70
         2
 10
4.0556498961
 20
154.058215028
 10
114.1479547415
 20
204.8633327946
210
0.0
220
0.0
230
1.0
 11
0.0
 21
0.0
 31
0.0
 71
         1
 72
         0
 73
         0
 40
1.0
 40
0.0
 40
0.0
 40
0.0
 40
0.0
 40
1.0
 40
0.0
 40
0.0
 40
0.0
 40
0.0
 40
1.0
 40
0.0
 40
1.0
 40
0.0
 40
0.0
 40
0.0
 40
0.0
 40
1.0
 40
0.0
 40
0.0
 40
0.0
 40
0.0
 40
1.0
 40
0.0
  0
DICTIONARY
  5
49
100
AcDbDictionary
  3
ACAD_FILTER
350
4A
  0
DICTIONARY
  5
4A
100
AcDbDictionary
  3
SPATIAL
350
4B
  0
SPATIAL_FILTER
  5
4B
100
AcDbFilter
100
AcDbSpatialFilter
 70
         2
 10
152.0405780754
 20
5.5509799402
 10
262.1328829208
 20
129.0855711262
210
0.0
220
0.0
230
1.0
 11
0.0
 21
0.0
 31
0.0
 71
         1
 72
         0
 73
         0
 40
1.0
 40
0.0
 40
0.0
 40
0.0
 40
0.0
 40
1.0
 40
0.0
 40
0.0
 40
0.0
 40
0.0
 40
1.0
 40
0.0
 40
1.0
 40
0.0
 40
0.0
 40
0.0
 40
0.0
 40
1.0
 40
0.0
 40
0.0
 40
0.0
 40
0.0
 40
1.0
 40
0.0
  0
DICTIONARY
  5
50
100
AcDbDictionary
  3
ACAD_FILTER
350
51
  0
DICTIONARY
  5
51
100
AcDbDictionary
  3
SPATIAL
350
52
  0
SPATIAL_FILTER
  5
52
100
AcDbFilter
100
AcDbSpatialFilter
 70
         2
 10
154.0662711363
 20
154.058215028
 10
277.6008623223
 20
204.8633327946
210
0.0
220
0.0
230
1.0
 11
0.0
 21
0.0
 31
0.0
 71
         1
 72
         0
 73
         0
 40
1.0
 40
0.0
 40
0.0
 40
0.0
 40
0.0
 40
1.0
 40
0.0
 40
0.0
 40
0.0
 40
0.0
 40
1.0
 40
0.0
 40
1.0
 40
0.0
 40
0.0
 40
0.0
 40
0.0
 40
1.0
 40
0.0
 40
0.0
 40
0.0
 40
0.0
 40
1.0
 40
0.0
  0
DICTIONARY
  5
2B3
100
AcDbDictionary
  3
DIMASSOC
350
2B4
  0
DICTIONARYVAR
  5
2B4
100
DictionaryVariables
280
         0
  1
2
  0
ENDSEC
  0
EOF
