  0
SECTION
  2
HEADER
  9
$ACADVER
  1
AC1018
  9
$ACADMAINTVER
 70
   104
  9
$DWGCODEPAGE
  3
ANSI_1252
  9
$TITLE
  1
SD 80.3
  9
$CUSTOMPROPERTYTAG
  1
Manager
  9
$CUSTOMPROPERTY
  1

  9
$CUSTOMPROPERTYTAG
  1
Firma
  9
$CUSTOMPROPERTY
  1

  9
$CUSTOMPROPERTYTAG
  1
Kategorie
  9
$CUSTOMPROPERTY
  1

  9
$CUSTOMPROPERTYTAG
  1
Bauteilnummer
  9
$CUSTOMPROPERTY
  1
108457
  9
$CUSTOMPROPERTYTAG
  1
Bezeichnung
  9
$CUSTOMPROPERTY
  1

  9
$CUSTOMPROPERTYTAG
  1
Projekt
  9
$CUSTOMPROPERTY
  1
Internet 2D
  9
$CUSTOMPROPERTYTAG
  1
Konstrukteur
  9
$CUSTOMPROPERTY
  1
LTS
  9
$CUSTOMPROPERTYTAG
  1
Ingenieur
  9
$CUSTOMPROPERTY
  1

  9
$CUSTOMPROPERTYTAG
  1
Bevollmächtigter
  9
$CUSTOMPROPERTY
  1

  9
$CUSTOMPROPERTYTAG
  1
Kostenstelle
  9
$CUSTOMPROPERTY
  1

  9
$CUSTOMPROPERTYTAG
  1
Zulieferer
  9
$CUSTOMPROPERTY
  1

  9
$CUSTOMPROPERTYTAG
  1
Benutzerstatus
  9
$CUSTOMPROPERTY
  1

  9
$CUSTOMPROPERTYTAG
  1
Konstruktionsstatus
  9
$CUSTOMPROPERTY
  1
InBearbeitung
  9
$CUSTOMPROPERTYTAG
  1
Kontrolliert von
  9
$CUSTOMPROPERTY
  1
GAD
  9
$CUSTOMPROPERTYTAG
  1
Datum Überprüfung
  9
$CUSTOMPROPERTY
  1
05/28/2008
  9
$CUSTOMPROPERTYTAG
  1
Konstruktion genehmigt von
  9
$CUSTOMPROPERTY
  1
GAD
  9
$CUSTOMPROPERTYTAG
  1
Datum Konstruktionsgenehmigung
  9
$CUSTOMPROPERTY
  1
05/28/2008
  9
$CUSTOMPROPERTYTAG
  1
Fertigung genehmigt von
  9
$CUSTOMPROPERTY
  1

  9
$CUSTOMPROPERTYTAG
  1
Massstab
  9
$CUSTOMPROPERTY
  1
1:5
  9
$CUSTOMPROPERTYTAG
  1
Gewicht
  9
$CUSTOMPROPERTY
  1
15.286
  9
$CUSTOMPROPERTYTAG
  1
AeDatum1
  9
$CUSTOMPROPERTY
  1
  
  9
$CUSTOMPROPERTYTAG
  1
AeDesc1
  9
$CUSTOMPROPERTY
  1

  9
$CUSTOMPROPERTYTAG
  1
AeIDX1
  9
$CUSTOMPROPERTY
  1

  9
$CUSTOMPROPERTYTAG
  1
TolLange_Fein
  9
$CUSTOMPROPERTY
  1

  9
$CUSTOMPROPERTYTAG
  1
TolLange_Grob
  9
$CUSTOMPROPERTY
  1

  9
$CUSTOMPROPERTYTAG
  1
TolLange_Mittel
  9
$CUSTOMPROPERTY
  1
X
  9
$CUSTOMPROPERTYTAG
  1
TolWinkel_Fein
  9
$CUSTOMPROPERTY
  1

  9
$CUSTOMPROPERTYTAG
  1
TolWinkel_Grob
  9
$CUSTOMPROPERTY
  1
X
  9
$CUSTOMPROPERTYTAG
  1
ProtoTyp_NR
  9
$CUSTOMPROPERTY
  1
1
  9
$CUSTOMPROPERTYTAG
  1
AeDatum2
  9
$CUSTOMPROPERTY
  1
  
  9
$CUSTOMPROPERTYTAG
  1
AeDatum3
  9
$CUSTOMPROPERTY
  1
  
  9
$CUSTOMPROPERTYTAG
  1
AeDatum4
  9
$CUSTOMPROPERTY
  1
  
  9
$CUSTOMPROPERTYTAG
  1
AeDatum5
  9
$CUSTOMPROPERTY
  1
  
  9
$CUSTOMPROPERTYTAG
  1
AeDesc2
  9
$CUSTOMPROPERTY
  1

  9
$CUSTOMPROPERTYTAG
  1
AeDesc3
  9
$CUSTOMPROPERTY
  1

  9
$CUSTOMPROPERTYTAG
  1
AeDesc4
  9
$CUSTOMPROPERTY
  1

  9
$CUSTOMPROPERTYTAG
  1
AeDesc5
  9
$CUSTOMPROPERTY
  1

  9
$CUSTOMPROPERTYTAG
  1
AeIDX2
  9
$CUSTOMPROPERTY
  1

  9
$CUSTOMPROPERTYTAG
  1
AeIDX3
  9
$CUSTOMPROPERTY
  1

  9
$CUSTOMPROPERTYTAG
  1
AeIDX4
  9
$CUSTOMPROPERTY
  1

  9
$CUSTOMPROPERTYTAG
  1
AeIDX5
  9
$CUSTOMPROPERTY
  1

  9
$CUSTOMPROPERTYTAG
  1
Fachgeprüft_am
  9
$CUSTOMPROPERTY
  1
  .  .    
  9
$CUSTOMPROPERTYTAG
  1
Fachgeprüft_von
  9
$CUSTOMPROPERTY
  1

  9
$CUSTOMPROPERTYTAG
  1
ZeichnungsNummer
  9
$CUSTOMPROPERTY
  1

  9
$CUSTOMPROPERTYTAG
  1
AIMD_MATERIAL
  9
$CUSTOMPROPERTY
  1

  9
$CUSTOMPROPERTYTAG
  1
AIMD_WEIGHT
  9
$CUSTOMPROPERTY
  1
15.286
  9
$CUSTOMPROPERTYTAG
  1
AIMD_DESCRIPTION
  9
$CUSTOMPROPERTY
  1

  9
$CUSTOMPROPERTYTAG
  1
AIMD_ORIGIN
  9
$CUSTOMPROPERTY
  1
108342
  9
$CUSTOMPROPERTYTAG
  1
AIMD_PARTNO
  9
$CUSTOMPROPERTY
  1
7101006
  9
$CUSTOMPROPERTYTAG
  1
AIMD_WEIGHT_UNIT
  9
$CUSTOMPROPERTY
  1
kg
  9
$CUSTOMPROPERTYTAG
  1
Einheit
  9
$CUSTOMPROPERTY
  1
Stk
  9
$INSBASE
 10
0.0
 20
0.0
 30
0.0
  9
$EXTMIN
 10
0.0
 20
0.0
 30
0.0
  9
$EXTMAX
 10
1050.0
 20
1485.0
 30
0.0
  9
$LIMMIN
 10
0.0
 20
0.0
  9
$LIMMAX
 10
1050.0
 20
1485.0
  9
$ORTHOMODE
 70
     0
  9
$REGENMODE
 70
     1
  9
$FILLMODE
 70
     1
  9
$QTEXTMODE
 70
     0
  9
$MIRRTEXT
 70
     0
  9
$LTSCALE
 40
5.0
  9
$ATTMODE
 70
     1
  9
$TEXTSIZE
 40
0.2
  9
$TRACEWID
 40
0.05
  9
$TEXTSTYLE
  7
Standard
  9
$CLAYER
  8
0
  9
$CELTYPE
  6
ByLayer
  9
$CECOLOR
 62
   256
  9
$CELTSCALE
 40
1.0
  9
$DISPSILH
 70
     0
  9
$DIMSCALE
 40
1.0
  9
$DIMASZ
 40
1.799999999999999
  9
$DIMEXO
 40
0.0625
  9
$DIMDLI
 40
0.38
  9
$DIMRND
 40
0.0
  9
$DIMDLE
 40
0.0
  9
$DIMEXE
 40
0.18
  9
$DIMTP
 40
0.0
  9
$DIMTM
 40
0.0
  9
$DIMTXT
 40
0.3499999940395355
  9
$DIMCEN
 40
0.09
  9
$DIMTSZ
 40
0.0
  9
$DIMTOL
 70
     0
  9
$DIMLIM
 70
     0
  9
$DIMTIH
 70
     1
  9
$DIMTOH
 70
     1
  9
$DIMSE1
 70
     0
  9
$DIMSE2
 70
     0
  9
$DIMTAD
 70
     0
  9
$DIMZIN
 70
     0
  9
$DIMBLK
  1

  9
$DIMASO
 70
     1
  9
$DIMSHO
 70
     1
  9
$DIMPOST
  1

  9
$DIMAPOST
  1

  9
$DIMALT
 70
     0
  9
$DIMALTD
 70
     2
  9
$DIMALTF
 40
25.4
  9
$DIMLFAC
 40
1.0
  9
$DIMTOFL
 70
     0
  9
$DIMTVP
 40
0.0
  9
$DIMTIX
 70
     0
  9
$DIMSOXD
 70
     0
  9
$DIMSAH
 70
     0
  9
$DIMBLK1
  1

  9
$DIMBLK2
  1

  9
$DIMSTYLE
  2
Standard
  9
$DIMCLRD
 70
     0
  9
$DIMCLRE
 70
     0
  9
$DIMCLRT
 70
     0
  9
$DIMTFAC
 40
1.0
  9
$DIMGAP
 40
0.09
  9
$DIMJUST
 70
     0
  9
$DIMSD1
 70
     0
  9
$DIMSD2
 70
     0
  9
$DIMTOLJ
 70
     1
  9
$DIMTZIN
 70
     0
  9
$DIMALTZ
 70
     0
  9
$DIMALTTZ
 70
     0
  9
$DIMUPT
 70
     0
  9
$DIMDEC
 70
     4
  9
$DIMTDEC
 70
     4
  9
$DIMALTU
 70
     2
  9
$DIMALTTD
 70
     2
  9
$DIMTXSTY
  7
Standard
  9
$DIMAUNIT
 70
     0
  9
$DIMADEC
 70
     0
  9
$DIMALTRND
 40
0.0
  9
$DIMAZIN
 70
     0
  9
$DIMDSEP
 70
    46
  9
$DIMATFIT
 70
     3
  9
$DIMFRAC
 70
     0
  9
$DIMLDRBLK
  1

  9
$DIMLUNIT
 70
     2
  9
$DIMLWD
 70
    -2
  9
$DIMLWE
 70
    -2
  9
$DIMTMOVE
 70
     0
  9
$LUNITS
 70
     2
  9
$LUPREC
 70
     4
  9
$SKETCHINC
 40
0.1
  9
$FILLETRAD
 40
0.0
  9
$AUNITS
 70
     0
  9
$AUPREC
 70
     0
  9
$MENU
  1
.
  9
$ELEVATION
 40
0.0
  9
$PELEVATION
 40
0.0
  9
$THICKNESS
 40
0.0
  9
$LIMCHECK
 70
     0
  9
$CHAMFERA
 40
0.0
  9
$CHAMFERB
 40
0.0
  9
$CHAMFERC
 40
0.0
  9
$CHAMFERD
 40
0.0
  9
$SKPOLY
 70
     0
  9
$TDCREATE
 40
2454644.549569306
  9
$TDUCREATE
 40
2454644.466235972
  9
$TDUPDATE
 40
2454644.549569306
  9
$TDUUPDATE
 40
2454644.466235972
  9
$TDINDWG
 40
0.0000197569
  9
$TDUSRTIMER
 40
0.0000197569
  9
$USRTIMER
 70
     1
  9
$ANGBASE
 50
0.0
  9
$ANGDIR
 70
     0
  9
$PDMODE
 70
     0
  9
$PDSIZE
 40
0.0
  9
$PLINEWID
 40
0.0
  9
$SPLFRAME
 70
     0
  9
$SPLINETYPE
 70
     6
  9
$SPLINESEGS
 70
     8
  9
$HANDSEED
  5
726
  9
$SURFTAB1
 70
     6
  9
$SURFTAB2
 70
     6
  9
$SURFTYPE
 70
     6
  9
$SURFU
 70
     6
  9
$SURFV
 70
     6
  9
$UCSBASE
  2

  9
$UCSNAME
  2

  9
$UCSORG
 10
0.0
 20
0.0
 30
0.0
  9
$UCSXDIR
 10
1.0
 20
0.0
 30
0.0
  9
$UCSYDIR
 10
0.0
 20
1.0
 30
0.0
  9
$UCSORTHOREF
  2

  9
$UCSORTHOVIEW
 70
     0
  9
$UCSORGTOP
 10
0.0
 20
0.0
 30
0.0
  9
$UCSORGBOTTOM
 10
0.0
 20
0.0
 30
0.0
  9
$UCSORGLEFT
 10
0.0
 20
0.0
 30
0.0
  9
$UCSORGRIGHT
 10
0.0
 20
0.0
 30
0.0
  9
$UCSORGFRONT
 10
0.0
 20
0.0
 30
0.0
  9
$UCSORGBACK
 10
0.0
 20
0.0
 30
0.0
  9
$PUCSBASE
  2

  9
$PUCSNAME
  2

  9
$PUCSORG
 10
0.0
 20
0.0
 30
0.0
  9
$PUCSXDIR
 10
1.0
 20
0.0
 30
0.0
  9
$PUCSYDIR
 10
0.0
 20
1.0
 30
0.0
  9
$PUCSORTHOREF
  2

  9
$PUCSORTHOVIEW
 70
     0
  9
$PUCSORGTOP
 10
0.0
 20
0.0
 30
0.0
  9
$PUCSORGBOTTOM
 10
0.0
 20
0.0
 30
0.0
  9
$PUCSORGLEFT
 10
0.0
 20
0.0
 30
0.0
  9
$PUCSORGRIGHT
 10
0.0
 20
0.0
 30
0.0
  9
$PUCSORGFRONT
 10
0.0
 20
0.0
 30
0.0
  9
$PUCSORGBACK
 10
0.0
 20
0.0
 30
0.0
  9
$USERI1
 70
     0
  9
$USERI2
 70
     0
  9
$USERI3
 70
     0
  9
$USERI4
 70
     0
  9
$USERI5
 70
     0
  9
$USERR1
 40
0.0
  9
$USERR2
 40
0.0
  9
$USERR3
 40
0.0
  9
$USERR4
 40
0.0
  9
$USERR5
 40
0.0
  9
$WORLDVIEW
 70
     1
  9
$SHADEDGE
 70
     3
  9
$SHADEDIF
 70
    70
  9
$TILEMODE
 70
     1
  9
$MAXACTVP
 70
    64
  9
$PINSBASE
 10
0.0
 20
0.0
 30
0.0
  9
$PLIMCHECK
 70
     0
  9
$PEXTMIN
 10
0.0
 20
0.0
 30
0.0
  9
$PEXTMAX
 10
1050.0
 20
1485.0
 30
0.0
  9
$PLIMMIN
 10
0.0
 20
0.0
  9
$PLIMMAX
 10
1050.0
 20
1485.0
  9
$UNITMODE
 70
     0
  9
$VISRETAIN
 70
     1
  9
$PLINEGEN
 70
     0
  9
$PSLTSCALE
 70
     1
  9
$TREEDEPTH
 70
  3020
  9
$CMLSTYLE
  2
Standard
  9
$CMLJUST
 70
     0
  9
$CMLSCALE
 40
1.0
  9
$PROXYGRAPHICS
 70
     1
  9
$MEASUREMENT
 70
     1
  9
$CELWEIGHT
370
    -1
  9
$ENDCAPS
280
     0
  9
$JOINSTYLE
280
     0
  9
$LWDISPLAY
290
     0
  9
$INSUNITS
 70
     0
  9
$HYPERLINKBASE
  1

  9
$STYLESHEET
  1

  9
$XEDIT
290
     1
  9
$CEPSNTYPE
380
     0
  9
$PSTYLEMODE
290
     1
  9
$FINGERPRINTGUID
  2
{03D9FAA8-96F7-4EF8-9718-936B12C3533C}
  9
$VERSIONGUID
  2
{F80D3C35-D01A-432E-AF8D-D2976D2FA345}
  9
$EXTNAMES
290
     1
  9
$PSVPSCALE
 40
0.0
  9
$OLESTARTUP
290
     0
  9
$SORTENTS
280
   127
  9
$INDEXCTL
280
     0
  9
$HIDETEXT
280
     1
  9
$XCLIPFRAME
290
     0
  9
$HALOGAP
280
     0
  9
$OBSCOLOR
 70
   257
  9
$OBSLTYPE
280
     0
  9
$INTERSECTIONDISPLAY
280
     0
  9
$INTERSECTIONCOLOR
 70
   257
  9
$DIMASSOC
280
     1
  9
$PROJECTNAME
  1

  0
ENDSEC
  0
SECTION
  2
CLASSES
  0
CLASS
  1
ACDBDICTIONARYWDFLT
  2
AcDbDictionaryWithDefault
  3
ObjectDBX Classes
 90
        0
 91
        1
280
     0
281
     0
  0
CLASS
  1
MATERIAL
  2
AcDbMaterial
  3
ObjectDBX Classes
 90
     1024
 91
        3
280
     0
281
     0
  0
CLASS
  1
VISUALSTYLE
  2
AcDbVisualStyle
  3
ObjectDBX Classes
 90
     4095
 91
       16
280
     0
281
     0
  0
CLASS
  1
TABLESTYLE
  2
AcDbTableStyle
  3
ObjectDBX Classes
 90
     4095
 91
        1
280
     0
281
     0
  0
CLASS
  1
DICTIONARYVAR
  2
AcDbDictionaryVar
  3
ObjectDBX Classes
 90
        0
 91
        1
280
     0
281
     0
  0
ENDSEC
  0
SECTION
  2
TABLES
  0
TABLE
  2
VPORT
  5
8
330
0
100
AcDbSymbolTable
 70
     1
  0
VPORT
  5
28
330
8
100
AcDbSymbolTableRecord
100
AcDbViewportTableRecord
  2
*Active
 70
     0
 10
0.0
 20
0.0
 11
1.0
 21
1.0
 12
525.0
 22
742.4999999999999
 13
0.0
 23
0.0
 14
1.0
 24
1.0
 15
0.0
 25
0.0
 16
0.0
 26
0.0
 36
1.0
 17
0.0
 27
0.0
 37
0.0
 40
1485.0
 41
0.7070707070707071
 42
50.0
 43
0.0
 44
0.0
 50
0.0
 51
0.0
 71
     0
 72
   100
 73
     1
 74
     1
 75
     0
 76
     0
 77
     0
 78
     0
281
     0
 65
     1
110
0.0
120
0.0
130
0.0
111
1.0
121
0.0
131
0.0
112
0.0
122
1.0
132
0.0
 79
     0
146
0.0
  0
ENDTAB
  0
TABLE
  2
LTYPE
  5
5
330
0
100
AcDbSymbolTable
 70
    59
  0
LTYPE
  5
29
330
5
100
AcDbSymbolTableRecord
100
AcDbLinetypeTableRecord
  2
ByBlock
 70
     0
  3

 72
    65
 73
     0
 40
0.0
  0
LTYPE
  5
2A
330
5
100
AcDbSymbolTableRecord
100
AcDbLinetypeTableRecord
  2
ByLayer
 70
     0
  3

 72
    65
 73
     0
 40
0.0
  0
LTYPE
  5
2B
330
5
100
AcDbSymbolTableRecord
100
AcDbLinetypeTableRecord
  2
Continuous
 70
     0
  3
Solid line
 72
    65
 73
     0
 40
0.0
  0
LTYPE
  5
40
330
5
100
AcDbSymbolTableRecord
100
AcDbLinetypeTableRecord
  2
Section_View_Lines
 70
     0
  3
Section View Lines
 72
    65
 73
     4
 40
0.8406
 49
0.6614
 74
     0
 49
-0.0827
 74
     0
 49
0.0138
 74
     0
 49
-0.0827
 74
     0
  0
LTYPE
  5
41
330
5
100
AcDbSymbolTableRecord
100
AcDbLinetypeTableRecord
  2
CHAIN
 70
     0
  3
Chain ____ _ ____ _ ____ _ ____ _ ____ _ ____
 72
    65
 73
     4
 40
0.3543
 49
0.2362
 74
     0
 49
-0.0295
 74
     0
 49
0.0591
 74
     0
 49
-0.0295
 74
     0
  0
LTYPE
  5
42
330
5
100
AcDbSymbolTableRecord
100
AcDbLinetypeTableRecord
  2
DASH_DOT
 70
     0
  3
Dash dot _._._._._._._._._._._._._._._.
 72
    65
 73
     4
 40
0.37
 49
0.24
 74
     0
 49
-0.06
 74
     0
 49
0.01
 74
     0
 49
-0.06
 74
     0
  0
LTYPE
  5
43
330
5
100
AcDbSymbolTableRecord
100
AcDbLinetypeTableRecord
  2
DASH_DOUBLE_DOT
 70
     0
  3
Dash Double Dot __ __ . __ __ . __ __ . __ _
 72
    65
 73
     6
 40
0.4398
 49
0.24
 74
     0
 49
-0.06
 74
     0
 49
0.0098
 74
     0
 49
-0.06
 74
     0
 49
0.01
 74
     0
 49
-0.06
 74
     0
  0
LTYPE
  5
44
330
5
100
AcDbSymbolTableRecord
100
AcDbLinetypeTableRecord
  2
DASH_TRIPLE_DOT
 70
     0
  3
Dash Triple-Dot _ . . . _ . . . _ . . . _
 72
    65
 73
     8
 40
0.51
 49
0.24
 74
     0
 49
-0.06
 74
     0
 49
0.01
 74
     0
 49
-0.06
 74
     0
 49
0.01
 74
     0
 49
-0.06
 74
     0
 49
0.01
 74
     0
 49
-0.06
 74
     0
  0
LTYPE
  5
45
330
5
100
AcDbSymbolTableRecord
100
AcDbLinetypeTableRecord
  2
DASHED
 70
     0
  3
Dashed __ __ __ __ __ __ __ __ __ __ __ __ __ _
 72
    65
 73
     2
 40
0.2067
 49
0.1654
 74
     0
 49
-0.0413
 74
     0
  0
LTYPE
  5
46
330
5
100
AcDbSymbolTableRecord
100
AcDbLinetypeTableRecord
  2
DASHED_SPACE
 70
     0
  3
Dashed Space _._._._._._._._._._._._._._._.
 72
    65
 73
     2
 40
0.2067
 49
0.1654
 74
     0
 49
-0.0413
 74
     0
  0
LTYPE
  5
47
330
5
100
AcDbSymbolTableRecord
100
AcDbLinetypeTableRecord
  2
DOTTED
 70
     0
  3
Dotted . . . . . . . . . . . . . . . . . . . . 
 72
    65
 73
     2
 40
0.0482
 49
0.0069
 74
     0
 49
-0.0413
 74
     0
  0
LTYPE
  5
48
330
5
100
AcDbSymbolTableRecord
100
AcDbLinetypeTableRecord
  2
DOUBLE_DASH_CHAIN
 70
     0
  3
Double Dash Chain ___ _ _ ___ _ _ ___ _ _ ___ _
 72
    65
 73
     6
 40
1.240299999999999
 49
0.6614
 74
     0
 49
-0.0827
 74
     0
 49
0.1654
 74
     0
 49
-0.0827
 74
     0
 49
0.1654
 74
     0
 49
-0.0827
 74
     0
  0
LTYPE
  5
49
330
5
100
AcDbSymbolTableRecord
100
AcDbLinetypeTableRecord
  2
DOUBLE_DASH_DOT
 70
     0
  3
Double Dash Dot __ __ . __ __ . __ __ . __ _
 72
    65
 73
     6
 40
0.67
 49
0.24
 74
     0
 49
-0.06
 74
     0
 49
0.24
 74
     0
 49
-0.06
 74
     0
 49
0.01
 74
     0
 49
-0.06
 74
     0
  0
LTYPE
  5
4A
330
5
100
AcDbSymbolTableRecord
100
AcDbLinetypeTableRecord
  2
DOUBLE_DASH_DOUBLE_DOT
 70
     0
  3
Double-dash double-dot _ _ . . _ _ . . _
 72
    65
 73
     8
 40
0.7400000000000001
 49
0.24
 74
     0
 49
-0.06
 74
     0
 49
0.24
 74
     0
 49
-0.06
 74
     0
 49
0.01
 74
     0
 49
-0.06
 74
     0
 49
0.01
 74
     0
 49
-0.06
 74
     0
  0
LTYPE
  5
4B
330
5
100
AcDbSymbolTableRecord
100
AcDbLinetypeTableRecord
  2
DOUBLE_DASH_TRIPLE_DOT
 70
     0
  3
Double Dash Triple Dot __ __ . . . __ __ . . .
 72
    65
 73
    10
 40
0.8100000000000001
 49
0.24
 74
     0
 49
-0.06
 74
     0
 49
0.24
 74
     0
 49
-0.06
 74
     0
 49
0.01
 74
     0
 49
-0.06
 74
     0
 49
0.01
 74
     0
 49
-0.06
 74
     0
 49
0.01
 74
     0
 49
-0.06
 74
     0
  0
LTYPE
  5
4C
330
5
100
AcDbSymbolTableRecord
100
AcDbLinetypeTableRecord
  2
LONG_DASH_DOTTED
 70
     0
  3
Long-Dash Dot ____ . ____ . ____ . ____ . _
 72
    65
 73
     4
 40
0.3001
 49
0.2362
 74
     0
 49
-0.0295
 74
     0
 49
0.0049
 74
     0
 49
-0.0295
 74
     0
  0
LTYPE
  5
4D
330
5
100
AcDbSymbolTableRecord
100
AcDbLinetypeTableRecord
  2
LONG_DASH_DOUBLE_DOT
 70
     0
  3
Long Dash Double Dot ____ . . ____ . . ____ . .
 72
    65
 73
     6
 40
0.3345
 49
0.2362
 74
     0
 49
-0.0295
 74
     0
 49
0.0049
 74
     0
 49
-0.0295
 74
     0
 49
0.0049
 74
     0
 49
-0.0295
 74
     0
  0
LTYPE
  5
4E
330
5
100
AcDbSymbolTableRecord
100
AcDbLinetypeTableRecord
  2
LONG_DASH_TRIPLE_DOT
 70
     0
  3
Long Dash Triple Dot ____ ... ____ ... ____
 72
    65
 73
     8
 40
0.75
 49
0.48
 74
     0
 49
-0.06
 74
     0
 49
0.01
 74
     0
 49
-0.06
 74
     0
 49
0.01
 74
     0
 49
-0.06
 74
     0
 49
0.01
 74
     0
 49
-0.06
 74
     0
  0
LTYPE
  5
4F
330
5
100
AcDbSymbolTableRecord
100
AcDbLinetypeTableRecord
  2
BORDER
 70
     0
  3
Border __ __ . __ __ . __ __ . __ __ . __ __ .
 72
    65
 73
     6
 40
44.45
 49
12.7
 74
     0
 49
-6.349999999999999
 74
     0
 49
12.7
 74
     0
 49
-6.349999999999999
 74
     0
 49
0.0
 74
     0
 49
-6.349999999999999
 74
     0
  0
LTYPE
  5
50
330
5
100
AcDbSymbolTableRecord
100
AcDbLinetypeTableRecord
  2
BORDER2
 70
     0
  3
Border (.5x) __.__.__.__.__.__.__.__.__.__.__.
 72
    65
 73
     6
 40
22.225
 49
6.349999999999999
 74
     0
 49
-3.174999999999999
 74
     0
 49
6.349999999999999
 74
     0
 49
-3.174999999999999
 74
     0
 49
0.0
 74
     0
 49
-3.174999999999999
 74
     0
  0
LTYPE
  5
51
330
5
100
AcDbSymbolTableRecord
100
AcDbLinetypeTableRecord
  2
BORDERX2
 70
     0
  3
Border (2x) ____  ____  .  ____  ____  .  ___
 72
    65
 73
     6
 40
88.9
 49
25.4
 74
     0
 49
-12.7
 74
     0
 49
25.4
 74
     0
 49
-12.7
 74
     0
 49
0.0
 74
     0
 49
-12.7
 74
     0
  0
LTYPE
  5
52
330
5
100
AcDbSymbolTableRecord
100
AcDbLinetypeTableRecord
  2
CENTER
 70
     0
  3
Center ____ _ ____ _ ____ _ ____ _ ____ _ ____
 72
    65
 73
     4
 40
50.8
 49
31.75
 74
     0
 49
-6.349999999999999
 74
     0
 49
6.349999999999999
 74
     0
 49
-6.349999999999999
 74
     0
  0
LTYPE
  5
53
330
5
100
AcDbSymbolTableRecord
100
AcDbLinetypeTableRecord
  2
CENTER2
 70
     0
  3
Center (.5x) ___ _ ___ _ ___ _ ___ _ ___ _ ___
 72
    65
 73
     4
 40
28.575
 49
19.05
 74
     0
 49
-3.174999999999999
 74
     0
 49
3.174999999999999
 74
     0
 49
-3.174999999999999
 74
     0
  0
LTYPE
  5
54
330
5
100
AcDbSymbolTableRecord
100
AcDbLinetypeTableRecord
  2
CENTERX2
 70
     0
  3
Center (2x) ________  __  ________  __  _____
 72
    65
 73
     4
 40
101.6
 49
63.5
 74
     0
 49
-12.7
 74
     0
 49
12.7
 74
     0
 49
-12.7
 74
     0
  0
LTYPE
  5
55
330
5
100
AcDbSymbolTableRecord
100
AcDbLinetypeTableRecord
  2
DASHDOT2
 70
     0
  3
Dash dot (.5x) _._._._._._._._._._._._._._._.
 72
    65
 73
     4
 40
12.7
 49
6.349999999999999
 74
     0
 49
-3.174999999999999
 74
     0
 49
0.0
 74
     0
 49
-3.174999999999999
 74
     0
  0
LTYPE
  5
56
330
5
100
AcDbSymbolTableRecord
100
AcDbLinetypeTableRecord
  2
DASHDOTX2
 70
     0
  3
Dash dot (2x) ____  .  ____  .  ____  .  ___
 72
    65
 73
     4
 40
50.8
 49
25.4
 74
     0
 49
-12.7
 74
     0
 49
0.0
 74
     0
 49
-12.7
 74
     0
  0
LTYPE
  5
57
330
5
100
AcDbSymbolTableRecord
100
AcDbLinetypeTableRecord
  2
DASHED2
 70
     0
  3
Dashed (.5x) _ _ _ _ _ _ _ _ _ _ _ _ _ _ _ _ _
 72
    65
 73
     2
 40
9.524999999999998
 49
6.349999999999999
 74
     0
 49
-3.174999999999999
 74
     0
  0
LTYPE
  5
58
330
5
100
AcDbSymbolTableRecord
100
AcDbLinetypeTableRecord
  2
DASHEDX2
 70
     0
  3
Dashed (2x) ____  ____  ____  ____  ____  ___
 72
    65
 73
     2
 40
38.1
 49
25.4
 74
     0
 49
-12.7
 74
     0
  0
LTYPE
  5
59
330
5
100
AcDbSymbolTableRecord
100
AcDbLinetypeTableRecord
  2
DIVIDE
 70
     0
  3
Divide ____ . . ____ . . ____ . . ____ . . ____
 72
    65
 73
     6
 40
31.75
 49
12.7
 74
     0
 49
-6.349999999999999
 74
     0
 49
0.0
 74
     0
 49
-6.349999999999999
 74
     0
 49
0.0
 74
     0
 49
-6.349999999999999
 74
     0
  0
LTYPE
  5
5A
330
5
100
AcDbSymbolTableRecord
100
AcDbLinetypeTableRecord
  2
DIVIDE2
 70
     0
  3
Divide (.5x) __..__..__..__..__..__..__..__.._
 72
    65
 73
     6
 40
15.875
 49
6.349999999999999
 74
     0
 49
-3.174999999999999
 74
     0
 49
0.0
 74
     0
 49
-3.174999999999999
 74
     0
 49
0.0
 74
     0
 49
-3.174999999999999
 74
     0
  0
LTYPE
  5
5B
330
5
100
AcDbSymbolTableRecord
100
AcDbLinetypeTableRecord
  2
DIVIDEX2
 70
     0
  3
Divide (2x) ________  .  .  ________  .  .  _
 72
    65
 73
     6
 40
63.49999999999999
 49
25.4
 74
     0
 49
-12.7
 74
     0
 49
0.0
 74
     0
 49
-12.7
 74
     0
 49
0.0
 74
     0
 49
-12.7
 74
     0
  0
LTYPE
  5
5C
330
5
100
AcDbSymbolTableRecord
100
AcDbLinetypeTableRecord
  2
DOT
 70
     0
  3
Dot . . . . . . . . . . . . . . . . . . . . . .
 72
    65
 73
     2
 40
6.349999999999999
 49
0.0
 74
     0
 49
-6.349999999999999
 74
     0
  0
LTYPE
  5
5D
330
5
100
AcDbSymbolTableRecord
100
AcDbLinetypeTableRecord
  2
DOT2
 70
     0
  3
Dot (.5x) .....................................
 72
    65
 73
     2
 40
3.174999999999999
 49
0.0
 74
     0
 49
-3.174999999999999
 74
     0
  0
LTYPE
  5
5E
330
5
100
AcDbSymbolTableRecord
100
AcDbLinetypeTableRecord
  2
DOTX2
 70
     0
  3
Dot (2x) .  .  .  .  .  .  .  .  .  .  .  .  . 
 72
    65
 73
     2
 40
12.7
 49
0.0
 74
     0
 49
-12.7
 74
     0
  0
LTYPE
  5
5F
330
5
100
AcDbSymbolTableRecord
100
AcDbLinetypeTableRecord
  2
HIDDEN
 70
     0
  3
Hidden __ __ __ __ __ __ __ __ __ __ __ __ __ _
 72
    65
 73
     2
 40
9.524999999999998
 49
6.349999999999999
 74
     0
 49
-3.174999999999999
 74
     0
  0
LTYPE
  5
60
330
5
100
AcDbSymbolTableRecord
100
AcDbLinetypeTableRecord
  2
HIDDEN2
 70
     0
  3
Hidden (.5x) _ _ _ _ _ _ _ _ _ _ _ _ _ _ _ _ _
 72
    65
 73
     2
 40
4.762499999999999
 49
3.174999999999999
 74
     0
 49
-1.587499999999999
 74
     0
  0
LTYPE
  5
61
330
5
100
AcDbSymbolTableRecord
100
AcDbLinetypeTableRecord
  2
HIDDENX2
 70
     0
  3
Hidden (2x) ____ ____ ____ ____ ____ ____ ____
 72
    65
 73
     2
 40
19.05
 49
12.7
 74
     0
 49
-6.349999999999999
 74
     0
  0
LTYPE
  5
62
330
5
100
AcDbSymbolTableRecord
100
AcDbLinetypeTableRecord
  2
PHANTOM
 70
     0
  3
Phantom ______  __  __  ______  __  __  ______
 72
    65
 73
     6
 40
63.5
 49
31.75
 74
     0
 49
-6.349999999999999
 74
     0
 49
6.349999999999999
 74
     0
 49
-6.349999999999999
 74
     0
 49
6.349999999999999
 74
     0
 49
-6.349999999999999
 74
     0
  0
LTYPE
  5
63
330
5
100
AcDbSymbolTableRecord
100
AcDbLinetypeTableRecord
  2
PHANTOM2
 70
     0
  3
Phantom (.5x) ___ _ _ ___ _ _ ___ _ _ ___ _ _
 72
    65
 73
     6
 40
31.75
 49
15.875
 74
     0
 49
-3.174999999999999
 74
     0
 49
3.174999999999999
 74
     0
 49
-3.174999999999999
 74
     0
 49
3.174999999999999
 74
     0
 49
-3.174999999999999
 74
     0
  0
LTYPE
  5
64
330
5
100
AcDbSymbolTableRecord
100
AcDbLinetypeTableRecord
  2
PHANTOMX2
 70
     0
  3
Phantom (2x) ____________    ____    ____   _
 72
    65
 73
     6
 40
127.0
 49
63.5
 74
     0
 49
-12.7
 74
     0
 49
12.7
 74
     0
 49
-12.7
 74
     0
 49
12.7
 74
     0
 49
-12.7
 74
     0
  0
LTYPE
  5
65
330
5
100
AcDbSymbolTableRecord
100
AcDbLinetypeTableRecord
  2
ACAD_ISO02W100
 70
     0
  3
ISO dash __ __ __ __ __ __ __ __ __ __ __ __ __
 72
    65
 73
     2
 40
15.0
 49
12.0
 74
     0
 49
-3.0
 74
     0
  0
LTYPE
  5
66
330
5
100
AcDbSymbolTableRecord
100
AcDbLinetypeTableRecord
  2
ACAD_ISO03W100
 70
     0
  3
ISO dash space __    __    __    __    __    __
 72
    65
 73
     2
 40
30.0
 49
12.0
 74
     0
 49
-18.0
 74
     0
  0
LTYPE
  5
67
330
5
100
AcDbSymbolTableRecord
100
AcDbLinetypeTableRecord
  2
ACAD_ISO04W100
 70
     0
  3
ISO long-dash dot ____ . ____ . ____ . ____ . _
 72
    65
 73
     4
 40
30.0
 49
24.0
 74
     0
 49
-3.0
 74
     0
 49
0.0
 74
     0
 49
-3.0
 74
     0
  0
LTYPE
  5
68
330
5
100
AcDbSymbolTableRecord
100
AcDbLinetypeTableRecord
  2
ACAD_ISO05W100
 70
     0
  3
ISO long-dash double-dot ____ .. ____ .. ____ .
 72
    65
 73
     6
 40
33.0
 49
24.0
 74
     0
 49
-3.0
 74
     0
 49
0.0
 74
     0
 49
-3.0
 74
     0
 49
0.0
 74
     0
 49
-3.0
 74
     0
  0
LTYPE
  5
69
330
5
100
AcDbSymbolTableRecord
100
AcDbLinetypeTableRecord
  2
ACAD_ISO06W100
 70
     0
  3
ISO long-dash triple-dot ____ ... ____ ... ____
 72
    65
 73
     8
 40
36.0
 49
24.0
 74
     0
 49
-3.0
 74
     0
 49
0.0
 74
     0
 49
-3.0
 74
     0
 49
0.0
 74
     0
 49
-3.0
 74
     0
 49
0.0
 74
     0
 49
-3.0
 74
     0
  0
LTYPE
  5
6A
330
5
100
AcDbSymbolTableRecord
100
AcDbLinetypeTableRecord
  2
ACAD_ISO07W100
 70
     0
  3
ISO dot . . . . . . . . . . . . . . . . . . . .
 72
    65
 73
     2
 40
3.0
 49
0.0
 74
     0
 49
-3.0
 74
     0
  0
LTYPE
  5
6B
330
5
100
AcDbSymbolTableRecord
100
AcDbLinetypeTableRecord
  2
ACAD_ISO08W100
 70
     0
  3
ISO long-dash short-dash ____ __ ____ __ ____ _
 72
    65
 73
     4
 40
36.0
 49
24.0
 74
     0
 49
-3.0
 74
     0
 49
6.0
 74
     0
 49
-3.0
 74
     0
  0
LTYPE
  5
6C
330
5
100
AcDbSymbolTableRecord
100
AcDbLinetypeTableRecord
  2
ACAD_ISO09W100
 70
     0
  3
ISO long-dash double-short-dash ____ __ __ ____
 72
    65
 73
     6
 40
45.0
 49
24.0
 74
     0
 49
-3.0
 74
     0
 49
6.0
 74
     0
 49
-3.0
 74
     0
 49
6.0
 74
     0
 49
-3.0
 74
     0
  0
LTYPE
  5
6D
330
5
100
AcDbSymbolTableRecord
100
AcDbLinetypeTableRecord
  2
ACAD_ISO10W100
 70
     0
  3
ISO dash dot __ . __ . __ . __ . __ . __ . __ .
 72
    65
 73
     4
 40
18.0
 49
12.0
 74
     0
 49
-3.0
 74
     0
 49
0.0
 74
     0
 49
-3.0
 74
     0
  0
LTYPE
  5
6E
330
5
100
AcDbSymbolTableRecord
100
AcDbLinetypeTableRecord
  2
ACAD_ISO11W100
 70
     0
  3
ISO double-dash dot __ __ . __ __ . __ __ . __ 
 72
    65
 73
     6
 40
33.0
 49
12.0
 74
     0
 49
-3.0
 74
     0
 49
12.0
 74
     0
 49
-3.0
 74
     0
 49
0.0
 74
     0
 49
-3.0
 74
     0
  0
LTYPE
  5
6F
330
5
100
AcDbSymbolTableRecord
100
AcDbLinetypeTableRecord
  2
ACAD_ISO12W100
 70
     0
  3
ISO dash double-dot __ . . __ . . __ . . __ . .
 72
    65
 73
     6
 40
21.0
 49
12.0
 74
     0
 49
-3.0
 74
     0
 49
0.0
 74
     0
 49
-3.0
 74
     0
 49
0.0
 74
     0
 49
-3.0
 74
     0
  0
LTYPE
  5
70
330
5
100
AcDbSymbolTableRecord
100
AcDbLinetypeTableRecord
  2
ACAD_ISO13W100
 70
     0
  3
ISO double-dash double-dot __ __ . . __ __ . . 
 72
    65
 73
     8
 40
36.0
 49
12.0
 74
     0
 49
-3.0
 74
     0
 49
12.0
 74
     0
 49
-3.0
 74
     0
 49
0.0
 74
     0
 49
-3.0
 74
     0
 49
0.0
 74
     0
 49
-3.0
 74
     0
  0
LTYPE
  5
71
330
5
100
AcDbSymbolTableRecord
100
AcDbLinetypeTableRecord
  2
ACAD_ISO14W100
 70
     0
  3
ISO dash triple-dot __ . . . __ . . . __ . . . 
 72
    65
 73
     8
 40
24.0
 49
12.0
 74
     0
 49
-3.0
 74
     0
 49
0.0
 74
     0
 49
-3.0
 74
     0
 49
0.0
 74
     0
 49
-3.0
 74
     0
 49
0.0
 74
     0
 49
-3.0
 74
     0
  0
LTYPE
  5
72
330
5
100
AcDbSymbolTableRecord
100
AcDbLinetypeTableRecord
  2
ACAD_ISO15W100
 70
     0
  3
ISO double-dash triple-dot __ __ . . . __ __ . 
 72
    65
 73
    10
 40
39.0
 49
12.0
 74
     0
 49
-3.0
 74
     0
 49
12.0
 74
     0
 49
-3.0
 74
     0
 49
0.0
 74
     0
 49
-3.0
 74
     0
 49
0.0
 74
     0
 49
-3.0
 74
     0
 49
0.0
 74
     0
 49
-3.0
 74
     0
  0
LTYPE
  5
75
330
5
100
AcDbSymbolTableRecord
100
AcDbLinetypeTableRecord
  2
FENCELINE1
 70
     0
  3
Fenceline circle ----0-----0----0-----0----0---
 72
    65
 73
     4
 40
36.83
 49
6.349999999999999
 74
     0
 49
-2.54
 74
     4
 75
   133
340
74
 46
2.54
 50
0.0
 44
-2.54
 45
0.0
 49
-2.54
 74
     0
 49
25.4
 74
     0
  0
LTYPE
  5
76
330
5
100
AcDbSymbolTableRecord
100
AcDbLinetypeTableRecord
  2
FENCELINE2
 70
     0
  3
Fenceline square ----[]-----[]----[]-----[]----
 72
    65
 73
     4
 40
36.83
 49
6.349999999999999
 74
     0
 49
-2.54
 74
     4
 75
   132
340
74
 46
2.54
 50
0.0
 44
-2.54
 45
0.0
 49
-2.54
 74
     0
 49
25.4
 74
     0
  0
LTYPE
  5
77
330
5
100
AcDbSymbolTableRecord
100
AcDbLinetypeTableRecord
  2
TRACKS
 70
     0
  3
Tracks -|-|-|-|-|-|-|-|-|-|-|-|-|-|-|-|-|-|-|-|
 72
    65
 73
     2
 40
7.62
 49
3.81
 74
     4
 75
   130
340
74
 46
6.349999999999999
 50
0.0
 44
0.0
 45
0.0
 49
3.81
 74
     0
  0
LTYPE
  5
78
330
5
100
AcDbSymbolTableRecord
100
AcDbLinetypeTableRecord
  2
BATTING
 70
     0
  3
Batting SSSSSSSSSSSSSSSSSSSSSSSSSSSSSSSSSSSSSSS
 72
    65
 73
     4
 40
10.16254
 49
0.00254
 74
     0
 49
-2.54
 74
     4
 75
   134
340
74
 46
2.54
 50
0.0
 44
-2.54
 45
0.0
 49
-5.08
 74
     4
 75
   134
340
74
 46
2.54
 50
180.0
 44
2.54
 45
0.0
 49
-2.54
 74
     0
  0
LTYPE
  5
79
330
5
100
AcDbSymbolTableRecord
100
AcDbLinetypeTableRecord
  2
HOT_WATER_SUPPLY
 70
     0
  3
Hot water supply ---- HW ---- HW ---- HW ----
 72
    65
 73
     3
 40
22.86
 49
12.7
 74
     0
 49
-5.08
 74
     2
 75
     0
340
26
 46
2.54
 50
0.0
 44
-2.54
 45
-1.27
  9
HW
 49
-5.08
 74
     0
  0
LTYPE
  5
7A
330
5
100
AcDbSymbolTableRecord
100
AcDbLinetypeTableRecord
  2
GAS_LINE
 70
     0
  3
Gas line ----GAS----GAS----GAS----GAS----GAS---
 72
    65
 73
     3
 40
24.13
 49
12.7
 74
     0
 49
-5.08
 74
     2
 75
     0
340
26
 46
2.54
 50
0.0
 44
-2.54
 45
-1.27
  9
GAS
 49
-6.349999999999999
 74
     0
  0
LTYPE
  5
7B
330
5
100
AcDbSymbolTableRecord
100
AcDbLinetypeTableRecord
  2
ZIGZAG
 70
     0
  3
Zig zag /\/\/\/\/\/\/\/\/\/\/\/\/\/\/\/\/\/\/\/
 72
    65
 73
     4
 40
20.32254
 49
0.00254
 74
     0
 49
-5.08
 74
     4
 75
   131
340
74
 46
5.08
 50
0.0
 44
-5.08
 45
0.0
 49
-10.16
 74
     4
 75
   131
340
74
 46
5.08
 50
180.0
 44
5.08
 45
0.0
 49
-5.08
 74
     0
  0
ENDTAB
  0
TABLE
  2
LAYER
  5
2
330
0
100
AcDbSymbolTable
 70
    25
  0
LAYER
  5
25
330
2
100
AcDbSymbolTableRecord
100
AcDbLayerTableRecord
  2
0
 70
     0
 62
     7
  6
Continuous
370
    -3
390
F
  0
LAYER
  5
8B
330
2
100
AcDbSymbolTableRecord
100
AcDbLayerTableRecord
  2
Schraffur (ISO)
 70
     0
 62
     7
  6
Continuous
370
    18
390
F
  0
LAYER
  5
8C
330
2
100
AcDbSymbolTableRecord
100
AcDbLayerTableRecord
  2
Sichtbar (ISO)
 70
     0
 62
     7
  6
Continuous
370
    35
390
F
  0
LAYER
  5
8E
330
2
100
AcDbSymbolTableRecord
100
AcDbLayerTableRecord
  2
Skizziergeometrie (ISO)
 70
     0
 62
     7
  6
Continuous
370
    25
390
F
  0
LAYER
  5
8F
330
2
100
AcDbSymbolTableRecord
100
AcDbLayerTableRecord
  2
Symbol (ISO)
 70
     0
 62
     7
  6
Continuous
370
    25
390
F
  0
LAYER
  5
90
330
2
100
AcDbSymbolTableRecord
100
AcDbLayerTableRecord
  2
Titel (ISO)
 70
     0
 62
     7
  6
Continuous
370
    50
390
F
  0
ENDTAB
  0
TABLE
  2
STYLE
  5
3
330
0
100
AcDbSymbolTable
 70
    12
  0
STYLE
  5
26
330
3
100
AcDbSymbolTableRecord
100
AcDbTextStyleTableRecord
  2
Standard
 70
     0
 40
0.0
 41
1.0
 50
0.0
 71
     0
 42
0.2
  3
isocpeur.ttf
  4

1001
ACAD
1000
ISOCPEUR
1071
      256
  0
STYLE
  5
74
330
3
100
AcDbSymbolTableRecord
100
AcDbTextStyleTableRecord
  2

 70
     1
 40
0.0
 41
1.0
 50
0.0
 71
     0
 42
0.2
  3
ltypeshp.shx
  4

  0
STYLE
  5
94
330
3
100
AcDbSymbolTableRecord
100
AcDbTextStyleTableRecord
  2
Bezeichnungstext (DIN)
 70
     0
 40
0.0
 41
1.0
 50
0.0
 71
     0
 42
0.2
  3
isocpeur.ttf
  4

1001
ACAD
1000
ISOCPEUR
1071
      256
  0
STYLE
  5
95
330
3
100
AcDbSymbolTableRecord
100
AcDbTextStyleTableRecord
  2
Notiztext (DIN)
 70
     0
 40
0.0
 41
1.0
 50
0.0
 71
     0
 42
0.2
  3
isocpeur.ttf
  4

1001
ACAD
1000
ISOCPEUR
1071
      256
  0
STYLE
  5
96
330
3
100
AcDbSymbolTableRecord
100
AcDbTextStyleTableRecord
  2
Plan_Kopf_01.5
 70
     0
 40
0.0
 41
0.899999976158142
 50
0.0
 71
     0
 42
0.2
  3
ARIAL.TTF
  4

1001
ACAD
1000
Arial
1071
      256
  0
STYLE
  5
97
330
3
100
AcDbSymbolTableRecord
100
AcDbTextStyleTableRecord
  2
Plan_Kopf_02.0
 70
     0
 40
0.0
 41
0.899999976158142
 50
0.0
 71
     0
 42
0.2
  3
ARIAL.TTF
  4

1001
ACAD
1000
Arial
1071
      256
  0
STYLE
  5
98
330
3
100
AcDbSymbolTableRecord
100
AcDbTextStyleTableRecord
  2
Plan_Kopf_02.5
 70
     0
 40
0.0
 41
0.899999976158142
 50
0.0
 71
     0
 42
0.2
  3
ARIAL.TTF
  4

1001
ACAD
1000
Arial
1071
      256
  0
STYLE
  5
99
330
3
100
AcDbSymbolTableRecord
100
AcDbTextStyleTableRecord
  2
Plan_Kopf_05.0
 70
     0
 40
0.0
 41
0.899999976158142
 50
0.0
 71
     0
 42
0.2
  3
ARIAL.TTF
  4

1001
ACAD
1000
Arial
1071
      256
  0
STYLE
  5
9A
330
3
100
AcDbSymbolTableRecord
100
AcDbTextStyleTableRecord
  2
Stückliste
 70
     0
 40
0.0
 41
0.899999976158142
 50
0.0
 71
     0
 42
0.2
  3
isocpeur.ttf
  4

1001
ACAD
1000
ISOCPEUR
1071
      256
  0
STYLE
  5
9B
330
3
100
AcDbSymbolTableRecord
100
AcDbTextStyleTableRecord
  2
TolListe_12
 70
     0
 40
0.0
 41
1.0
 50
0.0
 71
     0
 42
0.2
  3
isocpeur.ttf
  4

1001
ACAD
1000
ISOCPEUR
1071
      256
  0
STYLE
  5
FE
330
3
100
AcDbSymbolTableRecord
100
AcDbTextStyleTableRecord
  2
TolListe_12-AIGDT
 70
     0
 40
0.0
 41
1.0
 50
0.0
 71
     0
 42
0.2
  3
AIGDT___.TTF
  4

1001
ACAD
1000
AIGDT
1071
      514
  0
STYLE
  5
157
330
3
100
AcDbSymbolTableRecord
100
AcDbTextStyleTableRecord
  2
TolListe_12-Arial
 70
     0
 40
0.0
 41
1.100000023841857
 50
0.0
 71
     0
 42
0.2
  3

  4

1001
ACAD
1000
Arial
1071
-33554176
  0
ENDTAB
  0
TABLE
  2
VIEW
  5
6
330
0
100
AcDbSymbolTable
 70
     0
  0
ENDTAB
  0
TABLE
  2
UCS
  5
7
330
0
100
AcDbSymbolTable
 70
     0
  0
ENDTAB
  0
TABLE
  2
APPID
  5
9
330
0
100
AcDbSymbolTable
 70
     1
  0
APPID
  5
27
330
9
100
AcDbSymbolTableRecord
100
AcDbRegAppTableRecord
  2
ACAD
 70
     0
  0
ENDTAB
  0
TABLE
  2
DIMSTYLE
  5
A
330
0
100
AcDbSymbolTable
 70
    11
100
AcDbDimStyleTable
 71
     0
  0
DIMSTYLE
105
3F
330
A
100
AcDbSymbolTableRecord
100
AcDbDimStyleTableRecord
  2
Standard
 70
     0
340
26
  0
DIMSTYLE
105
AA
330
A
100
AcDbSymbolTableRecord
100
AcDbDimStyleTableRecord
  2
Sonstiges Objekt (DIN)
 70
     0
 40
5.0
 41
5.0
 42
0.0
 43
6.0
 44
3.174999999999999
 45
0.00000001
 46
10.0
 77
     1
 78
     8
 79
     2
140
5.25
143
0.03937
146
0.6666666666666666
147
0.8
171
     3
172
     1
176
   256
177
   256
178
   256
271
     2
272
     2
274
     3
278
    44
284
     8
286
     8
340
94
341
9C
371
    -1
372
    -1
  0
DIMSTYLE
105
AB
330
A
100
AcDbSymbolTableRecord
100
AcDbDimStyleTableRecord
  2
Sonstiges Objekt (DIN)$7
 70
     0
 40
5.0
 41
5.0
 42
0.0
 43
6.0
 44
3.174999999999999
 45
0.00000001
 46
10.0
 77
     1
 78
     8
 79
     2
140
5.25
143
0.03937
146
0.6666666666666666
147
0.8
171
     3
172
     1
176
   256
177
   256
178
   256
271
     2
272
     2
274
     3
278
    44
284
     8
286
     8
340
94
341
9C
371
    25
372
    -1
  0
DIMSTYLE
105
AC
330
A
100
AcDbSymbolTableRecord
100
AcDbDimStyleTableRecord
  2
Standard - Methode 2a (DIN)
 70
     0
 40
5.0
 41
2.5
 42
0.8
 43
6.0
 44
3.174999999999999
 45
0.00000001
 46
10.0
 77
     1
 78
     8
 79
     2
140
3.5
143
0.03937
147
0.8
170
     1
171
     3
172
     1
176
   256
177
   256
178
   256
179
     2
271
     2
272
     2
274
     3
278
    44
284
     8
286
     8
340
95
371
    -1
372
    -1
  0
DIMSTYLE
105
AD
330
A
100
AcDbSymbolTableRecord
100
AcDbDimStyleTableRecord
  2
Standard - Methode 2a (DIN)$7
 70
     0
 40
5.0
 41
2.5
 42
0.8
 43
6.0
 44
3.174999999999999
 45
0.00000001
 46
10.0
 77
     1
 78
     8
 79
     2
140
3.5
143
0.03937
147
0.8
170
     1
171
     3
172
     1
176
   256
177
   256
178
   256
179
     2
271
     2
272
     2
274
     3
278
    44
284
     8
286
     8
340
95
371
    -1
372
    -1
  0
DIMSTYLE
105
AE
330
A
100
AcDbSymbolTableRecord
100
AcDbDimStyleTableRecord
  2
Standard - Methode 2b (DIN)
 70
     0
 40
5.0
 41
2.5
 42
0.0
 43
6.0
 44
3.174999999999999
 45
0.00000001
 46
10.0
 77
     1
 78
     8
 79
     2
140
3.5
143
0.03937
147
0.8
171
     3
172
     1
176
   256
177
   256
178
   256
271
     2
272
     2
274
     3
278
    44
284
     8
286
     8
340
95
371
    -1
372
    -1
  0
DIMSTYLE
105
AF
330
A
100
AcDbSymbolTableRecord
100
AcDbDimStyleTableRecord
  2
Standard - Methode 2b (DIN)$7
 70
     0
 40
5.0
 41
2.5
 42
0.0
 43
6.0
 44
3.174999999999999
 45
0.00000001
 46
10.0
 77
     1
 78
     8
 79
     2
140
3.5
143
0.03937
147
0.8
171
     3
172
     1
176
   256
177
   256
178
   256
271
     2
272
     2
274
     3
278
    44
284
     8
286
     8
340
95
371
    -1
372
    -1
  0
DIMSTYLE
105
B0
330
A
100
AcDbSymbolTableRecord
100
AcDbDimStyleTableRecord
  2
Standard (DIN)
 70
     0
 40
5.0
 41
2.5
 42
0.8
 43
6.0
 44
3.174999999999999
 45
0.00000001
 46
10.0
 73
     0
 74
     0
 77
     1
 78
     8
 79
     2
140
3.5
143
0.03937
147
0.8
171
     3
172
     1
176
   256
177
   256
178
   256
271
     2
272
     3
274
     3
278
    44
340
95
371
    -1
372
    -1
  0
DIMSTYLE
105
B1
330
A
100
AcDbSymbolTableRecord
100
AcDbDimStyleTableRecord
  2
Standard (DIN)$7
 70
     0
 40
5.0
 41
2.5
 42
0.8
 43
6.0
 44
3.174999999999999
 45
0.00000001
 46
10.0
 73
     0
 74
     0
 77
     1
 78
     8
 79
     2
140
3.5
143
0.03937
147
0.8
171
     3
172
     1
176
   256
177
   256
178
   256
271
     2
272
     3
274
     3
278
    44
340
95
371
    -1
372
    -1
  0
DIMSTYLE
105
B2
330
A
100
AcDbSymbolTableRecord
100
AcDbDimStyleTableRecord
  2
Alternativ (ISO)
 70
     0
 40
5.0
 41
2.5
340
26
342
B3
  0
DIMSTYLE
105
C4
330
A
100
AcDbSymbolTableRecord
100
AcDbDimStyleTableRecord
  2
Bezug (ISO)
 70
     0
 40
5.0
 41
2.5
340
26
342
B3
  0
ENDTAB
  0
TABLE
  2
BLOCK_RECORD
  5
1
330
0
100
AcDbSymbolTable
 70
     8
  0
BLOCK_RECORD
  5
37
330
1
100
AcDbSymbolTableRecord
100
AcDbBlockTableRecord
  2
*Model_Space
340
3A
  0
BLOCK_RECORD
  5
33
330
1
100
AcDbSymbolTableRecord
100
AcDbBlockTableRecord
  2
*Paper_Space
340
36
  0
BLOCK_RECORD
  5
3B
330
1
100
AcDbSymbolTableRecord
100
AcDbBlockTableRecord
  2
*Paper_Space0
340
3E
  0
BLOCK_RECORD
  5
9C
330
1
100
AcDbSymbolTableRecord
100
AcDbBlockTableRecord
  2
Filled-1
340
0
  0
BLOCK_RECORD
  5
B3
330
1
100
AcDbSymbolTableRecord
100
AcDbBlockTableRecord
  2
_Closed
340
0
  0
BLOCK_RECORD
  5
BA
330
1
100
AcDbSymbolTableRecord
100
AcDbBlockTableRecord
  2
DatumFilled45
340
0
  0
BLOCK_RECORD
  5
C5
330
1
100
AcDbSymbolTableRecord
100
AcDbBlockTableRecord
  2
Tolleranz Liste
340
0
  0
BLOCK_RECORD
  5
15F
330
1
100
AcDbSymbolTableRecord
100
AcDbBlockTableRecord
  2
ProtoTyp
340
0
  0
BLOCK_RECORD
  5
164
330
1
100
AcDbSymbolTableRecord
100
AcDbBlockTableRecord
  2
Logo
340
0
  0
BLOCK_RECORD
  5
1E1
330
1
100
AcDbSymbolTableRecord
100
AcDbBlockTableRecord
  2
P gross
340
0
102
{BLKREFS
331
719
331
71A
331
71B
102
}
  0
ENDTAB
  0
ENDSEC
  0
SECTION
  2
BLOCKS
  0
BLOCK
  5
38
330
37
100
AcDbEntity
  8
0
100
AcDbBlockBegin
  2
*Model_Space
 70
     0
 10
0.0
 20
0.0
 30
0.0
  3
*Model_Space
  1

  0
ENDBLK
  5
39
330
37
100
AcDbEntity
  8
0
100
AcDbBlockEnd
  0
BLOCK
  5
34
330
33
100
AcDbEntity
 67
     1
  8
0
100
AcDbBlockBegin
  2
*Paper_Space
 70
     0
 10
0.0
 20
0.0
 30
0.0
  3
*Paper_Space
  1

  0
ENDBLK
  5
35
330
33
100
AcDbEntity
 67
     1
  8
0
100
AcDbBlockEnd
  0
BLOCK
  5
3C
330
3B
100
AcDbEntity
 67
     1
  8
0
100
AcDbBlockBegin
  2
*Paper_Space0
 70
     0
 10
0.0
 20
0.0
 30
0.0
  3
*Paper_Space0
  1

  0
ENDBLK
  5
3D
330
3B
100
AcDbEntity
 67
     1
  8
0
100
AcDbBlockEnd
  0
BLOCK
  5
9D
330
9C
100
AcDbEntity
  8
0
100
AcDbBlockBegin
  2
Filled-1
 70
     0
 10
0.0
 20
0.0
 30
0.0
  3
Filled-1
  1

  0
LINE
  5
9F
330
9C
100
AcDbEntity
  8
0
 62
     0
100
AcDbLine
 10
-1.0
 20
0.0
 30
0.0
 11
0.0
 21
0.0
 31
0.0
  0
POLYLINE
  5
A0
330
9C
100
AcDbEntity
  8
0
 62
     0
100
AcDb2dPolyline
 66
     1
 10
0.0
 20
0.0
 30
0.0
 70
   128
  0
VERTEX
  5
A1
330
A0
100
AcDbEntity
  8
0
 62
     0
100
AcDbVertex
100
AcDb2dVertex
 10
-1.0
 20
-0.1
 30
0.0
  0
VERTEX
  5
A2
330
A0
100
AcDbEntity
  8
0
 62
     0
100
AcDbVertex
100
AcDb2dVertex
 10
0.0
 20
0.0
 30
0.0
  0
VERTEX
  5
A4
330
A0
100
AcDbEntity
  8
0
 62
     0
100
AcDbVertex
100
AcDb2dVertex
 10
-1.0
 20
0.1
 30
0.0
  0
VERTEX
  5
A5
330
A0
100
AcDbEntity
  8
0
 62
     0
100
AcDbVertex
100
AcDb2dVertex
 10
-1.0
 20
-0.1
 30
0.0
  0
SEQEND
  5
A3
330
A0
100
AcDbEntity
  8
0
 62
     0
  0
SOLID
  5
A6
330
9C
100
AcDbEntity
  8
0
 62
     0
100
AcDbTrace
 10
-1.0
 20
-0.1
 30
0.0
 11
0.0
 21
0.0
 31
0.0
 12
-1.0
 22
0.1
 32
0.0
 13
-1.0
 23
-0.1
 33
0.0
  0
LINE
  5
A7
330
9C
100
AcDbEntity
  8
0
 62
     0
100
AcDbLine
 10
-1.0
 20
-0.1
 30
0.0
 11
0.0
 21
0.0
 31
0.0
  0
LINE
  5
A8
330
9C
100
AcDbEntity
  8
0
 62
     0
100
AcDbLine
 10
0.0
 20
0.0
 30
0.0
 11
-1.0
 21
0.1
 31
0.0
  0
LINE
  5
A9
330
9C
100
AcDbEntity
  8
0
 62
     0
100
AcDbLine
 10
-1.0
 20
0.1
 30
0.0
 11
-1.0
 21
-0.1
 31
0.0
  0
ENDBLK
  5
9E
330
9C
100
AcDbEntity
  8
0
100
AcDbBlockEnd
  0
BLOCK
  5
B8
330
B3
100
AcDbEntity
  8
0
100
AcDbBlockBegin
  2
_Closed
 70
     0
 10
0.0
 20
0.0
 30
0.0
  3
_Closed
  1

  0
LINE
  5
B4
330
B3
100
AcDbEntity
  8
0
  6
ByBlock
 62
     0
370
    -2
100
AcDbLine
 10
-1.0
 20
0.1666666666666666
 30
0.0
 11
0.0
 21
0.0
 31
0.0
  0
LINE
  5
B5
330
B3
100
AcDbEntity
  8
0
  6
ByBlock
 62
     0
370
    -2
100
AcDbLine
 10
0.0
 20
0.0
 30
0.0
 11
-1.0
 21
-0.1666666666666666
 31
0.0
  0
LINE
  5
B6
330
B3
100
AcDbEntity
  8
0
  6
ByBlock
 62
     0
370
    -2
100
AcDbLine
 10
-1.0
 20
0.1666666666666666
 30
0.0
 11
-1.0
 21
-0.1666666666666666
 31
0.0
  0
LINE
  5
B7
330
B3
100
AcDbEntity
  8
0
  6
ByBlock
 62
     0
370
    -2
100
AcDbLine
 10
0.0
 20
0.0
 30
0.0
 11
-1.0
 21
0.0
 31
0.0
  0
ENDBLK
  5
B9
330
B3
100
AcDbEntity
  8
0
100
AcDbBlockEnd
  0
BLOCK
  5
BB
330
BA
100
AcDbEntity
  8
0
100
AcDbBlockBegin
  2
DatumFilled45
 70
     0
 10
0.0
 20
0.0
 30
0.0
  3
DatumFilled45
  1

  0
POLYLINE
  5
BD
330
BA
100
AcDbEntity
  8
0
 62
     0
100
AcDb2dPolyline
 66
     1
 10
0.0
 20
0.0
 30
0.0
 70
   128
  0
VERTEX
  5
BE
330
BD
100
AcDbEntity
  8
0
 62
     0
100
AcDbVertex
100
AcDb2dVertex
 10
0.0
 20
1.0
 30
0.0
  0
VERTEX
  5
BF
330
BD
100
AcDbEntity
  8
0
 62
     0
100
AcDbVertex
100
AcDb2dVertex
 10
0.0
 20
-1.0
 30
0.0
  0
VERTEX
  5
C1
330
BD
100
AcDbEntity
  8
0
 62
     0
100
AcDbVertex
100
AcDb2dVertex
 10
-1.0
 20
0.0
 30
0.0
  0
VERTEX
  5
C2
330
BD
100
AcDbEntity
  8
0
 62
     0
100
AcDbVertex
100
AcDb2dVertex
 10
0.0
 20
1.0
 30
0.0
  0
SEQEND
  5
C0
330
BD
100
AcDbEntity
  8
0
 62
     0
  0
SOLID
  5
C3
330
BA
100
AcDbEntity
  8
0
 62
     0
100
AcDbTrace
 10
0.0
 20
1.0
 30
0.0
 11
0.0
 21
-1.0
 31
0.0
 12
-1.0
 22
0.0
 32
0.0
 13
0.0
 23
1.0
 33
0.0
  0
ENDBLK
  5
BC
330
BA
100
AcDbEntity
  8
0
100
AcDbBlockEnd
  0
BLOCK
  5
C6
330
C5
100
AcDbEntity
  8
0
100
AcDbBlockBegin
  2
Tolleranz Liste
 70
     2
 10
0.0
 20
0.0
 30
0.0
  3
Tolleranz Liste
  1

  0
LINE
  5
C8
330
C5
100
AcDbEntity
  8
Titel (ISO)
 62
     7
100
AcDbLine
 10
-190.0
 20
0.0
 30
0.0
 11
0.0
 21
0.0
 31
0.0
  0
LINE
  5
C9
330
C5
100
AcDbEntity
  8
Titel (ISO)
 62
     7
370
    18
100
AcDbLine
 10
-190.0
 20
2.999999999999989
 30
0.0
 11
0.0
 21
2.999999999999989
 31
0.0
  0
LINE
  5
CA
330
C5
100
AcDbEntity
  8
Titel (ISO)
 62
     7
370
    18
100
AcDbLine
 10
-190.0
 20
5.999999999999978
 30
0.0
 11
0.0
 21
5.999999999999978
 31
0.0
  0
LINE
  5
CB
330
C5
100
AcDbEntity
  8
Titel (ISO)
 62
     7
370
    18
100
AcDbLine
 10
-190.0
 20
8.999999999999968
 30
0.0
 11
0.0
 21
8.999999999999968
 31
0.0
  0
LINE
  5
CC
330
C5
100
AcDbEntity
  8
Titel (ISO)
 62
     7
100
AcDbLine
 10
-190.0
 20
18.99999999999996
 30
0.0
 11
0.0
 21
18.99999999999996
 31
0.0
  0
LINE
  5
CD
330
C5
100
AcDbEntity
  8
Titel (ISO)
 62
     7
370
    18
100
AcDbLine
 10
-130.861111
 20
13.7701170573068
 30
0.0
 11
-130.861111
 21
0.0
 31
0.0
  0
LINE
  5
CE
330
C5
100
AcDbEntity
  8
Titel (ISO)
 62
     7
370
    18
100
AcDbLine
 10
-162.972222
 20
13.7701170573068
 30
0.0
 11
-162.972222
 21
0.0
 31
0.0
  0
LINE
  5
CF
330
C5
100
AcDbEntity
  8
Titel (ISO)
 62
     7
370
    18
100
AcDbLine
 10
-154.944444
 20
13.7701170573068
 30
0.0
 11
-154.944444
 21
0.0
 31
0.0
  0
LINE
  5
D0
330
C5
100
AcDbEntity
  8
Titel (ISO)
 62
     7
370
    18
100
AcDbLine
 10
-146.916667
 20
13.7701170573068
 30
0.0
 11
-146.916667
 21
0.0
 31
0.0
  0
LINE
  5
D1
330
C5
100
AcDbEntity
  8
Titel (ISO)
 62
     7
370
    18
100
AcDbLine
 10
-138.888889
 20
13.7701170573068
 30
0.0
 11
-138.888889
 21
0.0
 31
0.0
  0
LINE
  5
D2
330
C5
100
AcDbEntity
  8
Titel (ISO)
 62
     7
370
    18
100
AcDbLine
 10
-183.25
 20
9.070117057306816
 30
0.0
 11
-183.25
 21
0.0
 31
0.0
  0
LINE
  5
D3
330
C5
100
AcDbEntity
  8
Titel (ISO)
 62
     7
100
AcDbLine
 10
-190.0
 20
18.99999999999996
 30
0.0
 11
-190.0
 21
0.0
 31
0.0
  0
LINE
  5
D4
330
C5
100
AcDbEntity
  8
Titel (ISO)
 62
     7
100
AcDbLine
 10
-171.0
 20
18.99999999999996
 30
0.0
 11
-171.0
 21
0.0
 31
0.0
  0
LINE
  5
D5
330
C5
100
AcDbEntity
  8
Titel (ISO)
 62
     7
370
    18
100
AcDbLine
 10
-190.0
 20
11.99999999999997
 30
0.0
 11
-171.0
 21
11.99999999999995
 31
0.0
  0
LINE
  5
D6
330
C5
100
AcDbEntity
  8
Titel (ISO)
  6
ByBlock
 62
     7
370
    25
100
AcDbLine
 10
-105.0
 20
7.570117057306813
 30
0.0
 11
-103.5
 21
7.570117057306813
 31
0.0
  0
LINE
  5
D7
330
C5
100
AcDbEntity
  8
Titel (ISO)
  6
ByBlock
 62
     7
370
    25
100
AcDbLine
 10
-112.5
 20
7.570117057306813
 30
0.0
 11
-111.0
 21
7.570117057306813
 31
0.0
  0
LINE
  5
D8
330
C5
100
AcDbEntity
  8
Titel (ISO)
 62
     7
370
    18
100
AcDbLine
 10
-122.833333
 20
13.7701170573068
 30
0.0
 11
-122.833333
 21
0.0
 31
0.0
  0
LINE
  5
D9
330
C5
100
AcDbEntity
  8
Titel (ISO)
 62
     7
370
    18
100
AcDbLine
 10
-114.805556
 20
13.7701170573068
 30
0.0
 11
-114.805556
 21
0.0
 31
0.0
  0
LINE
  5
DA
330
C5
100
AcDbEntity
  8
Titel (ISO)
 62
     7
370
    18
100
AcDbLine
 10
-106.777778
 20
13.7701170573068
 30
0.0
 11
-106.777778
 21
0.0
 31
0.0
  0
LINE
  5
DB
330
C5
100
AcDbEntity
  8
Titel (ISO)
 62
     7
100
AcDbLine
 10
-99.25000000000004
 20
18.99999999999996
 30
0.0
 11
-99.25000000000004
 21
0.0
 31
0.0
  0
LINE
  5
DC
330
C5
100
AcDbEntity
  8
Titel (ISO)
 62
     7
370
    18
100
AcDbLine
 10
-95.75000000000002
 20
6.070117057306809
 30
0.0
 11
-95.75000000000002
 21
0.0
 31
0.0
  0
LINE
  5
DD
330
C5
100
AcDbEntity
  8
Titel (ISO)
 62
     7
370
    18
100
AcDbLine
 10
-50.75000000000002
 20
6.070117057306809
 30
0.0
 11
-50.75000000000002
 21
0.0
 31
0.0
  0
LINE
  5
DE
330
C5
100
AcDbEntity
  8
Titel (ISO)
 62
     7
370
    18
100
AcDbLine
 10
-60.25000000000002
 20
6.070117057306809
 30
0.0
 11
-60.25000000000002
 21
0.0
 31
0.0
  0
LINE
  5
DF
330
C5
100
AcDbEntity
  8
Titel (ISO)
 62
     7
370
    18
100
AcDbLine
 10
-69.75000000000001
 20
13.7701170573068
 30
0.0
 11
-69.75000000000001
 21
9.070117057306816
 31
0.0
  0
LINE
  5
E0
330
C5
100
AcDbEntity
  8
Titel (ISO)
 62
     7
370
    18
100
AcDbLine
 10
-60.25000000000002
 20
13.7701170573068
 30
0.0
 11
-60.25000000000002
 21
9.070117057306816
 31
0.0
  0
LINE
  5
E1
330
C5
100
AcDbEntity
  8
Titel (ISO)
 62
     7
370
    18
100
AcDbLine
 10
-50.75000000000002
 20
13.7701170573068
 30
0.0
 11
-50.75000000000002
 21
9.070117057306816
 31
0.0
  0
LINE
  5
E2
330
C5
100
AcDbEntity
  8
Titel (ISO)
 62
     7
370
    18
100
AcDbLine
 10
-30.93750000000003
 20
13.7701170573068
 30
0.0
 11
-30.93750000000003
 21
9.070117057306816
 31
0.0
  0
LINE
  5
E3
330
C5
100
AcDbEntity
  8
Titel (ISO)
 62
     7
370
    18
100
AcDbLine
 10
-20.88650000000005
 20
6.070117057306809
 30
0.0
 11
-20.88650000000005
 21
0.0
 31
0.0
  0
LINE
  5
E4
330
C5
100
AcDbEntity
  8
Titel (ISO)
 62
     7
370
    18
100
AcDbLine
 10
-20.88650000000005
 20
13.7701170573068
 30
0.0
 11
-20.88650000000005
 21
9.070117057306816
 31
0.0
  0
LINE
  5
E5
330
C5
100
AcDbEntity
  8
Titel (ISO)
 62
     7
370
    18
100
AcDbLine
 10
-10.31250000000003
 20
13.7701170573068
 30
0.0
 11
-10.31250000000003
 21
9.070117057306816
 31
0.0
  0
LINE
  5
E6
330
C5
100
AcDbEntity
  8
Titel (ISO)
 62
     7
370
    18
100
AcDbLine
 10
-10.31250000000003
 20
6.070117057306809
 30
0.0
 11
-10.31250000000003
 21
0.0
 31
0.0
  0
LINE
  5
E7
330
C5
100
AcDbEntity
  8
Titel (ISO)
 62
     7
370
    18
100
AcDbLine
 10
-30.93750000000003
 20
6.070117057306809
 30
0.0
 11
-30.93750000000003
 21
0.0
 31
0.0
  0
LINE
  5
E8
330
C5
100
AcDbEntity
  8
Titel (ISO)
 62
     7
100
AcDbLine
 10
0.0
 20
0.0
 30
0.0
 11
0.0
 21
18.99999999999996
 31
0.0
  0
LINE
  5
E9
330
C5
100
AcDbEntity
  8
Titel (ISO)
 62
     7
370
    18
100
AcDbLine
 10
-69.75000000000001
 20
6.070117057306809
 30
0.0
 11
-69.75000000000001
 21
0.0
 31
0.0
  0
LINE
  5
EA
330
C5
100
AcDbEntity
  8
Titel (ISO)
 62
     7
100
AcDbLine
 10
-79.25000000000003
 20
18.99999999999996
 30
0.0
 11
-79.25000000000003
 21
0.0
 31
0.0
  0
LINE
  5
EB
330
C5
100
AcDbEntity
  8
Titel (ISO)
370
    18
100
AcDbLine
 10
-40.98894210789946
 20
8.999999999999968
 30
0.0
 11
-40.98894210789946
 21
13.7701170573068
 31
0.0
  0
LINE
  5
EC
330
C5
100
AcDbEntity
  8
Titel (ISO)
370
    18
100
AcDbLine
 10
-40.81485039283569
 20
5.999999999999978
 30
0.0
 11
-40.81485039283569
 21
0.0
 31
0.0
  0
SPLINE
  5
ED
330
C5
100
AcDbEntity
  8
Titel (ISO)
 62
     7
370
    18
100
AcDbSpline
210
0.0
220
0.0
230
1.0
 70
     8
 71
     4
 72
    15
 73
    10
 74
     0
 42
0.0000000001
 43
0.0000000001
 40
0.0
 40
0.0
 40
0.0
 40
0.0
 40
0.0
 40
0.2448862522902173
 40
0.372542829838283
 40
0.537712414826782
 40
0.6892572885860062
 40
0.7957086571447725
 40
1.0
 40
1.0
 40
1.0
 40
1.0
 40
1.0
 10
-66.28694873925519
 20
7.64651126040853
 30
0.0
 10
-66.28992133139053
 20
7.684326472464615
 30
0.0
 10
-66.30278798934259
 20
7.801058419170612
 30
0.0
 10
-66.54106167347689
 20
7.859647761643628
 30
0.0
 10
-66.76118299621641
 20
7.833028120844396
 30
0.0
 10
-66.95021102053759
 20
7.740235927209404
 30
0.0
 10
-66.9202360191262
 20
7.49058708009608
 30
0.0
 10
-66.82199748484567
 20
7.453245599066988
 30
0.0
 10
-66.75742436020357
 20
7.442433905354555
 30
0.0
 10
-66.71777189204616
 20
7.426104053762667
 30
0.0
  0
LINE
  5
EE
330
C5
100
AcDbEntity
  8
0
100
AcDbLine
 10
-66.26659572485762
 20
7.671004611388436
 30
0.0
 11
-66.37244477211755
 21
7.81624801356239
 31
0.0
  0
ARC
  5
EF
330
C5
100
AcDbEntity
  8
0
100
AcDbCircle
 10
-66.45038101106777
 20
7.648258902765228
 30
0.0
 40
0.1619243095334992
100
AcDbArc
 50
12.14398738960057
 51
60.02290540986514
  0
LINE
  5
F0
330
C5
100
AcDbEntity
  8
0
100
AcDbLine
 10
-66.89670837859369
 20
7.487238148935002
 30
0.0
 11
-66.71468159031151
 21
7.422119968654339
 31
0.0
  0
ARC
  5
F1
330
C5
100
AcDbEntity
  8
0
100
AcDbCircle
 10
-66.6890673438411
 20
7.78069177527314
 30
0.0
 40
0.3462460077174544
100
AcDbArc
 50
237.7261995458496
 51
262.9055232599758
  0
SPLINE
  5
F2
330
C5
100
AcDbEntity
  8
Titel (ISO)
 62
     7
370
    18
100
AcDbSpline
210
0.0
220
0.0
230
1.0
 70
     8
 71
     4
 72
    12
 73
     7
 74
     0
 42
0.0000000001
 43
0.0000000001
 40
0.0
 40
0.0
 40
0.0
 40
0.0
 40
0.0
 40
0.3933269697832906
 40
0.5579414211012799
 40
1.0
 40
1.0
 40
1.0
 40
1.0
 40
1.0
 10
-66.7177718920461
 20
7.426104053762667
 30
0.0
 10
-66.94102867992272
 20
7.36506224211622
 30
0.0
 10
-66.95038095686311
 20
7.40547820884279
 30
0.0
 10
-67.03925767066545
 20
6.865044071034649
 30
0.0
 10
-66.44367713306704
 20
6.956885902430158
 30
0.0
 10
-66.3418945025619
 20
7.013553608348583
 30
0.0
 10
-66.25537378160072
 20
7.154138853519782
 30
0.0
  0
SPLINE
  5
F3
330
C5
100
AcDbEntity
  8
Titel (ISO)
 62
     7
370
    18
100
AcDbSpline
210
0.0
220
0.0
230
1.0
 70
     8
 71
     4
 72
    12
 73
     7
 74
     0
 42
0.0000000001
 43
0.0000000001
 40
0.0
 40
0.0
 40
0.0
 40
0.0
 40
0.0
 40
0.3872212693569691
 40
0.5575199507602742
 40
1.0
 40
1.0
 40
1.0
 40
1.0
 40
1.0
 10
-23.59108108251476
 20
7.528905781183539
 30
0.0
 10
-23.70063657153558
 20
7.500278841709757
 30
0.0
 10
-23.87007003961081
 20
7.495055014400904
 30
0.0
 10
-23.87709660835664
 20
6.981211874419681
 30
0.0
 10
-23.33833653350904
 20
7.052090909862052
 30
0.0
 10
-23.20493964281642
 20
7.119913147019296
 30
0.0
 10
-23.12868297206911
 20
7.256940580940742
 30
0.0
  0
SPLINE
  5
F4
330
C5
100
AcDbEntity
  8
Titel (ISO)
 62
     7
370
    18
100
AcDbSpline
210
0.0
220
0.0
230
1.0
 70
     8
 71
     4
 72
    15
 73
    10
 74
     0
 42
0.0000000001
 43
0.0000000001
 40
0.0
 40
0.0
 40
0.0
 40
0.0
 40
0.0
 40
0.2448862522902173
 40
0.372542829838283
 40
0.537712414826782
 40
0.6892572885860062
 40
0.7957086571447725
 40
1.0
 40
1.0
 40
1.0
 40
1.0
 40
1.0
 10
-23.16025792972365
 20
7.74931298782949
 30
0.0
 10
-23.16323052185901
 20
7.787128199885575
 30
0.0
 10
-23.17609717981107
 20
7.903860146591572
 30
0.0
 10
-23.41437086394535
 20
7.962449489064589
 30
0.0
 10
-23.63449218668485
 20
7.935829848265356
 30
0.0
 10
-23.82352021100605
 20
7.843037654630364
 30
0.0
 10
-23.79354520959467
 20
7.59338880751704
 30
0.0
 10
-23.69530667531414
 20
7.556047326487949
 30
0.0
 10
-23.630733550672
 20
7.545235632775515
 30
0.0
 10
-23.59108108251462
 20
7.528905781183627
 30
0.0
  0
LINE
  5
F5
330
C5
100
AcDbEntity
  8
Skizziergeometrie (ISO)
100
AcDbLine
 10
-23.13990491532607
 20
7.773806338809468
 30
0.0
 11
-23.24575396258602
 21
7.91904974098335
 31
0.0
  0
LINE
  5
F6
330
C5
100
AcDbEntity
  8
Skizziergeometrie (ISO)
100
AcDbLine
 10
-23.77001756906214
 20
7.590039876355962
 30
0.0
 11
-23.5879907807799
 21
7.524921696075281
 31
0.0
  0
ARC
  5
F7
330
C5
100
AcDbEntity
  8
Skizziergeometrie (ISO)
100
AcDbCircle
 10
-23.32369020153624
 20
7.75106063018617
 30
0.0
 40
0.1619243095335294
100
AcDbArc
 50
12.14398738962304
 51
60.02290540987669
  0
ARC
  5
F8
330
C5
100
AcDbEntity
  8
Skizziergeometrie (ISO)
100
AcDbCircle
 10
-23.56237653430956
 20
7.883493502694083
 30
0.0
 40
0.3462460077174411
100
AcDbArc
 50
237.7261995458445
 51
262.9055232599874
  0
TEXT
  5
F9
330
C5
100
AcDbEntity
  8
Titel (ISO)
 62
     7
100
AcDbText
 10
-67.77000000000001
 20
10.07011705730681
 30
0.0
 40
1.500000059604644
  1
...50
  7
TolListe_12
100
AcDbText
  0
TEXT
  5
FB
330
C5
100
AcDbEntity
  8
Titel (ISO)
 62
     7
100
AcDbText
 10
-67.77000000000001
 20
12.47011705730679
 30
0.0
 40
1.500000059604644
  1
>  10
  7
TolListe_12
100
AcDbText
  0
TEXT
  5
FC
330
C5
100
AcDbEntity
  8
Titel (ISO)
 62
     7
100
AcDbText
 10
-77.52000000000001
 20
6.970117057306808
 30
0.0
 40
1.500000059604644
  1
Abmasse ±   Grad und Minuten)
  7
TolListe_12
100
AcDbText
  0
TEXT
  5
FD
330
C5
100
AcDbEntity
  8
Titel (ISO)
 62
     7
100
AcDbText
 10
-77.27000000000001
 20
10.07011705730681
 30
0.0
 40
1.500000059604644
  1
...10
  7
TolListe_12
100
AcDbText
  0
TEXT
  5
FF
330
C5
100
AcDbEntity
  8
Titel (ISO)
 62
     7
100
AcDbText
 10
-77.52000000000001
 20
0.9701170573068029
 30
0.0
 40
1.500000059604644
  1
` 1~30
  7
TolListe_12-AIGDT
100
AcDbText
  0
TEXT
  5
101
330
C5
100
AcDbEntity
  8
Titel (ISO)
 62
     7
100
AcDbText
 10
-77.52000000000001
 20
3.970117057306801
 30
0.0
 40
1.500000059604644
  1
` 1~
  7
TolListe_12-AIGDT
100
AcDbText
  0
TEXT
  5
102
330
C5
100
AcDbEntity
  8
Titel (ISO)
 62
     7
100
AcDbText
 10
-97.77000000000001
 20
11.97011705730681
 30
0.0
 40
1.500000059604644
  1
für Winkelmasse
  7
TolListe_12
100
AcDbText
  0
TEXT
  5
103
330
C5
100
AcDbEntity
  8
Titel (ISO)
 62
     7
100
AcDbText
 10
-97.97000000000004
 20
6.970117057306808
 30
0.0
 40
1.500000059604644
  1
Genauigkeitsgrad
  7
TolListe_12
100
AcDbText
  0
TEXT
  5
104
330
C5
100
AcDbEntity
  8
Titel (ISO)
 62
     7
100
AcDbText
 10
-94.49929825881072
 20
0.9701170573068029
 30
0.0
 40
1.500000059604644
  1
c(grob)
  7
TolListe_12
100
AcDbText
  0
TEXT
  5
105
330
C5
100
AcDbEntity
  8
Titel (ISO)
 62
     7
100
AcDbText
 10
-69.51999999999999
 20
15.97011705730679
 30
0.0
 40
1.500000059604644
  1
Nennmass in mm = Länge des kürzeren Winkelschenkels
  7
TolListe_12
100
AcDbText
  0
TEXT
  5
106
330
C5
100
AcDbEntity
  8
Titel (ISO)
 62
     7
100
AcDbText
 10
-8.332499999999996
 20
10.07011705730681
 30
0.0
 40
1.500000059604644
  1
..400
  7
TolListe_12
100
AcDbText
  0
TEXT
  5
107
330
C5
100
AcDbEntity
  8
Titel (ISO)
 62
     7
100
AcDbText
 10
-8.332499999999996
 20
12.47011705730679
 30
0.0
 40
1.500000059604644
  1
> 120
  7
TolListe_12
100
AcDbText
  0
TEXT
  5
108
330
C5
100
AcDbEntity
  8
Titel (ISO)
 62
     7
100
AcDbText
 10
-18.64499999999999
 20
10.07011705730681
 30
0.0
 40
1.500000059604644
  1
..120
  7
TolListe_12
100
AcDbText
  0
TEXT
  5
109
330
C5
100
AcDbEntity
  8
Titel (ISO)
 62
     7
100
AcDbText
 10
-18.64499999999999
 20
12.47011705730679
 30
0.0
 40
1.500000059604644
  1
>  50
  7
TolListe_12
100
AcDbText
  0
TEXT
  5
10A
330
C5
100
AcDbEntity
  8
Titel (ISO)
 62
     7
100
AcDbText
 10
-28.95749999999999
 20
10.07011705730681
 30
0.0
 40
1.500000059604644
  1
...50
  7
TolListe_12
100
AcDbText
  0
TEXT
  5
10B
330
C5
100
AcDbEntity
  8
Titel (ISO)
 62
     7
100
AcDbText
 10
-28.95749999999999
 20
12.47011705730679
 30
0.0
 40
1.500000059604644
  1
>  10
  7
TolListe_12
100
AcDbText
  0
TEXT
  5
10C
330
C5
100
AcDbEntity
  8
Titel (ISO)
 62
     7
100
AcDbText
 10
-39.26999999999999
 20
10.07011705730681
 30
0.0
 40
1.500000059604644
  1
...10
  7
TolListe_12
100
AcDbText
  0
TEXT
  5
10D
330
C5
100
AcDbEntity
  8
Titel (ISO)
 62
     7
100
AcDbText
 10
-17.895
 20
3.970117057306801
 30
0.0
 40
1.500000059604644
  1
` 0,6
  7
TolListe_12-AIGDT
100
AcDbText
  0
TEXT
  5
10E
330
C5
100
AcDbEntity
  8
Titel (ISO)
 62
     7
100
AcDbText
 10
-34.52000000000002
 20
6.970117057306808
 30
0.0
 40
1.500000059604644
  1
Abmasse ±     (mm/100mm)
  7
TolListe_12
100
AcDbText
  0
TEXT
  5
10F
330
C5
100
AcDbEntity
  8
Titel (ISO)
 62
     7
100
AcDbText
 10
-17.895
 20
0.9701170573068029
 30
0.0
 40
1.500000059604644
  1
` 0,9
  7
TolListe_12-AIGDT
100
AcDbText
  0
TEXT
  5
110
330
C5
100
AcDbEntity
  8
Titel (ISO)
 62
     7
100
AcDbText
 10
-68.01999999999999
 20
0.9701170573068029
 30
0.0
 40
1.500000059604644
  1
` 1~
  7
TolListe_12-AIGDT
100
AcDbText
  0
TEXT
  5
111
330
C5
100
AcDbEntity
  8
Titel (ISO)
 62
     7
100
AcDbText
 10
-68.01999999999999
 20
3.970117057306801
 30
0.0
 40
1.500000059604644
  1
` 30
  7
TolListe_12-AIGDT
100
AcDbText
  0
TEXT
  5
112
330
C5
100
AcDbEntity
  8
Titel (ISO)
 62
     7
100
AcDbText
 10
-58.52
 20
3.970117057306801
 30
0.0
 40
1.500000059604644
  1
` 20
  7
TolListe_12-AIGDT
100
AcDbText
  0
TEXT
  5
113
330
C5
100
AcDbEntity
  8
Titel (ISO)
 62
     7
100
AcDbText
 10
-48.77000000000001
 20
10.07011705730681
 30
0.0
 40
1.500000059604644
  1
..400
  7
TolListe_12
100
AcDbText
  0
TEXT
  5
114
330
C5
100
AcDbEntity
  8
Titel (ISO)
 62
     7
100
AcDbText
 10
-48.77000000000001
 20
12.47011705730679
 30
0.0
 40
1.500000059604644
  1
> 120
  7
TolListe_12
100
AcDbText
  0
TEXT
  5
115
330
C5
100
AcDbEntity
  8
Titel (ISO)
 62
     7
100
AcDbText
 10
-48.01999999999999
 20
0.9701170573068029
 30
0.0
 40
1.500000059604644
  1
` 15
  7
TolListe_12-AIGDT
100
AcDbText
  0
TEXT
  5
116
330
C5
100
AcDbEntity
  8
Titel (ISO)
 62
     7
100
AcDbText
 10
-58.52
 20
0.9701170573068029
 30
0.0
 40
1.500000059604644
  1
` 30
  7
TolListe_12-AIGDT
100
AcDbText
  0
TEXT
  5
117
330
C5
100
AcDbEntity
  8
Titel (ISO)
 62
     7
100
AcDbText
 10
-48.01999999999999
 20
3.970117057306801
 30
0.0
 40
1.500000059604644
  1
` 10
  7
TolListe_12-AIGDT
100
AcDbText
  0
TEXT
  5
118
330
C5
100
AcDbEntity
  8
Titel (ISO)
 62
     7
100
AcDbText
 10
-139.52
 20
15.97011705730679
 30
0.0
 40
1.500000059604644
  1
Nennmass mm
  7
TolListe_12
100
AcDbText
  0
TEXT
  5
119
330
C5
100
AcDbEntity
  8
Titel (ISO)
 62
     7
100
AcDbText
 10
-38.52
 20
0.9701170573068029
 30
0.0
 40
1.500000059604644
  1
` 2,5
  7
TolListe_12-AIGDT
100
AcDbText
  0
TEXT
  5
11A
330
C5
100
AcDbEntity
  8
Titel (ISO)
 62
     7
100
AcDbText
 10
-28.2075
 20
0.9701170573068029
 30
0.0
 40
1.500000059604644
  1
` 1,7
  7
TolListe_12-AIGDT
100
AcDbText
  0
TEXT
  5
11B
330
C5
100
AcDbEntity
  8
Titel (ISO)
 62
     7
100
AcDbText
 10
-7.582500000000003
 20
3.970117057306801
 30
0.0
 40
1.500000059604644
  1
` 0,3
  7
TolListe_12-AIGDT
100
AcDbText
  0
TEXT
  5
11C
330
C5
100
AcDbEntity
  8
Titel (ISO)
 62
     7
100
AcDbText
 10
-7.582500000000003
 20
0.9701170573068029
 30
0.0
 40
1.500000059604644
  1
` 0,4
  7
TolListe_12-AIGDT
100
AcDbText
  0
TEXT
  5
11D
330
C5
100
AcDbEntity
  8
Titel (ISO)
 62
     7
100
AcDbText
 10
-58.26999999999999
 20
10.07011705730681
 30
0.0
 40
1.500000059604644
  1
..120
  7
TolListe_12
100
AcDbText
  0
TEXT
  5
11E
330
C5
100
AcDbEntity
  8
Titel (ISO)
 62
     7
100
AcDbText
 10
-58.26999999999999
 20
12.47011705730679
 30
0.0
 40
1.500000059604644
  1
>  50
  7
TolListe_12
100
AcDbText
  0
TEXT
  5
11F
330
C5
100
AcDbEntity
  8
Titel (ISO)
 62
     7
100
AcDbText
 10
-38.52
 20
3.970117057306801
 30
0.0
 40
1.500000059604644
  1
` 1,7
  7
TolListe_12-AIGDT
100
AcDbText
  0
TEXT
  5
120
330
C5
100
AcDbEntity
  8
Titel (ISO)
 62
     7
100
AcDbText
 10
-28.2075
 20
3.970117057306801
 30
0.0
 40
1.500000059604644
  1
` 0,9
  7
TolListe_12-AIGDT
100
AcDbText
  0
TEXT
  5
121
330
C5
100
AcDbEntity
  8
Titel (ISO)
 62
     7
100
AcDbText
 10
-137.908889
 20
6.970117057306808
 30
0.0
 40
1.500000059604644
  1
` 0,2
  7
TolListe_12-AIGDT
100
AcDbText
  0
TEXT
  5
122
330
C5
100
AcDbEntity
  8
Titel (ISO)
 62
     7
100
AcDbText
 10
-137.908889
 20
10.07011705730681
 30
0.0
 40
1.500000059604644
  1
..400
  7
TolListe_12
100
AcDbText
  0
TEXT
  5
123
330
C5
100
AcDbEntity
  8
Titel (ISO)
 62
     7
100
AcDbText
 10
-137.908889
 20
0.9701170573068029
 30
0.0
 40
1.500000059604644
  1
` 1,2
  7
TolListe_12-AIGDT
100
AcDbText
  0
TEXT
  5
124
330
C5
100
AcDbEntity
  8
Titel (ISO)
 62
     7
100
AcDbText
 10
-137.908889
 20
3.970117057306801
 30
0.0
 40
1.500000059604644
  1
` 0,5
  7
TolListe_12-AIGDT
100
AcDbText
  0
TEXT
  5
125
330
C5
100
AcDbEntity
  8
Titel (ISO)
 62
     7
100
AcDbText
 10
-145.936667
 20
0.9701170573068029
 30
0.0
 40
1.500000059604644
  1
` 0,8
  7
TolListe_12-AIGDT
100
AcDbText
  0
TEXT
  5
126
330
C5
100
AcDbEntity
  8
Titel (ISO)
 62
     7
100
AcDbText
 10
-153.964444
 20
0.9701170573068029
 30
0.0
 40
1.500000059604644
  1
` 0,5
  7
TolListe_12-AIGDT
100
AcDbText
  0
TEXT
  5
127
330
C5
100
AcDbEntity
  8
Titel (ISO)
 62
     7
100
AcDbText
 10
-145.936667
 20
6.970117057306808
 30
0.0
 40
1.500000059604644
  1
` 0,15
  7
TolListe_12-AIGDT
100
AcDbText
  0
TEXT
  5
128
330
C5
100
AcDbEntity
  8
Titel (ISO)
 62
     7
100
AcDbText
 10
-145.936667
 20
3.970117057306801
 30
0.0
 40
1.500000059604644
  1
` 0,3
  7
TolListe_12-AIGDT
100
AcDbText
  0
TEXT
  5
129
330
C5
100
AcDbEntity
  8
Titel (ISO)
 62
     7
100
AcDbText
 10
-153.964444
 20
3.970117057306801
 30
0.0
 40
1.500000059604644
  1
` 0,2
  7
TolListe_12-AIGDT
100
AcDbText
  0
TEXT
  5
12A
330
C5
100
AcDbEntity
  8
Titel (ISO)
 62
     7
100
AcDbText
 10
-153.964444
 20
12.47011705730679
 30
0.0
 40
1.500000059604644
  1
>  6
  7
TolListe_12
100
AcDbText
  0
TEXT
  5
12B
330
C5
100
AcDbEntity
  8
Titel (ISO)
 62
     7
100
AcDbText
 10
-153.964444
 20
10.07011705730681
 30
0.0
 40
1.500000059604644
  1
..30
  7
TolListe_12
100
AcDbText
  0
TEXT
  5
12C
330
C5
100
AcDbEntity
  8
Titel (ISO)
 62
     7
100
AcDbText
 10
-161.992222
 20
3.970117057306801
 30
0.0
 40
1.500000059604644
  1
` 0,1
  7
TolListe_12-AIGDT
100
AcDbText
  0
TEXT
  5
12D
330
C5
100
AcDbEntity
  8
Titel (ISO)
 62
     7
100
AcDbText
 10
-161.992222
 20
6.970117057306808
 30
0.0
 40
1.500000059604644
  1
` 0,05
  7
TolListe_12-AIGDT
100
AcDbText
  0
TEXT
  5
12E
330
C5
100
AcDbEntity
  8
Titel (ISO)
 62
     7
100
AcDbText
 10
-161.992222
 20
10.07011705730681
 30
0.0
 40
1.500000059604644
  1
...6
  7
TolListe_12
100
AcDbText
  0
TEXT
  5
12F
330
C5
100
AcDbEntity
  8
Titel (ISO)
 62
     7
100
AcDbText
 10
-161.992222
 20
12.47011705730679
 30
0.0
 40
1.500000059604644
  1
>  3
  7
TolListe_12
100
AcDbText
  0
TEXT
  5
130
330
C5
100
AcDbEntity
  8
Titel (ISO)
 62
     7
100
AcDbText
 10
-153.964444
 20
6.970117057306808
 30
0.0
 40
1.500000059604644
  1
` 0,1
  7
TolListe_12-AIGDT
100
AcDbText
  0
TEXT
  5
131
330
C5
100
AcDbEntity
  8
Titel (ISO)
 62
     7
100
AcDbText
 10
-161.992222
 20
0.9701170573068029
 30
0.0
 40
1.500000059604644
  1
` 0,3
  7
TolListe_12-AIGDT
100
AcDbText
  0
TEXT
  5
132
330
C5
100
AcDbEntity
  8
Titel (ISO)
 62
     7
100
AcDbText
 10
-170.02
 20
3.970117057306801
 30
0.0
 40
1.500000059604644
  1
` 0,1
  7
TolListe_12-AIGDT
100
AcDbText
  0
TEXT
  5
133
330
C5
100
AcDbEntity
  8
Titel (ISO)
 62
     7
100
AcDbText
 10
-170.02
 20
0.9701170573068029
 30
0.0
 40
1.500000059604644
  1
` 0,2
  7
TolListe_12-AIGDT
100
AcDbText
  0
TEXT
  5
134
330
C5
100
AcDbEntity
  8
Titel (ISO)
 62
     7
100
AcDbText
 10
-170.02
 20
6.970117057306808
 30
0.0
 40
1.500000059604644
  1
` 0,05
  7
TolListe_12-AIGDT
100
AcDbText
  0
TEXT
  5
135
330
C5
100
AcDbEntity
  8
Titel (ISO)
 62
     7
100
AcDbText
 10
-170.02
 20
12.47011705730679
 30
0.0
 40
1.500000059604644
  1
>  0,5
  7
TolListe_12
100
AcDbText
  0
TEXT
  5
136
330
C5
100
AcDbEntity
  8
Titel (ISO)
 62
     7
100
AcDbText
 10
-145.936667
 20
10.07011705730681
 30
0.0
 40
1.500000059604644
  1
..120
  7
TolListe_12
100
AcDbText
  0
TEXT
  5
137
330
C5
100
AcDbEntity
  8
Titel (ISO)
 62
     7
100
AcDbText
 10
-145.936667
 20
12.47011705730679
 30
0.0
 40
1.500000059604644
  1
>  30
  7
TolListe_12
100
AcDbText
  0
TEXT
  5
138
330
C5
100
AcDbEntity
  8
Titel (ISO)
 62
     7
100
AcDbText
 10
-137.908889
 20
12.47011705730679
 30
0.0
 40
1.500000059604644
  1
> 120
  7
TolListe_12
100
AcDbText
  0
TEXT
  5
139
330
C5
100
AcDbEntity
  8
Titel (ISO)
 62
     7
100
AcDbText
 10
-88.26999999999999
 20
3.970117057306801
 30
0.0
 40
1.500000059604644
  1
m(mittel)
  7
TolListe_12
100
AcDbText
  0
TEXT
  5
13A
330
C5
100
AcDbEntity
  8
Titel (ISO)
 62
     7
100
AcDbText
 10
-189.02
 20
12.89999999999995
 30
0.0
 40
1.500000059604644
  1
für Längenmasse
  7
TolListe_12
100
AcDbText
  0
TEXT
  5
13B
330
C5
100
AcDbEntity
  8
Titel (ISO)
 62
     7
100
AcDbText
 10
-189.02
 20
9.899999999999966
 30
0.0
 40
1.500000059604644
  1
Genauigkeitsgrad
  7
TolListe_12
100
AcDbText
  0
TEXT
  5
13C
330
C5
100
AcDbEntity
  8
Titel (ISO)
 62
     7
100
AcDbText
 10
-170.02
 20
10.07011705730681
 30
0.0
 40
1.500000059604644
  1
...3
  7
TolListe_12
100
AcDbText
  0
TEXT
  5
13D
330
C5
100
AcDbEntity
  8
Titel (ISO)
 62
     7
100
AcDbText
 10
-182.02
 20
3.899999999999987
 30
0.0
 40
1.500000059604644
  1
m (mittel)
  7
TolListe_12
100
AcDbText
  0
TEXT
  5
13E
330
C5
100
AcDbEntity
  8
Titel (ISO)
 62
     7
100
AcDbText
 10
-182.02
 20
6.899999999999977
 30
0.0
 40
1.500000059604644
  1
f (fein)
  7
TolListe_12
100
AcDbText
  0
TEXT
  5
13F
330
C5
100
AcDbEntity
  8
Titel (ISO)
 62
     7
100
AcDbText
 10
-182.02
 20
0.8999999999999985
 30
0.0
 40
1.500000059604644
  1
c (grob)
  7
TolListe_12
100
AcDbText
  0
TEXT
  5
140
330
C5
100
AcDbEntity
  8
Titel (ISO)
 62
     7
100
AcDbText
 10
-189.02
 20
14.8701170573068
 30
0.0
 40
1.500000059604644
  1
toleranzen
  7
TolListe_12
100
AcDbText
  0
TEXT
  5
141
330
C5
100
AcDbEntity
  8
Titel (ISO)
 62
     7
100
AcDbText
 10
-189.02
 20
16.77011705730679
 30
0.0
 40
1.500000059604644
  1
Allgemein-
  7
TolListe_12
100
AcDbText
  0
TEXT
  5
142
330
C5
100
AcDbEntity
  8
Titel (ISO)
 62
     7
100
AcDbText
 10
-105.797778
 20
10.07011705730681
 30
0.0
 40
1.500000059604644
  1
..8000
  7
TolListe_12
100
AcDbText
  0
TEXT
  5
143
330
C5
100
AcDbEntity
  8
Titel (ISO)
 62
     7
100
AcDbText
 10
-105.797778
 20
12.47011705730679
 30
0.0
 40
1.500000059604644
  1
> 4000
  7
TolListe_12
100
AcDbText
  0
TEXT
  5
144
330
C5
100
AcDbEntity
  8
Titel (ISO)
 62
     7
100
AcDbText
 10
-105.797778
 20
3.970117057306801
 30
0.0
 40
1.500000059604644
  1
` 3
  7
TolListe_12-AIGDT
100
AcDbText
  0
TEXT
  5
145
330
C5
100
AcDbEntity
  8
Titel (ISO)
 62
     7
100
AcDbText
 10
-105.797778
 20
0.9701170573068029
 30
0.0
 40
1.500000059604644
  1
` 5
  7
TolListe_12-AIGDT
100
AcDbText
  0
TEXT
  5
146
330
C5
100
AcDbEntity
  8
Titel (ISO)
 62
     7
100
AcDbText
 10
-97.77000000000001
 20
14.37011705730681
 30
0.0
 40
1.500000059604644
  1
toleranzen
  7
TolListe_12
100
AcDbText
  0
TEXT
  5
147
330
C5
100
AcDbEntity
  8
Titel (ISO)
 62
     7
100
AcDbText
 10
-97.77000000000001
 20
16.77011705730679
 30
0.0
 40
1.500000059604644
  1
Allgemein-
  7
TolListe_12
100
AcDbText
  0
TEXT
  5
148
330
C5
100
AcDbEntity
  8
Titel (ISO)
 62
     7
100
AcDbText
 10
-121.853333
 20
3.970117057306801
 30
0.0
 40
1.500000059604644
  1
` 1,2
  7
TolListe_12-AIGDT
100
AcDbText
  0
TEXT
  5
149
330
C5
100
AcDbEntity
  8
Titel (ISO)
 62
     7
100
AcDbText
 10
-121.853333
 20
0.9701170573068029
 30
0.0
 40
1.500000059604644
  1
` 3
  7
TolListe_12-AIGDT
100
AcDbText
  0
TEXT
  5
14A
330
C5
100
AcDbEntity
  8
Titel (ISO)
 62
     7
100
AcDbText
 10
-113.825556
 20
10.07011705730681
 30
0.0
 40
1.500000059604644
  1
..4000
  7
TolListe_12
100
AcDbText
  0
TEXT
  5
14B
330
C5
100
AcDbEntity
  8
Titel (ISO)
 62
     7
100
AcDbText
 10
-113.825556
 20
12.47011705730679
 30
0.0
 40
1.500000059604644
  1
> 2000
  7
TolListe_12
100
AcDbText
  0
TEXT
  5
14C
330
C5
100
AcDbEntity
  8
Titel (ISO)
 62
     7
100
AcDbText
 10
-121.853333
 20
10.07011705730681
 30
0.0
 40
1.500000059604644
  1
..2000
  7
TolListe_12
100
AcDbText
  0
TEXT
  5
14D
330
C5
100
AcDbEntity
  8
Titel (ISO)
 62
     7
100
AcDbText
 10
-121.853333
 20
12.47011705730679
 30
0.0
 40
1.500000059604644
  1
> 1000
  7
TolListe_12
100
AcDbText
  0
TEXT
  5
14E
330
C5
100
AcDbEntity
  8
Titel (ISO)
 62
     7
100
AcDbText
 10
-121.853333
 20
6.970117057306808
 30
0.0
 40
1.500000059604644
  1
` 0,5
  7
TolListe_12-AIGDT
100
AcDbText
  0
TEXT
  5
14F
330
C5
100
AcDbEntity
  8
Titel (ISO)
 62
     7
100
AcDbText
 10
-113.825556
 20
3.970117057306801
 30
0.0
 40
1.500000059604644
  1
` 2
  7
TolListe_12-AIGDT
100
AcDbText
  0
TEXT
  5
150
330
C5
100
AcDbEntity
  8
Titel (ISO)
 62
     7
100
AcDbText
 10
-113.825556
 20
0.9701170573068029
 30
0.0
 40
1.500000059604644
  1
` 4
  7
TolListe_12-AIGDT
100
AcDbText
  0
TEXT
  5
151
330
C5
100
AcDbEntity
  8
Titel (ISO)
 62
     7
100
AcDbText
 10
-129.881111
 20
6.970117057306808
 30
0.0
 40
1.500000059604644
  1
` 0,3
  7
TolListe_12-AIGDT
100
AcDbText
  0
TEXT
  5
152
330
C5
100
AcDbEntity
  8
Titel (ISO)
 62
     7
100
AcDbText
 10
-129.881111
 20
10.07011705730681
 30
0.0
 40
1.500000059604644
  1
..1000
  7
TolListe_12
100
AcDbText
  0
TEXT
  5
153
330
C5
100
AcDbEntity
  8
Titel (ISO)
 62
     7
100
AcDbText
 10
-129.881111
 20
12.47011705730679
 30
0.0
 40
1.500000059604644
  1
>  400
  7
TolListe_12
100
AcDbText
  0
TEXT
  5
154
330
C5
100
AcDbEntity
  8
Titel (ISO)
 62
     7
100
AcDbText
 10
-129.881111
 20
0.9701170573068029
 30
0.0
 40
1.500000059604644
  1
` 2
  7
TolListe_12-AIGDT
100
AcDbText
  0
TEXT
  5
155
330
C5
100
AcDbEntity
  8
Titel (ISO)
 62
     7
100
AcDbText
 10
-129.881111
 20
3.970117057306801
 30
0.0
 40
1.500000059604644
  1
` 0,8
  7
TolListe_12-AIGDT
100
AcDbText
  0
TEXT
  5
156
330
C5
100
AcDbEntity
  8
Titel (ISO)
 62
     7
100
AcDbText
 10
-94.3154314551193
 20
3.970117057306801
 30
0.0
 40
1.500000059604644
  1
f(fein)
 41
0.8000000119209289
  7
TolListe_12
100
AcDbText
  0
TEXT
  5
158
330
C5
100
AcDbEntity
  8
Titel (ISO)
 62
     7
100
AcDbText
 10
-189.02
 20
6.399999985098823
 30
0.0
 40
2.000000029802322
  1
 
 41
1.100000023841857
  7
TolListe_12-Arial
 11
-189.02
 21
7.399999999999984
 31
0.0
100
AcDbText
 73
     2
  0
TEXT
  5
15A
330
C5
100
AcDbEntity
  8
Titel (ISO)
 62
     7
100
AcDbText
 10
-189.02
 20
3.399999985098824
 30
0.0
 40
2.000000029802322
  1
 
 41
1.100000023841857
  7
TolListe_12-Arial
 11
-189.02
 21
4.399999999999986
 31
0.0
100
AcDbText
 73
     2
  0
TEXT
  5
15B
330
C5
100
AcDbEntity
  8
Titel (ISO)
 62
     7
100
AcDbText
 10
-189.02
 20
0.3999999850988356
 30
0.0
 40
2.000000029802322
  1
 
 41
1.100000023841857
  7
TolListe_12-Arial
 11
-189.02
 21
1.399999999999996
 31
0.0
100
AcDbText
 73
     2
  0
ATTDEF
  5
15C
330
C5
100
AcDbEntity
  8
Titel (ISO)
 62
     7
100
AcDbText
 10
-98.35000000000002
 20
3.499999985098831
 30
0.0
 40
2.000000029802322
  1
 
 41
0.899999976158142
  7
TolListe_12-Arial
 11
-98.35000000000002
 21
4.499999999999992
 31
0.0
100
AcDbAttributeDefinition
  3
TolWinkel_Fein
  2
TolWinkel_Fein
 70
     0
 74
     2
  0
ATTDEF
  5
15D
330
C5
100
AcDbEntity
  8
Titel (ISO)
 62
     7
100
AcDbText
 10
-98.35000000000002
 20
0.4999999850988424
 30
0.0
 40
2.000000029802322
  1
 
 41
1.100000023841857
  7
TolListe_12-Arial
 11
-98.35000000000002
 21
1.500000000000003
 31
0.0
100
AcDbAttributeDefinition
  3
TolWinkel_Grob
  2
TolWinkel_Grob
 70
     0
 74
     2
  0
TEXT
  5
15E
330
C5
100
AcDbEntity
  8
Titel (ISO)
 62
     7
100
AcDbText
 10
-23.10385197106264
 20
6.481150342666044
 30
0.0
 40
1.199999973177909
  1
R
 41
0.899999976158142
  7
TolListe_12
100
AcDbText
  0
ENDBLK
  5
C7
330
C5
100
AcDbEntity
  8
0
100
AcDbBlockEnd
  0
BLOCK
  5
160
330
15F
100
AcDbEntity
  8
0
100
AcDbBlockBegin
  2
ProtoTyp
 70
     0
 10
0.0
 20
0.0
 30
0.0
  3
ProtoTyp
  1

  0
MTEXT
  5
162
330
15F
100
AcDbEntity
  8
Symbol (ISO)
100
AcDbMText
 10
-15.0
 20
3.333333333333428
 30
0.0
 40
5.0
 41
113.3539674448862
 71
     9
 72
     5
  1
\fArial|b1|i0;\W1.20;\H5.0000;Prototyp 
  7
Notiztext (DIN)
 73
     1
 44
1.0
  0
ENDBLK
  5
161
330
15F
100
AcDbEntity
  8
0
100
AcDbBlockEnd
  0
BLOCK
  5
165
330
164
100
AcDbEntity
  8
0
100
AcDbBlockBegin
  2
Logo
 70
     0
 10
0.0
 20
0.0
 30
0.0
  3
Logo
  1

  0
LINE
  5
167
102
{ACAD_REACTORS
330
172
102
}
330
164
100
AcDbEntity
  8
0
100
AcDbLine
 10
-63.82219267516564
 20
13.78707153306683
 30
0.0
 11
-63.44194367516561
 21
13.78707153306683
 31
0.0
  0
SPLINE
  5
168
102
{ACAD_REACTORS
330
172
102
}
330
164
100
AcDbEntity
  8
0
100
AcDbSpline
210
0.0
220
0.0
230
1.0
 70
     8
 71
     3
 72
    13
 73
     9
 74
     0
 42
0.0000000001
 43
0.0000000001
 40
-0.2488465402991201
 40
-0.2488465402991201
 40
-0.2488465402991201
 40
-0.2488465402991201
 40
-0.213514800971061
 40
-0.1813686001396738
 40
-0.151852207945606
 40
-0.122610058815004
 40
-0.0548379298616244
 40
0.0
 40
0.0
 40
0.0
 40
0.0
 10
-63.44194367516561
 20
13.78707153306683
 30
0.0
 10
-63.32417121073874
 20
13.78707153306683
 30
0.0
 10
-63.08419178569152
 20
13.80580234228952
 30
0.0
 10
-62.85168098131063
 20
14.06077992123113
 30
0.0
 10
-62.75106357115923
 20
14.3528991457025
 30
0.0
 10
-62.73688326920373
 20
14.7669903791009
 30
0.0
 10
-62.81190429146026
 20
15.35988989299784
 30
0.0
 10
-63.28410391460164
 20
15.46016853306682
 30
0.0
 10
-63.46689701414039
 20
15.46016853306682
 30
0.0
  0
LINE
  5
169
102
{ACAD_REACTORS
330
172
102
}
330
164
100
AcDbEntity
  8
0
100
AcDbLine
 10
-63.46689701414039
 20
15.46016853306682
 30
0.0
 11
-63.82219267516564
 21
15.46016853306682
 31
0.0
  0
LINE
  5
16A
102
{ACAD_REACTORS
330
172
102
}
330
164
100
AcDbEntity
  8
0
100
AcDbLine
 10
-63.82219267516564
 20
15.46016853306682
 30
0.0
 11
-63.82219267516564
 21
13.78707153306683
 31
0.0
  0
LINE
  5
16B
102
{ACAD_REACTORS
330
172
102
}
330
164
100
AcDbEntity
  8
0
100
AcDbLine
 10
-63.09258967516566
 20
16.44881753306684
 30
0.0
 11
-65.1910906751657
 21
16.44881753306684
 31
0.0
  0
SPLINE
  5
16C
102
{ACAD_REACTORS
330
172
102
}
330
164
100
AcDbEntity
  8
0
100
AcDbSpline
210
0.0
220
0.0
230
1.0
 70
     8
 71
     3
 72
    11
 73
     7
 74
     0
 42
0.0000000001
 43
0.0000000001
 40
0.2936837717354933
 40
0.2936837717354933
 40
0.2936837717354933
 40
0.2936837717354933
 40
0.3486086586423288
 40
0.4181833865755395
 40
0.4874646771879993
 40
0.5758658507171156
 40
0.5758658507171156
 40
0.5758658507171156
 40
0.5758658507171156
 10
-61.3885963599133
 20
14.628373224245
 30
0.0
 10
-61.3866327111799
 20
14.81461430976022
 30
0.0
 10
-61.42180843855425
 20
15.22586839198035
 30
0.0
 10
-61.65248502722848
 20
15.84811296147202
 30
0.0
 10
-62.25323916657581
 20
16.38211568442156
 30
0.0
 10
-62.79106792157026
 20
16.42485607934071
 30
0.0
 10
-63.09258967516566
 20
16.44881753306684
 30
0.0
  0
SPLINE
  5
16D
102
{ACAD_REACTORS
330
172
102
}
330
164
100
AcDbEntity
  8
0
100
AcDbSpline
210
0.0
220
0.0
230
1.0
 70
     8
 71
     3
 72
    10
 73
     6
 74
     0
 42
0.0000000001
 43
0.0000000001
 40
0.0
 40
0.0
 40
0.0
 40
0.0
 40
0.0653965997920125
 40
0.148785267001393
 40
0.2936837717354933
 40
0.2936837717354933
 40
0.2936837717354933
 40
0.2936837717354933
 10
-63.2280526751656
 20
12.79842253306682
 30
0.0
 10
-63.00807050524145
 20
12.79414883947174
 30
0.0
 10
-62.50758414980694
 20
12.78442566357808
 30
0.0
 10
-61.5936272368743
 20
13.31022024821636
 30
0.0
 10
-61.3937767031296
 20
14.13704668119749
 30
0.0
 10
-61.3885963599133
 20
14.628373224245
 30
0.0
  0
LINE
  5
16E
102
{ACAD_REACTORS
330
172
102
}
330
164
100
AcDbEntity
  8
0
100
AcDbLine
 10
-63.82219267516564
 20
12.79842253306682
 30
0.0
 11
-63.2280526751656
 21
12.79842253306682
 31
0.0
  0
LINE
  5
16F
102
{ACAD_REACTORS
330
172
102
}
330
164
100
AcDbEntity
  8
0
100
AcDbLine
 10
-63.82219267516564
 20
10.44087653306682
 30
0.0
 11
-63.82219267516564
 21
12.79842253306682
 31
0.0
  0
LINE
  5
170
102
{ACAD_REACTORS
330
172
102
}
330
164
100
AcDbEntity
  8
0
100
AcDbLine
 10
-65.1910906751657
 20
10.44087653306682
 30
0.0
 11
-63.82219267516564
 21
10.44087653306682
 31
0.0
  0
LINE
  5
171
102
{ACAD_REACTORS
330
172
102
}
330
164
100
AcDbEntity
  8
0
100
AcDbLine
 10
-65.1910906751657
 20
16.44881753306684
 30
0.0
 11
-65.1910906751657
 21
10.44087653306682
 31
0.0
  0
HATCH
  5
172
330
164
100
AcDbEntity
  8
Schraffur (ISO)
100
AcDbHatch
 10
0.0
 20
0.0
 30
0.0
210
0.0
220
0.0
230
1.0
  2
SOLID
 70
     1
 71
     1
 91
        2
 92
        0
 93
        4
 72
     1
 10
-63.82219267516564
 20
13.78707153306683
 11
-63.44194367516561
 21
13.78707153306683
 72
     4
 94
        3
 73
     0
 74
     0
 95
       13
 96
        9
 40
-0.2488465402991201
 40
-0.2488465402991201
 40
-0.2488465402991201
 40
-0.2488465402991201
 40
-0.213514800971061
 40
-0.1813686001396738
 40
-0.151852207945606
 40
-0.122610058815004
 40
-0.0548379298616244
 40
0.0
 40
0.0
 40
0.0
 40
0.0
 10
-63.44194367516561
 20
13.78707153306683
 10
-63.32417121073874
 20
13.78707153306683
 10
-63.08419178569152
 20
13.80580234228952
 10
-62.85168098131063
 20
14.06077992123113
 10
-62.75106357115923
 20
14.3528991457025
 10
-62.73688326920373
 20
14.7669903791009
 10
-62.81190429146026
 20
15.35988989299784
 10
-63.28410391460164
 20
15.46016853306682
 10
-63.46689701414039
 20
15.46016853306682
 72
     1
 10
-63.46689701414039
 20
15.46016853306682
 11
-63.82219267516564
 21
15.46016853306682
 72
     1
 10
-63.82219267516564
 20
15.46016853306682
 11
-63.82219267516564
 21
13.78707153306683
 97
        4
330
167
330
168
330
169
330
16A
 92
        1
 93
        7
 72
     1
 10
-63.09258967516566
 20
16.44881753306684
 11
-65.1910906751657
 21
16.44881753306684
 72
     1
 10
-65.1910906751657
 20
16.44881753306684
 11
-65.1910906751657
 21
10.44087653306682
 72
     1
 10
-65.1910906751657
 20
10.44087653306682
 11
-63.82219267516564
 21
10.44087653306682
 72
     1
 10
-63.82219267516564
 20
10.44087653306682
 11
-63.82219267516564
 21
12.79842253306682
 72
     1
 10
-63.82219267516564
 20
12.79842253306682
 11
-63.2280526751656
 21
12.79842253306682
 72
     4
 94
        3
 73
     0
 74
     0
 95
       10
 96
        6
 40
0.0
 40
0.0
 40
0.0
 40
0.0
 40
0.0653965997920125
 40
0.148785267001393
 40
0.2936837717354933
 40
0.2936837717354933
 40
0.2936837717354933
 40
0.2936837717354933
 10
-63.2280526751656
 20
12.79842253306682
 10
-63.00807050524145
 20
12.79414883947174
 10
-62.50758414980694
 20
12.78442566357808
 10
-61.5936272368743
 20
13.31022024821636
 10
-61.3937767031296
 20
14.13704668119749
 10
-61.3885963599133
 20
14.628373224245
 72
     4
 94
        3
 73
     0
 74
     0
 95
       11
 96
        7
 40
0.2936837717354933
 40
0.2936837717354933
 40
0.2936837717354933
 40
0.2936837717354933
 40
0.3486086586423288
 40
0.4181833865755395
 40
0.4874646771879993
 40
0.5758658507171156
 40
0.5758658507171156
 40
0.5758658507171156
 40
0.5758658507171156
 10
-61.3885963599133
 20
14.628373224245
 10
-61.3866327111799
 20
14.81461430976022
 10
-61.42180843855425
 20
15.22586839198035
 10
-61.65248502722848
 20
15.84811296147202
 10
-62.25323916657581
 20
16.38211568442156
 10
-62.79106792157026
 20
16.42485607934071
 10
-63.09258967516566
 20
16.44881753306684
 97
        7
330
16B
330
171
330
170
330
16F
330
16E
330
16D
330
16C
 75
     0
 76
     1
 98
        1
 10
0.0
 20
0.0
450
        0
451
        0
460
0.0
461
0.0
452
        0
462
0.0
453
        0
470

  0
LINE
  5
173
102
{ACAD_REACTORS
330
17D
102
}
330
164
100
AcDbEntity
  8
0
100
AcDbLine
 10
-60.62809767516559
 20
16.44881753306684
 30
0.0
 11
-60.62809767516559
 21
10.40524878827717
 31
0.0
  0
LINE
  5
174
102
{ACAD_REACTORS
330
17D
102
}
330
164
100
AcDbEntity
  8
0
100
AcDbLine
 10
-58.98987681977541
 20
16.44881753306684
 30
0.0
 11
-60.62809767516559
 21
16.44881753306684
 31
0.0
  0
LINE
  5
175
102
{ACAD_REACTORS
330
17D
102
}
330
164
100
AcDbEntity
  8
0
100
AcDbLine
 10
-57.88930580282222
 20
12.61710582815194
 30
0.0
 11
-58.98987681977541
 21
16.44881753306684
 31
0.0
  0
LINE
  5
176
102
{ACAD_REACTORS
330
17D
102
}
330
164
100
AcDbEntity
  8
0
100
AcDbLine
 10
-57.88930580282222
 20
16.44881753306684
 30
0.0
 11
-57.88930580282222
 21
12.61710582815194
 31
0.0
  0
LINE
  5
177
102
{ACAD_REACTORS
330
17D
102
}
330
164
100
AcDbEntity
  8
0
100
AcDbLine
 10
-56.69354904308139
 20
16.44881753306684
 30
0.0
 11
-57.88930580282222
 21
16.44881753306684
 31
0.0
  0
LINE
  5
178
102
{ACAD_REACTORS
330
17D
102
}
330
164
100
AcDbEntity
  8
0
100
AcDbLine
 10
-56.69354904308139
 20
10.40524878827717
 30
0.0
 11
-56.69354904308139
 21
16.44881753306684
 31
0.0
  0
LINE
  5
179
102
{ACAD_REACTORS
330
17D
102
}
330
164
100
AcDbEntity
  8
0
100
AcDbLine
 10
-58.22507916596087
 20
10.40524878827717
 30
0.0
 11
-56.69354904308139
 21
10.40524878827717
 31
0.0
  0
LINE
  5
17A
102
{ACAD_REACTORS
330
17D
102
}
330
164
100
AcDbEntity
  8
0
100
AcDbLine
 10
-59.41118327390213
 20
14.53474967794081
 30
0.0
 11
-58.22507916596087
 21
10.40524878827717
 31
0.0
  0
LINE
  5
17B
102
{ACAD_REACTORS
330
17D
102
}
330
164
100
AcDbEntity
  8
0
100
AcDbLine
 10
-59.41118327390213
 20
10.40524878827717
 30
0.0
 11
-59.41118327390213
 21
14.53474967794081
 31
0.0
  0
LINE
  5
17C
102
{ACAD_REACTORS
330
17D
102
}
330
164
100
AcDbEntity
  8
0
100
AcDbLine
 10
-60.62809767516559
 20
10.40524878827717
 30
0.0
 11
-59.41118327390213
 21
10.40524878827717
 31
0.0
  0
HATCH
  5
17D
330
164
100
AcDbEntity
  8
Schraffur (ISO)
100
AcDbHatch
 10
0.0
 20
0.0
 30
0.0
210
0.0
220
0.0
230
1.0
  2
SOLID
 70
     1
 71
     1
 91
        1
 92
        1
 93
       10
 72
     1
 10
-60.62809767516559
 20
16.44881753306684
 11
-60.62809767516559
 21
10.40524878827717
 72
     1
 10
-60.62809767516559
 20
10.40524878827717
 11
-59.41118327390213
 21
10.40524878827717
 72
     1
 10
-59.41118327390213
 20
10.40524878827717
 11
-59.41118327390213
 21
14.53474967794082
 72
     1
 10
-59.41118327390213
 20
14.53474967794081
 11
-58.22507916596087
 21
10.40524878827717
 72
     1
 10
-58.22507916596087
 20
10.40524878827717
 11
-56.69354904308139
 21
10.40524878827717
 72
     1
 10
-56.69354904308139
 20
10.40524878827717
 11
-56.69354904308139
 21
16.44881753306684
 72
     1
 10
-56.69354904308139
 20
16.44881753306684
 11
-57.88930580282222
 21
16.44881753306684
 72
     1
 10
-57.88930580282222
 20
16.44881753306684
 11
-57.88930580282222
 21
12.61710582815194
 72
     1
 10
-57.88930580282222
 20
12.61710582815194
 11
-58.98987681977541
 21
16.44881753306684
 72
     1
 10
-58.98987681977541
 20
16.44881753306684
 11
-60.62809767516559
 21
16.44881753306684
 97
       10
330
173
330
17C
330
17B
330
17A
330
179
330
178
330
177
330
176
330
175
330
174
 75
     0
 76
     1
 98
        1
 10
0.0
 20
0.0
450
        0
451
        0
460
0.0
461
0.0
452
        0
462
0.0
453
        0
470

  0
LINE
  5
17E
102
{ACAD_REACTORS
330
18A
102
}
330
164
100
AcDbEntity
  8
0
100
AcDbLine
 10
-54.3920076751656
 20
11.58162453306683
 30
10.0
 11
-52.27805867516565
 21
11.58162453306683
 31
10.0
  0
LINE
  5
17F
102
{ACAD_REACTORS
330
18A
102
}
330
164
100
AcDbEntity
  8
0
100
AcDbLine
 10
-54.3920076751656
 20
12.95052253306684
 30
10.0
 11
-54.3920076751656
 21
11.58162453306683
 31
10.0
  0
LINE
  5
180
102
{ACAD_REACTORS
330
18A
102
}
330
164
100
AcDbEntity
  8
0
100
AcDbLine
 10
-52.49194867516564
 20
12.95052253306684
 30
10.0
 11
-54.3920076751656
 21
12.95052253306684
 31
10.0
  0
LINE
  5
181
102
{ACAD_REACTORS
330
18A
102
}
330
164
100
AcDbEntity
  8
0
100
AcDbLine
 10
-52.49194867516564
 20
14.09127053306683
 30
10.0
 11
-52.49194867516564
 21
12.95052253306684
 31
10.0
  0
LINE
  5
182
102
{ACAD_REACTORS
330
18A
102
}
330
164
100
AcDbEntity
  8
0
100
AcDbLine
 10
-54.3920076751656
 20
14.09127053306683
 30
10.0
 11
-52.49194867516564
 21
14.09127053306683
 31
10.0
  0
LINE
  5
183
102
{ACAD_REACTORS
330
18A
102
}
330
164
100
AcDbEntity
  8
0
100
AcDbLine
 10
-54.3920076751656
 20
15.30806953306683
 30
10.0
 11
-54.3920076751656
 21
14.09127053306683
 31
10.0
  0
LINE
  5
184
102
{ACAD_REACTORS
330
18A
102
}
330
164
100
AcDbEntity
  8
0
100
AcDbLine
 10
-52.36836767516571
 20
15.30806953306683
 30
10.0
 11
-54.3920076751656
 21
15.30806953306683
 31
10.0
  0
LINE
  5
185
102
{ACAD_REACTORS
330
18A
102
}
330
164
100
AcDbEntity
  8
0
100
AcDbLine
 10
-52.36836767516571
 20
16.44881753306684
 30
10.0
 11
-52.36836767516571
 21
15.30806953306683
 31
10.0
  0
LINE
  5
186
102
{ACAD_REACTORS
330
18A
102
}
330
164
100
AcDbEntity
  8
0
100
AcDbLine
 10
-55.76090567516565
 20
16.44881753306684
 30
10.0
 11
-52.36836767516571
 21
16.44881753306684
 31
10.0
  0
LINE
  5
187
102
{ACAD_REACTORS
330
18A
102
}
330
164
100
AcDbEntity
  8
0
100
AcDbLine
 10
-55.76090567516565
 20
10.44087653306682
 30
10.0
 11
-55.76090567516565
 21
16.44881753306684
 31
10.0
  0
LINE
  5
188
102
{ACAD_REACTORS
330
18A
102
}
330
164
100
AcDbEntity
  8
0
100
AcDbLine
 10
-52.27805867516565
 20
10.44087653306682
 30
10.0
 11
-55.76090567516565
 21
10.44087653306682
 31
10.0
  0
LINE
  5
189
102
{ACAD_REACTORS
330
18A
102
}
330
164
100
AcDbEntity
  8
0
100
AcDbLine
 10
-52.27805867516565
 20
11.58162453306683
 30
10.0
 11
-52.27805867516565
 21
10.44087653306682
 31
10.0
  0
HATCH
  5
18A
330
164
100
AcDbEntity
  8
Schraffur (ISO)
100
AcDbHatch
 10
0.0
 20
0.0
 30
0.0
210
0.0
220
0.0
230
1.0
  2
SOLID
 70
     1
 71
     1
 91
        1
 92
        1
 93
       12
 72
     1
 10
-54.3920076751656
 20
11.58162453306683
 11
-52.27805867516565
 21
11.58162453306683
 72
     1
 10
-52.27805867516565
 20
11.58162453306683
 11
-52.27805867516565
 21
10.44087653306682
 72
     1
 10
-52.27805867516565
 20
10.44087653306682
 11
-55.76090567516565
 21
10.44087653306682
 72
     1
 10
-55.76090567516565
 20
10.44087653306682
 11
-55.76090567516565
 21
16.44881753306684
 72
     1
 10
-55.76090567516565
 20
16.44881753306684
 11
-52.36836767516571
 21
16.44881753306684
 72
     1
 10
-52.36836767516571
 20
16.44881753306684
 11
-52.36836767516571
 21
15.30806953306683
 72
     1
 10
-52.36836767516571
 20
15.30806953306683
 11
-54.3920076751656
 21
15.30806953306683
 72
     1
 10
-54.3920076751656
 20
15.30806953306683
 11
-54.3920076751656
 21
14.09127053306683
 72
     1
 10
-54.3920076751656
 20
14.09127053306683
 11
-52.49194867516564
 21
14.09127053306683
 72
     1
 10
-52.49194867516564
 20
14.09127053306683
 11
-52.49194867516564
 21
12.95052253306684
 72
     1
 10
-52.49194867516564
 20
12.95052253306684
 11
-54.3920076751656
 21
12.95052253306684
 72
     1
 10
-54.3920076751656
 20
12.95052253306684
 11
-54.3920076751656
 21
11.58162453306683
 97
       12
330
17E
330
189
330
188
330
187
330
186
330
185
330
184
330
183
330
182
330
181
330
180
330
17F
 75
     0
 76
     1
 98
        1
 10
0.0
 20
0.0
450
        0
451
        0
460
0.0
461
0.0
452
        0
462
0.0
453
        0
470

  0
SPLINE
  5
18B
102
{ACAD_REACTORS
330
193
102
}
330
164
100
AcDbEntity
  8
0
100
AcDbSpline
210
0.0
220
0.0
230
1.0
 70
     8
 71
     3
 72
    15
 73
    11
 74
     0
 42
0.0000000001
 43
0.0000000001
 40
0.0
 40
0.0
 40
0.0
 40
0.0
 40
0.0672548563799885
 40
0.1521664902326495
 40
0.2281703146548317
 40
0.3255600897830795
 40
0.4120495207317158
 40
0.4985389234182298
 40
0.5654159866690202
 40
0.6509023544104405
 40
0.6509023544104405
 40
0.6509023544104405
 40
0.6509023544104405
 10
-51.7302616751656
 20
12.50372953306684
 30
0.0
 10
-51.72250972741318
 20
12.28042993765319
 30
0.0
 10
-51.7049706715673
 20
11.77520670867943
 30
0.0
 10
-51.45830183546912
 20
11.01272899934195
 30
0.0
 10
-50.70619437300852
 20
10.49759629449973
 30
0.0
 10
-49.8251698126684
 20
10.4107231579618
 30
0.0
 10
-48.92313273835776
 20
10.49749520180978
 30
0.0
 10
-48.18766130508738
 20
10.93968926311738
 30
0.0
 10
-47.88526518983896
 20
11.71052808496217
 30
0.0
 10
-47.86377509624168
 20
12.21864242747865
 30
0.0
 10
-47.85171767516569
 20
12.50372953306684
 30
0.0
  0
LINE
  5
18C
102
{ACAD_REACTORS
330
193
102
}
330
164
100
AcDbEntity
  8
0
100
AcDbLine
 10
-51.7302616751656
 20
16.44881753306684
 30
0.0
 11
-51.7302616751656
 21
12.50372953306684
 31
0.0
  0
LINE
  5
18D
102
{ACAD_REACTORS
330
193
102
}
330
164
100
AcDbEntity
  8
0
100
AcDbLine
 10
-50.36136367516565
 20
16.44881753306684
 30
0.0
 11
-51.7302616751656
 21
16.44881753306684
 31
0.0
  0
LINE
  5
18E
102
{ACAD_REACTORS
330
193
102
}
330
164
100
AcDbEntity
  8
0
100
AcDbLine
 10
-50.36136367516565
 20
12.15437597654793
 30
0.0
 11
-50.36136367516565
 21
16.44881753306684
 31
0.0
  0
SPLINE
  5
18F
102
{ACAD_REACTORS
330
193
102
}
330
164
100
AcDbEntity
  8
0
100
AcDbSpline
210
0.0
220
0.0
230
1.0
 70
     8
 71
     3
 72
    12
 73
     8
 74
     0
 42
0.0000000001
 43
0.0000000001
 40
0.0
 40
0.0
 40
0.0
 40
0.0
 40
0.0459373561447192
 40
0.0841298945751798
 40
0.1189845232173717
 40
0.1628560898790358
 40
0.2038542643486715
 40
0.2038542643486715
 40
0.2038542643486715
 40
0.2038542643486715
 10
-49.22061567516561
 20
12.15437553306683
 30
0.0
 10
-49.2268789446577
 20
11.99485470427934
 30
0.0
 10
-49.23834952647364
 20
11.70270749262533
 30
0.0
 10
-49.57024113653026
 20
11.41847892432864
 30
0.0
 10
-49.99594522261111
 20
11.40074526513182
 30
0.0
 10
-50.29158571586791
 20
11.73973014957667
 30
0.0
 10
-50.33863533382652
 20
12.01931596640863
 30
0.0
 10
-50.36136367516565
 20
12.15437597654793
 30
0.0
  0
LINE
  5
190
102
{ACAD_REACTORS
330
193
102
}
330
164
100
AcDbEntity
  8
0
100
AcDbLine
 10
-49.22061567516561
 20
16.44881753306684
 30
0.0
 11
-49.22061567516561
 21
12.15437553306683
 31
0.0
  0
LINE
  5
191
102
{ACAD_REACTORS
330
193
102
}
330
164
100
AcDbEntity
  8
0
100
AcDbLine
 10
-47.85171767516569
 20
16.44881753306684
 30
0.0
 11
-49.22061567516561
 21
16.44881753306684
 31
0.0
  0
LINE
  5
192
102
{ACAD_REACTORS
330
193
102
}
330
164
100
AcDbEntity
  8
0
100
AcDbLine
 10
-47.85171767516569
 20
12.50372953306684
 30
0.0
 11
-47.85171767516569
 21
16.44881753306684
 31
0.0
  0
HATCH
  5
193
330
164
100
AcDbEntity
  8
Schraffur (ISO)
100
AcDbHatch
 10
0.0
 20
0.0
 30
0.0
210
0.0
220
0.0
230
1.0
  2
SOLID
 70
     1
 71
     1
 91
        1
 92
        1
 93
        8
 72
     4
 94
        3
 73
     0
 74
     0
 95
       15
 96
       11
 40
0.0
 40
0.0
 40
0.0
 40
0.0
 40
0.0672548563799885
 40
0.1521664902326495
 40
0.2281703146548317
 40
0.3255600897830795
 40
0.4120495207317158
 40
0.4985389234182298
 40
0.5654159866690202
 40
0.6509023544104405
 40
0.6509023544104405
 40
0.6509023544104405
 40
0.6509023544104405
 10
-51.7302616751656
 20
12.50372953306684
 10
-51.72250972741318
 20
12.28042993765319
 10
-51.7049706715673
 20
11.77520670867943
 10
-51.45830183546912
 20
11.01272899934195
 10
-50.70619437300852
 20
10.49759629449973
 10
-49.8251698126684
 20
10.4107231579618
 10
-48.92313273835776
 20
10.49749520180978
 10
-48.18766130508738
 20
10.93968926311738
 10
-47.88526518983896
 20
11.71052808496217
 10
-47.86377509624168
 20
12.21864242747865
 10
-47.85171767516569
 20
12.50372953306684
 72
     1
 10
-47.85171767516569
 20
12.50372953306684
 11
-47.85171767516569
 21
16.44881753306684
 72
     1
 10
-47.85171767516569
 20
16.44881753306684
 11
-49.22061567516561
 21
16.44881753306684
 72
     1
 10
-49.22061567516561
 20
16.44881753306684
 11
-49.22061567516561
 21
12.15437553306683
 72
     4
 94
        3
 73
     0
 74
     0
 95
       12
 96
        8
 40
0.0
 40
0.0
 40
0.0
 40
0.0
 40
0.0459373561447192
 40
0.0841298945751798
 40
0.1189845232173717
 40
0.1628560898790358
 40
0.2038542643486715
 40
0.2038542643486715
 40
0.2038542643486715
 40
0.2038542643486715
 10
-49.22061567516561
 20
12.15437553306683
 10
-49.2268789446577
 20
11.99485470427934
 10
-49.23834952647364
 20
11.70270749262533
 10
-49.57024113653026
 20
11.41847892432864
 10
-49.99594522261111
 20
11.40074526513182
 10
-50.29158571586791
 20
11.73973014957667
 10
-50.33863533382652
 20
12.01931596640863
 10
-50.36136367516565
 20
12.15437597654793
 72
     1
 10
-50.36136367516565
 20
12.15437597654793
 11
-50.36136367516565
 21
16.44881753306684
 72
     1
 10
-50.36136367516565
 20
16.44881753306684
 11
-51.7302616751656
 21
16.44881753306684
 72
     1
 10
-51.7302616751656
 20
16.44881753306684
 11
-51.7302616751656
 21
12.50372953306684
 97
        8
330
18B
330
192
330
191
330
190
330
18F
330
18E
330
18D
330
18C
 75
     0
 76
     1
 98
        1
 10
0.0
 20
0.0
450
        0
451
        0
460
0.0
461
0.0
452
        0
462
0.0
453
        0
470

  0
LINE
  5
194
102
{ACAD_REACTORS
330
1A2
102
}
330
164
100
AcDbEntity
  8
0
100
AcDbLine
 10
-44.98677667516563
 20
16.44881753306684
 30
10.0
 11
-44.26073767516562
 21
12.52868353306683
 31
10.0
  0
LINE
  5
195
102
{ACAD_REACTORS
330
1A2
102
}
330
164
100
AcDbEntity
  8
0
100
AcDbLine
 10
-47.01516967516568
 20
16.44881753306684
 30
10.0
 11
-44.98677667516563
 21
16.44881753306684
 31
10.0
  0
LINE
  5
196
102
{ACAD_REACTORS
330
1A2
102
}
330
164
100
AcDbEntity
  8
0
100
AcDbLine
 10
-47.01516967516568
 20
10.44087653306682
 30
10.0
 11
-47.01516967516568
 21
16.44881753306684
 31
10.0
  0
LINE
  5
197
102
{ACAD_REACTORS
330
1A2
102
}
330
164
100
AcDbEntity
  8
0
100
AcDbLine
 10
-45.79837167516565
 20
10.44087653306682
 30
10.0
 11
-47.01516967516568
 21
10.44087653306682
 31
10.0
  0
LINE
  5
198
102
{ACAD_REACTORS
330
1A2
102
}
330
164
100
AcDbEntity
  8
0
100
AcDbLine
 10
-45.79837167516565
 20
15.1559695330669
 30
10.0
 11
-45.79837167516565
 21
10.44087653306682
 31
10.0
  0
LINE
  5
199
102
{ACAD_REACTORS
330
1A2
102
}
330
164
100
AcDbEntity
  8
0
100
AcDbLine
 10
-44.83467667516558
 20
10.44087653306682
 30
10.0
 11
-45.79837167516565
 21
15.1559695330669
 31
10.0
  0
LINE
  5
19A
102
{ACAD_REACTORS
330
1A2
102
}
330
164
100
AcDbEntity
  8
0
100
AcDbLine
 10
-43.74621267516555
 20
10.44087653306682
 30
10.0
 11
-44.83467667516558
 21
10.44087653306682
 31
10.0
  0
LINE
  5
19B
102
{ACAD_REACTORS
330
1A2
102
}
330
164
100
AcDbEntity
  8
0
100
AcDbLine
 10
-42.83242567516563
 20
15.15596953306682
 30
10.0
 11
-43.74621267516555
 21
10.44087653306682
 31
10.0
  0
LINE
  5
19C
102
{ACAD_REACTORS
330
1A2
102
}
330
164
100
AcDbEntity
  8
0
100
AcDbLine
 10
-42.83242567516563
 20
10.44087653306682
 30
10.0
 11
-42.83242567516563
 21
15.15596953306682
 31
10.0
  0
LINE
  5
19D
102
{ACAD_REACTORS
330
1A2
102
}
330
164
100
AcDbEntity
  8
0
100
AcDbLine
 10
-41.53957767516555
 20
10.44087653306682
 30
10.0
 11
-42.83242567516563
 21
10.44087653306682
 31
10.0
  0
LINE
  5
19E
102
{ACAD_REACTORS
330
1A2
102
}
330
164
100
AcDbEntity
  8
0
100
AcDbLine
 10
-41.53957767516555
 20
16.44881753306684
 30
10.0
 11
-41.53957767516555
 21
10.44087653306682
 31
10.0
  0
LINE
  5
19F
102
{ACAD_REACTORS
330
1A2
102
}
330
164
100
AcDbEntity
  8
0
100
AcDbLine
 10
-43.54301667516562
 20
16.44881753306684
 30
10.0
 11
-41.53957767516555
 21
16.44881753306684
 31
10.0
  0
LINE
  5
1A0
102
{ACAD_REACTORS
330
1A2
102
}
330
164
100
AcDbEntity
  8
0
100
AcDbLine
 10
-44.24410167516565
 20
12.52868353306683
 30
10.0
 11
-43.54301667516562
 21
16.44881753306684
 31
10.0
  0
LINE
  5
1A1
102
{ACAD_REACTORS
330
1A2
102
}
330
164
100
AcDbEntity
  8
0
100
AcDbLine
 10
-44.26073767516562
 20
12.52868353306683
 30
10.0
 11
-44.24410167516565
 21
12.52868353306683
 31
10.0
  0
HATCH
  5
1A2
330
164
100
AcDbEntity
  8
Schraffur (ISO)
100
AcDbHatch
 10
0.0
 20
0.0
 30
0.0
210
0.0
220
0.0
230
1.0
  2
SOLID
 70
     1
 71
     1
 91
        1
 92
        1
 93
       14
 72
     1
 10
-44.98677667516563
 20
16.44881753306684
 11
-44.26073767516562
 21
12.52868353306683
 72
     1
 10
-44.26073767516562
 20
12.52868353306683
 11
-44.24410167516565
 21
12.52868353306683
 72
     1
 10
-44.24410167516565
 20
12.52868353306683
 11
-43.54301667516562
 21
16.44881753306684
 72
     1
 10
-43.54301667516562
 20
16.44881753306684
 11
-41.53957767516555
 21
16.44881753306684
 72
     1
 10
-41.53957767516555
 20
16.44881753306684
 11
-41.53957767516555
 21
10.44087653306682
 72
     1
 10
-41.53957767516555
 20
10.44087653306682
 11
-42.83242567516563
 21
10.44087653306682
 72
     1
 10
-42.83242567516563
 20
10.44087653306682
 11
-42.83242567516563
 21
15.15596953306682
 72
     1
 10
-42.83242567516563
 20
15.15596953306682
 11
-43.74621267516555
 21
10.44087653306682
 72
     1
 10
-43.74621267516555
 20
10.44087653306682
 11
-44.83467667516558
 21
10.44087653306682
 72
     1
 10
-44.83467667516558
 20
10.44087653306682
 11
-45.79837167516565
 21
15.1559695330669
 72
     1
 10
-45.79837167516565
 20
15.1559695330669
 11
-45.79837167516565
 21
10.44087653306682
 72
     1
 10
-45.79837167516565
 20
10.44087653306682
 11
-47.01516967516568
 21
10.44087653306682
 72
     1
 10
-47.01516967516568
 20
10.44087653306682
 11
-47.01516967516568
 21
16.44881753306684
 72
     1
 10
-47.01516967516568
 20
16.44881753306684
 11
-44.98677667516563
 21
16.44881753306684
 97
       14
330
194
330
1A1
330
1A0
330
19F
330
19E
330
19D
330
19C
330
19B
330
19A
330
199
330
198
330
197
330
196
330
195
 75
     0
 76
     1
 98
        1
 10
0.0
 20
0.0
450
        0
451
        0
460
0.0
461
0.0
452
        0
462
0.0
453
        0
470

  0
LINE
  5
1A3
102
{ACAD_REACTORS
330
1AF
102
}
330
164
100
AcDbEntity
  8
0
100
AcDbLine
 10
-39.2521406751656
 20
12.64632353306684
 30
0.0
 11
-38.24923267516571
 21
12.64632353306684
 31
0.0
  0
LINE
  5
1A4
102
{ACAD_REACTORS
330
1AF
102
}
330
164
100
AcDbEntity
  8
0
100
AcDbLine
 10
-38.24923267516571
 20
12.64632353306684
 30
0.0
 11
-38.75068667516565
 21
15.46016853306682
 31
0.0
  0
LINE
  5
1A5
102
{ACAD_REACTORS
330
1AF
102
}
330
164
100
AcDbEntity
  8
0
100
AcDbLine
 10
-38.75068667516565
 20
15.46016853306682
 30
0.0
 11
-38.76732267516559
 21
15.46016853306682
 31
0.0
  0
LINE
  5
1A6
102
{ACAD_REACTORS
330
1AF
102
}
330
164
100
AcDbEntity
  8
0
100
AcDbLine
 10
-38.76732267516559
 20
15.46016853306682
 30
0.0
 11
-39.2521406751656
 21
12.64632353306684
 31
0.0
  0
LINE
  5
1A7
102
{ACAD_REACTORS
330
1AF
102
}
330
164
100
AcDbEntity
  8
0
100
AcDbLine
 10
-37.80719267516563
 20
10.44087653306682
 30
0.0
 11
-36.36818667516561
 21
10.44087653306682
 31
0.0
  0
LINE
  5
1A8
102
{ACAD_REACTORS
330
1AF
102
}
330
164
100
AcDbEntity
  8
0
100
AcDbLine
 10
-38.02227067516558
 20
11.65767453306683
 30
0.0
 11
-37.80719267516563
 21
10.44087653306682
 31
0.0
  0
LINE
  5
1A9
102
{ACAD_REACTORS
330
1AF
102
}
330
164
100
AcDbEntity
  8
0
100
AcDbLine
 10
-39.43751167516563
 20
11.65767453306683
 30
0.0
 11
-38.02227067516558
 21
11.65767453306683
 31
0.0
  0
LINE
  5
1AA
102
{ACAD_REACTORS
330
1AF
102
}
330
164
100
AcDbEntity
  8
0
100
AcDbLine
 10
-39.64427267516566
 20
10.44087653306682
 30
0.0
 11
-39.43751167516563
 21
11.65767453306683
 31
0.0
  0
LINE
  5
1AB
102
{ACAD_REACTORS
330
1AF
102
}
330
164
100
AcDbEntity
  8
0
100
AcDbLine
 10
-41.0832786751656
 20
10.44087653306682
 30
0.0
 11
-39.64427267516566
 21
10.44087653306682
 31
0.0
  0
LINE
  5
1AC
102
{ACAD_REACTORS
330
1AF
102
}
330
164
100
AcDbEntity
  8
0
100
AcDbLine
 10
-39.57772867516564
 20
16.44881753306684
 30
0.0
 11
-41.0832786751656
 21
10.44087653306682
 31
0.0
  0
LINE
  5
1AD
102
{ACAD_REACTORS
330
1AF
102
}
330
164
100
AcDbEntity
  8
0
100
AcDbLine
 10
-37.84046467516564
 20
16.44881753306684
 30
0.0
 11
-39.57772867516564
 21
16.44881753306684
 31
0.0
  0
LINE
  5
1AE
102
{ACAD_REACTORS
330
1AF
102
}
330
164
100
AcDbEntity
  8
0
100
AcDbLine
 10
-36.36818667516561
 20
10.44087653306682
 30
0.0
 11
-37.84046467516564
 21
16.44881753306684
 31
0.0
  0
HATCH
  5
1AF
330
164
100
AcDbEntity
  8
Schraffur (ISO)
100
AcDbHatch
 10
0.0
 20
0.0
 30
0.0
210
0.0
220
0.0
230
1.0
  2
SOLID
 70
     1
 71
     1
 91
        2
 92
        0
 93
        4
 72
     1
 10
-39.2521406751656
 20
12.64632353306684
 11
-38.24923267516571
 21
12.64632353306684
 72
     1
 10
-38.24923267516571
 20
12.64632353306684
 11
-38.75068667516565
 21
15.46016853306682
 72
     1
 10
-38.75068667516565
 20
15.46016853306682
 11
-38.76732267516559
 21
15.46016853306682
 72
     1
 10
-38.76732267516559
 20
15.46016853306682
 11
-39.2521406751656
 21
12.64632353306684
 97
        4
330
1A3
330
1A4
330
1A5
330
1A6
 92
        1
 93
        8
 72
     1
 10
-37.80719267516563
 20
10.44087653306682
 11
-36.36818667516561
 21
10.44087653306682
 72
     1
 10
-36.36818667516561
 20
10.44087653306682
 11
-37.84046467516564
 21
16.44881753306684
 72
     1
 10
-37.84046467516564
 20
16.44881753306684
 11
-39.57772867516564
 21
16.44881753306684
 72
     1
 10
-39.57772867516564
 20
16.44881753306684
 11
-41.0832786751656
 21
10.44087653306682
 72
     1
 10
-41.0832786751656
 20
10.44087653306682
 11
-39.64427267516566
 21
10.44087653306682
 72
     1
 10
-39.64427267516566
 20
10.44087653306682
 11
-39.43751167516563
 21
11.65767453306683
 72
     1
 10
-39.43751167516563
 20
11.65767453306683
 11
-38.02227067516558
 21
11.65767453306683
 72
     1
 10
-38.02227067516558
 20
11.65767453306683
 11
-37.80719267516563
 21
10.44087653306682
 97
        8
330
1A7
330
1AE
330
1AD
330
1AC
330
1AB
330
1AA
330
1A9
330
1A8
 75
     0
 76
     1
 98
        1
 10
0.0
 20
0.0
450
        0
451
        0
460
0.0
461
0.0
452
        0
462
0.0
453
        0
470

  0
LINE
  5
1B0
102
{ACAD_REACTORS
330
1B8
102
}
330
164
100
AcDbEntity
  8
0
100
AcDbLine
 10
-33.7824906751656
 20
15.30806953306683
 30
10.0
 11
-33.7824906751656
 21
10.44087653306682
 31
10.0
  0
LINE
  5
1B1
102
{ACAD_REACTORS
330
1B8
102
}
330
164
100
AcDbEntity
  8
0
100
AcDbLine
 10
-32.52410267516563
 20
15.30806953306683
 30
10.0
 11
-33.7824906751656
 21
15.30806953306683
 31
10.0
  0
LINE
  5
1B2
102
{ACAD_REACTORS
330
1B8
102
}
330
164
100
AcDbEntity
  8
0
100
AcDbLine
 10
-32.52410267516563
 20
16.44881753306684
 30
10.0
 11
-32.52410267516563
 21
15.30806953306683
 31
10.0
  0
LINE
  5
1B3
102
{ACAD_REACTORS
330
1B8
102
}
330
164
100
AcDbEntity
  8
0
100
AcDbLine
 10
-36.36818667516561
 20
16.44881753306684
 30
10.0
 11
-32.52410267516563
 21
16.44881753306684
 31
10.0
  0
LINE
  5
1B4
102
{ACAD_REACTORS
330
1B8
102
}
330
164
100
AcDbEntity
  8
0
100
AcDbLine
 10
-36.36818667516561
 20
15.30806953306683
 30
10.0
 11
-36.36818667516561
 21
16.44881753306684
 31
10.0
  0
LINE
  5
1B5
102
{ACAD_REACTORS
330
1B8
102
}
330
164
100
AcDbEntity
  8
0
100
AcDbLine
 10
-35.15138767516564
 20
15.30806953306683
 30
10.0
 11
-36.36818667516561
 21
15.30806953306683
 31
10.0
  0
LINE
  5
1B6
102
{ACAD_REACTORS
330
1B8
102
}
330
164
100
AcDbEntity
  8
0
100
AcDbLine
 10
-35.15138767516564
 20
10.44087653306682
 30
10.0
 11
-35.15138767516564
 21
15.30806953306683
 31
10.0
  0
LINE
  5
1B7
102
{ACAD_REACTORS
330
1B8
102
}
330
164
100
AcDbEntity
  8
0
100
AcDbLine
 10
-33.7824906751656
 20
10.44087653306682
 30
10.0
 11
-35.15138767516564
 21
10.44087653306682
 31
10.0
  0
HATCH
  5
1B8
330
164
100
AcDbEntity
  8
Schraffur (ISO)
100
AcDbHatch
 10
0.0
 20
0.0
 30
0.0
210
0.0
220
0.0
230
1.0
  2
SOLID
 70
     1
 71
     1
 91
        1
 92
        1
 93
        8
 72
     1
 10
-33.7824906751656
 20
15.30806953306683
 11
-33.7824906751656
 21
10.44087653306682
 72
     1
 10
-33.7824906751656
 20
10.44087653306682
 11
-35.15138767516564
 21
10.44087653306682
 72
     1
 10
-35.15138767516564
 20
10.44087653306682
 11
-35.15138767516564
 21
15.30806953306683
 72
     1
 10
-35.15138767516564
 20
15.30806953306683
 11
-36.36818667516561
 21
15.30806953306683
 72
     1
 10
-36.36818667516561
 20
15.30806953306683
 11
-36.36818667516561
 21
16.44881753306684
 72
     1
 10
-36.36818667516561
 20
16.44881753306684
 11
-32.52410267516563
 21
16.44881753306684
 72
     1
 10
-32.52410267516563
 20
16.44881753306684
 11
-32.52410267516563
 21
15.30806953306683
 72
     1
 10
-32.52410267516563
 20
15.30806953306683
 11
-33.7824906751656
 21
15.30806953306683
 97
        8
330
1B0
330
1B7
330
1B6
330
1B5
330
1B4
330
1B3
330
1B2
330
1B1
 75
     0
 76
     1
 98
        1
 10
0.0
 20
0.0
450
        0
451
        0
460
0.0
461
0.0
452
        0
462
0.0
453
        0
470

  0
LINE
  5
1B9
102
{ACAD_REACTORS
330
1C5
102
}
330
164
100
AcDbEntity
  8
0
100
AcDbLine
 10
-30.66444567516566
 20
11.58162453306683
 30
10.0
 11
-28.55049667516564
 21
11.58162453306683
 31
10.0
  0
LINE
  5
1BA
102
{ACAD_REACTORS
330
1C5
102
}
330
164
100
AcDbEntity
  8
0
100
AcDbLine
 10
-30.66444567516566
 20
12.95052253306684
 30
10.0
 11
-30.66444567516566
 21
11.58162453306683
 31
10.0
  0
LINE
  5
1BB
102
{ACAD_REACTORS
330
1C5
102
}
330
164
100
AcDbEntity
  8
0
100
AcDbLine
 10
-28.76438667516563
 20
12.95052253306684
 30
10.0
 11
-30.66444567516566
 21
12.95052253306684
 31
10.0
  0
LINE
  5
1BC
102
{ACAD_REACTORS
330
1C5
102
}
330
164
100
AcDbEntity
  8
0
100
AcDbLine
 10
-28.76438667516563
 20
14.09127053306683
 30
10.0
 11
-28.76438667516563
 21
12.95052253306684
 31
10.0
  0
LINE
  5
1BD
102
{ACAD_REACTORS
330
1C5
102
}
330
164
100
AcDbEntity
  8
0
100
AcDbLine
 10
-30.66444567516566
 20
14.09127053306683
 30
10.0
 11
-28.76438667516563
 21
14.09127053306683
 31
10.0
  0
LINE
  5
1BE
102
{ACAD_REACTORS
330
1C5
102
}
330
164
100
AcDbEntity
  8
0
100
AcDbLine
 10
-30.66444567516566
 20
15.30806953306683
 30
10.0
 11
-30.66444567516566
 21
14.09127053306683
 31
10.0
  0
LINE
  5
1BF
102
{ACAD_REACTORS
330
1C5
102
}
330
164
100
AcDbEntity
  8
0
100
AcDbLine
 10
-28.6408056751657
 20
15.30806953306683
 30
10.0
 11
-30.66444567516566
 21
15.30806953306683
 31
10.0
  0
LINE
  5
1C0
102
{ACAD_REACTORS
330
1C5
102
}
330
164
100
AcDbEntity
  8
0
100
AcDbLine
 10
-28.6408056751657
 20
16.44881753306684
 30
10.0
 11
-28.6408056751657
 21
15.30806953306683
 31
10.0
  0
LINE
  5
1C1
102
{ACAD_REACTORS
330
1C5
102
}
330
164
100
AcDbEntity
  8
0
100
AcDbLine
 10
-32.03334267516563
 20
16.44881753306684
 30
10.0
 11
-28.6408056751657
 21
16.44881753306684
 31
10.0
  0
LINE
  5
1C2
102
{ACAD_REACTORS
330
1C5
102
}
330
164
100
AcDbEntity
  8
0
100
AcDbLine
 10
-32.03334267516563
 20
10.44087653306682
 30
10.0
 11
-32.03334267516563
 21
16.44881753306684
 31
10.0
  0
LINE
  5
1C3
102
{ACAD_REACTORS
330
1C5
102
}
330
164
100
AcDbEntity
  8
0
100
AcDbLine
 10
-28.55049667516564
 20
10.44087653306682
 30
10.0
 11
-32.03334267516563
 21
10.44087653306682
 31
10.0
  0
LINE
  5
1C4
102
{ACAD_REACTORS
330
1C5
102
}
330
164
100
AcDbEntity
  8
0
100
AcDbLine
 10
-28.55049667516564
 20
11.58162453306683
 30
10.0
 11
-28.55049667516564
 21
10.44087653306682
 31
10.0
  0
HATCH
  5
1C5
330
164
100
AcDbEntity
  8
Schraffur (ISO)
100
AcDbHatch
 10
0.0
 20
0.0
 30
0.0
210
0.0
220
0.0
230
1.0
  2
SOLID
 70
     1
 71
     1
 91
        1
 92
        1
 93
       12
 72
     1
 10
-30.66444567516566
 20
11.58162453306683
 11
-28.55049667516564
 21
11.58162453306683
 72
     1
 10
-28.55049667516564
 20
11.58162453306683
 11
-28.55049667516564
 21
10.44087653306682
 72
     1
 10
-28.55049667516564
 20
10.44087653306682
 11
-32.03334267516563
 21
10.44087653306682
 72
     1
 10
-32.03334267516563
 20
10.44087653306682
 11
-32.03334267516563
 21
16.44881753306684
 72
     1
 10
-32.03334267516563
 20
16.44881753306684
 11
-28.6408056751657
 21
16.44881753306684
 72
     1
 10
-28.6408056751657
 20
16.44881753306684
 11
-28.6408056751657
 21
15.30806953306683
 72
     1
 10
-28.6408056751657
 20
15.30806953306683
 11
-30.66444567516566
 21
15.30806953306683
 72
     1
 10
-30.66444567516566
 20
15.30806953306683
 11
-30.66444567516566
 21
14.09127053306683
 72
     1
 10
-30.66444567516566
 20
14.09127053306683
 11
-28.76438667516563
 21
14.09127053306683
 72
     1
 10
-28.76438667516563
 20
14.09127053306683
 11
-28.76438667516563
 21
12.95052253306684
 72
     1
 10
-28.76438667516563
 20
12.95052253306684
 11
-30.66444567516566
 21
12.95052253306684
 72
     1
 10
-30.66444567516566
 20
12.95052253306684
 11
-30.66444567516566
 21
11.58162453306683
 97
       12
330
1B9
330
1C4
330
1C3
330
1C2
330
1C1
330
1C0
330
1BF
330
1BE
330
1BD
330
1BC
330
1BB
330
1BA
 75
     0
 76
     1
 98
        1
 10
0.0
 20
0.0
450
        0
451
        0
460
0.0
461
0.0
452
        0
462
0.0
453
        0
470

  0
LINE
  5
1C6
102
{ACAD_REACTORS
330
1D3
102
}
330
164
100
AcDbEntity
  8
0
100
AcDbLine
 10
-25.43246658829611
 20
16.4546514228036
 30
10.0
 11
-23.90435631161623
 21
16.46180057898531
 31
10.0
  0
LINE
  5
1C7
102
{ACAD_REACTORS
330
1D3
102
}
330
164
100
AcDbEntity
  8
0
100
AcDbLine
 10
-26.01549057645176
 20
14.58511635645683
 30
10.0
 11
-25.43246658829611
 21
16.4546514228036
 31
10.0
  0
LINE
  5
1C8
102
{ACAD_REACTORS
330
1D3
102
}
330
164
100
AcDbEntity
  8
0
100
AcDbLine
 10
-26.03093740740494
 20
14.58504408954738
 30
10.0
 11
-26.01549057645176
 21
14.58511635645683
 31
10.0
  0
LINE
  5
1C9
102
{ACAD_REACTORS
330
1D3
102
}
330
164
100
AcDbEntity
  8
0
100
AcDbLine
 10
-26.64612930682606
 20
16.44881753306684
 30
10.0
 11
-26.03093740740494
 21
14.58504408954738
 31
10.0
  0
LINE
  5
1CA
102
{ACAD_REACTORS
330
1D3
102
}
330
164
100
AcDbEntity
  8
0
100
AcDbLine
 10
-28.16787067516568
 20
16.44881753306684
 30
10.0
 11
-26.64612930682606
 21
16.44881753306684
 31
10.0
  0
LINE
  5
1CB
102
{ACAD_REACTORS
330
1D3
102
}
330
164
100
AcDbEntity
  8
0
100
AcDbLine
 10
-26.87026967516569
 20
13.49475453306683
 30
10.0
 11
-28.16787067516568
 21
16.44881753306684
 31
10.0
  0
LINE
  5
1CC
102
{ACAD_REACTORS
330
1D3
102
}
330
164
100
AcDbEntity
  8
0
100
AcDbLine
 10
-28.30689867516558
 20
10.44087653306682
 30
10.0
 11
-26.87026967516569
 21
13.49475453306683
 31
10.0
  0
LINE
  5
1CD
102
{ACAD_REACTORS
330
1D3
102
}
330
164
100
AcDbEntity
  8
0
100
AcDbLine
 10
-26.78946667516559
 20
10.44087653306682
 30
10.0
 11
-28.30689867516558
 21
10.44087653306682
 31
10.0
  0
LINE
  5
1CE
102
{ACAD_REACTORS
330
1D3
102
}
330
164
100
AcDbEntity
  8
0
100
AcDbLine
 10
-26.0800636751657
 20
12.44669253306682
 30
10.0
 11
-26.78946667516559
 21
10.44087653306682
 31
10.0
  0
LINE
  5
1CF
102
{ACAD_REACTORS
330
1D3
102
}
330
164
100
AcDbEntity
  8
0
100
AcDbLine
 10
-25.52255357088104
 20
10.44087653306682
 30
10.0
 11
-26.0800636751657
 21
12.44669253306682
 31
10.0
  0
LINE
  5
1D0
102
{ACAD_REACTORS
330
1D3
102
}
330
164
100
AcDbEntity
  8
0
100
AcDbLine
 10
-23.91733373362687
 20
10.44087653306682
 30
10.0
 11
-25.52255357088104
 21
10.44087653306682
 31
10.0
  0
LINE
  5
1D1
102
{ACAD_REACTORS
330
1D3
102
}
330
164
100
AcDbEntity
  8
0
100
AcDbLine
 10
-25.16745525516015
 20
13.49429112836466
 30
10.0
 11
-23.91733373362687
 21
10.44087653306682
 31
10.0
  0
LINE
  5
1D2
102
{ACAD_REACTORS
330
1D3
102
}
330
164
100
AcDbEntity
  8
0
100
AcDbLine
 10
-23.90435631161623
 20
16.46180057898531
 30
10.0
 11
-25.16745525516015
 21
13.49429112836466
 31
10.0
  0
HATCH
  5
1D3
330
164
100
AcDbEntity
  8
Schraffur (ISO)
100
AcDbHatch
 10
0.0
 20
0.0
 30
0.0
210
0.0
220
0.0
230
1.0
  2
SOLID
 70
     1
 71
     1
 91
        1
 92
        1
 93
       13
 72
     1
 10
-25.43246658829611
 20
16.4546514228036
 11
-23.90435631161623
 21
16.46180057898531
 72
     1
 10
-23.90435631161623
 20
16.46180057898531
 11
-25.16745525516015
 21
13.49429112836467
 72
     1
 10
-25.16745525516015
 20
13.49429112836466
 11
-23.91733373362687
 21
10.44087653306682
 72
     1
 10
-23.91733373362687
 20
10.44087653306682
 11
-25.52255357088104
 21
10.44087653306682
 72
     1
 10
-25.52255357088104
 20
10.44087653306682
 11
-26.0800636751657
 21
12.44669253306682
 72
     1
 10
-26.0800636751657
 20
12.44669253306682
 11
-26.78946667516559
 21
10.44087653306682
 72
     1
 10
-26.78946667516559
 20
10.44087653306682
 11
-28.30689867516558
 21
10.44087653306682
 72
     1
 10
-28.30689867516558
 20
10.44087653306682
 11
-26.87026967516569
 21
13.49475453306683
 72
     1
 10
-26.87026967516569
 20
13.49475453306683
 11
-28.16787067516568
 21
16.44881753306684
 72
     1
 10
-28.16787067516568
 20
16.44881753306684
 11
-26.64612930682606
 21
16.44881753306684
 72
     1
 10
-26.64612930682606
 20
16.44881753306684
 11
-26.03093740740494
 21
14.58504408954738
 72
     1
 10
-26.03093740740494
 20
14.58504408954738
 11
-26.01549057645176
 21
14.58511635645683
 72
     1
 10
-26.01549057645176
 20
14.58511635645683
 11
-25.43246658829611
 21
16.4546514228036
 97
       13
330
1C6
330
1D2
330
1D1
330
1D0
330
1CF
330
1CE
330
1CD
330
1CC
330
1CB
330
1CA
330
1C9
330
1C8
330
1C7
 75
     0
 76
     1
 98
        1
 10
0.0
 20
0.0
450
        0
451
        0
460
0.0
461
0.0
452
        0
462
0.0
453
        0
470

  0
LINE
  5
1D4
330
164
100
AcDbEntity
  8
Skizziergeometrie (ISO)
100
AcDbLine
 10
-66.74197817516563
 20
0.2208965330668366
 30
0.0
 11
-53.44197817516562
 21
0.2208965330668366
 31
0.0
  0
LINE
  5
1D5
330
164
100
AcDbEntity
  8
Skizziergeometrie (ISO)
100
AcDbLine
 10
-53.44197817516562
 20
0.2208965330668366
 30
0.0
 11
-53.44197817516562
 21
13.52089653306683
 31
0.0
  0
LINE
  5
1D6
330
164
100
AcDbEntity
  8
Skizziergeometrie (ISO)
100
AcDbLine
 10
-53.44197817516562
 20
13.52089653306683
 30
0.0
 11
-66.74197817516563
 21
13.52089653306683
 31
0.0
  0
LINE
  5
1D7
330
164
100
AcDbEntity
  8
Skizziergeometrie (ISO)
100
AcDbLine
 10
-66.74197817516563
 20
13.52089653306683
 30
0.0
 11
-66.74197817516563
 21
0.2208965330668366
 31
0.0
  0
LINE
  5
1D8
330
164
100
AcDbEntity
  8
Skizziergeometrie (ISO)
100
AcDbLine
 10
-74.30834701753944
 20
20.17089653306684
 30
0.0
 11
-61.00834701753945
 21
20.17089653306684
 31
0.0
  0
LINE
  5
1D9
330
164
100
AcDbEntity
  8
Skizziergeometrie (ISO)
100
AcDbLine
 10
-61.00834701753945
 20
20.17089653306684
 30
0.0
 11
-61.00834701753945
 21
6.870896533066837
 31
0.0
  0
LINE
  5
1DA
330
164
100
AcDbEntity
  8
Skizziergeometrie (ISO)
100
AcDbLine
 10
-61.00834701753945
 20
6.870896533066837
 30
0.0
 11
-74.30834701753944
 21
6.870896533066837
 31
0.0
  0
LINE
  5
1DB
330
164
100
AcDbEntity
  8
Skizziergeometrie (ISO)
100
AcDbLine
 10
-74.30834701753944
 20
6.870896533066837
 30
0.0
 11
-74.30834701753944
 21
20.17089653306684
 31
0.0
  0
LINE
  5
1DC
330
164
100
AcDbEntity
  8
Skizziergeometrie (ISO)
100
AcDbLine
 10
-49.79098967516563
 20
25.34881753306685
 30
0.0
 11
-36.49098967516564
 21
25.34881753306685
 31
0.0
  0
LINE
  5
1DD
330
164
100
AcDbEntity
  8
Skizziergeometrie (ISO)
100
AcDbLine
 10
-36.49098967516564
 20
25.34881753306685
 30
0.0
 11
-36.49098967516564
 21
12.04881753306685
 31
0.0
  0
LINE
  5
1DE
330
164
100
AcDbEntity
  8
Skizziergeometrie (ISO)
100
AcDbLine
 10
-36.49098967516564
 20
12.04881753306685
 30
0.0
 11
-49.79098967516563
 21
12.04881753306685
 31
0.0
  0
LINE
  5
1DF
330
164
100
AcDbEntity
  8
Skizziergeometrie (ISO)
100
AcDbLine
 10
-49.79098967516563
 20
12.04881753306685
 30
0.0
 11
-49.79098967516563
 21
25.34881753306685
 31
0.0
  0
MTEXT
  5
1E0
330
164
100
AcDbEntity
  8
Titel (ISO)
100
AcDbMText
 10
-23.23075129610368
 20
16.30481426074307
 30
0.0
 40
2.5
 41
0.0
 71
     4
 72
     1
  1
\fAIGDT|b0|i0;\H2.5000;}
  7
Notiztext (DIN)
 73
     1
 44
1.0
  0
ENDBLK
  5
166
330
164
100
AcDbEntity
  8
0
100
AcDbBlockEnd
  0
BLOCK
  5
1E2
330
1E1
100
AcDbEntity
  8
0
100
AcDbBlockBegin
  2
P gross
 70
     0
 10
0.0
 20
0.0
 30
0.0
  3
P gross
  1

  0
LINE
  5
1E4
102
{ACAD_REACTORS
330
1F2
102
}
330
1E1
100
AcDbEntity
  8
0
100
AcDbLine
 10
8.769225522167296
 20
4.689310313762291
 30
0.0
 11
7.981577449080567
 21
4.689310313762327
 31
0.0
  0
LINE
  5
1E5
102
{ACAD_REACTORS
330
1F2
102
}
330
1E1
100
AcDbEntity
  8
0
100
AcDbLine
 10
7.981577449080567
 20
4.689310313762327
 30
0.0
 11
7.981577449080567
 21
0.7845927762325644
 31
0.0
  0
LINE
  5
1E6
102
{ACAD_REACTORS
330
1F2
102
}
330
1E1
100
AcDbEntity
  8
0
100
AcDbLine
 10
7.981577449080567
 20
0.7845927762325644
 30
0.0
 11
8.769225522167296
 21
0.7845927762325644
 31
0.0
  0
ARC
  5
1E7
102
{ACAD_REACTORS
330
1F2
102
}
330
1E1
100
AcDbEntity
  8
0
100
AcDbCircle
 10
8.769225522167296
 20
2.284592776232585
 30
0.0
 40
1.5
100
AcDbArc
 50
270.0
 51
0.0
  0
LINE
  5
1E8
102
{ACAD_REACTORS
330
1F2
102
}
330
1E1
100
AcDbEntity
  8
0
100
AcDbLine
 10
10.26922552216724
 20
2.284592776232585
 30
0.0
 11
10.26922552216728
 21
3.189310313762341
 31
0.0
  0
ARC
  5
1E9
102
{ACAD_REACTORS
330
1F2
102
}
330
1E1
100
AcDbEntity
  8
0
100
AcDbCircle
 10
8.769225522167296
 20
3.189310313762341
 30
0.0
 40
1.5
100
AcDbArc
 50
0.0
 51
90.0
  0
LINE
  5
1EA
102
{ACAD_REACTORS
330
1F2
102
}
330
1E1
100
AcDbEntity
  8
0
100
AcDbLine
 10
4.481577449080553
 20
7.033965470643472
 30
0.0
 11
4.481577449080553
 21
-7.033965470643472
 31
0.0
  0
LINE
  5
1EB
102
{ACAD_REACTORS
330
1F2
102
}
330
1E1
100
AcDbEntity
  8
0
100
AcDbLine
 10
9.557661927330194
 20
7.033965470643472
 30
0.0
 11
4.481577449080553
 21
7.033965470643472
 31
0.0
  0
ARC
  5
1EC
102
{ACAD_REACTORS
330
1F2
102
}
330
1E1
100
AcDbEntity
  8
0
100
AcDbCircle
 10
9.557661927330194
 20
3.033965470643487
 30
0.0
 40
4.0
100
AcDbArc
 50
0.0
 51
90.0
  0
LINE
  5
1ED
102
{ACAD_REACTORS
330
1F2
102
}
330
1E1
100
AcDbEntity
  8
0
100
AcDbLine
 10
13.55766192733018
 20
2.439937619351439
 30
0.0
 11
13.55766192733018
 21
3.033965470643487
 31
0.0
  0
ARC
  5
1EE
102
{ACAD_REACTORS
330
1F2
102
}
330
1E1
100
AcDbEntity
  8
0
100
AcDbCircle
 10
9.557661927330194
 20
2.439937619351439
 30
0.0
 40
4.0
100
AcDbArc
 50
270.0
 51
0.0
  0
LINE
  5
1EF
102
{ACAD_REACTORS
330
1F2
102
}
330
1E1
100
AcDbEntity
  8
0
100
AcDbLine
 10
7.981577449080603
 20
-1.560062380648581
 30
0.0
 11
9.557661927330194
 21
-1.560062380648581
 31
0.0
  0
LINE
  5
1F0
102
{ACAD_REACTORS
330
1F2
102
}
330
1E1
100
AcDbEntity
  8
0
100
AcDbLine
 10
7.981577449080567
 20
-7.033965470643508
 30
0.0
 11
7.981577449080603
 21
-1.560062380648581
 31
0.0
  0
LINE
  5
1F1
102
{ACAD_REACTORS
330
1F2
102
}
330
1E1
100
AcDbEntity
  8
0
100
AcDbLine
 10
4.481577449080553
 20
-7.033965470643472
 30
0.0
 11
7.981577449080567
 21
-7.033965470643508
 31
0.0
  0
HATCH
  5
1F2
330
1E1
100
AcDbEntity
  8
Schraffur (ISO)
100
AcDbHatch
 10
0.0
 20
0.0
 30
0.0
210
0.0
220
0.0
230
1.0
  2
SOLID
 70
     1
 71
     1
 91
        2
 92
        0
 93
        6
 72
     1
 10
8.769225522167296
 20
4.689310313762291
 11
7.981577449080567
 21
4.689310313762327
 72
     1
 10
7.981577449080567
 20
4.689310313762327
 11
7.981577449080567
 21
0.7845927762325644
 72
     1
 10
7.981577449080567
 20
0.7845927762325644
 11
8.769225522167296
 21
0.7845927762325644
 72
     2
 10
8.769225522167296
 20
2.284592776232585
 40
1.5
 50
270.0
 51
360.0
 73
     1
 72
     1
 10
10.26922552216724
 20
2.284592776232585
 11
10.26922552216728
 21
3.189310313762341
 72
     2
 10
8.769225522167296
 20
3.189310313762341
 40
1.5
 50
0.0
 51
90.0
 73
     1
 97
        6
330
1E4
330
1E5
330
1E6
330
1E7
330
1E8
330
1E9
 92
        1
 93
        8
 72
     1
 10
4.481577449080553
 20
7.033965470643472
 11
4.481577449080553
 21
-7.033965470643472
 72
     1
 10
4.481577449080553
 20
-7.033965470643472
 11
7.981577449080567
 21
-7.033965470643508
 72
     1
 10
7.981577449080567
 20
-7.033965470643508
 11
7.981577449080603
 21
-1.560062380648581
 72
     1
 10
7.981577449080603
 20
-1.560062380648581
 11
9.557661927330194
 21
-1.560062380648581
 72
     2
 10
9.557661927330194
 20
2.439937619351439
 40
4.0
 50
270.0
 51
360.0
 73
     1
 72
     1
 10
13.55766192733018
 20
2.439937619351439
 11
13.55766192733018
 21
3.033965470643487
 72
     2
 10
9.557661927330194
 20
3.033965470643487
 40
4.0
 50
0.0
 51
90.0
 73
     1
 72
     1
 10
9.557661927330194
 20
7.033965470643472
 11
4.481577449080553
 21
7.033965470643472
 97
        8
330
1EA
330
1F1
330
1F0
330
1EF
330
1EE
330
1ED
330
1EC
330
1EB
 75
     0
 76
     1
 98
        1
 10
0.0
 20
0.0
450
        0
451
        0
460
0.0
461
0.0
452
        0
462
0.0
453
        0
470

  0
LINE
  5
1F3
330
1E1
100
AcDbEntity
  8
Skizziergeometrie (ISO)
100
AcDbLine
 10
-13.99999999999998
 20
14.00746616799352
 30
0.0
 11
14.00000000000002
 21
14.00746616799352
 31
0.0
  0
LINE
  5
1F4
330
1E1
100
AcDbEntity
  8
Skizziergeometrie (ISO)
100
AcDbLine
 10
14.00000000000002
 20
14.00746616799352
 30
0.0
 11
14.00000000000002
 21
-14.00746616799352
 31
0.0
  0
LINE
  5
1F5
330
1E1
100
AcDbEntity
  8
Skizziergeometrie (ISO)
100
AcDbLine
 10
14.00000000000002
 20
-14.00746616799352
 30
0.0
 11
-13.99999999999998
 21
-14.00746616799352
 31
0.0
  0
LINE
  5
1F6
330
1E1
100
AcDbEntity
  8
Skizziergeometrie (ISO)
100
AcDbLine
 10
-13.99999999999998
 20
-14.00746616799352
 30
0.0
 11
-13.99999999999998
 21
14.00746616799352
 31
0.0
  0
LINE
  5
1F7
330
1E1
100
AcDbEntity
  8
Skizziergeometrie (ISO)
100
AcDbLine
 10
4.481577449080553
 20
7.033965470643472
 30
0.0
 11
4.481577449080553
 21
-7.033965470643472
 31
0.0
  0
LINE
  5
1F8
330
1E1
100
AcDbEntity
  8
Skizziergeometrie (ISO)
100
AcDbLine
 10
4.481577449080553
 20
-7.033965470643472
 30
0.0
 11
7.981577449080567
 21
-7.033965470643508
 31
0.0
  0
LINE
  5
1F9
330
1E1
100
AcDbEntity
  8
Skizziergeometrie (ISO)
100
AcDbLine
 10
7.981577449080567
 20
-7.033965470643508
 30
0.0
 11
7.981577449080603
 21
-1.560062380648581
 31
0.0
  0
LINE
  5
1FA
330
1E1
100
AcDbEntity
  8
Skizziergeometrie (ISO)
100
AcDbLine
 10
7.981577449080603
 20
-1.560062380648581
 30
0.0
 11
9.557661927330194
 21
-1.560062380648581
 31
0.0
  0
LINE
  5
1FB
330
1E1
100
AcDbEntity
  8
Skizziergeometrie (ISO)
100
AcDbLine
 10
9.557661927330194
 20
7.033965470643472
 30
0.0
 11
4.481577449080553
 21
7.033965470643472
 31
0.0
  0
ARC
  5
1FC
330
1E1
100
AcDbEntity
  8
Skizziergeometrie (ISO)
100
AcDbCircle
 10
9.557661927330194
 20
2.439937619351439
 30
0.0
 40
4.0
100
AcDbArc
 50
270.0
 51
0.0
  0
LINE
  5
1FD
330
1E1
100
AcDbEntity
  8
Skizziergeometrie (ISO)
100
AcDbLine
 10
13.55766192733018
 20
2.439937619351439
 30
0.0
 11
13.55766192733018
 21
3.033965470643487
 31
0.0
  0
ARC
  5
1FE
330
1E1
100
AcDbEntity
  8
Skizziergeometrie (ISO)
100
AcDbCircle
 10
9.557661927330194
 20
3.033965470643487
 30
0.0
 40
4.0
100
AcDbArc
 50
0.0
 51
90.0
  0
LINE
  5
1FF
330
1E1
100
AcDbEntity
  8
Skizziergeometrie (ISO)
100
AcDbLine
 10
7.981577449080567
 20
0.7845927762325644
 30
0.0
 11
7.981577449080567
 21
4.689310313762327
 31
0.0
  0
LINE
  5
200
330
1E1
100
AcDbEntity
  8
Skizziergeometrie (ISO)
100
AcDbLine
 10
7.981577449080567
 20
4.689310313762327
 30
0.0
 11
8.769225522167296
 21
4.689310313762291
 31
0.0
  0
ARC
  5
201
330
1E1
100
AcDbEntity
  8
Skizziergeometrie (ISO)
100
AcDbCircle
 10
8.769225522167296
 20
3.189310313762341
 30
0.0
 40
1.5
100
AcDbArc
 50
0.0
 51
90.0
  0
LINE
  5
202
330
1E1
100
AcDbEntity
  8
Skizziergeometrie (ISO)
100
AcDbLine
 10
10.26922552216728
 20
3.189310313762341
 30
0.0
 11
10.26922552216724
 21
2.284592776232585
 31
0.0
  0
ARC
  5
203
330
1E1
100
AcDbEntity
  8
Skizziergeometrie (ISO)
100
AcDbCircle
 10
8.769225522167296
 20
2.284592776232585
 30
0.0
 40
1.5
100
AcDbArc
 50
270.0
 51
0.0
  0
LINE
  5
204
330
1E1
100
AcDbEntity
  8
Skizziergeometrie (ISO)
100
AcDbLine
 10
8.769225522167296
 20
0.7845927762325644
 30
0.0
 11
7.981577449080567
 21
0.7845927762325644
 31
0.0
  0
ENDBLK
  5
1E3
330
1E1
100
AcDbEntity
  8
0
100
AcDbBlockEnd
  0
ENDSEC
  0
SECTION
  2
ENTITIES
  0
LINE
  5
205
330
37
100
AcDbEntity
  8
Sichtbar (ISO)
100
AcDbLine
 10
219.930417581523
 20
796.0588391545581
 30
0.0
 11
259.8514720824797
 21
796.0588391545581
 31
0.0
  0
POLYLINE
  5
206
330
37
100
AcDbEntity
  8
Sichtbar (ISO)
100
AcDb2dPolyline
 66
     1
 10
0.0
 20
0.0
 30
0.0
 70
   128
  0
VERTEX
  5
207
330
206
100
AcDbEntity
  8
Sichtbar (ISO)
100
AcDbVertex
100
AcDb2dVertex
 10
216.0106658870322
 20
801.6568272105683
 30
0.0
  0
VERTEX
  5
208
330
206
100
AcDbEntity
  8
Sichtbar (ISO)
100
AcDbVertex
100
AcDb2dVertex
 10
216.136770837937
 20
801.6690151683318
 30
0.0
  0
VERTEX
  5
20A
330
206
100
AcDbEntity
  8
Sichtbar (ISO)
100
AcDbVertex
100
AcDb2dVertex
 10
216.512747400437
 20
801.7049114696014
 30
0.0
  0
VERTEX
  5
20B
330
206
100
AcDbEntity
  8
Sichtbar (ISO)
100
AcDbVertex
100
AcDb2dVertex
 10
217.1350854570014
 20
801.7635624400604
 30
0.0
  0
VERTEX
  5
20C
330
206
100
AcDbEntity
  8
Sichtbar (ISO)
100
AcDbVertex
100
AcDb2dVertex
 10
218.0002504521948
 20
801.8440334788788
 30
0.0
  0
VERTEX
  5
20D
330
206
100
AcDbEntity
  8
Sichtbar (ISO)
100
AcDbVertex
100
AcDb2dVertex
 10
219.0981304580313
 20
801.9444744578827
 30
0.0
  0
VERTEX
  5
20E
330
206
100
AcDbEntity
  8
Sichtbar (ISO)
100
AcDbVertex
100
AcDb2dVertex
 10
220.4154592687232
 20
802.0622150889861
 30
0.0
  0
VERTEX
  5
20F
330
206
100
AcDbEntity
  8
Sichtbar (ISO)
100
AcDbVertex
100
AcDb2dVertex
 10
221.9420605832678
 20
802.1948330394256
 30
0.0
  0
VERTEX
  5
210
330
206
100
AcDbEntity
  8
Sichtbar (ISO)
100
AcDbVertex
100
AcDb2dVertex
 10
223.6674636537177
 20
802.3398678294647
 30
0.0
  0
VERTEX
  5
211
330
206
100
AcDbEntity
  8
Sichtbar (ISO)
100
AcDbVertex
100
AcDb2dVertex
 10
225.5687254602057
 20
802.493695496701
 30
0.0
  0
VERTEX
  5
212
330
206
100
AcDbEntity
  8
Sichtbar (ISO)
100
AcDbVertex
100
AcDb2dVertex
 10
227.6248580152136
 20
802.6529781810271
 30
0.0
  0
VERTEX
  5
213
330
206
100
AcDbEntity
  8
Sichtbar (ISO)
100
AcDbVertex
100
AcDb2dVertex
 10
229.8201650315863
 20
802.814969300412
 30
0.0
  0
VERTEX
  5
214
330
206
100
AcDbEntity
  8
Sichtbar (ISO)
100
AcDbVertex
100
AcDb2dVertex
 10
232.137450569306
 20
802.976750611447
 30
0.0
  0
VERTEX
  5
215
330
206
100
AcDbEntity
  8
Sichtbar (ISO)
100
AcDbVertex
100
AcDb2dVertex
 10
234.5420187646491
 20
803.1345455638398
 30
0.0
  0
VERTEX
  5
216
330
206
100
AcDbEntity
  8
Sichtbar (ISO)
100
AcDbVertex
100
AcDb2dVertex
 10
237.0097416574103
 20
803.2859890452851
 30
0.0
  0
VERTEX
  5
217
330
206
100
AcDbEntity
  8
Sichtbar (ISO)
100
AcDbVertex
100
AcDb2dVertex
 10
239.5214766198737
 20
803.4292309276093
 30
0.0
  0
VERTEX
  5
218
330
206
100
AcDbEntity
  8
Sichtbar (ISO)
100
AcDbVertex
100
AcDb2dVertex
 10
242.053655975495
 20
803.5621540538299
 30
0.0
  0
VERTEX
  5
219
330
206
100
AcDbEntity
  8
Sichtbar (ISO)
100
AcDbVertex
100
AcDb2dVertex
 10
244.5660084420782
 20
803.6826794139374
 30
0.0
  0
VERTEX
  5
21A
330
206
100
AcDbEntity
  8
Sichtbar (ISO)
100
AcDbVertex
100
AcDb2dVertex
 10
247.0365136796576
 20
803.7903873912323
 30
0.0
  0
VERTEX
  5
21B
330
206
100
AcDbEntity
  8
Sichtbar (ISO)
100
AcDbVertex
100
AcDb2dVertex
 10
249.4458764726263
 20
803.8850109569061
 30
0.0
  0
VERTEX
  5
21C
330
206
100
AcDbEntity
  8
Sichtbar (ISO)
100
AcDbVertex
100
AcDb2dVertex
 10
251.7673247987372
 20
803.9662258616912
 30
0.0
  0
VERTEX
  5
21D
330
206
100
AcDbEntity
  8
Sichtbar (ISO)
100
AcDbVertex
100
AcDb2dVertex
 10
253.9661973649603
 20
804.0341846934783
 30
0.0
  0
VERTEX
  5
21E
330
206
100
AcDbEntity
  8
Sichtbar (ISO)
100
AcDbVertex
100
AcDb2dVertex
 10
256.0259574586493
 20
804.0900509349334
 30
0.0
  0
VERTEX
  5
21F
330
206
100
AcDbEntity
  8
Sichtbar (ISO)
100
AcDbVertex
100
AcDb2dVertex
 10
257.9307740861517
 20
804.1349308482635
 30
0.0
  0
VERTEX
  5
220
330
206
100
AcDbEntity
  8
Sichtbar (ISO)
100
AcDbVertex
100
AcDb2dVertex
 10
259.6579545671088
 20
804.1699688426483
 30
0.0
  0
VERTEX
  5
221
330
206
100
AcDbEntity
  8
Sichtbar (ISO)
100
AcDbVertex
100
AcDb2dVertex
 10
261.1852210694892
 20
804.1964619151581
 30
0.0
  0
VERTEX
  5
222
330
206
100
AcDbEntity
  8
Sichtbar (ISO)
100
AcDbVertex
100
AcDb2dVertex
 10
262.50249802414
 20
804.2158596507537
 30
0.0
  0
VERTEX
  5
223
330
206
100
AcDbEntity
  8
Sichtbar (ISO)
100
AcDbVertex
100
AcDb2dVertex
 10
263.5997909242255
 20
804.2296116343964
 30
0.0
  0
VERTEX
  5
224
330
206
100
AcDbEntity
  8
Sichtbar (ISO)
100
AcDbVertex
100
AcDb2dVertex
 10
264.4638389283759
 20
804.2390339366424
 30
0.0
  0
VERTEX
  5
225
330
206
100
AcDbEntity
  8
Sichtbar (ISO)
100
AcDbVertex
100
AcDb2dVertex
 10
265.085186355744
 20
804.2450039378632
 30
0.0
  0
VERTEX
  5
226
330
206
100
AcDbEntity
  8
Sichtbar (ISO)
100
AcDbVertex
100
AcDb2dVertex
 10
265.4604619676215
 20
804.2481129161346
 30
0.0
  0
VERTEX
  5
227
330
206
100
AcDbEntity
  8
Sichtbar (ISO)
100
AcDbVertex
100
AcDb2dVertex
 10
265.5862992936713
 20
804.2490284434784
 30
0.0
  0
SEQEND
  5
209
330
206
100
AcDbEntity
  8
Sichtbar (ISO)
  0
LINE
  5
228
330
37
100
AcDbEntity
  8
Sichtbar (ISO)
100
AcDbLine
 10
219.930417581523
 20
795.070896895945
 30
0.0
 11
259.8514720824797
 21
795.070896895945
 31
0.0
  0
LINE
  5
229
330
37
100
AcDbEntity
  8
Sichtbar (ISO)
100
AcDbLine
 10
219.930417581523
 20
796.0588391545581
 30
0.0
 11
216.0106661083474
 21
801.6568244078982
 31
0.0
  0
LINE
  5
22A
330
37
100
AcDbEntity
  8
Sichtbar (ISO)
100
AcDbLine
 10
259.8514720824797
 20
796.0588391545581
 30
0.0
 11
265.5862995375566
 21
804.2490215535361
 31
0.0
  0
LINE
  5
22B
330
37
100
AcDbEntity
  8
Sichtbar (ISO)
100
AcDbLine
 10
259.8514720824797
 20
796.0588391545581
 30
0.0
 11
259.8514720824797
 21
795.070896895945
 31
0.0
  0
LINE
  5
22C
330
37
100
AcDbEntity
  8
Sichtbar (ISO)
100
AcDbLine
 10
219.930417581523
 20
796.0588391545581
 30
0.0
 11
219.930417581523
 21
795.070896895945
 31
0.0
  0
LINE
  5
22D
330
37
100
AcDbEntity
  8
Sichtbar (ISO)
100
AcDbLine
 10
201.3909448320013
 20
799.6204273692596
 30
0.0
 11
201.3909448320017
 21
1404.620427369259
 31
0.0
  0
LINE
  5
22E
330
37
100
AcDbEntity
  8
Sichtbar (ISO)
100
AcDbLine
 10
209.3909448320014
 20
799.6204273692596
 30
0.0
 11
209.3909448320018
 21
1404.620427369259
 31
0.0
  0
ARC
  5
22F
330
37
100
AcDbEntity
  8
Sichtbar (ISO)
100
AcDbCircle
 10
-268.6671643376452
 20
1102.120427369259
 30
0.0
 40
652.0000000000003
100
AcDbArc
 50
335.9031238206817
 51
354.9295070209515
  0
ARC
  5
230
330
37
100
AcDbEntity
  8
Sichtbar (ISO)
100
AcDbCircle
 10
-268.6671643376452
 20
1102.120427369259
 30
0.0
 40
652.0000000000004
100
AcDbArc
 50
5.070492979048471
 51
24.09687617931835
  0
ARC
  5
231
330
37
100
AcDbEntity
  8
Sichtbar (ISO)
100
AcDbCircle
 10
352.8909448320075
 20
1046.97047790914
 30
0.0
 40
27.99999999999391
100
AcDbArc
 50
354.9295070209516
 51
0.0
  0
ARC
  5
232
330
37
100
AcDbEntity
  8
Sichtbar (ISO)
100
AcDbCircle
 10
352.8909448320076
 20
1157.270376829379
 30
0.0
 40
27.99999999999391
100
AcDbArc
 50
0.0
 51
5.070492979048398
  0
LINE
  5
233
330
37
100
AcDbEntity
  8
Sichtbar (ISO)
100
AcDbLine
 10
380.8909448320014
 20
1046.97047790914
 30
0.0
 11
380.8909448320015
 21
1157.270376829379
 31
0.0
  0
LINE
  5
234
330
37
100
AcDbEntity
  8
Sichtbar (ISO)
100
AcDbLine
 10
201.3909448320017
 20
1404.620427369259
 30
0.0
 11
209.3909448320018
 21
1404.620427369259
 31
0.0
  0
LINE
  5
235
330
37
100
AcDbEntity
  8
Sichtbar (ISO)
100
AcDbLine
 10
201.3909448320013
 20
799.6204273692596
 30
0.0
 11
209.3909448320014
 21
799.6204273692596
 31
0.0
  0
ARC
  5
236
330
37
100
AcDbEntity
  8
Sichtbar (ISO)
100
AcDbCircle
 10
209.3909448320009
 20
800.6204273692659
 30
0.0
 40
601.9999999999937
100
AcDbArc
 50
82.58732264382214
 51
89.99999999999994
  0
ARC
  5
237
330
37
100
AcDbEntity
  8
Sichtbar (ISO)
100
AcDbCircle
 10
209.3909448320013
 20
1403.620427369253
 30
0.0
 40
601.9999999999939
100
AcDbArc
 50
275.356231129186
 51
277.4126773561778
  0
ARC
  5
238
330
37
100
AcDbEntity
  8
Sichtbar (ISO)
100
AcDbCircle
 10
209.3909448320013
 20
1403.620427369253
 30
0.0
 40
601.9999999999939
100
AcDbArc
 50
270.0
 51
270.6300493931824
  0
ARC
  5
239
330
37
100
AcDbEntity
  8
Sichtbar (ISO)
100
AcDbCircle
 10
279.4805038654711
 20
858.0964974537614
 30
0.0
 40
52.0
100
AcDbArc
 50
278.3790176620017
 51
334.7579106646938
  0
ARC
  5
23A
330
37
100
AcDbEntity
  8
Sichtbar (ISO)
100
AcDbCircle
 10
279.4805038654715
 20
1346.144357284758
 30
0.0
 40
52.00000000000001
100
AcDbArc
 50
25.24208933530621
 51
81.62098233799822
  0
ARC
  5
23B
330
37
100
AcDbEntity
  8
Sichtbar (ISO)
100
AcDbCircle
 10
58.89094483201285
 20
1047.120427374073
 30
0.0
 40
28.00000000000002
100
AcDbArc
 50
180.0
 51
185.0566706522054
  0
ARC
  5
23C
330
37
100
AcDbEntity
  8
Sichtbar (ISO)
100
AcDbCircle
 10
58.89094483201325
 20
1157.120427364446
 30
0.0
 40
28.00000000000001
100
AcDbArc
 50
174.9433293477953
 51
180.0
  0
LINE
  5
23D
330
37
100
AcDbEntity
  8
Sichtbar (ISO)
100
AcDbLine
 10
30.89094483201322
 20
1157.120427364446
 30
0.0
 11
30.89094483201287
 21
1047.120427374073
 31
0.0
  0
ARC
  5
23E
330
37
100
AcDbEntity
  8
Sichtbar (ISO)
100
AcDbCircle
 10
680.4623405702642
 20
1102.12042736834
 30
0.0
 40
652.0000000048225
100
AcDbArc
 50
185.0566706517022
 51
203.9686320448658
  0
ARC
  5
23F
330
37
100
AcDbEntity
  8
Sichtbar (ISO)
100
AcDbCircle
 10
680.4623405702642
 20
1102.12042736834
 30
0.0
 40
652.0000000048221
100
AcDbArc
 50
156.0313679549866
 51
174.943329348137
  0
ARC
  5
240
330
37
100
AcDbEntity
  8
Sichtbar (ISO)
100
AcDbCircle
 10
132.2015414720929
 20
858.3785635668284
 30
0.0
 40
51.9999999999999
100
AcDbArc
 50
203.9686320453267
 51
262.4579689911783
  0
ARC
  5
241
330
37
100
AcDbEntity
  8
Sichtbar (ISO)
100
AcDbCircle
 10
132.2015414720946
 20
1345.862291171691
 30
0.0
 40
51.99999999999985
100
AcDbArc
 50
97.54203100882133
 51
156.0313679546732
  0
ARC
  5
242
330
37
100
AcDbEntity
  8
Sichtbar (ISO)
100
AcDbCircle
 10
204.3909448305993
 20
800.6204273692683
 30
0.0
 40
601.9999999999992
100
AcDbArc
 50
90.4758798366098
 51
97.5420310088209
  0
ARC
  5
243
330
37
100
AcDbEntity
  8
Sichtbar (ISO)
100
AcDbCircle
 10
204.3909448306014
 20
1403.620427369251
 30
0.0
 40
601.999999999999
100
AcDbArc
 50
262.4579689911784
 51
269.5241201633896
  0
LINE
  5
244
330
37
100
AcDbEntity
  8
Sichtbar (ISO)
100
AcDbLine
 10
228.3168263763472
 20
768.5866874768802
 30
0.0
 11
251.4650632876557
 21
768.5866874768802
 31
0.0
  0
LINE
  5
245
330
37
100
AcDbEntity
  8
Sichtbar (ISO)
100
AcDbLine
 10
252.7784287496827
 20
769.270382261744
 30
0.0
 11
227.0034609143202
 21
769.270382261744
 31
0.0
  0
LINE
  5
246
330
37
100
AcDbEntity
  8
Sichtbar (ISO)
100
AcDbLine
 10
251.5071102042301
 20
769.9321888072621
 30
0.0
 11
228.2747794597728
 21
769.9321888072621
 31
0.0
  0
LINE
  5
247
330
37
100
AcDbEntity
  8
Sichtbar (ISO)
100
AcDbLine
 10
252.8204756662571
 20
770.615883592126
 30
0.0
 11
226.9614139977458
 21
770.615883592126
 31
0.0
  0
LINE
  5
248
330
37
100
AcDbEntity
  8
Sichtbar (ISO)
100
AcDbLine
 10
251.5491571208046
 20
771.277690137644
 30
0.0
 11
228.2327325431984
 21
771.277690137644
 31
0.0
  0
LINE
  5
249
330
37
100
AcDbEntity
  8
Sichtbar (ISO)
100
AcDbLine
 10
252.8625225828316
 20
771.9613849225079
 30
0.0
 11
226.9193670811713
 21
771.9613849225079
 31
0.0
  0
LINE
  5
24A
330
37
100
AcDbEntity
  8
Sichtbar (ISO)
100
AcDbLine
 10
251.591204037379
 20
772.6231914680258
 30
0.0
 11
228.1906856266239
 21
772.6231914680258
 31
0.0
  0
LINE
  5
24B
330
37
100
AcDbEntity
  8
Sichtbar (ISO)
100
AcDbLine
 10
252.904569499406
 20
773.3068862528898
 30
0.0
 11
226.8773201645969
 21
773.3068862528898
 31
0.0
  0
LINE
  5
24C
330
37
100
AcDbEntity
  8
Sichtbar (ISO)
100
AcDbLine
 10
251.6332509539534
 20
773.9686927984077
 30
0.0
 11
228.1486387100495
 21
773.9686927984077
 31
0.0
  0
LINE
  5
24D
330
37
100
AcDbEntity
  8
Sichtbar (ISO)
100
AcDbLine
 10
252.9466164159805
 20
774.6523875832718
 30
0.0
 11
226.8352732480225
 21
774.6523875832718
 31
0.0
  0
LINE
  5
24E
330
37
100
AcDbEntity
  8
Sichtbar (ISO)
100
AcDbLine
 10
251.6752978705279
 20
775.3141941287897
 30
0.0
 11
228.106591793475
 21
775.3141941287897
 31
0.0
  0
LINE
  5
24F
330
37
100
AcDbEntity
  8
Sichtbar (ISO)
100
AcDbLine
 10
252.9886633325549
 20
775.9978889136536
 30
0.0
 11
226.793226331448
 21
775.9978889136536
 31
0.0
  0
LINE
  5
250
330
37
100
AcDbEntity
  8
Sichtbar (ISO)
100
AcDbLine
 10
251.7173447871023
 20
776.6596954591716
 30
0.0
 11
228.0645448769006
 21
776.6596954591716
 31
0.0
  0
LINE
  5
251
330
37
100
AcDbEntity
  8
Sichtbar (ISO)
100
AcDbLine
 10
253.0307102491293
 20
777.3433902440355
 30
0.0
 11
226.7511794148736
 21
777.3433902440355
 31
0.0
  0
LINE
  5
252
330
37
100
AcDbEntity
  8
Sichtbar (ISO)
100
AcDbLine
 10
251.7593917036768
 20
778.0051967895535
 30
0.0
 11
228.0224979603262
 21
778.0051967895535
 31
0.0
  0
LINE
  5
253
330
37
100
AcDbEntity
  8
Sichtbar (ISO)
100
AcDbLine
 10
253.0727571657037
 20
778.6888915744175
 30
0.0
 11
226.7091324982992
 21
778.6888915744175
 31
0.0
  0
LINE
  5
254
330
37
100
AcDbEntity
  8
Sichtbar (ISO)
100
AcDbLine
 10
251.8014386202512
 20
779.3506981199355
 30
0.0
 11
227.9804510437517
 21
779.3506981199355
 31
0.0
  0
LINE
  5
255
330
37
100
AcDbEntity
  8
Sichtbar (ISO)
100
AcDbLine
 10
253.1148040822782
 20
780.0343929047993
 30
0.0
 11
226.6670855817247
 21
780.0343929047993
 31
0.0
  0
LINE
  5
256
330
37
100
AcDbEntity
  8
Sichtbar (ISO)
100
AcDbLine
 10
251.8434855368256
 20
780.6961994503173
 30
0.0
 11
227.9384041271773
 21
780.6961994503173
 31
0.0
  0
LINE
  5
257
330
37
100
AcDbEntity
  8
Sichtbar (ISO)
100
AcDbLine
 10
253.1568509988526
 20
781.3798942351812
 30
0.0
 11
226.6250386651503
 21
781.3798942351812
 31
0.0
  0
LINE
  5
258
330
37
100
AcDbEntity
  8
Sichtbar (ISO)
100
AcDbLine
 10
227.8963572106029
 20
782.0417007806992
 30
0.0
 11
251.8855324534
 21
782.0417007806992
 31
0.0
  0
LINE
  5
259
330
37
100
AcDbEntity
  8
Sichtbar (ISO)
100
AcDbLine
 10
253.1988979154271
 20
782.7253955655631
 30
0.0
 11
226.5829917485759
 21
782.7253955655631
 31
0.0
  0
LINE
  5
25A
330
37
100
AcDbEntity
  8
Sichtbar (ISO)
100
AcDbLine
 10
226.5409448320014
 20
784.0708968959451
 30
0.0
 11
253.2409448320015
 21
784.0708968959451
 31
0.0
  0
LINE
  5
25B
330
37
100
AcDbEntity
  8
Sichtbar (ISO)
100
AcDbLine
 10
227.8543102940284
 20
783.3872021110811
 30
0.0
 11
251.9275793699745
 21
783.3872021110811
 31
0.0
  0
LINE
  5
25C
330
37
100
AcDbEntity
  8
Sichtbar (ISO)
100
AcDbLine
 10
227.7911297985104
 20
768.3130271598705
 30
0.0
 11
251.9907598654925
 21
768.3130271598705
 31
0.0
  0
LINE
  5
25D
330
37
100
AcDbEntity
  8
Sichtbar (ISO)
100
AcDbLine
 10
228.3168263763472
 20
768.5866874768802
 30
0.0
 11
227.0034609143202
 21
769.270382261744
 31
0.0
  0
LINE
  5
25E
330
37
100
AcDbEntity
  8
Sichtbar (ISO)
100
AcDbLine
 10
251.4650632876557
 20
768.5866874768802
 30
0.0
 11
252.7784287496827
 21
769.270382261744
 31
0.0
  0
LINE
  5
25F
330
37
100
AcDbEntity
  8
Sichtbar (ISO)
100
AcDbLine
 10
251.5071102042301
 20
769.9321888072621
 30
0.0
 11
252.7784287496827
 21
769.270382261744
 31
0.0
  0
LINE
  5
260
330
37
100
AcDbEntity
  8
Sichtbar (ISO)
100
AcDbLine
 10
228.2747794597728
 20
769.9321888072621
 30
0.0
 11
227.0034609143202
 21
769.270382261744
 31
0.0
  0
LINE
  5
261
330
37
100
AcDbEntity
  8
Sichtbar (ISO)
100
AcDbLine
 10
228.2747794597728
 20
769.9321888072621
 30
0.0
 11
226.9614139977458
 21
770.615883592126
 31
0.0
  0
LINE
  5
262
330
37
100
AcDbEntity
  8
Sichtbar (ISO)
100
AcDbLine
 10
251.5071102042302
 20
769.9321888072621
 30
0.0
 11
252.8204756662571
 21
770.615883592126
 31
0.0
  0
LINE
  5
263
330
37
100
AcDbEntity
  8
Sichtbar (ISO)
100
AcDbLine
 10
251.5491571208046
 20
771.277690137644
 30
0.0
 11
252.8204756662571
 21
770.615883592126
 31
0.0
  0
LINE
  5
264
330
37
100
AcDbEntity
  8
Sichtbar (ISO)
100
AcDbLine
 10
228.2327325431984
 20
771.277690137644
 30
0.0
 11
226.9614139977458
 21
770.615883592126
 31
0.0
  0
LINE
  5
265
330
37
100
AcDbEntity
  8
Sichtbar (ISO)
100
AcDbLine
 10
228.2327325431983
 20
771.277690137644
 30
0.0
 11
226.9193670811713
 21
771.9613849225078
 31
0.0
  0
LINE
  5
266
330
37
100
AcDbEntity
  8
Sichtbar (ISO)
100
AcDbLine
 10
251.5491571208046
 20
771.277690137644
 30
0.0
 11
252.8625225828316
 21
771.9613849225078
 31
0.0
  0
LINE
  5
267
330
37
100
AcDbEntity
  8
Sichtbar (ISO)
100
AcDbLine
 10
251.591204037379
 20
772.6231914680258
 30
0.0
 11
252.8625225828315
 21
771.9613849225078
 31
0.0
  0
LINE
  5
268
330
37
100
AcDbEntity
  8
Sichtbar (ISO)
100
AcDbLine
 10
228.1906856266239
 20
772.6231914680258
 30
0.0
 11
226.9193670811714
 21
771.9613849225078
 31
0.0
  0
LINE
  5
269
330
37
100
AcDbEntity
  8
Sichtbar (ISO)
100
AcDbLine
 10
228.1906856266239
 20
772.6231914680258
 30
0.0
 11
226.8773201645969
 21
773.3068862528897
 31
0.0
  0
LINE
  5
26A
330
37
100
AcDbEntity
  8
Sichtbar (ISO)
100
AcDbLine
 10
251.5912040373791
 20
772.6231914680258
 30
0.0
 11
252.904569499406
 21
773.3068862528898
 31
0.0
  0
LINE
  5
26B
330
37
100
AcDbEntity
  8
Sichtbar (ISO)
100
AcDbLine
 10
251.6332509539535
 20
773.9686927984077
 30
0.0
 11
252.904569499406
 21
773.3068862528898
 31
0.0
  0
LINE
  5
26C
330
37
100
AcDbEntity
  8
Sichtbar (ISO)
100
AcDbLine
 10
228.1486387100494
 20
773.9686927984077
 30
0.0
 11
226.8773201645969
 21
773.3068862528898
 31
0.0
  0
LINE
  5
26D
330
37
100
AcDbEntity
  8
Sichtbar (ISO)
100
AcDbLine
 10
228.1486387100495
 20
773.9686927984079
 30
0.0
 11
226.8352732480225
 21
774.6523875832718
 31
0.0
  0
LINE
  5
26E
330
37
100
AcDbEntity
  8
Sichtbar (ISO)
100
AcDbLine
 10
251.6332509539534
 20
773.9686927984079
 30
0.0
 11
252.9466164159804
 21
774.6523875832718
 31
0.0
  0
LINE
  5
26F
330
37
100
AcDbEntity
  8
Sichtbar (ISO)
100
AcDbLine
 10
251.6752978705279
 20
775.3141941287897
 30
0.0
 11
252.9466164159805
 21
774.6523875832718
 31
0.0
  0
LINE
  5
270
330
37
100
AcDbEntity
  8
Sichtbar (ISO)
100
AcDbLine
 10
228.106591793475
 20
775.3141941287897
 30
0.0
 11
226.8352732480225
 21
774.6523875832718
 31
0.0
  0
LINE
  5
271
330
37
100
AcDbEntity
  8
Sichtbar (ISO)
100
AcDbLine
 10
228.1065917934751
 20
775.3141941287897
 30
0.0
 11
226.793226331448
 21
775.9978889136536
 31
0.0
  0
LINE
  5
272
330
37
100
AcDbEntity
  8
Sichtbar (ISO)
100
AcDbLine
 10
251.6752978705278
 20
775.3141941287897
 30
0.0
 11
252.9886633325549
 21
775.9978889136536
 31
0.0
  0
LINE
  5
273
330
37
100
AcDbEntity
  8
Sichtbar (ISO)
100
AcDbLine
 10
251.7173447871023
 20
776.6596954591716
 30
0.0
 11
252.9886633325549
 21
775.9978889136536
 31
0.0
  0
LINE
  5
274
330
37
100
AcDbEntity
  8
Sichtbar (ISO)
100
AcDbLine
 10
228.0645448769006
 20
776.6596954591716
 30
0.0
 11
226.793226331448
 21
775.9978889136536
 31
0.0
  0
LINE
  5
275
330
37
100
AcDbEntity
  8
Sichtbar (ISO)
100
AcDbLine
 10
228.0645448769006
 20
776.6596954591716
 30
0.0
 11
226.7511794148736
 21
777.3433902440355
 31
0.0
  0
LINE
  5
276
330
37
100
AcDbEntity
  8
Sichtbar (ISO)
100
AcDbLine
 10
251.7173447871023
 20
776.6596954591716
 30
0.0
 11
253.0307102491293
 21
777.3433902440355
 31
0.0
  0
LINE
  5
277
330
37
100
AcDbEntity
  8
Sichtbar (ISO)
100
AcDbLine
 10
251.7593917036767
 20
778.0051967895535
 30
0.0
 11
253.0307102491293
 21
777.3433902440355
 31
0.0
  0
LINE
  5
278
330
37
100
AcDbEntity
  8
Sichtbar (ISO)
100
AcDbLine
 10
228.0224979603262
 20
778.0051967895535
 30
0.0
 11
226.7511794148736
 21
777.3433902440355
 31
0.0
  0
LINE
  5
279
330
37
100
AcDbEntity
  8
Sichtbar (ISO)
100
AcDbLine
 10
228.0224979603262
 20
778.0051967895535
 30
0.0
 11
226.7091324982992
 21
778.6888915744174
 31
0.0
  0
LINE
  5
27A
330
37
100
AcDbEntity
  8
Sichtbar (ISO)
100
AcDbLine
 10
251.7593917036768
 20
778.0051967895535
 30
0.0
 11
253.0727571657037
 21
778.6888915744174
 31
0.0
  0
LINE
  5
27B
330
37
100
AcDbEntity
  8
Sichtbar (ISO)
100
AcDbLine
 10
251.8014386202512
 20
779.3506981199355
 30
0.0
 11
253.0727571657038
 21
778.6888915744174
 31
0.0
  0
LINE
  5
27C
330
37
100
AcDbEntity
  8
Sichtbar (ISO)
100
AcDbLine
 10
227.9804510437517
 20
779.3506981199355
 30
0.0
 11
226.7091324982992
 21
778.6888915744174
 31
0.0
  0
LINE
  5
27D
330
37
100
AcDbEntity
  8
Sichtbar (ISO)
100
AcDbLine
 10
227.9804510437517
 20
779.3506981199355
 30
0.0
 11
226.6670855817248
 21
780.0343929047993
 31
0.0
  0
LINE
  5
27E
330
37
100
AcDbEntity
  8
Sichtbar (ISO)
100
AcDbLine
 10
251.8014386202512
 20
779.3506981199355
 30
0.0
 11
253.1148040822781
 21
780.0343929047993
 31
0.0
  0
LINE
  5
27F
330
37
100
AcDbEntity
  8
Sichtbar (ISO)
100
AcDbLine
 10
251.8434855368256
 20
780.6961994503173
 30
0.0
 11
253.1148040822782
 21
780.0343929047993
 31
0.0
  0
LINE
  5
280
330
37
100
AcDbEntity
  8
Sichtbar (ISO)
100
AcDbLine
 10
227.9384041271773
 20
780.6961994503173
 30
0.0
 11
226.6670855817247
 21
780.0343929047993
 31
0.0
  0
LINE
  5
281
330
37
100
AcDbEntity
  8
Sichtbar (ISO)
100
AcDbLine
 10
227.9384041271773
 20
780.6961994503173
 30
0.0
 11
226.6250386651503
 21
781.3798942351811
 31
0.0
  0
LINE
  5
282
330
37
100
AcDbEntity
  8
Sichtbar (ISO)
100
AcDbLine
 10
251.8434855368256
 20
780.6961994503173
 30
0.0
 11
253.1568509988527
 21
781.3798942351811
 31
0.0
  0
LINE
  5
283
330
37
100
AcDbEntity
  8
Sichtbar (ISO)
100
AcDbLine
 10
251.8855324534
 20
782.0417007806992
 30
0.0
 11
253.1568509988526
 21
781.3798942351812
 31
0.0
  0
LINE
  5
284
330
37
100
AcDbEntity
  8
Sichtbar (ISO)
100
AcDbLine
 10
227.8963572106029
 20
782.0417007806992
 30
0.0
 11
226.6250386651504
 21
781.3798942351812
 31
0.0
  0
LINE
  5
285
330
37
100
AcDbEntity
  8
Sichtbar (ISO)
100
AcDbLine
 10
227.8963572106029
 20
782.0417007806992
 30
0.0
 11
226.5829917485759
 21
782.7253955655631
 31
0.0
  0
LINE
  5
286
330
37
100
AcDbEntity
  8
Sichtbar (ISO)
100
AcDbLine
 10
251.8855324534
 20
782.0417007806992
 30
0.0
 11
253.198897915427
 21
782.7253955655631
 31
0.0
  0
LINE
  5
287
330
37
100
AcDbEntity
  8
Sichtbar (ISO)
100
AcDbLine
 10
227.8543102940284
 20
783.3872021110811
 30
0.0
 11
226.5409448320014
 21
784.0708968959451
 31
0.0
  0
LINE
  5
288
330
37
100
AcDbEntity
  8
Sichtbar (ISO)
100
AcDbLine
 10
251.9275793699745
 20
783.3872021110811
 30
0.0
 11
253.2409448320015
 21
784.0708968959451
 31
0.0
  0
LINE
  5
289
330
37
100
AcDbEntity
  8
Sichtbar (ISO)
100
AcDbLine
 10
251.9275793699745
 20
783.3872021110811
 30
0.0
 11
253.1988979154271
 21
782.7253955655631
 31
0.0
  0
LINE
  5
28A
330
37
100
AcDbEntity
  8
Sichtbar (ISO)
100
AcDbLine
 10
227.8543102940284
 20
783.3872021110811
 30
0.0
 11
226.5829917485759
 21
782.7253955655631
 31
0.0
  0
LINE
  5
28B
330
37
100
AcDbEntity
  8
Sichtbar (ISO)
100
AcDbLine
 10
251.4650632876557
 20
768.5866874768802
 30
0.0
 11
251.9907598654925
 21
768.3130271598705
 31
0.0
  0
LINE
  5
28C
330
37
100
AcDbEntity
  8
Sichtbar (ISO)
100
AcDbLine
 10
228.3168263763472
 20
768.5866874768802
 30
0.0
 11
227.7911297985104
 21
768.3130271598705
 31
0.0
  0
LINE
  5
28D
330
37
100
AcDbEntity
  8
Sichtbar (ISO)
100
AcDbLine
 10
251.7409448320015
 20
768.070896895945
 30
0.0
 11
228.0409448320015
 21
768.070896895945
 31
0.0
  0
LINE
  5
28E
330
37
100
AcDbEntity
  8
Sichtbar (ISO)
100
AcDbLine
 10
228.0409448320015
 20
768.070896895945
 30
0.0
 11
227.7911297985104
 21
768.3130271598705
 31
0.0
  0
LINE
  5
28F
330
37
100
AcDbEntity
  8
Sichtbar (ISO)
100
AcDbLine
 10
251.7409448320015
 20
768.070896895945
 30
0.0
 11
251.9907598654925
 21
768.3130271598705
 31
0.0
  0
LINE
  5
290
330
37
100
AcDbEntity
  8
Sichtbar (ISO)
100
AcDbLine
 10
226.5409448320014
 20
793.1708968959451
 30
0.0
 11
253.2409448320015
 21
793.1708968959451
 31
0.0
  0
LINE
  5
291
330
37
100
AcDbEntity
  8
Sichtbar (ISO)
100
AcDbLine
 10
253.2409448320015
 20
793.1708968959451
 30
0.0
 11
253.2409448320015
 21
784.0708968959451
 31
0.0
  0
LINE
  5
292
330
37
100
AcDbEntity
  8
Sichtbar (ISO)
100
AcDbLine
 10
226.5409448320014
 20
793.1708968959451
 30
0.0
 11
226.5409448320014
 21
784.0708968959451
 31
0.0
  0
ARC
  5
293
330
37
100
AcDbEntity
  8
Sichtbar (ISO)
100
AcDbCircle
 10
225.3409448320014
 20
795.0148057874037
 30
0.0
 40
2.200000000000003
100
AcDbArc
 50
303.0557311508518
 51
1.46096912406441
  0
ARC
  5
294
330
37
100
AcDbEntity
  8
Sichtbar (ISO)
100
AcDbCircle
 10
254.4409448320015
 20
795.0148057874037
 30
0.0
 40
2.200000000000004
100
AcDbArc
 50
178.5390308759333
 51
236.944268849146
  0
ARC
  5
295
330
37
100
AcDbEntity
  8
Sichtbar (ISO)
100
AcDbCircle
 10
347.7420454712082
 20
1324.525468589107
 30
0.0
 40
2.500000000000022
100
AcDbArc
 50
132.999999999998
 51
196.9999999999983
  0
LINE
  5
296
330
37
100
AcDbEntity
  8
Sichtbar (ISO)
100
AcDbLine
 10
346.037049571052
 20
1326.353852843155
 30
0.0
 11
376.6266042426081
 21
1354.879074052614
 31
0.0
  0
LINE
  5
297
330
37
100
AcDbEntity
  8
Sichtbar (ISO)
100
AcDbLine
 10
353.6656994288659
 20
1296.599310481125
 30
0.0
 11
345.3512835813006
 21
1323.7945393273
 31
0.0
  0
LINE
  5
298
330
37
100
AcDbEntity
  8
Sichtbar (ISO)
100
AcDbLine
 10
356.0564613187735
 20
1297.330239742932
 30
0.0
 11
353.6656994288659
 21
1296.599310481125
 31
0.0
  0
LINE
  5
299
330
37
100
AcDbEntity
  8
Sichtbar (ISO)
100
AcDbLine
 10
348.198780765325
 20
1323.031554756391
 30
0.0
 11
356.0564613187735
 21
1297.330239742932
 31
0.0
  0
LINE
  5
29A
330
37
100
AcDbEntity
  8
Sichtbar (ISO)
100
AcDbLine
 10
379.1266042426081
 20
1353.792043115212
 30
0.0
 11
348.8845467550764
 21
1325.590868272246
 31
0.0
  0
LINE
  5
29B
330
37
100
AcDbEntity
  8
Sichtbar (ISO)
100
AcDbLine
 10
379.9216083424519
 20
1399.715177562371
 30
0.0
 11
379.9216083424519
 21
1355.62042736926
 31
0.0
  0
LINE
  5
29C
330
37
100
AcDbEntity
  8
Sichtbar (ISO)
100
AcDbLine
 10
377.4216083424519
 20
1356.707458306662
 30
0.0
 11
377.4216083424519
 21
1399.715177562371
 31
0.0
  0
ARC
  5
29D
330
37
100
AcDbEntity
  8
Sichtbar (ISO)
100
AcDbCircle
 10
350.5895426552326
 20
1323.762484018198
 30
0.0
 40
2.499999999999988
100
AcDbArc
 50
133.0000000000015
 51
197.0000000000025
  0
ARC
  5
29E
330
37
100
AcDbEntity
  8
Sichtbar (ISO)
100
AcDbCircle
 10
377.4216083424519
 20
1355.62042736926
 30
0.0
 40
2.499999999999979
100
AcDbArc
 50
313.0000000000008
 51
0.0
  0
LINE
  5
29F
330
37
100
AcDbEntity
  8
Sichtbar (ISO)
100
AcDbLine
 10
379.9216083424519
 20
1399.715177562371
 30
0.0
 11
377.4216083424519
 21
1399.715177562371
 31
0.0
  0
LINE
  5
2A0
330
37
100
AcDbEntity
  8
Sichtbar (ISO)
100
AcDbLine
 10
379.9216083424519
 20
1399.715177562371
 30
0.0
 11
379.9216083424519
 21
1401.62042736926
 31
0.0
  0
LINE
  5
2A1
330
37
100
AcDbEntity
  8
Sichtbar (ISO)
100
AcDbLine
 10
377.4216083424519
 20
1401.62042736926
 30
0.0
 11
377.4216083424519
 21
1399.715177562371
 31
0.0
  0
LINE
  5
2A2
330
37
100
AcDbEntity
  8
Sichtbar (ISO)
100
AcDbLine
 10
379.9216083424519
 20
1401.62042736926
 30
0.0
 11
377.4216083424519
 21
1401.62042736926
 31
0.0
  0
ARC
  5
2A3
330
37
100
AcDbEntity
  8
Sichtbar (ISO)
100
AcDbCircle
 10
374.9216083424518
 20
1356.707458306662
 30
0.0
 40
2.500000000000018
100
AcDbArc
 50
313.0000000000023
 51
0.0
  0
LINE
  5
2A4
330
37
100
AcDbEntity
  8
Sichtbar (ISO)
100
AcDbLine
 10
199.3909889817464
 20
1402.599663258271
 30
0.0
 11
199.3909889817461
 21
801.6411914802484
 31
0.0
  0
LINE
  5
2A5
330
37
100
AcDbEntity
  8
Sichtbar (ISO)
100
AcDbLine
 10
199.3909889817464
 20
1402.599663258271
 30
0.0
 11
201.3909448320015
 21
1404.612952239807
 31
0.0
  0
LINE
  5
2A6
330
37
100
AcDbEntity
  8
Sichtbar (ISO)
100
AcDbLine
 10
199.3909889817461
 20
801.6411914802484
 30
0.0
 11
201.3909448320013
 21
799.6279024987122
 31
0.0
  0
LINE
  5
2A7
330
37
100
AcDbEntity
  8
Sichtbar (ISO)
100
AcDbLine
 10
707.2142961102964
 20
796.0588391545582
 30
0.0
 11
747.1353506112531
 21
796.0588391545582
 31
0.0
  0
LINE
  5
2A8
330
37
100
AcDbEntity
  8
Sichtbar (ISO)
100
AcDbLine
 10
707.2142961102964
 20
795.0708968959452
 30
0.0
 11
747.1353506112531
 21
795.0708968959452
 31
0.0
  0
LINE
  5
2A9
330
37
100
AcDbEntity
  8
Sichtbar (ISO)
100
AcDbLine
 10
707.2142961102963
 20
796.0588391545582
 30
0.0
 11
704.1034958245679
 21
800.5015223819944
 31
0.0
  0
LINE
  5
2AA
330
37
100
AcDbEntity
  8
Sichtbar (ISO)
100
AcDbLine
 10
747.1353506112531
 20
796.0588391545582
 30
0.0
 11
750.2461508969818
 21
800.5015223819944
 31
0.0
  0
LINE
  5
2AB
330
37
100
AcDbEntity
  8
Sichtbar (ISO)
100
AcDbLine
 10
747.1353506112531
 20
796.0588391545582
 30
0.0
 11
747.1353506112531
 21
795.0708968959452
 31
0.0
  0
LINE
  5
2AC
330
37
100
AcDbEntity
  8
Sichtbar (ISO)
100
AcDbLine
 10
707.2142961102963
 20
796.0588391545582
 30
0.0
 11
707.2142961102963
 21
795.0708968959452
 31
0.0
  0
CIRCLE
  5
2AD
330
37
100
AcDbEntity
  8
Sichtbar (ISO)
100
AcDbCircle
 10
727.1748233607633
 20
1102.12042736926
 30
0.0
 40
302.5000000000001
  0
ARC
  5
2AE
330
37
100
AcDbEntity
  8
Sichtbar (ISO)
100
AcDbCircle
 10
727.1748233607127
 20
1102.120427369241
 30
0.0
 40
4.499999999980822
100
AcDbArc
 50
251.5928976772168
 51
252.2850355783319
  0
ARC
  5
2AF
330
37
100
AcDbEntity
  8
Sichtbar (ISO)
100
AcDbCircle
 10
727.1748233607195
 20
1102.120427369261
 30
0.0
 40
4.500000000001058
100
AcDbArc
 50
221.5928976772163
 51
222.2850355783262
  0
ARC
  5
2B0
330
37
100
AcDbEntity
  8
Sichtbar (ISO)
100
AcDbCircle
 10
727.1748233607316
 20
1102.120427369262
 30
0.0
 40
4.5000000000132
100
AcDbArc
 50
191.5928976772139
 51
192.2850355783223
  0
ARC
  5
2B1
330
37
100
AcDbEntity
  8
Sichtbar (ISO)
100
AcDbCircle
 10
727.1748233607228
 20
1102.120427369258
 30
0.0
 40
4.500000000004299
100
AcDbArc
 50
161.5928976772163
 51
162.2850355783232
  0
ARC
  5
2B2
330
37
100
AcDbEntity
  8
Sichtbar (ISO)
100
AcDbCircle
 10
727.1748233607199
 20
1102.120427369259
 30
0.0
 40
4.500000000001671
100
AcDbArc
 50
131.5928976772183
 51
132.2850355783273
  0
ARC
  5
2B3
330
37
100
AcDbEntity
  8
Sichtbar (ISO)
100
AcDbCircle
 10
727.174823360717
 20
1102.120427369268
 30
0.0
 40
4.499999999991826
100
AcDbArc
 50
101.5928976772191
 51
102.2850355783316
  0
ARC
  5
2B4
330
37
100
AcDbEntity
  8
Sichtbar (ISO)
100
AcDbCircle
 10
727.1748233607216
 20
1102.120427369269
 30
0.0
 40
4.499999999990648
100
AcDbArc
 50
71.59289767722531
 51
72.28503557833786
  0
ARC
  5
2B5
330
37
100
AcDbEntity
  8
Sichtbar (ISO)
100
AcDbCircle
 10
727.1748233607223
 20
1102.120427369263
 30
0.0
 40
4.499999999995146
100
AcDbArc
 50
41.59289767722934
 51
42.28503557834017
  0
ARC
  5
2B6
330
37
100
AcDbEntity
  8
Sichtbar (ISO)
100
AcDbCircle
 10
727.1748233607127
 20
1102.120427369259
 30
0.0
 40
4.500000000006074
100
AcDbArc
 50
11.59289767723239
 51
12.28503557833964
  0
ARC
  5
2B7
330
37
100
AcDbEntity
  8
Sichtbar (ISO)
100
AcDbCircle
 10
727.1748233607276
 20
1102.120427369257
 30
0.0
 40
4.499999999990671
100
AcDbArc
 50
341.5928976772303
 51
342.2850355783414
  0
ARC
  5
2B8
330
37
100
AcDbEntity
  8
Sichtbar (ISO)
100
AcDbCircle
 10
727.1748233607158
 20
1102.120427369263
 30
0.0
 40
4.500000000004321
100
AcDbArc
 50
311.5928976772291
 51
312.2850355783386
  0
ARC
  5
2B9
330
37
100
AcDbEntity
  8
Sichtbar (ISO)
100
AcDbCircle
 10
727.1748233607175
 20
1102.120427369265
 30
0.0
 40
4.500000000005824
100
AcDbArc
 50
281.5928976772251
 51
282.2850355783337
  0
CIRCLE
  5
2BA
330
37
100
AcDbEntity
  8
Sichtbar (ISO)
100
AcDbCircle
 10
727.1748233607187
 20
1102.12042736926
 30
0.0
 40
12.2751846088456
  0
LINE
  5
2BB
330
37
100
AcDbEntity
  8
Sichtbar (ISO)
100
AcDbLine
 10
715.6007049051205
 20
768.5866874768803
 30
0.0
 11
738.748941816429
 21
768.5866874768803
 31
0.0
  0
LINE
  5
2BC
330
37
100
AcDbEntity
  8
Sichtbar (ISO)
100
AcDbLine
 10
740.062307278456
 20
769.2703822617442
 30
0.0
 11
714.2873394430935
 21
769.2703822617442
 31
0.0
  0
LINE
  5
2BD
330
37
100
AcDbEntity
  8
Sichtbar (ISO)
100
AcDbLine
 10
738.7909887330034
 20
769.9321888072622
 30
0.0
 11
715.558657988546
 21
769.9321888072622
 31
0.0
  0
LINE
  5
2BE
330
37
100
AcDbEntity
  8
Sichtbar (ISO)
100
AcDbLine
 10
740.1043541950305
 20
770.6158835921262
 30
0.0
 11
714.2452925265192
 21
770.6158835921262
 31
0.0
  0
LINE
  5
2BF
330
37
100
AcDbEntity
  8
Sichtbar (ISO)
100
AcDbLine
 10
738.8330356495779
 20
771.2776901376441
 30
0.0
 11
715.5166110719716
 21
771.2776901376441
 31
0.0
  0
LINE
  5
2C0
330
37
100
AcDbEntity
  8
Sichtbar (ISO)
100
AcDbLine
 10
740.146401111605
 20
771.9613849225082
 30
0.0
 11
714.2032456099447
 21
771.9613849225082
 31
0.0
  0
LINE
  5
2C1
330
37
100
AcDbEntity
  8
Sichtbar (ISO)
100
AcDbLine
 10
738.8750825661523
 20
772.6231914680261
 30
0.0
 11
715.4745641553972
 21
772.6231914680261
 31
0.0
  0
LINE
  5
2C2
330
37
100
AcDbEntity
  8
Sichtbar (ISO)
100
AcDbLine
 10
740.1884480281794
 20
773.30688625289
 30
0.0
 11
714.1611986933702
 21
773.30688625289
 31
0.0
  0
LINE
  5
2C3
330
37
100
AcDbEntity
  8
Sichtbar (ISO)
100
AcDbLine
 10
738.9171294827267
 20
773.9686927984079
 30
0.0
 11
715.4325172388228
 21
773.9686927984079
 31
0.0
  0
LINE
  5
2C4
330
37
100
AcDbEntity
  8
Sichtbar (ISO)
100
AcDbLine
 10
740.2304949447538
 20
774.6523875832719
 30
0.0
 11
714.1191517767959
 21
774.6523875832719
 31
0.0
  0
LINE
  5
2C5
330
37
100
AcDbEntity
  8
Sichtbar (ISO)
100
AcDbLine
 10
738.9591763993012
 20
775.3141941287898
 30
0.0
 11
715.3904703222483
 21
775.3141941287898
 31
0.0
  0
LINE
  5
2C6
330
37
100
AcDbEntity
  8
Sichtbar (ISO)
100
AcDbLine
 10
740.2725418613282
 20
775.9978889136537
 30
0.0
 11
714.0771048602214
 21
775.9978889136537
 31
0.0
  0
LINE
  5
2C7
330
37
100
AcDbEntity
  8
Sichtbar (ISO)
100
AcDbLine
 10
739.0012233158756
 20
776.6596954591719
 30
0.0
 11
715.3484234056739
 21
776.6596954591719
 31
0.0
  0
LINE
  5
2C8
330
37
100
AcDbEntity
  8
Sichtbar (ISO)
100
AcDbLine
 10
740.3145887779027
 20
777.3433902440357
 30
0.0
 11
714.035057943647
 21
777.3433902440357
 31
0.0
  0
LINE
  5
2C9
330
37
100
AcDbEntity
  8
Sichtbar (ISO)
100
AcDbLine
 10
739.04327023245
 20
778.0051967895537
 30
0.0
 11
715.3063764890995
 21
778.0051967895537
 31
0.0
  0
LINE
  5
2CA
330
37
100
AcDbEntity
  8
Sichtbar (ISO)
100
AcDbLine
 10
740.3566356944771
 20
778.6888915744176
 30
0.0
 11
713.9930110270725
 21
778.6888915744176
 31
0.0
  0
LINE
  5
2CB
330
37
100
AcDbEntity
  8
Sichtbar (ISO)
100
AcDbLine
 10
739.0853171490245
 20
779.3506981199356
 30
0.0
 11
715.264329572525
 21
779.3506981199356
 31
0.0
  0
LINE
  5
2CC
330
37
100
AcDbEntity
  8
Sichtbar (ISO)
100
AcDbLine
 10
740.3986826110515
 20
780.0343929047995
 30
0.0
 11
713.9509641104981
 21
780.0343929047995
 31
0.0
  0
LINE
  5
2CD
330
37
100
AcDbEntity
  8
Sichtbar (ISO)
100
AcDbLine
 10
739.1273640655989
 20
780.6961994503175
 30
0.0
 11
715.2222826559506
 21
780.6961994503175
 31
0.0
  0
LINE
  5
2CE
330
37
100
AcDbEntity
  8
Sichtbar (ISO)
100
AcDbLine
 10
740.440729527626
 20
781.3798942351815
 30
0.0
 11
713.9089171939237
 21
781.3798942351815
 31
0.0
  0
LINE
  5
2CF
330
37
100
AcDbEntity
  8
Sichtbar (ISO)
100
AcDbLine
 10
715.1802357393761
 20
782.0417007806995
 30
0.0
 11
739.1694109821734
 21
782.0417007806995
 31
0.0
  0
LINE
  5
2D0
330
37
100
AcDbEntity
  8
Sichtbar (ISO)
100
AcDbLine
 10
740.4827764442004
 20
782.7253955655633
 30
0.0
 11
713.8668702773492
 21
782.7253955655633
 31
0.0
  0
LINE
  5
2D1
330
37
100
AcDbEntity
  8
Sichtbar (ISO)
100
AcDbLine
 10
713.8248233607747
 20
784.0708968959452
 30
0.0
 11
740.5248233607748
 21
784.0708968959452
 31
0.0
  0
LINE
  5
2D2
330
37
100
AcDbEntity
  8
Sichtbar (ISO)
100
AcDbLine
 10
715.1381888228018
 20
783.3872021110813
 30
0.0
 11
739.2114578987477
 21
783.3872021110813
 31
0.0
  0
LINE
  5
2D3
330
37
100
AcDbEntity
  8
Sichtbar (ISO)
100
AcDbLine
 10
715.0750083272837
 20
768.3130271598708
 30
0.0
 11
739.2746383942657
 21
768.3130271598708
 31
0.0
  0
LINE
  5
2D4
330
37
100
AcDbEntity
  8
Sichtbar (ISO)
100
AcDbLine
 10
715.6007049051204
 20
768.5866874768803
 30
0.0
 11
714.2873394430935
 21
769.2703822617442
 31
0.0
  0
LINE
  5
2D5
330
37
100
AcDbEntity
  8
Sichtbar (ISO)
100
AcDbLine
 10
738.7489418164291
 20
768.5866874768803
 30
0.0
 11
740.062307278456
 21
769.2703822617442
 31
0.0
  0
LINE
  5
2D6
330
37
100
AcDbEntity
  8
Sichtbar (ISO)
100
AcDbLine
 10
738.7909887330034
 20
769.9321888072622
 30
0.0
 11
740.062307278456
 21
769.2703822617442
 31
0.0
  0
LINE
  5
2D7
330
37
100
AcDbEntity
  8
Sichtbar (ISO)
100
AcDbLine
 10
715.558657988546
 20
769.9321888072622
 30
0.0
 11
714.2873394430935
 21
769.2703822617442
 31
0.0
  0
LINE
  5
2D8
330
37
100
AcDbEntity
  8
Sichtbar (ISO)
100
AcDbLine
 10
715.558657988546
 20
769.9321888072622
 30
0.0
 11
714.2452925265192
 21
770.6158835921261
 31
0.0
  0
LINE
  5
2D9
330
37
100
AcDbEntity
  8
Sichtbar (ISO)
100
AcDbLine
 10
738.7909887330034
 20
769.9321888072622
 30
0.0
 11
740.1043541950305
 21
770.6158835921261
 31
0.0
  0
LINE
  5
2DA
330
37
100
AcDbEntity
  8
Sichtbar (ISO)
100
AcDbLine
 10
738.8330356495779
 20
771.2776901376441
 30
0.0
 11
740.1043541950305
 21
770.6158835921261
 31
0.0
  0
LINE
  5
2DB
330
37
100
AcDbEntity
  8
Sichtbar (ISO)
100
AcDbLine
 10
715.5166110719716
 20
771.2776901376441
 30
0.0
 11
714.2452925265192
 21
770.6158835921261
 31
0.0
  0
LINE
  5
2DC
330
37
100
AcDbEntity
  8
Sichtbar (ISO)
100
AcDbLine
 10
715.5166110719716
 20
771.2776901376441
 30
0.0
 11
714.2032456099447
 21
771.961384922508
 31
0.0
  0
LINE
  5
2DD
330
37
100
AcDbEntity
  8
Sichtbar (ISO)
100
AcDbLine
 10
738.8330356495779
 20
771.2776901376441
 30
0.0
 11
740.146401111605
 21
771.961384922508
 31
0.0
  0
LINE
  5
2DE
330
37
100
AcDbEntity
  8
Sichtbar (ISO)
100
AcDbLine
 10
738.8750825661523
 20
772.6231914680261
 30
0.0
 11
740.1464011116048
 21
771.961384922508
 31
0.0
  0
LINE
  5
2DF
330
37
100
AcDbEntity
  8
Sichtbar (ISO)
100
AcDbLine
 10
715.4745641553972
 20
772.6231914680261
 30
0.0
 11
714.2032456099447
 21
771.961384922508
 31
0.0
  0
LINE
  5
2E0
330
37
100
AcDbEntity
  8
Sichtbar (ISO)
100
AcDbLine
 10
715.4745641553971
 20
772.6231914680261
 30
0.0
 11
714.1611986933702
 21
773.30688625289
 31
0.0
  0
LINE
  5
2E1
330
37
100
AcDbEntity
  8
Sichtbar (ISO)
100
AcDbLine
 10
738.8750825661523
 20
772.6231914680261
 30
0.0
 11
740.1884480281794
 21
773.30688625289
 31
0.0
  0
LINE
  5
2E2
330
37
100
AcDbEntity
  8
Sichtbar (ISO)
100
AcDbLine
 10
738.9171294827268
 20
773.9686927984079
 30
0.0
 11
740.1884480281794
 21
773.30688625289
 31
0.0
  0
LINE
  5
2E3
330
37
100
AcDbEntity
  8
Sichtbar (ISO)
100
AcDbLine
 10
715.4325172388227
 20
773.9686927984079
 30
0.0
 11
714.1611986933702
 21
773.30688625289
 31
0.0
  0
LINE
  5
2E4
330
37
100
AcDbEntity
  8
Sichtbar (ISO)
100
AcDbLine
 10
715.4325172388228
 20
773.968692798408
 30
0.0
 11
714.1191517767959
 21
774.6523875832719
 31
0.0
  0
LINE
  5
2E5
330
37
100
AcDbEntity
  8
Sichtbar (ISO)
100
AcDbLine
 10
738.9171294827267
 20
773.968692798408
 30
0.0
 11
740.2304949447538
 21
774.6523875832719
 31
0.0
  0
LINE
  5
2E6
330
37
100
AcDbEntity
  8
Sichtbar (ISO)
100
AcDbLine
 10
738.9591763993012
 20
775.3141941287898
 30
0.0
 11
740.2304949447538
 21
774.6523875832719
 31
0.0
  0
LINE
  5
2E7
330
37
100
AcDbEntity
  8
Sichtbar (ISO)
100
AcDbLine
 10
715.3904703222483
 20
775.3141941287898
 30
0.0
 11
714.1191517767959
 21
774.6523875832719
 31
0.0
  0
LINE
  5
2E8
330
37
100
AcDbEntity
  8
Sichtbar (ISO)
100
AcDbLine
 10
715.3904703222483
 20
775.3141941287899
 30
0.0
 11
714.0771048602214
 21
775.9978889136537
 31
0.0
  0
LINE
  5
2E9
330
37
100
AcDbEntity
  8
Sichtbar (ISO)
100
AcDbLine
 10
738.9591763993012
 20
775.3141941287899
 30
0.0
 11
740.2725418613282
 21
775.9978889136537
 31
0.0
  0
LINE
  5
2EA
330
37
100
AcDbEntity
  8
Sichtbar (ISO)
100
AcDbLine
 10
739.0012233158756
 20
776.6596954591719
 30
0.0
 11
740.2725418613282
 21
775.9978889136537
 31
0.0
  0
LINE
  5
2EB
330
37
100
AcDbEntity
  8
Sichtbar (ISO)
100
AcDbLine
 10
715.3484234056739
 20
776.6596954591719
 30
0.0
 11
714.0771048602214
 21
775.9978889136537
 31
0.0
  0
LINE
  5
2EC
330
37
100
AcDbEntity
  8
Sichtbar (ISO)
100
AcDbLine
 10
715.3484234056739
 20
776.6596954591719
 30
0.0
 11
714.035057943647
 21
777.3433902440357
 31
0.0
  0
LINE
  5
2ED
330
37
100
AcDbEntity
  8
Sichtbar (ISO)
100
AcDbLine
 10
739.0012233158756
 20
776.6596954591719
 30
0.0
 11
740.3145887779027
 21
777.3433902440357
 31
0.0
  0
LINE
  5
2EE
330
37
100
AcDbEntity
  8
Sichtbar (ISO)
100
AcDbLine
 10
739.04327023245
 20
778.0051967895537
 30
0.0
 11
740.3145887779027
 21
777.3433902440357
 31
0.0
  0
LINE
  5
2EF
330
37
100
AcDbEntity
  8
Sichtbar (ISO)
100
AcDbLine
 10
715.3063764890995
 20
778.0051967895537
 30
0.0
 11
714.035057943647
 21
777.3433902440357
 31
0.0
  0
LINE
  5
2F0
330
37
100
AcDbEntity
  8
Sichtbar (ISO)
100
AcDbLine
 10
715.3063764890995
 20
778.0051967895537
 30
0.0
 11
713.9930110270725
 21
778.6888915744175
 31
0.0
  0
LINE
  5
2F1
330
37
100
AcDbEntity
  8
Sichtbar (ISO)
100
AcDbLine
 10
739.04327023245
 20
778.0051967895537
 30
0.0
 11
740.3566356944771
 21
778.6888915744175
 31
0.0
  0
LINE
  5
2F2
330
37
100
AcDbEntity
  8
Sichtbar (ISO)
100
AcDbLine
 10
739.0853171490245
 20
779.3506981199356
 30
0.0
 11
740.3566356944771
 21
778.6888915744175
 31
0.0
  0
LINE
  5
2F3
330
37
100
AcDbEntity
  8
Sichtbar (ISO)
100
AcDbLine
 10
715.264329572525
 20
779.3506981199356
 30
0.0
 11
713.9930110270725
 21
778.6888915744175
 31
0.0
  0
LINE
  5
2F4
330
37
100
AcDbEntity
  8
Sichtbar (ISO)
100
AcDbLine
 10
715.264329572525
 20
779.3506981199356
 30
0.0
 11
713.9509641104981
 21
780.0343929047994
 31
0.0
  0
LINE
  5
2F5
330
37
100
AcDbEntity
  8
Sichtbar (ISO)
100
AcDbLine
 10
739.0853171490245
 20
779.3506981199356
 30
0.0
 11
740.3986826110515
 21
780.0343929047994
 31
0.0
  0
LINE
  5
2F6
330
37
100
AcDbEntity
  8
Sichtbar (ISO)
100
AcDbLine
 10
739.1273640655989
 20
780.6961994503175
 30
0.0
 11
740.3986826110515
 21
780.0343929047994
 31
0.0
  0
LINE
  5
2F7
330
37
100
AcDbEntity
  8
Sichtbar (ISO)
100
AcDbLine
 10
715.2222826559506
 20
780.6961994503175
 30
0.0
 11
713.9509641104981
 21
780.0343929047994
 31
0.0
  0
LINE
  5
2F8
330
37
100
AcDbEntity
  8
Sichtbar (ISO)
100
AcDbLine
 10
715.2222826559506
 20
780.6961994503175
 30
0.0
 11
713.9089171939237
 21
781.3798942351813
 31
0.0
  0
LINE
  5
2F9
330
37
100
AcDbEntity
  8
Sichtbar (ISO)
100
AcDbLine
 10
739.1273640655989
 20
780.6961994503175
 30
0.0
 11
740.440729527626
 21
781.3798942351813
 31
0.0
  0
LINE
  5
2FA
330
37
100
AcDbEntity
  8
Sichtbar (ISO)
100
AcDbLine
 10
739.1694109821734
 20
782.0417007806995
 30
0.0
 11
740.4407295276258
 21
781.3798942351815
 31
0.0
  0
LINE
  5
2FB
330
37
100
AcDbEntity
  8
Sichtbar (ISO)
100
AcDbLine
 10
715.1802357393761
 20
782.0417007806995
 30
0.0
 11
713.9089171939237
 21
781.3798942351815
 31
0.0
  0
LINE
  5
2FC
330
37
100
AcDbEntity
  8
Sichtbar (ISO)
100
AcDbLine
 10
715.1802357393761
 20
782.0417007806995
 30
0.0
 11
713.8668702773492
 21
782.7253955655633
 31
0.0
  0
LINE
  5
2FD
330
37
100
AcDbEntity
  8
Sichtbar (ISO)
100
AcDbLine
 10
739.1694109821734
 20
782.0417007806995
 30
0.0
 11
740.4827764442004
 21
782.7253955655633
 31
0.0
  0
LINE
  5
2FE
330
37
100
AcDbEntity
  8
Sichtbar (ISO)
100
AcDbLine
 10
715.1381888228018
 20
783.3872021110813
 30
0.0
 11
713.8248233607747
 21
784.0708968959452
 31
0.0
  0
LINE
  5
2FF
330
37
100
AcDbEntity
  8
Sichtbar (ISO)
100
AcDbLine
 10
739.2114578987477
 20
783.3872021110813
 30
0.0
 11
740.5248233607748
 21
784.0708968959452
 31
0.0
  0
LINE
  5
300
330
37
100
AcDbEntity
  8
Sichtbar (ISO)
100
AcDbLine
 10
739.2114578987477
 20
783.3872021110813
 30
0.0
 11
740.4827764442004
 21
782.7253955655633
 31
0.0
  0
LINE
  5
301
330
37
100
AcDbEntity
  8
Sichtbar (ISO)
100
AcDbLine
 10
715.1381888228018
 20
783.3872021110813
 30
0.0
 11
713.8668702773492
 21
782.7253955655633
 31
0.0
  0
LINE
  5
302
330
37
100
AcDbEntity
  8
Sichtbar (ISO)
100
AcDbLine
 10
738.748941816429
 20
768.5866874768803
 30
0.0
 11
739.2746383942659
 21
768.3130271598708
 31
0.0
  0
LINE
  5
303
330
37
100
AcDbEntity
  8
Sichtbar (ISO)
100
AcDbLine
 10
715.6007049051205
 20
768.5866874768803
 30
0.0
 11
715.0750083272837
 21
768.3130271598708
 31
0.0
  0
LINE
  5
304
330
37
100
AcDbEntity
  8
Sichtbar (ISO)
100
AcDbLine
 10
739.0248233607747
 20
768.0708968959452
 30
0.0
 11
715.3248233607747
 21
768.0708968959452
 31
0.0
  0
LINE
  5
305
330
37
100
AcDbEntity
  8
Sichtbar (ISO)
100
AcDbLine
 10
715.3248233607747
 20
768.0708968959452
 30
0.0
 11
715.0750083272837
 21
768.3130271598708
 31
0.0
  0
LINE
  5
306
330
37
100
AcDbEntity
  8
Sichtbar (ISO)
100
AcDbLine
 10
739.0248233607747
 20
768.0708968959452
 30
0.0
 11
739.2746383942659
 21
768.3130271598708
 31
0.0
  0
LINE
  5
307
330
37
100
AcDbEntity
  8
Sichtbar (ISO)
100
AcDbLine
 10
713.8248233607747
 20
793.1708968959452
 30
0.0
 11
740.5248233607748
 21
793.1708968959452
 31
0.0
  0
LINE
  5
308
330
37
100
AcDbEntity
  8
Sichtbar (ISO)
100
AcDbLine
 10
740.5248233607748
 20
793.1708968959452
 30
0.0
 11
740.5248233607748
 21
784.0708968959452
 31
0.0
  0
LINE
  5
309
330
37
100
AcDbEntity
  8
Sichtbar (ISO)
100
AcDbLine
 10
713.8248233607747
 20
793.1708968959452
 30
0.0
 11
713.8248233607747
 21
784.0708968959452
 31
0.0
  0
ARC
  5
30A
330
37
100
AcDbEntity
  8
Sichtbar (ISO)
100
AcDbCircle
 10
712.6248233607748
 20
795.0148057874038
 30
0.0
 40
2.200000000000003
100
AcDbArc
 50
303.0557311508518
 51
1.46096912406441
  0
ARC
  5
30B
330
37
100
AcDbEntity
  8
Sichtbar (ISO)
100
AcDbCircle
 10
741.7248233607748
 20
795.0148057874038
 30
0.0
 40
2.200000000000004
100
AcDbArc
 50
178.5390308759358
 51
236.9442688491469
  0
ARC
  5
30C
330
37
100
AcDbEntity
  8
Sichtbar (ISO)
100
AcDbCircle
 10
727.174823360715
 20
1102.12042736926
 30
0.0
 40
5.000000000000094
100
AcDbArc
 50
98.49947877455951
 51
105.3784544809939
  0
POLYLINE
  5
30D
330
37
100
AcDbEntity
  8
Sichtbar (ISO)
100
AcDb2dPolyline
 66
     1
 10
0.0
 20
0.0
 30
0.0
 70
   128
  0
VERTEX
  5
30E
330
30D
100
AcDbEntity
  8
Sichtbar (ISO)
100
AcDbVertex
100
AcDb2dVertex
 10
726.2173349086362
 20
1106.517382726622
 30
0.0
  0
VERTEX
  5
30F
330
30D
100
AcDbEntity
  8
Sichtbar (ISO)
100
AcDbVertex
100
AcDb2dVertex
 10
726.1656767158718
 20
1106.521425551485
 30
0.0
  0
VERTEX
  5
311
330
30D
100
AcDbEntity
  8
Sichtbar (ISO)
100
AcDbVertex
100
AcDb2dVertex
 10
726.1308795257932
 20
1106.531776950958
 30
0.0
  0
VERTEX
  5
312
330
30D
100
AcDbEntity
  8
Sichtbar (ISO)
100
AcDbVertex
100
AcDb2dVertex
 10
726.1036819563432
 20
1106.54409019176
 30
0.0
  0
VERTEX
  5
313
330
30D
100
AcDbEntity
  8
Sichtbar (ISO)
100
AcDbVertex
100
AcDb2dVertex
 10
726.081443079054
 20
1106.556969635286
 30
0.0
  0
VERTEX
  5
314
330
30D
100
AcDbEntity
  8
Sichtbar (ISO)
100
AcDbVertex
100
AcDb2dVertex
 10
726.0598765546009
 20
1106.571978030149
 30
0.0
  0
VERTEX
  5
315
330
30D
100
AcDbEntity
  8
Sichtbar (ISO)
100
AcDbVertex
100
AcDb2dVertex
 10
726.0390416982312
 20
1106.588922272596
 30
0.0
  0
VERTEX
  5
316
330
30D
100
AcDbEntity
  8
Sichtbar (ISO)
100
AcDbVertex
100
AcDb2dVertex
 10
726.0190167349555
 20
1106.607599806245
 30
0.0
  0
VERTEX
  5
317
330
30D
100
AcDbEntity
  8
Sichtbar (ISO)
100
AcDbVertex
100
AcDb2dVertex
 10
725.9998795347475
 20
1106.627807355074
 30
0.0
  0
VERTEX
  5
318
330
30D
100
AcDbEntity
  8
Sichtbar (ISO)
100
AcDbVertex
100
AcDb2dVertex
 10
725.9817088093155
 20
1106.649341598048
 30
0.0
  0
VERTEX
  5
319
330
30D
100
AcDbEntity
  8
Sichtbar (ISO)
100
AcDbVertex
100
AcDb2dVertex
 10
725.9645823628027
 20
1106.672000001289
 30
0.0
  0
VERTEX
  5
31A
330
30D
100
AcDbEntity
  8
Sichtbar (ISO)
100
AcDbVertex
100
AcDb2dVertex
 10
725.9485979680325
 20
1106.695539077397
 30
0.0
  0
VERTEX
  5
31B
330
30D
100
AcDbEntity
  8
Sichtbar (ISO)
100
AcDbVertex
100
AcDb2dVertex
 10
725.9340034465053
 20
1106.71931088507
 30
0.0
  0
VERTEX
  5
31C
330
30D
100
AcDbEntity
  8
Sichtbar (ISO)
100
AcDbVertex
100
AcDb2dVertex
 10
725.9208032009887
 20
1106.74299325445
 30
0.0
  0
VERTEX
  5
31D
330
30D
100
AcDbEntity
  8
Sichtbar (ISO)
100
AcDbVertex
100
AcDb2dVertex
 10
725.9089317399292
 20
1106.766389520739
 30
0.0
  0
VERTEX
  5
31E
330
30D
100
AcDbEntity
  8
Sichtbar (ISO)
100
AcDbVertex
100
AcDb2dVertex
 10
725.8983230625694
 20
1106.789303362922
 30
0.0
  0
VERTEX
  5
31F
330
30D
100
AcDbEntity
  8
Sichtbar (ISO)
100
AcDbVertex
100
AcDb2dVertex
 10
725.888911899042
 20
1106.811538315384
 30
0.0
  0
VERTEX
  5
320
330
30D
100
AcDbEntity
  8
Sichtbar (ISO)
100
AcDbVertex
100
AcDb2dVertex
 10
725.8806324477703
 20
1106.832897835422
 30
0.0
  0
VERTEX
  5
321
330
30D
100
AcDbEntity
  8
Sichtbar (ISO)
100
AcDbVertex
100
AcDb2dVertex
 10
725.8734192397066
 20
1106.853185679106
 30
0.0
  0
VERTEX
  5
322
330
30D
100
AcDbEntity
  8
Sichtbar (ISO)
100
AcDbVertex
100
AcDb2dVertex
 10
725.8672066724544
 20
1106.872205082048
 30
0.0
  0
VERTEX
  5
323
330
30D
100
AcDbEntity
  8
Sichtbar (ISO)
100
AcDbVertex
100
AcDb2dVertex
 10
725.8619289669427
 20
1106.889759922416
 30
0.0
  0
VERTEX
  5
324
330
30D
100
AcDbEntity
  8
Sichtbar (ISO)
100
AcDbVertex
100
AcDb2dVertex
 10
725.8575206316178
 20
1106.90565353541
 30
0.0
  0
VERTEX
  5
325
330
30D
100
AcDbEntity
  8
Sichtbar (ISO)
100
AcDbVertex
100
AcDb2dVertex
 10
725.8539158874088
 20
1106.919689799198
 30
0.0
  0
VERTEX
  5
326
330
30D
100
AcDbEntity
  8
Sichtbar (ISO)
100
AcDbVertex
100
AcDb2dVertex
 10
725.8510494419428
 20
1106.931671827295
 30
0.0
  0
VERTEX
  5
327
330
30D
100
AcDbEntity
  8
Sichtbar (ISO)
100
AcDbVertex
100
AcDb2dVertex
 10
725.8488555161488
 20
1106.941403497866
 30
0.0
  0
SEQEND
  5
310
330
30D
100
AcDbEntity
  8
Sichtbar (ISO)
  0
POLYLINE
  5
328
330
37
100
AcDbEntity
  8
Sichtbar (ISO)
100
AcDb2dPolyline
 66
     1
 10
0.0
 20
0.0
 30
0.0
 70
   128
  0
VERTEX
  5
329
330
328
100
AcDbEntity
  8
Sichtbar (ISO)
100
AcDbVertex
100
AcDb2dVertex
 10
726.2705191047221
 20
1106.528628212342
 30
0.0
  0
VERTEX
  5
32A
330
328
100
AcDbEntity
  8
Sichtbar (ISO)
100
AcDbVertex
100
AcDb2dVertex
 10
726.2687333057519
 20
1106.5279688363
 30
0.0
  0
VERTEX
  5
32C
330
328
100
AcDbEntity
  8
Sichtbar (ISO)
100
AcDbVertex
100
AcDb2dVertex
 10
726.2668691720403
 20
1106.527302780965
 30
0.0
  0
VERTEX
  5
32D
330
328
100
AcDbEntity
  8
Sichtbar (ISO)
100
AcDbVertex
100
AcDb2dVertex
 10
726.2649269719746
 20
1106.526633092
 30
0.0
  0
VERTEX
  5
32E
330
328
100
AcDbEntity
  8
Sichtbar (ISO)
100
AcDbVertex
100
AcDb2dVertex
 10
726.2629081257006
 20
1106.525962647953
 30
0.0
  0
VERTEX
  5
32F
330
328
100
AcDbEntity
  8
Sichtbar (ISO)
100
AcDbVertex
100
AcDb2dVertex
 10
726.2608130124487
 20
1106.525294594078
 30
0.0
  0
VERTEX
  5
330
330
328
100
AcDbEntity
  8
Sichtbar (ISO)
100
AcDbVertex
100
AcDb2dVertex
 10
726.2586426314973
 20
1106.524631831429
 30
0.0
  0
VERTEX
  5
331
330
328
100
AcDbEntity
  8
Sichtbar (ISO)
100
AcDbVertex
100
AcDb2dVertex
 10
726.2563976721011
 20
1106.523977383162
 30
0.0
  0
VERTEX
  5
332
330
328
100
AcDbEntity
  8
Sichtbar (ISO)
100
AcDbVertex
100
AcDb2dVertex
 10
726.2540836314151
 20
1106.523335387052
 30
0.0
  0
VERTEX
  5
333
330
328
100
AcDbEntity
  8
Sichtbar (ISO)
100
AcDbVertex
100
AcDb2dVertex
 10
726.251720896177
 20
1106.522714143972
 30
0.0
  0
VERTEX
  5
334
330
328
100
AcDbEntity
  8
Sichtbar (ISO)
100
AcDbVertex
100
AcDb2dVertex
 10
726.2493133892287
 20
1106.522115976567
 30
0.0
  0
VERTEX
  5
335
330
328
100
AcDbEntity
  8
Sichtbar (ISO)
100
AcDbVertex
100
AcDb2dVertex
 10
726.2468615331255
 20
1106.521542867078
 30
0.0
  0
VERTEX
  5
336
330
328
100
AcDbEntity
  8
Sichtbar (ISO)
100
AcDbVertex
100
AcDb2dVertex
 10
726.2443663704701
 20
1106.520996553549
 30
0.0
  0
VERTEX
  5
337
330
328
100
AcDbEntity
  8
Sichtbar (ISO)
100
AcDbVertex
100
AcDb2dVertex
 10
726.2418529383567
 20
1106.520483505405
 30
0.0
  0
VERTEX
  5
338
330
328
100
AcDbEntity
  8
Sichtbar (ISO)
100
AcDbVertex
100
AcDb2dVertex
 10
726.2393698683219
 20
1106.520013362076
 30
0.0
  0
VERTEX
  5
339
330
328
100
AcDbEntity
  8
Sichtbar (ISO)
100
AcDbVertex
100
AcDb2dVertex
 10
726.2369202380972
 20
1106.519584481731
 30
0.0
  0
VERTEX
  5
33A
330
328
100
AcDbEntity
  8
Sichtbar (ISO)
100
AcDbVertex
100
AcDb2dVertex
 10
726.2345055752952
 20
1106.519195833018
 30
0.0
  0
VERTEX
  5
33B
330
328
100
AcDbEntity
  8
Sichtbar (ISO)
100
AcDbVertex
100
AcDb2dVertex
 10
726.2321297110449
 20
1106.518846050372
 30
0.0
  0
VERTEX
  5
33C
330
328
100
AcDbEntity
  8
Sichtbar (ISO)
100
AcDbVertex
100
AcDb2dVertex
 10
726.2298120952594
 20
1106.51853578197
 30
0.0
  0
VERTEX
  5
33D
330
328
100
AcDbEntity
  8
Sichtbar (ISO)
100
AcDbVertex
100
AcDb2dVertex
 10
726.2275592834513
 20
1106.518263305519
 30
0.0
  0
VERTEX
  5
33E
330
328
100
AcDbEntity
  8
Sichtbar (ISO)
100
AcDbVertex
100
AcDb2dVertex
 10
726.2253730457381
 20
1106.518026204974
 30
0.0
  0
VERTEX
  5
33F
330
328
100
AcDbEntity
  8
Sichtbar (ISO)
100
AcDbVertex
100
AcDb2dVertex
 10
726.2232557722845
 20
1106.517821820093
 30
0.0
  0
VERTEX
  5
340
330
328
100
AcDbEntity
  8
Sichtbar (ISO)
100
AcDbVertex
100
AcDb2dVertex
 10
726.221208945691
 20
1106.517648277793
 30
0.0
  0
VERTEX
  5
341
330
328
100
AcDbEntity
  8
Sichtbar (ISO)
100
AcDbVertex
100
AcDb2dVertex
 10
726.2192346235923
 20
1106.517502619061
 30
0.0
  0
VERTEX
  5
342
330
328
100
AcDbEntity
  8
Sichtbar (ISO)
100
AcDbVertex
100
AcDb2dVertex
 10
726.2173349086362
 20
1106.517382726622
 30
0.0
  0
SEQEND
  5
32B
330
328
100
AcDbEntity
  8
Sichtbar (ISO)
  0
POLYLINE
  5
343
330
37
100
AcDbEntity
  8
Sichtbar (ISO)
100
AcDb2dPolyline
 66
     1
 10
0.0
 20
0.0
 30
0.0
 70
   128
  0
VERTEX
  5
344
330
343
100
AcDbEntity
  8
Sichtbar (ISO)
100
AcDbVertex
100
AcDb2dVertex
 10
726.43582115101
 20
1107.065513468747
 30
0.0
  0
VERTEX
  5
345
330
343
100
AcDbEntity
  8
Sichtbar (ISO)
100
AcDbVertex
100
AcDb2dVertex
 10
726.4375754203747
 20
1107.056877579824
 30
0.0
  0
VERTEX
  5
347
330
343
100
AcDbEntity
  8
Sichtbar (ISO)
100
AcDbVertex
100
AcDb2dVertex
 10
726.4396643622618
 20
1107.046165355209
 30
0.0
  0
VERTEX
  5
348
330
343
100
AcDbEntity
  8
Sichtbar (ISO)
100
AcDbVertex
100
AcDb2dVertex
 10
726.4419499705091
 20
1107.033376999718
 30
0.0
  0
VERTEX
  5
349
330
343
100
AcDbEntity
  8
Sichtbar (ISO)
100
AcDbVertex
100
AcDb2dVertex
 10
726.4442950806885
 20
1107.018512673153
 30
0.0
  0
VERTEX
  5
34A
330
343
100
AcDbEntity
  8
Sichtbar (ISO)
100
AcDbVertex
100
AcDb2dVertex
 10
726.4465614874575
 20
1107.001572802018
 30
0.0
  0
VERTEX
  5
34B
330
343
100
AcDbEntity
  8
Sichtbar (ISO)
100
AcDbVertex
100
AcDb2dVertex
 10
726.4486120038817
 20
1106.982557125246
 30
0.0
  0
VERTEX
  5
34C
330
343
100
AcDbEntity
  8
Sichtbar (ISO)
100
AcDbVertex
100
AcDb2dVertex
 10
726.4503088454858
 20
1106.961466046836
 30
0.0
  0
VERTEX
  5
34D
330
343
100
AcDbEntity
  8
Sichtbar (ISO)
100
AcDbVertex
100
AcDb2dVertex
 10
726.4515144269746
 20
1106.938299749096
 30
0.0
  0
VERTEX
  5
34E
330
343
100
AcDbEntity
  8
Sichtbar (ISO)
100
AcDbVertex
100
AcDb2dVertex
 10
726.4520909638727
 20
1106.913058636022
 30
0.0
  0
VERTEX
  5
34F
330
343
100
AcDbEntity
  8
Sichtbar (ISO)
100
AcDbVertex
100
AcDb2dVertex
 10
726.4518043246614
 20
1106.886127705412
 30
0.0
  0
VERTEX
  5
350
330
343
100
AcDbEntity
  8
Sichtbar (ISO)
100
AcDbVertex
100
AcDb2dVertex
 10
726.4503691142112
 20
1106.85841321028
 30
0.0
  0
VERTEX
  5
351
330
343
100
AcDbEntity
  8
Sichtbar (ISO)
100
AcDbVertex
100
AcDb2dVertex
 10
726.4477248672096
 20
1106.830189353448
 30
0.0
  0
VERTEX
  5
352
330
343
100
AcDbEntity
  8
Sichtbar (ISO)
100
AcDbVertex
100
AcDb2dVertex
 10
726.443816572736
 20
1106.801709997705
 30
0.0
  0
VERTEX
  5
353
330
343
100
AcDbEntity
  8
Sichtbar (ISO)
100
AcDbVertex
100
AcDb2dVertex
 10
726.4385887990019
 20
1106.773229028346
 30
0.0
  0
VERTEX
  5
354
330
343
100
AcDbEntity
  8
Sichtbar (ISO)
100
AcDbVertex
100
AcDb2dVertex
 10
726.4319873768213
 20
1106.745000263145
 30
0.0
  0
VERTEX
  5
355
330
343
100
AcDbEntity
  8
Sichtbar (ISO)
100
AcDbVertex
100
AcDb2dVertex
 10
726.423957096093
 20
1106.717277786577
 30
0.0
  0
VERTEX
  5
356
330
343
100
AcDbEntity
  8
Sichtbar (ISO)
100
AcDbVertex
100
AcDb2dVertex
 10
726.4144430567396
 20
1106.69031556102
 30
0.0
  0
VERTEX
  5
357
330
343
100
AcDbEntity
  8
Sichtbar (ISO)
100
AcDbVertex
100
AcDb2dVertex
 10
726.4033902478402
 20
1106.664367449262
 30
0.0
  0
VERTEX
  5
358
330
343
100
AcDbEntity
  8
Sichtbar (ISO)
100
AcDbVertex
100
AcDb2dVertex
 10
726.3907437693175
 20
1106.639687413681
 30
0.0
  0
VERTEX
  5
359
330
343
100
AcDbEntity
  8
Sichtbar (ISO)
100
AcDbVertex
100
AcDb2dVertex
 10
726.3764490311179
 20
1106.616529294558
 30
0.0
  0
VERTEX
  5
35A
330
343
100
AcDbEntity
  8
Sichtbar (ISO)
100
AcDbVertex
100
AcDb2dVertex
 10
726.3604505131162
 20
1106.595147298465
 30
0.0
  0
VERTEX
  5
35B
330
343
100
AcDbEntity
  8
Sichtbar (ISO)
100
AcDbVertex
100
AcDb2dVertex
 10
726.3411268391908
 20
1106.57421166088
 30
0.0
  0
VERTEX
  5
35C
330
343
100
AcDbEntity
  8
Sichtbar (ISO)
100
AcDbVertex
100
AcDb2dVertex
 10
726.314117126239
 20
1106.551809460451
 30
0.0
  0
VERTEX
  5
35D
330
343
100
AcDbEntity
  8
Sichtbar (ISO)
100
AcDbVertex
100
AcDb2dVertex
 10
726.2705191047221
 20
1106.528628212342
 30
0.0
  0
SEQEND
  5
346
330
343
100
AcDbEntity
  8
Sichtbar (ISO)
  0
ARC
  5
35E
330
37
100
AcDbEntity
  8
Sichtbar (ISO)
100
AcDbCircle
 10
727.174823360715
 20
1102.120427369261
 30
0.0
 40
4.999999999999906
100
AcDbArc
 50
68.49947877455962
 51
75.37845448099405
  0
POLYLINE
  5
35F
330
37
100
AcDbEntity
  8
Sichtbar (ISO)
100
AcDb2dPolyline
 66
     1
 10
0.0
 20
0.0
 30
0.0
 70
   128
  0
VERTEX
  5
360
330
35F
100
AcDbEntity
  8
Sichtbar (ISO)
100
AcDbVertex
100
AcDb2dVertex
 10
728.5440918030208
 20
1106.407046642447
 30
0.0
  0
VERTEX
  5
361
330
35F
100
AcDbEntity
  8
Sichtbar (ISO)
100
AcDbVertex
100
AcDb2dVertex
 10
728.5013757613902
 20
1106.436376793028
 30
0.0
  0
VERTEX
  5
363
330
35F
100
AcDbEntity
  8
Sichtbar (ISO)
100
AcDbVertex
100
AcDb2dVertex
 10
728.4764162888866
 20
1106.462740317532
 30
0.0
  0
VERTEX
  5
364
330
35F
100
AcDbEntity
  8
Sichtbar (ISO)
100
AcDbVertex
100
AcDb2dVertex
 10
728.4590192671
 20
1106.487002391714
 30
0.0
  0
VERTEX
  5
365
330
35F
100
AcDbEntity
  8
Sichtbar (ISO)
100
AcDbVertex
100
AcDb2dVertex
 10
728.4461994128101
 20
1106.509275912247
 30
0.0
  0
VERTEX
  5
366
330
35F
100
AcDbEntity
  8
Sichtbar (ISO)
100
AcDbVertex
100
AcDb2dVertex
 10
728.4350263481642
 20
1106.533056479708
 30
0.0
  0
VERTEX
  5
367
330
35F
100
AcDbEntity
  8
Sichtbar (ISO)
100
AcDbVertex
100
AcDb2dVertex
 10
728.4254551061969
 20
1106.558148442079
 30
0.0
  0
VERTEX
  5
368
330
35F
100
AcDbEntity
  8
Sichtbar (ISO)
100
AcDbVertex
100
AcDb2dVertex
 10
728.4174515685228
 20
1106.584336046435
 30
0.0
  0
VERTEX
  5
369
330
35F
100
AcDbEntity
  8
Sichtbar (ISO)
100
AcDbVertex
100
AcDb2dVertex
 10
728.4109821051437
 20
1106.611404779946
 30
0.0
  0
VERTEX
  5
36A
330
35F
100
AcDbEntity
  8
Sichtbar (ISO)
100
AcDbVertex
100
AcDb2dVertex
 10
728.4060128418675
 20
1106.639139509735
 30
0.0
  0
VERTEX
  5
36B
330
35F
100
AcDbEntity
  8
Sichtbar (ISO)
100
AcDbVertex
100
AcDb2dVertex
 10
728.4025101261889
 20
1106.667325302105
 30
0.0
  0
VERTEX
  5
36C
330
35F
100
AcDbEntity
  8
Sichtbar (ISO)
100
AcDbVertex
100
AcDb2dVertex
 10
728.4004368790215
 20
1106.695702878141
 30
0.0
  0
VERTEX
  5
36D
330
35F
100
AcDbEntity
  8
Sichtbar (ISO)
100
AcDbVertex
100
AcDb2dVertex
 10
728.3996836692385
 20
1106.723587371102
 30
0.0
  0
VERTEX
  5
36E
330
35F
100
AcDbEntity
  8
Sichtbar (ISO)
100
AcDbVertex
100
AcDb2dVertex
 10
728.4000929811053
 20
1106.7506970307
 30
0.0
  0
VERTEX
  5
36F
330
35F
100
AcDbEntity
  8
Sichtbar (ISO)
100
AcDbVertex
100
AcDb2dVertex
 10
728.401510167319
 20
1106.776894512468
 30
0.0
  0
VERTEX
  5
370
330
35F
100
AcDbEntity
  8
Sichtbar (ISO)
100
AcDbVertex
100
AcDb2dVertex
 10
728.4037795396624
 20
1106.802042738636
 30
0.0
  0
VERTEX
  5
371
330
35F
100
AcDbEntity
  8
Sichtbar (ISO)
100
AcDbVertex
100
AcDb2dVertex
 10
728.4067468716998
 20
1106.826004342229
 30
0.0
  0
VERTEX
  5
372
330
35F
100
AcDbEntity
  8
Sichtbar (ISO)
100
AcDbVertex
100
AcDb2dVertex
 10
728.4102562535273
 20
1106.848642046298
 30
0.0
  0
VERTEX
  5
373
330
35F
100
AcDbEntity
  8
Sichtbar (ISO)
100
AcDbVertex
100
AcDb2dVertex
 10
728.4141534587092
 20
1106.869818483868
 30
0.0
  0
VERTEX
  5
374
330
35F
100
AcDbEntity
  8
Sichtbar (ISO)
100
AcDbVertex
100
AcDb2dVertex
 10
728.4182829757026
 20
1106.889395934617
 30
0.0
  0
VERTEX
  5
375
330
35F
100
AcDbEntity
  8
Sichtbar (ISO)
100
AcDbVertex
100
AcDb2dVertex
 10
728.4224897813501
 20
1106.907237918316
 30
0.0
  0
VERTEX
  5
376
330
35F
100
AcDbEntity
  8
Sichtbar (ISO)
100
AcDbVertex
100
AcDb2dVertex
 10
728.4266187624693
 20
1106.923206271268
 30
0.0
  0
VERTEX
  5
377
330
35F
100
AcDbEntity
  8
Sichtbar (ISO)
100
AcDbVertex
100
AcDb2dVertex
 10
728.4305150950833
 20
1106.93716429156
 30
0.0
  0
VERTEX
  5
378
330
35F
100
AcDbEntity
  8
Sichtbar (ISO)
100
AcDbVertex
100
AcDb2dVertex
 10
728.4340236885164
 20
1106.948974236362
 30
0.0
  0
VERTEX
  5
379
330
35F
100
AcDbEntity
  8
Sichtbar (ISO)
100
AcDbVertex
100
AcDb2dVertex
 10
728.4369896962853
 20
1106.958498982893
 30
0.0
  0
SEQEND
  5
362
330
35F
100
AcDbEntity
  8
Sichtbar (ISO)
  0
POLYLINE
  5
37A
330
37
100
AcDbEntity
  8
Sichtbar (ISO)
100
AcDb2dPolyline
 66
     1
 10
0.0
 20
0.0
 30
0.0
 70
   128
  0
VERTEX
  5
37B
330
37A
100
AcDbEntity
  8
Sichtbar (ISO)
100
AcDbVertex
100
AcDb2dVertex
 10
728.595773389123
 20
1106.390193354329
 30
0.0
  0
VERTEX
  5
37C
330
37A
100
AcDbEntity
  8
Sichtbar (ISO)
100
AcDbVertex
100
AcDb2dVertex
 10
728.5938971949287
 20
1106.390515272798
 30
0.0
  0
VERTEX
  5
37E
330
37A
100
AcDbEntity
  8
Sichtbar (ISO)
100
AcDbVertex
100
AcDb2dVertex
 10
728.5919497661591
 20
1106.390870545555
 30
0.0
  0
VERTEX
  5
37F
330
37A
100
AcDbEntity
  8
Sichtbar (ISO)
100
AcDbVertex
100
AcDb2dVertex
 10
728.5899329213207
 20
1106.391261607778
 30
0.0
  0
VERTEX
  5
380
330
37A
100
AcDbEntity
  8
Sichtbar (ISO)
100
AcDbVertex
100
AcDb2dVertex
 10
728.5878492981478
 20
1106.391690428765
 30
0.0
  0
VERTEX
  5
381
330
37A
100
AcDbEntity
  8
Sichtbar (ISO)
100
AcDbVertex
100
AcDb2dVertex
 10
728.5857007151467
 20
1106.392159443693
 30
0.0
  0
VERTEX
  5
382
330
37A
100
AcDbEntity
  8
Sichtbar (ISO)
100
AcDbVertex
100
AcDb2dVertex
 10
728.5834898100516
 20
1106.39267062186
 30
0.0
  0
VERTEX
  5
383
330
37A
100
AcDbEntity
  8
Sichtbar (ISO)
100
AcDbVertex
100
AcDb2dVertex
 10
728.5812184013689
 20
1106.393226398445
 30
0.0
  0
VERTEX
  5
384
330
37A
100
AcDbEntity
  8
Sichtbar (ISO)
100
AcDbVertex
100
AcDb2dVertex
 10
728.578893390082
 20
1106.393827565105
 30
0.0
  0
VERTEX
  5
385
330
37A
100
AcDbEntity
  8
Sichtbar (ISO)
100
AcDbVertex
100
AcDb2dVertex
 10
728.576536648341
 20
1106.394470736333
 30
0.0
  0
VERTEX
  5
386
330
37A
100
AcDbEntity
  8
Sichtbar (ISO)
100
AcDbVertex
100
AcDb2dVertex
 10
728.5741524298298
 20
1106.3951565288
 30
0.0
  0
VERTEX
  5
387
330
37A
100
AcDbEntity
  8
Sichtbar (ISO)
100
AcDbVertex
100
AcDb2dVertex
 10
728.5717424855358
 20
1106.395886115084
 30
0.0
  0
VERTEX
  5
388
330
37A
100
AcDbEntity
  8
Sichtbar (ISO)
100
AcDbVertex
100
AcDb2dVertex
 10
728.5693086660369
 20
1106.396660556917
 30
0.0
  0
VERTEX
  5
389
330
37A
100
AcDbEntity
  8
Sichtbar (ISO)
100
AcDbVertex
100
AcDb2dVertex
 10
728.5668755099124
 20
1106.397473055154
 30
0.0
  0
VERTEX
  5
38A
330
37A
100
AcDbEntity
  8
Sichtbar (ISO)
100
AcDbVertex
100
AcDb2dVertex
 10
728.5644897328516
 20
1106.398307288814
 30
0.0
  0
VERTEX
  5
38B
330
37A
100
AcDbEntity
  8
Sichtbar (ISO)
100
AcDbVertex
100
AcDb2dVertex
 10
728.5621539467064
 20
1106.399160796835
 30
0.0
  0
VERTEX
  5
38C
330
37A
100
AcDbEntity
  8
Sichtbar (ISO)
100
AcDbVertex
100
AcDb2dVertex
 10
728.5598684598124
 20
1106.400031452376
 30
0.0
  0
VERTEX
  5
38D
330
37A
100
AcDbEntity
  8
Sichtbar (ISO)
100
AcDbVertex
100
AcDb2dVertex
 10
728.5576360832019
 20
1106.400916572689
 30
0.0
  0
VERTEX
  5
38E
330
37A
100
AcDbEntity
  8
Sichtbar (ISO)
100
AcDbVertex
100
AcDb2dVertex
 10
728.5554738214822
 20
1106.401806595988
 30
0.0
  0
VERTEX
  5
38F
330
37A
100
AcDbEntity
  8
Sichtbar (ISO)
100
AcDbVertex
100
AcDb2dVertex
 10
728.5533864999962
 20
1106.402697043525
 30
0.0
  0
VERTEX
  5
390
330
37A
100
AcDbEntity
  8
Sichtbar (ISO)
100
AcDbVertex
100
AcDb2dVertex
 10
728.5513746808376
 20
1106.403584614194
 30
0.0
  0
VERTEX
  5
391
330
37A
100
AcDbEntity
  8
Sichtbar (ISO)
100
AcDbVertex
100
AcDb2dVertex
 10
728.5494388490164
 20
1106.4044665386
 30
0.0
  0
VERTEX
  5
392
330
37A
100
AcDbEntity
  8
Sichtbar (ISO)
100
AcDbVertex
100
AcDb2dVertex
 10
728.5475794670357
 20
1106.405339626478
 30
0.0
  0
VERTEX
  5
393
330
37A
100
AcDbEntity
  8
Sichtbar (ISO)
100
AcDbVertex
100
AcDb2dVertex
 10
728.5457969973995
 20
1106.406200687567
 30
0.0
  0
VERTEX
  5
394
330
37A
100
AcDbEntity
  8
Sichtbar (ISO)
100
AcDbVertex
100
AcDb2dVertex
 10
728.5440918030208
 20
1106.407046642447
 30
0.0
  0
SEQEND
  5
37D
330
37A
100
AcDbEntity
  8
Sichtbar (ISO)
  0
POLYLINE
  5
395
330
37
100
AcDbEntity
  8
Sichtbar (ISO)
100
AcDb2dPolyline
 66
     1
 10
0.0
 20
0.0
 30
0.0
 70
   128
  0
VERTEX
  5
396
330
395
100
AcDbEntity
  8
Sichtbar (ISO)
100
AcDbVertex
100
AcDb2dVertex
 10
729.0073718747732
 20
1106.772498682239
 30
0.0
  0
VERTEX
  5
397
330
395
100
AcDbEntity
  8
Sichtbar (ISO)
100
AcDbVertex
100
AcDb2dVertex
 10
729.0045731341963
 20
1106.76414246263
 30
0.0
  0
VERTEX
  5
399
330
395
100
AcDbEntity
  8
Sichtbar (ISO)
100
AcDbVertex
100
AcDb2dVertex
 10
729.001025965119
 20
1106.753821113661
 30
0.0
  0
VERTEX
  5
39A
330
395
100
AcDbEntity
  8
Sichtbar (ISO)
100
AcDbVertex
100
AcDb2dVertex
 10
728.9966114253147
 20
1106.741603251315
 30
0.0
  0
VERTEX
  5
39B
330
395
100
AcDbEntity
  8
Sichtbar (ISO)
100
AcDbVertex
100
AcDb2dVertex
 10
728.9912100746051
 20
1106.727558045787
 30
0.0
  0
VERTEX
  5
39C
330
395
100
AcDbEntity
  8
Sichtbar (ISO)
100
AcDbVertex
100
AcDb2dVertex
 10
728.9847028711737
 20
1106.711754223903
 30
0.0
  0
VERTEX
  5
39D
330
395
100
AcDbEntity
  8
Sichtbar (ISO)
100
AcDbVertex
100
AcDb2dVertex
 10
728.9769707957097
 20
1106.694260933353
 30
0.0
  0
VERTEX
  5
39E
330
395
100
AcDbEntity
  8
Sichtbar (ISO)
100
AcDbVertex
100
AcDb2dVertex
 10
728.9678949284924
 20
1106.675147210986
 30
0.0
  0
VERTEX
  5
39F
330
395
100
AcDbEntity
  8
Sichtbar (ISO)
100
AcDbVertex
100
AcDb2dVertex
 10
728.9573557072478
 20
1106.654481916975
 30
0.0
  0
VERTEX
  5
3A0
330
395
100
AcDbEntity
  8
Sichtbar (ISO)
100
AcDbVertex
100
AcDb2dVertex
 10
728.9452343118456
 20
1106.632333977325
 30
0.0
  0
VERTEX
  5
3A1
330
395
100
AcDbEntity
  8
Sichtbar (ISO)
100
AcDbVertex
100
AcDb2dVertex
 10
728.9315205666689
 20
1106.609154391129
 30
0.0
  0
VERTEX
  5
3A2
330
395
100
AcDbEntity
  8
Sichtbar (ISO)
100
AcDbVertex
100
AcDb2dVertex
 10
728.9164205453212
 20
1106.585870507051
 30
0.0
  0
VERTEX
  5
3A3
330
395
100
AcDbEntity
  8
Sichtbar (ISO)
100
AcDbVertex
100
AcDb2dVertex
 10
728.9000185287151
 20
1106.562750159198
 30
0.0
  0
VERTEX
  5
3A4
330
395
100
AcDbEntity
  8
Sichtbar (ISO)
100
AcDbVertex
100
AcDb2dVertex
 10
728.8823941063313
 20
1106.540040540055
 30
0.0
  0
VERTEX
  5
3A5
330
395
100
AcDbEntity
  8
Sichtbar (ISO)
100
AcDbVertex
100
AcDb2dVertex
 10
728.8636263471929
 20
1106.517988975456
 30
0.0
  0
VERTEX
  5
3A6
330
395
100
AcDbEntity
  8
Sichtbar (ISO)
100
AcDbVertex
100
AcDb2dVertex
 10
728.8437950624673
 20
1106.496842857068
 30
0.0
  0
VERTEX
  5
3A7
330
395
100
AcDbEntity
  8
Sichtbar (ISO)
100
AcDbVertex
100
AcDb2dVertex
 10
728.8229794432743
 20
1106.47684982075
 30
0.0
  0
VERTEX
  5
3A8
330
395
100
AcDbEntity
  8
Sichtbar (ISO)
100
AcDbVertex
100
AcDb2dVertex
 10
728.8012588574079
 20
1106.458256859806
 30
0.0
  0
VERTEX
  5
3A9
330
395
100
AcDbEntity
  8
Sichtbar (ISO)
100
AcDbVertex
100
AcDb2dVertex
 10
728.778712695168
 20
1106.441311388408
 30
0.0
  0
VERTEX
  5
3AA
330
395
100
AcDbEntity
  8
Sichtbar (ISO)
100
AcDbVertex
100
AcDb2dVertex
 10
728.7554205685418
 20
1106.426261019909
 30
0.0
  0
VERTEX
  5
3AB
330
395
100
AcDbEntity
  8
Sichtbar (ISO)
100
AcDbVertex
100
AcDb2dVertex
 10
728.7314618678293
 20
1106.413353168481
 30
0.0
  0
VERTEX
  5
3AC
330
395
100
AcDbEntity
  8
Sichtbar (ISO)
100
AcDbVertex
100
AcDb2dVertex
 10
728.7069157616441
 20
1106.402835049116
 30
0.0
  0
VERTEX
  5
3AD
330
395
100
AcDbEntity
  8
Sichtbar (ISO)
100
AcDbVertex
100
AcDb2dVertex
 10
728.6797130752244
 20
1106.394365802881
 30
0.0
  0
VERTEX
  5
3AE
330
395
100
AcDbEntity
  8
Sichtbar (ISO)
100
AcDbVertex
100
AcDb2dVertex
 10
728.6451208987582
 20
1106.388469918307
 30
0.0
  0
VERTEX
  5
3AF
330
395
100
AcDbEntity
  8
Sichtbar (ISO)
100
AcDbVertex
100
AcDb2dVertex
 10
728.595773389123
 20
1106.390193354329
 30
0.0
  0
SEQEND
  5
398
330
395
100
AcDbEntity
  8
Sichtbar (ISO)
  0
ARC
  5
3B0
330
37
100
AcDbEntity
  8
Sichtbar (ISO)
100
AcDbCircle
 10
727.1748233607148
 20
1102.12042736926
 30
0.0
 40
5.000000000000081
100
AcDbArc
 50
38.49947877455953
 51
45.37845448099488
  0
POLYLINE
  5
3B1
330
37
100
AcDbEntity
  8
Sichtbar (ISO)
100
AcDb2dPolyline
 66
     1
 10
0.0
 20
0.0
 30
0.0
 70
   128
  0
VERTEX
  5
3B2
330
3B1
100
AcDbEntity
  8
Sichtbar (ISO)
100
AcDbVertex
100
AcDb2dVertex
 10
730.5039541740418
 20
1105.148114292974
 30
0.0
  0
VERTEX
  5
3B3
330
3B1
100
AcDbEntity
  8
Sichtbar (ISO)
100
AcDbVertex
100
AcDb2dVertex
 10
730.4816262641276
 20
1105.194873012254
 30
0.0
  0
VERTEX
  5
3B5
330
3B1
100
AcDbEntity
  8
Sichtbar (ISO)
100
AcDbVertex
100
AcDb2dVertex
 10
730.4731923558007
 20
1105.230184154411
 30
0.0
  0
VERTEX
  5
3B6
330
3B1
100
AcDbEntity
  8
Sichtbar (ISO)
100
AcDbVertex
100
AcDb2dVertex
 10
730.4702571020887
 20
1105.259894371108
 30
0.0
  0
VERTEX
  5
3B7
330
3B1
100
AcDbEntity
  8
Sichtbar (ISO)
100
AcDbVertex
100
AcDb2dVertex
 10
730.4702914116075
 20
1105.285593594443
 30
0.0
  0
VERTEX
  5
3B8
330
3B1
100
AcDbEntity
  8
Sichtbar (ISO)
100
AcDbVertex
100
AcDb2dVertex
 10
730.4725059377261
 20
1105.311774962167
 30
0.0
  0
VERTEX
  5
3B9
330
3B1
100
AcDbEntity
  8
Sichtbar (ISO)
100
AcDbVertex
100
AcDb2dVertex
 10
730.4767626963571
 20
1105.338290610245
 30
0.0
  0
VERTEX
  5
3BA
330
3B1
100
AcDbEntity
  8
Sichtbar (ISO)
100
AcDbVertex
100
AcDb2dVertex
 10
730.4829253623346
 20
1105.364971653857
 30
0.0
  0
VERTEX
  5
3BB
330
3B1
100
AcDbEntity
  8
Sichtbar (ISO)
100
AcDbVertex
100
AcDb2dVertex
 10
730.4908569952279
 20
1105.391648555222
 30
0.0
  0
VERTEX
  5
3BC
330
3B1
100
AcDbEntity
  8
Sichtbar (ISO)
100
AcDbVertex
100
AcDb2dVertex
 10
730.5004208140488
 20
1105.418152045014
 30
0.0
  0
VERTEX
  5
3BD
330
3B1
100
AcDbEntity
  8
Sichtbar (ISO)
100
AcDbVertex
100
AcDb2dVertex
 10
730.5114803092914
 20
1105.44431299767
 30
0.0
  0
VERTEX
  5
3BE
330
3B1
100
AcDbEntity
  8
Sichtbar (ISO)
100
AcDbVertex
100
AcDb2dVertex
 10
730.5238735267083
 20
1105.469925503667
 30
0.0
  0
VERTEX
  5
3BF
330
3B1
100
AcDbEntity
  8
Sichtbar (ISO)
100
AcDbVertex
100
AcDb2dVertex
 10
730.5371634844975
 20
1105.494450759268
 30
0.0
  0
VERTEX
  5
3C0
330
3B1
100
AcDbEntity
  8
Sichtbar (ISO)
100
AcDbVertex
100
AcDb2dVertex
 10
730.5510727266878
 20
1105.517723562179
 30
0.0
  0
VERTEX
  5
3C1
330
3B1
100
AcDbEntity
  8
Sichtbar (ISO)
100
AcDbVertex
100
AcDb2dVertex
 10
730.5653988570439
 20
1105.539702966133
 30
0.0
  0
VERTEX
  5
3C2
330
3B1
100
AcDbEntity
  8
Sichtbar (ISO)
100
AcDbVertex
100
AcDb2dVertex
 10
730.5799383584478
 20
1105.560347042818
 30
0.0
  0
VERTEX
  5
3C3
330
3B1
100
AcDbEntity
  8
Sichtbar (ISO)
100
AcDbVertex
100
AcDb2dVertex
 10
730.594488809767
 20
1105.579614873675
 30
0.0
  0
VERTEX
  5
3C4
330
3B1
100
AcDbEntity
  8
Sichtbar (ISO)
100
AcDbVertex
100
AcDb2dVertex
 10
730.6088471497056
 20
1105.597464914898
 30
0.0
  0
VERTEX
  5
3C5
330
3B1
100
AcDbEntity
  8
Sichtbar (ISO)
100
AcDbVertex
100
AcDb2dVertex
 10
730.6228102920709
 20
1105.613855650388
 30
0.0
  0
VERTEX
  5
3C6
330
3B1
100
AcDbEntity
  8
Sichtbar (ISO)
100
AcDbVertex
100
AcDb2dVertex
 10
730.6361751755671
 20
1105.628745536337
 30
0.0
  0
VERTEX
  5
3C7
330
3B1
100
AcDbEntity
  8
Sichtbar (ISO)
100
AcDbVertex
100
AcDb2dVertex
 10
730.6487393790614
 20
1105.64209365419
 30
0.0
  0
VERTEX
  5
3C8
330
3B1
100
AcDbEntity
  8
Sichtbar (ISO)
100
AcDbVertex
100
AcDb2dVertex
 10
730.6602996071227
 20
1105.653858274812
 30
0.0
  0
VERTEX
  5
3C9
330
3B1
100
AcDbEntity
  8
Sichtbar (ISO)
100
AcDbVertex
100
AcDb2dVertex
 10
730.6706527860068
 20
1105.663997868251
 30
0.0
  0
VERTEX
  5
3CA
330
3B1
100
AcDbEntity
  8
Sichtbar (ISO)
100
AcDbVertex
100
AcDb2dVertex
 10
730.6795962853428
 20
1105.672471302915
 30
0.0
  0
VERTEX
  5
3CB
330
3B1
100
AcDbEntity
  8
Sichtbar (ISO)
100
AcDbVertex
100
AcDb2dVertex
 10
730.6869270189377
 20
1105.679237062706
 30
0.0
  0
SEQEND
  5
3B4
330
3B1
100
AcDbEntity
  8
Sichtbar (ISO)
  0
POLYLINE
  5
3CC
330
37
100
AcDbEntity
  8
Sichtbar (ISO)
100
AcDb2dPolyline
 66
     1
 10
0.0
 20
0.0
 30
0.0
 70
   128
  0
VERTEX
  5
3CD
330
3CC
100
AcDbEntity
  8
Sichtbar (ISO)
100
AcDbVertex
100
AcDb2dVertex
 10
730.5402850975715
 20
1105.107678175273
 30
0.0
  0
VERTEX
  5
3CE
330
3CC
100
AcDbEntity
  8
Sichtbar (ISO)
100
AcDbVertex
100
AcDb2dVertex
 10
730.5388193132426
 20
1105.108896666458
 30
0.0
  0
VERTEX
  5
3D0
330
3CC
100
AcDbEntity
  8
Sichtbar (ISO)
100
AcDbVertex
100
AcDb2dVertex
 10
730.5373082617778
 20
1105.110179809044
 30
0.0
  0
VERTEX
  5
3D1
330
3CC
100
AcDbEntity
  8
Sichtbar (ISO)
100
AcDbVertex
100
AcDb2dVertex
 10
730.5357553216142
 20
1105.111528747932
 30
0.0
  0
VERTEX
  5
3D2
330
3CC
100
AcDbEntity
  8
Sichtbar (ISO)
100
AcDbVertex
100
AcDb2dVertex
 10
730.5341632139085
 20
1105.11294402182
 30
0.0
  0
VERTEX
  5
3D3
330
3CC
100
AcDbEntity
  8
Sichtbar (ISO)
100
AcDbVertex
100
AcDb2dVertex
 10
730.5325348752797
 20
1105.114426375518
 30
0.0
  0
VERTEX
  5
3D4
330
3CC
100
AcDbEntity
  8
Sichtbar (ISO)
100
AcDbVertex
100
AcDb2dVertex
 10
730.5308736880547
 20
1105.115976949595
 30
0.0
  0
VERTEX
  5
3D5
330
3CC
100
AcDbEntity
  8
Sichtbar (ISO)
100
AcDbVertex
100
AcDb2dVertex
 10
730.5291823710561
 20
1105.117596285349
 30
0.0
  0
VERTEX
  5
3D6
330
3CC
100
AcDbEntity
  8
Sichtbar (ISO)
100
AcDbVertex
100
AcDb2dVertex
 10
730.5274716202671
 20
1105.119277383291
 30
0.0
  0
VERTEX
  5
3D7
330
3CC
100
AcDbEntity
  8
Sichtbar (ISO)
100
AcDbVertex
100
AcDb2dVertex
 10
730.5257527152067
 20
1105.121012594461
 30
0.0
  0
VERTEX
  5
3D8
330
3CC
100
AcDbEntity
  8
Sichtbar (ISO)
100
AcDbVertex
100
AcDb2dVertex
 10
730.5240278683026
 20
1105.122802131937
 30
0.0
  0
VERTEX
  5
3D9
330
3CC
100
AcDbEntity
  8
Sichtbar (ISO)
100
AcDbVertex
100
AcDb2dVertex
 10
730.5222992896479
 20
1105.124646211399
 30
0.0
  0
VERTEX
  5
3DA
330
3CC
100
AcDbEntity
  8
Sichtbar (ISO)
100
AcDbVertex
100
AcDb2dVertex
 10
730.5205698626107
 20
1105.126544299171
 30
0.0
  0
VERTEX
  5
3DB
330
3CC
100
AcDbEntity
  8
Sichtbar (ISO)
100
AcDbVertex
100
AcDb2dVertex
 10
730.5188732313267
 20
1105.128460733181
 30
0.0
  0
VERTEX
  5
3DC
330
3CC
100
AcDbEntity
  8
Sichtbar (ISO)
100
AcDbVertex
100
AcDb2dVertex
 10
730.5172266146951
 20
1105.130374119309
 30
0.0
  0
VERTEX
  5
3DD
330
3CC
100
AcDbEntity
  8
Sichtbar (ISO)
100
AcDbVertex
100
AcDb2dVertex
 10
730.5156299702781
 20
1105.132282721121
 30
0.0
  0
VERTEX
  5
3DE
330
3CC
100
AcDbEntity
  8
Sichtbar (ISO)
100
AcDbVertex
100
AcDb2dVertex
 10
730.5140828140832
 20
1105.134184401798
 30
0.0
  0
VERTEX
  5
3DF
330
3CC
100
AcDbEntity
  8
Sichtbar (ISO)
100
AcDbVertex
100
AcDb2dVertex
 10
730.5125895577132
 20
1105.136070683919
 30
0.0
  0
VERTEX
  5
3E0
330
3CC
100
AcDbEntity
  8
Sichtbar (ISO)
100
AcDbVertex
100
AcDb2dVertex
 10
730.5111644455312
 20
1105.137920808504
 30
0.0
  0
VERTEX
  5
3E1
330
3CC
100
AcDbEntity
  8
Sichtbar (ISO)
100
AcDbVertex
100
AcDb2dVertex
 10
730.5098069608202
 20
1105.139729999659
 30
0.0
  0
VERTEX
  5
3E2
330
3CC
100
AcDbEntity
  8
Sichtbar (ISO)
100
AcDbVertex
100
AcDb2dVertex
 10
730.5085160001007
 20
1105.141495026384
 30
0.0
  0
VERTEX
  5
3E3
330
3CC
100
AcDbEntity
  8
Sichtbar (ISO)
100
AcDbVertex
100
AcDb2dVertex
 10
730.5072877894589
 20
1105.14321696761
 30
0.0
  0
VERTEX
  5
3E4
330
3CC
100
AcDbEntity
  8
Sichtbar (ISO)
100
AcDbVertex
100
AcDb2dVertex
 10
730.5061187114831
 20
1105.144895836247
 30
0.0
  0
VERTEX
  5
3E5
330
3CC
100
AcDbEntity
  8
Sichtbar (ISO)
100
AcDbVertex
100
AcDb2dVertex
 10
730.5050078220796
 20
1105.146529115734
 30
0.0
  0
VERTEX
  5
3E6
330
3CC
100
AcDbEntity
  8
Sichtbar (ISO)
100
AcDbVertex
100
AcDb2dVertex
 10
730.5039541740418
 20
1105.148114292974
 30
0.0
  0
SEQEND
  5
3CF
330
3CC
100
AcDbEntity
  8
Sichtbar (ISO)
  0
POLYLINE
  5
3E7
330
37
100
AcDbEntity
  8
Sichtbar (ISO)
100
AcDb2dPolyline
 66
     1
 10
0.0
 20
0.0
 30
0.0
 70
   128
  0
VERTEX
  5
3E8
330
3E7
100
AcDbEntity
  8
Sichtbar (ISO)
100
AcDbVertex
100
AcDb2dVertex
 10
731.0878923531448
 20
1105.232964855098
 30
0.0
  0
VERTEX
  5
3E9
330
3E7
100
AcDbEntity
  8
Sichtbar (ISO)
100
AcDbVertex
100
AcDb2dVertex
 10
731.0812908599184
 20
1105.227127866969
 30
0.0
  0
VERTEX
  5
3EB
330
3E7
100
AcDbEntity
  8
Sichtbar (ISO)
100
AcDbVertex
100
AcDb2dVertex
 10
731.0730581440093
 20
1105.219962709239
 30
0.0
  0
VERTEX
  5
3EC
330
3E7
100
AcDbEntity
  8
Sichtbar (ISO)
100
AcDbVertex
100
AcDb2dVertex
 10
731.0631259385094
 20
1105.211589062419
 30
0.0
  0
VERTEX
  5
3ED
330
3E7
100
AcDbEntity
  8
Sichtbar (ISO)
100
AcDbVertex
100
AcDb2dVertex
 10
731.0514255829327
 20
1105.202126153239
 30
0.0
  0
VERTEX
  5
3EE
330
3E7
100
AcDbEntity
  8
Sichtbar (ISO)
100
AcDbVertex
100
AcDb2dVertex
 10
731.0378883669978
 20
1105.191693263847
 30
0.0
  0
VERTEX
  5
3EF
330
3E7
100
AcDbEntity
  8
Sichtbar (ISO)
100
AcDbVertex
100
AcDb2dVertex
 10
731.0224455928723
 20
1105.18040966254
 30
0.0
  0
VERTEX
  5
3F0
330
3E7
100
AcDbEntity
  8
Sichtbar (ISO)
100
AcDbVertex
100
AcDb2dVertex
 10
731.0050285751725
 20
1105.168394603756
 30
0.0
  0
VERTEX
  5
3F1
330
3E7
100
AcDbEntity
  8
Sichtbar (ISO)
100
AcDbVertex
100
AcDb2dVertex
 10
730.9855688502016
 20
1105.155767541116
 30
0.0
  0
VERTEX
  5
3F2
330
3E7
100
AcDbEntity
  8
Sichtbar (ISO)
100
AcDbVertex
100
AcDb2dVertex
 10
730.9639977201269
 20
1105.142647742914
 30
0.0
  0
VERTEX
  5
3F3
330
3E7
100
AcDbEntity
  8
Sichtbar (ISO)
100
AcDbVertex
100
AcDb2dVertex
 10
730.9405311746379
 20
1105.129430244855
 30
0.0
  0
VERTEX
  5
3F4
330
3E7
100
AcDbEntity
  8
Sichtbar (ISO)
100
AcDbVertex
100
AcDb2dVertex
 10
730.9158123266947
 20
1105.11681594254
 30
0.0
  0
VERTEX
  5
3F5
330
3E7
100
AcDbEntity
  8
Sichtbar (ISO)
100
AcDbVertex
100
AcDb2dVertex
 10
730.8900476944938
 20
1105.104994143881
 30
0.0
  0
VERTEX
  5
3F6
330
3E7
100
AcDbEntity
  8
Sichtbar (ISO)
100
AcDbVertex
100
AcDb2dVertex
 10
730.8634295579943
 20
1105.094139235631
 30
0.0
  0
VERTEX
  5
3F7
330
3E7
100
AcDbEntity
  8
Sichtbar (ISO)
100
AcDbVertex
100
AcDb2dVertex
 10
730.8361506529777
 20
1105.084425989048
 30
0.0
  0
VERTEX
  5
3F8
330
3E7
100
AcDbEntity
  8
Sichtbar (ISO)
100
AcDbVertex
100
AcDb2dVertex
 10
730.8084030626142
 20
1105.076028563994
 30
0.0
  0
VERTEX
  5
3F9
330
3E7
100
AcDbEntity
  8
Sichtbar (ISO)
100
AcDbVertex
100
AcDb2dVertex
 10
730.7803795102361
 20
1105.069121745582
 30
0.0
  0
VERTEX
  5
3FA
330
3E7
100
AcDbEntity
  8
Sichtbar (ISO)
100
AcDbVertex
100
AcDb2dVertex
 10
730.7522724974896
 20
1105.063880119748
 30
0.0
  0
VERTEX
  5
3FB
330
3E7
100
AcDbEntity
  8
Sichtbar (ISO)
100
AcDbVertex
100
AcDb2dVertex
 10
730.7242743416802
 20
1105.060478031675
 30
0.0
  0
VERTEX
  5
3FC
330
3E7
100
AcDbEntity
  8
Sichtbar (ISO)
100
AcDbVertex
100
AcDb2dVertex
 10
730.6965775195561
 20
1105.059090095009
 30
0.0
  0
VERTEX
  5
3FD
330
3E7
100
AcDbEntity
  8
Sichtbar (ISO)
100
AcDbVertex
100
AcDb2dVertex
 10
730.6693745763342
 20
1105.059890847189
 30
0.0
  0
VERTEX
  5
3FE
330
3E7
100
AcDbEntity
  8
Sichtbar (ISO)
100
AcDbVertex
100
AcDb2dVertex
 10
730.6428580136601
 20
1105.063054874149
 30
0.0
  0
VERTEX
  5
3FF
330
3E7
100
AcDbEntity
  8
Sichtbar (ISO)
100
AcDbVertex
100
AcDb2dVertex
 10
730.6150653486999
 20
1105.069321638948
 30
0.0
  0
VERTEX
  5
400
330
3E7
100
AcDbEntity
  8
Sichtbar (ISO)
100
AcDbVertex
100
AcDb2dVertex
 10
730.5821596939586
 20
1105.081511901623
 30
0.0
  0
VERTEX
  5
401
330
3E7
100
AcDbEntity
  8
Sichtbar (ISO)
100
AcDbVertex
100
AcDb2dVertex
 10
730.5402850975715
 20
1105.107678175273
 30
0.0
  0
SEQEND
  5
3EA
330
3E7
100
AcDbEntity
  8
Sichtbar (ISO)
  0
ARC
  5
402
330
37
100
AcDbEntity
  8
Sichtbar (ISO)
100
AcDbCircle
 10
727.174823360715
 20
1102.12042736926
 30
0.0
 40
4.999999999999995
100
AcDbArc
 50
8.49947877456266
 51
15.37845448099641
  0
POLYLINE
  5
403
330
37
100
AcDbEntity
  8
Sichtbar (ISO)
100
AcDb2dPolyline
 66
     1
 10
0.0
 20
0.0
 30
0.0
 70
   128
  0
VERTEX
  5
404
330
403
100
AcDbEntity
  8
Sichtbar (ISO)
100
AcDbVertex
100
AcDb2dVertex
 10
731.5717787180747
 20
1103.077915821337
 30
0.0
  0
VERTEX
  5
405
330
403
100
AcDbEntity
  8
Sichtbar (ISO)
100
AcDbVertex
100
AcDb2dVertex
 10
731.5758215429381
 20
1103.129574014102
 30
0.0
  0
VERTEX
  5
407
330
403
100
AcDbEntity
  8
Sichtbar (ISO)
100
AcDbVertex
100
AcDb2dVertex
 10
731.5861729424109
 20
1103.16437120418
 30
0.0
  0
VERTEX
  5
408
330
403
100
AcDbEntity
  8
Sichtbar (ISO)
100
AcDbVertex
100
AcDb2dVertex
 10
731.5984861832133
 20
1103.191568773631
 30
0.0
  0
VERTEX
  5
409
330
403
100
AcDbEntity
  8
Sichtbar (ISO)
100
AcDbVertex
100
AcDb2dVertex
 10
731.611365626739
 20
1103.21380765092
 30
0.0
  0
VERTEX
  5
40A
330
403
100
AcDbEntity
  8
Sichtbar (ISO)
100
AcDbVertex
100
AcDb2dVertex
 10
731.6263740216016
 20
1103.235374175373
 30
0.0
  0
VERTEX
  5
40B
330
403
100
AcDbEntity
  8
Sichtbar (ISO)
100
AcDbVertex
100
AcDb2dVertex
 10
731.6433182640492
 20
1103.256209031743
 30
0.0
  0
VERTEX
  5
40C
330
403
100
AcDbEntity
  8
Sichtbar (ISO)
100
AcDbVertex
100
AcDb2dVertex
 10
731.6619957976982
 20
1103.276233995019
 30
0.0
  0
VERTEX
  5
40D
330
403
100
AcDbEntity
  8
Sichtbar (ISO)
100
AcDbVertex
100
AcDb2dVertex
 10
731.6822033465268
 20
1103.295371195226
 30
0.0
  0
VERTEX
  5
40E
330
403
100
AcDbEntity
  8
Sichtbar (ISO)
100
AcDbVertex
100
AcDb2dVertex
 10
731.7037375895008
 20
1103.313541920659
 30
0.0
  0
VERTEX
  5
40F
330
403
100
AcDbEntity
  8
Sichtbar (ISO)
100
AcDbVertex
100
AcDb2dVertex
 10
731.7263959927428
 20
1103.330668367171
 30
0.0
  0
VERTEX
  5
410
330
403
100
AcDbEntity
  8
Sichtbar (ISO)
100
AcDbVertex
100
AcDb2dVertex
 10
731.7499350688499
 20
1103.346652761942
 30
0.0
  0
VERTEX
  5
411
330
403
100
AcDbEntity
  8
Sichtbar (ISO)
100
AcDbVertex
100
AcDb2dVertex
 10
731.7737068765232
 20
1103.361247283469
 30
0.0
  0
VERTEX
  5
412
330
403
100
AcDbEntity
  8
Sichtbar (ISO)
100
AcDbVertex
100
AcDb2dVertex
 10
731.7973892459032
 20
1103.374447528985
 30
0.0
  0
VERTEX
  5
413
330
403
100
AcDbEntity
  8
Sichtbar (ISO)
100
AcDbVertex
100
AcDb2dVertex
 10
731.8207855121922
 20
1103.386318990045
 30
0.0
  0
VERTEX
  5
414
330
403
100
AcDbEntity
  8
Sichtbar (ISO)
100
AcDbVertex
100
AcDb2dVertex
 10
731.843699354376
 20
1103.396927667405
 30
0.0
  0
VERTEX
  5
415
330
403
100
AcDbEntity
  8
Sichtbar (ISO)
100
AcDbVertex
100
AcDb2dVertex
 10
731.8659343068375
 20
1103.406338830932
 30
0.0
  0
VERTEX
  5
416
330
403
100
AcDbEntity
  8
Sichtbar (ISO)
100
AcDbVertex
100
AcDb2dVertex
 10
731.8872938268754
 20
1103.414618282204
 30
0.0
  0
VERTEX
  5
417
330
403
100
AcDbEntity
  8
Sichtbar (ISO)
100
AcDbVertex
100
AcDb2dVertex
 10
731.9075816705598
 20
1103.421831490268
 30
0.0
  0
VERTEX
  5
418
330
403
100
AcDbEntity
  8
Sichtbar (ISO)
100
AcDbVertex
100
AcDb2dVertex
 10
731.9266010735026
 20
1103.42804405752
 30
0.0
  0
VERTEX
  5
419
330
403
100
AcDbEntity
  8
Sichtbar (ISO)
100
AcDbVertex
100
AcDb2dVertex
 10
731.94415591387
 20
1103.433321763032
 30
0.0
  0
VERTEX
  5
41A
330
403
100
AcDbEntity
  8
Sichtbar (ISO)
100
AcDbVertex
100
AcDb2dVertex
 10
731.9600495268645
 20
1103.437730098357
 30
0.0
  0
VERTEX
  5
41B
330
403
100
AcDbEntity
  8
Sichtbar (ISO)
100
AcDbVertex
100
AcDb2dVertex
 10
731.9740857906523
 20
1103.441334842566
 30
0.0
  0
VERTEX
  5
41C
330
403
100
AcDbEntity
  8
Sichtbar (ISO)
100
AcDbVertex
100
AcDb2dVertex
 10
731.986067818749
 20
1103.444201288032
 30
0.0
  0
VERTEX
  5
41D
330
403
100
AcDbEntity
  8
Sichtbar (ISO)
100
AcDbVertex
100
AcDb2dVertex
 10
731.9957994893209
 20
1103.446395213826
 30
0.0
  0
SEQEND
  5
406
330
403
100
AcDbEntity
  8
Sichtbar (ISO)
  0
POLYLINE
  5
41E
330
37
100
AcDbEntity
  8
Sichtbar (ISO)
100
AcDb2dPolyline
 66
     1
 10
0.0
 20
0.0
 30
0.0
 70
   128
  0
VERTEX
  5
41F
330
41E
100
AcDbEntity
  8
Sichtbar (ISO)
100
AcDbVertex
100
AcDb2dVertex
 10
731.583024203795
 20
1103.024731625252
 30
0.0
  0
VERTEX
  5
420
330
41E
100
AcDbEntity
  8
Sichtbar (ISO)
100
AcDbVertex
100
AcDb2dVertex
 10
731.5823648277525
 20
1103.026517424222
 30
0.0
  0
VERTEX
  5
422
330
41E
100
AcDbEntity
  8
Sichtbar (ISO)
100
AcDbVertex
100
AcDb2dVertex
 10
731.5816987724183
 20
1103.028381557933
 30
0.0
  0
VERTEX
  5
423
330
41E
100
AcDbEntity
  8
Sichtbar (ISO)
100
AcDbVertex
100
AcDb2dVertex
 10
731.5810290834526
 20
1103.030323757999
 30
0.0
  0
VERTEX
  5
424
330
41E
100
AcDbEntity
  8
Sichtbar (ISO)
100
AcDbVertex
100
AcDb2dVertex
 10
731.5803586394065
 20
1103.032342604273
 30
0.0
  0
VERTEX
  5
425
330
41E
100
AcDbEntity
  8
Sichtbar (ISO)
100
AcDbVertex
100
AcDb2dVertex
 10
731.5796905855306
 20
1103.034437717525
 30
0.0
  0
VERTEX
  5
426
330
41E
100
AcDbEntity
  8
Sichtbar (ISO)
100
AcDbVertex
100
AcDb2dVertex
 10
731.5790278228818
 20
1103.036608098476
 30
0.0
  0
VERTEX
  5
427
330
41E
100
AcDbEntity
  8
Sichtbar (ISO)
100
AcDbVertex
100
AcDb2dVertex
 10
731.5783733746145
 20
1103.038853057873
 30
0.0
  0
VERTEX
  5
428
330
41E
100
AcDbEntity
  8
Sichtbar (ISO)
100
AcDbVertex
100
AcDb2dVertex
 10
731.5777313785051
 20
1103.041167098559
 30
0.0
  0
VERTEX
  5
429
330
41E
100
AcDbEntity
  8
Sichtbar (ISO)
100
AcDbVertex
100
AcDb2dVertex
 10
731.5771101354247
 20
1103.043529833797
 30
0.0
  0
VERTEX
  5
42A
330
41E
100
AcDbEntity
  8
Sichtbar (ISO)
100
AcDbVertex
100
AcDb2dVertex
 10
731.5765119680202
 20
1103.045937340745
 30
0.0
  0
VERTEX
  5
42B
330
41E
100
AcDbEntity
  8
Sichtbar (ISO)
100
AcDbVertex
100
AcDb2dVertex
 10
731.5759388585304
 20
1103.048389196848
 30
0.0
  0
VERTEX
  5
42C
330
41E
100
AcDbEntity
  8
Sichtbar (ISO)
100
AcDbVertex
100
AcDb2dVertex
 10
731.5753925450016
 20
1103.050884359504
 30
0.0
  0
VERTEX
  5
42D
330
41E
100
AcDbEntity
  8
Sichtbar (ISO)
100
AcDbVertex
100
AcDb2dVertex
 10
731.5748794968579
 20
1103.053397791617
 30
0.0
  0
VERTEX
  5
42E
330
41E
100
AcDbEntity
  8
Sichtbar (ISO)
100
AcDbVertex
100
AcDb2dVertex
 10
731.5744093535295
 20
1103.055880861652
 30
0.0
  0
VERTEX
  5
42F
330
41E
100
AcDbEntity
  8
Sichtbar (ISO)
100
AcDbVertex
100
AcDb2dVertex
 10
731.5739804731838
 20
1103.058330491877
 30
0.0
  0
VERTEX
  5
430
330
41E
100
AcDbEntity
  8
Sichtbar (ISO)
100
AcDbVertex
100
AcDb2dVertex
 10
731.5735918244715
 20
1103.060745154679
 30
0.0
  0
VERTEX
  5
431
330
41E
100
AcDbEntity
  8
Sichtbar (ISO)
100
AcDbVertex
100
AcDb2dVertex
 10
731.5732420418246
 20
1103.063121018929
 30
0.0
  0
VERTEX
  5
432
330
41E
100
AcDbEntity
  8
Sichtbar (ISO)
100
AcDbVertex
100
AcDb2dVertex
 10
731.5729317734223
 20
1103.065438634714
 30
0.0
  0
VERTEX
  5
433
330
41E
100
AcDbEntity
  8
Sichtbar (ISO)
100
AcDbVertex
100
AcDb2dVertex
 10
731.5726592969725
 20
1103.067691446522
 30
0.0
  0
VERTEX
  5
434
330
41E
100
AcDbEntity
  8
Sichtbar (ISO)
100
AcDbVertex
100
AcDb2dVertex
 10
731.5724221964274
 20
1103.069877684236
 30
0.0
  0
VERTEX
  5
435
330
41E
100
AcDbEntity
  8
Sichtbar (ISO)
100
AcDbVertex
100
AcDb2dVertex
 10
731.5722178115465
 20
1103.071994957689
 30
0.0
  0
VERTEX
  5
436
330
41E
100
AcDbEntity
  8
Sichtbar (ISO)
100
AcDbVertex
100
AcDb2dVertex
 10
731.5720442692459
 20
1103.074041784283
 30
0.0
  0
VERTEX
  5
437
330
41E
100
AcDbEntity
  8
Sichtbar (ISO)
100
AcDbVertex
100
AcDb2dVertex
 10
731.5718986105142
 20
1103.076016106381
 30
0.0
  0
VERTEX
  5
438
330
41E
100
AcDbEntity
  8
Sichtbar (ISO)
100
AcDbVertex
100
AcDb2dVertex
 10
731.5717787180747
 20
1103.077915821337
 30
0.0
  0
SEQEND
  5
421
330
41E
100
AcDbEntity
  8
Sichtbar (ISO)
  0
POLYLINE
  5
439
330
37
100
AcDbEntity
  8
Sichtbar (ISO)
100
AcDb2dPolyline
 66
     1
 10
0.0
 20
0.0
 30
0.0
 70
   128
  0
VERTEX
  5
43A
330
439
100
AcDbEntity
  8
Sichtbar (ISO)
100
AcDbVertex
100
AcDb2dVertex
 10
732.1199094602012
 20
1102.859429578965
 30
0.0
  0
VERTEX
  5
43B
330
439
100
AcDbEntity
  8
Sichtbar (ISO)
100
AcDbVertex
100
AcDb2dVertex
 10
732.1112735712785
 20
1102.8576753096
 30
0.0
  0
VERTEX
  5
43D
330
439
100
AcDbEntity
  8
Sichtbar (ISO)
100
AcDbVertex
100
AcDb2dVertex
 10
732.1005613466637
 20
1102.855586367713
 30
0.0
  0
VERTEX
  5
43E
330
439
100
AcDbEntity
  8
Sichtbar (ISO)
100
AcDbVertex
100
AcDb2dVertex
 10
732.0877729911723
 20
1102.853300759466
 30
0.0
  0
VERTEX
  5
43F
330
439
100
AcDbEntity
  8
Sichtbar (ISO)
100
AcDbVertex
100
AcDb2dVertex
 10
732.0729086646075
 20
1102.850955649286
 30
0.0
  0
VERTEX
  5
440
330
439
100
AcDbEntity
  8
Sichtbar (ISO)
100
AcDbVertex
100
AcDb2dVertex
 10
732.0559687934716
 20
1102.848689242517
 30
0.0
  0
VERTEX
  5
441
330
439
100
AcDbEntity
  8
Sichtbar (ISO)
100
AcDbVertex
100
AcDb2dVertex
 10
732.0369531167004
 20
1102.846638726093
 30
0.0
  0
VERTEX
  5
442
330
439
100
AcDbEntity
  8
Sichtbar (ISO)
100
AcDbVertex
100
AcDb2dVertex
 10
732.01586203829
 20
1102.844941884489
 30
0.0
  0
VERTEX
  5
443
330
439
100
AcDbEntity
  8
Sichtbar (ISO)
100
AcDbVertex
100
AcDb2dVertex
 10
731.9926957405495
 20
1102.843736303
 30
0.0
  0
VERTEX
  5
444
330
439
100
AcDbEntity
  8
Sichtbar (ISO)
100
AcDbVertex
100
AcDb2dVertex
 10
731.9674546274755
 20
1102.843159766102
 30
0.0
  0
VERTEX
  5
445
330
439
100
AcDbEntity
  8
Sichtbar (ISO)
100
AcDbVertex
100
AcDb2dVertex
 10
731.9405236968661
 20
1102.843446405313
 30
0.0
  0
VERTEX
  5
446
330
439
100
AcDbEntity
  8
Sichtbar (ISO)
100
AcDbVertex
100
AcDb2dVertex
 10
731.9128092017333
 20
1102.844881615763
 30
0.0
  0
VERTEX
  5
447
330
439
100
AcDbEntity
  8
Sichtbar (ISO)
100
AcDbVertex
100
AcDb2dVertex
 10
731.8845853449016
 20
1102.847525862765
 30
0.0
  0
VERTEX
  5
448
330
439
100
AcDbEntity
  8
Sichtbar (ISO)
100
AcDbVertex
100
AcDb2dVertex
 10
731.856105989159
 20
1102.851434157238
 30
0.0
  0
VERTEX
  5
449
330
439
100
AcDbEntity
  8
Sichtbar (ISO)
100
AcDbVertex
100
AcDb2dVertex
 10
731.8276250197994
 20
1102.856661930972
 30
0.0
  0
VERTEX
  5
44A
330
439
100
AcDbEntity
  8
Sichtbar (ISO)
100
AcDbVertex
100
AcDb2dVertex
 10
731.7993962545982
 20
1102.863263353153
 30
0.0
  0
VERTEX
  5
44B
330
439
100
AcDbEntity
  8
Sichtbar (ISO)
100
AcDbVertex
100
AcDb2dVertex
 10
731.7716737780301
 20
1102.871293633881
 30
0.0
  0
VERTEX
  5
44C
330
439
100
AcDbEntity
  8
Sichtbar (ISO)
100
AcDbVertex
100
AcDb2dVertex
 10
731.744711552473
 20
1102.880807673234
 30
0.0
  0
VERTEX
  5
44D
330
439
100
AcDbEntity
  8
Sichtbar (ISO)
100
AcDbVertex
100
AcDb2dVertex
 10
731.7187634407149
 20
1102.891860482134
 30
0.0
  0
VERTEX
  5
44E
330
439
100
AcDbEntity
  8
Sichtbar (ISO)
100
AcDbVertex
100
AcDb2dVertex
 10
731.6940834051337
 20
1102.904506960656
 30
0.0
  0
VERTEX
  5
44F
330
439
100
AcDbEntity
  8
Sichtbar (ISO)
100
AcDbVertex
100
AcDb2dVertex
 10
731.6709252860111
 20
1102.918801698856
 30
0.0
  0
VERTEX
  5
450
330
439
100
AcDbEntity
  8
Sichtbar (ISO)
100
AcDbVertex
100
AcDb2dVertex
 10
731.6495432899182
 20
1102.934800216858
 30
0.0
  0
VERTEX
  5
451
330
439
100
AcDbEntity
  8
Sichtbar (ISO)
100
AcDbVertex
100
AcDb2dVertex
 10
731.6286076523332
 20
1102.954123890783
 30
0.0
  0
VERTEX
  5
452
330
439
100
AcDbEntity
  8
Sichtbar (ISO)
100
AcDbVertex
100
AcDb2dVertex
 10
731.6062054519035
 20
1102.981133603735
 30
0.0
  0
VERTEX
  5
453
330
439
100
AcDbEntity
  8
Sichtbar (ISO)
100
AcDbVertex
100
AcDb2dVertex
 10
731.583024203795
 20
1103.024731625252
 30
0.0
  0
SEQEND
  5
43C
330
439
100
AcDbEntity
  8
Sichtbar (ISO)
  0
ARC
  5
454
330
37
100
AcDbEntity
  8
Sichtbar (ISO)
100
AcDbCircle
 10
727.1748233607148
 20
1102.12042736926
 30
0.0
 40
5.00000000000011
100
AcDbArc
 50
338.4994787745617
 51
345.3784544809959
  0
POLYLINE
  5
455
330
37
100
AcDbEntity
  8
Sichtbar (ISO)
100
AcDb2dPolyline
 66
     1
 10
0.0
 20
0.0
 30
0.0
 70
   128
  0
VERTEX
  5
456
330
455
100
AcDbEntity
  8
Sichtbar (ISO)
100
AcDbVertex
100
AcDb2dVertex
 10
731.4614426338995
 20
1100.751158926953
 30
0.0
  0
VERTEX
  5
457
330
455
100
AcDbEntity
  8
Sichtbar (ISO)
100
AcDbVertex
100
AcDb2dVertex
 10
731.4907727844814
 20
1100.793874968583
 30
0.0
  0
VERTEX
  5
459
330
455
100
AcDbEntity
  8
Sichtbar (ISO)
100
AcDbVertex
100
AcDb2dVertex
 10
731.5171363089843
 20
1100.818834441087
 30
0.0
  0
VERTEX
  5
45A
330
455
100
AcDbEntity
  8
Sichtbar (ISO)
100
AcDbVertex
100
AcDb2dVertex
 10
731.5413983831667
 20
1100.836231462874
 30
0.0
  0
VERTEX
  5
45B
330
455
100
AcDbEntity
  8
Sichtbar (ISO)
100
AcDbVertex
100
AcDb2dVertex
 10
731.5636719037005
 20
1100.849051317164
 30
0.0
  0
VERTEX
  5
45C
330
455
100
AcDbEntity
  8
Sichtbar (ISO)
100
AcDbVertex
100
AcDb2dVertex
 10
731.5874524711613
 20
1100.860224381809
 30
0.0
  0
VERTEX
  5
45D
330
455
100
AcDbEntity
  8
Sichtbar (ISO)
100
AcDbVertex
100
AcDb2dVertex
 10
731.612544433532
 20
1100.869795623777
 30
0.0
  0
VERTEX
  5
45E
330
455
100
AcDbEntity
  8
Sichtbar (ISO)
100
AcDbVertex
100
AcDb2dVertex
 10
731.6387320378877
 20
1100.877799161451
 30
0.0
  0
VERTEX
  5
45F
330
455
100
AcDbEntity
  8
Sichtbar (ISO)
100
AcDbVertex
100
AcDb2dVertex
 10
731.6658007713988
 20
1100.88426862483
 30
0.0
  0
VERTEX
  5
460
330
455
100
AcDbEntity
  8
Sichtbar (ISO)
100
AcDbVertex
100
AcDb2dVertex
 10
731.6935355011879
 20
1100.889237888107
 30
0.0
  0
VERTEX
  5
461
330
455
100
AcDbEntity
  8
Sichtbar (ISO)
100
AcDbVertex
100
AcDb2dVertex
 10
731.721721293558
 20
1100.892740603785
 30
0.0
  0
VERTEX
  5
462
330
455
100
AcDbEntity
  8
Sichtbar (ISO)
100
AcDbVertex
100
AcDb2dVertex
 10
731.7500988695946
 20
1100.894813850953
 30
0.0
  0
VERTEX
  5
463
330
455
100
AcDbEntity
  8
Sichtbar (ISO)
100
AcDbVertex
100
AcDb2dVertex
 10
731.7779833625555
 20
1100.895567060736
 30
0.0
  0
VERTEX
  5
464
330
455
100
AcDbEntity
  8
Sichtbar (ISO)
100
AcDbVertex
100
AcDb2dVertex
 10
731.805093022154
 20
1100.895157748869
 30
0.0
  0
VERTEX
  5
465
330
455
100
AcDbEntity
  8
Sichtbar (ISO)
100
AcDbVertex
100
AcDb2dVertex
 10
731.8312905039217
 20
1100.893740562655
 30
0.0
  0
VERTEX
  5
466
330
455
100
AcDbEntity
  8
Sichtbar (ISO)
100
AcDbVertex
100
AcDb2dVertex
 10
731.8564387300896
 20
1100.891471190312
 30
0.0
  0
VERTEX
  5
467
330
455
100
AcDbEntity
  8
Sichtbar (ISO)
100
AcDbVertex
100
AcDb2dVertex
 10
731.8804003336829
 20
1100.888503858275
 30
0.0
  0
VERTEX
  5
468
330
455
100
AcDbEntity
  8
Sichtbar (ISO)
100
AcDbVertex
100
AcDb2dVertex
 10
731.9030380377521
 20
1100.884994476447
 30
0.0
  0
VERTEX
  5
469
330
455
100
AcDbEntity
  8
Sichtbar (ISO)
100
AcDbVertex
100
AcDb2dVertex
 10
731.9242144753224
 20
1100.881097271265
 30
0.0
  0
VERTEX
  5
46A
330
455
100
AcDbEntity
  8
Sichtbar (ISO)
100
AcDbVertex
100
AcDb2dVertex
 10
731.9437919260709
 20
1100.876967754272
 30
0.0
  0
VERTEX
  5
46B
330
455
100
AcDbEntity
  8
Sichtbar (ISO)
100
AcDbVertex
100
AcDb2dVertex
 10
731.9616339097697
 20
1100.872760948625
 30
0.0
  0
VERTEX
  5
46C
330
455
100
AcDbEntity
  8
Sichtbar (ISO)
100
AcDbVertex
100
AcDb2dVertex
 10
731.9776022627224
 20
1100.868631967506
 30
0.0
  0
VERTEX
  5
46D
330
455
100
AcDbEntity
  8
Sichtbar (ISO)
100
AcDbVertex
100
AcDb2dVertex
 10
731.9915602830145
 20
1100.864735634892
 30
0.0
  0
VERTEX
  5
46E
330
455
100
AcDbEntity
  8
Sichtbar (ISO)
100
AcDbVertex
100
AcDb2dVertex
 10
732.0033702278167
 20
1100.861227041459
 30
0.0
  0
VERTEX
  5
46F
330
455
100
AcDbEntity
  8
Sichtbar (ISO)
100
AcDbVertex
100
AcDb2dVertex
 10
732.0128949743471
 20
1100.85826103369
 30
0.0
  0
SEQEND
  5
458
330
455
100
AcDbEntity
  8
Sichtbar (ISO)
  0
POLYLINE
  5
470
330
37
100
AcDbEntity
  8
Sichtbar (ISO)
100
AcDb2dPolyline
 66
     1
 10
0.0
 20
0.0
 30
0.0
 70
   128
  0
VERTEX
  5
471
330
470
100
AcDbEntity
  8
Sichtbar (ISO)
100
AcDbVertex
100
AcDb2dVertex
 10
731.4445893457823
 20
1100.699477340851
 30
0.0
  0
VERTEX
  5
472
330
470
100
AcDbEntity
  8
Sichtbar (ISO)
100
AcDbVertex
100
AcDb2dVertex
 10
731.4449112642511
 20
1100.701353535045
 30
0.0
  0
VERTEX
  5
474
330
470
100
AcDbEntity
  8
Sichtbar (ISO)
100
AcDbVertex
100
AcDb2dVertex
 10
731.4452665370081
 20
1100.703300963814
 30
0.0
  0
VERTEX
  5
475
330
470
100
AcDbEntity
  8
Sichtbar (ISO)
100
AcDbVertex
100
AcDb2dVertex
 10
731.445657599231
 20
1100.705317808653
 30
0.0
  0
VERTEX
  5
476
330
470
100
AcDbEntity
  8
Sichtbar (ISO)
100
AcDbVertex
100
AcDb2dVertex
 10
731.4460864202177
 20
1100.707401431826
 30
0.0
  0
VERTEX
  5
477
330
470
100
AcDbEntity
  8
Sichtbar (ISO)
100
AcDbVertex
100
AcDb2dVertex
 10
731.4465554351458
 20
1100.709550014827
 30
0.0
  0
VERTEX
  5
478
330
470
100
AcDbEntity
  8
Sichtbar (ISO)
100
AcDbVertex
100
AcDb2dVertex
 10
731.4470666133135
 20
1100.711760919922
 30
0.0
  0
VERTEX
  5
479
330
470
100
AcDbEntity
  8
Sichtbar (ISO)
100
AcDbVertex
100
AcDb2dVertex
 10
731.4476223898983
 20
1100.714032328605
 30
0.0
  0
VERTEX
  5
47A
330
470
100
AcDbEntity
  8
Sichtbar (ISO)
100
AcDbVertex
100
AcDb2dVertex
 10
731.4482235565577
 20
1100.716357339892
 30
0.0
  0
VERTEX
  5
47B
330
470
100
AcDbEntity
  8
Sichtbar (ISO)
100
AcDbVertex
100
AcDb2dVertex
 10
731.4488667277855
 20
1100.718714081633
 30
0.0
  0
VERTEX
  5
47C
330
470
100
AcDbEntity
  8
Sichtbar (ISO)
100
AcDbVertex
100
AcDb2dVertex
 10
731.4495525202532
 20
1100.721098300144
 30
0.0
  0
VERTEX
  5
47D
330
470
100
AcDbEntity
  8
Sichtbar (ISO)
100
AcDbVertex
100
AcDb2dVertex
 10
731.4502821065369
 20
1100.723508244438
 30
0.0
  0
VERTEX
  5
47E
330
470
100
AcDbEntity
  8
Sichtbar (ISO)
100
AcDbVertex
100
AcDb2dVertex
 10
731.4510565483695
 20
1100.725942063937
 30
0.0
  0
VERTEX
  5
47F
330
470
100
AcDbEntity
  8
Sichtbar (ISO)
100
AcDbVertex
100
AcDb2dVertex
 10
731.4518690466071
 20
1100.728375220061
 30
0.0
  0
VERTEX
  5
480
330
470
100
AcDbEntity
  8
Sichtbar (ISO)
100
AcDbVertex
100
AcDb2dVertex
 10
731.4527032802665
 20
1100.730760997122
 30
0.0
  0
VERTEX
  5
481
330
470
100
AcDbEntity
  8
Sichtbar (ISO)
100
AcDbVertex
100
AcDb2dVertex
 10
731.4535567882876
 20
1100.733096783268
 30
0.0
  0
VERTEX
  5
482
330
470
100
AcDbEntity
  8
Sichtbar (ISO)
100
AcDbVertex
100
AcDb2dVertex
 10
731.4544274438283
 20
1100.735382270161
 30
0.0
  0
VERTEX
  5
483
330
470
100
AcDbEntity
  8
Sichtbar (ISO)
100
AcDbVertex
100
AcDb2dVertex
 10
731.4553125641419
 20
1100.737614646772
 30
0.0
  0
VERTEX
  5
484
330
470
100
AcDbEntity
  8
Sichtbar (ISO)
100
AcDbVertex
100
AcDb2dVertex
 10
731.4562025874407
 20
1100.739776908492
 30
0.0
  0
VERTEX
  5
485
330
470
100
AcDbEntity
  8
Sichtbar (ISO)
100
AcDbVertex
100
AcDb2dVertex
 10
731.4570930349778
 20
1100.741864229977
 30
0.0
  0
VERTEX
  5
486
330
470
100
AcDbEntity
  8
Sichtbar (ISO)
100
AcDbVertex
100
AcDb2dVertex
 10
731.4579806056471
 20
1100.743876049136
 30
0.0
  0
VERTEX
  5
487
330
470
100
AcDbEntity
  8
Sichtbar (ISO)
100
AcDbVertex
100
AcDb2dVertex
 10
731.4588625300524
 20
1100.745811880957
 30
0.0
  0
VERTEX
  5
488
330
470
100
AcDbEntity
  8
Sichtbar (ISO)
100
AcDbVertex
100
AcDb2dVertex
 10
731.4597356179311
 20
1100.747671262938
 30
0.0
  0
VERTEX
  5
489
330
470
100
AcDbEntity
  8
Sichtbar (ISO)
100
AcDbVertex
100
AcDb2dVertex
 10
731.46059667902
 20
1100.749453732574
 30
0.0
  0
VERTEX
  5
48A
330
470
100
AcDbEntity
  8
Sichtbar (ISO)
100
AcDbVertex
100
AcDb2dVertex
 10
731.4614426338995
 20
1100.751158926953
 30
0.0
  0
SEQEND
  5
473
330
470
100
AcDbEntity
  8
Sichtbar (ISO)
  0
POLYLINE
  5
48B
330
37
100
AcDbEntity
  8
Sichtbar (ISO)
100
AcDb2dPolyline
 66
     1
 10
0.0
 20
0.0
 30
0.0
 70
   128
  0
VERTEX
  5
48C
330
48B
100
AcDbEntity
  8
Sichtbar (ISO)
100
AcDbVertex
100
AcDb2dVertex
 10
731.8268946736931
 20
1100.287878855202
 30
0.0
  0
VERTEX
  5
48D
330
48B
100
AcDbEntity
  8
Sichtbar (ISO)
100
AcDbVertex
100
AcDb2dVertex
 10
731.8185384540842
 20
1100.290677595779
 30
0.0
  0
VERTEX
  5
48F
330
48B
100
AcDbEntity
  8
Sichtbar (ISO)
100
AcDbVertex
100
AcDb2dVertex
 10
731.8082171051159
 20
1100.294224764856
 30
0.0
  0
VERTEX
  5
490
330
48B
100
AcDbEntity
  8
Sichtbar (ISO)
100
AcDbVertex
100
AcDb2dVertex
 10
731.7959992427691
 20
1100.29863930466
 30
0.0
  0
VERTEX
  5
491
330
48B
100
AcDbEntity
  8
Sichtbar (ISO)
100
AcDbVertex
100
AcDb2dVertex
 10
731.7819540372414
 20
1100.30404065537
 30
0.0
  0
VERTEX
  5
492
330
48B
100
AcDbEntity
  8
Sichtbar (ISO)
100
AcDbVertex
100
AcDb2dVertex
 10
731.7661502153571
 20
1100.310547858801
 30
0.0
  0
VERTEX
  5
493
330
48B
100
AcDbEntity
  8
Sichtbar (ISO)
100
AcDbVertex
100
AcDb2dVertex
 10
731.7486569248073
 20
1100.318279934265
 30
0.0
  0
VERTEX
  5
494
330
48B
100
AcDbEntity
  8
Sichtbar (ISO)
100
AcDbVertex
100
AcDb2dVertex
 10
731.72954320244
 20
1100.327355801482
 30
0.0
  0
VERTEX
  5
495
330
48B
100
AcDbEntity
  8
Sichtbar (ISO)
100
AcDbVertex
100
AcDb2dVertex
 10
731.7088779084289
 20
1100.337895022727
 30
0.0
  0
VERTEX
  5
496
330
48B
100
AcDbEntity
  8
Sichtbar (ISO)
100
AcDbVertex
100
AcDb2dVertex
 10
731.6867299687787
 20
1100.350016418129
 30
0.0
  0
VERTEX
  5
497
330
48B
100
AcDbEntity
  8
Sichtbar (ISO)
100
AcDbVertex
100
AcDb2dVertex
 10
731.6635503825823
 20
1100.363730163306
 30
0.0
  0
VERTEX
  5
498
330
48B
100
AcDbEntity
  8
Sichtbar (ISO)
100
AcDbVertex
100
AcDb2dVertex
 10
731.6402664985048
 20
1100.378830184653
 30
0.0
  0
VERTEX
  5
499
330
48B
100
AcDbEntity
  8
Sichtbar (ISO)
100
AcDbVertex
100
AcDb2dVertex
 10
731.6171461506517
 20
1100.395232201259
 30
0.0
  0
VERTEX
  5
49A
330
48B
100
AcDbEntity
  8
Sichtbar (ISO)
100
AcDbVertex
100
AcDb2dVertex
 10
731.5944365315083
 20
1100.412856623643
 30
0.0
  0
VERTEX
  5
49B
330
48B
100
AcDbEntity
  8
Sichtbar (ISO)
100
AcDbVertex
100
AcDb2dVertex
 10
731.5723849669097
 20
1100.431624382781
 30
0.0
  0
VERTEX
  5
49C
330
48B
100
AcDbEntity
  8
Sichtbar (ISO)
100
AcDbVertex
100
AcDb2dVertex
 10
731.5512388485217
 20
1100.451455667507
 30
0.0
  0
VERTEX
  5
49D
330
48B
100
AcDbEntity
  8
Sichtbar (ISO)
100
AcDbVertex
100
AcDb2dVertex
 10
731.5312458122031
 20
1100.4722712867
 30
0.0
  0
VERTEX
  5
49E
330
48B
100
AcDbEntity
  8
Sichtbar (ISO)
100
AcDbVertex
100
AcDb2dVertex
 10
731.5126528512587
 20
1100.493991872566
 30
0.0
  0
VERTEX
  5
49F
330
48B
100
AcDbEntity
  8
Sichtbar (ISO)
100
AcDbVertex
100
AcDb2dVertex
 10
731.4957073798609
 20
1100.516538034806
 30
0.0
  0
VERTEX
  5
4A0
330
48B
100
AcDbEntity
  8
Sichtbar (ISO)
100
AcDbVertex
100
AcDb2dVertex
 10
731.480657011362
 20
1100.539830161432
 30
0.0
  0
VERTEX
  5
4A1
330
48B
100
AcDbEntity
  8
Sichtbar (ISO)
100
AcDbVertex
100
AcDb2dVertex
 10
731.4677491599341
 20
1100.563788862145
 30
0.0
  0
VERTEX
  5
4A2
330
48B
100
AcDbEntity
  8
Sichtbar (ISO)
100
AcDbVertex
100
AcDb2dVertex
 10
731.457231040569
 20
1100.58833496833
 30
0.0
  0
VERTEX
  5
4A3
330
48B
100
AcDbEntity
  8
Sichtbar (ISO)
100
AcDbVertex
100
AcDb2dVertex
 10
731.4487617943343
 20
1100.615537654749
 30
0.0
  0
VERTEX
  5
4A4
330
48B
100
AcDbEntity
  8
Sichtbar (ISO)
100
AcDbVertex
100
AcDb2dVertex
 10
731.4428659097598
 20
1100.650129831215
 30
0.0
  0
VERTEX
  5
4A5
330
48B
100
AcDbEntity
  8
Sichtbar (ISO)
100
AcDbVertex
100
AcDb2dVertex
 10
731.4445893457823
 20
1100.699477340851
 30
0.0
  0
SEQEND
  5
48E
330
48B
100
AcDbEntity
  8
Sichtbar (ISO)
  0
ARC
  5
4A6
330
37
100
AcDbEntity
  8
Sichtbar (ISO)
100
AcDbCircle
 10
727.1748233607148
 20
1102.120427369261
 30
0.0
 40
5.000000000000098
100
AcDbArc
 50
308.4994787745597
 51
315.3784544809949
  0
POLYLINE
  5
4A7
330
37
100
AcDbEntity
  8
Sichtbar (ISO)
100
AcDb2dPolyline
 66
     1
 10
0.0
 20
0.0
 30
0.0
 70
   128
  0
VERTEX
  5
4A8
330
4A7
100
AcDbEntity
  8
Sichtbar (ISO)
100
AcDbVertex
100
AcDb2dVertex
 10
730.2025102844268
 20
1098.791296555932
 30
0.0
  0
VERTEX
  5
4A9
330
4A7
100
AcDbEntity
  8
Sichtbar (ISO)
100
AcDbVertex
100
AcDb2dVertex
 10
730.2492690037071
 20
1098.813624465846
 30
0.0
  0
VERTEX
  5
4AB
330
4A7
100
AcDbEntity
  8
Sichtbar (ISO)
100
AcDbVertex
100
AcDb2dVertex
 10
730.2845801458642
 20
1098.822058374173
 30
0.0
  0
VERTEX
  5
4AC
330
4A7
100
AcDbEntity
  8
Sichtbar (ISO)
100
AcDbVertex
100
AcDb2dVertex
 10
730.3142903625613
 20
1098.824993627885
 30
0.0
  0
VERTEX
  5
4AD
330
4A7
100
AcDbEntity
  8
Sichtbar (ISO)
100
AcDbVertex
100
AcDb2dVertex
 10
730.3399895858955
 20
1098.824959318366
 30
0.0
  0
VERTEX
  5
4AE
330
4A7
100
AcDbEntity
  8
Sichtbar (ISO)
100
AcDbVertex
100
AcDb2dVertex
 10
730.3661709536206
 20
1098.822744792248
 30
0.0
  0
VERTEX
  5
4AF
330
4A7
100
AcDbEntity
  8
Sichtbar (ISO)
100
AcDbVertex
100
AcDb2dVertex
 10
730.3926866016985
 20
1098.818488033617
 30
0.0
  0
VERTEX
  5
4B0
330
4A7
100
AcDbEntity
  8
Sichtbar (ISO)
100
AcDbVertex
100
AcDb2dVertex
 10
730.4193676453105
 20
1098.812325367639
 30
0.0
  0
VERTEX
  5
4B1
330
4A7
100
AcDbEntity
  8
Sichtbar (ISO)
100
AcDbVertex
100
AcDb2dVertex
 10
730.446044546675
 20
1098.804393734746
 30
0.0
  0
VERTEX
  5
4B2
330
4A7
100
AcDbEntity
  8
Sichtbar (ISO)
100
AcDbVertex
100
AcDb2dVertex
 10
730.4725480364677
 20
1098.794829915925
 30
0.0
  0
VERTEX
  5
4B3
330
4A7
100
AcDbEntity
  8
Sichtbar (ISO)
100
AcDbVertex
100
AcDb2dVertex
 10
730.4987089891231
 20
1098.783770420683
 30
0.0
  0
VERTEX
  5
4B4
330
4A7
100
AcDbEntity
  8
Sichtbar (ISO)
100
AcDbVertex
100
AcDb2dVertex
 10
730.5243214951206
 20
1098.771377203266
 30
0.0
  0
VERTEX
  5
4B5
330
4A7
100
AcDbEntity
  8
Sichtbar (ISO)
100
AcDbVertex
100
AcDb2dVertex
 10
730.5488467507213
 20
1098.758087245477
 30
0.0
  0
VERTEX
  5
4B6
330
4A7
100
AcDbEntity
  8
Sichtbar (ISO)
100
AcDbVertex
100
AcDb2dVertex
 10
730.5721195536325
 20
1098.744178003287
 30
0.0
  0
VERTEX
  5
4B7
330
4A7
100
AcDbEntity
  8
Sichtbar (ISO)
100
AcDbVertex
100
AcDb2dVertex
 10
730.5940989575871
 20
1098.729851872931
 30
0.0
  0
VERTEX
  5
4B8
330
4A7
100
AcDbEntity
  8
Sichtbar (ISO)
100
AcDbVertex
100
AcDb2dVertex
 10
730.6147430342713
 20
1098.715312371527
 30
0.0
  0
VERTEX
  5
4B9
330
4A7
100
AcDbEntity
  8
Sichtbar (ISO)
100
AcDbVertex
100
AcDb2dVertex
 10
730.634010865129
 20
1098.700761920208
 30
0.0
  0
VERTEX
  5
4BA
330
4A7
100
AcDbEntity
  8
Sichtbar (ISO)
100
AcDbVertex
100
AcDb2dVertex
 10
730.6518609063516
 20
1098.686403580269
 30
0.0
  0
VERTEX
  5
4BB
330
4A7
100
AcDbEntity
  8
Sichtbar (ISO)
100
AcDbVertex
100
AcDb2dVertex
 10
730.668251641842
 20
1098.672440437904
 30
0.0
  0
VERTEX
  5
4BC
330
4A7
100
AcDbEntity
  8
Sichtbar (ISO)
100
AcDbVertex
100
AcDb2dVertex
 10
730.6831415277915
 20
1098.659075554408
 30
0.0
  0
VERTEX
  5
4BD
330
4A7
100
AcDbEntity
  8
Sichtbar (ISO)
100
AcDbVertex
100
AcDb2dVertex
 10
730.6964896456442
 20
1098.646511350914
 30
0.0
  0
VERTEX
  5
4BE
330
4A7
100
AcDbEntity
  8
Sichtbar (ISO)
100
AcDbVertex
100
AcDb2dVertex
 10
730.7082542662664
 20
1098.634951122852
 30
0.0
  0
VERTEX
  5
4BF
330
4A7
100
AcDbEntity
  8
Sichtbar (ISO)
100
AcDbVertex
100
AcDb2dVertex
 10
730.7183938597055
 20
1098.624597943968
 30
0.0
  0
VERTEX
  5
4C0
330
4A7
100
AcDbEntity
  8
Sichtbar (ISO)
100
AcDbVertex
100
AcDb2dVertex
 10
730.7268672943693
 20
1098.615654444632
 30
0.0
  0
VERTEX
  5
4C1
330
4A7
100
AcDbEntity
  8
Sichtbar (ISO)
100
AcDbVertex
100
AcDb2dVertex
 10
730.7336330541603
 20
1098.608323711038
 30
0.0
  0
SEQEND
  5
4AA
330
4A7
100
AcDbEntity
  8
Sichtbar (ISO)
  0
POLYLINE
  5
4C2
330
37
100
AcDbEntity
  8
Sichtbar (ISO)
100
AcDb2dPolyline
 66
     1
 10
0.0
 20
0.0
 30
0.0
 70
   128
  0
VERTEX
  5
4C3
330
4C2
100
AcDbEntity
  8
Sichtbar (ISO)
100
AcDbVertex
100
AcDb2dVertex
 10
730.1620741667257
 20
1098.754965632402
 30
0.0
  0
VERTEX
  5
4C4
330
4C2
100
AcDbEntity
  8
Sichtbar (ISO)
100
AcDbVertex
100
AcDb2dVertex
 10
730.1632926579108
 20
1098.756431416731
 30
0.0
  0
VERTEX
  5
4C6
330
4C2
100
AcDbEntity
  8
Sichtbar (ISO)
100
AcDbVertex
100
AcDb2dVertex
 10
730.1645758004968
 20
1098.757942468196
 30
0.0
  0
VERTEX
  5
4C7
330
4C2
100
AcDbEntity
  8
Sichtbar (ISO)
100
AcDbVertex
100
AcDb2dVertex
 10
730.1659247393845
 20
1098.759495408359
 30
0.0
  0
VERTEX
  5
4C8
330
4C2
100
AcDbEntity
  8
Sichtbar (ISO)
100
AcDbVertex
100
AcDb2dVertex
 10
730.1673400132732
 20
1098.761087516065
 30
0.0
  0
VERTEX
  5
4C9
330
4C2
100
AcDbEntity
  8
Sichtbar (ISO)
100
AcDbVertex
100
AcDb2dVertex
 10
730.1688223669707
 20
1098.762715854694
 30
0.0
  0
VERTEX
  5
4CA
330
4C2
100
AcDbEntity
  8
Sichtbar (ISO)
100
AcDbVertex
100
AcDb2dVertex
 10
730.1703729410476
 20
1098.764377041919
 30
0.0
  0
VERTEX
  5
4CB
330
4C2
100
AcDbEntity
  8
Sichtbar (ISO)
100
AcDbVertex
100
AcDb2dVertex
 10
730.1719922768016
 20
1098.766068358918
 30
0.0
  0
VERTEX
  5
4CC
330
4C2
100
AcDbEntity
  8
Sichtbar (ISO)
100
AcDbVertex
100
AcDb2dVertex
 10
730.1736733747439
 20
1098.767779109707
 30
0.0
  0
VERTEX
  5
4CD
330
4C2
100
AcDbEntity
  8
Sichtbar (ISO)
100
AcDbVertex
100
AcDb2dVertex
 10
730.1754085859136
 20
1098.769498014767
 30
0.0
  0
VERTEX
  5
4CE
330
4C2
100
AcDbEntity
  8
Sichtbar (ISO)
100
AcDbVertex
100
AcDb2dVertex
 10
730.1771981233902
 20
1098.771222861671
 30
0.0
  0
VERTEX
  5
4CF
330
4C2
100
AcDbEntity
  8
Sichtbar (ISO)
100
AcDbVertex
100
AcDb2dVertex
 10
730.1790422028513
 20
1098.772951440326
 30
0.0
  0
VERTEX
  5
4D0
330
4C2
100
AcDbEntity
  8
Sichtbar (ISO)
100
AcDbVertex
100
AcDb2dVertex
 10
730.1809402906233
 20
1098.774680867363
 30
0.0
  0
VERTEX
  5
4D1
330
4C2
100
AcDbEntity
  8
Sichtbar (ISO)
100
AcDbVertex
100
AcDb2dVertex
 10
730.1828567246346
 20
1098.776377498647
 30
0.0
  0
VERTEX
  5
4D2
330
4C2
100
AcDbEntity
  8
Sichtbar (ISO)
100
AcDbVertex
100
AcDb2dVertex
 10
730.1847701107623
 20
1098.778024115278
 30
0.0
  0
VERTEX
  5
4D3
330
4C2
100
AcDbEntity
  8
Sichtbar (ISO)
100
AcDbVertex
100
AcDb2dVertex
 10
730.1866787125738
 20
1098.779620759696
 30
0.0
  0
VERTEX
  5
4D4
330
4C2
100
AcDbEntity
  8
Sichtbar (ISO)
100
AcDbVertex
100
AcDb2dVertex
 10
730.1885803932509
 20
1098.78116791589
 30
0.0
  0
VERTEX
  5
4D5
330
4C2
100
AcDbEntity
  8
Sichtbar (ISO)
100
AcDbVertex
100
AcDb2dVertex
 10
730.1904666753718
 20
1098.782661172261
 30
0.0
  0
VERTEX
  5
4D6
330
4C2
100
AcDbEntity
  8
Sichtbar (ISO)
100
AcDbVertex
100
AcDb2dVertex
 10
730.192316799957
 20
1098.784086284442
 30
0.0
  0
VERTEX
  5
4D7
330
4C2
100
AcDbEntity
  8
Sichtbar (ISO)
100
AcDbVertex
100
AcDb2dVertex
 10
730.1941259911115
 20
1098.785443769153
 30
0.0
  0
VERTEX
  5
4D8
330
4C2
100
AcDbEntity
  8
Sichtbar (ISO)
100
AcDbVertex
100
AcDb2dVertex
 10
730.1958910178369
 20
1098.786734729873
 30
0.0
  0
VERTEX
  5
4D9
330
4C2
100
AcDbEntity
  8
Sichtbar (ISO)
100
AcDbVertex
100
AcDb2dVertex
 10
730.1976129590627
 20
1098.787962940515
 30
0.0
  0
VERTEX
  5
4DA
330
4C2
100
AcDbEntity
  8
Sichtbar (ISO)
100
AcDbVertex
100
AcDb2dVertex
 10
730.1992918276995
 20
1098.789132018491
 30
0.0
  0
VERTEX
  5
4DB
330
4C2
100
AcDbEntity
  8
Sichtbar (ISO)
100
AcDbVertex
100
AcDb2dVertex
 10
730.2009251071864
 20
1098.790242907894
 30
0.0
  0
VERTEX
  5
4DC
330
4C2
100
AcDbEntity
  8
Sichtbar (ISO)
100
AcDbVertex
100
AcDb2dVertex
 10
730.2025102844268
 20
1098.791296555932
 30
0.0
  0
SEQEND
  5
4C5
330
4C2
100
AcDbEntity
  8
Sichtbar (ISO)
  0
POLYLINE
  5
4DD
330
37
100
AcDbEntity
  8
Sichtbar (ISO)
100
AcDb2dPolyline
 66
     1
 10
0.0
 20
0.0
 30
0.0
 70
   128
  0
VERTEX
  5
4DE
330
4DD
100
AcDbEntity
  8
Sichtbar (ISO)
100
AcDbVertex
100
AcDb2dVertex
 10
730.2873608465528
 20
1098.20735837683
 30
0.0
  0
VERTEX
  5
4DF
330
4DD
100
AcDbEntity
  8
Sichtbar (ISO)
100
AcDbVertex
100
AcDb2dVertex
 10
730.2815238584233
 20
1098.213959870057
 30
0.0
  0
VERTEX
  5
4E1
330
4DD
100
AcDbEntity
  8
Sichtbar (ISO)
100
AcDbVertex
100
AcDb2dVertex
 10
730.2743587006931
 20
1098.222192585966
 30
0.0
  0
VERTEX
  5
4E2
330
4DD
100
AcDbEntity
  8
Sichtbar (ISO)
100
AcDbVertex
100
AcDb2dVertex
 10
730.2659850538734
 20
1098.232124791466
 30
0.0
  0
VERTEX
  5
4E3
330
4DD
100
AcDbEntity
  8
Sichtbar (ISO)
100
AcDbVertex
100
AcDb2dVertex
 10
730.2565221446927
 20
1098.243825147042
 30
0.0
  0
VERTEX
  5
4E4
330
4DD
100
AcDbEntity
  8
Sichtbar (ISO)
100
AcDbVertex
100
AcDb2dVertex
 10
730.2460892553015
 20
1098.257362362977
 30
0.0
  0
VERTEX
  5
4E5
330
4DD
100
AcDbEntity
  8
Sichtbar (ISO)
100
AcDbVertex
100
AcDb2dVertex
 10
730.2348056539942
 20
1098.272805137103
 30
0.0
  0
VERTEX
  5
4E6
330
4DD
100
AcDbEntity
  8
Sichtbar (ISO)
100
AcDbVertex
100
AcDb2dVertex
 10
730.2227905952105
 20
1098.290222154802
 30
0.0
  0
VERTEX
  5
4E7
330
4DD
100
AcDbEntity
  8
Sichtbar (ISO)
100
AcDbVertex
100
AcDb2dVertex
 10
730.2101635325701
 20
1098.309681879773
 30
0.0
  0
VERTEX
  5
4E8
330
4DD
100
AcDbEntity
  8
Sichtbar (ISO)
100
AcDbVertex
100
AcDb2dVertex
 10
730.197043734368
 20
1098.331253009848
 30
0.0
  0
VERTEX
  5
4E9
330
4DD
100
AcDbEntity
  8
Sichtbar (ISO)
100
AcDbVertex
100
AcDb2dVertex
 10
730.1838262363092
 20
1098.354719555336
 30
0.0
  0
VERTEX
  5
4EA
330
4DD
100
AcDbEntity
  8
Sichtbar (ISO)
100
AcDbVertex
100
AcDb2dVertex
 10
730.1712119339935
 20
1098.37943840328
 30
0.0
  0
VERTEX
  5
4EB
330
4DD
100
AcDbEntity
  8
Sichtbar (ISO)
100
AcDbVertex
100
AcDb2dVertex
 10
730.1593901353342
 20
1098.405203035481
 30
0.0
  0
VERTEX
  5
4EC
330
4DD
100
AcDbEntity
  8
Sichtbar (ISO)
100
AcDbVertex
100
AcDb2dVertex
 10
730.1485352270839
 20
1098.43182117198
 30
0.0
  0
VERTEX
  5
4ED
330
4DD
100
AcDbEntity
  8
Sichtbar (ISO)
100
AcDbVertex
100
AcDb2dVertex
 10
730.1388219805009
 20
1098.459100076996
 30
0.0
  0
VERTEX
  5
4EE
330
4DD
100
AcDbEntity
  8
Sichtbar (ISO)
100
AcDbVertex
100
AcDb2dVertex
 10
730.130424555447
 20
1098.48684766736
 30
0.0
  0
VERTEX
  5
4EF
330
4DD
100
AcDbEntity
  8
Sichtbar (ISO)
100
AcDbVertex
100
AcDb2dVertex
 10
730.1235177370357
 20
1098.514871219738
 30
0.0
  0
VERTEX
  5
4F0
330
4DD
100
AcDbEntity
  8
Sichtbar (ISO)
100
AcDbVertex
100
AcDb2dVertex
 10
730.1182761112005
 20
1098.542978232484
 30
0.0
  0
VERTEX
  5
4F1
330
4DD
100
AcDbEntity
  8
Sichtbar (ISO)
100
AcDbVertex
100
AcDb2dVertex
 10
730.114874023128
 20
1098.570976388294
 30
0.0
  0
VERTEX
  5
4F2
330
4DD
100
AcDbEntity
  8
Sichtbar (ISO)
100
AcDbVertex
100
AcDb2dVertex
 10
730.1134860864622
 20
1098.598673210418
 30
0.0
  0
VERTEX
  5
4F3
330
4DD
100
AcDbEntity
  8
Sichtbar (ISO)
100
AcDbVertex
100
AcDb2dVertex
 10
730.1142868386424
 20
1098.62587615364
 30
0.0
  0
VERTEX
  5
4F4
330
4DD
100
AcDbEntity
  8
Sichtbar (ISO)
100
AcDbVertex
100
AcDb2dVertex
 10
730.117450865602
 20
1098.652392716314
 30
0.0
  0
VERTEX
  5
4F5
330
4DD
100
AcDbEntity
  8
Sichtbar (ISO)
100
AcDbVertex
100
AcDb2dVertex
 10
730.1237176304008
 20
1098.680185381274
 30
0.0
  0
VERTEX
  5
4F6
330
4DD
100
AcDbEntity
  8
Sichtbar (ISO)
100
AcDbVertex
100
AcDb2dVertex
 10
730.1359078930754
 20
1098.713091036015
 30
0.0
  0
VERTEX
  5
4F7
330
4DD
100
AcDbEntity
  8
Sichtbar (ISO)
100
AcDbVertex
100
AcDb2dVertex
 10
730.1620741667257
 20
1098.754965632402
 30
0.0
  0
SEQEND
  5
4E0
330
4DD
100
AcDbEntity
  8
Sichtbar (ISO)
  0
ARC
  5
4F8
330
37
100
AcDbEntity
  8
Sichtbar (ISO)
100
AcDbCircle
 10
727.174823360715
 20
1102.12042736926
 30
0.0
 40
4.999999999999959
100
AcDbArc
 50
278.4994787745608
 51
285.3784544809954
  0
POLYLINE
  5
4F9
330
37
100
AcDbEntity
  8
Sichtbar (ISO)
100
AcDb2dPolyline
 66
     1
 10
0.0
 20
0.0
 30
0.0
 70
   128
  0
VERTEX
  5
4FA
330
4F9
100
AcDbEntity
  8
Sichtbar (ISO)
100
AcDbVertex
100
AcDb2dVertex
 10
728.1323118127905
 20
1097.723472011899
 30
0.0
  0
VERTEX
  5
4FB
330
4F9
100
AcDbEntity
  8
Sichtbar (ISO)
100
AcDbVertex
100
AcDb2dVertex
 10
728.183970005555
 20
1097.719429187036
 30
0.0
  0
VERTEX
  5
4FD
330
4F9
100
AcDbEntity
  8
Sichtbar (ISO)
100
AcDbVertex
100
AcDb2dVertex
 10
728.2187671956336
 20
1097.709077787563
 30
0.0
  0
VERTEX
  5
4FE
330
4F9
100
AcDbEntity
  8
Sichtbar (ISO)
100
AcDbVertex
100
AcDb2dVertex
 10
728.2459647650836
 20
1097.696764546761
 30
0.0
  0
VERTEX
  5
4FF
330
4F9
100
AcDbEntity
  8
Sichtbar (ISO)
100
AcDbVertex
100
AcDb2dVertex
 10
728.2682036423728
 20
1097.683885103235
 30
0.0
  0
VERTEX
  5
500
330
4F9
100
AcDbEntity
  8
Sichtbar (ISO)
100
AcDbVertex
100
AcDb2dVertex
 10
728.2897701668262
 20
1097.668876708373
 30
0.0
  0
VERTEX
  5
501
330
4F9
100
AcDbEntity
  8
Sichtbar (ISO)
100
AcDbVertex
100
AcDb2dVertex
 10
728.3106050231959
 20
1097.651932465925
 30
0.0
  0
VERTEX
  5
502
330
4F9
100
AcDbEntity
  8
Sichtbar (ISO)
100
AcDbVertex
100
AcDb2dVertex
 10
728.3306299864716
 20
1097.633254932276
 30
0.0
  0
VERTEX
  5
503
330
4F9
100
AcDbEntity
  8
Sichtbar (ISO)
100
AcDbVertex
100
AcDb2dVertex
 10
728.3497671866797
 20
1097.613047383447
 30
0.0
  0
VERTEX
  5
504
330
4F9
100
AcDbEntity
  8
Sichtbar (ISO)
100
AcDbVertex
100
AcDb2dVertex
 10
728.3679379121118
 20
1097.591513140473
 30
0.0
  0
VERTEX
  5
505
330
4F9
100
AcDbEntity
  8
Sichtbar (ISO)
100
AcDbVertex
100
AcDb2dVertex
 10
728.3850643586248
 20
1097.568854737231
 30
0.0
  0
VERTEX
  5
506
330
4F9
100
AcDbEntity
  8
Sichtbar (ISO)
100
AcDbVertex
100
AcDb2dVertex
 10
728.401048753395
 20
1097.545315661124
 30
0.0
  0
VERTEX
  5
507
330
4F9
100
AcDbEntity
  8
Sichtbar (ISO)
100
AcDbVertex
100
AcDb2dVertex
 10
728.4156432749226
 20
1097.521543853451
 30
0.0
  0
VERTEX
  5
508
330
4F9
100
AcDbEntity
  8
Sichtbar (ISO)
100
AcDbVertex
100
AcDb2dVertex
 10
728.4288435204392
 20
1097.497861484071
 30
0.0
  0
VERTEX
  5
509
330
4F9
100
AcDbEntity
  8
Sichtbar (ISO)
100
AcDbVertex
100
AcDb2dVertex
 10
728.4407149814987
 20
1097.474465217782
 30
0.0
  0
VERTEX
  5
50A
330
4F9
100
AcDbEntity
  8
Sichtbar (ISO)
100
AcDbVertex
100
AcDb2dVertex
 10
728.4513236588589
 20
1097.451551375598
 30
0.0
  0
VERTEX
  5
50B
330
4F9
100
AcDbEntity
  8
Sichtbar (ISO)
100
AcDbVertex
100
AcDb2dVertex
 10
728.4607348223864
 20
1097.429316423137
 30
0.0
  0
VERTEX
  5
50C
330
4F9
100
AcDbEntity
  8
Sichtbar (ISO)
100
AcDbVertex
100
AcDb2dVertex
 10
728.4690142736583
 20
1097.407956903099
 30
0.0
  0
VERTEX
  5
50D
330
4F9
100
AcDbEntity
  8
Sichtbar (ISO)
100
AcDbVertex
100
AcDb2dVertex
 10
728.476227481722
 20
1097.387669059415
 30
0.0
  0
VERTEX
  5
50E
330
4F9
100
AcDbEntity
  8
Sichtbar (ISO)
100
AcDbVertex
100
AcDb2dVertex
 10
728.4824400489744
 20
1097.368649656472
 30
0.0
  0
VERTEX
  5
50F
330
4F9
100
AcDbEntity
  8
Sichtbar (ISO)
100
AcDbVertex
100
AcDb2dVertex
 10
728.4877177544863
 20
1097.351094816105
 30
0.0
  0
VERTEX
  5
510
330
4F9
100
AcDbEntity
  8
Sichtbar (ISO)
100
AcDbVertex
100
AcDb2dVertex
 10
728.4921260898114
 20
1097.335201203111
 30
0.0
  0
VERTEX
  5
511
330
4F9
100
AcDbEntity
  8
Sichtbar (ISO)
100
AcDbVertex
100
AcDb2dVertex
 10
728.4957308340205
 20
1097.321164939323
 30
0.0
  0
VERTEX
  5
512
330
4F9
100
AcDbEntity
  8
Sichtbar (ISO)
100
AcDbVertex
100
AcDb2dVertex
 10
728.4985972794867
 20
1097.309182911226
 30
0.0
  0
VERTEX
  5
513
330
4F9
100
AcDbEntity
  8
Sichtbar (ISO)
100
AcDbVertex
100
AcDb2dVertex
 10
728.5007912052811
 20
1097.299451240655
 30
0.0
  0
SEQEND
  5
4FC
330
4F9
100
AcDbEntity
  8
Sichtbar (ISO)
  0
POLYLINE
  5
514
330
37
100
AcDbEntity
  8
Sichtbar (ISO)
100
AcDb2dPolyline
 66
     1
 10
0.0
 20
0.0
 30
0.0
 70
   128
  0
VERTEX
  5
515
330
514
100
AcDbEntity
  8
Sichtbar (ISO)
100
AcDbVertex
100
AcDb2dVertex
 10
728.0791276167047
 20
1097.712226526179
 30
0.0
  0
VERTEX
  5
516
330
514
100
AcDbEntity
  8
Sichtbar (ISO)
100
AcDbVertex
100
AcDb2dVertex
 10
728.0809134156749
 20
1097.712885902221
 30
0.0
  0
VERTEX
  5
518
330
514
100
AcDbEntity
  8
Sichtbar (ISO)
100
AcDbVertex
100
AcDb2dVertex
 10
728.0827775493864
 20
1097.713551957555
 30
0.0
  0
VERTEX
  5
519
330
514
100
AcDbEntity
  8
Sichtbar (ISO)
100
AcDbVertex
100
AcDb2dVertex
 10
728.0847197494519
 20
1097.714221646521
 30
0.0
  0
VERTEX
  5
51A
330
514
100
AcDbEntity
  8
Sichtbar (ISO)
100
AcDbVertex
100
AcDb2dVertex
 10
728.0867385957261
 20
1097.714892090567
 30
0.0
  0
VERTEX
  5
51B
330
514
100
AcDbEntity
  8
Sichtbar (ISO)
100
AcDbVertex
100
AcDb2dVertex
 10
728.088833708978
 20
1097.715560144443
 30
0.0
  0
VERTEX
  5
51C
330
514
100
AcDbEntity
  8
Sichtbar (ISO)
100
AcDbVertex
100
AcDb2dVertex
 10
728.0910040899293
 20
1097.716222907092
 30
0.0
  0
VERTEX
  5
51D
330
514
100
AcDbEntity
  8
Sichtbar (ISO)
100
AcDbVertex
100
AcDb2dVertex
 10
728.0932490493256
 20
1097.716877355359
 30
0.0
  0
VERTEX
  5
51E
330
514
100
AcDbEntity
  8
Sichtbar (ISO)
100
AcDbVertex
100
AcDb2dVertex
 10
728.0955630900115
 20
1097.717519351469
 30
0.0
  0
VERTEX
  5
51F
330
514
100
AcDbEntity
  8
Sichtbar (ISO)
100
AcDbVertex
100
AcDb2dVertex
 10
728.0979258252496
 20
1097.718140594549
 30
0.0
  0
VERTEX
  5
520
330
514
100
AcDbEntity
  8
Sichtbar (ISO)
100
AcDbVertex
100
AcDb2dVertex
 10
728.1003333321979
 20
1097.718738761954
 30
0.0
  0
VERTEX
  5
521
330
514
100
AcDbEntity
  8
Sichtbar (ISO)
100
AcDbVertex
100
AcDb2dVertex
 10
728.1027851883011
 20
1097.719311871443
 30
0.0
  0
VERTEX
  5
522
330
514
100
AcDbEntity
  8
Sichtbar (ISO)
100
AcDbVertex
100
AcDb2dVertex
 10
728.1052803509565
 20
1097.719858184972
 30
0.0
  0
VERTEX
  5
523
330
514
100
AcDbEntity
  8
Sichtbar (ISO)
100
AcDbVertex
100
AcDb2dVertex
 10
728.10779378307
 20
1097.720371233116
 30
0.0
  0
VERTEX
  5
524
330
514
100
AcDbEntity
  8
Sichtbar (ISO)
100
AcDbVertex
100
AcDb2dVertex
 10
728.1102768531048
 20
1097.720841376444
 30
0.0
  0
VERTEX
  5
525
330
514
100
AcDbEntity
  8
Sichtbar (ISO)
100
AcDbVertex
100
AcDb2dVertex
 10
728.1127264833294
 20
1097.72127025679
 30
0.0
  0
VERTEX
  5
526
330
514
100
AcDbEntity
  8
Sichtbar (ISO)
100
AcDbVertex
100
AcDb2dVertex
 10
728.1151411461315
 20
1097.721658905502
 30
0.0
  0
VERTEX
  5
527
330
514
100
AcDbEntity
  8
Sichtbar (ISO)
100
AcDbVertex
100
AcDb2dVertex
 10
728.1175170103819
 20
1097.722008688149
 30
0.0
  0
VERTEX
  5
528
330
514
100
AcDbEntity
  8
Sichtbar (ISO)
100
AcDbVertex
100
AcDb2dVertex
 10
728.1198346261671
 20
1097.722318956551
 30
0.0
  0
VERTEX
  5
529
330
514
100
AcDbEntity
  8
Sichtbar (ISO)
100
AcDbVertex
100
AcDb2dVertex
 10
728.1220874379753
 20
1097.722591433001
 30
0.0
  0
VERTEX
  5
52A
330
514
100
AcDbEntity
  8
Sichtbar (ISO)
100
AcDbVertex
100
AcDb2dVertex
 10
728.1242736756886
 20
1097.722828533546
 30
0.0
  0
VERTEX
  5
52B
330
514
100
AcDbEntity
  8
Sichtbar (ISO)
100
AcDbVertex
100
AcDb2dVertex
 10
728.126390949142
 20
1097.723032918427
 30
0.0
  0
VERTEX
  5
52C
330
514
100
AcDbEntity
  8
Sichtbar (ISO)
100
AcDbVertex
100
AcDb2dVertex
 10
728.1284377757357
 20
1097.723206460728
 30
0.0
  0
VERTEX
  5
52D
330
514
100
AcDbEntity
  8
Sichtbar (ISO)
100
AcDbVertex
100
AcDb2dVertex
 10
728.1304120978343
 20
1097.72335211946
 30
0.0
  0
VERTEX
  5
52E
330
514
100
AcDbEntity
  8
Sichtbar (ISO)
100
AcDbVertex
100
AcDb2dVertex
 10
728.1323118127905
 20
1097.723472011899
 30
0.0
  0
SEQEND
  5
517
330
514
100
AcDbEntity
  8
Sichtbar (ISO)
  0
POLYLINE
  5
52F
330
37
100
AcDbEntity
  8
Sichtbar (ISO)
100
AcDb2dPolyline
 66
     1
 10
0.0
 20
0.0
 30
0.0
 70
   128
  0
VERTEX
  5
530
330
52F
100
AcDbEntity
  8
Sichtbar (ISO)
100
AcDbVertex
100
AcDb2dVertex
 10
727.9138255704199
 20
1097.175341269774
 30
0.0
  0
VERTEX
  5
531
330
52F
100
AcDbEntity
  8
Sichtbar (ISO)
100
AcDbVertex
100
AcDb2dVertex
 10
727.9120713010549
 20
1097.183977158697
 30
0.0
  0
VERTEX
  5
533
330
52F
100
AcDbEntity
  8
Sichtbar (ISO)
100
AcDbVertex
100
AcDb2dVertex
 10
727.9099823591677
 20
1097.194689383312
 30
0.0
  0
VERTEX
  5
534
330
52F
100
AcDbEntity
  8
Sichtbar (ISO)
100
AcDbVertex
100
AcDb2dVertex
 10
727.9076967509202
 20
1097.207477738803
 30
0.0
  0
VERTEX
  5
535
330
52F
100
AcDbEntity
  8
Sichtbar (ISO)
100
AcDbVertex
100
AcDb2dVertex
 10
727.9053516407405
 20
1097.222342065367
 30
0.0
  0
VERTEX
  5
536
330
52F
100
AcDbEntity
  8
Sichtbar (ISO)
100
AcDbVertex
100
AcDb2dVertex
 10
727.9030852339714
 20
1097.239281936503
 30
0.0
  0
VERTEX
  5
537
330
52F
100
AcDbEntity
  8
Sichtbar (ISO)
100
AcDbVertex
100
AcDb2dVertex
 10
727.901034717547
 20
1097.258297613274
 30
0.0
  0
VERTEX
  5
538
330
52F
100
AcDbEntity
  8
Sichtbar (ISO)
100
AcDbVertex
100
AcDb2dVertex
 10
727.8993378759427
 20
1097.279388691685
 30
0.0
  0
VERTEX
  5
539
330
52F
100
AcDbEntity
  8
Sichtbar (ISO)
100
AcDbVertex
100
AcDb2dVertex
 10
727.8981322944537
 20
1097.302554989425
 30
0.0
  0
VERTEX
  5
53A
330
52F
100
AcDbEntity
  8
Sichtbar (ISO)
100
AcDbVertex
100
AcDb2dVertex
 10
727.8975557575556
 20
1097.327796102499
 30
0.0
  0
VERTEX
  5
53B
330
52F
100
AcDbEntity
  8
Sichtbar (ISO)
100
AcDbVertex
100
AcDb2dVertex
 10
727.8978423967668
 20
1097.354727033108
 30
0.0
  0
VERTEX
  5
53C
330
52F
100
AcDbEntity
  8
Sichtbar (ISO)
100
AcDbVertex
100
AcDb2dVertex
 10
727.8992776072167
 20
1097.382441528241
 30
0.0
  0
VERTEX
  5
53D
330
52F
100
AcDbEntity
  8
Sichtbar (ISO)
100
AcDbVertex
100
AcDb2dVertex
 10
727.9019218542181
 20
1097.410665385073
 30
0.0
  0
VERTEX
  5
53E
330
52F
100
AcDbEntity
  8
Sichtbar (ISO)
100
AcDbVertex
100
AcDb2dVertex
 10
727.9058301486919
 20
1097.439144740815
 30
0.0
  0
VERTEX
  5
53F
330
52F
100
AcDbEntity
  8
Sichtbar (ISO)
100
AcDbVertex
100
AcDb2dVertex
 10
727.9110579224256
 20
1097.467625710175
 30
0.0
  0
VERTEX
  5
540
330
52F
100
AcDbEntity
  8
Sichtbar (ISO)
100
AcDbVertex
100
AcDb2dVertex
 10
727.9176593446059
 20
1097.495854475376
 30
0.0
  0
VERTEX
  5
541
330
52F
100
AcDbEntity
  8
Sichtbar (ISO)
100
AcDbVertex
100
AcDb2dVertex
 10
727.9256896253341
 20
1097.523576951944
 30
0.0
  0
VERTEX
  5
542
330
52F
100
AcDbEntity
  8
Sichtbar (ISO)
100
AcDbVertex
100
AcDb2dVertex
 10
727.9352036646876
 20
1097.550539177501
 30
0.0
  0
VERTEX
  5
543
330
52F
100
AcDbEntity
  8
Sichtbar (ISO)
100
AcDbVertex
100
AcDb2dVertex
 10
727.9462564735869
 20
1097.576487289259
 30
0.0
  0
VERTEX
  5
544
330
52F
100
AcDbEntity
  8
Sichtbar (ISO)
100
AcDbVertex
100
AcDb2dVertex
 10
727.9589029521095
 20
1097.60116732484
 30
0.0
  0
VERTEX
  5
545
330
52F
100
AcDbEntity
  8
Sichtbar (ISO)
100
AcDbVertex
100
AcDb2dVertex
 10
727.9731976903091
 20
1097.624325443963
 30
0.0
  0
VERTEX
  5
546
330
52F
100
AcDbEntity
  8
Sichtbar (ISO)
100
AcDbVertex
100
AcDb2dVertex
 10
727.9891962083106
 20
1097.645707440056
 30
0.0
  0
VERTEX
  5
547
330
52F
100
AcDbEntity
  8
Sichtbar (ISO)
100
AcDbVertex
100
AcDb2dVertex
 10
728.008519882236
 20
1097.666643077641
 30
0.0
  0
VERTEX
  5
548
330
52F
100
AcDbEntity
  8
Sichtbar (ISO)
100
AcDbVertex
100
AcDb2dVertex
 10
728.0355295951878
 20
1097.68904527807
 30
0.0
  0
VERTEX
  5
549
330
52F
100
AcDbEntity
  8
Sichtbar (ISO)
100
AcDbVertex
100
AcDb2dVertex
 10
728.0791276167047
 20
1097.712226526179
 30
0.0
  0
SEQEND
  5
532
330
52F
100
AcDbEntity
  8
Sichtbar (ISO)
  0
ARC
  5
54A
330
37
100
AcDbEntity
  8
Sichtbar (ISO)
100
AcDbCircle
 10
727.174823360715
 20
1102.120427369261
 30
0.0
 40
5.000000000000095
100
AcDbArc
 50
248.4994787745604
 51
255.3784544809956
  0
POLYLINE
  5
54B
330
37
100
AcDbEntity
  8
Sichtbar (ISO)
100
AcDb2dPolyline
 66
     1
 10
0.0
 20
0.0
 30
0.0
 70
   128
  0
VERTEX
  5
54C
330
54B
100
AcDbEntity
  8
Sichtbar (ISO)
100
AcDbVertex
100
AcDb2dVertex
 10
725.8055549184058
 20
1097.833808096075
 30
0.0
  0
VERTEX
  5
54D
330
54B
100
AcDbEntity
  8
Sichtbar (ISO)
100
AcDbVertex
100
AcDb2dVertex
 10
725.8482709600365
 20
1097.804477945492
 30
0.0
  0
VERTEX
  5
54F
330
54B
100
AcDbEntity
  8
Sichtbar (ISO)
100
AcDbVertex
100
AcDb2dVertex
 10
725.8732304325401
 20
1097.778114420989
 30
0.0
  0
VERTEX
  5
550
330
54B
100
AcDbEntity
  8
Sichtbar (ISO)
100
AcDbVertex
100
AcDb2dVertex
 10
725.8906274543268
 20
1097.753852346807
 30
0.0
  0
VERTEX
  5
551
330
54B
100
AcDbEntity
  8
Sichtbar (ISO)
100
AcDbVertex
100
AcDb2dVertex
 10
725.9034473086168
 20
1097.731578826273
 30
0.0
  0
VERTEX
  5
552
330
54B
100
AcDbEntity
  8
Sichtbar (ISO)
100
AcDbVertex
100
AcDb2dVertex
 10
725.9146203732627
 20
1097.707798258813
 30
0.0
  0
VERTEX
  5
553
330
54B
100
AcDbEntity
  8
Sichtbar (ISO)
100
AcDbVertex
100
AcDb2dVertex
 10
725.9241916152303
 20
1097.682706296442
 30
0.0
  0
VERTEX
  5
554
330
54B
100
AcDbEntity
  8
Sichtbar (ISO)
100
AcDbVertex
100
AcDb2dVertex
 10
725.9321951529043
 20
1097.656518692086
 30
0.0
  0
VERTEX
  5
555
330
54B
100
AcDbEntity
  8
Sichtbar (ISO)
100
AcDbVertex
100
AcDb2dVertex
 10
725.9386646162835
 20
1097.629449958575
 30
0.0
  0
VERTEX
  5
556
330
54B
100
AcDbEntity
  8
Sichtbar (ISO)
100
AcDbVertex
100
AcDb2dVertex
 10
725.9436338795599
 20
1097.601715228786
 30
0.0
  0
VERTEX
  5
557
330
54B
100
AcDbEntity
  8
Sichtbar (ISO)
100
AcDbVertex
100
AcDb2dVertex
 10
725.9471365952386
 20
1097.573529436416
 30
0.0
  0
VERTEX
  5
558
330
54B
100
AcDbEntity
  8
Sichtbar (ISO)
100
AcDbVertex
100
AcDb2dVertex
 10
725.9492098424062
 20
1097.54515186038
 30
0.0
  0
VERTEX
  5
559
330
54B
100
AcDbEntity
  8
Sichtbar (ISO)
100
AcDbVertex
100
AcDb2dVertex
 10
725.9499630521892
 20
1097.517267367419
 30
0.0
  0
VERTEX
  5
55A
330
54B
100
AcDbEntity
  8
Sichtbar (ISO)
100
AcDbVertex
100
AcDb2dVertex
 10
725.9495537403226
 20
1097.49015770782
 30
0.0
  0
VERTEX
  5
55B
330
54B
100
AcDbEntity
  8
Sichtbar (ISO)
100
AcDbVertex
100
AcDb2dVertex
 10
725.948136554109
 20
1097.463960226053
 30
0.0
  0
VERTEX
  5
55C
330
54B
100
AcDbEntity
  8
Sichtbar (ISO)
100
AcDbVertex
100
AcDb2dVertex
 10
725.9458671817658
 20
1097.438811999885
 30
0.0
  0
VERTEX
  5
55D
330
54B
100
AcDbEntity
  8
Sichtbar (ISO)
100
AcDbVertex
100
AcDb2dVertex
 10
725.9428998497285
 20
1097.414850396292
 30
0.0
  0
VERTEX
  5
55E
330
54B
100
AcDbEntity
  8
Sichtbar (ISO)
100
AcDbVertex
100
AcDb2dVertex
 10
725.9393904679012
 20
1097.392212692223
 30
0.0
  0
VERTEX
  5
55F
330
54B
100
AcDbEntity
  8
Sichtbar (ISO)
100
AcDbVertex
100
AcDb2dVertex
 10
725.9354932627194
 20
1097.371036254652
 30
0.0
  0
VERTEX
  5
560
330
54B
100
AcDbEntity
  8
Sichtbar (ISO)
100
AcDbVertex
100
AcDb2dVertex
 10
725.9313637457262
 20
1097.351458803904
 30
0.0
  0
VERTEX
  5
561
330
54B
100
AcDbEntity
  8
Sichtbar (ISO)
100
AcDbVertex
100
AcDb2dVertex
 10
725.927156940079
 20
1097.333616820205
 30
0.0
  0
VERTEX
  5
562
330
54B
100
AcDbEntity
  8
Sichtbar (ISO)
100
AcDbVertex
100
AcDb2dVertex
 10
725.9230279589601
 20
1097.317648467252
 30
0.0
  0
VERTEX
  5
563
330
54B
100
AcDbEntity
  8
Sichtbar (ISO)
100
AcDbVertex
100
AcDb2dVertex
 10
725.9191316263461
 20
1097.303690446961
 30
0.0
  0
VERTEX
  5
564
330
54B
100
AcDbEntity
  8
Sichtbar (ISO)
100
AcDbVertex
100
AcDb2dVertex
 10
725.9156230329132
 20
1097.291880502158
 30
0.0
  0
VERTEX
  5
565
330
54B
100
AcDbEntity
  8
Sichtbar (ISO)
100
AcDbVertex
100
AcDb2dVertex
 10
725.9126570251445
 20
1097.282355755628
 30
0.0
  0
SEQEND
  5
54E
330
54B
100
AcDbEntity
  8
Sichtbar (ISO)
  0
POLYLINE
  5
566
330
37
100
AcDbEntity
  8
Sichtbar (ISO)
100
AcDb2dPolyline
 66
     1
 10
0.0
 20
0.0
 30
0.0
 70
   128
  0
VERTEX
  5
567
330
566
100
AcDbEntity
  8
Sichtbar (ISO)
100
AcDbVertex
100
AcDb2dVertex
 10
725.7538733323037
 20
1097.850661384191
 30
0.0
  0
VERTEX
  5
568
330
566
100
AcDbEntity
  8
Sichtbar (ISO)
100
AcDbVertex
100
AcDb2dVertex
 10
725.7557495264981
 20
1097.850339465723
 30
0.0
  0
VERTEX
  5
56A
330
566
100
AcDbEntity
  8
Sichtbar (ISO)
100
AcDbVertex
100
AcDb2dVertex
 10
725.7576969552675
 20
1097.849984192966
 30
0.0
  0
VERTEX
  5
56B
330
566
100
AcDbEntity
  8
Sichtbar (ISO)
100
AcDbVertex
100
AcDb2dVertex
 10
725.759713800106
 20
1097.849593130743
 30
0.0
  0
VERTEX
  5
56C
330
566
100
AcDbEntity
  8
Sichtbar (ISO)
100
AcDbVertex
100
AcDb2dVertex
 10
725.7617974232788
 20
1097.849164309756
 30
0.0
  0
VERTEX
  5
56D
330
566
100
AcDbEntity
  8
Sichtbar (ISO)
100
AcDbVertex
100
AcDb2dVertex
 10
725.7639460062799
 20
1097.848695294828
 30
0.0
  0
VERTEX
  5
56E
330
566
100
AcDbEntity
  8
Sichtbar (ISO)
100
AcDbVertex
100
AcDb2dVertex
 10
725.766156911375
 20
1097.84818411666
 30
0.0
  0
VERTEX
  5
56F
330
566
100
AcDbEntity
  8
Sichtbar (ISO)
100
AcDbVertex
100
AcDb2dVertex
 10
725.7684283200577
 20
1097.847628340075
 30
0.0
  0
VERTEX
  5
570
330
566
100
AcDbEntity
  8
Sichtbar (ISO)
100
AcDbVertex
100
AcDb2dVertex
 10
725.7707533313446
 20
1097.847027173416
 30
0.0
  0
VERTEX
  5
571
330
566
100
AcDbEntity
  8
Sichtbar (ISO)
100
AcDbVertex
100
AcDb2dVertex
 10
725.7731100730856
 20
1097.846384002188
 30
0.0
  0
VERTEX
  5
572
330
566
100
AcDbEntity
  8
Sichtbar (ISO)
100
AcDbVertex
100
AcDb2dVertex
 10
725.7754942915968
 20
1097.84569820972
 30
0.0
  0
VERTEX
  5
573
330
566
100
AcDbEntity
  8
Sichtbar (ISO)
100
AcDbVertex
100
AcDb2dVertex
 10
725.7779042358907
 20
1097.844968623437
 30
0.0
  0
VERTEX
  5
574
330
566
100
AcDbEntity
  8
Sichtbar (ISO)
100
AcDbVertex
100
AcDb2dVertex
 10
725.7803380553897
 20
1097.844194181604
 30
0.0
  0
VERTEX
  5
575
330
566
100
AcDbEntity
  8
Sichtbar (ISO)
100
AcDbVertex
100
AcDb2dVertex
 10
725.7827712115142
 20
1097.843381683367
 30
0.0
  0
VERTEX
  5
576
330
566
100
AcDbEntity
  8
Sichtbar (ISO)
100
AcDbVertex
100
AcDb2dVertex
 10
725.7851569885749
 20
1097.842547449707
 30
0.0
  0
VERTEX
  5
577
330
566
100
AcDbEntity
  8
Sichtbar (ISO)
100
AcDbVertex
100
AcDb2dVertex
 10
725.7874927747201
 20
1097.841693941686
 30
0.0
  0
VERTEX
  5
578
330
566
100
AcDbEntity
  8
Sichtbar (ISO)
100
AcDbVertex
100
AcDb2dVertex
 10
725.7897782616143
 20
1097.840823286145
 30
0.0
  0
VERTEX
  5
579
330
566
100
AcDbEntity
  8
Sichtbar (ISO)
100
AcDbVertex
100
AcDb2dVertex
 10
725.7920106382248
 20
1097.839938165832
 30
0.0
  0
VERTEX
  5
57A
330
566
100
AcDbEntity
  8
Sichtbar (ISO)
100
AcDbVertex
100
AcDb2dVertex
 10
725.7941728999444
 20
1097.839048142533
 30
0.0
  0
VERTEX
  5
57B
330
566
100
AcDbEntity
  8
Sichtbar (ISO)
100
AcDbVertex
100
AcDb2dVertex
 10
725.7962602214304
 20
1097.838157694996
 30
0.0
  0
VERTEX
  5
57C
330
566
100
AcDbEntity
  8
Sichtbar (ISO)
100
AcDbVertex
100
AcDb2dVertex
 10
725.798272040589
 20
1097.837270124327
 30
0.0
  0
VERTEX
  5
57D
330
566
100
AcDbEntity
  8
Sichtbar (ISO)
100
AcDbVertex
100
AcDb2dVertex
 10
725.8002078724103
 20
1097.836388199921
 30
0.0
  0
VERTEX
  5
57E
330
566
100
AcDbEntity
  8
Sichtbar (ISO)
100
AcDbVertex
100
AcDb2dVertex
 10
725.8020672543909
 20
1097.835515112042
 30
0.0
  0
VERTEX
  5
57F
330
566
100
AcDbEntity
  8
Sichtbar (ISO)
100
AcDbVertex
100
AcDb2dVertex
 10
725.8038497240272
 20
1097.834654050954
 30
0.0
  0
VERTEX
  5
580
330
566
100
AcDbEntity
  8
Sichtbar (ISO)
100
AcDbVertex
100
AcDb2dVertex
 10
725.8055549184058
 20
1097.833808096075
 30
0.0
  0
SEQEND
  5
569
330
566
100
AcDbEntity
  8
Sichtbar (ISO)
  0
POLYLINE
  5
581
330
37
100
AcDbEntity
  8
Sichtbar (ISO)
100
AcDb2dPolyline
 66
     1
 10
0.0
 20
0.0
 30
0.0
 70
   128
  0
VERTEX
  5
582
330
581
100
AcDbEntity
  8
Sichtbar (ISO)
100
AcDbVertex
100
AcDb2dVertex
 10
725.3422748466566
 20
1097.468356056282
 30
0.0
  0
VERTEX
  5
583
330
581
100
AcDbEntity
  8
Sichtbar (ISO)
100
AcDbVertex
100
AcDb2dVertex
 10
725.3450735872334
 20
1097.476712275891
 30
0.0
  0
VERTEX
  5
585
330
581
100
AcDbEntity
  8
Sichtbar (ISO)
100
AcDbVertex
100
AcDb2dVertex
 10
725.3486207563104
 20
1097.487033624859
 30
0.0
  0
VERTEX
  5
586
330
581
100
AcDbEntity
  8
Sichtbar (ISO)
100
AcDbVertex
100
AcDb2dVertex
 10
725.3530352961147
 20
1097.499251487206
 30
0.0
  0
VERTEX
  5
587
330
581
100
AcDbEntity
  8
Sichtbar (ISO)
100
AcDbVertex
100
AcDb2dVertex
 10
725.3584366468239
 20
1097.513296692734
 30
0.0
  0
VERTEX
  5
588
330
581
100
AcDbEntity
  8
Sichtbar (ISO)
100
AcDbVertex
100
AcDb2dVertex
 10
725.3649438502551
 20
1097.529100514618
 30
0.0
  0
VERTEX
  5
589
330
581
100
AcDbEntity
  8
Sichtbar (ISO)
100
AcDbVertex
100
AcDb2dVertex
 10
725.372675925719
 20
1097.546593805168
 30
0.0
  0
VERTEX
  5
58A
330
581
100
AcDbEntity
  8
Sichtbar (ISO)
100
AcDbVertex
100
AcDb2dVertex
 10
725.3817517929361
 20
1097.565707527535
 30
0.0
  0
VERTEX
  5
58B
330
581
100
AcDbEntity
  8
Sichtbar (ISO)
100
AcDbVertex
100
AcDb2dVertex
 10
725.3922910141806
 20
1097.586372821546
 30
0.0
  0
VERTEX
  5
58C
330
581
100
AcDbEntity
  8
Sichtbar (ISO)
100
AcDbVertex
100
AcDb2dVertex
 10
725.4044124095827
 20
1097.608520761196
 30
0.0
  0
VERTEX
  5
58D
330
581
100
AcDbEntity
  8
Sichtbar (ISO)
100
AcDbVertex
100
AcDb2dVertex
 10
725.4181261547592
 20
1097.631700347392
 30
0.0
  0
VERTEX
  5
58E
330
581
100
AcDbEntity
  8
Sichtbar (ISO)
100
AcDbVertex
100
AcDb2dVertex
 10
725.4332261761068
 20
1097.65498423147
 30
0.0
  0
VERTEX
  5
58F
330
581
100
AcDbEntity
  8
Sichtbar (ISO)
100
AcDbVertex
100
AcDb2dVertex
 10
725.4496281927128
 20
1097.678104579323
 30
0.0
  0
VERTEX
  5
590
330
581
100
AcDbEntity
  8
Sichtbar (ISO)
100
AcDbVertex
100
AcDb2dVertex
 10
725.4672526150965
 20
1097.700814198466
 30
0.0
  0
VERTEX
  5
591
330
581
100
AcDbEntity
  8
Sichtbar (ISO)
100
AcDbVertex
100
AcDb2dVertex
 10
725.4860203742347
 20
1097.722865763064
 30
0.0
  0
VERTEX
  5
592
330
581
100
AcDbEntity
  8
Sichtbar (ISO)
100
AcDbVertex
100
AcDb2dVertex
 10
725.5058516589602
 20
1097.744011881452
 30
0.0
  0
VERTEX
  5
593
330
581
100
AcDbEntity
  8
Sichtbar (ISO)
100
AcDbVertex
100
AcDb2dVertex
 10
725.526667278153
 20
1097.764004917771
 30
0.0
  0
VERTEX
  5
594
330
581
100
AcDbEntity
  8
Sichtbar (ISO)
100
AcDbVertex
100
AcDb2dVertex
 10
725.5483878640193
 20
1097.782597878715
 30
0.0
  0
VERTEX
  5
595
330
581
100
AcDbEntity
  8
Sichtbar (ISO)
100
AcDbVertex
100
AcDb2dVertex
 10
725.570934026259
 20
1097.799543350113
 30
0.0
  0
VERTEX
  5
596
330
581
100
AcDbEntity
  8
Sichtbar (ISO)
100
AcDbVertex
100
AcDb2dVertex
 10
725.5942261528852
 20
1097.814593718612
 30
0.0
  0
VERTEX
  5
597
330
581
100
AcDbEntity
  8
Sichtbar (ISO)
100
AcDbVertex
100
AcDb2dVertex
 10
725.6181848535975
 20
1097.82750157004
 30
0.0
  0
VERTEX
  5
598
330
581
100
AcDbEntity
  8
Sichtbar (ISO)
100
AcDbVertex
100
AcDb2dVertex
 10
725.6427309597827
 20
1097.838019689405
 30
0.0
  0
VERTEX
  5
599
330
581
100
AcDbEntity
  8
Sichtbar (ISO)
100
AcDbVertex
100
AcDb2dVertex
 10
725.6699336462024
 20
1097.84648893564
 30
0.0
  0
VERTEX
  5
59A
330
581
100
AcDbEntity
  8
Sichtbar (ISO)
100
AcDbVertex
100
AcDb2dVertex
 10
725.7045258226685
 20
1097.852384820214
 30
0.0
  0
VERTEX
  5
59B
330
581
100
AcDbEntity
  8
Sichtbar (ISO)
100
AcDbVertex
100
AcDb2dVertex
 10
725.7538733323037
 20
1097.850661384191
 30
0.0
  0
SEQEND
  5
584
330
581
100
AcDbEntity
  8
Sichtbar (ISO)
  0
ARC
  5
59C
330
37
100
AcDbEntity
  8
Sichtbar (ISO)
100
AcDbCircle
 10
727.174823360715
 20
1102.120427369261
 30
0.0
 40
5.000000000000088
100
AcDbArc
 50
218.4994787745611
 51
225.378454480997
  0
POLYLINE
  5
59D
330
37
100
AcDbEntity
  8
Sichtbar (ISO)
100
AcDb2dPolyline
 66
     1
 10
0.0
 20
0.0
 30
0.0
 70
   128
  0
VERTEX
  5
59E
330
59D
100
AcDbEntity
  8
Sichtbar (ISO)
100
AcDbVertex
100
AcDb2dVertex
 10
723.8456925473849
 20
1099.092740445547
 30
0.0
  0
VERTEX
  5
59F
330
59D
100
AcDbEntity
  8
Sichtbar (ISO)
100
AcDbVertex
100
AcDb2dVertex
 10
723.8680204572991
 20
1099.045981726267
 30
0.0
  0
VERTEX
  5
5A1
330
59D
100
AcDbEntity
  8
Sichtbar (ISO)
100
AcDbVertex
100
AcDb2dVertex
 10
723.8764543656261
 20
1099.01067058411
 30
0.0
  0
VERTEX
  5
5A2
330
59D
100
AcDbEntity
  8
Sichtbar (ISO)
100
AcDbVertex
100
AcDb2dVertex
 10
723.8793896193381
 20
1098.980960367413
 30
0.0
  0
VERTEX
  5
5A3
330
59D
100
AcDbEntity
  8
Sichtbar (ISO)
100
AcDbVertex
100
AcDb2dVertex
 10
723.8793553098193
 20
1098.955261144078
 30
0.0
  0
VERTEX
  5
5A4
330
59D
100
AcDbEntity
  8
Sichtbar (ISO)
100
AcDbVertex
100
AcDb2dVertex
 10
723.8771407837009
 20
1098.929079776353
 30
0.0
  0
VERTEX
  5
5A5
330
59D
100
AcDbEntity
  8
Sichtbar (ISO)
100
AcDbVertex
100
AcDb2dVertex
 10
723.8728840250701
 20
1098.902564128275
 30
0.0
  0
VERTEX
  5
5A6
330
59D
100
AcDbEntity
  8
Sichtbar (ISO)
100
AcDbVertex
100
AcDb2dVertex
 10
723.8667213590927
 20
1098.875883084663
 30
0.0
  0
VERTEX
  5
5A7
330
59D
100
AcDbEntity
  8
Sichtbar (ISO)
100
AcDbVertex
100
AcDb2dVertex
 10
723.8587897261994
 20
1098.849206183299
 30
0.0
  0
VERTEX
  5
5A8
330
59D
100
AcDbEntity
  8
Sichtbar (ISO)
100
AcDbVertex
100
AcDb2dVertex
 10
723.8492259073786
 20
1098.822702693507
 30
0.0
  0
VERTEX
  5
5A9
330
59D
100
AcDbEntity
  8
Sichtbar (ISO)
100
AcDbVertex
100
AcDb2dVertex
 10
723.8381664121361
 20
1098.796541740851
 30
0.0
  0
VERTEX
  5
5AA
330
59D
100
AcDbEntity
  8
Sichtbar (ISO)
100
AcDbVertex
100
AcDb2dVertex
 10
723.8257731947192
 20
1098.770929234853
 30
0.0
  0
VERTEX
  5
5AB
330
59D
100
AcDbEntity
  8
Sichtbar (ISO)
100
AcDbVertex
100
AcDb2dVertex
 10
723.8124832369303
 20
1098.746403979253
 30
0.0
  0
VERTEX
  5
5AC
330
59D
100
AcDbEntity
  8
Sichtbar (ISO)
100
AcDbVertex
100
AcDb2dVertex
 10
723.7985739947402
 20
1098.723131176342
 30
0.0
  0
VERTEX
  5
5AD
330
59D
100
AcDbEntity
  8
Sichtbar (ISO)
100
AcDbVertex
100
AcDb2dVertex
 10
723.7842478643844
 20
1098.701151772387
 30
0.0
  0
VERTEX
  5
5AE
330
59D
100
AcDbEntity
  8
Sichtbar (ISO)
100
AcDbVertex
100
AcDb2dVertex
 10
723.7697083629804
 20
1098.680507695703
 30
0.0
  0
VERTEX
  5
5AF
330
59D
100
AcDbEntity
  8
Sichtbar (ISO)
100
AcDbVertex
100
AcDb2dVertex
 10
723.7551579116614
 20
1098.661239864846
 30
0.0
  0
VERTEX
  5
5B0
330
59D
100
AcDbEntity
  8
Sichtbar (ISO)
100
AcDbVertex
100
AcDb2dVertex
 10
723.7407995717228
 20
1098.643389823623
 30
0.0
  0
VERTEX
  5
5B1
330
59D
100
AcDbEntity
  8
Sichtbar (ISO)
100
AcDbVertex
100
AcDb2dVertex
 10
723.7268364293578
 20
1098.626999088133
 30
0.0
  0
VERTEX
  5
5B2
330
59D
100
AcDbEntity
  8
Sichtbar (ISO)
100
AcDbVertex
100
AcDb2dVertex
 10
723.7134715458617
 20
1098.612109202183
 30
0.0
  0
VERTEX
  5
5B3
330
59D
100
AcDbEntity
  8
Sichtbar (ISO)
100
AcDbVertex
100
AcDb2dVertex
 10
723.7009073423677
 20
1098.598761084331
 30
0.0
  0
VERTEX
  5
5B4
330
59D
100
AcDbEntity
  8
Sichtbar (ISO)
100
AcDbVertex
100
AcDb2dVertex
 10
723.6893471143065
 20
1098.586996463708
 30
0.0
  0
VERTEX
  5
5B5
330
59D
100
AcDbEntity
  8
Sichtbar (ISO)
100
AcDbVertex
100
AcDb2dVertex
 10
723.6789939354227
 20
1098.57685687027
 30
0.0
  0
VERTEX
  5
5B6
330
59D
100
AcDbEntity
  8
Sichtbar (ISO)
100
AcDbVertex
100
AcDb2dVertex
 10
723.6700504360868
 20
1098.568383435606
 30
0.0
  0
VERTEX
  5
5B7
330
59D
100
AcDbEntity
  8
Sichtbar (ISO)
100
AcDbVertex
100
AcDb2dVertex
 10
723.6627197024922
 20
1098.561617675815
 30
0.0
  0
SEQEND
  5
5A0
330
59D
100
AcDbEntity
  8
Sichtbar (ISO)
  0
POLYLINE
  5
5B8
330
37
100
AcDbEntity
  8
Sichtbar (ISO)
100
AcDb2dPolyline
 66
     1
 10
0.0
 20
0.0
 30
0.0
 70
   128
  0
VERTEX
  5
5B9
330
5B8
100
AcDbEntity
  8
Sichtbar (ISO)
100
AcDbVertex
100
AcDb2dVertex
 10
723.8093616238552
 20
1099.133176563248
 30
0.0
  0
VERTEX
  5
5BA
330
5B8
100
AcDbEntity
  8
Sichtbar (ISO)
100
AcDbVertex
100
AcDb2dVertex
 10
723.8108274081842
 20
1099.131958072063
 30
0.0
  0
VERTEX
  5
5BC
330
5B8
100
AcDbEntity
  8
Sichtbar (ISO)
100
AcDbVertex
100
AcDb2dVertex
 10
723.8123384596487
 20
1099.130674929477
 30
0.0
  0
VERTEX
  5
5BD
330
5B8
100
AcDbEntity
  8
Sichtbar (ISO)
100
AcDbVertex
100
AcDb2dVertex
 10
723.8138913998124
 20
1099.129325990589
 30
0.0
  0
VERTEX
  5
5BE
330
5B8
100
AcDbEntity
  8
Sichtbar (ISO)
100
AcDbVertex
100
AcDb2dVertex
 10
723.8154835075181
 20
1099.127910716701
 30
0.0
  0
VERTEX
  5
5BF
330
5B8
100
AcDbEntity
  8
Sichtbar (ISO)
100
AcDbVertex
100
AcDb2dVertex
 10
723.817111846147
 20
1099.126428363003
 30
0.0
  0
VERTEX
  5
5C0
330
5B8
100
AcDbEntity
  8
Sichtbar (ISO)
100
AcDbVertex
100
AcDb2dVertex
 10
723.8187730333719
 20
1099.124877788926
 30
0.0
  0
VERTEX
  5
5C1
330
5B8
100
AcDbEntity
  8
Sichtbar (ISO)
100
AcDbVertex
100
AcDb2dVertex
 10
723.8204643503705
 20
1099.123258453172
 30
0.0
  0
VERTEX
  5
5C2
330
5B8
100
AcDbEntity
  8
Sichtbar (ISO)
100
AcDbVertex
100
AcDb2dVertex
 10
723.8221751011597
 20
1099.12157735523
 30
0.0
  0
VERTEX
  5
5C3
330
5B8
100
AcDbEntity
  8
Sichtbar (ISO)
100
AcDbVertex
100
AcDb2dVertex
 10
723.8238940062199
 20
1099.11984214406
 30
0.0
  0
VERTEX
  5
5C4
330
5B8
100
AcDbEntity
  8
Sichtbar (ISO)
100
AcDbVertex
100
AcDb2dVertex
 10
723.8256188531241
 20
1099.118052606584
 30
0.0
  0
VERTEX
  5
5C5
330
5B8
100
AcDbEntity
  8
Sichtbar (ISO)
100
AcDbVertex
100
AcDb2dVertex
 10
723.8273474317788
 20
1099.116208527122
 30
0.0
  0
VERTEX
  5
5C6
330
5B8
100
AcDbEntity
  8
Sichtbar (ISO)
100
AcDbVertex
100
AcDb2dVertex
 10
723.8290768588159
 20
1099.11431043935
 30
0.0
  0
VERTEX
  5
5C7
330
5B8
100
AcDbEntity
  8
Sichtbar (ISO)
100
AcDbVertex
100
AcDb2dVertex
 10
723.8307734901
 20
1099.112394005339
 30
0.0
  0
VERTEX
  5
5C8
330
5B8
100
AcDbEntity
  8
Sichtbar (ISO)
100
AcDbVertex
100
AcDb2dVertex
 10
723.8324201067315
 20
1099.110480619212
 30
0.0
  0
VERTEX
  5
5C9
330
5B8
100
AcDbEntity
  8
Sichtbar (ISO)
100
AcDbVertex
100
AcDb2dVertex
 10
723.8340167511485
 20
1099.1085720174
 30
0.0
  0
VERTEX
  5
5CA
330
5B8
100
AcDbEntity
  8
Sichtbar (ISO)
100
AcDbVertex
100
AcDb2dVertex
 10
723.8355639073435
 20
1099.106670336723
 30
0.0
  0
VERTEX
  5
5CB
330
5B8
100
AcDbEntity
  8
Sichtbar (ISO)
100
AcDbVertex
100
AcDb2dVertex
 10
723.8370571637134
 20
1099.104784054602
 30
0.0
  0
VERTEX
  5
5CC
330
5B8
100
AcDbEntity
  8
Sichtbar (ISO)
100
AcDbVertex
100
AcDb2dVertex
 10
723.8384822758956
 20
1099.102933930017
 30
0.0
  0
VERTEX
  5
5CD
330
5B8
100
AcDbEntity
  8
Sichtbar (ISO)
100
AcDbVertex
100
AcDb2dVertex
 10
723.8398397606064
 20
1099.101124738862
 30
0.0
  0
VERTEX
  5
5CE
330
5B8
100
AcDbEntity
  8
Sichtbar (ISO)
100
AcDbVertex
100
AcDb2dVertex
 10
723.8411307213259
 20
1099.099359712137
 30
0.0
  0
VERTEX
  5
5CF
330
5B8
100
AcDbEntity
  8
Sichtbar (ISO)
100
AcDbVertex
100
AcDb2dVertex
 10
723.8423589319677
 20
1099.097637770911
 30
0.0
  0
VERTEX
  5
5D0
330
5B8
100
AcDbEntity
  8
Sichtbar (ISO)
100
AcDbVertex
100
AcDb2dVertex
 10
723.8435280099435
 20
1099.095958902274
 30
0.0
  0
VERTEX
  5
5D1
330
5B8
100
AcDbEntity
  8
Sichtbar (ISO)
100
AcDbVertex
100
AcDb2dVertex
 10
723.8446388993471
 20
1099.094325622787
 30
0.0
  0
VERTEX
  5
5D2
330
5B8
100
AcDbEntity
  8
Sichtbar (ISO)
100
AcDbVertex
100
AcDb2dVertex
 10
723.8456925473849
 20
1099.092740445547
 30
0.0
  0
SEQEND
  5
5BB
330
5B8
100
AcDbEntity
  8
Sichtbar (ISO)
  0
POLYLINE
  5
5D3
330
37
100
AcDbEntity
  8
Sichtbar (ISO)
100
AcDb2dPolyline
 66
     1
 10
0.0
 20
0.0
 30
0.0
 70
   128
  0
VERTEX
  5
5D4
330
5D3
100
AcDbEntity
  8
Sichtbar (ISO)
100
AcDbVertex
100
AcDb2dVertex
 10
723.261754368285
 20
1099.007889883423
 30
0.0
  0
VERTEX
  5
5D5
330
5D3
100
AcDbEntity
  8
Sichtbar (ISO)
100
AcDbVertex
100
AcDb2dVertex
 10
723.2683558615112
 20
1099.013726871552
 30
0.0
  0
VERTEX
  5
5D7
330
5D3
100
AcDbEntity
  8
Sichtbar (ISO)
100
AcDbVertex
100
AcDb2dVertex
 10
723.2765885774202
 20
1099.020892029282
 30
0.0
  0
VERTEX
  5
5D8
330
5D3
100
AcDbEntity
  8
Sichtbar (ISO)
100
AcDbVertex
100
AcDb2dVertex
 10
723.2865207829199
 20
1099.029265676102
 30
0.0
  0
VERTEX
  5
5D9
330
5D3
100
AcDbEntity
  8
Sichtbar (ISO)
100
AcDbVertex
100
AcDb2dVertex
 10
723.2982211384965
 20
1099.038728585282
 30
0.0
  0
VERTEX
  5
5DA
330
5D3
100
AcDbEntity
  8
Sichtbar (ISO)
100
AcDbVertex
100
AcDb2dVertex
 10
723.3117583544313
 20
1099.049161474673
 30
0.0
  0
VERTEX
  5
5DB
330
5D3
100
AcDbEntity
  8
Sichtbar (ISO)
100
AcDbVertex
100
AcDb2dVertex
 10
723.3272011285565
 20
1099.060445075981
 30
0.0
  0
VERTEX
  5
5DC
330
5D3
100
AcDbEntity
  8
Sichtbar (ISO)
100
AcDbVertex
100
AcDb2dVertex
 10
723.3446181462561
 20
1099.072460134764
 30
0.0
  0
VERTEX
  5
5DD
330
5D3
100
AcDbEntity
  8
Sichtbar (ISO)
100
AcDbVertex
100
AcDb2dVertex
 10
723.3640778712269
 20
1099.085087197404
 30
0.0
  0
VERTEX
  5
5DE
330
5D3
100
AcDbEntity
  8
Sichtbar (ISO)
100
AcDbVertex
100
AcDb2dVertex
 10
723.3856490013013
 20
1099.098206995607
 30
0.0
  0
VERTEX
  5
5DF
330
5D3
100
AcDbEntity
  8
Sichtbar (ISO)
100
AcDbVertex
100
AcDb2dVertex
 10
723.4091155467901
 20
1099.111424493665
 30
0.0
  0
VERTEX
  5
5E0
330
5D3
100
AcDbEntity
  8
Sichtbar (ISO)
100
AcDbVertex
100
AcDb2dVertex
 10
723.4338343947332
 20
1099.124038795981
 30
0.0
  0
VERTEX
  5
5E1
330
5D3
100
AcDbEntity
  8
Sichtbar (ISO)
100
AcDbVertex
100
AcDb2dVertex
 10
723.459599026934
 20
1099.13586059464
 30
0.0
  0
VERTEX
  5
5E2
330
5D3
100
AcDbEntity
  8
Sichtbar (ISO)
100
AcDbVertex
100
AcDb2dVertex
 10
723.4862171634333
 20
1099.14671550289
 30
0.0
  0
VERTEX
  5
5E3
330
5D3
100
AcDbEntity
  8
Sichtbar (ISO)
100
AcDbVertex
100
AcDb2dVertex
 10
723.5134960684497
 20
1099.156428749473
 30
0.0
  0
VERTEX
  5
5E4
330
5D3
100
AcDbEntity
  8
Sichtbar (ISO)
100
AcDbVertex
100
AcDb2dVertex
 10
723.5412436588132
 20
1099.164826174527
 30
0.0
  0
VERTEX
  5
5E5
330
5D3
100
AcDbEntity
  8
Sichtbar (ISO)
100
AcDbVertex
100
AcDb2dVertex
 10
723.5692672111911
 20
1099.171732992938
 30
0.0
  0
VERTEX
  5
5E6
330
5D3
100
AcDbEntity
  8
Sichtbar (ISO)
100
AcDbVertex
100
AcDb2dVertex
 10
723.5973742239375
 20
1099.176974618774
 30
0.0
  0
VERTEX
  5
5E7
330
5D3
100
AcDbEntity
  8
Sichtbar (ISO)
100
AcDbVertex
100
AcDb2dVertex
 10
723.6253723797468
 20
1099.180376706846
 30
0.0
  0
VERTEX
  5
5E8
330
5D3
100
AcDbEntity
  8
Sichtbar (ISO)
100
AcDbVertex
100
AcDb2dVertex
 10
723.6530692018708
 20
1099.181764643512
 30
0.0
  0
VERTEX
  5
5E9
330
5D3
100
AcDbEntity
  8
Sichtbar (ISO)
100
AcDbVertex
100
AcDb2dVertex
 10
723.6802721450928
 20
1099.180963891331
 30
0.0
  0
VERTEX
  5
5EA
330
5D3
100
AcDbEntity
  8
Sichtbar (ISO)
100
AcDbVertex
100
AcDb2dVertex
 10
723.7067887077667
 20
1099.177799864372
 30
0.0
  0
VERTEX
  5
5EB
330
5D3
100
AcDbEntity
  8
Sichtbar (ISO)
100
AcDbVertex
100
AcDb2dVertex
 10
723.7345813727268
 20
1099.171533099573
 30
0.0
  0
VERTEX
  5
5EC
330
5D3
100
AcDbEntity
  8
Sichtbar (ISO)
100
AcDbVertex
100
AcDb2dVertex
 10
723.767487027468
 20
1099.159342836898
 30
0.0
  0
VERTEX
  5
5ED
330
5D3
100
AcDbEntity
  8
Sichtbar (ISO)
100
AcDbVertex
100
AcDb2dVertex
 10
723.8093616238552
 20
1099.133176563248
 30
0.0
  0
SEQEND
  5
5D6
330
5D3
100
AcDbEntity
  8
Sichtbar (ISO)
  0
ARC
  5
5EE
330
37
100
AcDbEntity
  8
Sichtbar (ISO)
100
AcDbCircle
 10
727.1748233607151
 20
1102.12042736926
 30
0.0
 40
5.000000000000179
100
AcDbArc
 50
188.4994787745603
 51
195.3784544809959
  0
POLYLINE
  5
5EF
330
37
100
AcDbEntity
  8
Sichtbar (ISO)
100
AcDb2dPolyline
 66
     1
 10
0.0
 20
0.0
 30
0.0
 70
   128
  0
VERTEX
  5
5F0
330
5EF
100
AcDbEntity
  8
Sichtbar (ISO)
100
AcDbVertex
100
AcDb2dVertex
 10
722.7778680033519
 20
1101.162938917183
 30
0.0
  0
VERTEX
  5
5F1
330
5EF
100
AcDbEntity
  8
Sichtbar (ISO)
100
AcDbVertex
100
AcDb2dVertex
 10
722.7738251784885
 20
1101.111280724419
 30
0.0
  0
VERTEX
  5
5F3
330
5EF
100
AcDbEntity
  8
Sichtbar (ISO)
100
AcDbVertex
100
AcDb2dVertex
 10
722.7634737790158
 20
1101.07648353434
 30
0.0
  0
VERTEX
  5
5F4
330
5EF
100
AcDbEntity
  8
Sichtbar (ISO)
100
AcDbVertex
100
AcDb2dVertex
 10
722.7511605382136
 20
1101.04928596489
 30
0.0
  0
VERTEX
  5
5F5
330
5EF
100
AcDbEntity
  8
Sichtbar (ISO)
100
AcDbVertex
100
AcDb2dVertex
 10
722.7382810946878
 20
1101.027047087601
 30
0.0
  0
VERTEX
  5
5F6
330
5EF
100
AcDbEntity
  8
Sichtbar (ISO)
100
AcDbVertex
100
AcDb2dVertex
 10
722.7232726998254
 20
1101.005480563148
 30
0.0
  0
VERTEX
  5
5F7
330
5EF
100
AcDbEntity
  8
Sichtbar (ISO)
100
AcDbVertex
100
AcDb2dVertex
 10
722.7063284573778
 20
1100.984645706778
 30
0.0
  0
VERTEX
  5
5F8
330
5EF
100
AcDbEntity
  8
Sichtbar (ISO)
100
AcDbVertex
100
AcDb2dVertex
 10
722.6876509237289
 20
1100.964620743502
 30
0.0
  0
VERTEX
  5
5F9
330
5EF
100
AcDbEntity
  8
Sichtbar (ISO)
100
AcDbVertex
100
AcDb2dVertex
 10
722.6674433749004
 20
1100.945483543294
 30
0.0
  0
VERTEX
  5
5FA
330
5EF
100
AcDbEntity
  8
Sichtbar (ISO)
100
AcDbVertex
100
AcDb2dVertex
 10
722.6459091319266
 20
1100.927312817862
 30
0.0
  0
VERTEX
  5
5FB
330
5EF
100
AcDbEntity
  8
Sichtbar (ISO)
100
AcDbVertex
100
AcDb2dVertex
 10
722.6232507286847
 20
1100.910186371349
 30
0.0
  0
VERTEX
  5
5FC
330
5EF
100
AcDbEntity
  8
Sichtbar (ISO)
100
AcDbVertex
100
AcDb2dVertex
 10
722.5997116525777
 20
1100.894201976579
 30
0.0
  0
VERTEX
  5
5FD
330
5EF
100
AcDbEntity
  8
Sichtbar (ISO)
100
AcDbVertex
100
AcDb2dVertex
 10
722.5759398449045
 20
1100.879607455052
 30
0.0
  0
VERTEX
  5
5FE
330
5EF
100
AcDbEntity
  8
Sichtbar (ISO)
100
AcDbVertex
100
AcDb2dVertex
 10
722.5522574755246
 20
1100.866407209535
 30
0.0
  0
VERTEX
  5
5FF
330
5EF
100
AcDbEntity
  8
Sichtbar (ISO)
100
AcDbVertex
100
AcDb2dVertex
 10
722.5288612092358
 20
1100.854535748476
 30
0.0
  0
VERTEX
  5
600
330
5EF
100
AcDbEntity
  8
Sichtbar (ISO)
100
AcDbVertex
100
AcDb2dVertex
 10
722.5059473670523
 20
1100.843927071116
 30
0.0
  0
VERTEX
  5
601
330
5EF
100
AcDbEntity
  8
Sichtbar (ISO)
100
AcDbVertex
100
AcDb2dVertex
 10
722.4837124145909
 20
1100.834515907588
 30
0.0
  0
VERTEX
  5
602
330
5EF
100
AcDbEntity
  8
Sichtbar (ISO)
100
AcDbVertex
100
AcDb2dVertex
 10
722.4623528945531
 20
1100.826236456316
 30
0.0
  0
VERTEX
  5
603
330
5EF
100
AcDbEntity
  8
Sichtbar (ISO)
100
AcDbVertex
100
AcDb2dVertex
 10
722.4420650508688
 20
1100.819023248253
 30
0.0
  0
VERTEX
  5
604
330
5EF
100
AcDbEntity
  8
Sichtbar (ISO)
100
AcDbVertex
100
AcDb2dVertex
 10
722.4230456479262
 20
1100.812810681
 30
0.0
  0
VERTEX
  5
605
330
5EF
100
AcDbEntity
  8
Sichtbar (ISO)
100
AcDbVertex
100
AcDb2dVertex
 10
722.4054908075591
 20
1100.807532975489
 30
0.0
  0
VERTEX
  5
606
330
5EF
100
AcDbEntity
  8
Sichtbar (ISO)
100
AcDbVertex
100
AcDb2dVertex
 10
722.3895971945648
 20
1100.803124640163
 30
0.0
  0
VERTEX
  5
607
330
5EF
100
AcDbEntity
  8
Sichtbar (ISO)
100
AcDbVertex
100
AcDb2dVertex
 10
722.3755609307771
 20
1100.799519895955
 30
0.0
  0
VERTEX
  5
608
330
5EF
100
AcDbEntity
  8
Sichtbar (ISO)
100
AcDbVertex
100
AcDb2dVertex
 10
722.3635789026805
 20
1100.796653450488
 30
0.0
  0
VERTEX
  5
609
330
5EF
100
AcDbEntity
  8
Sichtbar (ISO)
100
AcDbVertex
100
AcDb2dVertex
 10
722.3538472321089
 20
1100.794459524694
 30
0.0
  0
SEQEND
  5
5F2
330
5EF
100
AcDbEntity
  8
Sichtbar (ISO)
  0
POLYLINE
  5
60A
330
37
100
AcDbEntity
  8
Sichtbar (ISO)
100
AcDb2dPolyline
 66
     1
 10
0.0
 20
0.0
 30
0.0
 70
   128
  0
VERTEX
  5
60B
330
60A
100
AcDbEntity
  8
Sichtbar (ISO)
100
AcDbVertex
100
AcDb2dVertex
 10
722.7666225176317
 20
1101.216123113269
 30
0.0
  0
VERTEX
  5
60C
330
60A
100
AcDbEntity
  8
Sichtbar (ISO)
100
AcDbVertex
100
AcDb2dVertex
 10
722.7672818936741
 20
1101.214337314299
 30
0.0
  0
VERTEX
  5
60E
330
60A
100
AcDbEntity
  8
Sichtbar (ISO)
100
AcDbVertex
100
AcDb2dVertex
 10
722.7679479490083
 20
1101.212473180587
 30
0.0
  0
VERTEX
  5
60F
330
60A
100
AcDbEntity
  8
Sichtbar (ISO)
100
AcDbVertex
100
AcDb2dVertex
 10
722.768617637974
 20
1101.210530980522
 30
0.0
  0
VERTEX
  5
610
330
60A
100
AcDbEntity
  8
Sichtbar (ISO)
100
AcDbVertex
100
AcDb2dVertex
 10
722.7692880820202
 20
1101.208512134248
 30
0.0
  0
VERTEX
  5
611
330
60A
100
AcDbEntity
  8
Sichtbar (ISO)
100
AcDbVertex
100
AcDb2dVertex
 10
722.7699561358962
 20
1101.206417020996
 30
0.0
  0
VERTEX
  5
612
330
60A
100
AcDbEntity
  8
Sichtbar (ISO)
100
AcDbVertex
100
AcDb2dVertex
 10
722.7706188985449
 20
1101.204246640044
 30
0.0
  0
VERTEX
  5
613
330
60A
100
AcDbEntity
  8
Sichtbar (ISO)
100
AcDbVertex
100
AcDb2dVertex
 10
722.7712733468121
 20
1101.202001680648
 30
0.0
  0
VERTEX
  5
614
330
60A
100
AcDbEntity
  8
Sichtbar (ISO)
100
AcDbVertex
100
AcDb2dVertex
 10
722.7719153429217
 20
1101.199687639963
 30
0.0
  0
VERTEX
  5
615
330
60A
100
AcDbEntity
  8
Sichtbar (ISO)
100
AcDbVertex
100
AcDb2dVertex
 10
722.7725365860019
 20
1101.197324904724
 30
0.0
  0
VERTEX
  5
616
330
60A
100
AcDbEntity
  8
Sichtbar (ISO)
100
AcDbVertex
100
AcDb2dVertex
 10
722.7731347534064
 20
1101.194917397776
 30
0.0
  0
VERTEX
  5
617
330
60A
100
AcDbEntity
  8
Sichtbar (ISO)
100
AcDbVertex
100
AcDb2dVertex
 10
722.7737078628963
 20
1101.192465541673
 30
0.0
  0
VERTEX
  5
618
330
60A
100
AcDbEntity
  8
Sichtbar (ISO)
100
AcDbVertex
100
AcDb2dVertex
 10
722.774254176425
 20
1101.189970379017
 30
0.0
  0
VERTEX
  5
619
330
60A
100
AcDbEntity
  8
Sichtbar (ISO)
100
AcDbVertex
100
AcDb2dVertex
 10
722.7747672245688
 20
1101.187456946904
 30
0.0
  0
VERTEX
  5
61A
330
60A
100
AcDbEntity
  8
Sichtbar (ISO)
100
AcDbVertex
100
AcDb2dVertex
 10
722.7752373678972
 20
1101.184973876869
 30
0.0
  0
VERTEX
  5
61B
330
60A
100
AcDbEntity
  8
Sichtbar (ISO)
100
AcDbVertex
100
AcDb2dVertex
 10
722.7756662482428
 20
1101.182524246644
 30
0.0
  0
VERTEX
  5
61C
330
60A
100
AcDbEntity
  8
Sichtbar (ISO)
100
AcDbVertex
100
AcDb2dVertex
 10
722.7760548969552
 20
1101.180109583842
 30
0.0
  0
VERTEX
  5
61D
330
60A
100
AcDbEntity
  8
Sichtbar (ISO)
100
AcDbVertex
100
AcDb2dVertex
 10
722.776404679602
 20
1101.177733719592
 30
0.0
  0
VERTEX
  5
61E
330
60A
100
AcDbEntity
  8
Sichtbar (ISO)
100
AcDbVertex
100
AcDb2dVertex
 10
722.7767149480042
 20
1101.175416103806
 30
0.0
  0
VERTEX
  5
61F
330
60A
100
AcDbEntity
  8
Sichtbar (ISO)
100
AcDbVertex
100
AcDb2dVertex
 10
722.7769874244541
 20
1101.173163291998
 30
0.0
  0
VERTEX
  5
620
330
60A
100
AcDbEntity
  8
Sichtbar (ISO)
100
AcDbVertex
100
AcDb2dVertex
 10
722.7772245249992
 20
1101.170977054285
 30
0.0
  0
VERTEX
  5
621
330
60A
100
AcDbEntity
  8
Sichtbar (ISO)
100
AcDbVertex
100
AcDb2dVertex
 10
722.7774289098801
 20
1101.168859780832
 30
0.0
  0
VERTEX
  5
622
330
60A
100
AcDbEntity
  8
Sichtbar (ISO)
100
AcDbVertex
100
AcDb2dVertex
 10
722.7776024521808
 20
1101.166812954238
 30
0.0
  0
VERTEX
  5
623
330
60A
100
AcDbEntity
  8
Sichtbar (ISO)
100
AcDbVertex
100
AcDb2dVertex
 10
722.7777481109125
 20
1101.164838632139
 30
0.0
  0
VERTEX
  5
624
330
60A
100
AcDbEntity
  8
Sichtbar (ISO)
100
AcDbVertex
100
AcDb2dVertex
 10
722.7778680033519
 20
1101.162938917183
 30
0.0
  0
SEQEND
  5
60D
330
60A
100
AcDbEntity
  8
Sichtbar (ISO)
  0
POLYLINE
  5
625
330
37
100
AcDbEntity
  8
Sichtbar (ISO)
100
AcDb2dPolyline
 66
     1
 10
0.0
 20
0.0
 30
0.0
 70
   128
  0
VERTEX
  5
626
330
625
100
AcDbEntity
  8
Sichtbar (ISO)
100
AcDbVertex
100
AcDb2dVertex
 10
722.2297372612286
 20
1101.381425159555
 30
0.0
  0
VERTEX
  5
627
330
625
100
AcDbEntity
  8
Sichtbar (ISO)
100
AcDbVertex
100
AcDb2dVertex
 10
722.2383731501511
 20
1101.38317942892
 30
0.0
  0
VERTEX
  5
629
330
625
100
AcDbEntity
  8
Sichtbar (ISO)
100
AcDbVertex
100
AcDb2dVertex
 10
722.2490853747658
 20
1101.385268370807
 30
0.0
  0
VERTEX
  5
62A
330
625
100
AcDbEntity
  8
Sichtbar (ISO)
100
AcDbVertex
100
AcDb2dVertex
 10
722.2618737302569
 20
1101.387553979055
 30
0.0
  0
VERTEX
  5
62B
330
625
100
AcDbEntity
  8
Sichtbar (ISO)
100
AcDbVertex
100
AcDb2dVertex
 10
722.2767380568216
 20
1101.389899089235
 30
0.0
  0
VERTEX
  5
62C
330
625
100
AcDbEntity
  8
Sichtbar (ISO)
100
AcDbVertex
100
AcDb2dVertex
 10
722.2936779279574
 20
1101.392165496003
 30
0.0
  0
VERTEX
  5
62D
330
625
100
AcDbEntity
  8
Sichtbar (ISO)
100
AcDbVertex
100
AcDb2dVertex
 10
722.3126936047284
 20
1101.394216012428
 30
0.0
  0
VERTEX
  5
62E
330
625
100
AcDbEntity
  8
Sichtbar (ISO)
100
AcDbVertex
100
AcDb2dVertex
 10
722.3337846831387
 20
1101.395912854032
 30
0.0
  0
VERTEX
  5
62F
330
625
100
AcDbEntity
  8
Sichtbar (ISO)
100
AcDbVertex
100
AcDb2dVertex
 10
722.3569509808789
 20
1101.397118435521
 30
0.0
  0
VERTEX
  5
630
330
625
100
AcDbEntity
  8
Sichtbar (ISO)
100
AcDbVertex
100
AcDb2dVertex
 10
722.3821920939529
 20
1101.397694972419
 30
0.0
  0
VERTEX
  5
631
330
625
100
AcDbEntity
  8
Sichtbar (ISO)
100
AcDbVertex
100
AcDb2dVertex
 10
722.409123024562
 20
1101.397408333208
 30
0.0
  0
VERTEX
  5
632
330
625
100
AcDbEntity
  8
Sichtbar (ISO)
100
AcDbVertex
100
AcDb2dVertex
 10
722.4368375196946
 20
1101.395973122758
 30
0.0
  0
VERTEX
  5
633
330
625
100
AcDbEntity
  8
Sichtbar (ISO)
100
AcDbVertex
100
AcDb2dVertex
 10
722.4650613765261
 20
1101.393328875756
 30
0.0
  0
VERTEX
  5
634
330
625
100
AcDbEntity
  8
Sichtbar (ISO)
100
AcDbVertex
100
AcDb2dVertex
 10
722.4935407322687
 20
1101.389420581282
 30
0.0
  0
VERTEX
  5
635
330
625
100
AcDbEntity
  8
Sichtbar (ISO)
100
AcDbVertex
100
AcDb2dVertex
 10
722.522021701628
 20
1101.384192807548
 30
0.0
  0
VERTEX
  5
636
330
625
100
AcDbEntity
  8
Sichtbar (ISO)
100
AcDbVertex
100
AcDb2dVertex
 10
722.550250466829
 20
1101.377591385368
 30
0.0
  0
VERTEX
  5
637
330
625
100
AcDbEntity
  8
Sichtbar (ISO)
100
AcDbVertex
100
AcDb2dVertex
 10
722.5779729433971
 20
1101.36956110464
 30
0.0
  0
VERTEX
  5
638
330
625
100
AcDbEntity
  8
Sichtbar (ISO)
100
AcDbVertex
100
AcDb2dVertex
 10
722.6049351689542
 20
1101.360047065286
 30
0.0
  0
VERTEX
  5
639
330
625
100
AcDbEntity
  8
Sichtbar (ISO)
100
AcDbVertex
100
AcDb2dVertex
 10
722.6308832807121
 20
1101.348994256387
 30
0.0
  0
VERTEX
  5
63A
330
625
100
AcDbEntity
  8
Sichtbar (ISO)
100
AcDbVertex
100
AcDb2dVertex
 10
722.6555633162932
 20
1101.336347777865
 30
0.0
  0
VERTEX
  5
63B
330
625
100
AcDbEntity
  8
Sichtbar (ISO)
100
AcDbVertex
100
AcDb2dVertex
 10
722.6787214354157
 20
1101.322053039665
 30
0.0
  0
VERTEX
  5
63C
330
625
100
AcDbEntity
  8
Sichtbar (ISO)
100
AcDbVertex
100
AcDb2dVertex
 10
722.7001034315086
 20
1101.306054521663
 30
0.0
  0
VERTEX
  5
63D
330
625
100
AcDbEntity
  8
Sichtbar (ISO)
100
AcDbVertex
100
AcDb2dVertex
 10
722.7210390690936
 20
1101.286730847738
 30
0.0
  0
VERTEX
  5
63E
330
625
100
AcDbEntity
  8
Sichtbar (ISO)
100
AcDbVertex
100
AcDb2dVertex
 10
722.7434412695232
 20
1101.259721134786
 30
0.0
  0
VERTEX
  5
63F
330
625
100
AcDbEntity
  8
Sichtbar (ISO)
100
AcDbVertex
100
AcDb2dVertex
 10
722.7666225176317
 20
1101.216123113269
 30
0.0
  0
SEQEND
  5
628
330
625
100
AcDbEntity
  8
Sichtbar (ISO)
  0
ARC
  5
640
330
37
100
AcDbEntity
  8
Sichtbar (ISO)
100
AcDbCircle
 10
727.174823360715
 20
1102.12042736926
 30
0.0
 40
4.999999999999985
100
AcDbArc
 50
158.4994787745594
 51
165.3784544809953
  0
POLYLINE
  5
641
330
37
100
AcDbEntity
  8
Sichtbar (ISO)
100
AcDb2dPolyline
 66
     1
 10
0.0
 20
0.0
 30
0.0
 70
   128
  0
VERTEX
  5
642
330
641
100
AcDbEntity
  8
Sichtbar (ISO)
100
AcDbVertex
100
AcDb2dVertex
 10
722.8882040875272
 20
1103.489695811568
 30
0.0
  0
VERTEX
  5
643
330
641
100
AcDbEntity
  8
Sichtbar (ISO)
100
AcDbVertex
100
AcDb2dVertex
 10
722.8588739369453
 20
1103.446979769937
 30
0.0
  0
VERTEX
  5
645
330
641
100
AcDbEntity
  8
Sichtbar (ISO)
100
AcDbVertex
100
AcDb2dVertex
 10
722.8325104124425
 20
1103.422020297434
 30
0.0
  0
VERTEX
  5
646
330
641
100
AcDbEntity
  8
Sichtbar (ISO)
100
AcDbVertex
100
AcDb2dVertex
 10
722.8082483382601
 20
1103.404623275647
 30
0.0
  0
VERTEX
  5
647
330
641
100
AcDbEntity
  8
Sichtbar (ISO)
100
AcDbVertex
100
AcDb2dVertex
 10
722.7859748177263
 20
1103.391803421357
 30
0.0
  0
VERTEX
  5
648
330
641
100
AcDbEntity
  8
Sichtbar (ISO)
100
AcDbVertex
100
AcDb2dVertex
 10
722.7621942502658
 20
1103.380630356711
 30
0.0
  0
VERTEX
  5
649
330
641
100
AcDbEntity
  8
Sichtbar (ISO)
100
AcDbVertex
100
AcDb2dVertex
 10
722.7371022878951
 20
1103.371059114744
 30
0.0
  0
VERTEX
  5
64A
330
641
100
AcDbEntity
  8
Sichtbar (ISO)
100
AcDbVertex
100
AcDb2dVertex
 10
722.7109146835394
 20
1103.36305557707
 30
0.0
  0
VERTEX
  5
64B
330
641
100
AcDbEntity
  8
Sichtbar (ISO)
100
AcDbVertex
100
AcDb2dVertex
 10
722.6838459500285
 20
1103.356586113691
 30
0.0
  0
VERTEX
  5
64C
330
641
100
AcDbEntity
  8
Sichtbar (ISO)
100
AcDbVertex
100
AcDb2dVertex
 10
722.6561112202395
 20
1103.351616850414
 30
0.0
  0
VERTEX
  5
64D
330
641
100
AcDbEntity
  8
Sichtbar (ISO)
100
AcDbVertex
100
AcDb2dVertex
 10
722.6279254278696
 20
1103.348114134735
 30
0.0
  0
VERTEX
  5
64E
330
641
100
AcDbEntity
  8
Sichtbar (ISO)
100
AcDbVertex
100
AcDb2dVertex
 10
722.5995478518332
 20
1103.346040887568
 30
0.0
  0
VERTEX
  5
64F
330
641
100
AcDbEntity
  8
Sichtbar (ISO)
100
AcDbVertex
100
AcDb2dVertex
 10
722.5716633588723
 20
1103.345287677785
 30
0.0
  0
VERTEX
  5
650
330
641
100
AcDbEntity
  8
Sichtbar (ISO)
100
AcDbVertex
100
AcDb2dVertex
 10
722.5445536992739
 20
1103.345696989652
 30
0.0
  0
VERTEX
  5
651
330
641
100
AcDbEntity
  8
Sichtbar (ISO)
100
AcDbVertex
100
AcDb2dVertex
 10
722.5183562175064
 20
1103.347114175865
 30
0.0
  0
VERTEX
  5
652
330
641
100
AcDbEntity
  8
Sichtbar (ISO)
100
AcDbVertex
100
AcDb2dVertex
 10
722.4932079913386
 20
1103.349383548209
 30
0.0
  0
VERTEX
  5
653
330
641
100
AcDbEntity
  8
Sichtbar (ISO)
100
AcDbVertex
100
AcDb2dVertex
 10
722.4692463877454
 20
1103.352350880246
 30
0.0
  0
VERTEX
  5
654
330
641
100
AcDbEntity
  8
Sichtbar (ISO)
100
AcDbVertex
100
AcDb2dVertex
 10
722.4466086836764
 20
1103.355860262074
 30
0.0
  0
VERTEX
  5
655
330
641
100
AcDbEntity
  8
Sichtbar (ISO)
100
AcDbVertex
100
AcDb2dVertex
 10
722.4254322461062
 20
1103.359757467255
 30
0.0
  0
VERTEX
  5
656
330
641
100
AcDbEntity
  8
Sichtbar (ISO)
100
AcDbVertex
100
AcDb2dVertex
 10
722.4058547953579
 20
1103.363886984249
 30
0.0
  0
VERTEX
  5
657
330
641
100
AcDbEntity
  8
Sichtbar (ISO)
100
AcDbVertex
100
AcDb2dVertex
 10
722.3880128116593
 20
1103.368093789896
 30
0.0
  0
VERTEX
  5
658
330
641
100
AcDbEntity
  8
Sichtbar (ISO)
100
AcDbVertex
100
AcDb2dVertex
 10
722.3720444587067
 20
1103.372222771015
 30
0.0
  0
VERTEX
  5
659
330
641
100
AcDbEntity
  8
Sichtbar (ISO)
100
AcDbVertex
100
AcDb2dVertex
 10
722.3580864384149
 20
1103.376119103629
 30
0.0
  0
VERTEX
  5
65A
330
641
100
AcDbEntity
  8
Sichtbar (ISO)
100
AcDbVertex
100
AcDb2dVertex
 10
722.3462764936129
 20
1103.379627697062
 30
0.0
  0
VERTEX
  5
65B
330
641
100
AcDbEntity
  8
Sichtbar (ISO)
100
AcDbVertex
100
AcDb2dVertex
 10
722.3367517470826
 20
1103.382593704831
 30
0.0
  0
SEQEND
  5
644
330
641
100
AcDbEntity
  8
Sichtbar (ISO)
  0
POLYLINE
  5
65C
330
37
100
AcDbEntity
  8
Sichtbar (ISO)
100
AcDb2dPolyline
 66
     1
 10
0.0
 20
0.0
 30
0.0
 70
   128
  0
VERTEX
  5
65D
330
65C
100
AcDbEntity
  8
Sichtbar (ISO)
100
AcDbVertex
100
AcDb2dVertex
 10
722.9050573756443
 20
1103.54137739767
 30
0.0
  0
VERTEX
  5
65E
330
65C
100
AcDbEntity
  8
Sichtbar (ISO)
100
AcDbVertex
100
AcDb2dVertex
 10
722.9047354571755
 20
1103.539501203476
 30
0.0
  0
VERTEX
  5
660
330
65C
100
AcDbEntity
  8
Sichtbar (ISO)
100
AcDbVertex
100
AcDb2dVertex
 10
722.9043801844185
 20
1103.537553774706
 30
0.0
  0
VERTEX
  5
661
330
65C
100
AcDbEntity
  8
Sichtbar (ISO)
100
AcDbVertex
100
AcDb2dVertex
 10
722.9039891221956
 20
1103.535536929868
 30
0.0
  0
VERTEX
  5
662
330
65C
100
AcDbEntity
  8
Sichtbar (ISO)
100
AcDbVertex
100
AcDb2dVertex
 10
722.903560301209
 20
1103.533453306695
 30
0.0
  0
VERTEX
  5
663
330
65C
100
AcDbEntity
  8
Sichtbar (ISO)
100
AcDbVertex
100
AcDb2dVertex
 10
722.9030912862809
 20
1103.531304723694
 30
0.0
  0
VERTEX
  5
664
330
65C
100
AcDbEntity
  8
Sichtbar (ISO)
100
AcDbVertex
100
AcDb2dVertex
 10
722.9025801081132
 20
1103.529093818599
 30
0.0
  0
VERTEX
  5
665
330
65C
100
AcDbEntity
  8
Sichtbar (ISO)
100
AcDbVertex
100
AcDb2dVertex
 10
722.9020243315282
 20
1103.526822409916
 30
0.0
  0
VERTEX
  5
666
330
65C
100
AcDbEntity
  8
Sichtbar (ISO)
100
AcDbVertex
100
AcDb2dVertex
 10
722.9014231648688
 20
1103.524497398629
 30
0.0
  0
VERTEX
  5
667
330
65C
100
AcDbEntity
  8
Sichtbar (ISO)
100
AcDbVertex
100
AcDb2dVertex
 10
722.9007799936411
 20
1103.522140656888
 30
0.0
  0
VERTEX
  5
668
330
65C
100
AcDbEntity
  8
Sichtbar (ISO)
100
AcDbVertex
100
AcDb2dVertex
 10
722.9000942011735
 20
1103.519756438377
 30
0.0
  0
VERTEX
  5
669
330
65C
100
AcDbEntity
  8
Sichtbar (ISO)
100
AcDbVertex
100
AcDb2dVertex
 10
722.8993646148897
 20
1103.517346494083
 30
0.0
  0
VERTEX
  5
66A
330
65C
100
AcDbEntity
  8
Sichtbar (ISO)
100
AcDbVertex
100
AcDb2dVertex
 10
722.8985901730571
 20
1103.514912674584
 30
0.0
  0
VERTEX
  5
66B
330
65C
100
AcDbEntity
  8
Sichtbar (ISO)
100
AcDbVertex
100
AcDb2dVertex
 10
722.8977776748195
 20
1103.512479518459
 30
0.0
  0
VERTEX
  5
66C
330
65C
100
AcDbEntity
  8
Sichtbar (ISO)
100
AcDbVertex
100
AcDb2dVertex
 10
722.8969434411602
 20
1103.510093741399
 30
0.0
  0
VERTEX
  5
66D
330
65C
100
AcDbEntity
  8
Sichtbar (ISO)
100
AcDbVertex
100
AcDb2dVertex
 10
722.8960899331391
 20
1103.507757955253
 30
0.0
  0
VERTEX
  5
66E
330
65C
100
AcDbEntity
  8
Sichtbar (ISO)
100
AcDbVertex
100
AcDb2dVertex
 10
722.8952192775984
 20
1103.50547246836
 30
0.0
  0
VERTEX
  5
66F
330
65C
100
AcDbEntity
  8
Sichtbar (ISO)
100
AcDbVertex
100
AcDb2dVertex
 10
722.8943341572849
 20
1103.503240091749
 30
0.0
  0
VERTEX
  5
670
330
65C
100
AcDbEntity
  8
Sichtbar (ISO)
100
AcDbVertex
100
AcDb2dVertex
 10
722.8934441339861
 20
1103.501077830029
 30
0.0
  0
VERTEX
  5
671
330
65C
100
AcDbEntity
  8
Sichtbar (ISO)
100
AcDbVertex
100
AcDb2dVertex
 10
722.8925536864489
 20
1103.498990508543
 30
0.0
  0
VERTEX
  5
672
330
65C
100
AcDbEntity
  8
Sichtbar (ISO)
100
AcDbVertex
100
AcDb2dVertex
 10
722.8916661157795
 20
1103.496978689385
 30
0.0
  0
VERTEX
  5
673
330
65C
100
AcDbEntity
  8
Sichtbar (ISO)
100
AcDbVertex
100
AcDb2dVertex
 10
722.8907841913742
 20
1103.495042857563
 30
0.0
  0
VERTEX
  5
674
330
65C
100
AcDbEntity
  8
Sichtbar (ISO)
100
AcDbVertex
100
AcDb2dVertex
 10
722.8899111034954
 20
1103.493183475583
 30
0.0
  0
VERTEX
  5
675
330
65C
100
AcDbEntity
  8
Sichtbar (ISO)
100
AcDbVertex
100
AcDb2dVertex
 10
722.8890500424066
 20
1103.491401005947
 30
0.0
  0
VERTEX
  5
676
330
65C
100
AcDbEntity
  8
Sichtbar (ISO)
100
AcDbVertex
100
AcDb2dVertex
 10
722.8882040875272
 20
1103.489695811568
 30
0.0
  0
SEQEND
  5
65F
330
65C
100
AcDbEntity
  8
Sichtbar (ISO)
  0
POLYLINE
  5
677
330
37
100
AcDbEntity
  8
Sichtbar (ISO)
100
AcDb2dPolyline
 66
     1
 10
0.0
 20
0.0
 30
0.0
 70
   128
  0
VERTEX
  5
678
330
677
100
AcDbEntity
  8
Sichtbar (ISO)
100
AcDbVertex
100
AcDb2dVertex
 10
722.5227520477367
 20
1103.952975883319
 30
0.0
  0
VERTEX
  5
679
330
677
100
AcDbEntity
  8
Sichtbar (ISO)
100
AcDbVertex
100
AcDb2dVertex
 10
722.5311082673455
 20
1103.950177142742
 30
0.0
  0
VERTEX
  5
67B
330
677
100
AcDbEntity
  8
Sichtbar (ISO)
100
AcDbVertex
100
AcDb2dVertex
 10
722.5414296163136
 20
1103.946629973665
 30
0.0
  0
VERTEX
  5
67C
330
677
100
AcDbEntity
  8
Sichtbar (ISO)
100
AcDbVertex
100
AcDb2dVertex
 10
722.5536474786601
 20
1103.94221543386
 30
0.0
  0
VERTEX
  5
67D
330
677
100
AcDbEntity
  8
Sichtbar (ISO)
100
AcDbVertex
100
AcDb2dVertex
 10
722.5676926841877
 20
1103.936814083151
 30
0.0
  0
VERTEX
  5
67E
330
677
100
AcDbEntity
  8
Sichtbar (ISO)
100
AcDbVertex
100
AcDb2dVertex
 10
722.5834965060718
 20
1103.93030687972
 30
0.0
  0
VERTEX
  5
67F
330
677
100
AcDbEntity
  8
Sichtbar (ISO)
100
AcDbVertex
100
AcDb2dVertex
 10
722.6009897966214
 20
1103.922574804256
 30
0.0
  0
VERTEX
  5
680
330
677
100
AcDbEntity
  8
Sichtbar (ISO)
100
AcDbVertex
100
AcDb2dVertex
 10
722.6201035189886
 20
1103.913498937038
 30
0.0
  0
VERTEX
  5
681
330
677
100
AcDbEntity
  8
Sichtbar (ISO)
100
AcDbVertex
100
AcDb2dVertex
 10
722.6407688129995
 20
1103.902959715794
 30
0.0
  0
VERTEX
  5
682
330
677
100
AcDbEntity
  8
Sichtbar (ISO)
100
AcDbVertex
100
AcDb2dVertex
 10
722.6629167526496
 20
1103.890838320392
 30
0.0
  0
VERTEX
  5
683
330
677
100
AcDbEntity
  8
Sichtbar (ISO)
100
AcDbVertex
100
AcDb2dVertex
 10
722.6860963388458
 20
1103.877124575215
 30
0.0
  0
VERTEX
  5
684
330
677
100
AcDbEntity
  8
Sichtbar (ISO)
100
AcDbVertex
100
AcDb2dVertex
 10
722.7093802229232
 20
1103.862024553868
 30
0.0
  0
VERTEX
  5
685
330
677
100
AcDbEntity
  8
Sichtbar (ISO)
100
AcDbVertex
100
AcDb2dVertex
 10
722.732500570776
 20
1103.845622537262
 30
0.0
  0
VERTEX
  5
686
330
677
100
AcDbEntity
  8
Sichtbar (ISO)
100
AcDbVertex
100
AcDb2dVertex
 10
722.7552101899193
 20
1103.827998114878
 30
0.0
  0
VERTEX
  5
687
330
677
100
AcDbEntity
  8
Sichtbar (ISO)
100
AcDbVertex
100
AcDb2dVertex
 10
722.7772617545179
 20
1103.809230355739
 30
0.0
  0
VERTEX
  5
688
330
677
100
AcDbEntity
  8
Sichtbar (ISO)
100
AcDbVertex
100
AcDb2dVertex
 10
722.7984078729057
 20
1103.789399071014
 30
0.0
  0
VERTEX
  5
689
330
677
100
AcDbEntity
  8
Sichtbar (ISO)
100
AcDbVertex
100
AcDb2dVertex
 10
722.8184009092242
 20
1103.768583451821
 30
0.0
  0
VERTEX
  5
68A
330
677
100
AcDbEntity
  8
Sichtbar (ISO)
100
AcDbVertex
100
AcDb2dVertex
 10
722.8369938701684
 20
1103.746862865955
 30
0.0
  0
VERTEX
  5
68B
330
677
100
AcDbEntity
  8
Sichtbar (ISO)
100
AcDbVertex
100
AcDb2dVertex
 10
722.8539393415663
 20
1103.724316703715
 30
0.0
  0
VERTEX
  5
68C
330
677
100
AcDbEntity
  8
Sichtbar (ISO)
100
AcDbVertex
100
AcDb2dVertex
 10
722.8689897100649
 20
1103.701024577089
 30
0.0
  0
VERTEX
  5
68D
330
677
100
AcDbEntity
  8
Sichtbar (ISO)
100
AcDbVertex
100
AcDb2dVertex
 10
722.8818975614927
 20
1103.677065876376
 30
0.0
  0
VERTEX
  5
68E
330
677
100
AcDbEntity
  8
Sichtbar (ISO)
100
AcDbVertex
100
AcDb2dVertex
 10
722.8924156808578
 20
1103.652519770191
 30
0.0
  0
VERTEX
  5
68F
330
677
100
AcDbEntity
  8
Sichtbar (ISO)
100
AcDbVertex
100
AcDb2dVertex
 10
722.9008849270925
 20
1103.625317083771
 30
0.0
  0
VERTEX
  5
690
330
677
100
AcDbEntity
  8
Sichtbar (ISO)
100
AcDbVertex
100
AcDb2dVertex
 10
722.906780811667
 20
1103.590724907305
 30
0.0
  0
VERTEX
  5
691
330
677
100
AcDbEntity
  8
Sichtbar (ISO)
100
AcDbVertex
100
AcDb2dVertex
 10
722.9050573756443
 20
1103.54137739767
 30
0.0
  0
SEQEND
  5
67A
330
677
100
AcDbEntity
  8
Sichtbar (ISO)
  0
POLYLINE
  5
692
330
37
100
AcDbEntity
  8
Sichtbar (ISO)
100
AcDb2dPolyline
 66
     1
 10
0.0
 20
0.0
 30
0.0
 70
   128
  0
VERTEX
  5
693
330
692
100
AcDbEntity
  8
Sichtbar (ISO)
100
AcDbVertex
100
AcDb2dVertex
 10
724.1471364387319
 20
1105.449558184145
 30
0.0
  0
VERTEX
  5
694
330
692
100
AcDbEntity
  8
Sichtbar (ISO)
100
AcDbVertex
100
AcDb2dVertex
 10
724.0822722284822
 20
1105.42216335897
 30
0.0
  0
VERTEX
  5
696
330
692
100
AcDbEntity
  8
Sichtbar (ISO)
100
AcDbVertex
100
AcDb2dVertex
 10
724.032339922558
 20
1105.415631309733
 30
0.0
  0
VERTEX
  5
697
330
692
100
AcDbEntity
  8
Sichtbar (ISO)
100
AcDbVertex
100
AcDb2dVertex
 10
723.9899668340501
 20
1105.417235610977
 30
0.0
  0
VERTEX
  5
698
330
692
100
AcDbEntity
  8
Sichtbar (ISO)
100
AcDbVertex
100
AcDb2dVertex
 10
723.9593459763524
 20
1105.42181439702
 30
0.0
  0
VERTEX
  5
699
330
692
100
AcDbEntity
  8
Sichtbar (ISO)
100
AcDbVertex
100
AcDb2dVertex
 10
723.9342997110128
 20
1105.427396570705
 30
0.0
  0
VERTEX
  5
69A
330
692
100
AcDbEntity
  8
Sichtbar (ISO)
100
AcDbVertex
100
AcDb2dVertex
 10
723.909522719929
 20
1105.434515968858
 30
0.0
  0
VERTEX
  5
69B
330
692
100
AcDbEntity
  8
Sichtbar (ISO)
100
AcDbVertex
100
AcDb2dVertex
 10
723.8851073894071
 20
1105.443013608417
 30
0.0
  0
VERTEX
  5
69C
330
692
100
AcDbEntity
  8
Sichtbar (ISO)
100
AcDbVertex
100
AcDb2dVertex
 10
723.8611469163306
 20
1105.452729632022
 30
0.0
  0
VERTEX
  5
69D
330
692
100
AcDbEntity
  8
Sichtbar (ISO)
100
AcDbVertex
100
AcDb2dVertex
 10
723.837734071511
 20
1105.463504600789
 30
0.0
  0
VERTEX
  5
69E
330
692
100
AcDbEntity
  8
Sichtbar (ISO)
100
AcDbVertex
100
AcDb2dVertex
 10
723.8149618665064
 20
1105.475178891495
 30
0.0
  0
VERTEX
  5
69F
330
692
100
AcDbEntity
  8
Sichtbar (ISO)
100
AcDbVertex
100
AcDb2dVertex
 10
723.7929226737681
 20
1105.48759350863
 30
0.0
  0
VERTEX
  5
6A0
330
692
100
AcDbEntity
  8
Sichtbar (ISO)
100
AcDbVertex
100
AcDb2dVertex
 10
723.7717098893592
 20
1105.500588373148
 30
0.0
  0
VERTEX
  5
6A1
330
692
100
AcDbEntity
  8
Sichtbar (ISO)
100
AcDbVertex
100
AcDb2dVertex
 10
723.7514161126222
 20
1105.514004292748
 30
0.0
  0
VERTEX
  5
6A2
330
692
100
AcDbEntity
  8
Sichtbar (ISO)
100
AcDbVertex
100
AcDb2dVertex
 10
723.7321341143686
 20
1105.527681828549
 30
0.0
  0
VERTEX
  5
6A3
330
692
100
AcDbEntity
  8
Sichtbar (ISO)
100
AcDbVertex
100
AcDb2dVertex
 10
723.7139568923012
 20
1105.541461344876
 30
0.0
  0
VERTEX
  5
6A4
330
692
100
AcDbEntity
  8
Sichtbar (ISO)
100
AcDbVertex
100
AcDb2dVertex
 10
723.6970371516901
 20
1105.555107443358
 30
0.0
  0
VERTEX
  5
6A5
330
692
100
AcDbEntity
  8
Sichtbar (ISO)
100
AcDbVertex
100
AcDb2dVertex
 10
723.6817249438957
 20
1105.568092479725
 30
0.0
  0
VERTEX
  5
6A6
330
692
100
AcDbEntity
  8
Sichtbar (ISO)
100
AcDbVertex
100
AcDb2dVertex
 10
723.6680128885429
 20
1105.580280414301
 30
0.0
  0
VERTEX
  5
6A7
330
692
100
AcDbEntity
  8
Sichtbar (ISO)
100
AcDbVertex
100
AcDb2dVertex
 10
723.655841307313
 20
1105.5915975952
 30
0.0
  0
VERTEX
  5
6A8
330
692
100
AcDbEntity
  8
Sichtbar (ISO)
100
AcDbVertex
100
AcDb2dVertex
 10
723.6451509341041
 20
1105.601969939609
 30
0.0
  0
VERTEX
  5
6A9
330
692
100
AcDbEntity
  8
Sichtbar (ISO)
100
AcDbVertex
100
AcDb2dVertex
 10
723.6358824612477
 20
1105.61132332737
 30
0.0
  0
VERTEX
  5
6AA
330
692
100
AcDbEntity
  8
Sichtbar (ISO)
100
AcDbVertex
100
AcDb2dVertex
 10
723.627976224281
 20
1105.619584119047
 30
0.0
  0
VERTEX
  5
6AB
330
692
100
AcDbEntity
  8
Sichtbar (ISO)
100
AcDbVertex
100
AcDb2dVertex
 10
723.6213731147158
 20
1105.626677972792
 30
0.0
  0
VERTEX
  5
6AC
330
692
100
AcDbEntity
  8
Sichtbar (ISO)
100
AcDbVertex
100
AcDb2dVertex
 10
723.6160136672695
 20
1105.632531027483
 30
0.0
  0
SEQEND
  5
695
330
692
100
AcDbEntity
  8
Sichtbar (ISO)
  0
POLYLINE
  5
6AD
330
37
100
AcDbEntity
  8
Sichtbar (ISO)
100
AcDb2dPolyline
 66
     1
 10
0.0
 20
0.0
 30
0.0
 70
   128
  0
VERTEX
  5
6AE
330
6AD
100
AcDbEntity
  8
Sichtbar (ISO)
100
AcDbVertex
100
AcDb2dVertex
 10
724.187572554701
 20
1105.485889106119
 30
0.0
  0
VERTEX
  5
6AF
330
6AD
100
AcDbEntity
  8
Sichtbar (ISO)
100
AcDbVertex
100
AcDb2dVertex
 10
724.1863540635158
 20
1105.484423321789
 30
0.0
  0
VERTEX
  5
6B1
330
6AD
100
AcDbEntity
  8
Sichtbar (ISO)
100
AcDbVertex
100
AcDb2dVertex
 10
724.185070914002
 20
1105.482912264101
 30
0.0
  0
VERTEX
  5
6B2
330
6AD
100
AcDbEntity
  8
Sichtbar (ISO)
100
AcDbVertex
100
AcDb2dVertex
 10
724.1837219647228
 20
1105.4813593146
 30
0.0
  0
VERTEX
  5
6B3
330
6AD
100
AcDbEntity
  8
Sichtbar (ISO)
100
AcDbVertex
100
AcDb2dVertex
 10
724.1823066743809
 20
1105.479767192112
 30
0.0
  0
VERTEX
  5
6B4
330
6AD
100
AcDbEntity
  8
Sichtbar (ISO)
100
AcDbVertex
100
AcDb2dVertex
 10
724.1808242981683
 20
1105.478138833253
 30
0.0
  0
VERTEX
  5
6B5
330
6AD
100
AcDbEntity
  8
Sichtbar (ISO)
100
AcDbVertex
100
AcDb2dVertex
 10
724.1792736989784
 20
1105.476477623465
 30
0.0
  0
VERTEX
  5
6B6
330
6AD
100
AcDbEntity
  8
Sichtbar (ISO)
100
AcDbVertex
100
AcDb2dVertex
 10
724.1776543320498
 20
1105.474786278457
 30
0.0
  0
VERTEX
  5
6B7
330
6AD
100
AcDbEntity
  8
Sichtbar (ISO)
100
AcDbVertex
100
AcDb2dVertex
 10
724.1759729769162
 20
1105.473075296587
 30
0.0
  0
VERTEX
  5
6B8
330
6AD
100
AcDbEntity
  8
Sichtbar (ISO)
100
AcDbVertex
100
AcDb2dVertex
 10
724.1742376639957
 20
1105.471356300107
 30
0.0
  0
VERTEX
  5
6B9
330
6AD
100
AcDbEntity
  8
Sichtbar (ISO)
100
AcDbVertex
100
AcDb2dVertex
 10
724.1724481880026
 20
1105.469631508444
 30
0.0
  0
VERTEX
  5
6BA
330
6AD
100
AcDbEntity
  8
Sichtbar (ISO)
100
AcDbVertex
100
AcDb2dVertex
 10
724.1706043315272
 20
1105.467903130136
 30
0.0
  0
VERTEX
  5
6BB
330
6AD
100
AcDbEntity
  8
Sichtbar (ISO)
100
AcDbVertex
100
AcDb2dVertex
 10
724.1687064927552
 20
1105.46617392682
 30
0.0
  0
VERTEX
  5
6BC
330
6AD
100
AcDbEntity
  8
Sichtbar (ISO)
100
AcDbVertex
100
AcDb2dVertex
 10
724.1667897564872
 20
1105.464477023965
 30
0.0
  0
VERTEX
  5
6BD
330
6AD
100
AcDbEntity
  8
Sichtbar (ISO)
100
AcDbVertex
100
AcDb2dVertex
 10
724.1648762460936
 20
1105.462830295684
 30
0.0
  0
VERTEX
  5
6BE
330
6AD
100
AcDbEntity
  8
Sichtbar (ISO)
100
AcDbVertex
100
AcDb2dVertex
 10
724.1629677005699
 20
1105.46123370184
 30
0.0
  0
VERTEX
  5
6BF
330
6AD
100
AcDbEntity
  8
Sichtbar (ISO)
100
AcDbVertex
100
AcDb2dVertex
 10
724.1610662563007
 20
1105.459686758052
 30
0.0
  0
VERTEX
  5
6C0
330
6AD
100
AcDbEntity
  8
Sichtbar (ISO)
100
AcDbVertex
100
AcDb2dVertex
 10
724.1591800521168
 20
1105.458193571706
 30
0.0
  0
VERTEX
  5
6C1
330
6AD
100
AcDbEntity
  8
Sichtbar (ISO)
100
AcDbVertex
100
AcDb2dVertex
 10
724.1573298911609
 20
1105.456768426847
 30
0.0
  0
VERTEX
  5
6C2
330
6AD
100
AcDbEntity
  8
Sichtbar (ISO)
100
AcDbVertex
100
AcDb2dVertex
 10
724.1555206818212
 20
1105.455410925797
 30
0.0
  0
VERTEX
  5
6C3
330
6AD
100
AcDbEntity
  8
Sichtbar (ISO)
100
AcDbVertex
100
AcDb2dVertex
 10
724.1537556559617
 20
1105.454119965855
 30
0.0
  0
VERTEX
  5
6C4
330
6AD
100
AcDbEntity
  8
Sichtbar (ISO)
100
AcDbVertex
100
AcDb2dVertex
 10
724.1520337311892
 20
1105.452891769996
 30
0.0
  0
VERTEX
  5
6C5
330
6AD
100
AcDbEntity
  8
Sichtbar (ISO)
100
AcDbVertex
100
AcDb2dVertex
 10
724.1503548764078
 20
1105.451722704469
 30
0.0
  0
VERTEX
  5
6C6
330
6AD
100
AcDbEntity
  8
Sichtbar (ISO)
100
AcDbVertex
100
AcDb2dVertex
 10
724.1487216055806
 20
1105.450611822846
 30
0.0
  0
VERTEX
  5
6C7
330
6AD
100
AcDbEntity
  8
Sichtbar (ISO)
100
AcDbVertex
100
AcDb2dVertex
 10
724.1471364369999
 20
1105.449558182589
 30
0.0
  0
SEQEND
  5
6B0
330
6AD
100
AcDbEntity
  8
Sichtbar (ISO)
  0
POLYLINE
  5
6C8
330
37
100
AcDbEntity
  8
Sichtbar (ISO)
100
AcDb2dPolyline
 66
     1
 10
0.0
 20
0.0
 30
0.0
 70
   128
  0
VERTEX
  5
6C9
330
6C8
100
AcDbEntity
  8
Sichtbar (ISO)
100
AcDbVertex
100
AcDb2dVertex
 10
724.062285874877
 20
1106.03349636169
 30
0.0
  0
VERTEX
  5
6CA
330
6C8
100
AcDbEntity
  8
Sichtbar (ISO)
100
AcDbVertex
100
AcDb2dVertex
 10
724.0676862818798
 20
1106.027387636819
 30
0.0
  0
VERTEX
  5
6CC
330
6C8
100
AcDbEntity
  8
Sichtbar (ISO)
100
AcDbVertex
100
AcDb2dVertex
 10
724.0742480953769
 20
1106.019860440851
 30
0.0
  0
VERTEX
  5
6CD
330
6C8
100
AcDbEntity
  8
Sichtbar (ISO)
100
AcDbVertex
100
AcDb2dVertex
 10
724.0818756499565
 20
1106.010859269687
 30
0.0
  0
VERTEX
  5
6CE
330
6C8
100
AcDbEntity
  8
Sichtbar (ISO)
100
AcDbVertex
100
AcDb2dVertex
 10
724.0904734516761
 20
1106.000328372645
 30
0.0
  0
VERTEX
  5
6CF
330
6C8
100
AcDbEntity
  8
Sichtbar (ISO)
100
AcDbVertex
100
AcDb2dVertex
 10
724.0999462611957
 20
1105.988211827148
 30
0.0
  0
VERTEX
  5
6D0
330
6C8
100
AcDbEntity
  8
Sichtbar (ISO)
100
AcDbVertex
100
AcDb2dVertex
 10
724.1101985707172
 20
1105.974453870066
 30
0.0
  0
VERTEX
  5
6D1
330
6C8
100
AcDbEntity
  8
Sichtbar (ISO)
100
AcDbVertex
100
AcDb2dVertex
 10
724.1211347425398
 20
1105.958999022195
 30
0.0
  0
VERTEX
  5
6D2
330
6C8
100
AcDbEntity
  8
Sichtbar (ISO)
100
AcDbVertex
100
AcDb2dVertex
 10
724.1326594957568
 20
1105.941791323616
 30
0.0
  0
VERTEX
  5
6D3
330
6C8
100
AcDbEntity
  8
Sichtbar (ISO)
100
AcDbVertex
100
AcDb2dVertex
 10
724.1446773502813
 20
1105.922775036092
 30
0.0
  0
VERTEX
  5
6D4
330
6C8
100
AcDbEntity
  8
Sichtbar (ISO)
100
AcDbVertex
100
AcDb2dVertex
 10
724.1570576126575
 20
1105.901933697285
 30
0.0
  0
VERTEX
  5
6D5
330
6C8
100
AcDbEntity
  8
Sichtbar (ISO)
100
AcDbVertex
100
AcDb2dVertex
 10
724.1692330094293
 20
1105.879771258781
 30
0.0
  0
VERTEX
  5
6D6
330
6C8
100
AcDbEntity
  8
Sichtbar (ISO)
100
AcDbVertex
100
AcDb2dVertex
 10
724.1809060719429
 20
1105.856561724236
 30
0.0
  0
VERTEX
  5
6D7
330
6C8
100
AcDbEntity
  8
Sichtbar (ISO)
100
AcDbVertex
100
AcDb2dVertex
 10
724.1919106120515
 20
1105.832441037196
 30
0.0
  0
VERTEX
  5
6D8
330
6C8
100
AcDbEntity
  8
Sichtbar (ISO)
100
AcDbVertex
100
AcDb2dVertex
 10
724.2020804277536
 20
1105.807545128755
 30
0.0
  0
VERTEX
  5
6D9
330
6C8
100
AcDbEntity
  8
Sichtbar (ISO)
100
AcDbVertex
100
AcDb2dVertex
 10
724.2112493170475
 20
1105.78200993001
 30
0.0
  0
VERTEX
  5
6DA
330
6C8
100
AcDbEntity
  8
Sichtbar (ISO)
100
AcDbVertex
100
AcDb2dVertex
 10
724.2192512909672
 20
1105.755971162815
 30
0.0
  0
VERTEX
  5
6DB
330
6C8
100
AcDbEntity
  8
Sichtbar (ISO)
100
AcDbVertex
100
AcDb2dVertex
 10
724.2259201475111
 20
1105.729564758267
 30
0.0
  0
VERTEX
  5
6DC
330
6C8
100
AcDbEntity
  8
Sichtbar (ISO)
100
AcDbVertex
100
AcDb2dVertex
 10
724.2310896846776
 20
1105.702926647461
 30
0.0
  0
VERTEX
  5
6DD
330
6C8
100
AcDbEntity
  8
Sichtbar (ISO)
100
AcDbVertex
100
AcDb2dVertex
 10
724.2345939135007
 20
1105.676192552254
 30
0.0
  0
VERTEX
  5
6DE
330
6C8
100
AcDbEntity
  8
Sichtbar (ISO)
100
AcDbVertex
100
AcDb2dVertex
 10
724.2362671049614
 20
1105.649491216435
 30
0.0
  0
VERTEX
  5
6DF
330
6C8
100
AcDbEntity
  8
Sichtbar (ISO)
100
AcDbVertex
100
AcDb2dVertex
 10
724.2357381894337
 20
1105.618563715346
 30
0.0
  0
VERTEX
  5
6E0
330
6C8
100
AcDbEntity
  8
Sichtbar (ISO)
100
AcDbVertex
100
AcDb2dVertex
 10
724.2309610366785
 20
1105.581490316847
 30
0.0
  0
VERTEX
  5
6E1
330
6C8
100
AcDbEntity
  8
Sichtbar (ISO)
100
AcDbVertex
100
AcDb2dVertex
 10
724.2191740966963
 20
1105.54055310905
 30
0.0
  0
VERTEX
  5
6E2
330
6C8
100
AcDbEntity
  8
Sichtbar (ISO)
100
AcDbVertex
100
AcDb2dVertex
 10
724.1875725529689
 20
1105.485889104563
 30
0.0
  0
SEQEND
  5
6CB
330
6C8
100
AcDbEntity
  8
Sichtbar (ISO)
  0
ARC
  5
6E3
330
37
100
AcDbEntity
  8
Sichtbar (ISO)
100
AcDbCircle
 10
727.174823360715
 20
1102.12042736926
 30
0.0
 40
5.000000000000098
100
AcDbArc
 50
128.4994787745597
 51
135.3784544809948
  0
ARC
  5
6E4
330
37
100
AcDbEntity
  8
Sichtbar (ISO)
100
AcDbCircle
 10
727.174823360715
 20
1102.12042736926
 30
0.0
 40
4.99999999999998
100
AcDbArc
 50
135.3784544809963
 51
158.4994787745609
  0
ARC
  5
6E5
330
37
100
AcDbEntity
  8
Sichtbar (ISO)
100
AcDbCircle
 10
727.174823360715
 20
1102.12042736926
 30
0.0
 40
4.999999999999971
100
AcDbArc
 50
165.3784544809953
 51
188.4994787745606
  0
ARC
  5
6E6
330
37
100
AcDbEntity
  8
Sichtbar (ISO)
100
AcDbCircle
 10
727.174823360715
 20
1102.12042736926
 30
0.0
 40
4.999999999999981
100
AcDbArc
 50
195.3784544809944
 51
218.4994787745601
  0
ARC
  5
6E7
330
37
100
AcDbEntity
  8
Sichtbar (ISO)
100
AcDbCircle
 10
727.174823360715
 20
1102.12042736926
 30
0.0
 40
4.999999999999987
100
AcDbArc
 50
225.3784544809949
 51
248.4994787745604
  0
ARC
  5
6E8
330
37
100
AcDbEntity
  8
Sichtbar (ISO)
100
AcDbCircle
 10
727.174823360715
 20
1102.12042736926
 30
0.0
 40
4.999999999999971
100
AcDbArc
 50
255.3784544809956
 51
278.4994787745608
  0
ARC
  5
6E9
330
37
100
AcDbEntity
  8
Sichtbar (ISO)
100
AcDbCircle
 10
727.174823360715
 20
1102.12042736926
 30
0.0
 40
5.000000000000003
100
AcDbArc
 50
285.3784544809954
 51
308.4994787745602
  0
ARC
  5
6EA
330
37
100
AcDbEntity
  8
Sichtbar (ISO)
100
AcDbCircle
 10
727.174823360715
 20
1102.12042736926
 30
0.0
 40
4.999999999999984
100
AcDbArc
 50
315.3784544809963
 51
338.499478774561
  0
ARC
  5
6EB
330
37
100
AcDbEntity
  8
Sichtbar (ISO)
100
AcDbCircle
 10
727.174823360715
 20
1102.12042736926
 30
0.0
 40
4.999999999999968
100
AcDbArc
 50
345.3784544809953
 51
8.499478774560602
  0
ARC
  5
6EC
330
37
100
AcDbEntity
  8
Sichtbar (ISO)
100
AcDbCircle
 10
727.174823360715
 20
1102.12042736926
 30
0.0
 40
4.999999999999999
100
AcDbArc
 50
15.37845448099415
 51
38.49947877456016
  0
ARC
  5
6ED
330
37
100
AcDbEntity
  8
Sichtbar (ISO)
100
AcDbCircle
 10
727.174823360715
 20
1102.12042736926
 30
0.0
 40
4.999999999999995
100
AcDbArc
 50
45.37845448099488
 51
68.49947877456036
  0
ARC
  5
6EE
330
37
100
AcDbEntity
  8
Sichtbar (ISO)
100
AcDbCircle
 10
727.174823360715
 20
1102.12042736926
 30
0.0
 40
4.999999999999968
100
AcDbArc
 50
75.37845448099556
 51
98.49947877456081
  0
CIRCLE
  5
6EF
330
37
100
AcDbEntity
  8
Sichtbar (ISO)
100
AcDbCircle
 10
727.1748233607129
 20
1102.12042736926
 30
0.0
 40
1.950991055577672
  0
CIRCLE
  5
6F0
330
37
100
AcDbEntity
  8
Sichtbar (ISO)
100
AcDbCircle
 10
727.1748233607127
 20
1102.12042736926
 30
0.0
 40
2.950991055577669
  0
ARC
  5
6F1
330
37
100
AcDbEntity
  8
Sichtbar (ISO)
100
AcDbCircle
 10
727.174823360715
 20
1102.12042736926
 30
0.0
 40
4.999999999999974
100
AcDbArc
 50
105.3784544809954
 51
128.4994787745602
  0
CIRCLE
  5
6F2
330
37
100
AcDbEntity
  8
Sichtbar (ISO)
100
AcDbCircle
 10
727.174823360715
 20
1102.12042736926
 30
0.0
 40
5.423717232582446
  0
CIRCLE
  5
6F3
330
37
100
AcDbEntity
  8
Sichtbar (ISO)
100
AcDbCircle
 10
727.1748233607633
 20
1102.12042736926
 30
0.0
 40
302.4925248705475
  0
CIRCLE
  5
6F4
330
37
100
AcDbEntity
  8
Sichtbar (ISO)
100
AcDbCircle
 10
727.1748233607627
 20
1102.12042736926
 30
0.0
 40
300.4792358890112
  0
LINE
  5
6F5
330
37
100
AcDbEntity
  8
Sichtbar (ISO)
100
AcDbLine
 10
201.3909448320015
 20
58.40276873595238
 30
0.0
 11
201.3909448320015
 21
663.4027687359524
 31
0.0
  0
LINE
  5
6F6
330
37
100
AcDbEntity
  8
Sichtbar (ISO)
100
AcDbLine
 10
209.3909448320016
 20
58.40276873595238
 30
0.0
 11
209.3909448320016
 21
663.4027687359524
 31
0.0
  0
ARC
  5
6F7
330
37
100
AcDbEntity
  8
Sichtbar (ISO)
100
AcDbCircle
 10
-268.6671643376452
 20
360.9027687359525
 30
0.0
 40
652.0000000000004
100
AcDbArc
 50
335.9031238206817
 51
354.9295070209516
  0
ARC
  5
6F8
330
37
100
AcDbEntity
  8
Sichtbar (ISO)
100
AcDbCircle
 10
-268.6671643376452
 20
360.9027687359525
 30
0.0
 40
652.0000000000004
100
AcDbArc
 50
5.070492979048471
 51
24.09687617931837
  0
ARC
  5
6F9
330
37
100
AcDbEntity
  8
Sichtbar (ISO)
100
AcDbCircle
 10
352.8909448320075
 20
305.7528192758331
 30
0.0
 40
27.99999999999391
100
AcDbArc
 50
354.9295070209516
 51
0.0
  0
ARC
  5
6FA
330
37
100
AcDbEntity
  8
Sichtbar (ISO)
100
AcDbCircle
 10
352.8909448320075
 20
416.0527181960718
 30
0.0
 40
27.99999999999391
100
AcDbArc
 50
0.0
 51
5.070492979048398
  0
LINE
  5
6FB
330
37
100
AcDbEntity
  8
Sichtbar (ISO)
100
AcDbLine
 10
380.8909448320014
 20
305.7528192758331
 30
0.0
 11
380.8909448320014
 21
416.0527181960718
 31
0.0
  0
LINE
  5
6FC
330
37
100
AcDbEntity
  8
Sichtbar (ISO)
100
AcDbLine
 10
201.3909448320015
 20
663.4027687359526
 30
0.0
 11
209.3909448320016
 21
663.4027687359526
 31
0.0
  0
LINE
  5
6FD
330
37
100
AcDbEntity
  8
Sichtbar (ISO)
100
AcDbLine
 10
201.3909448320015
 20
58.40276873595243
 30
0.0
 11
209.3909448320016
 21
58.40276873595243
 31
0.0
  0
ARC
  5
6FE
330
37
100
AcDbEntity
  8
Sichtbar (ISO)
100
AcDbCircle
 10
209.3909448320011
 20
59.40276873595876
 30
0.0
 40
601.9999999999937
100
AcDbArc
 50
82.58732264382217
 51
90.0
  0
ARC
  5
6FF
330
37
100
AcDbEntity
  8
Sichtbar (ISO)
100
AcDbCircle
 10
209.3909448320011
 20
662.4027687359462
 30
0.0
 40
601.9999999999939
100
AcDbArc
 50
270.0000000000001
 51
277.4126773561779
  0
ARC
  5
700
330
37
100
AcDbEntity
  8
Sichtbar (ISO)
100
AcDbCircle
 10
279.4805038654713
 20
116.8788388204544
 30
0.0
 40
52.00000000000001
100
AcDbArc
 50
278.3790176620017
 51
334.7579106646938
  0
ARC
  5
701
330
37
100
AcDbEntity
  8
Sichtbar (ISO)
100
AcDbCircle
 10
279.4805038654713
 20
604.9266986514505
 30
0.0
 40
52.00000000000001
100
AcDbArc
 50
25.24208933530621
 51
81.62098233799829
  0
ARC
  5
702
330
37
100
AcDbEntity
  8
Sichtbar (ISO)
100
AcDbCircle
 10
58.89094483201298
 20
305.9027687407655
 30
0.0
 40
28.00000000000002
100
AcDbArc
 50
180.0
 51
185.056670652205
  0
ARC
  5
703
330
37
100
AcDbEntity
  8
Sichtbar (ISO)
100
AcDbCircle
 10
58.89094483201311
 20
415.9027687311395
 30
0.0
 40
28.00000000000003
100
AcDbArc
 50
174.9433293477951
 51
180.0
  0
LINE
  5
704
330
37
100
AcDbEntity
  8
Sichtbar (ISO)
100
AcDbLine
 10
30.89094483201312
 20
415.9027687311395
 30
0.0
 11
30.89094483201297
 21
305.9027687407655
 31
0.0
  0
ARC
  5
705
330
37
100
AcDbEntity
  8
Sichtbar (ISO)
100
AcDbCircle
 10
680.4623405702642
 20
360.9027687312178
 30
0.0
 40
652.0000000048228
100
AcDbArc
 50
185.0566706513685
 51
203.9686320445596
  0
ARC
  5
706
330
37
100
AcDbEntity
  8
Sichtbar (ISO)
100
AcDbCircle
 10
680.4623405702642
 20
360.9027687312178
 30
0.0
 40
652.0000000048228
100
AcDbArc
 50
156.0313679546801
 51
174.9433293478029
  0
ARC
  5
707
330
37
100
AcDbEntity
  8
Sichtbar (ISO)
100
AcDbCircle
 10
132.2015414720934
 20
117.1609049335201
 30
0.0
 40
51.99999999999998
100
AcDbArc
 50
203.968632045327
 51
262.4579689911787
  0
ARC
  5
708
330
37
100
AcDbEntity
  8
Sichtbar (ISO)
100
AcDbCircle
 10
132.2015414720941
 20
604.6446325383848
 30
0.0
 40
52.00000000000001
100
AcDbArc
 50
97.5420310088212
 51
156.031367954673
  0
ARC
  5
709
330
37
100
AcDbEntity
  8
Sichtbar (ISO)
100
AcDbCircle
 10
204.3909448306
 20
59.40276873595964
 30
0.0
 40
601.9999999999993
100
AcDbArc
 50
90.47587983660987
 51
97.54203100882101
  0
ARC
  5
70A
330
37
100
AcDbEntity
  8
Sichtbar (ISO)
100
AcDbCircle
 10
204.3909448306008
 20
662.4027687359454
 30
0.0
 40
601.9999999999996
100
AcDbArc
 50
262.4579689911787
 51
269.5241201633897
  0
LINE
  5
70B
330
37
100
AcDbEntity
  8
Sichtbar (ISO)
100
AcDbLine
 10
345.2420454712082
 20
375.9027687360185
 30
0.0
 11
346.037049571052
 21
375.9027687360191
 31
0.0
  0
LINE
  5
70C
330
37
100
AcDbEntity
  8
Sichtbar (ISO)
100
AcDbLine
 10
346.037049571052
 20
345.902768736019
 30
0.0
 11
345.2420454712082
 21
345.9027687360184
 31
0.0
  0
LINE
  5
70D
330
37
100
AcDbEntity
  8
Sichtbar (ISO)
100
AcDbLine
 10
345.2420454712082
 20
345.9027687360184
 30
0.0
 11
345.2420454712082
 21
375.9027687360185
 31
0.0
  0
LINE
  5
70E
330
37
100
AcDbEntity
  8
Sichtbar (ISO)
100
AcDbLine
 10
346.037049571052
 20
345.902768736019
 30
0.0
 11
376.6266042426081
 21
345.9027687360274
 31
0.0
  0
LINE
  5
70F
330
37
100
AcDbEntity
  8
Sichtbar (ISO)
100
AcDbLine
 10
376.6266042426081
 20
375.9027687360275
 30
0.0
 11
346.037049571052
 21
375.9027687360191
 31
0.0
  0
LINE
  5
710
330
37
100
AcDbEntity
  8
Sichtbar (ISO)
100
AcDbLine
 10
379.9216083424519
 20
345.9027687360407
 30
0.0
 11
377.4216083424519
 21
345.9027687360407
 31
0.0
  0
LINE
  5
711
330
37
100
AcDbEntity
  8
Sichtbar (ISO)
100
AcDbLine
 10
379.9216083424519
 20
345.9027687360407
 30
0.0
 11
379.9216083424519
 21
375.9027687360408
 31
0.0
  0
LINE
  5
712
330
37
100
AcDbEntity
  8
Sichtbar (ISO)
100
AcDbLine
 10
377.4216083424519
 20
375.9027687360408
 30
0.0
 11
379.921608342452
 21
375.9027687360408
 31
0.0
  0
LINE
  5
713
330
37
100
AcDbEntity
  8
Sichtbar (ISO)
100
AcDbLine
 10
377.421608342452
 20
375.9027687360408
 30
0.0
 11
377.4216083424519
 21
345.9027687360407
 31
0.0
  0
LINE
  5
714
330
37
100
AcDbEntity
  8
Sichtbar (ISO)
100
AcDbLine
 10
376.6266042426081
 20
345.9027687360274
 30
0.0
 11
377.4216083424519
 21
345.902768736028
 31
0.0
  0
LINE
  5
715
330
37
100
AcDbEntity
  8
Sichtbar (ISO)
100
AcDbLine
 10
377.4216083424519
 20
375.9027687360281
 30
0.0
 11
376.6266042426081
 21
375.9027687360275
 31
0.0
  0
LINE
  5
716
330
37
100
AcDbEntity
  8
Sichtbar (ISO)
100
AcDbLine
 10
199.3909889817462
 20
661.3820046249637
 30
0.0
 11
199.3909889817462
 21
60.42353284694126
 31
0.0
  0
LINE
  5
717
330
37
100
AcDbEntity
  8
Sichtbar (ISO)
100
AcDbLine
 10
199.3909889817462
 20
661.3820046249637
 30
0.0
 11
201.3909448320014
 21
663.3952936065
 31
0.0
  0
LINE
  5
718
330
37
100
AcDbEntity
  8
Sichtbar (ISO)
100
AcDbLine
 10
199.3909889817462
 20
60.42353284694122
 30
0.0
 11
201.3909448320014
 21
58.41024386540496
 31
0.0
  0
INSERT
  5
719
330
37
100
AcDbEntity
  8
0
100
AcDbBlockReference
  2
P gross
 10
150.8348280775364
 20
360.8013539729818
 30
0.0
 41
3.0
 42
3.0
 43
3.0
  0
INSERT
  5
71A
330
37
100
AcDbEntity
  8
0
100
AcDbBlockReference
  2
P gross
 10
149.1607109772125
 20
1102.435126736004
 30
0.0
 41
3.0
 42
3.0
 43
3.0
  0
INSERT
  5
71B
330
37
100
AcDbEntity
  8
0
100
AcDbBlockReference
  2
P gross
 10
728.4052276893929
 20
858.0140639292292
 30
0.0
 41
3.0
 42
3.0
 43
3.0
  0
ENDSEC
  0
SECTION
  2
OBJECTS
  0
DICTIONARY
  5
C
330
0
100
AcDbDictionary
281
     1
  3
ACAD_COLOR
350
30
  3
ACAD_GROUP
350
D
  3
ACAD_LAYOUT
350
2F
  3
ACAD_MATERIAL
350
10
  3
ACAD_MLINESTYLE
350
2C
  3
ACAD_PLOTSETTINGS
350
2E
  3
ACAD_PLOTSTYLENAME
350
E
  3
ACAD_TABLESTYLE
350
31
  3
ACAD_VISUALSTYLE
350
14
  3
AcDbVariableDictionary
350
71C
  0
DICTIONARY
  5
30
102
{ACAD_REACTORS
330
C
102
}
330
C
100
AcDbDictionary
281
     1
  0
DICTIONARY
  5
D
102
{ACAD_REACTORS
330
C
102
}
330
C
100
AcDbDictionary
281
     1
  0
DICTIONARY
  5
2F
102
{ACAD_REACTORS
330
C
102
}
330
C
100
AcDbDictionary
281
     1
  3
Layout1
350
36
  3
Layout2
350
3E
  3
Model
350
3A
  0
DICTIONARY
  5
10
102
{ACAD_REACTORS
330
C
102
}
330
C
100
AcDbDictionary
281
     1
  3
ByBlock
350
12
  3
ByLayer
350
11
  3
Global
350
13
  0
DICTIONARY
  5
2C
102
{ACAD_REACTORS
330
C
102
}
330
C
100
AcDbDictionary
281
     1
  3
Standard
350
2D
  0
DICTIONARY
  5
2E
102
{ACAD_REACTORS
330
C
102
}
330
C
100
AcDbDictionary
281
     1
  0
ACDBDICTIONARYWDFLT
  5
E
102
{ACAD_REACTORS
330
C
102
}
330
C
100
AcDbDictionary
281
     1
  3
Normal
350
F
100
AcDbDictionaryWithDefault
340
F
  0
DICTIONARY
  5
31
102
{ACAD_REACTORS
330
C
102
}
330
C
100
AcDbDictionary
281
     1
  3
Standard
350
32
  0
DICTIONARY
  5
14
102
{ACAD_REACTORS
330
C
102
}
330
C
100
AcDbDictionary
281
     1
  3
2dWireframe
350
1A
  3
3D Hidden
350
1C
  3
3dWireframe
350
1B
  3
Basic
350
19
  3
Brighten
350
20
  3
ColorChange
350
24
  3
Conceptual
350
1D
  3
Dim
350
1F
  3
Facepattern
350
23
  3
Flat
350
15
  3
FlatWithEdges
350
16
  3
Gouraud
350
17
  3
GouraudWithEdges
350
18
  3
Linepattern
350
22
  3
Realistic
350
1E
  3
Thicken
350
21
  0
DICTIONARY
  5
71C
102
{ACAD_REACTORS
330
C
102
}
330
C
100
AcDbDictionary
281
     1
  3
CTABLESTYLE
350
71D
  0
LAYOUT
  5
36
102
{ACAD_REACTORS
330
2F
102
}
330
2F
100
AcDbPlotSettings
  1

  2

  4

  6

 40
0.0
 41
0.0
 42
0.0
 43
0.0
 44
0.0
 45
0.0
 46
0.0
 47
0.0
 48
0.0
 49
0.0
140
0.0
141
0.0
142
1.0
143
1.0
 70
   688
 72
     0
 73
     0
 74
     5
  7

 75
    16
147
1.0
 76
     0
 77
     2
 78
   300
148
0.0
149
0.0
100
AcDbLayout
  1
Layout1
 70
     1
 71
     1
 10
0.0
 20
0.0
 11
12.0
 21
9.0
 12
0.0
 22
0.0
 32
0.0
 14
0.0
 24
0.0
 34
0.0
 15
0.0
 25
0.0
 35
0.0
146
0.0
 13
0.0
 23
0.0
 33
0.0
 16
1.0
 26
0.0
 36
0.0
 17
0.0
 27
1.0
 37
0.0
 76
     0
330
33
  0
LAYOUT
  5
3E
102
{ACAD_REACTORS
330
2F
102
}
330
2F
100
AcDbPlotSettings
  1

  2

  4

  6

 40
0.0
 41
0.0
 42
0.0
 43
0.0
 44
0.0
 45
0.0
 46
0.0
 47
0.0
 48
0.0
 49
0.0
140
0.0
141
0.0
142
1.0
143
1.0
 70
   688
 72
     0
 73
     0
 74
     5
  7

 75
    16
147
1.0
 76
     0
 77
     2
 78
   300
148
0.0
149
0.0
100
AcDbLayout
  1
Layout2
 70
     1
 71
     2
 10
0.0
 20
0.0
 11
12.0
 21
9.0
 12
0.0
 22
0.0
 32
0.0
 14
0.0
 24
0.0
 34
0.0
 15
0.0
 25
0.0
 35
0.0
146
0.0
 13
0.0
 23
0.0
 33
0.0
 16
1.0
 26
0.0
 36
0.0
 17
0.0
 27
1.0
 37
0.0
 76
     0
330
3B
  0
LAYOUT
  5
3A
102
{ACAD_REACTORS
330
2F
102
}
330
2F
100
AcDbPlotSettings
  1

  2

  4

  6

 40
0.0
 41
0.0
 42
0.0
 43
0.0
 44
0.0
 45
0.0
 46
0.0
 47
0.0
 48
0.0
 49
0.0
140
0.0
141
0.0
142
1.0
143
1.0
 70
  1712
 72
     0
 73
     0
 74
     0
  7

 75
     0
147
1.0
 76
     0
 77
     2
 78
   300
148
0.0
149
0.0
100
AcDbLayout
  1
Model
 70
     1
 71
     0
 10
0.0
 20
0.0
 11
12.0
 21
9.0
 12
0.0
 22
0.0
 32
0.0
 14
0.0
 24
0.0
 34
0.0
 15
0.0
 25
0.0
 35
0.0
146
0.0
 13
0.0
 23
0.0
 33
0.0
 16
1.0
 26
0.0
 36
0.0
 17
0.0
 27
1.0
 37
0.0
 76
     0
330
37
  0
MATERIAL
  5
12
102
{ACAD_XDICTIONARY
360
720
102
}
102
{ACAD_REACTORS
330
10
102
}
330
10
100
AcDbMaterial
  1
ByBlock
  0
MATERIAL
  5
11
102
{ACAD_XDICTIONARY
360
71E
102
}
102
{ACAD_REACTORS
330
10
102
}
330
10
100
AcDbMaterial
  1
ByLayer
  0
MATERIAL
  5
13
102
{ACAD_XDICTIONARY
360
722
102
}
102
{ACAD_REACTORS
330
10
102
}
330
10
100
AcDbMaterial
  1
Global
  0
MLINESTYLE
  5
2D
102
{ACAD_REACTORS
330
2C
102
}
330
2C
100
AcDbMlineStyle
  2
STANDARD
 70
     0
  3

 62
   256
 51
90.0
 52
90.0
 71
     2
 49
0.5
 62
   256
  6
BYLAYER
 49
-0.5
 62
   256
  6
BYLAYER
  0
ACDBPLACEHOLDER
  5
F
102
{ACAD_REACTORS
330
E
102
}
330
E
  0
TABLESTYLE
  5
32
102
{ACAD_XDICTIONARY
360
724
102
}
102
{ACAD_REACTORS
330
31
102
}
330
31
100
AcDbTableStyle
  3
Standard
 70
     0
 71
     0
 40
0.06
 41
0.06
280
     0
281
     0
  7
Standard
140
0.18
170
     2
 62
     0
 63
     7
283
     0
274
    -2
284
     1
 64
     0
275
    -2
285
     1
 65
     0
276
    -2
286
     1
 66
     0
277
    -2
287
     1
 67
     0
278
    -2
288
     1
 68
     0
279
    -2
289
     1
 69
     0
  7
Standard
140
0.25
170
     5
 62
     0
 63
     7
283
     0
274
    -2
284
     1
 64
     0
275
    -2
285
     1
 65
     0
276
    -2
286
     1
 66
     0
277
    -2
287
     1
 67
     0
278
    -2
288
     1
 68
     0
279
    -2
289
     1
 69
     0
  7
Standard
140
0.18
170
     5
 62
     0
 63
     7
283
     0
274
    -2
284
     1
 64
     0
275
    -2
285
     1
 65
     0
276
    -2
286
     1
 66
     0
277
    -2
287
     1
 67
     0
278
    -2
288
     1
 68
     0
279
    -2
289
     1
 69
     0
  0
VISUALSTYLE
  5
1A
102
{ACAD_REACTORS
330
14
102
}
330
14
100
AcDbVisualStyle
  2
2dWireframe
 70
     4
 71
     0
 72
     2
 73
     0
 90
        0
 40
-0.6
 41
-30.0
 62
     5
 63
     7
421
 16777215
 74
     1
 91
        4
 64
     7
 65
   257
 75
     1
175
     1
 42
1.0
 92
        0
 66
   257
 43
1.0
 76
     1
 77
     6
 78
     2
 67
     7
 79
     5
170
     0
171
     0
290
     0
174
     0
 93
        1
 44
0.0
173
     0
291
     0
 45
0.0
1001
ACAD
1000
AcDbSavedByObjectVersion
1070
     0
  0
VISUALSTYLE
  5
1C
102
{ACAD_REACTORS
330
14
102
}
330
14
100
AcDbVisualStyle
  2
3D Hidden
 70
     6
 71
     1
 72
     2
 73
     2
 90
        0
 40
-0.6
 41
-30.0
 62
     5
 63
     7
421
 16777215
 74
     2
 91
        2
 64
     7
 65
   257
 75
     2
175
     1
 42
40.0
 92
        0
 66
   257
 43
1.0
 76
     1
 77
     6
 78
     2
 67
     7
 79
     3
170
     0
171
     0
290
     0
174
     0
 93
        1
 44
0.0
173
     0
291
     0
 45
0.0
1001
ACAD
1000
AcDbSavedByObjectVersion
1070
     0
  0
VISUALSTYLE
  5
1B
102
{ACAD_REACTORS
330
14
102
}
330
14
100
AcDbVisualStyle
  2
3dWireframe
 70
     5
 71
     0
 72
     2
 73
     0
 90
        0
 40
-0.6
 41
-30.0
 62
     5
 63
     7
421
 16777215
 74
     1
 91
        4
 64
     7
 65
   257
 75
     1
175
     1
 42
1.0
 92
        0
 66
   257
 43
1.0
 76
     1
 77
     6
 78
     2
 67
     7
 79
     5
170
     0
171
     0
290
     0
174
     0
 93
        1
 44
0.0
173
     0
291
     0
 45
0.0
1001
ACAD
1000
AcDbSavedByObjectVersion
1070
     0
  0
VISUALSTYLE
  5
19
102
{ACAD_REACTORS
330
14
102
}
330
14
100
AcDbVisualStyle
  2
Basic
 70
     7
 71
     1
 72
     0
 73
     1
 90
        0
 40
-0.6
 41
-30.0
 62
     5
 63
     7
421
 16777215
 74
     0
 91
        4
 64
     7
 65
   257
 75
     1
175
     1
 42
1.0
 92
        8
 66
     7
 43
1.0
 76
     1
 77
     6
 78
     2
 67
     7
 79
     5
170
     0
171
     0
290
     0
174
     0
 93
        1
 44
0.0
173
     0
291
     1
 45
0.0
1001
ACAD
1000
AcDbSavedByObjectVersion
1070
     0
  0
VISUALSTYLE
  5
20
102
{ACAD_REACTORS
330
14
102
}
330
14
100
AcDbVisualStyle
  2
Brighten
 70
    12
 71
     2
 72
     2
 73
     0
 90
        0
 40
-0.6
 41
-30.0
 62
     5
 63
     7
421
 16777215
 74
     1
 91
        4
 64
     7
 65
   257
 75
     1
175
     1
 42
1.0
 92
        8
 66
     7
 43
1.0
 76
     1
 77
     6
 78
     2
 67
     7
 79
     5
170
     0
171
     0
290
     0
174
     0
 93
        1
 44
50.0
173
     0
291
     1
 45
0.0
1001
ACAD
1000
AcDbSavedByObjectVersion
1070
     0
  0
VISUALSTYLE
  5
24
102
{ACAD_REACTORS
330
14
102
}
330
14
100
AcDbVisualStyle
  2
ColorChange
 70
    16
 71
     2
 72
     2
 73
     3
 90
        0
 40
-0.6
 41
-30.0
 62
     5
 63
     8
421
  8421504
 74
     1
 91
        4
 64
     7
 65
   257
 75
     1
175
     1
 42
1.0
 92
        8
 66
     8
424
  8421504
 43
1.0
 76
     1
 77
     6
 78
     2
 67
     7
 79
     5
170
     0
171
     0
290
     0
174
     0
 93
        1
 44
0.0
173
     0
291
     1
 45
0.0
1001
ACAD
1000
AcDbSavedByObjectVersion
1070
     0
  0
VISUALSTYLE
  5
1D
102
{ACAD_REACTORS
330
14
102
}
330
14
100
AcDbVisualStyle
  2
Conceptual
 70
     9
 71
     3
 72
     2
 73
     0
 90
        0
 40
-0.6
 41
-30.0
 62
     5
 63
     7
421
 16777215
 74
     2
 91
        2
 64
     7
 65
   257
 75
     1
175
     1
 42
40.0
 92
        8
 66
     7
 43
1.0
 76
     1
 77
     6
 78
     2
 67
     7
 79
     3
170
     0
171
     0
290
     0
174
     0
 93
        1
 44
0.0
173
     0
291
     0
 45
0.0
1001
ACAD
1000
AcDbSavedByObjectVersion
1070
     0
  0
VISUALSTYLE
  5
1F
102
{ACAD_REACTORS
330
14
102
}
330
14
100
AcDbVisualStyle
  2
Dim
 70
    11
 71
     2
 72
     2
 73
     0
 90
        0
 40
-0.6
 41
-30.0
 62
     5
 63
     7
421
 16777215
 74
     1
 91
        4
 64
     7
 65
   257
 75
     1
175
     1
 42
1.0
 92
        8
 66
     7
 43
1.0
 76
     1
 77
     6
 78
     2
 67
     7
 79
     5
170
     0
171
     0
290
     0
174
     0
 93
        1
 44
-50.0
173
     0
291
     1
 45
0.0
1001
ACAD
1000
AcDbSavedByObjectVersion
1070
     0
  0
VISUALSTYLE
  5
23
102
{ACAD_REACTORS
330
14
102
}
330
14
100
AcDbVisualStyle
  2
Facepattern
 70
    15
 71
     2
 72
     2
 73
     0
 90
        0
 40
-0.6
 41
-30.0
 62
     5
 63
     7
421
 16777215
 74
     1
 91
        4
 64
     7
 65
   257
 75
     1
175
     1
 42
1.0
 92
        8
 66
     7
 43
1.0
 76
     1
 77
     6
 78
     2
 67
     7
 79
     5
170
     0
171
     0
290
     0
174
     0
 93
        1
 44
0.0
173
     0
291
     1
 45
0.0
1001
ACAD
1000
AcDbSavedByObjectVersion
1070
     0
  0
VISUALSTYLE
  5
15
102
{ACAD_REACTORS
330
14
102
}
330
14
100
AcDbVisualStyle
  2
Flat
 70
     0
 71
     2
 72
     1
 73
     1
 90
        2
 40
-0.6
 41
30.0
 62
     5
 63
     7
421
 16777215
 74
     0
 91
        4
 64
     7
 65
   257
 75
     1
175
     1
 42
1.0
 92
        8
 66
     7
 43
1.0
 76
     1
 77
     6
 78
     2
 67
     7
 79
     5
170
     0
171
     0
290
     0
174
     0
 93
       13
 44
0.0
173
     0
291
     1
 45
0.0
1001
ACAD
1000
AcDbSavedByObjectVersion
1070
     0
  0
VISUALSTYLE
  5
16
102
{ACAD_REACTORS
330
14
102
}
330
14
100
AcDbVisualStyle
  2
FlatWithEdges
 70
     1
 71
     2
 72
     1
 73
     1
 90
        2
 40
-0.6
 41
30.0
 62
     5
 63
     7
421
 16777215
 74
     1
 91
        4
 64
     7
 65
   257
 75
     1
175
     1
 42
1.0
 92
        0
 66
   257
 43
1.0
 76
     1
 77
     6
 78
     2
 67
     7
 79
     5
170
     0
171
     0
290
     0
174
     0
 93
       13
 44
0.0
173
     0
291
     1
 45
0.0
1001
ACAD
1000
AcDbSavedByObjectVersion
1070
     0
  0
VISUALSTYLE
  5
17
102
{ACAD_REACTORS
330
14
102
}
330
14
100
AcDbVisualStyle
  2
Gouraud
 70
     2
 71
     2
 72
     2
 73
     1
 90
        2
 40
-0.6
 41
30.0
 62
     5
 63
     7
421
 16777215
 74
     0
 91
        4
 64
     7
 65
   257
 75
     1
175
     1
 42
1.0
 92
        0
 66
     7
 43
1.0
 76
     1
 77
     6
 78
     2
 67
     7
 79
     5
170
     0
171
     0
290
     0
174
     0
 93
       13
 44
0.0
173
     0
291
     1
 45
0.0
1001
ACAD
1000
AcDbSavedByObjectVersion
1070
     0
  0
VISUALSTYLE
  5
18
102
{ACAD_REACTORS
330
14
102
}
330
14
100
AcDbVisualStyle
  2
GouraudWithEdges
 70
     3
 71
     2
 72
     2
 73
     1
 90
        2
 40
-0.6
 41
30.0
 62
     5
 63
     7
421
 16777215
 74
     1
 91
        4
 64
     7
 65
   257
 75
     1
175
     1
 42
1.0
 92
        0
 66
   257
 43
1.0
 76
     1
 77
     6
 78
     2
 67
     7
 79
     5
170
     0
171
     0
290
     0
174
     0
 93
       13
 44
0.0
173
     0
291
     1
 45
0.0
1001
ACAD
1000
AcDbSavedByObjectVersion
1070
     0
  0
VISUALSTYLE
  5
22
102
{ACAD_REACTORS
330
14
102
}
330
14
100
AcDbVisualStyle
  2
Linepattern
 70
    14
 71
     2
 72
     2
 73
     0
 90
        0
 40
-0.6
 41
-30.0
 62
     5
 63
     7
421
 16777215
 74
     1
 91
        4
 64
     7
 65
   257
 75
     7
175
     7
 42
1.0
 92
        8
 66
     7
 43
1.0
 76
     1
 77
     6
 78
     2
 67
     7
 79
     5
170
     0
171
     0
290
     0
174
     0
 93
        1
 44
0.0
173
     0
291
     1
 45
0.0
1001
ACAD
1000
AcDbSavedByObjectVersion
1070
     0
  0
VISUALSTYLE
  5
1E
102
{ACAD_REACTORS
330
14
102
}
330
14
100
AcDbVisualStyle
  2
Realistic
 70
     8
 71
     2
 72
     2
 73
     0
 90
        0
 40
-0.6
 41
-30.0
 62
     5
 63
     7
421
 16777215
 74
     1
 91
        0
 64
     7
 65
   257
 75
     1
175
     1
 42
1.0
 92
        8
 66
     8
424
  7895160
 43
1.0
 76
     1
 77
     6
 78
     2
 67
     7
 79
     5
170
     0
171
     0
290
     0
174
     0
 93
       13
 44
0.0
173
     0
291
     0
 45
0.0
1001
ACAD
1000
AcDbSavedByObjectVersion
1070
     0
  0
VISUALSTYLE
  5
21
102
{ACAD_REACTORS
330
14
102
}
330
14
100
AcDbVisualStyle
  2
Thicken
 70
    13
 71
     2
 72
     2
 73
     0
 90
        0
 40
-0.6
 41
-30.0
 62
     5
 63
     7
421
 16777215
 74
     1
 91
        4
 64
     7
 65
   257
 75
     1
175
     1
 42
1.0
 92
       12
 66
     7
 43
1.0
 76
     1
 77
     6
 78
     2
 67
     7
 79
     5
170
     0
171
     0
290
     0
174
     0
 93
        1
 44
0.0
173
     0
291
     1
 45
0.0
1001
ACAD
1000
AcDbSavedByObjectVersion
1070
     0
  0
DICTIONARYVAR
  5
71D
102
{ACAD_REACTORS
330
71C
102
}
330
71C
100
DictionaryVariables
280
     0
  1
STANDARD
  0
DICTIONARY
  5
720
330
12
100
AcDbDictionary
280
     1
281
     1
  3
ACAD_XREC_ROUNDTRIP
360
721
  0
DICTIONARY
  5
71E
330
11
100
AcDbDictionary
280
     1
281
     1
  3
ACAD_XREC_ROUNDTRIP
360
71F
  0
DICTIONARY
  5
722
330
13
100
AcDbDictionary
280
     1
281
     1
  3
ACAD_XREC_ROUNDTRIP
360
723
  0
DICTIONARY
  5
724
330
32
100
AcDbDictionary
280
     1
281
     1
  3
ACAD_XREC_ROUNDTRIP
360
725
  0
XRECORD
  5
721
102
{ACAD_REACTORS
330
720
102
}
330
720
100
AcDbXrecord
280
     1
102
MATERIAL
148
0.0
149
0.0
149
0.0
 93
        0
 94
       63
282
     0
 72
     1
 77
     1
171
     1
175
     1
179
     1
273
     0
  0
XRECORD
  5
71F
102
{ACAD_REACTORS
330
71E
102
}
330
71E
100
AcDbXrecord
280
     1
102
MATERIAL
148
0.0
149
0.0
149
0.0
 93
        0
 94
       63
282
     0
 72
     1
 77
     1
171
     1
175
     1
179
     1
273
     0
  0
XRECORD
  5
723
102
{ACAD_REACTORS
330
722
102
}
330
722
100
AcDbXrecord
280
     1
102
MATERIAL
148
0.0
149
0.0
149
0.0
 93
        0
 94
       63
282
     0
 72
     1
 77
     1
171
     1
175
     1
179
     1
273
     0
  0
XRECORD
  5
725
102
{ACAD_REACTORS
330
724
102
}
330
724
100
AcDbXrecord
280
     1
102
ACAD_ROUNDTRIP_PRE2007_TABLESTYLE
 90
      512
 91
        0
  1

 92
      512
 93
        0
  2

 94
      512
 95
        0
  3

  0
ENDSEC
  0
EOF
