  0
SECTION
  2
HEADER
  9
$ACADVER
  1
AC1018
  9
$ACADMAINTVER
 70
   104
  9
$DWGCODEPAGE
  3
ANSI_1252
  9
$TITLE
  1
SD 8.3
  9
$CUSTOMPROPERTYTAG
  1
Manager
  9
$CUSTOMPROPERTY
  1

  9
$CUSTOMPROPERTYTAG
  1
Firma
  9
$CUSTOMPROPERTY
  1

  9
$CUSTOMPROPERTYTAG
  1
Kategorie
  9
$CUSTOMPROPERTY
  1

  9
$CUSTOMPROPERTYTAG
  1
Bauteilnummer
  9
$CUSTOMPROPERTY
  1
108438
  9
$CUSTOMPROPERTYTAG
  1
Bezeichnung
  9
$CUSTOMPROPERTY
  1

  9
$CUSTOMPROPERTYTAG
  1
Projekt
  9
$CUSTOMPROPERTY
  1
Internet 2D
  9
$CUSTOMPROPERTYTAG
  1
Konstrukteur
  9
$CUSTOMPROPERTY
  1
LTS
  9
$CUSTOMPROPERTYTAG
  1
Ingenieur
  9
$CUSTOMPROPERTY
  1

  9
$CUSTOMPROPERTYTAG
  1
Bevollmächtigter
  9
$CUSTOMPROPERTY
  1

  9
$CUSTOMPROPERTYTAG
  1
Kostenstelle
  9
$CUSTOMPROPERTY
  1

  9
$CUSTOMPROPERTYTAG
  1
Zulieferer
  9
$CUSTOMPROPERTY
  1

  9
$CUSTOMPROPERTYTAG
  1
Benutzerstatus
  9
$CUSTOMPROPERTY
  1

  9
$CUSTOMPROPERTYTAG
  1
Konstruktionsstatus
  9
$CUSTOMPROPERTY
  1
InBearbeitung
  9
$CUSTOMPROPERTYTAG
  1
Kontrolliert von
  9
$CUSTOMPROPERTY
  1
GAD
  9
$CUSTOMPROPERTYTAG
  1
Datum Überprüfung
  9
$CUSTOMPROPERTY
  1
05/28/2008
  9
$CUSTOMPROPERTYTAG
  1
Konstruktion genehmigt von
  9
$CUSTOMPROPERTY
  1
GAD
  9
$CUSTOMPROPERTYTAG
  1
Datum Konstruktionsgenehmigung
  9
$CUSTOMPROPERTY
  1
05/28/2008
  9
$CUSTOMPROPERTYTAG
  1
Fertigung genehmigt von
  9
$CUSTOMPROPERTY
  1

  9
$CUSTOMPROPERTYTAG
  1
Massstab
  9
$CUSTOMPROPERTY
  1
1:5
  9
$CUSTOMPROPERTYTAG
  1
Gewicht
  9
$CUSTOMPROPERTY
  1
3.600
  9
$CUSTOMPROPERTYTAG
  1
AeDatum1
  9
$CUSTOMPROPERTY
  1
  
  9
$CUSTOMPROPERTYTAG
  1
AeDesc1
  9
$CUSTOMPROPERTY
  1

  9
$CUSTOMPROPERTYTAG
  1
AeIDX1
  9
$CUSTOMPROPERTY
  1

  9
$CUSTOMPROPERTYTAG
  1
TolLange_Fein
  9
$CUSTOMPROPERTY
  1

  9
$CUSTOMPROPERTYTAG
  1
TolLange_Grob
  9
$CUSTOMPROPERTY
  1

  9
$CUSTOMPROPERTYTAG
  1
TolLange_Mittel
  9
$CUSTOMPROPERTY
  1
X
  9
$CUSTOMPROPERTYTAG
  1
TolWinkel_Fein
  9
$CUSTOMPROPERTY
  1

  9
$CUSTOMPROPERTYTAG
  1
TolWinkel_Grob
  9
$CUSTOMPROPERTY
  1
X
  9
$CUSTOMPROPERTYTAG
  1
ProtoTyp_NR
  9
$CUSTOMPROPERTY
  1
1
  9
$CUSTOMPROPERTYTAG
  1
AeDatum2
  9
$CUSTOMPROPERTY
  1
  
  9
$CUSTOMPROPERTYTAG
  1
AeDatum3
  9
$CUSTOMPROPERTY
  1
  
  9
$CUSTOMPROPERTYTAG
  1
AeDatum4
  9
$CUSTOMPROPERTY
  1
  
  9
$CUSTOMPROPERTYTAG
  1
AeDatum5
  9
$CUSTOMPROPERTY
  1
  
  9
$CUSTOMPROPERTYTAG
  1
AeDesc2
  9
$CUSTOMPROPERTY
  1

  9
$CUSTOMPROPERTYTAG
  1
AeDesc3
  9
$CUSTOMPROPERTY
  1

  9
$CUSTOMPROPERTYTAG
  1
AeDesc4
  9
$CUSTOMPROPERTY
  1

  9
$CUSTOMPROPERTYTAG
  1
AeDesc5
  9
$CUSTOMPROPERTY
  1

  9
$CUSTOMPROPERTYTAG
  1
AeIDX2
  9
$CUSTOMPROPERTY
  1

  9
$CUSTOMPROPERTYTAG
  1
AeIDX3
  9
$CUSTOMPROPERTY
  1

  9
$CUSTOMPROPERTYTAG
  1
AeIDX4
  9
$CUSTOMPROPERTY
  1

  9
$CUSTOMPROPERTYTAG
  1
AeIDX5
  9
$CUSTOMPROPERTY
  1

  9
$CUSTOMPROPERTYTAG
  1
Fachgeprüft_am
  9
$CUSTOMPROPERTY
  1
  .  .    
  9
$CUSTOMPROPERTYTAG
  1
Fachgeprüft_von
  9
$CUSTOMPROPERTY
  1

  9
$CUSTOMPROPERTYTAG
  1
ZeichnungsNummer
  9
$CUSTOMPROPERTY
  1

  9
$CUSTOMPROPERTYTAG
  1
AIMD_MATERIAL
  9
$CUSTOMPROPERTY
  1

  9
$CUSTOMPROPERTYTAG
  1
AIMD_WEIGHT
  9
$CUSTOMPROPERTY
  1
3.600
  9
$CUSTOMPROPERTYTAG
  1
AIMD_DESCRIPTION
  9
$CUSTOMPROPERTY
  1

  9
$CUSTOMPROPERTYTAG
  1
AIMD_ORIGIN
  9
$CUSTOMPROPERTY
  1
108346
  9
$CUSTOMPROPERTYTAG
  1
AIMD_PARTNO
  9
$CUSTOMPROPERTY
  1
7101000
  9
$CUSTOMPROPERTYTAG
  1
AIMD_WEIGHT_UNIT
  9
$CUSTOMPROPERTY
  1
kg
  9
$CUSTOMPROPERTYTAG
  1
Einheit
  9
$CUSTOMPROPERTY
  1
Stk
  9
$INSBASE
 10
0.0
 20
0.0
 30
0.0
  9
$EXTMIN
 10
0.0
 20
0.0
 30
0.0
  9
$EXTMAX
 10
1050.0
 20
1485.0
 30
0.0
  9
$LIMMIN
 10
0.0
 20
0.0
  9
$LIMMAX
 10
1050.0
 20
1485.0
  9
$ORTHOMODE
 70
     0
  9
$REGENMODE
 70
     1
  9
$FILLMODE
 70
     1
  9
$QTEXTMODE
 70
     0
  9
$MIRRTEXT
 70
     0
  9
$LTSCALE
 40
5.0
  9
$ATTMODE
 70
     1
  9
$TEXTSIZE
 40
0.2
  9
$TRACEWID
 40
0.05
  9
$TEXTSTYLE
  7
Standard
  9
$CLAYER
  8
0
  9
$CELTYPE
  6
ByLayer
  9
$CECOLOR
 62
   256
  9
$CELTSCALE
 40
1.0
  9
$DISPSILH
 70
     0
  9
$DIMSCALE
 40
1.0
  9
$DIMASZ
 40
1.799999999999999
  9
$DIMEXO
 40
0.0625
  9
$DIMDLI
 40
0.38
  9
$DIMRND
 40
0.0
  9
$DIMDLE
 40
0.0
  9
$DIMEXE
 40
0.18
  9
$DIMTP
 40
0.0
  9
$DIMTM
 40
0.0
  9
$DIMTXT
 40
0.3499999940395355
  9
$DIMCEN
 40
0.09
  9
$DIMTSZ
 40
0.0
  9
$DIMTOL
 70
     0
  9
$DIMLIM
 70
     0
  9
$DIMTIH
 70
     1
  9
$DIMTOH
 70
     1
  9
$DIMSE1
 70
     0
  9
$DIMSE2
 70
     0
  9
$DIMTAD
 70
     0
  9
$DIMZIN
 70
     0
  9
$DIMBLK
  1

  9
$DIMASO
 70
     1
  9
$DIMSHO
 70
     1
  9
$DIMPOST
  1

  9
$DIMAPOST
  1

  9
$DIMALT
 70
     0
  9
$DIMALTD
 70
     2
  9
$DIMALTF
 40
25.4
  9
$DIMLFAC
 40
1.0
  9
$DIMTOFL
 70
     0
  9
$DIMTVP
 40
0.0
  9
$DIMTIX
 70
     0
  9
$DIMSOXD
 70
     0
  9
$DIMSAH
 70
     0
  9
$DIMBLK1
  1

  9
$DIMBLK2
  1

  9
$DIMSTYLE
  2
Standard
  9
$DIMCLRD
 70
     0
  9
$DIMCLRE
 70
     0
  9
$DIMCLRT
 70
     0
  9
$DIMTFAC
 40
1.0
  9
$DIMGAP
 40
0.09
  9
$DIMJUST
 70
     0
  9
$DIMSD1
 70
     0
  9
$DIMSD2
 70
     0
  9
$DIMTOLJ
 70
     1
  9
$DIMTZIN
 70
     0
  9
$DIMALTZ
 70
     0
  9
$DIMALTTZ
 70
     0
  9
$DIMUPT
 70
     0
  9
$DIMDEC
 70
     4
  9
$DIMTDEC
 70
     4
  9
$DIMALTU
 70
     2
  9
$DIMALTTD
 70
     2
  9
$DIMTXSTY
  7
Standard
  9
$DIMAUNIT
 70
     0
  9
$DIMADEC
 70
     0
  9
$DIMALTRND
 40
0.0
  9
$DIMAZIN
 70
     0
  9
$DIMDSEP
 70
    46
  9
$DIMATFIT
 70
     3
  9
$DIMFRAC
 70
     0
  9
$DIMLDRBLK
  1

  9
$DIMLUNIT
 70
     2
  9
$DIMLWD
 70
    -2
  9
$DIMLWE
 70
    -2
  9
$DIMTMOVE
 70
     0
  9
$LUNITS
 70
     2
  9
$LUPREC
 70
     4
  9
$SKETCHINC
 40
0.1
  9
$FILLETRAD
 40
0.0
  9
$AUNITS
 70
     0
  9
$AUPREC
 70
     0
  9
$MENU
  1
.
  9
$ELEVATION
 40
0.0
  9
$PELEVATION
 40
0.0
  9
$THICKNESS
 40
0.0
  9
$LIMCHECK
 70
     0
  9
$CHAMFERA
 40
0.0
  9
$CHAMFERB
 40
0.0
  9
$CHAMFERC
 40
0.0
  9
$CHAMFERD
 40
0.0
  9
$SKPOLY
 70
     0
  9
$TDCREATE
 40
2454631.601991204
  9
$TDUCREATE
 40
2454631.518657871
  9
$TDUPDATE
 40
2454631.601991204
  9
$TDUUPDATE
 40
2454631.518657871
  9
$TDINDWG
 40
0.0000160880
  9
$TDUSRTIMER
 40
0.0000160880
  9
$USRTIMER
 70
     1
  9
$ANGBASE
 50
0.0
  9
$ANGDIR
 70
     0
  9
$PDMODE
 70
     0
  9
$PDSIZE
 40
0.0
  9
$PLINEWID
 40
0.0
  9
$SPLFRAME
 70
     0
  9
$SPLINETYPE
 70
     6
  9
$SPLINESEGS
 70
     8
  9
$HANDSEED
  5
6F4
  9
$SURFTAB1
 70
     6
  9
$SURFTAB2
 70
     6
  9
$SURFTYPE
 70
     6
  9
$SURFU
 70
     6
  9
$SURFV
 70
     6
  9
$UCSBASE
  2

  9
$UCSNAME
  2

  9
$UCSORG
 10
0.0
 20
0.0
 30
0.0
  9
$UCSXDIR
 10
1.0
 20
0.0
 30
0.0
  9
$UCSYDIR
 10
0.0
 20
1.0
 30
0.0
  9
$UCSORTHOREF
  2

  9
$UCSORTHOVIEW
 70
     0
  9
$UCSORGTOP
 10
0.0
 20
0.0
 30
0.0
  9
$UCSORGBOTTOM
 10
0.0
 20
0.0
 30
0.0
  9
$UCSORGLEFT
 10
0.0
 20
0.0
 30
0.0
  9
$UCSORGRIGHT
 10
0.0
 20
0.0
 30
0.0
  9
$UCSORGFRONT
 10
0.0
 20
0.0
 30
0.0
  9
$UCSORGBACK
 10
0.0
 20
0.0
 30
0.0
  9
$PUCSBASE
  2

  9
$PUCSNAME
  2

  9
$PUCSORG
 10
0.0
 20
0.0
 30
0.0
  9
$PUCSXDIR
 10
1.0
 20
0.0
 30
0.0
  9
$PUCSYDIR
 10
0.0
 20
1.0
 30
0.0
  9
$PUCSORTHOREF
  2

  9
$PUCSORTHOVIEW
 70
     0
  9
$PUCSORGTOP
 10
0.0
 20
0.0
 30
0.0
  9
$PUCSORGBOTTOM
 10
0.0
 20
0.0
 30
0.0
  9
$PUCSORGLEFT
 10
0.0
 20
0.0
 30
0.0
  9
$PUCSORGRIGHT
 10
0.0
 20
0.0
 30
0.0
  9
$PUCSORGFRONT
 10
0.0
 20
0.0
 30
0.0
  9
$PUCSORGBACK
 10
0.0
 20
0.0
 30
0.0
  9
$USERI1
 70
     0
  9
$USERI2
 70
     0
  9
$USERI3
 70
     0
  9
$USERI4
 70
     0
  9
$USERI5
 70
     0
  9
$USERR1
 40
0.0
  9
$USERR2
 40
0.0
  9
$USERR3
 40
0.0
  9
$USERR4
 40
0.0
  9
$USERR5
 40
0.0
  9
$WORLDVIEW
 70
     1
  9
$SHADEDGE
 70
     3
  9
$SHADEDIF
 70
    70
  9
$TILEMODE
 70
     1
  9
$MAXACTVP
 70
    64
  9
$PINSBASE
 10
0.0
 20
0.0
 30
0.0
  9
$PLIMCHECK
 70
     0
  9
$PEXTMIN
 10
0.0
 20
0.0
 30
0.0
  9
$PEXTMAX
 10
1050.0
 20
1485.0
 30
0.0
  9
$PLIMMIN
 10
0.0
 20
0.0
  9
$PLIMMAX
 10
1050.0
 20
1485.0
  9
$UNITMODE
 70
     0
  9
$VISRETAIN
 70
     1
  9
$PLINEGEN
 70
     0
  9
$PSLTSCALE
 70
     1
  9
$TREEDEPTH
 70
  3020
  9
$CMLSTYLE
  2
Standard
  9
$CMLJUST
 70
     0
  9
$CMLSCALE
 40
1.0
  9
$PROXYGRAPHICS
 70
     1
  9
$MEASUREMENT
 70
     1
  9
$CELWEIGHT
370
    -1
  9
$ENDCAPS
280
     0
  9
$JOINSTYLE
280
     0
  9
$LWDISPLAY
290
     0
  9
$INSUNITS
 70
     0
  9
$HYPERLINKBASE
  1

  9
$STYLESHEET
  1

  9
$XEDIT
290
     1
  9
$CEPSNTYPE
380
     0
  9
$PSTYLEMODE
290
     1
  9
$FINGERPRINTGUID
  2
{DAEB9F71-6109-4C68-8809-EF2C7C03BA1F}
  9
$VERSIONGUID
  2
{72D4BFF0-7EA0-4600-B9F0-0204DB75CC1D}
  9
$EXTNAMES
290
     1
  9
$PSVPSCALE
 40
0.0
  9
$OLESTARTUP
290
     0
  9
$SORTENTS
280
   127
  9
$INDEXCTL
280
     0
  9
$HIDETEXT
280
     1
  9
$XCLIPFRAME
290
     0
  9
$HALOGAP
280
     0
  9
$OBSCOLOR
 70
   257
  9
$OBSLTYPE
280
     0
  9
$INTERSECTIONDISPLAY
280
     0
  9
$INTERSECTIONCOLOR
 70
   257
  9
$DIMASSOC
280
     1
  9
$PROJECTNAME
  1

  0
ENDSEC
  0
SECTION
  2
CLASSES
  0
CLASS
  1
ACDBDICTIONARYWDFLT
  2
AcDbDictionaryWithDefault
  3
ObjectDBX Classes
 90
        0
 91
        1
280
     0
281
     0
  0
CLASS
  1
MATERIAL
  2
AcDbMaterial
  3
ObjectDBX Classes
 90
     1024
 91
        3
280
     0
281
     0
  0
CLASS
  1
VISUALSTYLE
  2
AcDbVisualStyle
  3
ObjectDBX Classes
 90
     4095
 91
       16
280
     0
281
     0
  0
CLASS
  1
TABLESTYLE
  2
AcDbTableStyle
  3
ObjectDBX Classes
 90
     4095
 91
        1
280
     0
281
     0
  0
CLASS
  1
DICTIONARYVAR
  2
AcDbDictionaryVar
  3
ObjectDBX Classes
 90
        0
 91
        1
280
     0
281
     0
  0
ENDSEC
  0
SECTION
  2
TABLES
  0
TABLE
  2
VPORT
  5
8
330
0
100
AcDbSymbolTable
 70
     1
  0
VPORT
  5
28
330
8
100
AcDbSymbolTableRecord
100
AcDbViewportTableRecord
  2
*Active
 70
     0
 10
0.0
 20
0.0
 11
1.0
 21
1.0
 12
525.0
 22
742.4999999999999
 13
0.0
 23
0.0
 14
1.0
 24
1.0
 15
0.0
 25
0.0
 16
0.0
 26
0.0
 36
1.0
 17
0.0
 27
0.0
 37
0.0
 40
1485.0
 41
0.7070707070707071
 42
50.0
 43
0.0
 44
0.0
 50
0.0
 51
0.0
 71
     0
 72
   100
 73
     1
 74
     1
 75
     0
 76
     0
 77
     0
 78
     0
281
     0
 65
     1
110
0.0
120
0.0
130
0.0
111
1.0
121
0.0
131
0.0
112
0.0
122
1.0
132
0.0
 79
     0
146
0.0
  0
ENDTAB
  0
TABLE
  2
LTYPE
  5
5
330
0
100
AcDbSymbolTable
 70
    59
  0
LTYPE
  5
29
330
5
100
AcDbSymbolTableRecord
100
AcDbLinetypeTableRecord
  2
ByBlock
 70
     0
  3

 72
    65
 73
     0
 40
0.0
  0
LTYPE
  5
2A
330
5
100
AcDbSymbolTableRecord
100
AcDbLinetypeTableRecord
  2
ByLayer
 70
     0
  3

 72
    65
 73
     0
 40
0.0
  0
LTYPE
  5
2B
330
5
100
AcDbSymbolTableRecord
100
AcDbLinetypeTableRecord
  2
Continuous
 70
     0
  3
Solid line
 72
    65
 73
     0
 40
0.0
  0
LTYPE
  5
40
330
5
100
AcDbSymbolTableRecord
100
AcDbLinetypeTableRecord
  2
Section_View_Lines
 70
     0
  3
Section View Lines
 72
    65
 73
     4
 40
0.8406
 49
0.6614
 74
     0
 49
-0.0827
 74
     0
 49
0.0138
 74
     0
 49
-0.0827
 74
     0
  0
LTYPE
  5
41
330
5
100
AcDbSymbolTableRecord
100
AcDbLinetypeTableRecord
  2
CHAIN
 70
     0
  3
Chain ____ _ ____ _ ____ _ ____ _ ____ _ ____
 72
    65
 73
     4
 40
0.3543
 49
0.2362
 74
     0
 49
-0.0295
 74
     0
 49
0.0591
 74
     0
 49
-0.0295
 74
     0
  0
LTYPE
  5
42
330
5
100
AcDbSymbolTableRecord
100
AcDbLinetypeTableRecord
  2
DASH_DOT
 70
     0
  3
Dash dot _._._._._._._._._._._._._._._.
 72
    65
 73
     4
 40
0.37
 49
0.24
 74
     0
 49
-0.06
 74
     0
 49
0.01
 74
     0
 49
-0.06
 74
     0
  0
LTYPE
  5
43
330
5
100
AcDbSymbolTableRecord
100
AcDbLinetypeTableRecord
  2
DASH_DOUBLE_DOT
 70
     0
  3
Dash Double Dot __ __ . __ __ . __ __ . __ _
 72
    65
 73
     6
 40
0.4398
 49
0.24
 74
     0
 49
-0.06
 74
     0
 49
0.0098
 74
     0
 49
-0.06
 74
     0
 49
0.01
 74
     0
 49
-0.06
 74
     0
  0
LTYPE
  5
44
330
5
100
AcDbSymbolTableRecord
100
AcDbLinetypeTableRecord
  2
DASH_TRIPLE_DOT
 70
     0
  3
Dash Triple-Dot _ . . . _ . . . _ . . . _
 72
    65
 73
     8
 40
0.51
 49
0.24
 74
     0
 49
-0.06
 74
     0
 49
0.01
 74
     0
 49
-0.06
 74
     0
 49
0.01
 74
     0
 49
-0.06
 74
     0
 49
0.01
 74
     0
 49
-0.06
 74
     0
  0
LTYPE
  5
45
330
5
100
AcDbSymbolTableRecord
100
AcDbLinetypeTableRecord
  2
DASHED
 70
     0
  3
Dashed __ __ __ __ __ __ __ __ __ __ __ __ __ _
 72
    65
 73
     2
 40
0.2067
 49
0.1654
 74
     0
 49
-0.0413
 74
     0
  0
LTYPE
  5
46
330
5
100
AcDbSymbolTableRecord
100
AcDbLinetypeTableRecord
  2
DASHED_SPACE
 70
     0
  3
Dashed Space _._._._._._._._._._._._._._._.
 72
    65
 73
     2
 40
0.2067
 49
0.1654
 74
     0
 49
-0.0413
 74
     0
  0
LTYPE
  5
47
330
5
100
AcDbSymbolTableRecord
100
AcDbLinetypeTableRecord
  2
DOTTED
 70
     0
  3
Dotted . . . . . . . . . . . . . . . . . . . . 
 72
    65
 73
     2
 40
0.0482
 49
0.0069
 74
     0
 49
-0.0413
 74
     0
  0
LTYPE
  5
48
330
5
100
AcDbSymbolTableRecord
100
AcDbLinetypeTableRecord
  2
DOUBLE_DASH_CHAIN
 70
     0
  3
Double Dash Chain ___ _ _ ___ _ _ ___ _ _ ___ _
 72
    65
 73
     6
 40
1.240299999999999
 49
0.6614
 74
     0
 49
-0.0827
 74
     0
 49
0.1654
 74
     0
 49
-0.0827
 74
     0
 49
0.1654
 74
     0
 49
-0.0827
 74
     0
  0
LTYPE
  5
49
330
5
100
AcDbSymbolTableRecord
100
AcDbLinetypeTableRecord
  2
DOUBLE_DASH_DOT
 70
     0
  3
Double Dash Dot __ __ . __ __ . __ __ . __ _
 72
    65
 73
     6
 40
0.67
 49
0.24
 74
     0
 49
-0.06
 74
     0
 49
0.24
 74
     0
 49
-0.06
 74
     0
 49
0.01
 74
     0
 49
-0.06
 74
     0
  0
LTYPE
  5
4A
330
5
100
AcDbSymbolTableRecord
100
AcDbLinetypeTableRecord
  2
DOUBLE_DASH_DOUBLE_DOT
 70
     0
  3
Double-dash double-dot _ _ . . _ _ . . _
 72
    65
 73
     8
 40
0.7400000000000001
 49
0.24
 74
     0
 49
-0.06
 74
     0
 49
0.24
 74
     0
 49
-0.06
 74
     0
 49
0.01
 74
     0
 49
-0.06
 74
     0
 49
0.01
 74
     0
 49
-0.06
 74
     0
  0
LTYPE
  5
4B
330
5
100
AcDbSymbolTableRecord
100
AcDbLinetypeTableRecord
  2
DOUBLE_DASH_TRIPLE_DOT
 70
     0
  3
Double Dash Triple Dot __ __ . . . __ __ . . .
 72
    65
 73
    10
 40
0.8100000000000001
 49
0.24
 74
     0
 49
-0.06
 74
     0
 49
0.24
 74
     0
 49
-0.06
 74
     0
 49
0.01
 74
     0
 49
-0.06
 74
     0
 49
0.01
 74
     0
 49
-0.06
 74
     0
 49
0.01
 74
     0
 49
-0.06
 74
     0
  0
LTYPE
  5
4C
330
5
100
AcDbSymbolTableRecord
100
AcDbLinetypeTableRecord
  2
LONG_DASH_DOTTED
 70
     0
  3
Long-Dash Dot ____ . ____ . ____ . ____ . _
 72
    65
 73
     4
 40
0.3001
 49
0.2362
 74
     0
 49
-0.0295
 74
     0
 49
0.0049
 74
     0
 49
-0.0295
 74
     0
  0
LTYPE
  5
4D
330
5
100
AcDbSymbolTableRecord
100
AcDbLinetypeTableRecord
  2
LONG_DASH_DOUBLE_DOT
 70
     0
  3
Long Dash Double Dot ____ . . ____ . . ____ . .
 72
    65
 73
     6
 40
0.3345
 49
0.2362
 74
     0
 49
-0.0295
 74
     0
 49
0.0049
 74
     0
 49
-0.0295
 74
     0
 49
0.0049
 74
     0
 49
-0.0295
 74
     0
  0
LTYPE
  5
4E
330
5
100
AcDbSymbolTableRecord
100
AcDbLinetypeTableRecord
  2
LONG_DASH_TRIPLE_DOT
 70
     0
  3
Long Dash Triple Dot ____ ... ____ ... ____
 72
    65
 73
     8
 40
0.75
 49
0.48
 74
     0
 49
-0.06
 74
     0
 49
0.01
 74
     0
 49
-0.06
 74
     0
 49
0.01
 74
     0
 49
-0.06
 74
     0
 49
0.01
 74
     0
 49
-0.06
 74
     0
  0
LTYPE
  5
4F
330
5
100
AcDbSymbolTableRecord
100
AcDbLinetypeTableRecord
  2
BORDER
 70
     0
  3
Border __ __ . __ __ . __ __ . __ __ . __ __ .
 72
    65
 73
     6
 40
44.45
 49
12.7
 74
     0
 49
-6.349999999999999
 74
     0
 49
12.7
 74
     0
 49
-6.349999999999999
 74
     0
 49
0.0
 74
     0
 49
-6.349999999999999
 74
     0
  0
LTYPE
  5
50
330
5
100
AcDbSymbolTableRecord
100
AcDbLinetypeTableRecord
  2
BORDER2
 70
     0
  3
Border (.5x) __.__.__.__.__.__.__.__.__.__.__.
 72
    65
 73
     6
 40
22.225
 49
6.349999999999999
 74
     0
 49
-3.174999999999999
 74
     0
 49
6.349999999999999
 74
     0
 49
-3.174999999999999
 74
     0
 49
0.0
 74
     0
 49
-3.174999999999999
 74
     0
  0
LTYPE
  5
51
330
5
100
AcDbSymbolTableRecord
100
AcDbLinetypeTableRecord
  2
BORDERX2
 70
     0
  3
Border (2x) ____  ____  .  ____  ____  .  ___
 72
    65
 73
     6
 40
88.9
 49
25.4
 74
     0
 49
-12.7
 74
     0
 49
25.4
 74
     0
 49
-12.7
 74
     0
 49
0.0
 74
     0
 49
-12.7
 74
     0
  0
LTYPE
  5
52
330
5
100
AcDbSymbolTableRecord
100
AcDbLinetypeTableRecord
  2
CENTER
 70
     0
  3
Center ____ _ ____ _ ____ _ ____ _ ____ _ ____
 72
    65
 73
     4
 40
50.8
 49
31.75
 74
     0
 49
-6.349999999999999
 74
     0
 49
6.349999999999999
 74
     0
 49
-6.349999999999999
 74
     0
  0
LTYPE
  5
53
330
5
100
AcDbSymbolTableRecord
100
AcDbLinetypeTableRecord
  2
CENTER2
 70
     0
  3
Center (.5x) ___ _ ___ _ ___ _ ___ _ ___ _ ___
 72
    65
 73
     4
 40
28.575
 49
19.05
 74
     0
 49
-3.174999999999999
 74
     0
 49
3.174999999999999
 74
     0
 49
-3.174999999999999
 74
     0
  0
LTYPE
  5
54
330
5
100
AcDbSymbolTableRecord
100
AcDbLinetypeTableRecord
  2
CENTERX2
 70
     0
  3
Center (2x) ________  __  ________  __  _____
 72
    65
 73
     4
 40
101.6
 49
63.5
 74
     0
 49
-12.7
 74
     0
 49
12.7
 74
     0
 49
-12.7
 74
     0
  0
LTYPE
  5
55
330
5
100
AcDbSymbolTableRecord
100
AcDbLinetypeTableRecord
  2
DASHDOT2
 70
     0
  3
Dash dot (.5x) _._._._._._._._._._._._._._._.
 72
    65
 73
     4
 40
12.7
 49
6.349999999999999
 74
     0
 49
-3.174999999999999
 74
     0
 49
0.0
 74
     0
 49
-3.174999999999999
 74
     0
  0
LTYPE
  5
56
330
5
100
AcDbSymbolTableRecord
100
AcDbLinetypeTableRecord
  2
DASHDOTX2
 70
     0
  3
Dash dot (2x) ____  .  ____  .  ____  .  ___
 72
    65
 73
     4
 40
50.8
 49
25.4
 74
     0
 49
-12.7
 74
     0
 49
0.0
 74
     0
 49
-12.7
 74
     0
  0
LTYPE
  5
57
330
5
100
AcDbSymbolTableRecord
100
AcDbLinetypeTableRecord
  2
DASHED2
 70
     0
  3
Dashed (.5x) _ _ _ _ _ _ _ _ _ _ _ _ _ _ _ _ _
 72
    65
 73
     2
 40
9.524999999999998
 49
6.349999999999999
 74
     0
 49
-3.174999999999999
 74
     0
  0
LTYPE
  5
58
330
5
100
AcDbSymbolTableRecord
100
AcDbLinetypeTableRecord
  2
DASHEDX2
 70
     0
  3
Dashed (2x) ____  ____  ____  ____  ____  ___
 72
    65
 73
     2
 40
38.1
 49
25.4
 74
     0
 49
-12.7
 74
     0
  0
LTYPE
  5
59
330
5
100
AcDbSymbolTableRecord
100
AcDbLinetypeTableRecord
  2
DIVIDE
 70
     0
  3
Divide ____ . . ____ . . ____ . . ____ . . ____
 72
    65
 73
     6
 40
31.75
 49
12.7
 74
     0
 49
-6.349999999999999
 74
     0
 49
0.0
 74
     0
 49
-6.349999999999999
 74
     0
 49
0.0
 74
     0
 49
-6.349999999999999
 74
     0
  0
LTYPE
  5
5A
330
5
100
AcDbSymbolTableRecord
100
AcDbLinetypeTableRecord
  2
DIVIDE2
 70
     0
  3
Divide (.5x) __..__..__..__..__..__..__..__.._
 72
    65
 73
     6
 40
15.875
 49
6.349999999999999
 74
     0
 49
-3.174999999999999
 74
     0
 49
0.0
 74
     0
 49
-3.174999999999999
 74
     0
 49
0.0
 74
     0
 49
-3.174999999999999
 74
     0
  0
LTYPE
  5
5B
330
5
100
AcDbSymbolTableRecord
100
AcDbLinetypeTableRecord
  2
DIVIDEX2
 70
     0
  3
Divide (2x) ________  .  .  ________  .  .  _
 72
    65
 73
     6
 40
63.49999999999999
 49
25.4
 74
     0
 49
-12.7
 74
     0
 49
0.0
 74
     0
 49
-12.7
 74
     0
 49
0.0
 74
     0
 49
-12.7
 74
     0
  0
LTYPE
  5
5C
330
5
100
AcDbSymbolTableRecord
100
AcDbLinetypeTableRecord
  2
DOT
 70
     0
  3
Dot . . . . . . . . . . . . . . . . . . . . . .
 72
    65
 73
     2
 40
6.349999999999999
 49
0.0
 74
     0
 49
-6.349999999999999
 74
     0
  0
LTYPE
  5
5D
330
5
100
AcDbSymbolTableRecord
100
AcDbLinetypeTableRecord
  2
DOT2
 70
     0
  3
Dot (.5x) .....................................
 72
    65
 73
     2
 40
3.174999999999999
 49
0.0
 74
     0
 49
-3.174999999999999
 74
     0
  0
LTYPE
  5
5E
330
5
100
AcDbSymbolTableRecord
100
AcDbLinetypeTableRecord
  2
DOTX2
 70
     0
  3
Dot (2x) .  .  .  .  .  .  .  .  .  .  .  .  . 
 72
    65
 73
     2
 40
12.7
 49
0.0
 74
     0
 49
-12.7
 74
     0
  0
LTYPE
  5
5F
330
5
100
AcDbSymbolTableRecord
100
AcDbLinetypeTableRecord
  2
HIDDEN
 70
     0
  3
Hidden __ __ __ __ __ __ __ __ __ __ __ __ __ _
 72
    65
 73
     2
 40
9.524999999999998
 49
6.349999999999999
 74
     0
 49
-3.174999999999999
 74
     0
  0
LTYPE
  5
60
330
5
100
AcDbSymbolTableRecord
100
AcDbLinetypeTableRecord
  2
HIDDEN2
 70
     0
  3
Hidden (.5x) _ _ _ _ _ _ _ _ _ _ _ _ _ _ _ _ _
 72
    65
 73
     2
 40
4.762499999999999
 49
3.174999999999999
 74
     0
 49
-1.587499999999999
 74
     0
  0
LTYPE
  5
61
330
5
100
AcDbSymbolTableRecord
100
AcDbLinetypeTableRecord
  2
HIDDENX2
 70
     0
  3
Hidden (2x) ____ ____ ____ ____ ____ ____ ____
 72
    65
 73
     2
 40
19.05
 49
12.7
 74
     0
 49
-6.349999999999999
 74
     0
  0
LTYPE
  5
62
330
5
100
AcDbSymbolTableRecord
100
AcDbLinetypeTableRecord
  2
PHANTOM
 70
     0
  3
Phantom ______  __  __  ______  __  __  ______
 72
    65
 73
     6
 40
63.5
 49
31.75
 74
     0
 49
-6.349999999999999
 74
     0
 49
6.349999999999999
 74
     0
 49
-6.349999999999999
 74
     0
 49
6.349999999999999
 74
     0
 49
-6.349999999999999
 74
     0
  0
LTYPE
  5
63
330
5
100
AcDbSymbolTableRecord
100
AcDbLinetypeTableRecord
  2
PHANTOM2
 70
     0
  3
Phantom (.5x) ___ _ _ ___ _ _ ___ _ _ ___ _ _
 72
    65
 73
     6
 40
31.75
 49
15.875
 74
     0
 49
-3.174999999999999
 74
     0
 49
3.174999999999999
 74
     0
 49
-3.174999999999999
 74
     0
 49
3.174999999999999
 74
     0
 49
-3.174999999999999
 74
     0
  0
LTYPE
  5
64
330
5
100
AcDbSymbolTableRecord
100
AcDbLinetypeTableRecord
  2
PHANTOMX2
 70
     0
  3
Phantom (2x) ____________    ____    ____   _
 72
    65
 73
     6
 40
127.0
 49
63.5
 74
     0
 49
-12.7
 74
     0
 49
12.7
 74
     0
 49
-12.7
 74
     0
 49
12.7
 74
     0
 49
-12.7
 74
     0
  0
LTYPE
  5
65
330
5
100
AcDbSymbolTableRecord
100
AcDbLinetypeTableRecord
  2
ACAD_ISO02W100
 70
     0
  3
ISO dash __ __ __ __ __ __ __ __ __ __ __ __ __
 72
    65
 73
     2
 40
15.0
 49
12.0
 74
     0
 49
-3.0
 74
     0
  0
LTYPE
  5
66
330
5
100
AcDbSymbolTableRecord
100
AcDbLinetypeTableRecord
  2
ACAD_ISO03W100
 70
     0
  3
ISO dash space __    __    __    __    __    __
 72
    65
 73
     2
 40
30.0
 49
12.0
 74
     0
 49
-18.0
 74
     0
  0
LTYPE
  5
67
330
5
100
AcDbSymbolTableRecord
100
AcDbLinetypeTableRecord
  2
ACAD_ISO04W100
 70
     0
  3
ISO long-dash dot ____ . ____ . ____ . ____ . _
 72
    65
 73
     4
 40
30.0
 49
24.0
 74
     0
 49
-3.0
 74
     0
 49
0.0
 74
     0
 49
-3.0
 74
     0
  0
LTYPE
  5
68
330
5
100
AcDbSymbolTableRecord
100
AcDbLinetypeTableRecord
  2
ACAD_ISO05W100
 70
     0
  3
ISO long-dash double-dot ____ .. ____ .. ____ .
 72
    65
 73
     6
 40
33.0
 49
24.0
 74
     0
 49
-3.0
 74
     0
 49
0.0
 74
     0
 49
-3.0
 74
     0
 49
0.0
 74
     0
 49
-3.0
 74
     0
  0
LTYPE
  5
69
330
5
100
AcDbSymbolTableRecord
100
AcDbLinetypeTableRecord
  2
ACAD_ISO06W100
 70
     0
  3
ISO long-dash triple-dot ____ ... ____ ... ____
 72
    65
 73
     8
 40
36.0
 49
24.0
 74
     0
 49
-3.0
 74
     0
 49
0.0
 74
     0
 49
-3.0
 74
     0
 49
0.0
 74
     0
 49
-3.0
 74
     0
 49
0.0
 74
     0
 49
-3.0
 74
     0
  0
LTYPE
  5
6A
330
5
100
AcDbSymbolTableRecord
100
AcDbLinetypeTableRecord
  2
ACAD_ISO07W100
 70
     0
  3
ISO dot . . . . . . . . . . . . . . . . . . . .
 72
    65
 73
     2
 40
3.0
 49
0.0
 74
     0
 49
-3.0
 74
     0
  0
LTYPE
  5
6B
330
5
100
AcDbSymbolTableRecord
100
AcDbLinetypeTableRecord
  2
ACAD_ISO08W100
 70
     0
  3
ISO long-dash short-dash ____ __ ____ __ ____ _
 72
    65
 73
     4
 40
36.0
 49
24.0
 74
     0
 49
-3.0
 74
     0
 49
6.0
 74
     0
 49
-3.0
 74
     0
  0
LTYPE
  5
6C
330
5
100
AcDbSymbolTableRecord
100
AcDbLinetypeTableRecord
  2
ACAD_ISO09W100
 70
     0
  3
ISO long-dash double-short-dash ____ __ __ ____
 72
    65
 73
     6
 40
45.0
 49
24.0
 74
     0
 49
-3.0
 74
     0
 49
6.0
 74
     0
 49
-3.0
 74
     0
 49
6.0
 74
     0
 49
-3.0
 74
     0
  0
LTYPE
  5
6D
330
5
100
AcDbSymbolTableRecord
100
AcDbLinetypeTableRecord
  2
ACAD_ISO10W100
 70
     0
  3
ISO dash dot __ . __ . __ . __ . __ . __ . __ .
 72
    65
 73
     4
 40
18.0
 49
12.0
 74
     0
 49
-3.0
 74
     0
 49
0.0
 74
     0
 49
-3.0
 74
     0
  0
LTYPE
  5
6E
330
5
100
AcDbSymbolTableRecord
100
AcDbLinetypeTableRecord
  2
ACAD_ISO11W100
 70
     0
  3
ISO double-dash dot __ __ . __ __ . __ __ . __ 
 72
    65
 73
     6
 40
33.0
 49
12.0
 74
     0
 49
-3.0
 74
     0
 49
12.0
 74
     0
 49
-3.0
 74
     0
 49
0.0
 74
     0
 49
-3.0
 74
     0
  0
LTYPE
  5
6F
330
5
100
AcDbSymbolTableRecord
100
AcDbLinetypeTableRecord
  2
ACAD_ISO12W100
 70
     0
  3
ISO dash double-dot __ . . __ . . __ . . __ . .
 72
    65
 73
     6
 40
21.0
 49
12.0
 74
     0
 49
-3.0
 74
     0
 49
0.0
 74
     0
 49
-3.0
 74
     0
 49
0.0
 74
     0
 49
-3.0
 74
     0
  0
LTYPE
  5
70
330
5
100
AcDbSymbolTableRecord
100
AcDbLinetypeTableRecord
  2
ACAD_ISO13W100
 70
     0
  3
ISO double-dash double-dot __ __ . . __ __ . . 
 72
    65
 73
     8
 40
36.0
 49
12.0
 74
     0
 49
-3.0
 74
     0
 49
12.0
 74
     0
 49
-3.0
 74
     0
 49
0.0
 74
     0
 49
-3.0
 74
     0
 49
0.0
 74
     0
 49
-3.0
 74
     0
  0
LTYPE
  5
71
330
5
100
AcDbSymbolTableRecord
100
AcDbLinetypeTableRecord
  2
ACAD_ISO14W100
 70
     0
  3
ISO dash triple-dot __ . . . __ . . . __ . . . 
 72
    65
 73
     8
 40
24.0
 49
12.0
 74
     0
 49
-3.0
 74
     0
 49
0.0
 74
     0
 49
-3.0
 74
     0
 49
0.0
 74
     0
 49
-3.0
 74
     0
 49
0.0
 74
     0
 49
-3.0
 74
     0
  0
LTYPE
  5
72
330
5
100
AcDbSymbolTableRecord
100
AcDbLinetypeTableRecord
  2
ACAD_ISO15W100
 70
     0
  3
ISO double-dash triple-dot __ __ . . . __ __ . 
 72
    65
 73
    10
 40
39.0
 49
12.0
 74
     0
 49
-3.0
 74
     0
 49
12.0
 74
     0
 49
-3.0
 74
     0
 49
0.0
 74
     0
 49
-3.0
 74
     0
 49
0.0
 74
     0
 49
-3.0
 74
     0
 49
0.0
 74
     0
 49
-3.0
 74
     0
  0
LTYPE
  5
75
330
5
100
AcDbSymbolTableRecord
100
AcDbLinetypeTableRecord
  2
FENCELINE1
 70
     0
  3
Fenceline circle ----0-----0----0-----0----0---
 72
    65
 73
     4
 40
36.83
 49
6.349999999999999
 74
     0
 49
-2.54
 74
     4
 75
   133
340
74
 46
2.54
 50
0.0
 44
-2.54
 45
0.0
 49
-2.54
 74
     0
 49
25.4
 74
     0
  0
LTYPE
  5
76
330
5
100
AcDbSymbolTableRecord
100
AcDbLinetypeTableRecord
  2
FENCELINE2
 70
     0
  3
Fenceline square ----[]-----[]----[]-----[]----
 72
    65
 73
     4
 40
36.83
 49
6.349999999999999
 74
     0
 49
-2.54
 74
     4
 75
   132
340
74
 46
2.54
 50
0.0
 44
-2.54
 45
0.0
 49
-2.54
 74
     0
 49
25.4
 74
     0
  0
LTYPE
  5
77
330
5
100
AcDbSymbolTableRecord
100
AcDbLinetypeTableRecord
  2
TRACKS
 70
     0
  3
Tracks -|-|-|-|-|-|-|-|-|-|-|-|-|-|-|-|-|-|-|-|
 72
    65
 73
     2
 40
7.62
 49
3.81
 74
     4
 75
   130
340
74
 46
6.349999999999999
 50
0.0
 44
0.0
 45
0.0
 49
3.81
 74
     0
  0
LTYPE
  5
78
330
5
100
AcDbSymbolTableRecord
100
AcDbLinetypeTableRecord
  2
BATTING
 70
     0
  3
Batting SSSSSSSSSSSSSSSSSSSSSSSSSSSSSSSSSSSSSSS
 72
    65
 73
     4
 40
10.16254
 49
0.00254
 74
     0
 49
-2.54
 74
     4
 75
   134
340
74
 46
2.54
 50
0.0
 44
-2.54
 45
0.0
 49
-5.08
 74
     4
 75
   134
340
74
 46
2.54
 50
180.0
 44
2.54
 45
0.0
 49
-2.54
 74
     0
  0
LTYPE
  5
79
330
5
100
AcDbSymbolTableRecord
100
AcDbLinetypeTableRecord
  2
HOT_WATER_SUPPLY
 70
     0
  3
Hot water supply ---- HW ---- HW ---- HW ----
 72
    65
 73
     3
 40
22.86
 49
12.7
 74
     0
 49
-5.08
 74
     2
 75
     0
340
26
 46
2.54
 50
0.0
 44
-2.54
 45
-1.27
  9
HW
 49
-5.08
 74
     0
  0
LTYPE
  5
7A
330
5
100
AcDbSymbolTableRecord
100
AcDbLinetypeTableRecord
  2
GAS_LINE
 70
     0
  3
Gas line ----GAS----GAS----GAS----GAS----GAS---
 72
    65
 73
     3
 40
24.13
 49
12.7
 74
     0
 49
-5.08
 74
     2
 75
     0
340
26
 46
2.54
 50
0.0
 44
-2.54
 45
-1.27
  9
GAS
 49
-6.349999999999999
 74
     0
  0
LTYPE
  5
7B
330
5
100
AcDbSymbolTableRecord
100
AcDbLinetypeTableRecord
  2
ZIGZAG
 70
     0
  3
Zig zag /\/\/\/\/\/\/\/\/\/\/\/\/\/\/\/\/\/\/\/
 72
    65
 73
     4
 40
20.32254
 49
0.00254
 74
     0
 49
-5.08
 74
     4
 75
   131
340
74
 46
5.08
 50
0.0
 44
-5.08
 45
0.0
 49
-10.16
 74
     4
 75
   131
340
74
 46
5.08
 50
180.0
 44
5.08
 45
0.0
 49
-5.08
 74
     0
  0
ENDTAB
  0
TABLE
  2
LAYER
  5
2
330
0
100
AcDbSymbolTable
 70
    25
  0
LAYER
  5
25
330
2
100
AcDbSymbolTableRecord
100
AcDbLayerTableRecord
  2
0
 70
     0
 62
     7
  6
Continuous
370
    -3
390
F
  0
LAYER
  5
8B
330
2
100
AcDbSymbolTableRecord
100
AcDbLayerTableRecord
  2
Schraffur (ISO)
 70
     0
 62
     7
  6
Continuous
370
    18
390
F
  0
LAYER
  5
8C
330
2
100
AcDbSymbolTableRecord
100
AcDbLayerTableRecord
  2
Sichtbar (ISO)
 70
     0
 62
     7
  6
Continuous
370
    35
390
F
  0
LAYER
  5
8E
330
2
100
AcDbSymbolTableRecord
100
AcDbLayerTableRecord
  2
Skizziergeometrie (ISO)
 70
     0
 62
     7
  6
Continuous
370
    25
390
F
  0
LAYER
  5
8F
330
2
100
AcDbSymbolTableRecord
100
AcDbLayerTableRecord
  2
Symbol (ISO)
 70
     0
 62
     7
  6
Continuous
370
    25
390
F
  0
LAYER
  5
90
330
2
100
AcDbSymbolTableRecord
100
AcDbLayerTableRecord
  2
Titel (ISO)
 70
     0
 62
     7
  6
Continuous
370
    50
390
F
  0
ENDTAB
  0
TABLE
  2
STYLE
  5
3
330
0
100
AcDbSymbolTable
 70
    12
  0
STYLE
  5
26
330
3
100
AcDbSymbolTableRecord
100
AcDbTextStyleTableRecord
  2
Standard
 70
     0
 40
0.0
 41
1.0
 50
0.0
 71
     0
 42
0.2
  3
isocpeur.ttf
  4

1001
ACAD
1000
ISOCPEUR
1071
      256
  0
STYLE
  5
74
330
3
100
AcDbSymbolTableRecord
100
AcDbTextStyleTableRecord
  2

 70
     1
 40
0.0
 41
1.0
 50
0.0
 71
     0
 42
0.2
  3
ltypeshp.shx
  4

  0
STYLE
  5
94
330
3
100
AcDbSymbolTableRecord
100
AcDbTextStyleTableRecord
  2
Bezeichnungstext (DIN)
 70
     0
 40
0.0
 41
1.0
 50
0.0
 71
     0
 42
0.2
  3
isocpeur.ttf
  4

1001
ACAD
1000
ISOCPEUR
1071
      256
  0
STYLE
  5
95
330
3
100
AcDbSymbolTableRecord
100
AcDbTextStyleTableRecord
  2
Notiztext (DIN)
 70
     0
 40
0.0
 41
1.0
 50
0.0
 71
     0
 42
0.2
  3
isocpeur.ttf
  4

1001
ACAD
1000
ISOCPEUR
1071
      256
  0
STYLE
  5
96
330
3
100
AcDbSymbolTableRecord
100
AcDbTextStyleTableRecord
  2
Plan_Kopf_01.5
 70
     0
 40
0.0
 41
0.899999976158142
 50
0.0
 71
     0
 42
0.2
  3
ARIAL.TTF
  4

1001
ACAD
1000
Arial
1071
      256
  0
STYLE
  5
97
330
3
100
AcDbSymbolTableRecord
100
AcDbTextStyleTableRecord
  2
Plan_Kopf_02.0
 70
     0
 40
0.0
 41
0.899999976158142
 50
0.0
 71
     0
 42
0.2
  3
ARIAL.TTF
  4

1001
ACAD
1000
Arial
1071
      256
  0
STYLE
  5
98
330
3
100
AcDbSymbolTableRecord
100
AcDbTextStyleTableRecord
  2
Plan_Kopf_02.5
 70
     0
 40
0.0
 41
0.899999976158142
 50
0.0
 71
     0
 42
0.2
  3
ARIAL.TTF
  4

1001
ACAD
1000
Arial
1071
      256
  0
STYLE
  5
99
330
3
100
AcDbSymbolTableRecord
100
AcDbTextStyleTableRecord
  2
Plan_Kopf_05.0
 70
     0
 40
0.0
 41
0.899999976158142
 50
0.0
 71
     0
 42
0.2
  3
ARIAL.TTF
  4

1001
ACAD
1000
Arial
1071
      256
  0
STYLE
  5
9A
330
3
100
AcDbSymbolTableRecord
100
AcDbTextStyleTableRecord
  2
Stückliste
 70
     0
 40
0.0
 41
0.899999976158142
 50
0.0
 71
     0
 42
0.2
  3
isocpeur.ttf
  4

1001
ACAD
1000
ISOCPEUR
1071
      256
  0
STYLE
  5
9B
330
3
100
AcDbSymbolTableRecord
100
AcDbTextStyleTableRecord
  2
TolListe_12
 70
     0
 40
0.0
 41
1.0
 50
0.0
 71
     0
 42
0.2
  3
isocpeur.ttf
  4

1001
ACAD
1000
ISOCPEUR
1071
      256
  0
STYLE
  5
FE
330
3
100
AcDbSymbolTableRecord
100
AcDbTextStyleTableRecord
  2
TolListe_12-AIGDT
 70
     0
 40
0.0
 41
1.0
 50
0.0
 71
     0
 42
0.2
  3
AIGDT___.TTF
  4

1001
ACAD
1000
AIGDT
1071
      514
  0
STYLE
  5
157
330
3
100
AcDbSymbolTableRecord
100
AcDbTextStyleTableRecord
  2
TolListe_12-Arial
 70
     0
 40
0.0
 41
1.100000023841857
 50
0.0
 71
     0
 42
0.2
  3

  4

1001
ACAD
1000
Arial
1071
-33554176
  0
ENDTAB
  0
TABLE
  2
VIEW
  5
6
330
0
100
AcDbSymbolTable
 70
     0
  0
ENDTAB
  0
TABLE
  2
UCS
  5
7
330
0
100
AcDbSymbolTable
 70
     0
  0
ENDTAB
  0
TABLE
  2
APPID
  5
9
330
0
100
AcDbSymbolTable
 70
     1
  0
APPID
  5
27
330
9
100
AcDbSymbolTableRecord
100
AcDbRegAppTableRecord
  2
ACAD
 70
     0
  0
ENDTAB
  0
TABLE
  2
DIMSTYLE
  5
A
330
0
100
AcDbSymbolTable
 70
    11
100
AcDbDimStyleTable
 71
     0
  0
DIMSTYLE
105
3F
330
A
100
AcDbSymbolTableRecord
100
AcDbDimStyleTableRecord
  2
Standard
 70
     0
340
26
  0
DIMSTYLE
105
AA
330
A
100
AcDbSymbolTableRecord
100
AcDbDimStyleTableRecord
  2
Sonstiges Objekt (DIN)
 70
     0
 40
5.0
 41
5.0
 42
0.0
 43
6.0
 44
3.174999999999999
 45
0.00000001
 46
10.0
 77
     1
 78
     8
 79
     2
140
5.25
143
0.03937
146
0.6666666666666666
147
0.8
171
     3
172
     1
176
   256
177
   256
178
   256
271
     2
272
     2
274
     3
278
    44
284
     8
286
     8
340
94
341
9C
371
    -1
372
    -1
  0
DIMSTYLE
105
AB
330
A
100
AcDbSymbolTableRecord
100
AcDbDimStyleTableRecord
  2
Sonstiges Objekt (DIN)$7
 70
     0
 40
5.0
 41
5.0
 42
0.0
 43
6.0
 44
3.174999999999999
 45
0.00000001
 46
10.0
 77
     1
 78
     8
 79
     2
140
5.25
143
0.03937
146
0.6666666666666666
147
0.8
171
     3
172
     1
176
   256
177
   256
178
   256
271
     2
272
     2
274
     3
278
    44
284
     8
286
     8
340
94
341
9C
371
    25
372
    -1
  0
DIMSTYLE
105
AC
330
A
100
AcDbSymbolTableRecord
100
AcDbDimStyleTableRecord
  2
Standard - Methode 2a (DIN)
 70
     0
 40
5.0
 41
2.5
 42
0.8
 43
6.0
 44
3.174999999999999
 45
0.00000001
 46
10.0
 77
     1
 78
     8
 79
     2
140
3.5
143
0.03937
147
0.8
170
     1
171
     3
172
     1
176
   256
177
   256
178
   256
179
     2
271
     2
272
     2
274
     3
278
    44
284
     8
286
     8
340
95
371
    -1
372
    -1
  0
DIMSTYLE
105
AD
330
A
100
AcDbSymbolTableRecord
100
AcDbDimStyleTableRecord
  2
Standard - Methode 2a (DIN)$7
 70
     0
 40
5.0
 41
2.5
 42
0.8
 43
6.0
 44
3.174999999999999
 45
0.00000001
 46
10.0
 77
     1
 78
     8
 79
     2
140
3.5
143
0.03937
147
0.8
170
     1
171
     3
172
     1
176
   256
177
   256
178
   256
179
     2
271
     2
272
     2
274
     3
278
    44
284
     8
286
     8
340
95
371
    -1
372
    -1
  0
DIMSTYLE
105
AE
330
A
100
AcDbSymbolTableRecord
100
AcDbDimStyleTableRecord
  2
Standard - Methode 2b (DIN)
 70
     0
 40
5.0
 41
2.5
 42
0.0
 43
6.0
 44
3.174999999999999
 45
0.00000001
 46
10.0
 77
     1
 78
     8
 79
     2
140
3.5
143
0.03937
147
0.8
171
     3
172
     1
176
   256
177
   256
178
   256
271
     2
272
     2
274
     3
278
    44
284
     8
286
     8
340
95
371
    -1
372
    -1
  0
DIMSTYLE
105
AF
330
A
100
AcDbSymbolTableRecord
100
AcDbDimStyleTableRecord
  2
Standard - Methode 2b (DIN)$7
 70
     0
 40
5.0
 41
2.5
 42
0.0
 43
6.0
 44
3.174999999999999
 45
0.00000001
 46
10.0
 77
     1
 78
     8
 79
     2
140
3.5
143
0.03937
147
0.8
171
     3
172
     1
176
   256
177
   256
178
   256
271
     2
272
     2
274
     3
278
    44
284
     8
286
     8
340
95
371
    -1
372
    -1
  0
DIMSTYLE
105
B0
330
A
100
AcDbSymbolTableRecord
100
AcDbDimStyleTableRecord
  2
Standard (DIN)
 70
     0
 40
5.0
 41
2.5
 42
0.8
 43
6.0
 44
3.174999999999999
 45
0.00000001
 46
10.0
 73
     0
 74
     0
 77
     1
 78
     8
 79
     2
140
3.5
143
0.03937
147
0.8
171
     3
172
     1
176
   256
177
   256
178
   256
271
     2
272
     3
274
     3
278
    44
340
95
371
    -1
372
    -1
  0
DIMSTYLE
105
B1
330
A
100
AcDbSymbolTableRecord
100
AcDbDimStyleTableRecord
  2
Standard (DIN)$7
 70
     0
 40
5.0
 41
2.5
 42
0.8
 43
6.0
 44
3.174999999999999
 45
0.00000001
 46
10.0
 73
     0
 74
     0
 77
     1
 78
     8
 79
     2
140
3.5
143
0.03937
147
0.8
171
     3
172
     1
176
   256
177
   256
178
   256
271
     2
272
     3
274
     3
278
    44
340
95
371
    -1
372
    -1
  0
DIMSTYLE
105
B2
330
A
100
AcDbSymbolTableRecord
100
AcDbDimStyleTableRecord
  2
Alternativ (ISO)
 70
     0
 40
5.0
 41
2.5
340
26
342
B3
  0
DIMSTYLE
105
C4
330
A
100
AcDbSymbolTableRecord
100
AcDbDimStyleTableRecord
  2
Bezug (ISO)
 70
     0
 40
5.0
 41
2.5
340
26
342
B3
  0
ENDTAB
  0
TABLE
  2
BLOCK_RECORD
  5
1
330
0
100
AcDbSymbolTable
 70
     8
  0
BLOCK_RECORD
  5
37
330
1
100
AcDbSymbolTableRecord
100
AcDbBlockTableRecord
  2
*Model_Space
340
3A
  0
BLOCK_RECORD
  5
33
330
1
100
AcDbSymbolTableRecord
100
AcDbBlockTableRecord
  2
*Paper_Space
340
36
  0
BLOCK_RECORD
  5
3B
330
1
100
AcDbSymbolTableRecord
100
AcDbBlockTableRecord
  2
*Paper_Space0
340
3E
  0
BLOCK_RECORD
  5
9C
330
1
100
AcDbSymbolTableRecord
100
AcDbBlockTableRecord
  2
Filled-1
340
0
  0
BLOCK_RECORD
  5
B3
330
1
100
AcDbSymbolTableRecord
100
AcDbBlockTableRecord
  2
_Closed
340
0
  0
BLOCK_RECORD
  5
BA
330
1
100
AcDbSymbolTableRecord
100
AcDbBlockTableRecord
  2
DatumFilled45
340
0
  0
BLOCK_RECORD
  5
C5
330
1
100
AcDbSymbolTableRecord
100
AcDbBlockTableRecord
  2
Tolleranz Liste
340
0
  0
BLOCK_RECORD
  5
15F
330
1
100
AcDbSymbolTableRecord
100
AcDbBlockTableRecord
  2
ProtoTyp
340
0
  0
BLOCK_RECORD
  5
164
330
1
100
AcDbSymbolTableRecord
100
AcDbBlockTableRecord
  2
Logo
340
0
  0
BLOCK_RECORD
  5
1E1
330
1
100
AcDbSymbolTableRecord
100
AcDbBlockTableRecord
  2
P gross
340
0
102
{BLKREFS
331
6E7
331
6E8
331
6E9
102
}
  0
ENDTAB
  0
ENDSEC
  0
SECTION
  2
BLOCKS
  0
BLOCK
  5
38
330
37
100
AcDbEntity
  8
0
100
AcDbBlockBegin
  2
*Model_Space
 70
     0
 10
0.0
 20
0.0
 30
0.0
  3
*Model_Space
  1

  0
ENDBLK
  5
39
330
37
100
AcDbEntity
  8
0
100
AcDbBlockEnd
  0
BLOCK
  5
34
330
33
100
AcDbEntity
 67
     1
  8
0
100
AcDbBlockBegin
  2
*Paper_Space
 70
     0
 10
0.0
 20
0.0
 30
0.0
  3
*Paper_Space
  1

  0
ENDBLK
  5
35
330
33
100
AcDbEntity
 67
     1
  8
0
100
AcDbBlockEnd
  0
BLOCK
  5
3C
330
3B
100
AcDbEntity
 67
     1
  8
0
100
AcDbBlockBegin
  2
*Paper_Space0
 70
     0
 10
0.0
 20
0.0
 30
0.0
  3
*Paper_Space0
  1

  0
ENDBLK
  5
3D
330
3B
100
AcDbEntity
 67
     1
  8
0
100
AcDbBlockEnd
  0
BLOCK
  5
9D
330
9C
100
AcDbEntity
  8
0
100
AcDbBlockBegin
  2
Filled-1
 70
     0
 10
0.0
 20
0.0
 30
0.0
  3
Filled-1
  1

  0
LINE
  5
9F
330
9C
100
AcDbEntity
  8
0
 62
     0
100
AcDbLine
 10
-1.0
 20
0.0
 30
0.0
 11
0.0
 21
0.0
 31
0.0
  0
POLYLINE
  5
A0
330
9C
100
AcDbEntity
  8
0
 62
     0
100
AcDb2dPolyline
 66
     1
 10
0.0
 20
0.0
 30
0.0
 70
   128
  0
VERTEX
  5
A1
330
A0
100
AcDbEntity
  8
0
 62
     0
100
AcDbVertex
100
AcDb2dVertex
 10
-1.0
 20
-0.1
 30
0.0
  0
VERTEX
  5
A2
330
A0
100
AcDbEntity
  8
0
 62
     0
100
AcDbVertex
100
AcDb2dVertex
 10
0.0
 20
0.0
 30
0.0
  0
VERTEX
  5
A4
330
A0
100
AcDbEntity
  8
0
 62
     0
100
AcDbVertex
100
AcDb2dVertex
 10
-1.0
 20
0.1
 30
0.0
  0
VERTEX
  5
A5
330
A0
100
AcDbEntity
  8
0
 62
     0
100
AcDbVertex
100
AcDb2dVertex
 10
-1.0
 20
-0.1
 30
0.0
  0
SEQEND
  5
A3
330
A0
100
AcDbEntity
  8
0
 62
     0
  0
SOLID
  5
A6
330
9C
100
AcDbEntity
  8
0
 62
     0
100
AcDbTrace
 10
-1.0
 20
-0.1
 30
0.0
 11
0.0
 21
0.0
 31
0.0
 12
-1.0
 22
0.1
 32
0.0
 13
-1.0
 23
-0.1
 33
0.0
  0
LINE
  5
A7
330
9C
100
AcDbEntity
  8
0
 62
     0
100
AcDbLine
 10
-1.0
 20
-0.1
 30
0.0
 11
0.0
 21
0.0
 31
0.0
  0
LINE
  5
A8
330
9C
100
AcDbEntity
  8
0
 62
     0
100
AcDbLine
 10
0.0
 20
0.0
 30
0.0
 11
-1.0
 21
0.1
 31
0.0
  0
LINE
  5
A9
330
9C
100
AcDbEntity
  8
0
 62
     0
100
AcDbLine
 10
-1.0
 20
0.1
 30
0.0
 11
-1.0
 21
-0.1
 31
0.0
  0
ENDBLK
  5
9E
330
9C
100
AcDbEntity
  8
0
100
AcDbBlockEnd
  0
BLOCK
  5
B8
330
B3
100
AcDbEntity
  8
0
100
AcDbBlockBegin
  2
_Closed
 70
     0
 10
0.0
 20
0.0
 30
0.0
  3
_Closed
  1

  0
LINE
  5
B4
330
B3
100
AcDbEntity
  8
0
  6
ByBlock
 62
     0
370
    -2
100
AcDbLine
 10
-1.0
 20
0.1666666666666666
 30
0.0
 11
0.0
 21
0.0
 31
0.0
  0
LINE
  5
B5
330
B3
100
AcDbEntity
  8
0
  6
ByBlock
 62
     0
370
    -2
100
AcDbLine
 10
0.0
 20
0.0
 30
0.0
 11
-1.0
 21
-0.1666666666666666
 31
0.0
  0
LINE
  5
B6
330
B3
100
AcDbEntity
  8
0
  6
ByBlock
 62
     0
370
    -2
100
AcDbLine
 10
-1.0
 20
0.1666666666666666
 30
0.0
 11
-1.0
 21
-0.1666666666666666
 31
0.0
  0
LINE
  5
B7
330
B3
100
AcDbEntity
  8
0
  6
ByBlock
 62
     0
370
    -2
100
AcDbLine
 10
0.0
 20
0.0
 30
0.0
 11
-1.0
 21
0.0
 31
0.0
  0
ENDBLK
  5
B9
330
B3
100
AcDbEntity
  8
0
100
AcDbBlockEnd
  0
BLOCK
  5
BB
330
BA
100
AcDbEntity
  8
0
100
AcDbBlockBegin
  2
DatumFilled45
 70
     0
 10
0.0
 20
0.0
 30
0.0
  3
DatumFilled45
  1

  0
POLYLINE
  5
BD
330
BA
100
AcDbEntity
  8
0
 62
     0
100
AcDb2dPolyline
 66
     1
 10
0.0
 20
0.0
 30
0.0
 70
   128
  0
VERTEX
  5
BE
330
BD
100
AcDbEntity
  8
0
 62
     0
100
AcDbVertex
100
AcDb2dVertex
 10
0.0
 20
1.0
 30
0.0
  0
VERTEX
  5
BF
330
BD
100
AcDbEntity
  8
0
 62
     0
100
AcDbVertex
100
AcDb2dVertex
 10
0.0
 20
-1.0
 30
0.0
  0
VERTEX
  5
C1
330
BD
100
AcDbEntity
  8
0
 62
     0
100
AcDbVertex
100
AcDb2dVertex
 10
-1.0
 20
0.0
 30
0.0
  0
VERTEX
  5
C2
330
BD
100
AcDbEntity
  8
0
 62
     0
100
AcDbVertex
100
AcDb2dVertex
 10
0.0
 20
1.0
 30
0.0
  0
SEQEND
  5
C0
330
BD
100
AcDbEntity
  8
0
 62
     0
  0
SOLID
  5
C3
330
BA
100
AcDbEntity
  8
0
 62
     0
100
AcDbTrace
 10
0.0
 20
1.0
 30
0.0
 11
0.0
 21
-1.0
 31
0.0
 12
-1.0
 22
0.0
 32
0.0
 13
0.0
 23
1.0
 33
0.0
  0
ENDBLK
  5
BC
330
BA
100
AcDbEntity
  8
0
100
AcDbBlockEnd
  0
BLOCK
  5
C6
330
C5
100
AcDbEntity
  8
0
100
AcDbBlockBegin
  2
Tolleranz Liste
 70
     2
 10
0.0
 20
0.0
 30
0.0
  3
Tolleranz Liste
  1

  0
LINE
  5
C8
330
C5
100
AcDbEntity
  8
Titel (ISO)
 62
     7
100
AcDbLine
 10
-190.0
 20
0.0
 30
0.0
 11
0.0
 21
0.0
 31
0.0
  0
LINE
  5
C9
330
C5
100
AcDbEntity
  8
Titel (ISO)
 62
     7
370
    18
100
AcDbLine
 10
-190.0
 20
2.999999999999989
 30
0.0
 11
0.0
 21
2.999999999999989
 31
0.0
  0
LINE
  5
CA
330
C5
100
AcDbEntity
  8
Titel (ISO)
 62
     7
370
    18
100
AcDbLine
 10
-190.0
 20
5.999999999999978
 30
0.0
 11
0.0
 21
5.999999999999978
 31
0.0
  0
LINE
  5
CB
330
C5
100
AcDbEntity
  8
Titel (ISO)
 62
     7
370
    18
100
AcDbLine
 10
-190.0
 20
8.999999999999968
 30
0.0
 11
0.0
 21
8.999999999999968
 31
0.0
  0
LINE
  5
CC
330
C5
100
AcDbEntity
  8
Titel (ISO)
 62
     7
100
AcDbLine
 10
-190.0
 20
18.99999999999996
 30
0.0
 11
0.0
 21
18.99999999999996
 31
0.0
  0
LINE
  5
CD
330
C5
100
AcDbEntity
  8
Titel (ISO)
 62
     7
370
    18
100
AcDbLine
 10
-130.861111
 20
13.7701170573068
 30
0.0
 11
-130.861111
 21
0.0
 31
0.0
  0
LINE
  5
CE
330
C5
100
AcDbEntity
  8
Titel (ISO)
 62
     7
370
    18
100
AcDbLine
 10
-162.972222
 20
13.7701170573068
 30
0.0
 11
-162.972222
 21
0.0
 31
0.0
  0
LINE
  5
CF
330
C5
100
AcDbEntity
  8
Titel (ISO)
 62
     7
370
    18
100
AcDbLine
 10
-154.944444
 20
13.7701170573068
 30
0.0
 11
-154.944444
 21
0.0
 31
0.0
  0
LINE
  5
D0
330
C5
100
AcDbEntity
  8
Titel (ISO)
 62
     7
370
    18
100
AcDbLine
 10
-146.916667
 20
13.7701170573068
 30
0.0
 11
-146.916667
 21
0.0
 31
0.0
  0
LINE
  5
D1
330
C5
100
AcDbEntity
  8
Titel (ISO)
 62
     7
370
    18
100
AcDbLine
 10
-138.888889
 20
13.7701170573068
 30
0.0
 11
-138.888889
 21
0.0
 31
0.0
  0
LINE
  5
D2
330
C5
100
AcDbEntity
  8
Titel (ISO)
 62
     7
370
    18
100
AcDbLine
 10
-183.25
 20
9.070117057306816
 30
0.0
 11
-183.25
 21
0.0
 31
0.0
  0
LINE
  5
D3
330
C5
100
AcDbEntity
  8
Titel (ISO)
 62
     7
100
AcDbLine
 10
-190.0
 20
18.99999999999996
 30
0.0
 11
-190.0
 21
0.0
 31
0.0
  0
LINE
  5
D4
330
C5
100
AcDbEntity
  8
Titel (ISO)
 62
     7
100
AcDbLine
 10
-171.0
 20
18.99999999999996
 30
0.0
 11
-171.0
 21
0.0
 31
0.0
  0
LINE
  5
D5
330
C5
100
AcDbEntity
  8
Titel (ISO)
 62
     7
370
    18
100
AcDbLine
 10
-190.0
 20
11.99999999999997
 30
0.0
 11
-171.0
 21
11.99999999999995
 31
0.0
  0
LINE
  5
D6
330
C5
100
AcDbEntity
  8
Titel (ISO)
  6
ByBlock
 62
     7
370
    25
100
AcDbLine
 10
-105.0
 20
7.570117057306813
 30
0.0
 11
-103.5
 21
7.570117057306813
 31
0.0
  0
LINE
  5
D7
330
C5
100
AcDbEntity
  8
Titel (ISO)
  6
ByBlock
 62
     7
370
    25
100
AcDbLine
 10
-112.5
 20
7.570117057306813
 30
0.0
 11
-111.0
 21
7.570117057306813
 31
0.0
  0
LINE
  5
D8
330
C5
100
AcDbEntity
  8
Titel (ISO)
 62
     7
370
    18
100
AcDbLine
 10
-122.833333
 20
13.7701170573068
 30
0.0
 11
-122.833333
 21
0.0
 31
0.0
  0
LINE
  5
D9
330
C5
100
AcDbEntity
  8
Titel (ISO)
 62
     7
370
    18
100
AcDbLine
 10
-114.805556
 20
13.7701170573068
 30
0.0
 11
-114.805556
 21
0.0
 31
0.0
  0
LINE
  5
DA
330
C5
100
AcDbEntity
  8
Titel (ISO)
 62
     7
370
    18
100
AcDbLine
 10
-106.777778
 20
13.7701170573068
 30
0.0
 11
-106.777778
 21
0.0
 31
0.0
  0
LINE
  5
DB
330
C5
100
AcDbEntity
  8
Titel (ISO)
 62
     7
100
AcDbLine
 10
-99.25000000000004
 20
18.99999999999996
 30
0.0
 11
-99.25000000000004
 21
0.0
 31
0.0
  0
LINE
  5
DC
330
C5
100
AcDbEntity
  8
Titel (ISO)
 62
     7
370
    18
100
AcDbLine
 10
-95.75000000000002
 20
6.070117057306809
 30
0.0
 11
-95.75000000000002
 21
0.0
 31
0.0
  0
LINE
  5
DD
330
C5
100
AcDbEntity
  8
Titel (ISO)
 62
     7
370
    18
100
AcDbLine
 10
-50.75000000000002
 20
6.070117057306809
 30
0.0
 11
-50.75000000000002
 21
0.0
 31
0.0
  0
LINE
  5
DE
330
C5
100
AcDbEntity
  8
Titel (ISO)
 62
     7
370
    18
100
AcDbLine
 10
-60.25000000000002
 20
6.070117057306809
 30
0.0
 11
-60.25000000000002
 21
0.0
 31
0.0
  0
LINE
  5
DF
330
C5
100
AcDbEntity
  8
Titel (ISO)
 62
     7
370
    18
100
AcDbLine
 10
-69.75000000000001
 20
13.7701170573068
 30
0.0
 11
-69.75000000000001
 21
9.070117057306816
 31
0.0
  0
LINE
  5
E0
330
C5
100
AcDbEntity
  8
Titel (ISO)
 62
     7
370
    18
100
AcDbLine
 10
-60.25000000000002
 20
13.7701170573068
 30
0.0
 11
-60.25000000000002
 21
9.070117057306816
 31
0.0
  0
LINE
  5
E1
330
C5
100
AcDbEntity
  8
Titel (ISO)
 62
     7
370
    18
100
AcDbLine
 10
-50.75000000000002
 20
13.7701170573068
 30
0.0
 11
-50.75000000000002
 21
9.070117057306816
 31
0.0
  0
LINE
  5
E2
330
C5
100
AcDbEntity
  8
Titel (ISO)
 62
     7
370
    18
100
AcDbLine
 10
-30.93750000000003
 20
13.7701170573068
 30
0.0
 11
-30.93750000000003
 21
9.070117057306816
 31
0.0
  0
LINE
  5
E3
330
C5
100
AcDbEntity
  8
Titel (ISO)
 62
     7
370
    18
100
AcDbLine
 10
-20.88650000000005
 20
6.070117057306809
 30
0.0
 11
-20.88650000000005
 21
0.0
 31
0.0
  0
LINE
  5
E4
330
C5
100
AcDbEntity
  8
Titel (ISO)
 62
     7
370
    18
100
AcDbLine
 10
-20.88650000000005
 20
13.7701170573068
 30
0.0
 11
-20.88650000000005
 21
9.070117057306816
 31
0.0
  0
LINE
  5
E5
330
C5
100
AcDbEntity
  8
Titel (ISO)
 62
     7
370
    18
100
AcDbLine
 10
-10.31250000000003
 20
13.7701170573068
 30
0.0
 11
-10.31250000000003
 21
9.070117057306816
 31
0.0
  0
LINE
  5
E6
330
C5
100
AcDbEntity
  8
Titel (ISO)
 62
     7
370
    18
100
AcDbLine
 10
-10.31250000000003
 20
6.070117057306809
 30
0.0
 11
-10.31250000000003
 21
0.0
 31
0.0
  0
LINE
  5
E7
330
C5
100
AcDbEntity
  8
Titel (ISO)
 62
     7
370
    18
100
AcDbLine
 10
-30.93750000000003
 20
6.070117057306809
 30
0.0
 11
-30.93750000000003
 21
0.0
 31
0.0
  0
LINE
  5
E8
330
C5
100
AcDbEntity
  8
Titel (ISO)
 62
     7
100
AcDbLine
 10
0.0
 20
0.0
 30
0.0
 11
0.0
 21
18.99999999999996
 31
0.0
  0
LINE
  5
E9
330
C5
100
AcDbEntity
  8
Titel (ISO)
 62
     7
370
    18
100
AcDbLine
 10
-69.75000000000001
 20
6.070117057306809
 30
0.0
 11
-69.75000000000001
 21
0.0
 31
0.0
  0
LINE
  5
EA
330
C5
100
AcDbEntity
  8
Titel (ISO)
 62
     7
100
AcDbLine
 10
-79.25000000000003
 20
18.99999999999996
 30
0.0
 11
-79.25000000000003
 21
0.0
 31
0.0
  0
LINE
  5
EB
330
C5
100
AcDbEntity
  8
Titel (ISO)
370
    18
100
AcDbLine
 10
-40.98894210789946
 20
8.999999999999968
 30
0.0
 11
-40.98894210789946
 21
13.7701170573068
 31
0.0
  0
LINE
  5
EC
330
C5
100
AcDbEntity
  8
Titel (ISO)
370
    18
100
AcDbLine
 10
-40.81485039283569
 20
5.999999999999978
 30
0.0
 11
-40.81485039283569
 21
0.0
 31
0.0
  0
SPLINE
  5
ED
330
C5
100
AcDbEntity
  8
Titel (ISO)
 62
     7
370
    18
100
AcDbSpline
210
0.0
220
0.0
230
1.0
 70
     8
 71
     4
 72
    15
 73
    10
 74
     0
 42
0.0000000001
 43
0.0000000001
 40
0.0
 40
0.0
 40
0.0
 40
0.0
 40
0.0
 40
0.2448862522902173
 40
0.372542829838283
 40
0.537712414826782
 40
0.6892572885860062
 40
0.7957086571447725
 40
1.0
 40
1.0
 40
1.0
 40
1.0
 40
1.0
 10
-66.28694873925519
 20
7.64651126040853
 30
0.0
 10
-66.28992133139053
 20
7.684326472464615
 30
0.0
 10
-66.30278798934259
 20
7.801058419170612
 30
0.0
 10
-66.54106167347689
 20
7.859647761643628
 30
0.0
 10
-66.76118299621641
 20
7.833028120844396
 30
0.0
 10
-66.95021102053759
 20
7.740235927209404
 30
0.0
 10
-66.9202360191262
 20
7.49058708009608
 30
0.0
 10
-66.82199748484567
 20
7.453245599066988
 30
0.0
 10
-66.75742436020357
 20
7.442433905354555
 30
0.0
 10
-66.71777189204616
 20
7.426104053762667
 30
0.0
  0
LINE
  5
EE
330
C5
100
AcDbEntity
  8
0
100
AcDbLine
 10
-66.26659572485762
 20
7.671004611388436
 30
0.0
 11
-66.37244477211755
 21
7.81624801356239
 31
0.0
  0
ARC
  5
EF
330
C5
100
AcDbEntity
  8
0
100
AcDbCircle
 10
-66.45038101106777
 20
7.648258902765228
 30
0.0
 40
0.1619243095334992
100
AcDbArc
 50
12.14398738960057
 51
60.02290540986514
  0
LINE
  5
F0
330
C5
100
AcDbEntity
  8
0
100
AcDbLine
 10
-66.89670837859369
 20
7.487238148935002
 30
0.0
 11
-66.71468159031151
 21
7.422119968654339
 31
0.0
  0
ARC
  5
F1
330
C5
100
AcDbEntity
  8
0
100
AcDbCircle
 10
-66.6890673438411
 20
7.78069177527314
 30
0.0
 40
0.3462460077174544
100
AcDbArc
 50
237.7261995458496
 51
262.9055232599758
  0
SPLINE
  5
F2
330
C5
100
AcDbEntity
  8
Titel (ISO)
 62
     7
370
    18
100
AcDbSpline
210
0.0
220
0.0
230
1.0
 70
     8
 71
     4
 72
    12
 73
     7
 74
     0
 42
0.0000000001
 43
0.0000000001
 40
0.0
 40
0.0
 40
0.0
 40
0.0
 40
0.0
 40
0.3933269697832906
 40
0.5579414211012799
 40
1.0
 40
1.0
 40
1.0
 40
1.0
 40
1.0
 10
-66.7177718920461
 20
7.426104053762667
 30
0.0
 10
-66.94102867992272
 20
7.36506224211622
 30
0.0
 10
-66.95038095686311
 20
7.40547820884279
 30
0.0
 10
-67.03925767066545
 20
6.865044071034649
 30
0.0
 10
-66.44367713306704
 20
6.956885902430158
 30
0.0
 10
-66.3418945025619
 20
7.013553608348583
 30
0.0
 10
-66.25537378160072
 20
7.154138853519782
 30
0.0
  0
SPLINE
  5
F3
330
C5
100
AcDbEntity
  8
Titel (ISO)
 62
     7
370
    18
100
AcDbSpline
210
0.0
220
0.0
230
1.0
 70
     8
 71
     4
 72
    12
 73
     7
 74
     0
 42
0.0000000001
 43
0.0000000001
 40
0.0
 40
0.0
 40
0.0
 40
0.0
 40
0.0
 40
0.3872212693569691
 40
0.5575199507602742
 40
1.0
 40
1.0
 40
1.0
 40
1.0
 40
1.0
 10
-23.59108108251476
 20
7.528905781183539
 30
0.0
 10
-23.70063657153558
 20
7.500278841709757
 30
0.0
 10
-23.87007003961081
 20
7.495055014400904
 30
0.0
 10
-23.87709660835664
 20
6.981211874419681
 30
0.0
 10
-23.33833653350904
 20
7.052090909862052
 30
0.0
 10
-23.20493964281642
 20
7.119913147019296
 30
0.0
 10
-23.12868297206911
 20
7.256940580940742
 30
0.0
  0
SPLINE
  5
F4
330
C5
100
AcDbEntity
  8
Titel (ISO)
 62
     7
370
    18
100
AcDbSpline
210
0.0
220
0.0
230
1.0
 70
     8
 71
     4
 72
    15
 73
    10
 74
     0
 42
0.0000000001
 43
0.0000000001
 40
0.0
 40
0.0
 40
0.0
 40
0.0
 40
0.0
 40
0.2448862522902173
 40
0.372542829838283
 40
0.537712414826782
 40
0.6892572885860062
 40
0.7957086571447725
 40
1.0
 40
1.0
 40
1.0
 40
1.0
 40
1.0
 10
-23.16025792972365
 20
7.74931298782949
 30
0.0
 10
-23.16323052185901
 20
7.787128199885575
 30
0.0
 10
-23.17609717981107
 20
7.903860146591572
 30
0.0
 10
-23.41437086394535
 20
7.962449489064589
 30
0.0
 10
-23.63449218668485
 20
7.935829848265356
 30
0.0
 10
-23.82352021100605
 20
7.843037654630364
 30
0.0
 10
-23.79354520959467
 20
7.59338880751704
 30
0.0
 10
-23.69530667531414
 20
7.556047326487949
 30
0.0
 10
-23.630733550672
 20
7.545235632775515
 30
0.0
 10
-23.59108108251462
 20
7.528905781183627
 30
0.0
  0
LINE
  5
F5
330
C5
100
AcDbEntity
  8
Skizziergeometrie (ISO)
100
AcDbLine
 10
-23.13990491532607
 20
7.773806338809468
 30
0.0
 11
-23.24575396258602
 21
7.91904974098335
 31
0.0
  0
LINE
  5
F6
330
C5
100
AcDbEntity
  8
Skizziergeometrie (ISO)
100
AcDbLine
 10
-23.77001756906214
 20
7.590039876355962
 30
0.0
 11
-23.5879907807799
 21
7.524921696075281
 31
0.0
  0
ARC
  5
F7
330
C5
100
AcDbEntity
  8
Skizziergeometrie (ISO)
100
AcDbCircle
 10
-23.32369020153624
 20
7.75106063018617
 30
0.0
 40
0.1619243095335294
100
AcDbArc
 50
12.14398738962304
 51
60.02290540987669
  0
ARC
  5
F8
330
C5
100
AcDbEntity
  8
Skizziergeometrie (ISO)
100
AcDbCircle
 10
-23.56237653430956
 20
7.883493502694083
 30
0.0
 40
0.3462460077174411
100
AcDbArc
 50
237.7261995458445
 51
262.9055232599874
  0
TEXT
  5
F9
330
C5
100
AcDbEntity
  8
Titel (ISO)
 62
     7
100
AcDbText
 10
-67.77000000000001
 20
10.07011705730681
 30
0.0
 40
1.500000059604644
  1
...50
  7
TolListe_12
100
AcDbText
  0
TEXT
  5
FB
330
C5
100
AcDbEntity
  8
Titel (ISO)
 62
     7
100
AcDbText
 10
-67.77000000000001
 20
12.47011705730679
 30
0.0
 40
1.500000059604644
  1
>  10
  7
TolListe_12
100
AcDbText
  0
TEXT
  5
FC
330
C5
100
AcDbEntity
  8
Titel (ISO)
 62
     7
100
AcDbText
 10
-77.52000000000001
 20
6.970117057306808
 30
0.0
 40
1.500000059604644
  1
Abmasse ±   Grad und Minuten)
  7
TolListe_12
100
AcDbText
  0
TEXT
  5
FD
330
C5
100
AcDbEntity
  8
Titel (ISO)
 62
     7
100
AcDbText
 10
-77.27000000000001
 20
10.07011705730681
 30
0.0
 40
1.500000059604644
  1
...10
  7
TolListe_12
100
AcDbText
  0
TEXT
  5
FF
330
C5
100
AcDbEntity
  8
Titel (ISO)
 62
     7
100
AcDbText
 10
-77.52000000000001
 20
0.9701170573068029
 30
0.0
 40
1.500000059604644
  1
` 1~30
  7
TolListe_12-AIGDT
100
AcDbText
  0
TEXT
  5
101
330
C5
100
AcDbEntity
  8
Titel (ISO)
 62
     7
100
AcDbText
 10
-77.52000000000001
 20
3.970117057306801
 30
0.0
 40
1.500000059604644
  1
` 1~
  7
TolListe_12-AIGDT
100
AcDbText
  0
TEXT
  5
102
330
C5
100
AcDbEntity
  8
Titel (ISO)
 62
     7
100
AcDbText
 10
-97.77000000000001
 20
11.97011705730681
 30
0.0
 40
1.500000059604644
  1
für Winkelmasse
  7
TolListe_12
100
AcDbText
  0
TEXT
  5
103
330
C5
100
AcDbEntity
  8
Titel (ISO)
 62
     7
100
AcDbText
 10
-97.97000000000004
 20
6.970117057306808
 30
0.0
 40
1.500000059604644
  1
Genauigkeitsgrad
  7
TolListe_12
100
AcDbText
  0
TEXT
  5
104
330
C5
100
AcDbEntity
  8
Titel (ISO)
 62
     7
100
AcDbText
 10
-94.49929825881072
 20
0.9701170573068029
 30
0.0
 40
1.500000059604644
  1
c(grob)
  7
TolListe_12
100
AcDbText
  0
TEXT
  5
105
330
C5
100
AcDbEntity
  8
Titel (ISO)
 62
     7
100
AcDbText
 10
-69.51999999999999
 20
15.97011705730679
 30
0.0
 40
1.500000059604644
  1
Nennmass in mm = Länge des kürzeren Winkelschenkels
  7
TolListe_12
100
AcDbText
  0
TEXT
  5
106
330
C5
100
AcDbEntity
  8
Titel (ISO)
 62
     7
100
AcDbText
 10
-8.332499999999996
 20
10.07011705730681
 30
0.0
 40
1.500000059604644
  1
..400
  7
TolListe_12
100
AcDbText
  0
TEXT
  5
107
330
C5
100
AcDbEntity
  8
Titel (ISO)
 62
     7
100
AcDbText
 10
-8.332499999999996
 20
12.47011705730679
 30
0.0
 40
1.500000059604644
  1
> 120
  7
TolListe_12
100
AcDbText
  0
TEXT
  5
108
330
C5
100
AcDbEntity
  8
Titel (ISO)
 62
     7
100
AcDbText
 10
-18.64499999999999
 20
10.07011705730681
 30
0.0
 40
1.500000059604644
  1
..120
  7
TolListe_12
100
AcDbText
  0
TEXT
  5
109
330
C5
100
AcDbEntity
  8
Titel (ISO)
 62
     7
100
AcDbText
 10
-18.64499999999999
 20
12.47011705730679
 30
0.0
 40
1.500000059604644
  1
>  50
  7
TolListe_12
100
AcDbText
  0
TEXT
  5
10A
330
C5
100
AcDbEntity
  8
Titel (ISO)
 62
     7
100
AcDbText
 10
-28.95749999999999
 20
10.07011705730681
 30
0.0
 40
1.500000059604644
  1
...50
  7
TolListe_12
100
AcDbText
  0
TEXT
  5
10B
330
C5
100
AcDbEntity
  8
Titel (ISO)
 62
     7
100
AcDbText
 10
-28.95749999999999
 20
12.47011705730679
 30
0.0
 40
1.500000059604644
  1
>  10
  7
TolListe_12
100
AcDbText
  0
TEXT
  5
10C
330
C5
100
AcDbEntity
  8
Titel (ISO)
 62
     7
100
AcDbText
 10
-39.26999999999999
 20
10.07011705730681
 30
0.0
 40
1.500000059604644
  1
...10
  7
TolListe_12
100
AcDbText
  0
TEXT
  5
10D
330
C5
100
AcDbEntity
  8
Titel (ISO)
 62
     7
100
AcDbText
 10
-17.895
 20
3.970117057306801
 30
0.0
 40
1.500000059604644
  1
` 0,6
  7
TolListe_12-AIGDT
100
AcDbText
  0
TEXT
  5
10E
330
C5
100
AcDbEntity
  8
Titel (ISO)
 62
     7
100
AcDbText
 10
-34.52000000000002
 20
6.970117057306808
 30
0.0
 40
1.500000059604644
  1
Abmasse ±     (mm/100mm)
  7
TolListe_12
100
AcDbText
  0
TEXT
  5
10F
330
C5
100
AcDbEntity
  8
Titel (ISO)
 62
     7
100
AcDbText
 10
-17.895
 20
0.9701170573068029
 30
0.0
 40
1.500000059604644
  1
` 0,9
  7
TolListe_12-AIGDT
100
AcDbText
  0
TEXT
  5
110
330
C5
100
AcDbEntity
  8
Titel (ISO)
 62
     7
100
AcDbText
 10
-68.01999999999999
 20
0.9701170573068029
 30
0.0
 40
1.500000059604644
  1
` 1~
  7
TolListe_12-AIGDT
100
AcDbText
  0
TEXT
  5
111
330
C5
100
AcDbEntity
  8
Titel (ISO)
 62
     7
100
AcDbText
 10
-68.01999999999999
 20
3.970117057306801
 30
0.0
 40
1.500000059604644
  1
` 30
  7
TolListe_12-AIGDT
100
AcDbText
  0
TEXT
  5
112
330
C5
100
AcDbEntity
  8
Titel (ISO)
 62
     7
100
AcDbText
 10
-58.52
 20
3.970117057306801
 30
0.0
 40
1.500000059604644
  1
` 20
  7
TolListe_12-AIGDT
100
AcDbText
  0
TEXT
  5
113
330
C5
100
AcDbEntity
  8
Titel (ISO)
 62
     7
100
AcDbText
 10
-48.77000000000001
 20
10.07011705730681
 30
0.0
 40
1.500000059604644
  1
..400
  7
TolListe_12
100
AcDbText
  0
TEXT
  5
114
330
C5
100
AcDbEntity
  8
Titel (ISO)
 62
     7
100
AcDbText
 10
-48.77000000000001
 20
12.47011705730679
 30
0.0
 40
1.500000059604644
  1
> 120
  7
TolListe_12
100
AcDbText
  0
TEXT
  5
115
330
C5
100
AcDbEntity
  8
Titel (ISO)
 62
     7
100
AcDbText
 10
-48.01999999999999
 20
0.9701170573068029
 30
0.0
 40
1.500000059604644
  1
` 15
  7
TolListe_12-AIGDT
100
AcDbText
  0
TEXT
  5
116
330
C5
100
AcDbEntity
  8
Titel (ISO)
 62
     7
100
AcDbText
 10
-58.52
 20
0.9701170573068029
 30
0.0
 40
1.500000059604644
  1
` 30
  7
TolListe_12-AIGDT
100
AcDbText
  0
TEXT
  5
117
330
C5
100
AcDbEntity
  8
Titel (ISO)
 62
     7
100
AcDbText
 10
-48.01999999999999
 20
3.970117057306801
 30
0.0
 40
1.500000059604644
  1
` 10
  7
TolListe_12-AIGDT
100
AcDbText
  0
TEXT
  5
118
330
C5
100
AcDbEntity
  8
Titel (ISO)
 62
     7
100
AcDbText
 10
-139.52
 20
15.97011705730679
 30
0.0
 40
1.500000059604644
  1
Nennmass mm
  7
TolListe_12
100
AcDbText
  0
TEXT
  5
119
330
C5
100
AcDbEntity
  8
Titel (ISO)
 62
     7
100
AcDbText
 10
-38.52
 20
0.9701170573068029
 30
0.0
 40
1.500000059604644
  1
` 2,5
  7
TolListe_12-AIGDT
100
AcDbText
  0
TEXT
  5
11A
330
C5
100
AcDbEntity
  8
Titel (ISO)
 62
     7
100
AcDbText
 10
-28.2075
 20
0.9701170573068029
 30
0.0
 40
1.500000059604644
  1
` 1,7
  7
TolListe_12-AIGDT
100
AcDbText
  0
TEXT
  5
11B
330
C5
100
AcDbEntity
  8
Titel (ISO)
 62
     7
100
AcDbText
 10
-7.582500000000003
 20
3.970117057306801
 30
0.0
 40
1.500000059604644
  1
` 0,3
  7
TolListe_12-AIGDT
100
AcDbText
  0
TEXT
  5
11C
330
C5
100
AcDbEntity
  8
Titel (ISO)
 62
     7
100
AcDbText
 10
-7.582500000000003
 20
0.9701170573068029
 30
0.0
 40
1.500000059604644
  1
` 0,4
  7
TolListe_12-AIGDT
100
AcDbText
  0
TEXT
  5
11D
330
C5
100
AcDbEntity
  8
Titel (ISO)
 62
     7
100
AcDbText
 10
-58.26999999999999
 20
10.07011705730681
 30
0.0
 40
1.500000059604644
  1
..120
  7
TolListe_12
100
AcDbText
  0
TEXT
  5
11E
330
C5
100
AcDbEntity
  8
Titel (ISO)
 62
     7
100
AcDbText
 10
-58.26999999999999
 20
12.47011705730679
 30
0.0
 40
1.500000059604644
  1
>  50
  7
TolListe_12
100
AcDbText
  0
TEXT
  5
11F
330
C5
100
AcDbEntity
  8
Titel (ISO)
 62
     7
100
AcDbText
 10
-38.52
 20
3.970117057306801
 30
0.0
 40
1.500000059604644
  1
` 1,7
  7
TolListe_12-AIGDT
100
AcDbText
  0
TEXT
  5
120
330
C5
100
AcDbEntity
  8
Titel (ISO)
 62
     7
100
AcDbText
 10
-28.2075
 20
3.970117057306801
 30
0.0
 40
1.500000059604644
  1
` 0,9
  7
TolListe_12-AIGDT
100
AcDbText
  0
TEXT
  5
121
330
C5
100
AcDbEntity
  8
Titel (ISO)
 62
     7
100
AcDbText
 10
-137.908889
 20
6.970117057306808
 30
0.0
 40
1.500000059604644
  1
` 0,2
  7
TolListe_12-AIGDT
100
AcDbText
  0
TEXT
  5
122
330
C5
100
AcDbEntity
  8
Titel (ISO)
 62
     7
100
AcDbText
 10
-137.908889
 20
10.07011705730681
 30
0.0
 40
1.500000059604644
  1
..400
  7
TolListe_12
100
AcDbText
  0
TEXT
  5
123
330
C5
100
AcDbEntity
  8
Titel (ISO)
 62
     7
100
AcDbText
 10
-137.908889
 20
0.9701170573068029
 30
0.0
 40
1.500000059604644
  1
` 1,2
  7
TolListe_12-AIGDT
100
AcDbText
  0
TEXT
  5
124
330
C5
100
AcDbEntity
  8
Titel (ISO)
 62
     7
100
AcDbText
 10
-137.908889
 20
3.970117057306801
 30
0.0
 40
1.500000059604644
  1
` 0,5
  7
TolListe_12-AIGDT
100
AcDbText
  0
TEXT
  5
125
330
C5
100
AcDbEntity
  8
Titel (ISO)
 62
     7
100
AcDbText
 10
-145.936667
 20
0.9701170573068029
 30
0.0
 40
1.500000059604644
  1
` 0,8
  7
TolListe_12-AIGDT
100
AcDbText
  0
TEXT
  5
126
330
C5
100
AcDbEntity
  8
Titel (ISO)
 62
     7
100
AcDbText
 10
-153.964444
 20
0.9701170573068029
 30
0.0
 40
1.500000059604644
  1
` 0,5
  7
TolListe_12-AIGDT
100
AcDbText
  0
TEXT
  5
127
330
C5
100
AcDbEntity
  8
Titel (ISO)
 62
     7
100
AcDbText
 10
-145.936667
 20
6.970117057306808
 30
0.0
 40
1.500000059604644
  1
` 0,15
  7
TolListe_12-AIGDT
100
AcDbText
  0
TEXT
  5
128
330
C5
100
AcDbEntity
  8
Titel (ISO)
 62
     7
100
AcDbText
 10
-145.936667
 20
3.970117057306801
 30
0.0
 40
1.500000059604644
  1
` 0,3
  7
TolListe_12-AIGDT
100
AcDbText
  0
TEXT
  5
129
330
C5
100
AcDbEntity
  8
Titel (ISO)
 62
     7
100
AcDbText
 10
-153.964444
 20
3.970117057306801
 30
0.0
 40
1.500000059604644
  1
` 0,2
  7
TolListe_12-AIGDT
100
AcDbText
  0
TEXT
  5
12A
330
C5
100
AcDbEntity
  8
Titel (ISO)
 62
     7
100
AcDbText
 10
-153.964444
 20
12.47011705730679
 30
0.0
 40
1.500000059604644
  1
>  6
  7
TolListe_12
100
AcDbText
  0
TEXT
  5
12B
330
C5
100
AcDbEntity
  8
Titel (ISO)
 62
     7
100
AcDbText
 10
-153.964444
 20
10.07011705730681
 30
0.0
 40
1.500000059604644
  1
..30
  7
TolListe_12
100
AcDbText
  0
TEXT
  5
12C
330
C5
100
AcDbEntity
  8
Titel (ISO)
 62
     7
100
AcDbText
 10
-161.992222
 20
3.970117057306801
 30
0.0
 40
1.500000059604644
  1
` 0,1
  7
TolListe_12-AIGDT
100
AcDbText
  0
TEXT
  5
12D
330
C5
100
AcDbEntity
  8
Titel (ISO)
 62
     7
100
AcDbText
 10
-161.992222
 20
6.970117057306808
 30
0.0
 40
1.500000059604644
  1
` 0,05
  7
TolListe_12-AIGDT
100
AcDbText
  0
TEXT
  5
12E
330
C5
100
AcDbEntity
  8
Titel (ISO)
 62
     7
100
AcDbText
 10
-161.992222
 20
10.07011705730681
 30
0.0
 40
1.500000059604644
  1
...6
  7
TolListe_12
100
AcDbText
  0
TEXT
  5
12F
330
C5
100
AcDbEntity
  8
Titel (ISO)
 62
     7
100
AcDbText
 10
-161.992222
 20
12.47011705730679
 30
0.0
 40
1.500000059604644
  1
>  3
  7
TolListe_12
100
AcDbText
  0
TEXT
  5
130
330
C5
100
AcDbEntity
  8
Titel (ISO)
 62
     7
100
AcDbText
 10
-153.964444
 20
6.970117057306808
 30
0.0
 40
1.500000059604644
  1
` 0,1
  7
TolListe_12-AIGDT
100
AcDbText
  0
TEXT
  5
131
330
C5
100
AcDbEntity
  8
Titel (ISO)
 62
     7
100
AcDbText
 10
-161.992222
 20
0.9701170573068029
 30
0.0
 40
1.500000059604644
  1
` 0,3
  7
TolListe_12-AIGDT
100
AcDbText
  0
TEXT
  5
132
330
C5
100
AcDbEntity
  8
Titel (ISO)
 62
     7
100
AcDbText
 10
-170.02
 20
3.970117057306801
 30
0.0
 40
1.500000059604644
  1
` 0,1
  7
TolListe_12-AIGDT
100
AcDbText
  0
TEXT
  5
133
330
C5
100
AcDbEntity
  8
Titel (ISO)
 62
     7
100
AcDbText
 10
-170.02
 20
0.9701170573068029
 30
0.0
 40
1.500000059604644
  1
` 0,2
  7
TolListe_12-AIGDT
100
AcDbText
  0
TEXT
  5
134
330
C5
100
AcDbEntity
  8
Titel (ISO)
 62
     7
100
AcDbText
 10
-170.02
 20
6.970117057306808
 30
0.0
 40
1.500000059604644
  1
` 0,05
  7
TolListe_12-AIGDT
100
AcDbText
  0
TEXT
  5
135
330
C5
100
AcDbEntity
  8
Titel (ISO)
 62
     7
100
AcDbText
 10
-170.02
 20
12.47011705730679
 30
0.0
 40
1.500000059604644
  1
>  0,5
  7
TolListe_12
100
AcDbText
  0
TEXT
  5
136
330
C5
100
AcDbEntity
  8
Titel (ISO)
 62
     7
100
AcDbText
 10
-145.936667
 20
10.07011705730681
 30
0.0
 40
1.500000059604644
  1
..120
  7
TolListe_12
100
AcDbText
  0
TEXT
  5
137
330
C5
100
AcDbEntity
  8
Titel (ISO)
 62
     7
100
AcDbText
 10
-145.936667
 20
12.47011705730679
 30
0.0
 40
1.500000059604644
  1
>  30
  7
TolListe_12
100
AcDbText
  0
TEXT
  5
138
330
C5
100
AcDbEntity
  8
Titel (ISO)
 62
     7
100
AcDbText
 10
-137.908889
 20
12.47011705730679
 30
0.0
 40
1.500000059604644
  1
> 120
  7
TolListe_12
100
AcDbText
  0
TEXT
  5
139
330
C5
100
AcDbEntity
  8
Titel (ISO)
 62
     7
100
AcDbText
 10
-88.26999999999999
 20
3.970117057306801
 30
0.0
 40
1.500000059604644
  1
m(mittel)
  7
TolListe_12
100
AcDbText
  0
TEXT
  5
13A
330
C5
100
AcDbEntity
  8
Titel (ISO)
 62
     7
100
AcDbText
 10
-189.02
 20
12.89999999999995
 30
0.0
 40
1.500000059604644
  1
für Längenmasse
  7
TolListe_12
100
AcDbText
  0
TEXT
  5
13B
330
C5
100
AcDbEntity
  8
Titel (ISO)
 62
     7
100
AcDbText
 10
-189.02
 20
9.899999999999966
 30
0.0
 40
1.500000059604644
  1
Genauigkeitsgrad
  7
TolListe_12
100
AcDbText
  0
TEXT
  5
13C
330
C5
100
AcDbEntity
  8
Titel (ISO)
 62
     7
100
AcDbText
 10
-170.02
 20
10.07011705730681
 30
0.0
 40
1.500000059604644
  1
...3
  7
TolListe_12
100
AcDbText
  0
TEXT
  5
13D
330
C5
100
AcDbEntity
  8
Titel (ISO)
 62
     7
100
AcDbText
 10
-182.02
 20
3.899999999999987
 30
0.0
 40
1.500000059604644
  1
m (mittel)
  7
TolListe_12
100
AcDbText
  0
TEXT
  5
13E
330
C5
100
AcDbEntity
  8
Titel (ISO)
 62
     7
100
AcDbText
 10
-182.02
 20
6.899999999999977
 30
0.0
 40
1.500000059604644
  1
f (fein)
  7
TolListe_12
100
AcDbText
  0
TEXT
  5
13F
330
C5
100
AcDbEntity
  8
Titel (ISO)
 62
     7
100
AcDbText
 10
-182.02
 20
0.8999999999999985
 30
0.0
 40
1.500000059604644
  1
c (grob)
  7
TolListe_12
100
AcDbText
  0
TEXT
  5
140
330
C5
100
AcDbEntity
  8
Titel (ISO)
 62
     7
100
AcDbText
 10
-189.02
 20
14.8701170573068
 30
0.0
 40
1.500000059604644
  1
toleranzen
  7
TolListe_12
100
AcDbText
  0
TEXT
  5
141
330
C5
100
AcDbEntity
  8
Titel (ISO)
 62
     7
100
AcDbText
 10
-189.02
 20
16.77011705730679
 30
0.0
 40
1.500000059604644
  1
Allgemein-
  7
TolListe_12
100
AcDbText
  0
TEXT
  5
142
330
C5
100
AcDbEntity
  8
Titel (ISO)
 62
     7
100
AcDbText
 10
-105.797778
 20
10.07011705730681
 30
0.0
 40
1.500000059604644
  1
..8000
  7
TolListe_12
100
AcDbText
  0
TEXT
  5
143
330
C5
100
AcDbEntity
  8
Titel (ISO)
 62
     7
100
AcDbText
 10
-105.797778
 20
12.47011705730679
 30
0.0
 40
1.500000059604644
  1
> 4000
  7
TolListe_12
100
AcDbText
  0
TEXT
  5
144
330
C5
100
AcDbEntity
  8
Titel (ISO)
 62
     7
100
AcDbText
 10
-105.797778
 20
3.970117057306801
 30
0.0
 40
1.500000059604644
  1
` 3
  7
TolListe_12-AIGDT
100
AcDbText
  0
TEXT
  5
145
330
C5
100
AcDbEntity
  8
Titel (ISO)
 62
     7
100
AcDbText
 10
-105.797778
 20
0.9701170573068029
 30
0.0
 40
1.500000059604644
  1
` 5
  7
TolListe_12-AIGDT
100
AcDbText
  0
TEXT
  5
146
330
C5
100
AcDbEntity
  8
Titel (ISO)
 62
     7
100
AcDbText
 10
-97.77000000000001
 20
14.37011705730681
 30
0.0
 40
1.500000059604644
  1
toleranzen
  7
TolListe_12
100
AcDbText
  0
TEXT
  5
147
330
C5
100
AcDbEntity
  8
Titel (ISO)
 62
     7
100
AcDbText
 10
-97.77000000000001
 20
16.77011705730679
 30
0.0
 40
1.500000059604644
  1
Allgemein-
  7
TolListe_12
100
AcDbText
  0
TEXT
  5
148
330
C5
100
AcDbEntity
  8
Titel (ISO)
 62
     7
100
AcDbText
 10
-121.853333
 20
3.970117057306801
 30
0.0
 40
1.500000059604644
  1
` 1,2
  7
TolListe_12-AIGDT
100
AcDbText
  0
TEXT
  5
149
330
C5
100
AcDbEntity
  8
Titel (ISO)
 62
     7
100
AcDbText
 10
-121.853333
 20
0.9701170573068029
 30
0.0
 40
1.500000059604644
  1
` 3
  7
TolListe_12-AIGDT
100
AcDbText
  0
TEXT
  5
14A
330
C5
100
AcDbEntity
  8
Titel (ISO)
 62
     7
100
AcDbText
 10
-113.825556
 20
10.07011705730681
 30
0.0
 40
1.500000059604644
  1
..4000
  7
TolListe_12
100
AcDbText
  0
TEXT
  5
14B
330
C5
100
AcDbEntity
  8
Titel (ISO)
 62
     7
100
AcDbText
 10
-113.825556
 20
12.47011705730679
 30
0.0
 40
1.500000059604644
  1
> 2000
  7
TolListe_12
100
AcDbText
  0
TEXT
  5
14C
330
C5
100
AcDbEntity
  8
Titel (ISO)
 62
     7
100
AcDbText
 10
-121.853333
 20
10.07011705730681
 30
0.0
 40
1.500000059604644
  1
..2000
  7
TolListe_12
100
AcDbText
  0
TEXT
  5
14D
330
C5
100
AcDbEntity
  8
Titel (ISO)
 62
     7
100
AcDbText
 10
-121.853333
 20
12.47011705730679
 30
0.0
 40
1.500000059604644
  1
> 1000
  7
TolListe_12
100
AcDbText
  0
TEXT
  5
14E
330
C5
100
AcDbEntity
  8
Titel (ISO)
 62
     7
100
AcDbText
 10
-121.853333
 20
6.970117057306808
 30
0.0
 40
1.500000059604644
  1
` 0,5
  7
TolListe_12-AIGDT
100
AcDbText
  0
TEXT
  5
14F
330
C5
100
AcDbEntity
  8
Titel (ISO)
 62
     7
100
AcDbText
 10
-113.825556
 20
3.970117057306801
 30
0.0
 40
1.500000059604644
  1
` 2
  7
TolListe_12-AIGDT
100
AcDbText
  0
TEXT
  5
150
330
C5
100
AcDbEntity
  8
Titel (ISO)
 62
     7
100
AcDbText
 10
-113.825556
 20
0.9701170573068029
 30
0.0
 40
1.500000059604644
  1
` 4
  7
TolListe_12-AIGDT
100
AcDbText
  0
TEXT
  5
151
330
C5
100
AcDbEntity
  8
Titel (ISO)
 62
     7
100
AcDbText
 10
-129.881111
 20
6.970117057306808
 30
0.0
 40
1.500000059604644
  1
` 0,3
  7
TolListe_12-AIGDT
100
AcDbText
  0
TEXT
  5
152
330
C5
100
AcDbEntity
  8
Titel (ISO)
 62
     7
100
AcDbText
 10
-129.881111
 20
10.07011705730681
 30
0.0
 40
1.500000059604644
  1
..1000
  7
TolListe_12
100
AcDbText
  0
TEXT
  5
153
330
C5
100
AcDbEntity
  8
Titel (ISO)
 62
     7
100
AcDbText
 10
-129.881111
 20
12.47011705730679
 30
0.0
 40
1.500000059604644
  1
>  400
  7
TolListe_12
100
AcDbText
  0
TEXT
  5
154
330
C5
100
AcDbEntity
  8
Titel (ISO)
 62
     7
100
AcDbText
 10
-129.881111
 20
0.9701170573068029
 30
0.0
 40
1.500000059604644
  1
` 2
  7
TolListe_12-AIGDT
100
AcDbText
  0
TEXT
  5
155
330
C5
100
AcDbEntity
  8
Titel (ISO)
 62
     7
100
AcDbText
 10
-129.881111
 20
3.970117057306801
 30
0.0
 40
1.500000059604644
  1
` 0,8
  7
TolListe_12-AIGDT
100
AcDbText
  0
TEXT
  5
156
330
C5
100
AcDbEntity
  8
Titel (ISO)
 62
     7
100
AcDbText
 10
-94.3154314551193
 20
3.970117057306801
 30
0.0
 40
1.500000059604644
  1
f(fein)
 41
0.8000000119209289
  7
TolListe_12
100
AcDbText
  0
TEXT
  5
158
330
C5
100
AcDbEntity
  8
Titel (ISO)
 62
     7
100
AcDbText
 10
-189.02
 20
6.399999985098823
 30
0.0
 40
2.000000029802322
  1
 
 41
1.100000023841857
  7
TolListe_12-Arial
 11
-189.02
 21
7.399999999999984
 31
0.0
100
AcDbText
 73
     2
  0
TEXT
  5
15A
330
C5
100
AcDbEntity
  8
Titel (ISO)
 62
     7
100
AcDbText
 10
-189.02
 20
3.399999985098824
 30
0.0
 40
2.000000029802322
  1
 
 41
1.100000023841857
  7
TolListe_12-Arial
 11
-189.02
 21
4.399999999999986
 31
0.0
100
AcDbText
 73
     2
  0
TEXT
  5
15B
330
C5
100
AcDbEntity
  8
Titel (ISO)
 62
     7
100
AcDbText
 10
-189.02
 20
0.3999999850988356
 30
0.0
 40
2.000000029802322
  1
 
 41
1.100000023841857
  7
TolListe_12-Arial
 11
-189.02
 21
1.399999999999996
 31
0.0
100
AcDbText
 73
     2
  0
ATTDEF
  5
15C
330
C5
100
AcDbEntity
  8
Titel (ISO)
 62
     7
100
AcDbText
 10
-98.35000000000002
 20
3.499999985098831
 30
0.0
 40
2.000000029802322
  1
 
 41
0.899999976158142
  7
TolListe_12-Arial
 11
-98.35000000000002
 21
4.499999999999992
 31
0.0
100
AcDbAttributeDefinition
  3
TolWinkel_Fein
  2
TolWinkel_Fein
 70
     0
 74
     2
  0
ATTDEF
  5
15D
330
C5
100
AcDbEntity
  8
Titel (ISO)
 62
     7
100
AcDbText
 10
-98.35000000000002
 20
0.4999999850988424
 30
0.0
 40
2.000000029802322
  1
 
 41
1.100000023841857
  7
TolListe_12-Arial
 11
-98.35000000000002
 21
1.500000000000003
 31
0.0
100
AcDbAttributeDefinition
  3
TolWinkel_Grob
  2
TolWinkel_Grob
 70
     0
 74
     2
  0
TEXT
  5
15E
330
C5
100
AcDbEntity
  8
Titel (ISO)
 62
     7
100
AcDbText
 10
-23.10385197106264
 20
6.481150342666044
 30
0.0
 40
1.199999973177909
  1
R
 41
0.899999976158142
  7
TolListe_12
100
AcDbText
  0
ENDBLK
  5
C7
330
C5
100
AcDbEntity
  8
0
100
AcDbBlockEnd
  0
BLOCK
  5
160
330
15F
100
AcDbEntity
  8
0
100
AcDbBlockBegin
  2
ProtoTyp
 70
     0
 10
0.0
 20
0.0
 30
0.0
  3
ProtoTyp
  1

  0
MTEXT
  5
162
330
15F
100
AcDbEntity
  8
Symbol (ISO)
100
AcDbMText
 10
-15.0
 20
3.333333333333428
 30
0.0
 40
5.0
 41
113.3539674448862
 71
     9
 72
     5
  1
\fArial|b1|i0;\W1.20;\H5.0000;Prototyp 
  7
Notiztext (DIN)
 73
     1
 44
1.0
  0
ENDBLK
  5
161
330
15F
100
AcDbEntity
  8
0
100
AcDbBlockEnd
  0
BLOCK
  5
165
330
164
100
AcDbEntity
  8
0
100
AcDbBlockBegin
  2
Logo
 70
     0
 10
0.0
 20
0.0
 30
0.0
  3
Logo
  1

  0
LINE
  5
167
102
{ACAD_REACTORS
330
172
102
}
330
164
100
AcDbEntity
  8
0
100
AcDbLine
 10
-63.82219267516564
 20
13.78707153306683
 30
0.0
 11
-63.44194367516561
 21
13.78707153306683
 31
0.0
  0
SPLINE
  5
168
102
{ACAD_REACTORS
330
172
102
}
330
164
100
AcDbEntity
  8
0
100
AcDbSpline
210
0.0
220
0.0
230
1.0
 70
     8
 71
     3
 72
    13
 73
     9
 74
     0
 42
0.0000000001
 43
0.0000000001
 40
-0.2488465402991201
 40
-0.2488465402991201
 40
-0.2488465402991201
 40
-0.2488465402991201
 40
-0.213514800971061
 40
-0.1813686001396738
 40
-0.151852207945606
 40
-0.122610058815004
 40
-0.0548379298616244
 40
0.0
 40
0.0
 40
0.0
 40
0.0
 10
-63.44194367516561
 20
13.78707153306683
 30
0.0
 10
-63.32417121073874
 20
13.78707153306683
 30
0.0
 10
-63.08419178569152
 20
13.80580234228952
 30
0.0
 10
-62.85168098131063
 20
14.06077992123113
 30
0.0
 10
-62.75106357115923
 20
14.3528991457025
 30
0.0
 10
-62.73688326920373
 20
14.7669903791009
 30
0.0
 10
-62.81190429146026
 20
15.35988989299784
 30
0.0
 10
-63.28410391460164
 20
15.46016853306682
 30
0.0
 10
-63.46689701414039
 20
15.46016853306682
 30
0.0
  0
LINE
  5
169
102
{ACAD_REACTORS
330
172
102
}
330
164
100
AcDbEntity
  8
0
100
AcDbLine
 10
-63.46689701414039
 20
15.46016853306682
 30
0.0
 11
-63.82219267516564
 21
15.46016853306682
 31
0.0
  0
LINE
  5
16A
102
{ACAD_REACTORS
330
172
102
}
330
164
100
AcDbEntity
  8
0
100
AcDbLine
 10
-63.82219267516564
 20
15.46016853306682
 30
0.0
 11
-63.82219267516564
 21
13.78707153306683
 31
0.0
  0
LINE
  5
16B
102
{ACAD_REACTORS
330
172
102
}
330
164
100
AcDbEntity
  8
0
100
AcDbLine
 10
-63.09258967516566
 20
16.44881753306684
 30
0.0
 11
-65.1910906751657
 21
16.44881753306684
 31
0.0
  0
SPLINE
  5
16C
102
{ACAD_REACTORS
330
172
102
}
330
164
100
AcDbEntity
  8
0
100
AcDbSpline
210
0.0
220
0.0
230
1.0
 70
     8
 71
     3
 72
    11
 73
     7
 74
     0
 42
0.0000000001
 43
0.0000000001
 40
0.2936837717354933
 40
0.2936837717354933
 40
0.2936837717354933
 40
0.2936837717354933
 40
0.3486086586423288
 40
0.4181833865755395
 40
0.4874646771879993
 40
0.5758658507171156
 40
0.5758658507171156
 40
0.5758658507171156
 40
0.5758658507171156
 10
-61.3885963599133
 20
14.628373224245
 30
0.0
 10
-61.3866327111799
 20
14.81461430976022
 30
0.0
 10
-61.42180843855425
 20
15.22586839198035
 30
0.0
 10
-61.65248502722848
 20
15.84811296147202
 30
0.0
 10
-62.25323916657581
 20
16.38211568442156
 30
0.0
 10
-62.79106792157026
 20
16.42485607934071
 30
0.0
 10
-63.09258967516566
 20
16.44881753306684
 30
0.0
  0
SPLINE
  5
16D
102
{ACAD_REACTORS
330
172
102
}
330
164
100
AcDbEntity
  8
0
100
AcDbSpline
210
0.0
220
0.0
230
1.0
 70
     8
 71
     3
 72
    10
 73
     6
 74
     0
 42
0.0000000001
 43
0.0000000001
 40
0.0
 40
0.0
 40
0.0
 40
0.0
 40
0.0653965997920125
 40
0.148785267001393
 40
0.2936837717354933
 40
0.2936837717354933
 40
0.2936837717354933
 40
0.2936837717354933
 10
-63.2280526751656
 20
12.79842253306682
 30
0.0
 10
-63.00807050524145
 20
12.79414883947174
 30
0.0
 10
-62.50758414980694
 20
12.78442566357808
 30
0.0
 10
-61.5936272368743
 20
13.31022024821636
 30
0.0
 10
-61.3937767031296
 20
14.13704668119749
 30
0.0
 10
-61.3885963599133
 20
14.628373224245
 30
0.0
  0
LINE
  5
16E
102
{ACAD_REACTORS
330
172
102
}
330
164
100
AcDbEntity
  8
0
100
AcDbLine
 10
-63.82219267516564
 20
12.79842253306682
 30
0.0
 11
-63.2280526751656
 21
12.79842253306682
 31
0.0
  0
LINE
  5
16F
102
{ACAD_REACTORS
330
172
102
}
330
164
100
AcDbEntity
  8
0
100
AcDbLine
 10
-63.82219267516564
 20
10.44087653306682
 30
0.0
 11
-63.82219267516564
 21
12.79842253306682
 31
0.0
  0
LINE
  5
170
102
{ACAD_REACTORS
330
172
102
}
330
164
100
AcDbEntity
  8
0
100
AcDbLine
 10
-65.1910906751657
 20
10.44087653306682
 30
0.0
 11
-63.82219267516564
 21
10.44087653306682
 31
0.0
  0
LINE
  5
171
102
{ACAD_REACTORS
330
172
102
}
330
164
100
AcDbEntity
  8
0
100
AcDbLine
 10
-65.1910906751657
 20
16.44881753306684
 30
0.0
 11
-65.1910906751657
 21
10.44087653306682
 31
0.0
  0
HATCH
  5
172
330
164
100
AcDbEntity
  8
Schraffur (ISO)
100
AcDbHatch
 10
0.0
 20
0.0
 30
0.0
210
0.0
220
0.0
230
1.0
  2
SOLID
 70
     1
 71
     1
 91
        2
 92
        0
 93
        4
 72
     1
 10
-63.82219267516564
 20
13.78707153306683
 11
-63.44194367516561
 21
13.78707153306683
 72
     4
 94
        3
 73
     0
 74
     0
 95
       13
 96
        9
 40
-0.2488465402991201
 40
-0.2488465402991201
 40
-0.2488465402991201
 40
-0.2488465402991201
 40
-0.213514800971061
 40
-0.1813686001396738
 40
-0.151852207945606
 40
-0.122610058815004
 40
-0.0548379298616244
 40
0.0
 40
0.0
 40
0.0
 40
0.0
 10
-63.44194367516561
 20
13.78707153306683
 10
-63.32417121073874
 20
13.78707153306683
 10
-63.08419178569152
 20
13.80580234228952
 10
-62.85168098131063
 20
14.06077992123113
 10
-62.75106357115923
 20
14.3528991457025
 10
-62.73688326920373
 20
14.7669903791009
 10
-62.81190429146026
 20
15.35988989299784
 10
-63.28410391460164
 20
15.46016853306682
 10
-63.46689701414039
 20
15.46016853306682
 72
     1
 10
-63.46689701414039
 20
15.46016853306682
 11
-63.82219267516564
 21
15.46016853306682
 72
     1
 10
-63.82219267516564
 20
15.46016853306682
 11
-63.82219267516564
 21
13.78707153306683
 97
        4
330
167
330
168
330
169
330
16A
 92
        1
 93
        7
 72
     1
 10
-63.09258967516566
 20
16.44881753306684
 11
-65.1910906751657
 21
16.44881753306684
 72
     1
 10
-65.1910906751657
 20
16.44881753306684
 11
-65.1910906751657
 21
10.44087653306682
 72
     1
 10
-65.1910906751657
 20
10.44087653306682
 11
-63.82219267516564
 21
10.44087653306682
 72
     1
 10
-63.82219267516564
 20
10.44087653306682
 11
-63.82219267516564
 21
12.79842253306682
 72
     1
 10
-63.82219267516564
 20
12.79842253306682
 11
-63.2280526751656
 21
12.79842253306682
 72
     4
 94
        3
 73
     0
 74
     0
 95
       10
 96
        6
 40
0.0
 40
0.0
 40
0.0
 40
0.0
 40
0.0653965997920125
 40
0.148785267001393
 40
0.2936837717354933
 40
0.2936837717354933
 40
0.2936837717354933
 40
0.2936837717354933
 10
-63.2280526751656
 20
12.79842253306682
 10
-63.00807050524145
 20
12.79414883947174
 10
-62.50758414980694
 20
12.78442566357808
 10
-61.5936272368743
 20
13.31022024821636
 10
-61.3937767031296
 20
14.13704668119749
 10
-61.3885963599133
 20
14.628373224245
 72
     4
 94
        3
 73
     0
 74
     0
 95
       11
 96
        7
 40
0.2936837717354933
 40
0.2936837717354933
 40
0.2936837717354933
 40
0.2936837717354933
 40
0.3486086586423288
 40
0.4181833865755395
 40
0.4874646771879993
 40
0.5758658507171156
 40
0.5758658507171156
 40
0.5758658507171156
 40
0.5758658507171156
 10
-61.3885963599133
 20
14.628373224245
 10
-61.3866327111799
 20
14.81461430976022
 10
-61.42180843855425
 20
15.22586839198035
 10
-61.65248502722848
 20
15.84811296147202
 10
-62.25323916657581
 20
16.38211568442156
 10
-62.79106792157026
 20
16.42485607934071
 10
-63.09258967516566
 20
16.44881753306684
 97
        7
330
16B
330
171
330
170
330
16F
330
16E
330
16D
330
16C
 75
     0
 76
     1
 98
        1
 10
0.0
 20
0.0
450
        0
451
        0
460
0.0
461
0.0
452
        0
462
0.0
453
        0
470

  0
LINE
  5
173
102
{ACAD_REACTORS
330
17D
102
}
330
164
100
AcDbEntity
  8
0
100
AcDbLine
 10
-60.62809767516559
 20
16.44881753306684
 30
0.0
 11
-60.62809767516559
 21
10.40524878827717
 31
0.0
  0
LINE
  5
174
102
{ACAD_REACTORS
330
17D
102
}
330
164
100
AcDbEntity
  8
0
100
AcDbLine
 10
-58.98987681977541
 20
16.44881753306684
 30
0.0
 11
-60.62809767516559
 21
16.44881753306684
 31
0.0
  0
LINE
  5
175
102
{ACAD_REACTORS
330
17D
102
}
330
164
100
AcDbEntity
  8
0
100
AcDbLine
 10
-57.88930580282222
 20
12.61710582815194
 30
0.0
 11
-58.98987681977541
 21
16.44881753306684
 31
0.0
  0
LINE
  5
176
102
{ACAD_REACTORS
330
17D
102
}
330
164
100
AcDbEntity
  8
0
100
AcDbLine
 10
-57.88930580282222
 20
16.44881753306684
 30
0.0
 11
-57.88930580282222
 21
12.61710582815194
 31
0.0
  0
LINE
  5
177
102
{ACAD_REACTORS
330
17D
102
}
330
164
100
AcDbEntity
  8
0
100
AcDbLine
 10
-56.69354904308139
 20
16.44881753306684
 30
0.0
 11
-57.88930580282222
 21
16.44881753306684
 31
0.0
  0
LINE
  5
178
102
{ACAD_REACTORS
330
17D
102
}
330
164
100
AcDbEntity
  8
0
100
AcDbLine
 10
-56.69354904308139
 20
10.40524878827717
 30
0.0
 11
-56.69354904308139
 21
16.44881753306684
 31
0.0
  0
LINE
  5
179
102
{ACAD_REACTORS
330
17D
102
}
330
164
100
AcDbEntity
  8
0
100
AcDbLine
 10
-58.22507916596087
 20
10.40524878827717
 30
0.0
 11
-56.69354904308139
 21
10.40524878827717
 31
0.0
  0
LINE
  5
17A
102
{ACAD_REACTORS
330
17D
102
}
330
164
100
AcDbEntity
  8
0
100
AcDbLine
 10
-59.41118327390213
 20
14.53474967794081
 30
0.0
 11
-58.22507916596087
 21
10.40524878827717
 31
0.0
  0
LINE
  5
17B
102
{ACAD_REACTORS
330
17D
102
}
330
164
100
AcDbEntity
  8
0
100
AcDbLine
 10
-59.41118327390213
 20
10.40524878827717
 30
0.0
 11
-59.41118327390213
 21
14.53474967794081
 31
0.0
  0
LINE
  5
17C
102
{ACAD_REACTORS
330
17D
102
}
330
164
100
AcDbEntity
  8
0
100
AcDbLine
 10
-60.62809767516559
 20
10.40524878827717
 30
0.0
 11
-59.41118327390213
 21
10.40524878827717
 31
0.0
  0
HATCH
  5
17D
330
164
100
AcDbEntity
  8
Schraffur (ISO)
100
AcDbHatch
 10
0.0
 20
0.0
 30
0.0
210
0.0
220
0.0
230
1.0
  2
SOLID
 70
     1
 71
     1
 91
        1
 92
        1
 93
       10
 72
     1
 10
-60.62809767516559
 20
16.44881753306684
 11
-60.62809767516559
 21
10.40524878827717
 72
     1
 10
-60.62809767516559
 20
10.40524878827717
 11
-59.41118327390213
 21
10.40524878827717
 72
     1
 10
-59.41118327390213
 20
10.40524878827717
 11
-59.41118327390213
 21
14.53474967794082
 72
     1
 10
-59.41118327390213
 20
14.53474967794081
 11
-58.22507916596087
 21
10.40524878827717
 72
     1
 10
-58.22507916596087
 20
10.40524878827717
 11
-56.69354904308139
 21
10.40524878827717
 72
     1
 10
-56.69354904308139
 20
10.40524878827717
 11
-56.69354904308139
 21
16.44881753306684
 72
     1
 10
-56.69354904308139
 20
16.44881753306684
 11
-57.88930580282222
 21
16.44881753306684
 72
     1
 10
-57.88930580282222
 20
16.44881753306684
 11
-57.88930580282222
 21
12.61710582815194
 72
     1
 10
-57.88930580282222
 20
12.61710582815194
 11
-58.98987681977541
 21
16.44881753306684
 72
     1
 10
-58.98987681977541
 20
16.44881753306684
 11
-60.62809767516559
 21
16.44881753306684
 97
       10
330
173
330
17C
330
17B
330
17A
330
179
330
178
330
177
330
176
330
175
330
174
 75
     0
 76
     1
 98
        1
 10
0.0
 20
0.0
450
        0
451
        0
460
0.0
461
0.0
452
        0
462
0.0
453
        0
470

  0
LINE
  5
17E
102
{ACAD_REACTORS
330
18A
102
}
330
164
100
AcDbEntity
  8
0
100
AcDbLine
 10
-54.3920076751656
 20
11.58162453306683
 30
10.0
 11
-52.27805867516565
 21
11.58162453306683
 31
10.0
  0
LINE
  5
17F
102
{ACAD_REACTORS
330
18A
102
}
330
164
100
AcDbEntity
  8
0
100
AcDbLine
 10
-54.3920076751656
 20
12.95052253306684
 30
10.0
 11
-54.3920076751656
 21
11.58162453306683
 31
10.0
  0
LINE
  5
180
102
{ACAD_REACTORS
330
18A
102
}
330
164
100
AcDbEntity
  8
0
100
AcDbLine
 10
-52.49194867516564
 20
12.95052253306684
 30
10.0
 11
-54.3920076751656
 21
12.95052253306684
 31
10.0
  0
LINE
  5
181
102
{ACAD_REACTORS
330
18A
102
}
330
164
100
AcDbEntity
  8
0
100
AcDbLine
 10
-52.49194867516564
 20
14.09127053306683
 30
10.0
 11
-52.49194867516564
 21
12.95052253306684
 31
10.0
  0
LINE
  5
182
102
{ACAD_REACTORS
330
18A
102
}
330
164
100
AcDbEntity
  8
0
100
AcDbLine
 10
-54.3920076751656
 20
14.09127053306683
 30
10.0
 11
-52.49194867516564
 21
14.09127053306683
 31
10.0
  0
LINE
  5
183
102
{ACAD_REACTORS
330
18A
102
}
330
164
100
AcDbEntity
  8
0
100
AcDbLine
 10
-54.3920076751656
 20
15.30806953306683
 30
10.0
 11
-54.3920076751656
 21
14.09127053306683
 31
10.0
  0
LINE
  5
184
102
{ACAD_REACTORS
330
18A
102
}
330
164
100
AcDbEntity
  8
0
100
AcDbLine
 10
-52.36836767516571
 20
15.30806953306683
 30
10.0
 11
-54.3920076751656
 21
15.30806953306683
 31
10.0
  0
LINE
  5
185
102
{ACAD_REACTORS
330
18A
102
}
330
164
100
AcDbEntity
  8
0
100
AcDbLine
 10
-52.36836767516571
 20
16.44881753306684
 30
10.0
 11
-52.36836767516571
 21
15.30806953306683
 31
10.0
  0
LINE
  5
186
102
{ACAD_REACTORS
330
18A
102
}
330
164
100
AcDbEntity
  8
0
100
AcDbLine
 10
-55.76090567516565
 20
16.44881753306684
 30
10.0
 11
-52.36836767516571
 21
16.44881753306684
 31
10.0
  0
LINE
  5
187
102
{ACAD_REACTORS
330
18A
102
}
330
164
100
AcDbEntity
  8
0
100
AcDbLine
 10
-55.76090567516565
 20
10.44087653306682
 30
10.0
 11
-55.76090567516565
 21
16.44881753306684
 31
10.0
  0
LINE
  5
188
102
{ACAD_REACTORS
330
18A
102
}
330
164
100
AcDbEntity
  8
0
100
AcDbLine
 10
-52.27805867516565
 20
10.44087653306682
 30
10.0
 11
-55.76090567516565
 21
10.44087653306682
 31
10.0
  0
LINE
  5
189
102
{ACAD_REACTORS
330
18A
102
}
330
164
100
AcDbEntity
  8
0
100
AcDbLine
 10
-52.27805867516565
 20
11.58162453306683
 30
10.0
 11
-52.27805867516565
 21
10.44087653306682
 31
10.0
  0
HATCH
  5
18A
330
164
100
AcDbEntity
  8
Schraffur (ISO)
100
AcDbHatch
 10
0.0
 20
0.0
 30
0.0
210
0.0
220
0.0
230
1.0
  2
SOLID
 70
     1
 71
     1
 91
        1
 92
        1
 93
       12
 72
     1
 10
-54.3920076751656
 20
11.58162453306683
 11
-52.27805867516565
 21
11.58162453306683
 72
     1
 10
-52.27805867516565
 20
11.58162453306683
 11
-52.27805867516565
 21
10.44087653306682
 72
     1
 10
-52.27805867516565
 20
10.44087653306682
 11
-55.76090567516565
 21
10.44087653306682
 72
     1
 10
-55.76090567516565
 20
10.44087653306682
 11
-55.76090567516565
 21
16.44881753306684
 72
     1
 10
-55.76090567516565
 20
16.44881753306684
 11
-52.36836767516571
 21
16.44881753306684
 72
     1
 10
-52.36836767516571
 20
16.44881753306684
 11
-52.36836767516571
 21
15.30806953306683
 72
     1
 10
-52.36836767516571
 20
15.30806953306683
 11
-54.3920076751656
 21
15.30806953306683
 72
     1
 10
-54.3920076751656
 20
15.30806953306683
 11
-54.3920076751656
 21
14.09127053306683
 72
     1
 10
-54.3920076751656
 20
14.09127053306683
 11
-52.49194867516564
 21
14.09127053306683
 72
     1
 10
-52.49194867516564
 20
14.09127053306683
 11
-52.49194867516564
 21
12.95052253306684
 72
     1
 10
-52.49194867516564
 20
12.95052253306684
 11
-54.3920076751656
 21
12.95052253306684
 72
     1
 10
-54.3920076751656
 20
12.95052253306684
 11
-54.3920076751656
 21
11.58162453306683
 97
       12
330
17E
330
189
330
188
330
187
330
186
330
185
330
184
330
183
330
182
330
181
330
180
330
17F
 75
     0
 76
     1
 98
        1
 10
0.0
 20
0.0
450
        0
451
        0
460
0.0
461
0.0
452
        0
462
0.0
453
        0
470

  0
SPLINE
  5
18B
102
{ACAD_REACTORS
330
193
102
}
330
164
100
AcDbEntity
  8
0
100
AcDbSpline
210
0.0
220
0.0
230
1.0
 70
     8
 71
     3
 72
    15
 73
    11
 74
     0
 42
0.0000000001
 43
0.0000000001
 40
0.0
 40
0.0
 40
0.0
 40
0.0
 40
0.0672548563799885
 40
0.1521664902326495
 40
0.2281703146548317
 40
0.3255600897830795
 40
0.4120495207317158
 40
0.4985389234182298
 40
0.5654159866690202
 40
0.6509023544104405
 40
0.6509023544104405
 40
0.6509023544104405
 40
0.6509023544104405
 10
-51.7302616751656
 20
12.50372953306684
 30
0.0
 10
-51.72250972741318
 20
12.28042993765319
 30
0.0
 10
-51.7049706715673
 20
11.77520670867943
 30
0.0
 10
-51.45830183546912
 20
11.01272899934195
 30
0.0
 10
-50.70619437300852
 20
10.49759629449973
 30
0.0
 10
-49.8251698126684
 20
10.4107231579618
 30
0.0
 10
-48.92313273835776
 20
10.49749520180978
 30
0.0
 10
-48.18766130508738
 20
10.93968926311738
 30
0.0
 10
-47.88526518983896
 20
11.71052808496217
 30
0.0
 10
-47.86377509624168
 20
12.21864242747865
 30
0.0
 10
-47.85171767516569
 20
12.50372953306684
 30
0.0
  0
LINE
  5
18C
102
{ACAD_REACTORS
330
193
102
}
330
164
100
AcDbEntity
  8
0
100
AcDbLine
 10
-51.7302616751656
 20
16.44881753306684
 30
0.0
 11
-51.7302616751656
 21
12.50372953306684
 31
0.0
  0
LINE
  5
18D
102
{ACAD_REACTORS
330
193
102
}
330
164
100
AcDbEntity
  8
0
100
AcDbLine
 10
-50.36136367516565
 20
16.44881753306684
 30
0.0
 11
-51.7302616751656
 21
16.44881753306684
 31
0.0
  0
LINE
  5
18E
102
{ACAD_REACTORS
330
193
102
}
330
164
100
AcDbEntity
  8
0
100
AcDbLine
 10
-50.36136367516565
 20
12.15437597654793
 30
0.0
 11
-50.36136367516565
 21
16.44881753306684
 31
0.0
  0
SPLINE
  5
18F
102
{ACAD_REACTORS
330
193
102
}
330
164
100
AcDbEntity
  8
0
100
AcDbSpline
210
0.0
220
0.0
230
1.0
 70
     8
 71
     3
 72
    12
 73
     8
 74
     0
 42
0.0000000001
 43
0.0000000001
 40
0.0
 40
0.0
 40
0.0
 40
0.0
 40
0.0459373561447192
 40
0.0841298945751798
 40
0.1189845232173717
 40
0.1628560898790358
 40
0.2038542643486715
 40
0.2038542643486715
 40
0.2038542643486715
 40
0.2038542643486715
 10
-49.22061567516561
 20
12.15437553306683
 30
0.0
 10
-49.2268789446577
 20
11.99485470427934
 30
0.0
 10
-49.23834952647364
 20
11.70270749262533
 30
0.0
 10
-49.57024113653026
 20
11.41847892432864
 30
0.0
 10
-49.99594522261111
 20
11.40074526513182
 30
0.0
 10
-50.29158571586791
 20
11.73973014957667
 30
0.0
 10
-50.33863533382652
 20
12.01931596640863
 30
0.0
 10
-50.36136367516565
 20
12.15437597654793
 30
0.0
  0
LINE
  5
190
102
{ACAD_REACTORS
330
193
102
}
330
164
100
AcDbEntity
  8
0
100
AcDbLine
 10
-49.22061567516561
 20
16.44881753306684
 30
0.0
 11
-49.22061567516561
 21
12.15437553306683
 31
0.0
  0
LINE
  5
191
102
{ACAD_REACTORS
330
193
102
}
330
164
100
AcDbEntity
  8
0
100
AcDbLine
 10
-47.85171767516569
 20
16.44881753306684
 30
0.0
 11
-49.22061567516561
 21
16.44881753306684
 31
0.0
  0
LINE
  5
192
102
{ACAD_REACTORS
330
193
102
}
330
164
100
AcDbEntity
  8
0
100
AcDbLine
 10
-47.85171767516569
 20
12.50372953306684
 30
0.0
 11
-47.85171767516569
 21
16.44881753306684
 31
0.0
  0
HATCH
  5
193
330
164
100
AcDbEntity
  8
Schraffur (ISO)
100
AcDbHatch
 10
0.0
 20
0.0
 30
0.0
210
0.0
220
0.0
230
1.0
  2
SOLID
 70
     1
 71
     1
 91
        1
 92
        1
 93
        8
 72
     4
 94
        3
 73
     0
 74
     0
 95
       15
 96
       11
 40
0.0
 40
0.0
 40
0.0
 40
0.0
 40
0.0672548563799885
 40
0.1521664902326495
 40
0.2281703146548317
 40
0.3255600897830795
 40
0.4120495207317158
 40
0.4985389234182298
 40
0.5654159866690202
 40
0.6509023544104405
 40
0.6509023544104405
 40
0.6509023544104405
 40
0.6509023544104405
 10
-51.7302616751656
 20
12.50372953306684
 10
-51.72250972741318
 20
12.28042993765319
 10
-51.7049706715673
 20
11.77520670867943
 10
-51.45830183546912
 20
11.01272899934195
 10
-50.70619437300852
 20
10.49759629449973
 10
-49.8251698126684
 20
10.4107231579618
 10
-48.92313273835776
 20
10.49749520180978
 10
-48.18766130508738
 20
10.93968926311738
 10
-47.88526518983896
 20
11.71052808496217
 10
-47.86377509624168
 20
12.21864242747865
 10
-47.85171767516569
 20
12.50372953306684
 72
     1
 10
-47.85171767516569
 20
12.50372953306684
 11
-47.85171767516569
 21
16.44881753306684
 72
     1
 10
-47.85171767516569
 20
16.44881753306684
 11
-49.22061567516561
 21
16.44881753306684
 72
     1
 10
-49.22061567516561
 20
16.44881753306684
 11
-49.22061567516561
 21
12.15437553306683
 72
     4
 94
        3
 73
     0
 74
     0
 95
       12
 96
        8
 40
0.0
 40
0.0
 40
0.0
 40
0.0
 40
0.0459373561447192
 40
0.0841298945751798
 40
0.1189845232173717
 40
0.1628560898790358
 40
0.2038542643486715
 40
0.2038542643486715
 40
0.2038542643486715
 40
0.2038542643486715
 10
-49.22061567516561
 20
12.15437553306683
 10
-49.2268789446577
 20
11.99485470427934
 10
-49.23834952647364
 20
11.70270749262533
 10
-49.57024113653026
 20
11.41847892432864
 10
-49.99594522261111
 20
11.40074526513182
 10
-50.29158571586791
 20
11.73973014957667
 10
-50.33863533382652
 20
12.01931596640863
 10
-50.36136367516565
 20
12.15437597654793
 72
     1
 10
-50.36136367516565
 20
12.15437597654793
 11
-50.36136367516565
 21
16.44881753306684
 72
     1
 10
-50.36136367516565
 20
16.44881753306684
 11
-51.7302616751656
 21
16.44881753306684
 72
     1
 10
-51.7302616751656
 20
16.44881753306684
 11
-51.7302616751656
 21
12.50372953306684
 97
        8
330
18B
330
192
330
191
330
190
330
18F
330
18E
330
18D
330
18C
 75
     0
 76
     1
 98
        1
 10
0.0
 20
0.0
450
        0
451
        0
460
0.0
461
0.0
452
        0
462
0.0
453
        0
470

  0
LINE
  5
194
102
{ACAD_REACTORS
330
1A2
102
}
330
164
100
AcDbEntity
  8
0
100
AcDbLine
 10
-44.98677667516563
 20
16.44881753306684
 30
10.0
 11
-44.26073767516562
 21
12.52868353306683
 31
10.0
  0
LINE
  5
195
102
{ACAD_REACTORS
330
1A2
102
}
330
164
100
AcDbEntity
  8
0
100
AcDbLine
 10
-47.01516967516568
 20
16.44881753306684
 30
10.0
 11
-44.98677667516563
 21
16.44881753306684
 31
10.0
  0
LINE
  5
196
102
{ACAD_REACTORS
330
1A2
102
}
330
164
100
AcDbEntity
  8
0
100
AcDbLine
 10
-47.01516967516568
 20
10.44087653306682
 30
10.0
 11
-47.01516967516568
 21
16.44881753306684
 31
10.0
  0
LINE
  5
197
102
{ACAD_REACTORS
330
1A2
102
}
330
164
100
AcDbEntity
  8
0
100
AcDbLine
 10
-45.79837167516565
 20
10.44087653306682
 30
10.0
 11
-47.01516967516568
 21
10.44087653306682
 31
10.0
  0
LINE
  5
198
102
{ACAD_REACTORS
330
1A2
102
}
330
164
100
AcDbEntity
  8
0
100
AcDbLine
 10
-45.79837167516565
 20
15.1559695330669
 30
10.0
 11
-45.79837167516565
 21
10.44087653306682
 31
10.0
  0
LINE
  5
199
102
{ACAD_REACTORS
330
1A2
102
}
330
164
100
AcDbEntity
  8
0
100
AcDbLine
 10
-44.83467667516558
 20
10.44087653306682
 30
10.0
 11
-45.79837167516565
 21
15.1559695330669
 31
10.0
  0
LINE
  5
19A
102
{ACAD_REACTORS
330
1A2
102
}
330
164
100
AcDbEntity
  8
0
100
AcDbLine
 10
-43.74621267516555
 20
10.44087653306682
 30
10.0
 11
-44.83467667516558
 21
10.44087653306682
 31
10.0
  0
LINE
  5
19B
102
{ACAD_REACTORS
330
1A2
102
}
330
164
100
AcDbEntity
  8
0
100
AcDbLine
 10
-42.83242567516563
 20
15.15596953306682
 30
10.0
 11
-43.74621267516555
 21
10.44087653306682
 31
10.0
  0
LINE
  5
19C
102
{ACAD_REACTORS
330
1A2
102
}
330
164
100
AcDbEntity
  8
0
100
AcDbLine
 10
-42.83242567516563
 20
10.44087653306682
 30
10.0
 11
-42.83242567516563
 21
15.15596953306682
 31
10.0
  0
LINE
  5
19D
102
{ACAD_REACTORS
330
1A2
102
}
330
164
100
AcDbEntity
  8
0
100
AcDbLine
 10
-41.53957767516555
 20
10.44087653306682
 30
10.0
 11
-42.83242567516563
 21
10.44087653306682
 31
10.0
  0
LINE
  5
19E
102
{ACAD_REACTORS
330
1A2
102
}
330
164
100
AcDbEntity
  8
0
100
AcDbLine
 10
-41.53957767516555
 20
16.44881753306684
 30
10.0
 11
-41.53957767516555
 21
10.44087653306682
 31
10.0
  0
LINE
  5
19F
102
{ACAD_REACTORS
330
1A2
102
}
330
164
100
AcDbEntity
  8
0
100
AcDbLine
 10
-43.54301667516562
 20
16.44881753306684
 30
10.0
 11
-41.53957767516555
 21
16.44881753306684
 31
10.0
  0
LINE
  5
1A0
102
{ACAD_REACTORS
330
1A2
102
}
330
164
100
AcDbEntity
  8
0
100
AcDbLine
 10
-44.24410167516565
 20
12.52868353306683
 30
10.0
 11
-43.54301667516562
 21
16.44881753306684
 31
10.0
  0
LINE
  5
1A1
102
{ACAD_REACTORS
330
1A2
102
}
330
164
100
AcDbEntity
  8
0
100
AcDbLine
 10
-44.26073767516562
 20
12.52868353306683
 30
10.0
 11
-44.24410167516565
 21
12.52868353306683
 31
10.0
  0
HATCH
  5
1A2
330
164
100
AcDbEntity
  8
Schraffur (ISO)
100
AcDbHatch
 10
0.0
 20
0.0
 30
0.0
210
0.0
220
0.0
230
1.0
  2
SOLID
 70
     1
 71
     1
 91
        1
 92
        1
 93
       14
 72
     1
 10
-44.98677667516563
 20
16.44881753306684
 11
-44.26073767516562
 21
12.52868353306683
 72
     1
 10
-44.26073767516562
 20
12.52868353306683
 11
-44.24410167516565
 21
12.52868353306683
 72
     1
 10
-44.24410167516565
 20
12.52868353306683
 11
-43.54301667516562
 21
16.44881753306684
 72
     1
 10
-43.54301667516562
 20
16.44881753306684
 11
-41.53957767516555
 21
16.44881753306684
 72
     1
 10
-41.53957767516555
 20
16.44881753306684
 11
-41.53957767516555
 21
10.44087653306682
 72
     1
 10
-41.53957767516555
 20
10.44087653306682
 11
-42.83242567516563
 21
10.44087653306682
 72
     1
 10
-42.83242567516563
 20
10.44087653306682
 11
-42.83242567516563
 21
15.15596953306682
 72
     1
 10
-42.83242567516563
 20
15.15596953306682
 11
-43.74621267516555
 21
10.44087653306682
 72
     1
 10
-43.74621267516555
 20
10.44087653306682
 11
-44.83467667516558
 21
10.44087653306682
 72
     1
 10
-44.83467667516558
 20
10.44087653306682
 11
-45.79837167516565
 21
15.1559695330669
 72
     1
 10
-45.79837167516565
 20
15.1559695330669
 11
-45.79837167516565
 21
10.44087653306682
 72
     1
 10
-45.79837167516565
 20
10.44087653306682
 11
-47.01516967516568
 21
10.44087653306682
 72
     1
 10
-47.01516967516568
 20
10.44087653306682
 11
-47.01516967516568
 21
16.44881753306684
 72
     1
 10
-47.01516967516568
 20
16.44881753306684
 11
-44.98677667516563
 21
16.44881753306684
 97
       14
330
194
330
1A1
330
1A0
330
19F
330
19E
330
19D
330
19C
330
19B
330
19A
330
199
330
198
330
197
330
196
330
195
 75
     0
 76
     1
 98
        1
 10
0.0
 20
0.0
450
        0
451
        0
460
0.0
461
0.0
452
        0
462
0.0
453
        0
470

  0
LINE
  5
1A3
102
{ACAD_REACTORS
330
1AF
102
}
330
164
100
AcDbEntity
  8
0
100
AcDbLine
 10
-39.2521406751656
 20
12.64632353306684
 30
0.0
 11
-38.24923267516571
 21
12.64632353306684
 31
0.0
  0
LINE
  5
1A4
102
{ACAD_REACTORS
330
1AF
102
}
330
164
100
AcDbEntity
  8
0
100
AcDbLine
 10
-38.24923267516571
 20
12.64632353306684
 30
0.0
 11
-38.75068667516565
 21
15.46016853306682
 31
0.0
  0
LINE
  5
1A5
102
{ACAD_REACTORS
330
1AF
102
}
330
164
100
AcDbEntity
  8
0
100
AcDbLine
 10
-38.75068667516565
 20
15.46016853306682
 30
0.0
 11
-38.76732267516559
 21
15.46016853306682
 31
0.0
  0
LINE
  5
1A6
102
{ACAD_REACTORS
330
1AF
102
}
330
164
100
AcDbEntity
  8
0
100
AcDbLine
 10
-38.76732267516559
 20
15.46016853306682
 30
0.0
 11
-39.2521406751656
 21
12.64632353306684
 31
0.0
  0
LINE
  5
1A7
102
{ACAD_REACTORS
330
1AF
102
}
330
164
100
AcDbEntity
  8
0
100
AcDbLine
 10
-37.80719267516563
 20
10.44087653306682
 30
0.0
 11
-36.36818667516561
 21
10.44087653306682
 31
0.0
  0
LINE
  5
1A8
102
{ACAD_REACTORS
330
1AF
102
}
330
164
100
AcDbEntity
  8
0
100
AcDbLine
 10
-38.02227067516558
 20
11.65767453306683
 30
0.0
 11
-37.80719267516563
 21
10.44087653306682
 31
0.0
  0
LINE
  5
1A9
102
{ACAD_REACTORS
330
1AF
102
}
330
164
100
AcDbEntity
  8
0
100
AcDbLine
 10
-39.43751167516563
 20
11.65767453306683
 30
0.0
 11
-38.02227067516558
 21
11.65767453306683
 31
0.0
  0
LINE
  5
1AA
102
{ACAD_REACTORS
330
1AF
102
}
330
164
100
AcDbEntity
  8
0
100
AcDbLine
 10
-39.64427267516566
 20
10.44087653306682
 30
0.0
 11
-39.43751167516563
 21
11.65767453306683
 31
0.0
  0
LINE
  5
1AB
102
{ACAD_REACTORS
330
1AF
102
}
330
164
100
AcDbEntity
  8
0
100
AcDbLine
 10
-41.0832786751656
 20
10.44087653306682
 30
0.0
 11
-39.64427267516566
 21
10.44087653306682
 31
0.0
  0
LINE
  5
1AC
102
{ACAD_REACTORS
330
1AF
102
}
330
164
100
AcDbEntity
  8
0
100
AcDbLine
 10
-39.57772867516564
 20
16.44881753306684
 30
0.0
 11
-41.0832786751656
 21
10.44087653306682
 31
0.0
  0
LINE
  5
1AD
102
{ACAD_REACTORS
330
1AF
102
}
330
164
100
AcDbEntity
  8
0
100
AcDbLine
 10
-37.84046467516564
 20
16.44881753306684
 30
0.0
 11
-39.57772867516564
 21
16.44881753306684
 31
0.0
  0
LINE
  5
1AE
102
{ACAD_REACTORS
330
1AF
102
}
330
164
100
AcDbEntity
  8
0
100
AcDbLine
 10
-36.36818667516561
 20
10.44087653306682
 30
0.0
 11
-37.84046467516564
 21
16.44881753306684
 31
0.0
  0
HATCH
  5
1AF
330
164
100
AcDbEntity
  8
Schraffur (ISO)
100
AcDbHatch
 10
0.0
 20
0.0
 30
0.0
210
0.0
220
0.0
230
1.0
  2
SOLID
 70
     1
 71
     1
 91
        2
 92
        0
 93
        4
 72
     1
 10
-39.2521406751656
 20
12.64632353306684
 11
-38.24923267516571
 21
12.64632353306684
 72
     1
 10
-38.24923267516571
 20
12.64632353306684
 11
-38.75068667516565
 21
15.46016853306682
 72
     1
 10
-38.75068667516565
 20
15.46016853306682
 11
-38.76732267516559
 21
15.46016853306682
 72
     1
 10
-38.76732267516559
 20
15.46016853306682
 11
-39.2521406751656
 21
12.64632353306684
 97
        4
330
1A3
330
1A4
330
1A5
330
1A6
 92
        1
 93
        8
 72
     1
 10
-37.80719267516563
 20
10.44087653306682
 11
-36.36818667516561
 21
10.44087653306682
 72
     1
 10
-36.36818667516561
 20
10.44087653306682
 11
-37.84046467516564
 21
16.44881753306684
 72
     1
 10
-37.84046467516564
 20
16.44881753306684
 11
-39.57772867516564
 21
16.44881753306684
 72
     1
 10
-39.57772867516564
 20
16.44881753306684
 11
-41.0832786751656
 21
10.44087653306682
 72
     1
 10
-41.0832786751656
 20
10.44087653306682
 11
-39.64427267516566
 21
10.44087653306682
 72
     1
 10
-39.64427267516566
 20
10.44087653306682
 11
-39.43751167516563
 21
11.65767453306683
 72
     1
 10
-39.43751167516563
 20
11.65767453306683
 11
-38.02227067516558
 21
11.65767453306683
 72
     1
 10
-38.02227067516558
 20
11.65767453306683
 11
-37.80719267516563
 21
10.44087653306682
 97
        8
330
1A7
330
1AE
330
1AD
330
1AC
330
1AB
330
1AA
330
1A9
330
1A8
 75
     0
 76
     1
 98
        1
 10
0.0
 20
0.0
450
        0
451
        0
460
0.0
461
0.0
452
        0
462
0.0
453
        0
470

  0
LINE
  5
1B0
102
{ACAD_REACTORS
330
1B8
102
}
330
164
100
AcDbEntity
  8
0
100
AcDbLine
 10
-33.7824906751656
 20
15.30806953306683
 30
10.0
 11
-33.7824906751656
 21
10.44087653306682
 31
10.0
  0
LINE
  5
1B1
102
{ACAD_REACTORS
330
1B8
102
}
330
164
100
AcDbEntity
  8
0
100
AcDbLine
 10
-32.52410267516563
 20
15.30806953306683
 30
10.0
 11
-33.7824906751656
 21
15.30806953306683
 31
10.0
  0
LINE
  5
1B2
102
{ACAD_REACTORS
330
1B8
102
}
330
164
100
AcDbEntity
  8
0
100
AcDbLine
 10
-32.52410267516563
 20
16.44881753306684
 30
10.0
 11
-32.52410267516563
 21
15.30806953306683
 31
10.0
  0
LINE
  5
1B3
102
{ACAD_REACTORS
330
1B8
102
}
330
164
100
AcDbEntity
  8
0
100
AcDbLine
 10
-36.36818667516561
 20
16.44881753306684
 30
10.0
 11
-32.52410267516563
 21
16.44881753306684
 31
10.0
  0
LINE
  5
1B4
102
{ACAD_REACTORS
330
1B8
102
}
330
164
100
AcDbEntity
  8
0
100
AcDbLine
 10
-36.36818667516561
 20
15.30806953306683
 30
10.0
 11
-36.36818667516561
 21
16.44881753306684
 31
10.0
  0
LINE
  5
1B5
102
{ACAD_REACTORS
330
1B8
102
}
330
164
100
AcDbEntity
  8
0
100
AcDbLine
 10
-35.15138767516564
 20
15.30806953306683
 30
10.0
 11
-36.36818667516561
 21
15.30806953306683
 31
10.0
  0
LINE
  5
1B6
102
{ACAD_REACTORS
330
1B8
102
}
330
164
100
AcDbEntity
  8
0
100
AcDbLine
 10
-35.15138767516564
 20
10.44087653306682
 30
10.0
 11
-35.15138767516564
 21
15.30806953306683
 31
10.0
  0
LINE
  5
1B7
102
{ACAD_REACTORS
330
1B8
102
}
330
164
100
AcDbEntity
  8
0
100
AcDbLine
 10
-33.7824906751656
 20
10.44087653306682
 30
10.0
 11
-35.15138767516564
 21
10.44087653306682
 31
10.0
  0
HATCH
  5
1B8
330
164
100
AcDbEntity
  8
Schraffur (ISO)
100
AcDbHatch
 10
0.0
 20
0.0
 30
0.0
210
0.0
220
0.0
230
1.0
  2
SOLID
 70
     1
 71
     1
 91
        1
 92
        1
 93
        8
 72
     1
 10
-33.7824906751656
 20
15.30806953306683
 11
-33.7824906751656
 21
10.44087653306682
 72
     1
 10
-33.7824906751656
 20
10.44087653306682
 11
-35.15138767516564
 21
10.44087653306682
 72
     1
 10
-35.15138767516564
 20
10.44087653306682
 11
-35.15138767516564
 21
15.30806953306683
 72
     1
 10
-35.15138767516564
 20
15.30806953306683
 11
-36.36818667516561
 21
15.30806953306683
 72
     1
 10
-36.36818667516561
 20
15.30806953306683
 11
-36.36818667516561
 21
16.44881753306684
 72
     1
 10
-36.36818667516561
 20
16.44881753306684
 11
-32.52410267516563
 21
16.44881753306684
 72
     1
 10
-32.52410267516563
 20
16.44881753306684
 11
-32.52410267516563
 21
15.30806953306683
 72
     1
 10
-32.52410267516563
 20
15.30806953306683
 11
-33.7824906751656
 21
15.30806953306683
 97
        8
330
1B0
330
1B7
330
1B6
330
1B5
330
1B4
330
1B3
330
1B2
330
1B1
 75
     0
 76
     1
 98
        1
 10
0.0
 20
0.0
450
        0
451
        0
460
0.0
461
0.0
452
        0
462
0.0
453
        0
470

  0
LINE
  5
1B9
102
{ACAD_REACTORS
330
1C5
102
}
330
164
100
AcDbEntity
  8
0
100
AcDbLine
 10
-30.66444567516566
 20
11.58162453306683
 30
10.0
 11
-28.55049667516564
 21
11.58162453306683
 31
10.0
  0
LINE
  5
1BA
102
{ACAD_REACTORS
330
1C5
102
}
330
164
100
AcDbEntity
  8
0
100
AcDbLine
 10
-30.66444567516566
 20
12.95052253306684
 30
10.0
 11
-30.66444567516566
 21
11.58162453306683
 31
10.0
  0
LINE
  5
1BB
102
{ACAD_REACTORS
330
1C5
102
}
330
164
100
AcDbEntity
  8
0
100
AcDbLine
 10
-28.76438667516563
 20
12.95052253306684
 30
10.0
 11
-30.66444567516566
 21
12.95052253306684
 31
10.0
  0
LINE
  5
1BC
102
{ACAD_REACTORS
330
1C5
102
}
330
164
100
AcDbEntity
  8
0
100
AcDbLine
 10
-28.76438667516563
 20
14.09127053306683
 30
10.0
 11
-28.76438667516563
 21
12.95052253306684
 31
10.0
  0
LINE
  5
1BD
102
{ACAD_REACTORS
330
1C5
102
}
330
164
100
AcDbEntity
  8
0
100
AcDbLine
 10
-30.66444567516566
 20
14.09127053306683
 30
10.0
 11
-28.76438667516563
 21
14.09127053306683
 31
10.0
  0
LINE
  5
1BE
102
{ACAD_REACTORS
330
1C5
102
}
330
164
100
AcDbEntity
  8
0
100
AcDbLine
 10
-30.66444567516566
 20
15.30806953306683
 30
10.0
 11
-30.66444567516566
 21
14.09127053306683
 31
10.0
  0
LINE
  5
1BF
102
{ACAD_REACTORS
330
1C5
102
}
330
164
100
AcDbEntity
  8
0
100
AcDbLine
 10
-28.6408056751657
 20
15.30806953306683
 30
10.0
 11
-30.66444567516566
 21
15.30806953306683
 31
10.0
  0
LINE
  5
1C0
102
{ACAD_REACTORS
330
1C5
102
}
330
164
100
AcDbEntity
  8
0
100
AcDbLine
 10
-28.6408056751657
 20
16.44881753306684
 30
10.0
 11
-28.6408056751657
 21
15.30806953306683
 31
10.0
  0
LINE
  5
1C1
102
{ACAD_REACTORS
330
1C5
102
}
330
164
100
AcDbEntity
  8
0
100
AcDbLine
 10
-32.03334267516563
 20
16.44881753306684
 30
10.0
 11
-28.6408056751657
 21
16.44881753306684
 31
10.0
  0
LINE
  5
1C2
102
{ACAD_REACTORS
330
1C5
102
}
330
164
100
AcDbEntity
  8
0
100
AcDbLine
 10
-32.03334267516563
 20
10.44087653306682
 30
10.0
 11
-32.03334267516563
 21
16.44881753306684
 31
10.0
  0
LINE
  5
1C3
102
{ACAD_REACTORS
330
1C5
102
}
330
164
100
AcDbEntity
  8
0
100
AcDbLine
 10
-28.55049667516564
 20
10.44087653306682
 30
10.0
 11
-32.03334267516563
 21
10.44087653306682
 31
10.0
  0
LINE
  5
1C4
102
{ACAD_REACTORS
330
1C5
102
}
330
164
100
AcDbEntity
  8
0
100
AcDbLine
 10
-28.55049667516564
 20
11.58162453306683
 30
10.0
 11
-28.55049667516564
 21
10.44087653306682
 31
10.0
  0
HATCH
  5
1C5
330
164
100
AcDbEntity
  8
Schraffur (ISO)
100
AcDbHatch
 10
0.0
 20
0.0
 30
0.0
210
0.0
220
0.0
230
1.0
  2
SOLID
 70
     1
 71
     1
 91
        1
 92
        1
 93
       12
 72
     1
 10
-30.66444567516566
 20
11.58162453306683
 11
-28.55049667516564
 21
11.58162453306683
 72
     1
 10
-28.55049667516564
 20
11.58162453306683
 11
-28.55049667516564
 21
10.44087653306682
 72
     1
 10
-28.55049667516564
 20
10.44087653306682
 11
-32.03334267516563
 21
10.44087653306682
 72
     1
 10
-32.03334267516563
 20
10.44087653306682
 11
-32.03334267516563
 21
16.44881753306684
 72
     1
 10
-32.03334267516563
 20
16.44881753306684
 11
-28.6408056751657
 21
16.44881753306684
 72
     1
 10
-28.6408056751657
 20
16.44881753306684
 11
-28.6408056751657
 21
15.30806953306683
 72
     1
 10
-28.6408056751657
 20
15.30806953306683
 11
-30.66444567516566
 21
15.30806953306683
 72
     1
 10
-30.66444567516566
 20
15.30806953306683
 11
-30.66444567516566
 21
14.09127053306683
 72
     1
 10
-30.66444567516566
 20
14.09127053306683
 11
-28.76438667516563
 21
14.09127053306683
 72
     1
 10
-28.76438667516563
 20
14.09127053306683
 11
-28.76438667516563
 21
12.95052253306684
 72
     1
 10
-28.76438667516563
 20
12.95052253306684
 11
-30.66444567516566
 21
12.95052253306684
 72
     1
 10
-30.66444567516566
 20
12.95052253306684
 11
-30.66444567516566
 21
11.58162453306683
 97
       12
330
1B9
330
1C4
330
1C3
330
1C2
330
1C1
330
1C0
330
1BF
330
1BE
330
1BD
330
1BC
330
1BB
330
1BA
 75
     0
 76
     1
 98
        1
 10
0.0
 20
0.0
450
        0
451
        0
460
0.0
461
0.0
452
        0
462
0.0
453
        0
470

  0
LINE
  5
1C6
102
{ACAD_REACTORS
330
1D3
102
}
330
164
100
AcDbEntity
  8
0
100
AcDbLine
 10
-25.43246658829611
 20
16.4546514228036
 30
10.0
 11
-23.90435631161623
 21
16.46180057898531
 31
10.0
  0
LINE
  5
1C7
102
{ACAD_REACTORS
330
1D3
102
}
330
164
100
AcDbEntity
  8
0
100
AcDbLine
 10
-26.01549057645176
 20
14.58511635645683
 30
10.0
 11
-25.43246658829611
 21
16.4546514228036
 31
10.0
  0
LINE
  5
1C8
102
{ACAD_REACTORS
330
1D3
102
}
330
164
100
AcDbEntity
  8
0
100
AcDbLine
 10
-26.03093740740494
 20
14.58504408954738
 30
10.0
 11
-26.01549057645176
 21
14.58511635645683
 31
10.0
  0
LINE
  5
1C9
102
{ACAD_REACTORS
330
1D3
102
}
330
164
100
AcDbEntity
  8
0
100
AcDbLine
 10
-26.64612930682606
 20
16.44881753306684
 30
10.0
 11
-26.03093740740494
 21
14.58504408954738
 31
10.0
  0
LINE
  5
1CA
102
{ACAD_REACTORS
330
1D3
102
}
330
164
100
AcDbEntity
  8
0
100
AcDbLine
 10
-28.16787067516568
 20
16.44881753306684
 30
10.0
 11
-26.64612930682606
 21
16.44881753306684
 31
10.0
  0
LINE
  5
1CB
102
{ACAD_REACTORS
330
1D3
102
}
330
164
100
AcDbEntity
  8
0
100
AcDbLine
 10
-26.87026967516569
 20
13.49475453306683
 30
10.0
 11
-28.16787067516568
 21
16.44881753306684
 31
10.0
  0
LINE
  5
1CC
102
{ACAD_REACTORS
330
1D3
102
}
330
164
100
AcDbEntity
  8
0
100
AcDbLine
 10
-28.30689867516558
 20
10.44087653306682
 30
10.0
 11
-26.87026967516569
 21
13.49475453306683
 31
10.0
  0
LINE
  5
1CD
102
{ACAD_REACTORS
330
1D3
102
}
330
164
100
AcDbEntity
  8
0
100
AcDbLine
 10
-26.78946667516559
 20
10.44087653306682
 30
10.0
 11
-28.30689867516558
 21
10.44087653306682
 31
10.0
  0
LINE
  5
1CE
102
{ACAD_REACTORS
330
1D3
102
}
330
164
100
AcDbEntity
  8
0
100
AcDbLine
 10
-26.0800636751657
 20
12.44669253306682
 30
10.0
 11
-26.78946667516559
 21
10.44087653306682
 31
10.0
  0
LINE
  5
1CF
102
{ACAD_REACTORS
330
1D3
102
}
330
164
100
AcDbEntity
  8
0
100
AcDbLine
 10
-25.52255357088104
 20
10.44087653306682
 30
10.0
 11
-26.0800636751657
 21
12.44669253306682
 31
10.0
  0
LINE
  5
1D0
102
{ACAD_REACTORS
330
1D3
102
}
330
164
100
AcDbEntity
  8
0
100
AcDbLine
 10
-23.91733373362687
 20
10.44087653306682
 30
10.0
 11
-25.52255357088104
 21
10.44087653306682
 31
10.0
  0
LINE
  5
1D1
102
{ACAD_REACTORS
330
1D3
102
}
330
164
100
AcDbEntity
  8
0
100
AcDbLine
 10
-25.16745525516015
 20
13.49429112836466
 30
10.0
 11
-23.91733373362687
 21
10.44087653306682
 31
10.0
  0
LINE
  5
1D2
102
{ACAD_REACTORS
330
1D3
102
}
330
164
100
AcDbEntity
  8
0
100
AcDbLine
 10
-23.90435631161623
 20
16.46180057898531
 30
10.0
 11
-25.16745525516015
 21
13.49429112836466
 31
10.0
  0
HATCH
  5
1D3
330
164
100
AcDbEntity
  8
Schraffur (ISO)
100
AcDbHatch
 10
0.0
 20
0.0
 30
0.0
210
0.0
220
0.0
230
1.0
  2
SOLID
 70
     1
 71
     1
 91
        1
 92
        1
 93
       13
 72
     1
 10
-25.43246658829611
 20
16.4546514228036
 11
-23.90435631161623
 21
16.46180057898531
 72
     1
 10
-23.90435631161623
 20
16.46180057898531
 11
-25.16745525516015
 21
13.49429112836467
 72
     1
 10
-25.16745525516015
 20
13.49429112836466
 11
-23.91733373362687
 21
10.44087653306682
 72
     1
 10
-23.91733373362687
 20
10.44087653306682
 11
-25.52255357088104
 21
10.44087653306682
 72
     1
 10
-25.52255357088104
 20
10.44087653306682
 11
-26.0800636751657
 21
12.44669253306682
 72
     1
 10
-26.0800636751657
 20
12.44669253306682
 11
-26.78946667516559
 21
10.44087653306682
 72
     1
 10
-26.78946667516559
 20
10.44087653306682
 11
-28.30689867516558
 21
10.44087653306682
 72
     1
 10
-28.30689867516558
 20
10.44087653306682
 11
-26.87026967516569
 21
13.49475453306683
 72
     1
 10
-26.87026967516569
 20
13.49475453306683
 11
-28.16787067516568
 21
16.44881753306684
 72
     1
 10
-28.16787067516568
 20
16.44881753306684
 11
-26.64612930682606
 21
16.44881753306684
 72
     1
 10
-26.64612930682606
 20
16.44881753306684
 11
-26.03093740740494
 21
14.58504408954738
 72
     1
 10
-26.03093740740494
 20
14.58504408954738
 11
-26.01549057645176
 21
14.58511635645683
 72
     1
 10
-26.01549057645176
 20
14.58511635645683
 11
-25.43246658829611
 21
16.4546514228036
 97
       13
330
1C6
330
1D2
330
1D1
330
1D0
330
1CF
330
1CE
330
1CD
330
1CC
330
1CB
330
1CA
330
1C9
330
1C8
330
1C7
 75
     0
 76
     1
 98
        1
 10
0.0
 20
0.0
450
        0
451
        0
460
0.0
461
0.0
452
        0
462
0.0
453
        0
470

  0
LINE
  5
1D4
330
164
100
AcDbEntity
  8
Skizziergeometrie (ISO)
100
AcDbLine
 10
-66.74197817516563
 20
0.2208965330668366
 30
0.0
 11
-53.44197817516562
 21
0.2208965330668366
 31
0.0
  0
LINE
  5
1D5
330
164
100
AcDbEntity
  8
Skizziergeometrie (ISO)
100
AcDbLine
 10
-53.44197817516562
 20
0.2208965330668366
 30
0.0
 11
-53.44197817516562
 21
13.52089653306683
 31
0.0
  0
LINE
  5
1D6
330
164
100
AcDbEntity
  8
Skizziergeometrie (ISO)
100
AcDbLine
 10
-53.44197817516562
 20
13.52089653306683
 30
0.0
 11
-66.74197817516563
 21
13.52089653306683
 31
0.0
  0
LINE
  5
1D7
330
164
100
AcDbEntity
  8
Skizziergeometrie (ISO)
100
AcDbLine
 10
-66.74197817516563
 20
13.52089653306683
 30
0.0
 11
-66.74197817516563
 21
0.2208965330668366
 31
0.0
  0
LINE
  5
1D8
330
164
100
AcDbEntity
  8
Skizziergeometrie (ISO)
100
AcDbLine
 10
-74.30834701753944
 20
20.17089653306684
 30
0.0
 11
-61.00834701753945
 21
20.17089653306684
 31
0.0
  0
LINE
  5
1D9
330
164
100
AcDbEntity
  8
Skizziergeometrie (ISO)
100
AcDbLine
 10
-61.00834701753945
 20
20.17089653306684
 30
0.0
 11
-61.00834701753945
 21
6.870896533066837
 31
0.0
  0
LINE
  5
1DA
330
164
100
AcDbEntity
  8
Skizziergeometrie (ISO)
100
AcDbLine
 10
-61.00834701753945
 20
6.870896533066837
 30
0.0
 11
-74.30834701753944
 21
6.870896533066837
 31
0.0
  0
LINE
  5
1DB
330
164
100
AcDbEntity
  8
Skizziergeometrie (ISO)
100
AcDbLine
 10
-74.30834701753944
 20
6.870896533066837
 30
0.0
 11
-74.30834701753944
 21
20.17089653306684
 31
0.0
  0
LINE
  5
1DC
330
164
100
AcDbEntity
  8
Skizziergeometrie (ISO)
100
AcDbLine
 10
-49.79098967516563
 20
25.34881753306685
 30
0.0
 11
-36.49098967516564
 21
25.34881753306685
 31
0.0
  0
LINE
  5
1DD
330
164
100
AcDbEntity
  8
Skizziergeometrie (ISO)
100
AcDbLine
 10
-36.49098967516564
 20
25.34881753306685
 30
0.0
 11
-36.49098967516564
 21
12.04881753306685
 31
0.0
  0
LINE
  5
1DE
330
164
100
AcDbEntity
  8
Skizziergeometrie (ISO)
100
AcDbLine
 10
-36.49098967516564
 20
12.04881753306685
 30
0.0
 11
-49.79098967516563
 21
12.04881753306685
 31
0.0
  0
LINE
  5
1DF
330
164
100
AcDbEntity
  8
Skizziergeometrie (ISO)
100
AcDbLine
 10
-49.79098967516563
 20
12.04881753306685
 30
0.0
 11
-49.79098967516563
 21
25.34881753306685
 31
0.0
  0
MTEXT
  5
1E0
330
164
100
AcDbEntity
  8
Titel (ISO)
100
AcDbMText
 10
-23.23075129610368
 20
16.30481426074307
 30
0.0
 40
2.5
 41
0.0
 71
     4
 72
     1
  1
\fAIGDT|b0|i0;\H2.5000;}
  7
Notiztext (DIN)
 73
     1
 44
1.0
  0
ENDBLK
  5
166
330
164
100
AcDbEntity
  8
0
100
AcDbBlockEnd
  0
BLOCK
  5
1E2
330
1E1
100
AcDbEntity
  8
0
100
AcDbBlockBegin
  2
P gross
 70
     0
 10
0.0
 20
0.0
 30
0.0
  3
P gross
  1

  0
LINE
  5
1E4
102
{ACAD_REACTORS
330
1F2
102
}
330
1E1
100
AcDbEntity
  8
0
100
AcDbLine
 10
8.769225522167296
 20
4.689310313762291
 30
0.0
 11
7.981577449080567
 21
4.689310313762327
 31
0.0
  0
LINE
  5
1E5
102
{ACAD_REACTORS
330
1F2
102
}
330
1E1
100
AcDbEntity
  8
0
100
AcDbLine
 10
7.981577449080567
 20
4.689310313762327
 30
0.0
 11
7.981577449080567
 21
0.7845927762325644
 31
0.0
  0
LINE
  5
1E6
102
{ACAD_REACTORS
330
1F2
102
}
330
1E1
100
AcDbEntity
  8
0
100
AcDbLine
 10
7.981577449080567
 20
0.7845927762325644
 30
0.0
 11
8.769225522167296
 21
0.7845927762325644
 31
0.0
  0
ARC
  5
1E7
102
{ACAD_REACTORS
330
1F2
102
}
330
1E1
100
AcDbEntity
  8
0
100
AcDbCircle
 10
8.769225522167296
 20
2.284592776232585
 30
0.0
 40
1.5
100
AcDbArc
 50
270.0
 51
0.0
  0
LINE
  5
1E8
102
{ACAD_REACTORS
330
1F2
102
}
330
1E1
100
AcDbEntity
  8
0
100
AcDbLine
 10
10.26922552216724
 20
2.284592776232585
 30
0.0
 11
10.26922552216728
 21
3.189310313762341
 31
0.0
  0
ARC
  5
1E9
102
{ACAD_REACTORS
330
1F2
102
}
330
1E1
100
AcDbEntity
  8
0
100
AcDbCircle
 10
8.769225522167296
 20
3.189310313762341
 30
0.0
 40
1.5
100
AcDbArc
 50
0.0
 51
90.0
  0
LINE
  5
1EA
102
{ACAD_REACTORS
330
1F2
102
}
330
1E1
100
AcDbEntity
  8
0
100
AcDbLine
 10
4.481577449080553
 20
7.033965470643472
 30
0.0
 11
4.481577449080553
 21
-7.033965470643472
 31
0.0
  0
LINE
  5
1EB
102
{ACAD_REACTORS
330
1F2
102
}
330
1E1
100
AcDbEntity
  8
0
100
AcDbLine
 10
9.557661927330194
 20
7.033965470643472
 30
0.0
 11
4.481577449080553
 21
7.033965470643472
 31
0.0
  0
ARC
  5
1EC
102
{ACAD_REACTORS
330
1F2
102
}
330
1E1
100
AcDbEntity
  8
0
100
AcDbCircle
 10
9.557661927330194
 20
3.033965470643487
 30
0.0
 40
4.0
100
AcDbArc
 50
0.0
 51
90.0
  0
LINE
  5
1ED
102
{ACAD_REACTORS
330
1F2
102
}
330
1E1
100
AcDbEntity
  8
0
100
AcDbLine
 10
13.55766192733018
 20
2.439937619351439
 30
0.0
 11
13.55766192733018
 21
3.033965470643487
 31
0.0
  0
ARC
  5
1EE
102
{ACAD_REACTORS
330
1F2
102
}
330
1E1
100
AcDbEntity
  8
0
100
AcDbCircle
 10
9.557661927330194
 20
2.439937619351439
 30
0.0
 40
4.0
100
AcDbArc
 50
270.0
 51
0.0
  0
LINE
  5
1EF
102
{ACAD_REACTORS
330
1F2
102
}
330
1E1
100
AcDbEntity
  8
0
100
AcDbLine
 10
7.981577449080603
 20
-1.560062380648581
 30
0.0
 11
9.557661927330194
 21
-1.560062380648581
 31
0.0
  0
LINE
  5
1F0
102
{ACAD_REACTORS
330
1F2
102
}
330
1E1
100
AcDbEntity
  8
0
100
AcDbLine
 10
7.981577449080567
 20
-7.033965470643508
 30
0.0
 11
7.981577449080603
 21
-1.560062380648581
 31
0.0
  0
LINE
  5
1F1
102
{ACAD_REACTORS
330
1F2
102
}
330
1E1
100
AcDbEntity
  8
0
100
AcDbLine
 10
4.481577449080553
 20
-7.033965470643472
 30
0.0
 11
7.981577449080567
 21
-7.033965470643508
 31
0.0
  0
HATCH
  5
1F2
330
1E1
100
AcDbEntity
  8
Schraffur (ISO)
100
AcDbHatch
 10
0.0
 20
0.0
 30
0.0
210
0.0
220
0.0
230
1.0
  2
SOLID
 70
     1
 71
     1
 91
        2
 92
        0
 93
        6
 72
     1
 10
8.769225522167296
 20
4.689310313762291
 11
7.981577449080567
 21
4.689310313762327
 72
     1
 10
7.981577449080567
 20
4.689310313762327
 11
7.981577449080567
 21
0.7845927762325644
 72
     1
 10
7.981577449080567
 20
0.7845927762325644
 11
8.769225522167296
 21
0.7845927762325644
 72
     2
 10
8.769225522167296
 20
2.284592776232585
 40
1.5
 50
270.0
 51
360.0
 73
     1
 72
     1
 10
10.26922552216724
 20
2.284592776232585
 11
10.26922552216728
 21
3.189310313762341
 72
     2
 10
8.769225522167296
 20
3.189310313762341
 40
1.5
 50
0.0
 51
90.0
 73
     1
 97
        6
330
1E4
330
1E5
330
1E6
330
1E7
330
1E8
330
1E9
 92
        1
 93
        8
 72
     1
 10
4.481577449080553
 20
7.033965470643472
 11
4.481577449080553
 21
-7.033965470643472
 72
     1
 10
4.481577449080553
 20
-7.033965470643472
 11
7.981577449080567
 21
-7.033965470643508
 72
     1
 10
7.981577449080567
 20
-7.033965470643508
 11
7.981577449080603
 21
-1.560062380648581
 72
     1
 10
7.981577449080603
 20
-1.560062380648581
 11
9.557661927330194
 21
-1.560062380648581
 72
     2
 10
9.557661927330194
 20
2.439937619351439
 40
4.0
 50
270.0
 51
360.0
 73
     1
 72
     1
 10
13.55766192733018
 20
2.439937619351439
 11
13.55766192733018
 21
3.033965470643487
 72
     2
 10
9.557661927330194
 20
3.033965470643487
 40
4.0
 50
0.0
 51
90.0
 73
     1
 72
     1
 10
9.557661927330194
 20
7.033965470643472
 11
4.481577449080553
 21
7.033965470643472
 97
        8
330
1EA
330
1F1
330
1F0
330
1EF
330
1EE
330
1ED
330
1EC
330
1EB
 75
     0
 76
     1
 98
        1
 10
0.0
 20
0.0
450
        0
451
        0
460
0.0
461
0.0
452
        0
462
0.0
453
        0
470

  0
LINE
  5
1F3
330
1E1
100
AcDbEntity
  8
Skizziergeometrie (ISO)
100
AcDbLine
 10
-13.99999999999998
 20
14.00746616799352
 30
0.0
 11
14.00000000000002
 21
14.00746616799352
 31
0.0
  0
LINE
  5
1F4
330
1E1
100
AcDbEntity
  8
Skizziergeometrie (ISO)
100
AcDbLine
 10
14.00000000000002
 20
14.00746616799352
 30
0.0
 11
14.00000000000002
 21
-14.00746616799352
 31
0.0
  0
LINE
  5
1F5
330
1E1
100
AcDbEntity
  8
Skizziergeometrie (ISO)
100
AcDbLine
 10
14.00000000000002
 20
-14.00746616799352
 30
0.0
 11
-13.99999999999998
 21
-14.00746616799352
 31
0.0
  0
LINE
  5
1F6
330
1E1
100
AcDbEntity
  8
Skizziergeometrie (ISO)
100
AcDbLine
 10
-13.99999999999998
 20
-14.00746616799352
 30
0.0
 11
-13.99999999999998
 21
14.00746616799352
 31
0.0
  0
LINE
  5
1F7
330
1E1
100
AcDbEntity
  8
Skizziergeometrie (ISO)
100
AcDbLine
 10
4.481577449080553
 20
7.033965470643472
 30
0.0
 11
4.481577449080553
 21
-7.033965470643472
 31
0.0
  0
LINE
  5
1F8
330
1E1
100
AcDbEntity
  8
Skizziergeometrie (ISO)
100
AcDbLine
 10
4.481577449080553
 20
-7.033965470643472
 30
0.0
 11
7.981577449080567
 21
-7.033965470643508
 31
0.0
  0
LINE
  5
1F9
330
1E1
100
AcDbEntity
  8
Skizziergeometrie (ISO)
100
AcDbLine
 10
7.981577449080567
 20
-7.033965470643508
 30
0.0
 11
7.981577449080603
 21
-1.560062380648581
 31
0.0
  0
LINE
  5
1FA
330
1E1
100
AcDbEntity
  8
Skizziergeometrie (ISO)
100
AcDbLine
 10
7.981577449080603
 20
-1.560062380648581
 30
0.0
 11
9.557661927330194
 21
-1.560062380648581
 31
0.0
  0
LINE
  5
1FB
330
1E1
100
AcDbEntity
  8
Skizziergeometrie (ISO)
100
AcDbLine
 10
9.557661927330194
 20
7.033965470643472
 30
0.0
 11
4.481577449080553
 21
7.033965470643472
 31
0.0
  0
ARC
  5
1FC
330
1E1
100
AcDbEntity
  8
Skizziergeometrie (ISO)
100
AcDbCircle
 10
9.557661927330194
 20
2.439937619351439
 30
0.0
 40
4.0
100
AcDbArc
 50
270.0
 51
0.0
  0
LINE
  5
1FD
330
1E1
100
AcDbEntity
  8
Skizziergeometrie (ISO)
100
AcDbLine
 10
13.55766192733018
 20
2.439937619351439
 30
0.0
 11
13.55766192733018
 21
3.033965470643487
 31
0.0
  0
ARC
  5
1FE
330
1E1
100
AcDbEntity
  8
Skizziergeometrie (ISO)
100
AcDbCircle
 10
9.557661927330194
 20
3.033965470643487
 30
0.0
 40
4.0
100
AcDbArc
 50
0.0
 51
90.0
  0
LINE
  5
1FF
330
1E1
100
AcDbEntity
  8
Skizziergeometrie (ISO)
100
AcDbLine
 10
7.981577449080567
 20
0.7845927762325644
 30
0.0
 11
7.981577449080567
 21
4.689310313762327
 31
0.0
  0
LINE
  5
200
330
1E1
100
AcDbEntity
  8
Skizziergeometrie (ISO)
100
AcDbLine
 10
7.981577449080567
 20
4.689310313762327
 30
0.0
 11
8.769225522167296
 21
4.689310313762291
 31
0.0
  0
ARC
  5
201
330
1E1
100
AcDbEntity
  8
Skizziergeometrie (ISO)
100
AcDbCircle
 10
8.769225522167296
 20
3.189310313762341
 30
0.0
 40
1.5
100
AcDbArc
 50
0.0
 51
90.0
  0
LINE
  5
202
330
1E1
100
AcDbEntity
  8
Skizziergeometrie (ISO)
100
AcDbLine
 10
10.26922552216728
 20
3.189310313762341
 30
0.0
 11
10.26922552216724
 21
2.284592776232585
 31
0.0
  0
ARC
  5
203
330
1E1
100
AcDbEntity
  8
Skizziergeometrie (ISO)
100
AcDbCircle
 10
8.769225522167296
 20
2.284592776232585
 30
0.0
 40
1.5
100
AcDbArc
 50
270.0
 51
0.0
  0
LINE
  5
204
330
1E1
100
AcDbEntity
  8
Skizziergeometrie (ISO)
100
AcDbLine
 10
8.769225522167296
 20
0.7845927762325644
 30
0.0
 11
7.981577449080567
 21
0.7845927762325644
 31
0.0
  0
ENDBLK
  5
1E3
330
1E1
100
AcDbEntity
  8
0
100
AcDbBlockEnd
  0
ENDSEC
  0
SECTION
  2
ENTITIES
  0
LINE
  5
205
330
37
100
AcDbEntity
  8
Sichtbar (ISO)
100
AcDbLine
 10
257.5581896544286
 20
973.1505690984226
 30
0.0
 11
288.3662340152815
 21
973.1505690984226
 31
0.0
  0
POLYLINE
  5
206
330
37
100
AcDbEntity
  8
Sichtbar (ISO)
100
AcDb2dPolyline
 66
     1
 10
0.0
 20
0.0
 30
0.0
 70
   128
  0
VERTEX
  5
207
330
206
100
AcDbEntity
  8
Sichtbar (ISO)
100
AcDbVertex
100
AcDb2dVertex
 10
254.9424657697152
 20
976.2679012130842
 30
0.0
  0
VERTEX
  5
208
330
206
100
AcDbEntity
  8
Sichtbar (ISO)
100
AcDbVertex
100
AcDb2dVertex
 10
255.001039254136
 20
976.2793166946515
 30
0.0
  0
VERTEX
  5
20A
330
206
100
AcDbEntity
  8
Sichtbar (ISO)
100
AcDbVertex
100
AcDb2dVertex
 10
255.1765165204477
 20
976.3135631393538
 30
0.0
  0
VERTEX
  5
20B
330
206
100
AcDbEntity
  8
Sichtbar (ISO)
100
AcDbVertex
100
AcDb2dVertex
 10
255.46742771811
 20
976.3700588058576
 30
0.0
  0
VERTEX
  5
20C
330
206
100
AcDbEntity
  8
Sichtbar (ISO)
100
AcDbVertex
100
AcDb2dVertex
 10
255.872279154725
 20
976.4480407547102
 30
0.0
  0
VERTEX
  5
20D
330
206
100
AcDbEntity
  8
Sichtbar (ISO)
100
AcDbVertex
100
AcDb2dVertex
 10
256.3894388551187
 20
976.5467269729718
 30
0.0
  0
VERTEX
  5
20E
330
206
100
AcDbEntity
  8
Sichtbar (ISO)
100
AcDbVertex
100
AcDb2dVertex
 10
257.0146474713754
 20
976.664677412425
 30
0.0
  0
VERTEX
  5
20F
330
206
100
AcDbEntity
  8
Sichtbar (ISO)
100
AcDbVertex
100
AcDb2dVertex
 10
257.7440187806558
 20
976.8002231430159
 30
0.0
  0
VERTEX
  5
210
330
206
100
AcDbEntity
  8
Sichtbar (ISO)
100
AcDbVertex
100
AcDb2dVertex
 10
258.5742864484262
 20
976.9518096756087
 30
0.0
  0
VERTEX
  5
211
330
206
100
AcDbEntity
  8
Sichtbar (ISO)
100
AcDbVertex
100
AcDb2dVertex
 10
259.5021841401529
 20
977.1178539108381
 30
0.0
  0
VERTEX
  5
212
330
206
100
AcDbEntity
  8
Sichtbar (ISO)
100
AcDbVertex
100
AcDb2dVertex
 10
260.5220923299264
 20
977.2963149856671
 30
0.0
  0
VERTEX
  5
213
330
206
100
AcDbEntity
  8
Sichtbar (ISO)
100
AcDbVertex
100
AcDb2dVertex
 10
261.625613915391
 20
977.4845035385236
 30
0.0
  0
VERTEX
  5
214
330
206
100
AcDbEntity
  8
Sichtbar (ISO)
100
AcDbVertex
100
AcDb2dVertex
 10
262.8076145524453
 20
977.6803977798566
 30
0.0
  0
VERTEX
  5
215
330
206
100
AcDbEntity
  8
Sichtbar (ISO)
100
AcDbVertex
100
AcDb2dVertex
 10
264.0630195016336
 20
977.8819759201155
 30
0.0
  0
VERTEX
  5
216
330
206
100
AcDbEntity
  8
Sichtbar (ISO)
100
AcDbVertex
100
AcDb2dVertex
 10
265.3867647523355
 20
978.0872066330061
 30
0.0
  0
VERTEX
  5
217
330
206
100
AcDbEntity
  8
Sichtbar (ISO)
100
AcDbVertex
100
AcDb2dVertex
 10
266.771263825364
 20
978.2936771225081
 30
0.0
  0
VERTEX
  5
218
330
206
100
AcDbEntity
  8
Sichtbar (ISO)
100
AcDbVertex
100
AcDb2dVertex
 10
268.2034275407267
 20
978.4983642410383
 30
0.0
  0
VERTEX
  5
219
330
206
100
AcDbEntity
  8
Sichtbar (ISO)
100
AcDbVertex
100
AcDb2dVertex
 10
269.6762392396402
 20
978.6994941543683
 30
0.0
  0
VERTEX
  5
21A
330
206
100
AcDbEntity
  8
Sichtbar (ISO)
100
AcDbVertex
100
AcDb2dVertex
 10
271.1831233376932
 20
978.8953979324446
 30
0.0
  0
VERTEX
  5
21B
330
206
100
AcDbEntity
  8
Sichtbar (ISO)
100
AcDbVertex
100
AcDb2dVertex
 10
272.7175066346597
 20
979.0844161819563
 30
0.0
  0
VERTEX
  5
21C
330
206
100
AcDbEntity
  8
Sichtbar (ISO)
100
AcDbVertex
100
AcDb2dVertex
 10
274.2692062730264
 20
979.264479429637
 30
0.0
  0
VERTEX
  5
21D
330
206
100
AcDbEntity
  8
Sichtbar (ISO)
100
AcDbVertex
100
AcDb2dVertex
 10
275.8213279122781
 20
979.4334419082746
 30
0.0
  0
VERTEX
  5
21E
330
206
100
AcDbEntity
  8
Sichtbar (ISO)
100
AcDbVertex
100
AcDb2dVertex
 10
277.3662230843973
 20
979.5906646560773
 30
0.0
  0
VERTEX
  5
21F
330
206
100
AcDbEntity
  8
Sichtbar (ISO)
100
AcDbVertex
100
AcDb2dVertex
 10
278.8968322152566
 20
979.7356040786848
 30
0.0
  0
VERTEX
  5
220
330
206
100
AcDbEntity
  8
Sichtbar (ISO)
100
AcDbVertex
100
AcDb2dVertex
 10
280.4060933465433
 20
979.8676975082502
 30
0.0
  0
SEQEND
  5
209
330
206
100
AcDbEntity
  8
Sichtbar (ISO)
  0
POLYLINE
  5
221
330
37
100
AcDbEntity
  8
Sichtbar (ISO)
100
AcDb2dPolyline
 66
     1
 10
0.0
 20
0.0
 30
0.0
 70
   128
  0
VERTEX
  5
222
330
221
100
AcDbEntity
  8
Sichtbar (ISO)
100
AcDbVertex
100
AcDb2dVertex
 10
280.4060933465433
 20
979.8676975082502
 30
0.0
  0
VERTEX
  5
223
330
221
100
AcDbEntity
  8
Sichtbar (ISO)
100
AcDbVertex
100
AcDb2dVertex
 10
281.64618228621
 20
980.0617988418684
 30
0.0
  0
VERTEX
  5
225
330
221
100
AcDbEntity
  8
Sichtbar (ISO)
100
AcDbVertex
100
AcDb2dVertex
 10
282.8657553071451
 20
980.2760417770491
 30
0.0
  0
VERTEX
  5
226
330
221
100
AcDbEntity
  8
Sichtbar (ISO)
100
AcDbVertex
100
AcDb2dVertex
 10
284.0623972291421
 20
980.508909971629
 30
0.0
  0
VERTEX
  5
227
330
221
100
AcDbEntity
  8
Sichtbar (ISO)
100
AcDbVertex
100
AcDb2dVertex
 10
285.2337047929239
 20
980.7589061569318
 30
0.0
  0
VERTEX
  5
228
330
221
100
AcDbEntity
  8
Sichtbar (ISO)
100
AcDbVertex
100
AcDb2dVertex
 10
286.3772747392129
 20
981.0245235275374
 30
0.0
  0
VERTEX
  5
229
330
221
100
AcDbEntity
  8
Sichtbar (ISO)
100
AcDbVertex
100
AcDb2dVertex
 10
287.4906990403604
 20
981.3042552780256
 30
0.0
  0
VERTEX
  5
22A
330
221
100
AcDbEntity
  8
Sichtbar (ISO)
100
AcDbVertex
100
AcDb2dVertex
 10
288.5715696687173
 20
981.5965946029768
 30
0.0
  0
VERTEX
  5
22B
330
221
100
AcDbEntity
  8
Sichtbar (ISO)
100
AcDbVertex
100
AcDb2dVertex
 10
289.6174785966348
 20
981.9000442337141
 30
0.0
  0
VERTEX
  5
22C
330
221
100
AcDbEntity
  8
Sichtbar (ISO)
100
AcDbVertex
100
AcDb2dVertex
 10
290.6228277558755
 20
982.2118194412336
 30
0.0
  0
VERTEX
  5
22D
330
221
100
AcDbEntity
  8
Sichtbar (ISO)
100
AcDbVertex
100
AcDb2dVertex
 10
291.5770504350137
 20
982.5262935470686
 30
0.0
  0
VERTEX
  5
22E
330
221
100
AcDbEntity
  8
Sichtbar (ISO)
100
AcDbVertex
100
AcDb2dVertex
 10
292.4782059068155
 20
982.8403003524885
 30
0.0
  0
VERTEX
  5
22F
330
221
100
AcDbEntity
  8
Sichtbar (ISO)
100
AcDbVertex
100
AcDb2dVertex
 10
293.3248445863199
 20
983.1508739303693
 30
0.0
  0
VERTEX
  5
230
330
221
100
AcDbEntity
  8
Sichtbar (ISO)
100
AcDbVertex
100
AcDb2dVertex
 10
294.1155264253091
 20
983.4550388168439
 30
0.0
  0
VERTEX
  5
231
330
221
100
AcDbEntity
  8
Sichtbar (ISO)
100
AcDbVertex
100
AcDb2dVertex
 10
294.8487970704507
 20
983.749810011302
 30
0.0
  0
VERTEX
  5
232
330
221
100
AcDbEntity
  8
Sichtbar (ISO)
100
AcDbVertex
100
AcDb2dVertex
 10
295.524036633439
 20
984.0325744461164
 30
0.0
  0
VERTEX
  5
233
330
221
100
AcDbEntity
  8
Sichtbar (ISO)
100
AcDbVertex
100
AcDb2dVertex
 10
296.1491415376138
 20
984.3043811630353
 30
0.0
  0
VERTEX
  5
234
330
221
100
AcDbEntity
  8
Sichtbar (ISO)
100
AcDbVertex
100
AcDb2dVertex
 10
296.7218706483316
 20
984.5619685958967
 30
0.0
  0
VERTEX
  5
235
330
221
100
AcDbEntity
  8
Sichtbar (ISO)
100
AcDbVertex
100
AcDb2dVertex
 10
297.2364017838907
 20
984.8005397628888
 30
0.0
  0
VERTEX
  5
236
330
221
100
AcDbEntity
  8
Sichtbar (ISO)
100
AcDbVertex
100
AcDb2dVertex
 10
297.6868650788736
 20
985.0152499984845
 30
0.0
  0
VERTEX
  5
237
330
221
100
AcDbEntity
  8
Sichtbar (ISO)
100
AcDbVertex
100
AcDb2dVertex
 10
298.0672714585733
 20
985.200882704173
 30
0.0
  0
VERTEX
  5
238
330
221
100
AcDbEntity
  8
Sichtbar (ISO)
100
AcDbVertex
100
AcDb2dVertex
 10
298.3720514649819
 20
985.3525836776839
 30
0.0
  0
VERTEX
  5
239
330
221
100
AcDbEntity
  8
Sichtbar (ISO)
100
AcDbVertex
100
AcDb2dVertex
 10
298.5956261033487
 20
985.4655559372053
 30
0.0
  0
VERTEX
  5
23A
330
221
100
AcDbEntity
  8
Sichtbar (ISO)
100
AcDbVertex
100
AcDb2dVertex
 10
298.7319681519937
 20
985.5351360153303
 30
0.0
  0
VERTEX
  5
23B
330
221
100
AcDbEntity
  8
Sichtbar (ISO)
100
AcDbVertex
100
AcDb2dVertex
 10
298.7779161805582
 20
985.5587108444318
 30
0.0
  0
SEQEND
  5
224
330
221
100
AcDbEntity
  8
Sichtbar (ISO)
  0
LINE
  5
23C
330
37
100
AcDbEntity
  8
Sichtbar (ISO)
100
AcDbLine
 10
257.5581896544286
 20
971.6505690984226
 30
0.0
 11
288.3662340152815
 21
971.6505690984226
 31
0.0
  0
LINE
  5
23D
330
37
100
AcDbEntity
  8
Sichtbar (ISO)
100
AcDbLine
 10
257.5581896544286
 20
973.1505690984226
 30
0.0
 11
254.9424722151254
 21
976.2678597539235
 31
0.0
  0
LINE
  5
23E
330
37
100
AcDbEntity
  8
Sichtbar (ISO)
100
AcDbLine
 10
288.3662340152815
 20
973.1505690984226
 30
0.0
 11
298.7779113084286
 21
985.5587229174622
 31
0.0
  0
LINE
  5
23F
330
37
100
AcDbEntity
  8
Sichtbar (ISO)
100
AcDbLine
 10
288.3662340152815
 20
973.1505690984226
 30
0.0
 11
288.3662340152815
 21
971.6505690984226
 31
0.0
  0
LINE
  5
240
330
37
100
AcDbEntity
  8
Sichtbar (ISO)
100
AcDbLine
 10
257.5581896544286
 20
973.1505690984226
 30
0.0
 11
257.5581896544286
 21
971.6505690984226
 31
0.0
  0
LINE
  5
241
330
37
100
AcDbEntity
  8
Sichtbar (ISO)
100
AcDbLine
 10
237.962211834855
 20
974.046294386302
 30
0.0
 11
237.9622118348561
 21
1256.246294386302
 31
0.0
  0
LINE
  5
242
330
37
100
AcDbEntity
  8
Sichtbar (ISO)
100
AcDbLine
 10
245.962211834855
 20
974.046294386302
 30
0.0
 11
245.9622118348561
 21
1256.246294386302
 31
0.0
  0
ARC
  5
243
330
37
100
AcDbEntity
  8
Sichtbar (ISO)
100
AcDbCircle
 10
271.152778273005
 20
1029.613825059838
 30
0.0
 40
52.00000000000002
100
AcDbArc
 50
302.0901242750842
 51
346.9101954600413
  0
ARC
  5
244
330
37
100
AcDbEntity
  8
Sichtbar (ISO)
100
AcDbCircle
 10
271.1527782730056
 20
1200.678763712766
 30
0.0
 40
52.0
100
AcDbArc
 50
13.37825681424791
 51
79.74971895077352
  0
ARC
  5
245
330
37
100
AcDbEntity
  8
Sichtbar (ISO)
100
AcDbCircle
 10
-322.8958973347916
 20
1115.146294386302
 30
0.0
 40
652.000000000002
100
AcDbArc
 50
351.4166834032869
 51
354.9295070209515
  0
ARC
  5
246
330
37
100
AcDbEntity
  8
Sichtbar (ISO)
100
AcDbCircle
 10
-322.8958973347916
 20
1115.146294386302
 30
0.0
 40
652.000000000002
100
AcDbArc
 50
5.070492979048398
 51
8.026173598434565
  0
ARC
  5
247
330
37
100
AcDbEntity
  8
Sichtbar (ISO)
100
AcDbCircle
 10
298.6622118348611
 20
1059.996344926182
 30
0.0
 40
27.99999999999391
100
AcDbArc
 50
354.9295070209512
 51
0.0
  0
ARC
  5
248
330
37
100
AcDbEntity
  8
Sichtbar (ISO)
100
AcDbCircle
 10
298.6622118348615
 20
1170.296243846421
 30
0.0
 40
27.99999999999391
100
AcDbArc
 50
0.0
 51
5.070492979048039
  0
LINE
  5
249
330
37
100
AcDbEntity
  8
Sichtbar (ISO)
100
AcDbLine
 10
326.662211834855
 20
1059.996344926182
 30
0.0
 11
326.6622118348554
 21
1170.296243846421
 31
0.0
  0
LINE
  5
24A
330
37
100
AcDbEntity
  8
Sichtbar (ISO)
100
AcDbLine
 10
237.9622118348561
 20
1256.246294386302
 30
0.0
 11
245.9622118348561
 21
1256.246294386302
 31
0.0
  0
LINE
  5
24B
330
37
100
AcDbEntity
  8
Sichtbar (ISO)
100
AcDbLine
 10
237.962211834855
 20
974.046294386302
 30
0.0
 11
245.962211834855
 21
974.046294386302
 31
0.0
  0
ARC
  5
24C
330
37
100
AcDbEntity
  8
Sichtbar (ISO)
100
AcDbCircle
 10
240.9622118348537
 20
940.3361058273064
 30
0.0
 40
314.0000000000001
100
AcDbArc
 50
82.78358541199542
 51
89.08760826259715
  0
ARC
  5
24D
330
37
100
AcDbEntity
  8
Sichtbar (ISO)
100
AcDbCircle
 10
240.962211834855
 20
1289.956482945297
 30
0.0
 40
314.0000000000001
100
AcDbArc
 50
270.9123917374025
 51
272.5518305544018
  0
ARC
  5
24E
330
37
100
AcDbEntity
  8
Sichtbar (ISO)
100
AcDbCircle
 10
186.2622118348586
 20
1060.146294386304
 30
0.0
 40
27.99999999999999
100
AcDbArc
 50
180.0
 51
185.0566706522035
  0
ARC
  5
24F
330
37
100
AcDbEntity
  8
Sichtbar (ISO)
100
AcDbCircle
 10
186.2622118348567
 20
1170.146294386298
 30
0.0
 40
27.99999999999999
100
AcDbArc
 50
174.9433293477979
 51
180.0
  0
LINE
  5
250
330
37
100
AcDbEntity
  8
Sichtbar (ISO)
100
AcDbLine
 10
158.2622118348567
 20
1170.146294386298
 30
0.0
 11
158.2622118348586
 21
1060.146294386303
 31
0.0
  0
ARC
  5
251
330
37
100
AcDbEntity
  8
Sichtbar (ISO)
100
AcDbCircle
 10
807.833607573111
 20
1115.146294386302
 30
0.0
 40
652.0000000000114
100
AcDbArc
 50
185.0566706522036
 51
188.2136037843032
  0
ARC
  5
252
330
37
100
AcDbEntity
  8
Sichtbar (ISO)
100
AcDbCircle
 10
807.833607573111
 20
1115.146294386302
 30
0.0
 40
652.0000000000118
100
AcDbArc
 50
171.7863962156967
 51
174.9433293477962
  0
ARC
  5
253
330
37
100
AcDbEntity
  8
Sichtbar (ISO)
100
AcDbCircle
 10
213.9882044707574
 20
1029.427934543136
 30
0.0
 40
51.99999999999995
100
AcDbArc
 50
188.2136037843033
 51
264.1356115648932
  0
ARC
  5
254
330
37
100
AcDbEntity
  8
Sichtbar (ISO)
100
AcDbCircle
 10
213.9882044707543
 20
1200.864654229466
 30
0.0
 40
51.99999999999995
100
AcDbArc
 50
95.8643884351088
 51
171.7863962156984
  0
ARC
  5
255
330
37
100
AcDbEntity
  8
Sichtbar (ISO)
100
AcDbCircle
 10
240.9622118349829
 20
938.2462943863014
 30
0.0
 40
315.9999999999994
100
AcDbArc
 50
90.90658756635457
 51
95.86438843510913
  0
ARC
  5
256
330
37
100
AcDbEntity
  8
Sichtbar (ISO)
100
AcDbCircle
 10
240.9622118349766
 20
1292.046294386302
 30
0.0
 40
315.9999999999996
100
AcDbArc
 50
264.1356115648934
 51
269.0934124336475
  0
LINE
  5
257
330
37
100
AcDbEntity
  8
Sichtbar (ISO)
100
AcDbLine
 10
282.4597118348551
 20
942.6462943863018
 30
0.0
 11
263.4647118348551
 21
942.6462943863018
 31
0.0
  0
LINE
  5
258
330
37
100
AcDbEntity
  8
Sichtbar (ISO)
100
AcDbLine
 10
262.4647118348551
 20
943.6462943863018
 30
0.0
 11
283.459711834855
 21
943.6462943863018
 31
0.0
  0
LINE
  5
259
330
37
100
AcDbEntity
  8
Sichtbar (ISO)
100
AcDbLine
 10
263.4647118348551
 20
942.6462943863018
 30
0.0
 11
262.4647118348551
 21
943.6462943863018
 31
0.0
  0
LINE
  5
25A
330
37
100
AcDbEntity
  8
Sichtbar (ISO)
100
AcDbLine
 10
282.4597118348551
 20
942.6462943863018
 30
0.0
 11
283.459711834855
 21
943.6462943863018
 31
0.0
  0
LINE
  5
25B
330
37
100
AcDbEntity
  8
Sichtbar (ISO)
100
AcDbLine
 10
262.4647118348551
 20
943.6462943863018
 30
0.0
 11
262.4647118348551
 21
967.7177977587668
 31
0.0
  0
LINE
  5
25C
330
37
100
AcDbEntity
  8
Sichtbar (ISO)
100
AcDbLine
 10
283.459711834855
 20
943.6462943863018
 30
0.0
 11
283.459711834855
 21
967.7177977587668
 31
0.0
  0
LINE
  5
25D
330
37
100
AcDbEntity
  8
Sichtbar (ISO)
100
AcDbLine
 10
328.7909346337154
 20
1232.627261713345
 30
0.0
 11
327.1179424372126
 21
1250.001949985999
 31
0.0
  0
LINE
  5
25E
330
37
100
AcDbEntity
  8
Sichtbar (ISO)
100
AcDbLine
 10
329.1387969349946
 20
1225.47184414892
 30
0.0
 11
324.2729452289873
 21
1218.391985984498
 31
0.0
  0
LINE
  5
25F
330
37
100
AcDbEntity
  8
Sichtbar (ISO)
100
AcDbLine
 10
322.1784661513867
 20
1218.875534580494
 30
0.0
 11
327.0782345362639
 21
1226.004741818894
 31
0.0
  0
LINE
  5
260
330
37
100
AcDbEntity
  8
Sichtbar (ISO)
100
AcDbLine
 10
323.8712782119576
 20
1198.461073481983
 30
0.0
 11
321.3540177776871
 21
1215.304456340222
 31
0.0
  0
LINE
  5
261
330
37
100
AcDbEntity
  8
Sichtbar (ISO)
100
AcDbLine
 10
325.8493099386814
 20
1198.756692304242
 30
0.0
 11
323.8712782119576
 21
1198.461073481983
 31
0.0
  0
LINE
  5
262
330
37
100
AcDbEntity
  8
Sichtbar (ISO)
100
AcDbLine
 10
323.4484968552878
 20
1214.820907744226
 30
0.0
 11
325.8493099386814
 21
1198.756692304242
 31
0.0
  0
LINE
  5
263
330
37
100
AcDbEntity
  8
Sichtbar (ISO)
100
AcDbLine
 10
329.1087348339469
 20
1250.193641491039
 30
0.0
 11
330.8514970324462
 21
1232.09436404337
 31
0.0
  0
LINE
  5
264
330
37
100
AcDbEntity
  8
Sichtbar (ISO)
100
AcDbLine
 10
326.9353323357323
 20
1251.898428400716
 30
0.0
 11
327.1179424372126
 21
1250.001949985999
 31
0.0
  0
LINE
  5
265
330
37
100
AcDbEntity
  8
Sichtbar (ISO)
100
AcDbLine
 10
329.1087348339469
 20
1250.193641491039
 30
0.0
 11
327.1179424372126
 21
1250.001949985999
 31
0.0
  0
LINE
  5
266
330
37
100
AcDbEntity
  8
Sichtbar (ISO)
100
AcDbLine
 10
329.1087348339469
 20
1250.193641491039
 30
0.0
 11
328.9261247324667
 21
1252.090119905756
 31
0.0
  0
LINE
  5
267
330
37
100
AcDbEntity
  8
Sichtbar (ISO)
100
AcDbLine
 10
328.9261247324667
 20
1252.090119905756
 30
0.0
 11
326.9353323357323
 21
1251.898428400716
 31
0.0
  0
ARC
  5
268
330
37
100
AcDbEntity
  8
Sichtbar (ISO)
100
AcDbCircle
 10
318.8369726500436
 20
1231.668804188142
 30
0.0
 40
9.999999999999984
100
AcDbArc
 50
325.5000000000006
 51
5.499999999999979
  0
ARC
  5
269
330
37
100
AcDbEntity
  8
Sichtbar (ISO)
100
AcDbCircle
 10
320.8975350487744
 20
1231.135906518168
 30
0.0
 40
9.999999999999976
100
AcDbArc
 50
325.4999999999995
 51
5.499999999999979
  0
ARC
  5
26A
330
37
100
AcDbEntity
  8
Sichtbar (ISO)
100
AcDbCircle
 10
326.2990970944967
 20
1216.04350339587
 30
0.0
 40
5.000000000000008
100
AcDbArc
 50
145.4999999999995
 51
188.4999999999994
  0
ARC
  5
26B
330
37
100
AcDbEntity
  8
Sichtbar (ISO)
100
AcDbCircle
 10
328.3935761720974
 20
1215.559954799874
 30
0.0
 40
4.99999999999996
100
AcDbArc
 50
145.4999999999992
 51
188.4999999999994
  0
LINE
  5
26C
330
37
100
AcDbEntity
  8
Sichtbar (ISO)
100
AcDbLine
 10
283.459711834855
 20
967.7177977587668
 30
0.0
 11
262.464711834855
 21
967.7177977587668
 31
0.0
  0
LINE
  5
26D
330
37
100
AcDbEntity
  8
Sichtbar (ISO)
100
AcDbLine
 10
260.3288054296704
 20
968.8604127053269
 30
0.0
 11
285.5956182400397
 21
968.8604127053269
 31
0.0
  0
ARC
  5
26E
330
37
100
AcDbEntity
  8
Sichtbar (ISO)
100
AcDbCircle
 10
263.1949923220532
 20
971.6505690984226
 30
0.0
 40
3.999999999999986
100
AcDbArc
 50
224.2298974488363
 51
259.4805019419999
  0
ARC
  5
26F
330
37
100
AcDbEntity
  8
Sichtbar (ISO)
100
AcDbCircle
 10
282.7294313476569
 20
971.6505690984226
 30
0.0
 40
3.999999999999986
100
AcDbArc
 50
280.5194980580012
 51
315.7701025511664
  0
LINE
  5
270
330
37
100
AcDbEntity
  8
Sichtbar (ISO)
100
AcDbLine
 10
260.3288054296704
 20
968.8604127053269
 30
0.0
 11
259.1949923220532
 21
971.6505690984226
 31
0.0
  0
LINE
  5
271
330
37
100
AcDbEntity
  8
Sichtbar (ISO)
100
AcDbLine
 10
285.5956182400397
 20
968.8604127053269
 30
0.0
 11
286.7294313476569
 21
971.6505690984226
 31
0.0
  0
LINE
  5
272
330
37
100
AcDbEntity
  8
Sichtbar (ISO)
100
AcDbLine
 10
235.9623720671909
 20
1254.206737483687
 30
0.0
 11
235.9623720671924
 21
976.0858512889171
 31
0.0
  0
LINE
  5
273
330
37
100
AcDbEntity
  8
Sichtbar (ISO)
100
AcDbLine
 10
235.9623720671909
 20
1254.206737483687
 30
0.0
 11
237.9622118348545
 21
1256.232053559083
 31
0.0
  0
LINE
  5
274
330
37
100
AcDbEntity
  8
Sichtbar (ISO)
100
AcDbLine
 10
235.9623720671923
 20
976.0858512889171
 30
0.0
 11
237.9622118348561
 21
974.0605352135213
 31
0.0
  0
LINE
  5
275
330
37
100
AcDbEntity
  8
Sichtbar (ISO)
100
AcDbLine
 10
695.8171441589492
 20
973.1505690984224
 30
0.0
 11
726.6251885198022
 21
973.1505690984224
 31
0.0
  0
LINE
  5
276
330
37
100
AcDbEntity
  8
Sichtbar (ISO)
100
AcDbLine
 10
695.8171441589492
 20
971.6505690984224
 30
0.0
 11
726.6251885198022
 21
971.6505690984224
 31
0.0
  0
LINE
  5
277
330
37
100
AcDbEntity
  8
Sichtbar (ISO)
100
AcDbLine
 10
695.8171441589492
 20
973.1505690984224
 30
0.0
 11
694.20102925799
 21
975.0765798376855
 31
0.0
  0
LINE
  5
278
330
37
100
AcDbEntity
  8
Sichtbar (ISO)
100
AcDbLine
 10
726.6251885198022
 20
973.1505690984224
 30
0.0
 11
728.2413034207613
 21
975.0765798376855
 31
0.0
  0
LINE
  5
279
330
37
100
AcDbEntity
  8
Sichtbar (ISO)
100
AcDbLine
 10
726.6251885198022
 20
973.1505690984224
 30
0.0
 11
726.6251885198022
 21
971.6505690984224
 31
0.0
  0
LINE
  5
27A
330
37
100
AcDbEntity
  8
Sichtbar (ISO)
100
AcDbLine
 10
695.8171441589492
 20
973.1505690984224
 30
0.0
 11
695.8171441589492
 21
971.6505690984224
 31
0.0
  0
CIRCLE
  5
27B
330
37
100
AcDbEntity
  8
Sichtbar (ISO)
100
AcDbCircle
 10
711.2211663393654
 20
1115.146294386302
 30
0.0
 40
141.1
  0
ARC
  5
27C
330
37
100
AcDbEntity
  8
Sichtbar (ISO)
100
AcDbCircle
 10
711.2211663393526
 20
1115.146294386305
 30
0.0
 40
4.499999999993237
100
AcDbArc
 50
41.59289767720472
 51
42.28503557831583
  0
ARC
  5
27D
330
37
100
AcDbEntity
  8
Sichtbar (ISO)
100
AcDbCircle
 10
711.2211663393521
 20
1115.146294386302
 30
0.0
 40
4.49999999999525
100
AcDbArc
 50
11.59289767720089
 51
12.28503557830963
  0
ARC
  5
27E
330
37
100
AcDbEntity
  8
Sichtbar (ISO)
100
AcDbCircle
 10
711.2211663393366
 20
1115.146294386304
 30
0.0
 40
4.500000000011493
100
AcDbArc
 50
341.5928976772041
 51
342.2850355783098
  0
ARC
  5
27F
330
37
100
AcDbEntity
  8
Sichtbar (ISO)
100
AcDbCircle
 10
711.2211663393453
 20
1115.146294386303
 30
0.0
 40
4.500000000003389
100
AcDbArc
 50
311.5928976772092
 51
312.2850355783188
  0
ARC
  5
280
330
37
100
AcDbEntity
  8
Sichtbar (ISO)
100
AcDbCircle
 10
711.2211663393409
 20
1115.146294386332
 30
0.0
 40
4.500000000031792
100
AcDbArc
 50
281.5928976772228
 51
282.2850355783274
  0
ARC
  5
281
330
37
100
AcDbEntity
  8
Sichtbar (ISO)
100
AcDbCircle
 10
711.221166339355
 20
1115.146294386323
 30
0.0
 40
4.500000000023856
100
AcDbArc
 50
251.5928976772312
 51
252.2850355783386
  0
ARC
  5
282
330
37
100
AcDbEntity
  8
Sichtbar (ISO)
100
AcDbCircle
 10
711.2211663393336
 20
1115.146294386288
 30
0.0
 40
4.499999999981241
100
AcDbArc
 50
221.592897677238
 51
222.285035578351
  0
ARC
  5
283
330
37
100
AcDbEntity
  8
Sichtbar (ISO)
100
AcDbCircle
 10
711.2211663393679
 20
1115.146294386305
 30
0.0
 40
4.500000000020802
100
AcDbArc
 50
191.5928976772448
 51
192.2850355783522
  0
ARC
  5
284
330
37
100
AcDbEntity
  8
Sichtbar (ISO)
100
AcDbCircle
 10
711.2211663393559
 20
1115.146294386298
 30
0.0
 40
4.500000000008786
100
AcDbArc
 50
161.592897677247
 51
162.2850355783532
  0
ARC
  5
285
330
37
100
AcDbEntity
  8
Sichtbar (ISO)
100
AcDbCircle
 10
711.2211663393535
 20
1115.146294386294
 30
0.0
 40
4.500000000008955
100
AcDbArc
 50
131.5928976772406
 51
132.2850355783476
  0
ARC
  5
286
330
37
100
AcDbEntity
  8
Sichtbar (ISO)
100
AcDbCircle
 10
711.2211663393466
 20
1115.146294386305
 30
0.0
 40
4.499999999995822
100
AcDbArc
 50
101.5928976772268
 51
102.285035578337
  0
ARC
  5
287
330
37
100
AcDbEntity
  8
Sichtbar (ISO)
100
AcDbCircle
 10
711.221166339351
 20
1115.146294386311
 30
0.0
 40
4.499999999988854
100
AcDbArc
 50
71.59289767721459
 51
72.28503557832706
  0
CIRCLE
  5
288
330
37
100
AcDbEntity
  8
Sichtbar (ISO)
100
AcDbCircle
 10
711.2211663393475
 20
1115.146294386301
 30
0.0
 40
12.27518461366577
  0
LINE
  5
289
330
37
100
AcDbEntity
  8
Sichtbar (ISO)
100
AcDbLine
 10
720.7186663393756
 20
942.6462943863016
 30
0.0
 11
701.7236663393758
 21
942.6462943863016
 31
0.0
  0
LINE
  5
28A
330
37
100
AcDbEntity
  8
Sichtbar (ISO)
100
AcDbLine
 10
700.7236663393757
 20
943.6462943863016
 30
0.0
 11
721.7186663393756
 21
943.6462943863016
 31
0.0
  0
LINE
  5
28B
330
37
100
AcDbEntity
  8
Sichtbar (ISO)
100
AcDbLine
 10
701.7236663393758
 20
942.6462943863016
 30
0.0
 11
700.7236663393757
 21
943.6462943863016
 31
0.0
  0
LINE
  5
28C
330
37
100
AcDbEntity
  8
Sichtbar (ISO)
100
AcDbLine
 10
720.7186663393756
 20
942.6462943863016
 30
0.0
 11
721.7186663393756
 21
943.6462943863016
 31
0.0
  0
LINE
  5
28D
330
37
100
AcDbEntity
  8
Sichtbar (ISO)
100
AcDbLine
 10
700.7236663393757
 20
943.6462943863016
 30
0.0
 11
700.7236663393757
 21
967.7177977587666
 31
0.0
  0
LINE
  5
28E
330
37
100
AcDbEntity
  8
Sichtbar (ISO)
100
AcDbLine
 10
721.7186663393756
 20
943.6462943863016
 30
0.0
 11
721.7186663393756
 21
967.7177977587666
 31
0.0
  0
ARC
  5
28F
330
37
100
AcDbEntity
  8
Sichtbar (ISO)
100
AcDbCircle
 10
711.2211663393439
 20
1115.146294386299
 30
0.0
 40
5.000000000000094
100
AcDbArc
 50
98.49947877455951
 51
105.3784544809939
  0
POLYLINE
  5
290
330
37
100
AcDbEntity
  8
Sichtbar (ISO)
100
AcDb2dPolyline
 66
     1
 10
0.0
 20
0.0
 30
0.0
 70
   128
  0
VERTEX
  5
291
330
290
100
AcDbEntity
  8
Sichtbar (ISO)
100
AcDbVertex
100
AcDb2dVertex
 10
710.2636778872651
 20
1119.54324974366
 30
0.0
  0
VERTEX
  5
292
330
290
100
AcDbEntity
  8
Sichtbar (ISO)
100
AcDbVertex
100
AcDb2dVertex
 10
710.2120196945007
 20
1119.547292568524
 30
0.0
  0
VERTEX
  5
294
330
290
100
AcDbEntity
  8
Sichtbar (ISO)
100
AcDbVertex
100
AcDb2dVertex
 10
710.1772225044221
 20
1119.557643967996
 30
0.0
  0
VERTEX
  5
295
330
290
100
AcDbEntity
  8
Sichtbar (ISO)
100
AcDbVertex
100
AcDb2dVertex
 10
710.1500249349721
 20
1119.569957208798
 30
0.0
  0
VERTEX
  5
296
330
290
100
AcDbEntity
  8
Sichtbar (ISO)
100
AcDbVertex
100
AcDb2dVertex
 10
710.1277860576829
 20
1119.582836652324
 30
0.0
  0
VERTEX
  5
297
330
290
100
AcDbEntity
  8
Sichtbar (ISO)
100
AcDbVertex
100
AcDb2dVertex
 10
710.1062195332298
 20
1119.597845047187
 30
0.0
  0
VERTEX
  5
298
330
290
100
AcDbEntity
  8
Sichtbar (ISO)
100
AcDbVertex
100
AcDb2dVertex
 10
710.0853846768601
 20
1119.614789289635
 30
0.0
  0
VERTEX
  5
299
330
290
100
AcDbEntity
  8
Sichtbar (ISO)
100
AcDbVertex
100
AcDb2dVertex
 10
710.0653597135844
 20
1119.633466823283
 30
0.0
  0
VERTEX
  5
29A
330
290
100
AcDbEntity
  8
Sichtbar (ISO)
100
AcDbVertex
100
AcDb2dVertex
 10
710.0462225133764
 20
1119.653674372112
 30
0.0
  0
VERTEX
  5
29B
330
290
100
AcDbEntity
  8
Sichtbar (ISO)
100
AcDbVertex
100
AcDb2dVertex
 10
710.0280517879444
 20
1119.675208615086
 30
0.0
  0
VERTEX
  5
29C
330
290
100
AcDbEntity
  8
Sichtbar (ISO)
100
AcDbVertex
100
AcDb2dVertex
 10
710.0109253414316
 20
1119.697867018328
 30
0.0
  0
VERTEX
  5
29D
330
290
100
AcDbEntity
  8
Sichtbar (ISO)
100
AcDbVertex
100
AcDb2dVertex
 10
709.9949409466614
 20
1119.721406094435
 30
0.0
  0
VERTEX
  5
29E
330
290
100
AcDbEntity
  8
Sichtbar (ISO)
100
AcDbVertex
100
AcDb2dVertex
 10
709.9803464251342
 20
1119.745177902108
 30
0.0
  0
VERTEX
  5
29F
330
290
100
AcDbEntity
  8
Sichtbar (ISO)
100
AcDbVertex
100
AcDb2dVertex
 10
709.9671461796177
 20
1119.768860271488
 30
0.0
  0
VERTEX
  5
2A0
330
290
100
AcDbEntity
  8
Sichtbar (ISO)
100
AcDbVertex
100
AcDb2dVertex
 10
709.9552747185581
 20
1119.792256537777
 30
0.0
  0
VERTEX
  5
2A1
330
290
100
AcDbEntity
  8
Sichtbar (ISO)
100
AcDbVertex
100
AcDb2dVertex
 10
709.9446660411983
 20
1119.815170379961
 30
0.0
  0
VERTEX
  5
2A2
330
290
100
AcDbEntity
  8
Sichtbar (ISO)
100
AcDbVertex
100
AcDb2dVertex
 10
709.9352548776709
 20
1119.837405332422
 30
0.0
  0
VERTEX
  5
2A3
330
290
100
AcDbEntity
  8
Sichtbar (ISO)
100
AcDbVertex
100
AcDb2dVertex
 10
709.9269754263992
 20
1119.85876485246
 30
0.0
  0
VERTEX
  5
2A4
330
290
100
AcDbEntity
  8
Sichtbar (ISO)
100
AcDbVertex
100
AcDb2dVertex
 10
709.9197622183355
 20
1119.879052696144
 30
0.0
  0
VERTEX
  5
2A5
330
290
100
AcDbEntity
  8
Sichtbar (ISO)
100
AcDbVertex
100
AcDb2dVertex
 10
709.9135496510833
 20
1119.898072099087
 30
0.0
  0
VERTEX
  5
2A6
330
290
100
AcDbEntity
  8
Sichtbar (ISO)
100
AcDbVertex
100
AcDb2dVertex
 10
709.9082719455716
 20
1119.915626939455
 30
0.0
  0
VERTEX
  5
2A7
330
290
100
AcDbEntity
  8
Sichtbar (ISO)
100
AcDbVertex
100
AcDb2dVertex
 10
709.9038636102467
 20
1119.931520552449
 30
0.0
  0
VERTEX
  5
2A8
330
290
100
AcDbEntity
  8
Sichtbar (ISO)
100
AcDbVertex
100
AcDb2dVertex
 10
709.9002588660377
 20
1119.945556816237
 30
0.0
  0
VERTEX
  5
2A9
330
290
100
AcDbEntity
  8
Sichtbar (ISO)
100
AcDbVertex
100
AcDb2dVertex
 10
709.8973924205717
 20
1119.957538844333
 30
0.0
  0
VERTEX
  5
2AA
330
290
100
AcDbEntity
  8
Sichtbar (ISO)
100
AcDbVertex
100
AcDb2dVertex
 10
709.8951984947777
 20
1119.967270514905
 30
0.0
  0
SEQEND
  5
293
330
290
100
AcDbEntity
  8
Sichtbar (ISO)
  0
POLYLINE
  5
2AB
330
37
100
AcDbEntity
  8
Sichtbar (ISO)
100
AcDb2dPolyline
 66
     1
 10
0.0
 20
0.0
 30
0.0
 70
   128
  0
VERTEX
  5
2AC
330
2AB
100
AcDbEntity
  8
Sichtbar (ISO)
100
AcDbVertex
100
AcDb2dVertex
 10
710.316862083351
 20
1119.55449522938
 30
0.0
  0
VERTEX
  5
2AD
330
2AB
100
AcDbEntity
  8
Sichtbar (ISO)
100
AcDbVertex
100
AcDb2dVertex
 10
710.3150762843807
 20
1119.553835853338
 30
0.0
  0
VERTEX
  5
2AF
330
2AB
100
AcDbEntity
  8
Sichtbar (ISO)
100
AcDbVertex
100
AcDb2dVertex
 10
710.3132121506692
 20
1119.553169798004
 30
0.0
  0
VERTEX
  5
2B0
330
2AB
100
AcDbEntity
  8
Sichtbar (ISO)
100
AcDbVertex
100
AcDb2dVertex
 10
710.3112699506035
 20
1119.552500109038
 30
0.0
  0
VERTEX
  5
2B1
330
2AB
100
AcDbEntity
  8
Sichtbar (ISO)
100
AcDbVertex
100
AcDb2dVertex
 10
710.3092511043294
 20
1119.551829664992
 30
0.0
  0
VERTEX
  5
2B2
330
2AB
100
AcDbEntity
  8
Sichtbar (ISO)
100
AcDbVertex
100
AcDb2dVertex
 10
710.3071559910776
 20
1119.551161611116
 30
0.0
  0
VERTEX
  5
2B3
330
2AB
100
AcDbEntity
  8
Sichtbar (ISO)
100
AcDbVertex
100
AcDb2dVertex
 10
710.3049856101262
 20
1119.550498848467
 30
0.0
  0
VERTEX
  5
2B4
330
2AB
100
AcDbEntity
  8
Sichtbar (ISO)
100
AcDbVertex
100
AcDb2dVertex
 10
710.30274065073
 20
1119.5498444002
 30
0.0
  0
VERTEX
  5
2B5
330
2AB
100
AcDbEntity
  8
Sichtbar (ISO)
100
AcDbVertex
100
AcDb2dVertex
 10
710.300426610044
 20
1119.54920240409
 30
0.0
  0
VERTEX
  5
2B6
330
2AB
100
AcDbEntity
  8
Sichtbar (ISO)
100
AcDbVertex
100
AcDb2dVertex
 10
710.2980638748059
 20
1119.54858116101
 30
0.0
  0
VERTEX
  5
2B7
330
2AB
100
AcDbEntity
  8
Sichtbar (ISO)
100
AcDbVertex
100
AcDb2dVertex
 10
710.2956563678576
 20
1119.547982993606
 30
0.0
  0
VERTEX
  5
2B8
330
2AB
100
AcDbEntity
  8
Sichtbar (ISO)
100
AcDbVertex
100
AcDb2dVertex
 10
710.2932045117544
 20
1119.547409884116
 30
0.0
  0
VERTEX
  5
2B9
330
2AB
100
AcDbEntity
  8
Sichtbar (ISO)
100
AcDbVertex
100
AcDb2dVertex
 10
710.290709349099
 20
1119.546863570587
 30
0.0
  0
VERTEX
  5
2BA
330
2AB
100
AcDbEntity
  8
Sichtbar (ISO)
100
AcDbVertex
100
AcDb2dVertex
 10
710.2881959169856
 20
1119.546350522443
 30
0.0
  0
VERTEX
  5
2BB
330
2AB
100
AcDbEntity
  8
Sichtbar (ISO)
100
AcDbVertex
100
AcDb2dVertex
 10
710.2857128469508
 20
1119.545880379115
 30
0.0
  0
VERTEX
  5
2BC
330
2AB
100
AcDbEntity
  8
Sichtbar (ISO)
100
AcDbVertex
100
AcDb2dVertex
 10
710.2832632167261
 20
1119.545451498769
 30
0.0
  0
VERTEX
  5
2BD
330
2AB
100
AcDbEntity
  8
Sichtbar (ISO)
100
AcDbVertex
100
AcDb2dVertex
 10
710.2808485539242
 20
1119.545062850057
 30
0.0
  0
VERTEX
  5
2BE
330
2AB
100
AcDbEntity
  8
Sichtbar (ISO)
100
AcDbVertex
100
AcDb2dVertex
 10
710.2784726896738
 20
1119.54471306741
 30
0.0
  0
VERTEX
  5
2BF
330
2AB
100
AcDbEntity
  8
Sichtbar (ISO)
100
AcDbVertex
100
AcDb2dVertex
 10
710.2761550738883
 20
1119.544402799008
 30
0.0
  0
VERTEX
  5
2C0
330
2AB
100
AcDbEntity
  8
Sichtbar (ISO)
100
AcDbVertex
100
AcDb2dVertex
 10
710.2739022620803
 20
1119.544130322558
 30
0.0
  0
VERTEX
  5
2C1
330
2AB
100
AcDbEntity
  8
Sichtbar (ISO)
100
AcDbVertex
100
AcDb2dVertex
 10
710.271716024367
 20
1119.543893222013
 30
0.0
  0
VERTEX
  5
2C2
330
2AB
100
AcDbEntity
  8
Sichtbar (ISO)
100
AcDbVertex
100
AcDb2dVertex
 10
710.2695987509134
 20
1119.543688837132
 30
0.0
  0
VERTEX
  5
2C3
330
2AB
100
AcDbEntity
  8
Sichtbar (ISO)
100
AcDbVertex
100
AcDb2dVertex
 10
710.2675519243199
 20
1119.543515294831
 30
0.0
  0
VERTEX
  5
2C4
330
2AB
100
AcDbEntity
  8
Sichtbar (ISO)
100
AcDbVertex
100
AcDb2dVertex
 10
710.2655776022212
 20
1119.5433696361
 30
0.0
  0
VERTEX
  5
2C5
330
2AB
100
AcDbEntity
  8
Sichtbar (ISO)
100
AcDbVertex
100
AcDb2dVertex
 10
710.2636778872651
 20
1119.54324974366
 30
0.0
  0
SEQEND
  5
2AE
330
2AB
100
AcDbEntity
  8
Sichtbar (ISO)
  0
POLYLINE
  5
2C6
330
37
100
AcDbEntity
  8
Sichtbar (ISO)
100
AcDb2dPolyline
 66
     1
 10
0.0
 20
0.0
 30
0.0
 70
   128
  0
VERTEX
  5
2C7
330
2C6
100
AcDbEntity
  8
Sichtbar (ISO)
100
AcDbVertex
100
AcDb2dVertex
 10
710.4821641296388
 20
1120.091380485785
 30
0.0
  0
VERTEX
  5
2C8
330
2C6
100
AcDbEntity
  8
Sichtbar (ISO)
100
AcDbVertex
100
AcDb2dVertex
 10
710.4839183990036
 20
1120.082744596863
 30
0.0
  0
VERTEX
  5
2CA
330
2C6
100
AcDbEntity
  8
Sichtbar (ISO)
100
AcDbVertex
100
AcDb2dVertex
 10
710.4860073408907
 20
1120.072032372248
 30
0.0
  0
VERTEX
  5
2CB
330
2C6
100
AcDbEntity
  8
Sichtbar (ISO)
100
AcDbVertex
100
AcDb2dVertex
 10
710.4882929491381
 20
1120.059244016757
 30
0.0
  0
VERTEX
  5
2CC
330
2C6
100
AcDbEntity
  8
Sichtbar (ISO)
100
AcDbVertex
100
AcDb2dVertex
 10
710.4906380593174
 20
1120.044379690192
 30
0.0
  0
VERTEX
  5
2CD
330
2C6
100
AcDbEntity
  8
Sichtbar (ISO)
100
AcDbVertex
100
AcDb2dVertex
 10
710.4929044660864
 20
1120.027439819056
 30
0.0
  0
VERTEX
  5
2CE
330
2C6
100
AcDbEntity
  8
Sichtbar (ISO)
100
AcDbVertex
100
AcDb2dVertex
 10
710.4949549825107
 20
1120.008424142285
 30
0.0
  0
VERTEX
  5
2CF
330
2C6
100
AcDbEntity
  8
Sichtbar (ISO)
100
AcDbVertex
100
AcDb2dVertex
 10
710.4966518241147
 20
1119.987333063875
 30
0.0
  0
VERTEX
  5
2D0
330
2C6
100
AcDbEntity
  8
Sichtbar (ISO)
100
AcDbVertex
100
AcDb2dVertex
 10
710.4978574056035
 20
1119.964166766134
 30
0.0
  0
VERTEX
  5
2D1
330
2C6
100
AcDbEntity
  8
Sichtbar (ISO)
100
AcDbVertex
100
AcDb2dVertex
 10
710.4984339425016
 20
1119.93892565306
 30
0.0
  0
VERTEX
  5
2D2
330
2C6
100
AcDbEntity
  8
Sichtbar (ISO)
100
AcDbVertex
100
AcDb2dVertex
 10
710.4981473032903
 20
1119.911994722451
 30
0.0
  0
VERTEX
  5
2D3
330
2C6
100
AcDbEntity
  8
Sichtbar (ISO)
100
AcDbVertex
100
AcDb2dVertex
 10
710.4967120928401
 20
1119.884280227319
 30
0.0
  0
VERTEX
  5
2D4
330
2C6
100
AcDbEntity
  8
Sichtbar (ISO)
100
AcDbVertex
100
AcDb2dVertex
 10
710.4940678458387
 20
1119.856056370487
 30
0.0
  0
VERTEX
  5
2D5
330
2C6
100
AcDbEntity
  8
Sichtbar (ISO)
100
AcDbVertex
100
AcDb2dVertex
 10
710.4901595513648
 20
1119.827577014744
 30
0.0
  0
VERTEX
  5
2D6
330
2C6
100
AcDbEntity
  8
Sichtbar (ISO)
100
AcDbVertex
100
AcDb2dVertex
 10
710.4849317776308
 20
1119.799096045385
 30
0.0
  0
VERTEX
  5
2D7
330
2C6
100
AcDbEntity
  8
Sichtbar (ISO)
100
AcDbVertex
100
AcDb2dVertex
 10
710.4783303554502
 20
1119.770867280183
 30
0.0
  0
VERTEX
  5
2D8
330
2C6
100
AcDbEntity
  8
Sichtbar (ISO)
100
AcDbVertex
100
AcDb2dVertex
 10
710.4703000747219
 20
1119.743144803615
 30
0.0
  0
VERTEX
  5
2D9
330
2C6
100
AcDbEntity
  8
Sichtbar (ISO)
100
AcDbVertex
100
AcDb2dVertex
 10
710.4607860353685
 20
1119.716182578058
 30
0.0
  0
VERTEX
  5
2DA
330
2C6
100
AcDbEntity
  8
Sichtbar (ISO)
100
AcDbVertex
100
AcDb2dVertex
 10
710.4497332264691
 20
1119.6902344663
 30
0.0
  0
VERTEX
  5
2DB
330
2C6
100
AcDbEntity
  8
Sichtbar (ISO)
100
AcDbVertex
100
AcDb2dVertex
 10
710.4370867479464
 20
1119.665554430719
 30
0.0
  0
VERTEX
  5
2DC
330
2C6
100
AcDbEntity
  8
Sichtbar (ISO)
100
AcDbVertex
100
AcDb2dVertex
 10
710.4227920097468
 20
1119.642396311597
 30
0.0
  0
VERTEX
  5
2DD
330
2C6
100
AcDbEntity
  8
Sichtbar (ISO)
100
AcDbVertex
100
AcDb2dVertex
 10
710.4067934917451
 20
1119.621014315504
 30
0.0
  0
VERTEX
  5
2DE
330
2C6
100
AcDbEntity
  8
Sichtbar (ISO)
100
AcDbVertex
100
AcDb2dVertex
 10
710.3874698178197
 20
1119.600078677919
 30
0.0
  0
VERTEX
  5
2DF
330
2C6
100
AcDbEntity
  8
Sichtbar (ISO)
100
AcDbVertex
100
AcDb2dVertex
 10
710.3604601048679
 20
1119.577676477489
 30
0.0
  0
VERTEX
  5
2E0
330
2C6
100
AcDbEntity
  8
Sichtbar (ISO)
100
AcDbVertex
100
AcDb2dVertex
 10
710.316862083351
 20
1119.55449522938
 30
0.0
  0
SEQEND
  5
2C9
330
2C6
100
AcDbEntity
  8
Sichtbar (ISO)
  0
ARC
  5
2E1
330
37
100
AcDbEntity
  8
Sichtbar (ISO)
100
AcDbCircle
 10
711.2211663393439
 20
1115.146294386299
 30
0.0
 40
4.999999999999906
100
AcDbArc
 50
68.49947877455962
 51
75.37845448099405
  0
POLYLINE
  5
2E2
330
37
100
AcDbEntity
  8
Sichtbar (ISO)
100
AcDb2dPolyline
 66
     1
 10
0.0
 20
0.0
 30
0.0
 70
   128
  0
VERTEX
  5
2E3
330
2E2
100
AcDbEntity
  8
Sichtbar (ISO)
100
AcDbVertex
100
AcDb2dVertex
 10
712.5904347816497
 20
1119.432913659485
 30
0.0
  0
VERTEX
  5
2E4
330
2E2
100
AcDbEntity
  8
Sichtbar (ISO)
100
AcDbVertex
100
AcDb2dVertex
 10
712.5477187400191
 20
1119.462243810067
 30
0.0
  0
VERTEX
  5
2E6
330
2E2
100
AcDbEntity
  8
Sichtbar (ISO)
100
AcDbVertex
100
AcDb2dVertex
 10
712.5227592675155
 20
1119.48860733457
 30
0.0
  0
VERTEX
  5
2E7
330
2E2
100
AcDbEntity
  8
Sichtbar (ISO)
100
AcDbVertex
100
AcDb2dVertex
 10
712.5053622457291
 20
1119.512869408752
 30
0.0
  0
VERTEX
  5
2E8
330
2E2
100
AcDbEntity
  8
Sichtbar (ISO)
100
AcDbVertex
100
AcDb2dVertex
 10
712.4925423914389
 20
1119.535142929286
 30
0.0
  0
VERTEX
  5
2E9
330
2E2
100
AcDbEntity
  8
Sichtbar (ISO)
100
AcDbVertex
100
AcDb2dVertex
 10
712.4813693267931
 20
1119.558923496747
 30
0.0
  0
VERTEX
  5
2EA
330
2E2
100
AcDbEntity
  8
Sichtbar (ISO)
100
AcDbVertex
100
AcDb2dVertex
 10
712.4717980848258
 20
1119.584015459117
 30
0.0
  0
VERTEX
  5
2EB
330
2E2
100
AcDbEntity
  8
Sichtbar (ISO)
100
AcDbVertex
100
AcDb2dVertex
 10
712.4637945471517
 20
1119.610203063473
 30
0.0
  0
VERTEX
  5
2EC
330
2E2
100
AcDbEntity
  8
Sichtbar (ISO)
100
AcDbVertex
100
AcDb2dVertex
 10
712.4573250837726
 20
1119.637271796984
 30
0.0
  0
VERTEX
  5
2ED
330
2E2
100
AcDbEntity
  8
Sichtbar (ISO)
100
AcDbVertex
100
AcDb2dVertex
 10
712.4523558204964
 20
1119.665006526773
 30
0.0
  0
VERTEX
  5
2EE
330
2E2
100
AcDbEntity
  8
Sichtbar (ISO)
100
AcDbVertex
100
AcDb2dVertex
 10
712.4488531048178
 20
1119.693192319143
 30
0.0
  0
VERTEX
  5
2EF
330
2E2
100
AcDbEntity
  8
Sichtbar (ISO)
100
AcDbVertex
100
AcDb2dVertex
 10
712.4467798576504
 20
1119.72156989518
 30
0.0
  0
VERTEX
  5
2F0
330
2E2
100
AcDbEntity
  8
Sichtbar (ISO)
100
AcDbVertex
100
AcDb2dVertex
 10
712.4460266478674
 20
1119.74945438814
 30
0.0
  0
VERTEX
  5
2F1
330
2E2
100
AcDbEntity
  8
Sichtbar (ISO)
100
AcDbVertex
100
AcDb2dVertex
 10
712.4464359597342
 20
1119.776564047739
 30
0.0
  0
VERTEX
  5
2F2
330
2E2
100
AcDbEntity
  8
Sichtbar (ISO)
100
AcDbVertex
100
AcDb2dVertex
 10
712.4478531459479
 20
1119.802761529506
 30
0.0
  0
VERTEX
  5
2F3
330
2E2
100
AcDbEntity
  8
Sichtbar (ISO)
100
AcDbVertex
100
AcDb2dVertex
 10
712.4501225182913
 20
1119.827909755675
 30
0.0
  0
VERTEX
  5
2F4
330
2E2
100
AcDbEntity
  8
Sichtbar (ISO)
100
AcDbVertex
100
AcDb2dVertex
 10
712.4530898503286
 20
1119.851871359268
 30
0.0
  0
VERTEX
  5
2F5
330
2E2
100
AcDbEntity
  8
Sichtbar (ISO)
100
AcDbVertex
100
AcDb2dVertex
 10
712.4565992321562
 20
1119.874509063337
 30
0.0
  0
VERTEX
  5
2F6
330
2E2
100
AcDbEntity
  8
Sichtbar (ISO)
100
AcDbVertex
100
AcDb2dVertex
 10
712.4604964373381
 20
1119.895685500907
 30
0.0
  0
VERTEX
  5
2F7
330
2E2
100
AcDbEntity
  8
Sichtbar (ISO)
100
AcDbVertex
100
AcDb2dVertex
 10
712.4646259543315
 20
1119.915262951655
 30
0.0
  0
VERTEX
  5
2F8
330
2E2
100
AcDbEntity
  8
Sichtbar (ISO)
100
AcDbVertex
100
AcDb2dVertex
 10
712.468832759979
 20
1119.933104935354
 30
0.0
  0
VERTEX
  5
2F9
330
2E2
100
AcDbEntity
  8
Sichtbar (ISO)
100
AcDbVertex
100
AcDb2dVertex
 10
712.4729617410982
 20
1119.949073288307
 30
0.0
  0
VERTEX
  5
2FA
330
2E2
100
AcDbEntity
  8
Sichtbar (ISO)
100
AcDbVertex
100
AcDb2dVertex
 10
712.4768580737122
 20
1119.963031308599
 30
0.0
  0
VERTEX
  5
2FB
330
2E2
100
AcDbEntity
  8
Sichtbar (ISO)
100
AcDbVertex
100
AcDb2dVertex
 10
712.4803666671453
 20
1119.974841253401
 30
0.0
  0
VERTEX
  5
2FC
330
2E2
100
AcDbEntity
  8
Sichtbar (ISO)
100
AcDbVertex
100
AcDb2dVertex
 10
712.4833326749142
 20
1119.984365999931
 30
0.0
  0
SEQEND
  5
2E5
330
2E2
100
AcDbEntity
  8
Sichtbar (ISO)
  0
POLYLINE
  5
2FD
330
37
100
AcDbEntity
  8
Sichtbar (ISO)
100
AcDb2dPolyline
 66
     1
 10
0.0
 20
0.0
 30
0.0
 70
   128
  0
VERTEX
  5
2FE
330
2FD
100
AcDbEntity
  8
Sichtbar (ISO)
100
AcDbVertex
100
AcDb2dVertex
 10
712.6421163677519
 20
1119.416060371368
 30
0.0
  0
VERTEX
  5
2FF
330
2FD
100
AcDbEntity
  8
Sichtbar (ISO)
100
AcDbVertex
100
AcDb2dVertex
 10
712.6402401735575
 20
1119.416382289837
 30
0.0
  0
VERTEX
  5
301
330
2FD
100
AcDbEntity
  8
Sichtbar (ISO)
100
AcDbVertex
100
AcDb2dVertex
 10
712.638292744788
 20
1119.416737562594
 30
0.0
  0
VERTEX
  5
302
330
2FD
100
AcDbEntity
  8
Sichtbar (ISO)
100
AcDbVertex
100
AcDb2dVertex
 10
712.6362758999496
 20
1119.417128624816
 30
0.0
  0
VERTEX
  5
303
330
2FD
100
AcDbEntity
  8
Sichtbar (ISO)
100
AcDbVertex
100
AcDb2dVertex
 10
712.6341922767767
 20
1119.417557445803
 30
0.0
  0
VERTEX
  5
304
330
2FD
100
AcDbEntity
  8
Sichtbar (ISO)
100
AcDbVertex
100
AcDb2dVertex
 10
712.6320436937755
 20
1119.418026460731
 30
0.0
  0
VERTEX
  5
305
330
2FD
100
AcDbEntity
  8
Sichtbar (ISO)
100
AcDbVertex
100
AcDb2dVertex
 10
712.6298327886805
 20
1119.418537638899
 30
0.0
  0
VERTEX
  5
306
330
2FD
100
AcDbEntity
  8
Sichtbar (ISO)
100
AcDbVertex
100
AcDb2dVertex
 10
712.6275613799979
 20
1119.419093415484
 30
0.0
  0
VERTEX
  5
307
330
2FD
100
AcDbEntity
  8
Sichtbar (ISO)
100
AcDbVertex
100
AcDb2dVertex
 10
712.6252363687109
 20
1119.419694582143
 30
0.0
  0
VERTEX
  5
308
330
2FD
100
AcDbEntity
  8
Sichtbar (ISO)
100
AcDbVertex
100
AcDb2dVertex
 10
712.62287962697
 20
1119.420337753371
 30
0.0
  0
VERTEX
  5
309
330
2FD
100
AcDbEntity
  8
Sichtbar (ISO)
100
AcDbVertex
100
AcDb2dVertex
 10
712.6204954084587
 20
1119.421023545839
 30
0.0
  0
VERTEX
  5
30A
330
2FD
100
AcDbEntity
  8
Sichtbar (ISO)
100
AcDbVertex
100
AcDb2dVertex
 10
712.6180854641647
 20
1119.421753132122
 30
0.0
  0
VERTEX
  5
30B
330
2FD
100
AcDbEntity
  8
Sichtbar (ISO)
100
AcDbVertex
100
AcDb2dVertex
 10
712.6156516446658
 20
1119.422527573955
 30
0.0
  0
VERTEX
  5
30C
330
2FD
100
AcDbEntity
  8
Sichtbar (ISO)
100
AcDbVertex
100
AcDb2dVertex
 10
712.6132184885413
 20
1119.423340072193
 30
0.0
  0
VERTEX
  5
30D
330
2FD
100
AcDbEntity
  8
Sichtbar (ISO)
100
AcDbVertex
100
AcDb2dVertex
 10
712.6108327114806
 20
1119.424174305852
 30
0.0
  0
VERTEX
  5
30E
330
2FD
100
AcDbEntity
  8
Sichtbar (ISO)
100
AcDbVertex
100
AcDb2dVertex
 10
712.6084969253353
 20
1119.425027813873
 30
0.0
  0
VERTEX
  5
30F
330
2FD
100
AcDbEntity
  8
Sichtbar (ISO)
100
AcDbVertex
100
AcDb2dVertex
 10
712.6062114384413
 20
1119.425898469414
 30
0.0
  0
VERTEX
  5
310
330
2FD
100
AcDbEntity
  8
Sichtbar (ISO)
100
AcDbVertex
100
AcDb2dVertex
 10
712.6039790618308
 20
1119.426783589727
 30
0.0
  0
VERTEX
  5
311
330
2FD
100
AcDbEntity
  8
Sichtbar (ISO)
100
AcDbVertex
100
AcDb2dVertex
 10
712.601816800111
 20
1119.427673613026
 30
0.0
  0
VERTEX
  5
312
330
2FD
100
AcDbEntity
  8
Sichtbar (ISO)
100
AcDbVertex
100
AcDb2dVertex
 10
712.5997294786251
 20
1119.428564060563
 30
0.0
  0
VERTEX
  5
313
330
2FD
100
AcDbEntity
  8
Sichtbar (ISO)
100
AcDbVertex
100
AcDb2dVertex
 10
712.5977176594665
 20
1119.429451631233
 30
0.0
  0
VERTEX
  5
314
330
2FD
100
AcDbEntity
  8
Sichtbar (ISO)
100
AcDbVertex
100
AcDb2dVertex
 10
712.5957818276453
 20
1119.430333555638
 30
0.0
  0
VERTEX
  5
315
330
2FD
100
AcDbEntity
  8
Sichtbar (ISO)
100
AcDbVertex
100
AcDb2dVertex
 10
712.5939224456646
 20
1119.431206643517
 30
0.0
  0
VERTEX
  5
316
330
2FD
100
AcDbEntity
  8
Sichtbar (ISO)
100
AcDbVertex
100
AcDb2dVertex
 10
712.5921399760284
 20
1119.432067704606
 30
0.0
  0
VERTEX
  5
317
330
2FD
100
AcDbEntity
  8
Sichtbar (ISO)
100
AcDbVertex
100
AcDb2dVertex
 10
712.5904347816497
 20
1119.432913659485
 30
0.0
  0
SEQEND
  5
300
330
2FD
100
AcDbEntity
  8
Sichtbar (ISO)
  0
POLYLINE
  5
318
330
37
100
AcDbEntity
  8
Sichtbar (ISO)
100
AcDb2dPolyline
 66
     1
 10
0.0
 20
0.0
 30
0.0
 70
   128
  0
VERTEX
  5
319
330
318
100
AcDbEntity
  8
Sichtbar (ISO)
100
AcDbVertex
100
AcDb2dVertex
 10
713.053714853402
 20
1119.798365699277
 30
0.0
  0
VERTEX
  5
31A
330
318
100
AcDbEntity
  8
Sichtbar (ISO)
100
AcDbVertex
100
AcDb2dVertex
 10
713.0509161128252
 20
1119.790009479668
 30
0.0
  0
VERTEX
  5
31C
330
318
100
AcDbEntity
  8
Sichtbar (ISO)
100
AcDbVertex
100
AcDb2dVertex
 10
713.0473689437479
 20
1119.7796881307
 30
0.0
  0
VERTEX
  5
31D
330
318
100
AcDbEntity
  8
Sichtbar (ISO)
100
AcDbVertex
100
AcDb2dVertex
 10
713.0429544039436
 20
1119.767470268353
 30
0.0
  0
VERTEX
  5
31E
330
318
100
AcDbEntity
  8
Sichtbar (ISO)
100
AcDbVertex
100
AcDb2dVertex
 10
713.037553053234
 20
1119.753425062826
 30
0.0
  0
VERTEX
  5
31F
330
318
100
AcDbEntity
  8
Sichtbar (ISO)
100
AcDbVertex
100
AcDb2dVertex
 10
713.0310458498026
 20
1119.737621240942
 30
0.0
  0
VERTEX
  5
320
330
318
100
AcDbEntity
  8
Sichtbar (ISO)
100
AcDbVertex
100
AcDb2dVertex
 10
713.0233137743386
 20
1119.720127950392
 30
0.0
  0
VERTEX
  5
321
330
318
100
AcDbEntity
  8
Sichtbar (ISO)
100
AcDbVertex
100
AcDb2dVertex
 10
713.0142379071214
 20
1119.701014228025
 30
0.0
  0
VERTEX
  5
322
330
318
100
AcDbEntity
  8
Sichtbar (ISO)
100
AcDbVertex
100
AcDb2dVertex
 10
713.0036986858767
 20
1119.680348934014
 30
0.0
  0
VERTEX
  5
323
330
318
100
AcDbEntity
  8
Sichtbar (ISO)
100
AcDbVertex
100
AcDb2dVertex
 10
712.9915772904745
 20
1119.658200994364
 30
0.0
  0
VERTEX
  5
324
330
318
100
AcDbEntity
  8
Sichtbar (ISO)
100
AcDbVertex
100
AcDb2dVertex
 10
712.9778635452979
 20
1119.635021408167
 30
0.0
  0
VERTEX
  5
325
330
318
100
AcDbEntity
  8
Sichtbar (ISO)
100
AcDbVertex
100
AcDb2dVertex
 10
712.9627635239501
 20
1119.61173752409
 30
0.0
  0
VERTEX
  5
326
330
318
100
AcDbEntity
  8
Sichtbar (ISO)
100
AcDbVertex
100
AcDb2dVertex
 10
712.946361507344
 20
1119.588617176237
 30
0.0
  0
VERTEX
  5
327
330
318
100
AcDbEntity
  8
Sichtbar (ISO)
100
AcDbVertex
100
AcDb2dVertex
 10
712.9287370849602
 20
1119.565907557094
 30
0.0
  0
VERTEX
  5
328
330
318
100
AcDbEntity
  8
Sichtbar (ISO)
100
AcDbVertex
100
AcDb2dVertex
 10
712.9099693258218
 20
1119.543855992495
 30
0.0
  0
VERTEX
  5
329
330
318
100
AcDbEntity
  8
Sichtbar (ISO)
100
AcDbVertex
100
AcDb2dVertex
 10
712.8901380410962
 20
1119.522709874107
 30
0.0
  0
VERTEX
  5
32A
330
318
100
AcDbEntity
  8
Sichtbar (ISO)
100
AcDbVertex
100
AcDb2dVertex
 10
712.8693224219032
 20
1119.502716837788
 30
0.0
  0
VERTEX
  5
32B
330
318
100
AcDbEntity
  8
Sichtbar (ISO)
100
AcDbVertex
100
AcDb2dVertex
 10
712.8476018360368
 20
1119.484123876844
 30
0.0
  0
VERTEX
  5
32C
330
318
100
AcDbEntity
  8
Sichtbar (ISO)
100
AcDbVertex
100
AcDb2dVertex
 10
712.8250556737969
 20
1119.467178405446
 30
0.0
  0
VERTEX
  5
32D
330
318
100
AcDbEntity
  8
Sichtbar (ISO)
100
AcDbVertex
100
AcDb2dVertex
 10
712.8017635471707
 20
1119.452128036947
 30
0.0
  0
VERTEX
  5
32E
330
318
100
AcDbEntity
  8
Sichtbar (ISO)
100
AcDbVertex
100
AcDb2dVertex
 10
712.7778048464582
 20
1119.43922018552
 30
0.0
  0
VERTEX
  5
32F
330
318
100
AcDbEntity
  8
Sichtbar (ISO)
100
AcDbVertex
100
AcDb2dVertex
 10
712.753258740273
 20
1119.428702066154
 30
0.0
  0
VERTEX
  5
330
330
318
100
AcDbEntity
  8
Sichtbar (ISO)
100
AcDbVertex
100
AcDb2dVertex
 10
712.7260560538533
 20
1119.42023281992
 30
0.0
  0
VERTEX
  5
331
330
318
100
AcDbEntity
  8
Sichtbar (ISO)
100
AcDbVertex
100
AcDb2dVertex
 10
712.6914638773871
 20
1119.414336935345
 30
0.0
  0
VERTEX
  5
332
330
318
100
AcDbEntity
  8
Sichtbar (ISO)
100
AcDbVertex
100
AcDb2dVertex
 10
712.6421163677519
 20
1119.416060371368
 30
0.0
  0
SEQEND
  5
31B
330
318
100
AcDbEntity
  8
Sichtbar (ISO)
  0
ARC
  5
333
330
37
100
AcDbEntity
  8
Sichtbar (ISO)
100
AcDbCircle
 10
711.2211663393438
 20
1115.146294386299
 30
0.0
 40
5.000000000000081
100
AcDbArc
 50
38.49947877455953
 51
45.37845448099488
  0
POLYLINE
  5
334
330
37
100
AcDbEntity
  8
Sichtbar (ISO)
100
AcDb2dPolyline
 66
     1
 10
0.0
 20
0.0
 30
0.0
 70
   128
  0
VERTEX
  5
335
330
334
100
AcDbEntity
  8
Sichtbar (ISO)
100
AcDbVertex
100
AcDb2dVertex
 10
714.5502971526707
 20
1118.173981310012
 30
0.0
  0
VERTEX
  5
336
330
334
100
AcDbEntity
  8
Sichtbar (ISO)
100
AcDbVertex
100
AcDb2dVertex
 10
714.5279692427564
 20
1118.220740029292
 30
0.0
  0
VERTEX
  5
338
330
334
100
AcDbEntity
  8
Sichtbar (ISO)
100
AcDbVertex
100
AcDb2dVertex
 10
714.5195353344296
 20
1118.25605117145
 30
0.0
  0
VERTEX
  5
339
330
334
100
AcDbEntity
  8
Sichtbar (ISO)
100
AcDbVertex
100
AcDb2dVertex
 10
714.5166000807176
 20
1118.285761388147
 30
0.0
  0
VERTEX
  5
33A
330
334
100
AcDbEntity
  8
Sichtbar (ISO)
100
AcDbVertex
100
AcDb2dVertex
 10
714.5166343902364
 20
1118.311460611481
 30
0.0
  0
VERTEX
  5
33B
330
334
100
AcDbEntity
  8
Sichtbar (ISO)
100
AcDbVertex
100
AcDb2dVertex
 10
714.518848916355
 20
1118.337641979206
 30
0.0
  0
VERTEX
  5
33C
330
334
100
AcDbEntity
  8
Sichtbar (ISO)
100
AcDbVertex
100
AcDb2dVertex
 10
714.523105674986
 20
1118.364157627284
 30
0.0
  0
VERTEX
  5
33D
330
334
100
AcDbEntity
  8
Sichtbar (ISO)
100
AcDbVertex
100
AcDb2dVertex
 10
714.5292683409635
 20
1118.390838670896
 30
0.0
  0
VERTEX
  5
33E
330
334
100
AcDbEntity
  8
Sichtbar (ISO)
100
AcDbVertex
100
AcDb2dVertex
 10
714.5371999738568
 20
1118.41751557226
 30
0.0
  0
VERTEX
  5
33F
330
334
100
AcDbEntity
  8
Sichtbar (ISO)
100
AcDbVertex
100
AcDb2dVertex
 10
714.5467637926777
 20
1118.444019062053
 30
0.0
  0
VERTEX
  5
340
330
334
100
AcDbEntity
  8
Sichtbar (ISO)
100
AcDbVertex
100
AcDb2dVertex
 10
714.5578232879202
 20
1118.470180014708
 30
0.0
  0
VERTEX
  5
341
330
334
100
AcDbEntity
  8
Sichtbar (ISO)
100
AcDbVertex
100
AcDb2dVertex
 10
714.5702165053372
 20
1118.495792520706
 30
0.0
  0
VERTEX
  5
342
330
334
100
AcDbEntity
  8
Sichtbar (ISO)
100
AcDbVertex
100
AcDb2dVertex
 10
714.5835064631264
 20
1118.520317776307
 30
0.0
  0
VERTEX
  5
343
330
334
100
AcDbEntity
  8
Sichtbar (ISO)
100
AcDbVertex
100
AcDb2dVertex
 10
714.5974157053166
 20
1118.543590579218
 30
0.0
  0
VERTEX
  5
344
330
334
100
AcDbEntity
  8
Sichtbar (ISO)
100
AcDbVertex
100
AcDb2dVertex
 10
714.6117418356728
 20
1118.565569983172
 30
0.0
  0
VERTEX
  5
345
330
334
100
AcDbEntity
  8
Sichtbar (ISO)
100
AcDbVertex
100
AcDb2dVertex
 10
714.6262813370768
 20
1118.586214059856
 30
0.0
  0
VERTEX
  5
346
330
334
100
AcDbEntity
  8
Sichtbar (ISO)
100
AcDbVertex
100
AcDb2dVertex
 10
714.6408317883959
 20
1118.605481890714
 30
0.0
  0
VERTEX
  5
347
330
334
100
AcDbEntity
  8
Sichtbar (ISO)
100
AcDbVertex
100
AcDb2dVertex
 10
714.6551901283346
 20
1118.623331931936
 30
0.0
  0
VERTEX
  5
348
330
334
100
AcDbEntity
  8
Sichtbar (ISO)
100
AcDbVertex
100
AcDb2dVertex
 10
714.6691532706998
 20
1118.639722667427
 30
0.0
  0
VERTEX
  5
349
330
334
100
AcDbEntity
  8
Sichtbar (ISO)
100
AcDbVertex
100
AcDb2dVertex
 10
714.682518154196
 20
1118.654612553376
 30
0.0
  0
VERTEX
  5
34A
330
334
100
AcDbEntity
  8
Sichtbar (ISO)
100
AcDbVertex
100
AcDb2dVertex
 10
714.6950823576903
 20
1118.667960671229
 30
0.0
  0
VERTEX
  5
34B
330
334
100
AcDbEntity
  8
Sichtbar (ISO)
100
AcDbVertex
100
AcDb2dVertex
 10
714.7066425857516
 20
1118.679725291851
 30
0.0
  0
VERTEX
  5
34C
330
334
100
AcDbEntity
  8
Sichtbar (ISO)
100
AcDbVertex
100
AcDb2dVertex
 10
714.7169957646357
 20
1118.68986488529
 30
0.0
  0
VERTEX
  5
34D
330
334
100
AcDbEntity
  8
Sichtbar (ISO)
100
AcDbVertex
100
AcDb2dVertex
 10
714.7259392639717
 20
1118.698338319954
 30
0.0
  0
VERTEX
  5
34E
330
334
100
AcDbEntity
  8
Sichtbar (ISO)
100
AcDbVertex
100
AcDb2dVertex
 10
714.7332699975666
 20
1118.705104079744
 30
0.0
  0
SEQEND
  5
337
330
334
100
AcDbEntity
  8
Sichtbar (ISO)
  0
POLYLINE
  5
34F
330
37
100
AcDbEntity
  8
Sichtbar (ISO)
100
AcDb2dPolyline
 66
     1
 10
0.0
 20
0.0
 30
0.0
 70
   128
  0
VERTEX
  5
350
330
34F
100
AcDbEntity
  8
Sichtbar (ISO)
100
AcDbVertex
100
AcDb2dVertex
 10
714.5866280762004
 20
1118.133545192311
 30
0.0
  0
VERTEX
  5
351
330
34F
100
AcDbEntity
  8
Sichtbar (ISO)
100
AcDbVertex
100
AcDb2dVertex
 10
714.5851622918715
 20
1118.134763683497
 30
0.0
  0
VERTEX
  5
353
330
34F
100
AcDbEntity
  8
Sichtbar (ISO)
100
AcDbVertex
100
AcDb2dVertex
 10
714.5836512404068
 20
1118.136046826083
 30
0.0
  0
VERTEX
  5
354
330
34F
100
AcDbEntity
  8
Sichtbar (ISO)
100
AcDbVertex
100
AcDb2dVertex
 10
714.5820983002431
 20
1118.13739576497
 30
0.0
  0
VERTEX
  5
355
330
34F
100
AcDbEntity
  8
Sichtbar (ISO)
100
AcDbVertex
100
AcDb2dVertex
 10
714.5805061925374
 20
1118.138811038859
 30
0.0
  0
VERTEX
  5
356
330
34F
100
AcDbEntity
  8
Sichtbar (ISO)
100
AcDbVertex
100
AcDb2dVertex
 10
714.5788778539087
 20
1118.140293392556
 30
0.0
  0
VERTEX
  5
357
330
34F
100
AcDbEntity
  8
Sichtbar (ISO)
100
AcDbVertex
100
AcDb2dVertex
 10
714.5772166666836
 20
1118.141843966633
 30
0.0
  0
VERTEX
  5
358
330
34F
100
AcDbEntity
  8
Sichtbar (ISO)
100
AcDbVertex
100
AcDb2dVertex
 10
714.575525349685
 20
1118.143463302387
 30
0.0
  0
VERTEX
  5
359
330
34F
100
AcDbEntity
  8
Sichtbar (ISO)
100
AcDbVertex
100
AcDb2dVertex
 10
714.573814598896
 20
1118.14514440033
 30
0.0
  0
VERTEX
  5
35A
330
34F
100
AcDbEntity
  8
Sichtbar (ISO)
100
AcDbVertex
100
AcDb2dVertex
 10
714.5720956938356
 20
1118.146879611499
 30
0.0
  0
VERTEX
  5
35B
330
34F
100
AcDbEntity
  8
Sichtbar (ISO)
100
AcDbVertex
100
AcDb2dVertex
 10
714.5703708469315
 20
1118.148669148976
 30
0.0
  0
VERTEX
  5
35C
330
34F
100
AcDbEntity
  8
Sichtbar (ISO)
100
AcDbVertex
100
AcDb2dVertex
 10
714.5686422682768
 20
1118.150513228437
 30
0.0
  0
VERTEX
  5
35D
330
34F
100
AcDbEntity
  8
Sichtbar (ISO)
100
AcDbVertex
100
AcDb2dVertex
 10
714.5669128412396
 20
1118.152411316209
 30
0.0
  0
VERTEX
  5
35E
330
34F
100
AcDbEntity
  8
Sichtbar (ISO)
100
AcDbVertex
100
AcDb2dVertex
 10
714.5652162099556
 20
1118.15432775022
 30
0.0
  0
VERTEX
  5
35F
330
34F
100
AcDbEntity
  8
Sichtbar (ISO)
100
AcDbVertex
100
AcDb2dVertex
 10
714.5635695933241
 20
1118.156241136348
 30
0.0
  0
VERTEX
  5
360
330
34F
100
AcDbEntity
  8
Sichtbar (ISO)
100
AcDbVertex
100
AcDb2dVertex
 10
714.561972948907
 20
1118.158149738159
 30
0.0
  0
VERTEX
  5
361
330
34F
100
AcDbEntity
  8
Sichtbar (ISO)
100
AcDbVertex
100
AcDb2dVertex
 10
714.5604257927121
 20
1118.160051418837
 30
0.0
  0
VERTEX
  5
362
330
34F
100
AcDbEntity
  8
Sichtbar (ISO)
100
AcDbVertex
100
AcDb2dVertex
 10
714.5589325363421
 20
1118.161937700957
 30
0.0
  0
VERTEX
  5
363
330
34F
100
AcDbEntity
  8
Sichtbar (ISO)
100
AcDbVertex
100
AcDb2dVertex
 10
714.5575074241601
 20
1118.163787825543
 30
0.0
  0
VERTEX
  5
364
330
34F
100
AcDbEntity
  8
Sichtbar (ISO)
100
AcDbVertex
100
AcDb2dVertex
 10
714.5561499394491
 20
1118.165597016697
 30
0.0
  0
VERTEX
  5
365
330
34F
100
AcDbEntity
  8
Sichtbar (ISO)
100
AcDbVertex
100
AcDb2dVertex
 10
714.5548589787296
 20
1118.167362043422
 30
0.0
  0
VERTEX
  5
366
330
34F
100
AcDbEntity
  8
Sichtbar (ISO)
100
AcDbVertex
100
AcDb2dVertex
 10
714.5536307680877
 20
1118.169083984648
 30
0.0
  0
VERTEX
  5
367
330
34F
100
AcDbEntity
  8
Sichtbar (ISO)
100
AcDbVertex
100
AcDb2dVertex
 10
714.552461690112
 20
1118.170762853285
 30
0.0
  0
VERTEX
  5
368
330
34F
100
AcDbEntity
  8
Sichtbar (ISO)
100
AcDbVertex
100
AcDb2dVertex
 10
714.5513508007084
 20
1118.172396132772
 30
0.0
  0
VERTEX
  5
369
330
34F
100
AcDbEntity
  8
Sichtbar (ISO)
100
AcDbVertex
100
AcDb2dVertex
 10
714.5502971526707
 20
1118.173981310012
 30
0.0
  0
SEQEND
  5
352
330
34F
100
AcDbEntity
  8
Sichtbar (ISO)
  0
POLYLINE
  5
36A
330
37
100
AcDbEntity
  8
Sichtbar (ISO)
100
AcDb2dPolyline
 66
     1
 10
0.0
 20
0.0
 30
0.0
 70
   128
  0
VERTEX
  5
36B
330
36A
100
AcDbEntity
  8
Sichtbar (ISO)
100
AcDbVertex
100
AcDb2dVertex
 10
715.1342353317737
 20
1118.258831872137
 30
0.0
  0
VERTEX
  5
36C
330
36A
100
AcDbEntity
  8
Sichtbar (ISO)
100
AcDbVertex
100
AcDb2dVertex
 10
715.1276338385474
 20
1118.252994884008
 30
0.0
  0
VERTEX
  5
36E
330
36A
100
AcDbEntity
  8
Sichtbar (ISO)
100
AcDbVertex
100
AcDb2dVertex
 10
715.1194011226382
 20
1118.245829726277
 30
0.0
  0
VERTEX
  5
36F
330
36A
100
AcDbEntity
  8
Sichtbar (ISO)
100
AcDbVertex
100
AcDb2dVertex
 10
715.1094689171383
 20
1118.237456079458
 30
0.0
  0
VERTEX
  5
370
330
36A
100
AcDbEntity
  8
Sichtbar (ISO)
100
AcDbVertex
100
AcDb2dVertex
 10
715.0977685615615
 20
1118.227993170277
 30
0.0
  0
VERTEX
  5
371
330
36A
100
AcDbEntity
  8
Sichtbar (ISO)
100
AcDbVertex
100
AcDb2dVertex
 10
715.0842313456267
 20
1118.217560280886
 30
0.0
  0
VERTEX
  5
372
330
36A
100
AcDbEntity
  8
Sichtbar (ISO)
100
AcDbVertex
100
AcDb2dVertex
 10
715.0687885715012
 20
1118.206276679579
 30
0.0
  0
VERTEX
  5
373
330
36A
100
AcDbEntity
  8
Sichtbar (ISO)
100
AcDbVertex
100
AcDb2dVertex
 10
715.0513715538014
 20
1118.194261620795
 30
0.0
  0
VERTEX
  5
374
330
36A
100
AcDbEntity
  8
Sichtbar (ISO)
100
AcDbVertex
100
AcDb2dVertex
 10
715.0319118288305
 20
1118.181634558155
 30
0.0
  0
VERTEX
  5
375
330
36A
100
AcDbEntity
  8
Sichtbar (ISO)
100
AcDbVertex
100
AcDb2dVertex
 10
715.0103406987558
 20
1118.168514759953
 30
0.0
  0
VERTEX
  5
376
330
36A
100
AcDbEntity
  8
Sichtbar (ISO)
100
AcDbVertex
100
AcDb2dVertex
 10
714.9868741532669
 20
1118.155297261894
 30
0.0
  0
VERTEX
  5
377
330
36A
100
AcDbEntity
  8
Sichtbar (ISO)
100
AcDbVertex
100
AcDb2dVertex
 10
714.9621553053236
 20
1118.142682959579
 30
0.0
  0
VERTEX
  5
378
330
36A
100
AcDbEntity
  8
Sichtbar (ISO)
100
AcDbVertex
100
AcDb2dVertex
 10
714.9363906731227
 20
1118.130861160919
 30
0.0
  0
VERTEX
  5
379
330
36A
100
AcDbEntity
  8
Sichtbar (ISO)
100
AcDbVertex
100
AcDb2dVertex
 10
714.9097725366233
 20
1118.120006252669
 30
0.0
  0
VERTEX
  5
37A
330
36A
100
AcDbEntity
  8
Sichtbar (ISO)
100
AcDbVertex
100
AcDb2dVertex
 10
714.8824936316066
 20
1118.110293006086
 30
0.0
  0
VERTEX
  5
37B
330
36A
100
AcDbEntity
  8
Sichtbar (ISO)
100
AcDbVertex
100
AcDb2dVertex
 10
714.8547460412431
 20
1118.101895581032
 30
0.0
  0
VERTEX
  5
37C
330
36A
100
AcDbEntity
  8
Sichtbar (ISO)
100
AcDbVertex
100
AcDb2dVertex
 10
714.8267224888651
 20
1118.094988762621
 30
0.0
  0
VERTEX
  5
37D
330
36A
100
AcDbEntity
  8
Sichtbar (ISO)
100
AcDbVertex
100
AcDb2dVertex
 10
714.7986154761185
 20
1118.089747136786
 30
0.0
  0
VERTEX
  5
37E
330
36A
100
AcDbEntity
  8
Sichtbar (ISO)
100
AcDbVertex
100
AcDb2dVertex
 10
714.7706173203091
 20
1118.086345048713
 30
0.0
  0
VERTEX
  5
37F
330
36A
100
AcDbEntity
  8
Sichtbar (ISO)
100
AcDbVertex
100
AcDb2dVertex
 10
714.742920498185
 20
1118.084957112047
 30
0.0
  0
VERTEX
  5
380
330
36A
100
AcDbEntity
  8
Sichtbar (ISO)
100
AcDbVertex
100
AcDb2dVertex
 10
714.7157175549631
 20
1118.085757864228
 30
0.0
  0
VERTEX
  5
381
330
36A
100
AcDbEntity
  8
Sichtbar (ISO)
100
AcDbVertex
100
AcDb2dVertex
 10
714.689200992289
 20
1118.088921891188
 30
0.0
  0
VERTEX
  5
382
330
36A
100
AcDbEntity
  8
Sichtbar (ISO)
100
AcDbVertex
100
AcDb2dVertex
 10
714.6614083273288
 20
1118.095188655986
 30
0.0
  0
VERTEX
  5
383
330
36A
100
AcDbEntity
  8
Sichtbar (ISO)
100
AcDbVertex
100
AcDb2dVertex
 10
714.6285026725875
 20
1118.107378918661
 30
0.0
  0
VERTEX
  5
384
330
36A
100
AcDbEntity
  8
Sichtbar (ISO)
100
AcDbVertex
100
AcDb2dVertex
 10
714.5866280762004
 20
1118.133545192311
 30
0.0
  0
SEQEND
  5
36D
330
36A
100
AcDbEntity
  8
Sichtbar (ISO)
  0
ARC
  5
385
330
37
100
AcDbEntity
  8
Sichtbar (ISO)
100
AcDbCircle
 10
711.2211663393439
 20
1115.146294386299
 30
0.0
 40
4.999999999999995
100
AcDbArc
 50
8.49947877456266
 51
15.37845448099641
  0
POLYLINE
  5
386
330
37
100
AcDbEntity
  8
Sichtbar (ISO)
100
AcDb2dPolyline
 66
     1
 10
0.0
 20
0.0
 30
0.0
 70
   128
  0
VERTEX
  5
387
330
386
100
AcDbEntity
  8
Sichtbar (ISO)
100
AcDbVertex
100
AcDb2dVertex
 10
715.6181216967036
 20
1116.103782838376
 30
0.0
  0
VERTEX
  5
388
330
386
100
AcDbEntity
  8
Sichtbar (ISO)
100
AcDbVertex
100
AcDb2dVertex
 10
715.6221645215671
 20
1116.155441031141
 30
0.0
  0
VERTEX
  5
38A
330
386
100
AcDbEntity
  8
Sichtbar (ISO)
100
AcDbVertex
100
AcDb2dVertex
 10
715.6325159210398
 20
1116.190238221219
 30
0.0
  0
VERTEX
  5
38B
330
386
100
AcDbEntity
  8
Sichtbar (ISO)
100
AcDbVertex
100
AcDb2dVertex
 10
715.6448291618421
 20
1116.217435790669
 30
0.0
  0
VERTEX
  5
38C
330
386
100
AcDbEntity
  8
Sichtbar (ISO)
100
AcDbVertex
100
AcDb2dVertex
 10
715.657708605368
 20
1116.239674667958
 30
0.0
  0
VERTEX
  5
38D
330
386
100
AcDbEntity
  8
Sichtbar (ISO)
100
AcDbVertex
100
AcDb2dVertex
 10
715.6727170002305
 20
1116.261241192411
 30
0.0
  0
VERTEX
  5
38E
330
386
100
AcDbEntity
  8
Sichtbar (ISO)
100
AcDbVertex
100
AcDb2dVertex
 10
715.6896612426781
 20
1116.282076048781
 30
0.0
  0
VERTEX
  5
38F
330
386
100
AcDbEntity
  8
Sichtbar (ISO)
100
AcDbVertex
100
AcDb2dVertex
 10
715.7083387763271
 20
1116.302101012057
 30
0.0
  0
VERTEX
  5
390
330
386
100
AcDbEntity
  8
Sichtbar (ISO)
100
AcDbVertex
100
AcDb2dVertex
 10
715.7285463251557
 20
1116.321238212265
 30
0.0
  0
VERTEX
  5
391
330
386
100
AcDbEntity
  8
Sichtbar (ISO)
100
AcDbVertex
100
AcDb2dVertex
 10
715.7500805681297
 20
1116.339408937697
 30
0.0
  0
VERTEX
  5
392
330
386
100
AcDbEntity
  8
Sichtbar (ISO)
100
AcDbVertex
100
AcDb2dVertex
 10
715.7727389713717
 20
1116.35653538421
 30
0.0
  0
VERTEX
  5
393
330
386
100
AcDbEntity
  8
Sichtbar (ISO)
100
AcDbVertex
100
AcDb2dVertex
 10
715.7962780474788
 20
1116.37251977898
 30
0.0
  0
VERTEX
  5
394
330
386
100
AcDbEntity
  8
Sichtbar (ISO)
100
AcDbVertex
100
AcDb2dVertex
 10
715.8200498551522
 20
1116.387114300507
 30
0.0
  0
VERTEX
  5
395
330
386
100
AcDbEntity
  8
Sichtbar (ISO)
100
AcDbVertex
100
AcDb2dVertex
 10
715.8437322245321
 20
1116.400314546024
 30
0.0
  0
VERTEX
  5
396
330
386
100
AcDbEntity
  8
Sichtbar (ISO)
100
AcDbVertex
100
AcDb2dVertex
 10
715.8671284908211
 20
1116.412186007084
 30
0.0
  0
VERTEX
  5
397
330
386
100
AcDbEntity
  8
Sichtbar (ISO)
100
AcDbVertex
100
AcDb2dVertex
 10
715.8900423330049
 20
1116.422794684444
 30
0.0
  0
VERTEX
  5
398
330
386
100
AcDbEntity
  8
Sichtbar (ISO)
100
AcDbVertex
100
AcDb2dVertex
 10
715.9122772854664
 20
1116.432205847971
 30
0.0
  0
VERTEX
  5
399
330
386
100
AcDbEntity
  8
Sichtbar (ISO)
100
AcDbVertex
100
AcDb2dVertex
 10
715.9336368055043
 20
1116.440485299243
 30
0.0
  0
VERTEX
  5
39A
330
386
100
AcDbEntity
  8
Sichtbar (ISO)
100
AcDbVertex
100
AcDb2dVertex
 10
715.9539246491886
 20
1116.447698507307
 30
0.0
  0
VERTEX
  5
39B
330
386
100
AcDbEntity
  8
Sichtbar (ISO)
100
AcDbVertex
100
AcDb2dVertex
 10
715.9729440521315
 20
1116.453911074559
 30
0.0
  0
VERTEX
  5
39C
330
386
100
AcDbEntity
  8
Sichtbar (ISO)
100
AcDbVertex
100
AcDb2dVertex
 10
715.9904988924989
 20
1116.459188780071
 30
0.0
  0
VERTEX
  5
39D
330
386
100
AcDbEntity
  8
Sichtbar (ISO)
100
AcDbVertex
100
AcDb2dVertex
 10
716.0063925054934
 20
1116.463597115396
 30
0.0
  0
VERTEX
  5
39E
330
386
100
AcDbEntity
  8
Sichtbar (ISO)
100
AcDbVertex
100
AcDb2dVertex
 10
716.0204287692812
 20
1116.467201859605
 30
0.0
  0
VERTEX
  5
39F
330
386
100
AcDbEntity
  8
Sichtbar (ISO)
100
AcDbVertex
100
AcDb2dVertex
 10
716.0324107973779
 20
1116.470068305071
 30
0.0
  0
VERTEX
  5
3A0
330
386
100
AcDbEntity
  8
Sichtbar (ISO)
100
AcDbVertex
100
AcDb2dVertex
 10
716.0421424679498
 20
1116.472262230865
 30
0.0
  0
SEQEND
  5
389
330
386
100
AcDbEntity
  8
Sichtbar (ISO)
  0
POLYLINE
  5
3A1
330
37
100
AcDbEntity
  8
Sichtbar (ISO)
100
AcDb2dPolyline
 66
     1
 10
0.0
 20
0.0
 30
0.0
 70
   128
  0
VERTEX
  5
3A2
330
3A1
100
AcDbEntity
  8
Sichtbar (ISO)
100
AcDbVertex
100
AcDb2dVertex
 10
715.6293671824239
 20
1116.05059864229
 30
0.0
  0
VERTEX
  5
3A3
330
3A1
100
AcDbEntity
  8
Sichtbar (ISO)
100
AcDbVertex
100
AcDb2dVertex
 10
715.6287078063814
 20
1116.05238444126
 30
0.0
  0
VERTEX
  5
3A5
330
3A1
100
AcDbEntity
  8
Sichtbar (ISO)
100
AcDbVertex
100
AcDb2dVertex
 10
715.6280417510473
 20
1116.054248574972
 30
0.0
  0
VERTEX
  5
3A6
330
3A1
100
AcDbEntity
  8
Sichtbar (ISO)
100
AcDbVertex
100
AcDb2dVertex
 10
715.6273720620815
 20
1116.056190775037
 30
0.0
  0
VERTEX
  5
3A7
330
3A1
100
AcDbEntity
  8
Sichtbar (ISO)
100
AcDbVertex
100
AcDb2dVertex
 10
715.6267016180354
 20
1116.058209621312
 30
0.0
  0
VERTEX
  5
3A8
330
3A1
100
AcDbEntity
  8
Sichtbar (ISO)
100
AcDbVertex
100
AcDb2dVertex
 10
715.6260335641595
 20
1116.060304734563
 30
0.0
  0
VERTEX
  5
3A9
330
3A1
100
AcDbEntity
  8
Sichtbar (ISO)
100
AcDbVertex
100
AcDb2dVertex
 10
715.6253708015107
 20
1116.062475115515
 30
0.0
  0
VERTEX
  5
3AA
330
3A1
100
AcDbEntity
  8
Sichtbar (ISO)
100
AcDbVertex
100
AcDb2dVertex
 10
715.6247163532434
 20
1116.064720074911
 30
0.0
  0
VERTEX
  5
3AB
330
3A1
100
AcDbEntity
  8
Sichtbar (ISO)
100
AcDbVertex
100
AcDb2dVertex
 10
715.6240743571339
 20
1116.067034115597
 30
0.0
  0
VERTEX
  5
3AC
330
3A1
100
AcDbEntity
  8
Sichtbar (ISO)
100
AcDbVertex
100
AcDb2dVertex
 10
715.6234531140537
 20
1116.069396850835
 30
0.0
  0
VERTEX
  5
3AD
330
3A1
100
AcDbEntity
  8
Sichtbar (ISO)
100
AcDbVertex
100
AcDb2dVertex
 10
715.6228549466491
 20
1116.071804357783
 30
0.0
  0
VERTEX
  5
3AE
330
3A1
100
AcDbEntity
  8
Sichtbar (ISO)
100
AcDbVertex
100
AcDb2dVertex
 10
715.6222818371593
 20
1116.074256213887
 30
0.0
  0
VERTEX
  5
3AF
330
3A1
100
AcDbEntity
  8
Sichtbar (ISO)
100
AcDbVertex
100
AcDb2dVertex
 10
715.6217355236305
 20
1116.076751376542
 30
0.0
  0
VERTEX
  5
3B0
330
3A1
100
AcDbEntity
  8
Sichtbar (ISO)
100
AcDbVertex
100
AcDb2dVertex
 10
715.6212224754868
 20
1116.079264808655
 30
0.0
  0
VERTEX
  5
3B1
330
3A1
100
AcDbEntity
  8
Sichtbar (ISO)
100
AcDbVertex
100
AcDb2dVertex
 10
715.6207523321584
 20
1116.08174787869
 30
0.0
  0
VERTEX
  5
3B2
330
3A1
100
AcDbEntity
  8
Sichtbar (ISO)
100
AcDbVertex
100
AcDb2dVertex
 10
715.6203234518127
 20
1116.084197508915
 30
0.0
  0
VERTEX
  5
3B3
330
3A1
100
AcDbEntity
  8
Sichtbar (ISO)
100
AcDbVertex
100
AcDb2dVertex
 10
715.6199348031003
 20
1116.086612171717
 30
0.0
  0
VERTEX
  5
3B4
330
3A1
100
AcDbEntity
  8
Sichtbar (ISO)
100
AcDbVertex
100
AcDb2dVertex
 10
715.6195850204535
 20
1116.088988035967
 30
0.0
  0
VERTEX
  5
3B5
330
3A1
100
AcDbEntity
  8
Sichtbar (ISO)
100
AcDbVertex
100
AcDb2dVertex
 10
715.6192747520512
 20
1116.091305651753
 30
0.0
  0
VERTEX
  5
3B6
330
3A1
100
AcDbEntity
  8
Sichtbar (ISO)
100
AcDbVertex
100
AcDb2dVertex
 10
715.6190022756014
 20
1116.09355846356
 30
0.0
  0
VERTEX
  5
3B7
330
3A1
100
AcDbEntity
  8
Sichtbar (ISO)
100
AcDbVertex
100
AcDb2dVertex
 10
715.6187651750563
 20
1116.095744701274
 30
0.0
  0
VERTEX
  5
3B8
330
3A1
100
AcDbEntity
  8
Sichtbar (ISO)
100
AcDbVertex
100
AcDb2dVertex
 10
715.6185607901754
 20
1116.097861974727
 30
0.0
  0
VERTEX
  5
3B9
330
3A1
100
AcDbEntity
  8
Sichtbar (ISO)
100
AcDbVertex
100
AcDb2dVertex
 10
715.6183872478748
 20
1116.099908801321
 30
0.0
  0
VERTEX
  5
3BA
330
3A1
100
AcDbEntity
  8
Sichtbar (ISO)
100
AcDbVertex
100
AcDb2dVertex
 10
715.6182415891431
 20
1116.10188312342
 30
0.0
  0
VERTEX
  5
3BB
330
3A1
100
AcDbEntity
  8
Sichtbar (ISO)
100
AcDbVertex
100
AcDb2dVertex
 10
715.6181216967036
 20
1116.103782838376
 30
0.0
  0
SEQEND
  5
3A4
330
3A1
100
AcDbEntity
  8
Sichtbar (ISO)
  0
POLYLINE
  5
3BC
330
37
100
AcDbEntity
  8
Sichtbar (ISO)
100
AcDb2dPolyline
 66
     1
 10
0.0
 20
0.0
 30
0.0
 70
   128
  0
VERTEX
  5
3BD
330
3BC
100
AcDbEntity
  8
Sichtbar (ISO)
100
AcDbVertex
100
AcDb2dVertex
 10
716.1662524388301
 20
1115.885296596004
 30
0.0
  0
VERTEX
  5
3BE
330
3BC
100
AcDbEntity
  8
Sichtbar (ISO)
100
AcDbVertex
100
AcDb2dVertex
 10
716.1576165499074
 20
1115.883542326639
 30
0.0
  0
VERTEX
  5
3C0
330
3BC
100
AcDbEntity
  8
Sichtbar (ISO)
100
AcDbVertex
100
AcDb2dVertex
 10
716.1469043252925
 20
1115.881453384752
 30
0.0
  0
VERTEX
  5
3C1
330
3BC
100
AcDbEntity
  8
Sichtbar (ISO)
100
AcDbVertex
100
AcDb2dVertex
 10
716.1341159698012
 20
1115.879167776505
 30
0.0
  0
VERTEX
  5
3C2
330
3BC
100
AcDbEntity
  8
Sichtbar (ISO)
100
AcDbVertex
100
AcDb2dVertex
 10
716.1192516432365
 20
1115.876822666325
 30
0.0
  0
VERTEX
  5
3C3
330
3BC
100
AcDbEntity
  8
Sichtbar (ISO)
100
AcDbVertex
100
AcDb2dVertex
 10
716.1023117721005
 20
1115.874556259556
 30
0.0
  0
VERTEX
  5
3C4
330
3BC
100
AcDbEntity
  8
Sichtbar (ISO)
100
AcDbVertex
100
AcDb2dVertex
 10
716.0832960953293
 20
1115.872505743132
 30
0.0
  0
VERTEX
  5
3C5
330
3BC
100
AcDbEntity
  8
Sichtbar (ISO)
100
AcDbVertex
100
AcDb2dVertex
 10
716.0622050169189
 20
1115.870808901527
 30
0.0
  0
VERTEX
  5
3C6
330
3BC
100
AcDbEntity
  8
Sichtbar (ISO)
100
AcDbVertex
100
AcDb2dVertex
 10
716.0390387191784
 20
1115.869603320039
 30
0.0
  0
VERTEX
  5
3C7
330
3BC
100
AcDbEntity
  8
Sichtbar (ISO)
100
AcDbVertex
100
AcDb2dVertex
 10
716.0137976061043
 20
1115.869026783141
 30
0.0
  0
VERTEX
  5
3C8
330
3BC
100
AcDbEntity
  8
Sichtbar (ISO)
100
AcDbVertex
100
AcDb2dVertex
 10
715.986866675495
 20
1115.869313422352
 30
0.0
  0
VERTEX
  5
3C9
330
3BC
100
AcDbEntity
  8
Sichtbar (ISO)
100
AcDbVertex
100
AcDb2dVertex
 10
715.9591521803622
 20
1115.870748632802
 30
0.0
  0
VERTEX
  5
3CA
330
3BC
100
AcDbEntity
  8
Sichtbar (ISO)
100
AcDbVertex
100
AcDb2dVertex
 10
715.9309283235305
 20
1115.873392879803
 30
0.0
  0
VERTEX
  5
3CB
330
3BC
100
AcDbEntity
  8
Sichtbar (ISO)
100
AcDbVertex
100
AcDb2dVertex
 10
715.9024489677879
 20
1115.877301174277
 30
0.0
  0
VERTEX
  5
3CC
330
3BC
100
AcDbEntity
  8
Sichtbar (ISO)
100
AcDbVertex
100
AcDb2dVertex
 10
715.8739679984283
 20
1115.882528948011
 30
0.0
  0
VERTEX
  5
3CD
330
3BC
100
AcDbEntity
  8
Sichtbar (ISO)
100
AcDbVertex
100
AcDb2dVertex
 10
715.8457392332272
 20
1115.889130370191
 30
0.0
  0
VERTEX
  5
3CE
330
3BC
100
AcDbEntity
  8
Sichtbar (ISO)
100
AcDbVertex
100
AcDb2dVertex
 10
715.818016756659
 20
1115.897160650919
 30
0.0
  0
VERTEX
  5
3CF
330
3BC
100
AcDbEntity
  8
Sichtbar (ISO)
100
AcDbVertex
100
AcDb2dVertex
 10
715.7910545311019
 20
1115.906674690273
 30
0.0
  0
VERTEX
  5
3D0
330
3BC
100
AcDbEntity
  8
Sichtbar (ISO)
100
AcDbVertex
100
AcDb2dVertex
 10
715.7651064193438
 20
1115.917727499172
 30
0.0
  0
VERTEX
  5
3D1
330
3BC
100
AcDbEntity
  8
Sichtbar (ISO)
100
AcDbVertex
100
AcDb2dVertex
 10
715.7404263837626
 20
1115.930373977695
 30
0.0
  0
VERTEX
  5
3D2
330
3BC
100
AcDbEntity
  8
Sichtbar (ISO)
100
AcDbVertex
100
AcDb2dVertex
 10
715.71726826464
 20
1115.944668715894
 30
0.0
  0
VERTEX
  5
3D3
330
3BC
100
AcDbEntity
  8
Sichtbar (ISO)
100
AcDbVertex
100
AcDb2dVertex
 10
715.6958862685471
 20
1115.960667233896
 30
0.0
  0
VERTEX
  5
3D4
330
3BC
100
AcDbEntity
  8
Sichtbar (ISO)
100
AcDbVertex
100
AcDb2dVertex
 10
715.6749506309621
 20
1115.979990907821
 30
0.0
  0
VERTEX
  5
3D5
330
3BC
100
AcDbEntity
  8
Sichtbar (ISO)
100
AcDbVertex
100
AcDb2dVertex
 10
715.6525484305324
 20
1116.007000620773
 30
0.0
  0
VERTEX
  5
3D6
330
3BC
100
AcDbEntity
  8
Sichtbar (ISO)
100
AcDbVertex
100
AcDb2dVertex
 10
715.6293671824239
 20
1116.05059864229
 30
0.0
  0
SEQEND
  5
3BF
330
3BC
100
AcDbEntity
  8
Sichtbar (ISO)
  0
ARC
  5
3D7
330
37
100
AcDbEntity
  8
Sichtbar (ISO)
100
AcDbCircle
 10
711.2211663393438
 20
1115.146294386299
 30
0.0
 40
5.00000000000011
100
AcDbArc
 50
338.4994787745617
 51
345.3784544809959
  0
POLYLINE
  5
3D8
330
37
100
AcDbEntity
  8
Sichtbar (ISO)
100
AcDb2dPolyline
 66
     1
 10
0.0
 20
0.0
 30
0.0
 70
   128
  0
VERTEX
  5
3D9
330
3D8
100
AcDbEntity
  8
Sichtbar (ISO)
100
AcDbVertex
100
AcDb2dVertex
 10
715.5077856125284
 20
1113.777025943991
 30
0.0
  0
VERTEX
  5
3DA
330
3D8
100
AcDbEntity
  8
Sichtbar (ISO)
100
AcDbVertex
100
AcDb2dVertex
 10
715.5371157631103
 20
1113.819741985622
 30
0.0
  0
VERTEX
  5
3DC
330
3D8
100
AcDbEntity
  8
Sichtbar (ISO)
100
AcDbVertex
100
AcDb2dVertex
 10
715.5634792876132
 20
1113.844701458126
 30
0.0
  0
VERTEX
  5
3DD
330
3D8
100
AcDbEntity
  8
Sichtbar (ISO)
100
AcDbVertex
100
AcDb2dVertex
 10
715.5877413617956
 20
1113.862098479912
 30
0.0
  0
VERTEX
  5
3DE
330
3D8
100
AcDbEntity
  8
Sichtbar (ISO)
100
AcDbVertex
100
AcDb2dVertex
 10
715.6100148823294
 20
1113.874918334202
 30
0.0
  0
VERTEX
  5
3DF
330
3D8
100
AcDbEntity
  8
Sichtbar (ISO)
100
AcDbVertex
100
AcDb2dVertex
 10
715.6337954497902
 20
1113.886091398848
 30
0.0
  0
VERTEX
  5
3E0
330
3D8
100
AcDbEntity
  8
Sichtbar (ISO)
100
AcDbVertex
100
AcDb2dVertex
 10
715.6588874121609
 20
1113.895662640816
 30
0.0
  0
VERTEX
  5
3E1
330
3D8
100
AcDbEntity
  8
Sichtbar (ISO)
100
AcDbVertex
100
AcDb2dVertex
 10
715.6850750165166
 20
1113.90366617849
 30
0.0
  0
VERTEX
  5
3E2
330
3D8
100
AcDbEntity
  8
Sichtbar (ISO)
100
AcDbVertex
100
AcDb2dVertex
 10
715.7121437500277
 20
1113.910135641869
 30
0.0
  0
VERTEX
  5
3E3
330
3D8
100
AcDbEntity
  8
Sichtbar (ISO)
100
AcDbVertex
100
AcDb2dVertex
 10
715.7398784798168
 20
1113.915104905145
 30
0.0
  0
VERTEX
  5
3E4
330
3D8
100
AcDbEntity
  8
Sichtbar (ISO)
100
AcDbVertex
100
AcDb2dVertex
 10
715.7680642721869
 20
1113.918607620824
 30
0.0
  0
VERTEX
  5
3E5
330
3D8
100
AcDbEntity
  8
Sichtbar (ISO)
100
AcDbVertex
100
AcDb2dVertex
 10
715.7964418482235
 20
1113.920680867991
 30
0.0
  0
VERTEX
  5
3E6
330
3D8
100
AcDbEntity
  8
Sichtbar (ISO)
100
AcDbVertex
100
AcDb2dVertex
 10
715.8243263411844
 20
1113.921434077774
 30
0.0
  0
VERTEX
  5
3E7
330
3D8
100
AcDbEntity
  8
Sichtbar (ISO)
100
AcDbVertex
100
AcDb2dVertex
 10
715.8514360007828
 20
1113.921024765907
 30
0.0
  0
VERTEX
  5
3E8
330
3D8
100
AcDbEntity
  8
Sichtbar (ISO)
100
AcDbVertex
100
AcDb2dVertex
 10
715.8776334825506
 20
1113.919607579694
 30
0.0
  0
VERTEX
  5
3E9
330
3D8
100
AcDbEntity
  8
Sichtbar (ISO)
100
AcDbVertex
100
AcDb2dVertex
 10
715.9027817087185
 20
1113.917338207351
 30
0.0
  0
VERTEX
  5
3EA
330
3D8
100
AcDbEntity
  8
Sichtbar (ISO)
100
AcDbVertex
100
AcDb2dVertex
 10
715.9267433123118
 20
1113.914370875313
 30
0.0
  0
VERTEX
  5
3EB
330
3D8
100
AcDbEntity
  8
Sichtbar (ISO)
100
AcDbVertex
100
AcDb2dVertex
 10
715.949381016381
 20
1113.910861493486
 30
0.0
  0
VERTEX
  5
3EC
330
3D8
100
AcDbEntity
  8
Sichtbar (ISO)
100
AcDbVertex
100
AcDb2dVertex
 10
715.9705574539513
 20
1113.906964288304
 30
0.0
  0
VERTEX
  5
3ED
330
3D8
100
AcDbEntity
  8
Sichtbar (ISO)
100
AcDbVertex
100
AcDb2dVertex
 10
715.9901349046998
 20
1113.902834771311
 30
0.0
  0
VERTEX
  5
3EE
330
3D8
100
AcDbEntity
  8
Sichtbar (ISO)
100
AcDbVertex
100
AcDb2dVertex
 10
716.0079768883986
 20
1113.898627965664
 30
0.0
  0
VERTEX
  5
3EF
330
3D8
100
AcDbEntity
  8
Sichtbar (ISO)
100
AcDbVertex
100
AcDb2dVertex
 10
716.0239452413513
 20
1113.894498984544
 30
0.0
  0
VERTEX
  5
3F0
330
3D8
100
AcDbEntity
  8
Sichtbar (ISO)
100
AcDbVertex
100
AcDb2dVertex
 10
716.0379032616434
 20
1113.89060265193
 30
0.0
  0
VERTEX
  5
3F1
330
3D8
100
AcDbEntity
  8
Sichtbar (ISO)
100
AcDbVertex
100
AcDb2dVertex
 10
716.0497132064455
 20
1113.887094058497
 30
0.0
  0
VERTEX
  5
3F2
330
3D8
100
AcDbEntity
  8
Sichtbar (ISO)
100
AcDbVertex
100
AcDb2dVertex
 10
716.059237952976
 20
1113.884128050729
 30
0.0
  0
SEQEND
  5
3DB
330
3D8
100
AcDbEntity
  8
Sichtbar (ISO)
  0
POLYLINE
  5
3F3
330
37
100
AcDbEntity
  8
Sichtbar (ISO)
100
AcDb2dPolyline
 66
     1
 10
0.0
 20
0.0
 30
0.0
 70
   128
  0
VERTEX
  5
3F4
330
3F3
100
AcDbEntity
  8
Sichtbar (ISO)
100
AcDbVertex
100
AcDb2dVertex
 10
715.4909323244112
 20
1113.725344357889
 30
0.0
  0
VERTEX
  5
3F5
330
3F3
100
AcDbEntity
  8
Sichtbar (ISO)
100
AcDbVertex
100
AcDb2dVertex
 10
715.4912542428801
 20
1113.727220552084
 30
0.0
  0
VERTEX
  5
3F7
330
3F3
100
AcDbEntity
  8
Sichtbar (ISO)
100
AcDbVertex
100
AcDb2dVertex
 10
715.491609515637
 20
1113.729167980853
 30
0.0
  0
VERTEX
  5
3F8
330
3F3
100
AcDbEntity
  8
Sichtbar (ISO)
100
AcDbVertex
100
AcDb2dVertex
 10
715.4920005778598
 20
1113.731184825692
 30
0.0
  0
VERTEX
  5
3F9
330
3F3
100
AcDbEntity
  8
Sichtbar (ISO)
100
AcDbVertex
100
AcDb2dVertex
 10
715.4924293988466
 20
1113.733268448864
 30
0.0
  0
VERTEX
  5
3FA
330
3F3
100
AcDbEntity
  8
Sichtbar (ISO)
100
AcDbVertex
100
AcDb2dVertex
 10
715.4928984137748
 20
1113.735417031866
 30
0.0
  0
VERTEX
  5
3FB
330
3F3
100
AcDbEntity
  8
Sichtbar (ISO)
100
AcDbVertex
100
AcDb2dVertex
 10
715.4934095919424
 20
1113.737627936961
 30
0.0
  0
VERTEX
  5
3FC
330
3F3
100
AcDbEntity
  8
Sichtbar (ISO)
100
AcDbVertex
100
AcDb2dVertex
 10
715.4939653685272
 20
1113.739899345643
 30
0.0
  0
VERTEX
  5
3FD
330
3F3
100
AcDbEntity
  8
Sichtbar (ISO)
100
AcDbVertex
100
AcDb2dVertex
 10
715.4945665351867
 20
1113.74222435693
 30
0.0
  0
VERTEX
  5
3FE
330
3F3
100
AcDbEntity
  8
Sichtbar (ISO)
100
AcDbVertex
100
AcDb2dVertex
 10
715.4952097064145
 20
1113.744581098671
 30
0.0
  0
VERTEX
  5
3FF
330
3F3
100
AcDbEntity
  8
Sichtbar (ISO)
100
AcDbVertex
100
AcDb2dVertex
 10
715.4958954988821
 20
1113.746965317182
 30
0.0
  0
VERTEX
  5
400
330
3F3
100
AcDbEntity
  8
Sichtbar (ISO)
100
AcDbVertex
100
AcDb2dVertex
 10
715.4966250851658
 20
1113.749375261476
 30
0.0
  0
VERTEX
  5
401
330
3F3
100
AcDbEntity
  8
Sichtbar (ISO)
100
AcDbVertex
100
AcDb2dVertex
 10
715.4973995269984
 20
1113.751809080975
 30
0.0
  0
VERTEX
  5
402
330
3F3
100
AcDbEntity
  8
Sichtbar (ISO)
100
AcDbVertex
100
AcDb2dVertex
 10
715.498212025236
 20
1113.7542422371
 30
0.0
  0
VERTEX
  5
403
330
3F3
100
AcDbEntity
  8
Sichtbar (ISO)
100
AcDbVertex
100
AcDb2dVertex
 10
715.4990462588954
 20
1113.756628014161
 30
0.0
  0
VERTEX
  5
404
330
3F3
100
AcDbEntity
  8
Sichtbar (ISO)
100
AcDbVertex
100
AcDb2dVertex
 10
715.4998997669165
 20
1113.758963800306
 30
0.0
  0
VERTEX
  5
405
330
3F3
100
AcDbEntity
  8
Sichtbar (ISO)
100
AcDbVertex
100
AcDb2dVertex
 10
715.5007704224572
 20
1113.7612492872
 30
0.0
  0
VERTEX
  5
406
330
3F3
100
AcDbEntity
  8
Sichtbar (ISO)
100
AcDbVertex
100
AcDb2dVertex
 10
715.5016555427708
 20
1113.76348166381
 30
0.0
  0
VERTEX
  5
407
330
3F3
100
AcDbEntity
  8
Sichtbar (ISO)
100
AcDbVertex
100
AcDb2dVertex
 10
715.5025455660696
 20
1113.76564392553
 30
0.0
  0
VERTEX
  5
408
330
3F3
100
AcDbEntity
  8
Sichtbar (ISO)
100
AcDbVertex
100
AcDb2dVertex
 10
715.5034360136067
 20
1113.767731247016
 30
0.0
  0
VERTEX
  5
409
330
3F3
100
AcDbEntity
  8
Sichtbar (ISO)
100
AcDbVertex
100
AcDb2dVertex
 10
715.504323584276
 20
1113.769743066175
 30
0.0
  0
VERTEX
  5
40A
330
3F3
100
AcDbEntity
  8
Sichtbar (ISO)
100
AcDbVertex
100
AcDb2dVertex
 10
715.5052055086814
 20
1113.771678897996
 30
0.0
  0
VERTEX
  5
40B
330
3F3
100
AcDbEntity
  8
Sichtbar (ISO)
100
AcDbVertex
100
AcDb2dVertex
 10
715.50607859656
 20
1113.773538279977
 30
0.0
  0
VERTEX
  5
40C
330
3F3
100
AcDbEntity
  8
Sichtbar (ISO)
100
AcDbVertex
100
AcDb2dVertex
 10
715.5069396576489
 20
1113.775320749613
 30
0.0
  0
VERTEX
  5
40D
330
3F3
100
AcDbEntity
  8
Sichtbar (ISO)
100
AcDbVertex
100
AcDb2dVertex
 10
715.5077856125284
 20
1113.777025943991
 30
0.0
  0
SEQEND
  5
3F6
330
3F3
100
AcDbEntity
  8
Sichtbar (ISO)
  0
POLYLINE
  5
40E
330
37
100
AcDbEntity
  8
Sichtbar (ISO)
100
AcDb2dPolyline
 66
     1
 10
0.0
 20
0.0
 30
0.0
 70
   128
  0
VERTEX
  5
40F
330
40E
100
AcDbEntity
  8
Sichtbar (ISO)
100
AcDbVertex
100
AcDb2dVertex
 10
715.873237652322
 20
1113.313745872241
 30
0.0
  0
VERTEX
  5
410
330
40E
100
AcDbEntity
  8
Sichtbar (ISO)
100
AcDbVertex
100
AcDb2dVertex
 10
715.8648814327131
 20
1113.316544612818
 30
0.0
  0
VERTEX
  5
412
330
40E
100
AcDbEntity
  8
Sichtbar (ISO)
100
AcDbVertex
100
AcDb2dVertex
 10
715.8545600837448
 20
1113.320091781895
 30
0.0
  0
VERTEX
  5
413
330
40E
100
AcDbEntity
  8
Sichtbar (ISO)
100
AcDbVertex
100
AcDb2dVertex
 10
715.842342221398
 20
1113.324506321699
 30
0.0
  0
VERTEX
  5
414
330
40E
100
AcDbEntity
  8
Sichtbar (ISO)
100
AcDbVertex
100
AcDb2dVertex
 10
715.8282970158703
 20
1113.329907672408
 30
0.0
  0
VERTEX
  5
415
330
40E
100
AcDbEntity
  8
Sichtbar (ISO)
100
AcDbVertex
100
AcDb2dVertex
 10
715.812493193986
 20
1113.33641487584
 30
0.0
  0
VERTEX
  5
416
330
40E
100
AcDbEntity
  8
Sichtbar (ISO)
100
AcDbVertex
100
AcDb2dVertex
 10
715.7949999034362
 20
1113.344146951304
 30
0.0
  0
VERTEX
  5
417
330
40E
100
AcDbEntity
  8
Sichtbar (ISO)
100
AcDbVertex
100
AcDb2dVertex
 10
715.7758861810689
 20
1113.353222818521
 30
0.0
  0
VERTEX
  5
418
330
40E
100
AcDbEntity
  8
Sichtbar (ISO)
100
AcDbVertex
100
AcDb2dVertex
 10
715.7552208870578
 20
1113.363762039765
 30
0.0
  0
VERTEX
  5
419
330
40E
100
AcDbEntity
  8
Sichtbar (ISO)
100
AcDbVertex
100
AcDb2dVertex
 10
715.7330729474076
 20
1113.375883435168
 30
0.0
  0
VERTEX
  5
41A
330
40E
100
AcDbEntity
  8
Sichtbar (ISO)
100
AcDbVertex
100
AcDb2dVertex
 10
715.7098933612112
 20
1113.389597180344
 30
0.0
  0
VERTEX
  5
41B
330
40E
100
AcDbEntity
  8
Sichtbar (ISO)
100
AcDbVertex
100
AcDb2dVertex
 10
715.6866094771337
 20
1113.404697201692
 30
0.0
  0
VERTEX
  5
41C
330
40E
100
AcDbEntity
  8
Sichtbar (ISO)
100
AcDbVertex
100
AcDb2dVertex
 10
715.6634891292806
 20
1113.421099218298
 30
0.0
  0
VERTEX
  5
41D
330
40E
100
AcDbEntity
  8
Sichtbar (ISO)
100
AcDbVertex
100
AcDb2dVertex
 10
715.6407795101372
 20
1113.438723640681
 30
0.0
  0
VERTEX
  5
41E
330
40E
100
AcDbEntity
  8
Sichtbar (ISO)
100
AcDbVertex
100
AcDb2dVertex
 10
715.6187279455386
 20
1113.45749139982
 30
0.0
  0
VERTEX
  5
41F
330
40E
100
AcDbEntity
  8
Sichtbar (ISO)
100
AcDbVertex
100
AcDb2dVertex
 10
715.5975818271506
 20
1113.477322684545
 30
0.0
  0
VERTEX
  5
420
330
40E
100
AcDbEntity
  8
Sichtbar (ISO)
100
AcDbVertex
100
AcDb2dVertex
 10
715.5775887908319
 20
1113.498138303738
 30
0.0
  0
VERTEX
  5
421
330
40E
100
AcDbEntity
  8
Sichtbar (ISO)
100
AcDbVertex
100
AcDb2dVertex
 10
715.5589958298876
 20
1113.519858889605
 30
0.0
  0
VERTEX
  5
422
330
40E
100
AcDbEntity
  8
Sichtbar (ISO)
100
AcDbVertex
100
AcDb2dVertex
 10
715.5420503584898
 20
1113.542405051845
 30
0.0
  0
VERTEX
  5
423
330
40E
100
AcDbEntity
  8
Sichtbar (ISO)
100
AcDbVertex
100
AcDb2dVertex
 10
715.5269999899909
 20
1113.565697178471
 30
0.0
  0
VERTEX
  5
424
330
40E
100
AcDbEntity
  8
Sichtbar (ISO)
100
AcDbVertex
100
AcDb2dVertex
 10
715.514092138563
 20
1113.589655879183
 30
0.0
  0
VERTEX
  5
425
330
40E
100
AcDbEntity
  8
Sichtbar (ISO)
100
AcDbVertex
100
AcDb2dVertex
 10
715.5035740191979
 20
1113.614201985368
 30
0.0
  0
VERTEX
  5
426
330
40E
100
AcDbEntity
  8
Sichtbar (ISO)
100
AcDbVertex
100
AcDb2dVertex
 10
715.4951047729632
 20
1113.641404671788
 30
0.0
  0
VERTEX
  5
427
330
40E
100
AcDbEntity
  8
Sichtbar (ISO)
100
AcDbVertex
100
AcDb2dVertex
 10
715.4892088883888
 20
1113.675996848254
 30
0.0
  0
VERTEX
  5
428
330
40E
100
AcDbEntity
  8
Sichtbar (ISO)
100
AcDbVertex
100
AcDb2dVertex
 10
715.4909323244112
 20
1113.725344357889
 30
0.0
  0
SEQEND
  5
411
330
40E
100
AcDbEntity
  8
Sichtbar (ISO)
  0
ARC
  5
429
330
37
100
AcDbEntity
  8
Sichtbar (ISO)
100
AcDbCircle
 10
711.2211663393438
 20
1115.146294386299
 30
0.0
 40
5.000000000000098
100
AcDbArc
 50
308.4994787745597
 51
315.3784544809949
  0
POLYLINE
  5
42A
330
37
100
AcDbEntity
  8
Sichtbar (ISO)
100
AcDb2dPolyline
 66
     1
 10
0.0
 20
0.0
 30
0.0
 70
   128
  0
VERTEX
  5
42B
330
42A
100
AcDbEntity
  8
Sichtbar (ISO)
100
AcDbVertex
100
AcDb2dVertex
 10
714.2488532630557
 20
1111.81716357297
 30
0.0
  0
VERTEX
  5
42C
330
42A
100
AcDbEntity
  8
Sichtbar (ISO)
100
AcDbVertex
100
AcDb2dVertex
 10
714.2956119823359
 20
1111.839491482885
 30
0.0
  0
VERTEX
  5
42E
330
42A
100
AcDbEntity
  8
Sichtbar (ISO)
100
AcDbVertex
100
AcDb2dVertex
 10
714.3309231244931
 20
1111.847925391211
 30
0.0
  0
VERTEX
  5
42F
330
42A
100
AcDbEntity
  8
Sichtbar (ISO)
100
AcDbVertex
100
AcDb2dVertex
 10
714.3606333411902
 20
1111.850860644923
 30
0.0
  0
VERTEX
  5
430
330
42A
100
AcDbEntity
  8
Sichtbar (ISO)
100
AcDbVertex
100
AcDb2dVertex
 10
714.3863325645244
 20
1111.850826335405
 30
0.0
  0
VERTEX
  5
431
330
42A
100
AcDbEntity
  8
Sichtbar (ISO)
100
AcDbVertex
100
AcDb2dVertex
 10
714.4125139322495
 20
1111.848611809286
 30
0.0
  0
VERTEX
  5
432
330
42A
100
AcDbEntity
  8
Sichtbar (ISO)
100
AcDbVertex
100
AcDb2dVertex
 10
714.4390295803274
 20
1111.844355050656
 30
0.0
  0
VERTEX
  5
433
330
42A
100
AcDbEntity
  8
Sichtbar (ISO)
100
AcDbVertex
100
AcDb2dVertex
 10
714.4657106239394
 20
1111.838192384678
 30
0.0
  0
VERTEX
  5
434
330
42A
100
AcDbEntity
  8
Sichtbar (ISO)
100
AcDbVertex
100
AcDb2dVertex
 10
714.4923875253039
 20
1111.830260751785
 30
0.0
  0
VERTEX
  5
435
330
42A
100
AcDbEntity
  8
Sichtbar (ISO)
100
AcDbVertex
100
AcDb2dVertex
 10
714.5188910150966
 20
1111.820696932964
 30
0.0
  0
VERTEX
  5
436
330
42A
100
AcDbEntity
  8
Sichtbar (ISO)
100
AcDbVertex
100
AcDb2dVertex
 10
714.545051967752
 20
1111.809637437721
 30
0.0
  0
VERTEX
  5
437
330
42A
100
AcDbEntity
  8
Sichtbar (ISO)
100
AcDbVertex
100
AcDb2dVertex
 10
714.5706644737495
 20
1111.797244220304
 30
0.0
  0
VERTEX
  5
438
330
42A
100
AcDbEntity
  8
Sichtbar (ISO)
100
AcDbVertex
100
AcDb2dVertex
 10
714.5951897293502
 20
1111.783954262516
 30
0.0
  0
VERTEX
  5
439
330
42A
100
AcDbEntity
  8
Sichtbar (ISO)
100
AcDbVertex
100
AcDb2dVertex
 10
714.6184625322614
 20
1111.770045020325
 30
0.0
  0
VERTEX
  5
43A
330
42A
100
AcDbEntity
  8
Sichtbar (ISO)
100
AcDbVertex
100
AcDb2dVertex
 10
714.640441936216
 20
1111.755718889969
 30
0.0
  0
VERTEX
  5
43B
330
42A
100
AcDbEntity
  8
Sichtbar (ISO)
100
AcDbVertex
100
AcDb2dVertex
 10
714.6610860129001
 20
1111.741179388565
 30
0.0
  0
VERTEX
  5
43C
330
42A
100
AcDbEntity
  8
Sichtbar (ISO)
100
AcDbVertex
100
AcDb2dVertex
 10
714.6803538437579
 20
1111.726628937246
 30
0.0
  0
VERTEX
  5
43D
330
42A
100
AcDbEntity
  8
Sichtbar (ISO)
100
AcDbVertex
100
AcDb2dVertex
 10
714.6982038849805
 20
1111.712270597307
 30
0.0
  0
VERTEX
  5
43E
330
42A
100
AcDbEntity
  8
Sichtbar (ISO)
100
AcDbVertex
100
AcDb2dVertex
 10
714.7145946204709
 20
1111.698307454942
 30
0.0
  0
VERTEX
  5
43F
330
42A
100
AcDbEntity
  8
Sichtbar (ISO)
100
AcDbVertex
100
AcDb2dVertex
 10
714.7294845064204
 20
1111.684942571446
 30
0.0
  0
VERTEX
  5
440
330
42A
100
AcDbEntity
  8
Sichtbar (ISO)
100
AcDbVertex
100
AcDb2dVertex
 10
714.7428326242731
 20
1111.672378367952
 30
0.0
  0
VERTEX
  5
441
330
42A
100
AcDbEntity
  8
Sichtbar (ISO)
100
AcDbVertex
100
AcDb2dVertex
 10
714.7545972448953
 20
1111.660818139891
 30
0.0
  0
VERTEX
  5
442
330
42A
100
AcDbEntity
  8
Sichtbar (ISO)
100
AcDbVertex
100
AcDb2dVertex
 10
714.7647368383344
 20
1111.650464961007
 30
0.0
  0
VERTEX
  5
443
330
42A
100
AcDbEntity
  8
Sichtbar (ISO)
100
AcDbVertex
100
AcDb2dVertex
 10
714.7732102729982
 20
1111.641521461671
 30
0.0
  0
VERTEX
  5
444
330
42A
100
AcDbEntity
  8
Sichtbar (ISO)
100
AcDbVertex
100
AcDb2dVertex
 10
714.7799760327892
 20
1111.634190728076
 30
0.0
  0
SEQEND
  5
42D
330
42A
100
AcDbEntity
  8
Sichtbar (ISO)
  0
POLYLINE
  5
445
330
37
100
AcDbEntity
  8
Sichtbar (ISO)
100
AcDb2dPolyline
 66
     1
 10
0.0
 20
0.0
 30
0.0
 70
   128
  0
VERTEX
  5
446
330
445
100
AcDbEntity
  8
Sichtbar (ISO)
100
AcDbVertex
100
AcDb2dVertex
 10
714.2084171453547
 20
1111.780832649441
 30
0.0
  0
VERTEX
  5
447
330
445
100
AcDbEntity
  8
Sichtbar (ISO)
100
AcDbVertex
100
AcDb2dVertex
 10
714.2096356365397
 20
1111.78229843377
 30
0.0
  0
VERTEX
  5
449
330
445
100
AcDbEntity
  8
Sichtbar (ISO)
100
AcDbVertex
100
AcDb2dVertex
 10
714.2109187791257
 20
1111.783809485234
 30
0.0
  0
VERTEX
  5
44A
330
445
100
AcDbEntity
  8
Sichtbar (ISO)
100
AcDbVertex
100
AcDb2dVertex
 10
714.2122677180134
 20
1111.785362425398
 30
0.0
  0
VERTEX
  5
44B
330
445
100
AcDbEntity
  8
Sichtbar (ISO)
100
AcDbVertex
100
AcDb2dVertex
 10
714.2136829919021
 20
1111.786954533104
 30
0.0
  0
VERTEX
  5
44C
330
445
100
AcDbEntity
  8
Sichtbar (ISO)
100
AcDbVertex
100
AcDb2dVertex
 10
714.2151653455997
 20
1111.788582871732
 30
0.0
  0
VERTEX
  5
44D
330
445
100
AcDbEntity
  8
Sichtbar (ISO)
100
AcDbVertex
100
AcDb2dVertex
 10
714.2167159196765
 20
1111.790244058957
 30
0.0
  0
VERTEX
  5
44E
330
445
100
AcDbEntity
  8
Sichtbar (ISO)
100
AcDbVertex
100
AcDb2dVertex
 10
714.2183352554304
 20
1111.791935375956
 30
0.0
  0
VERTEX
  5
44F
330
445
100
AcDbEntity
  8
Sichtbar (ISO)
100
AcDbVertex
100
AcDb2dVertex
 10
714.2200163533729
 20
1111.793646126745
 30
0.0
  0
VERTEX
  5
450
330
445
100
AcDbEntity
  8
Sichtbar (ISO)
100
AcDbVertex
100
AcDb2dVertex
 10
714.2217515645425
 20
1111.795365031805
 30
0.0
  0
VERTEX
  5
451
330
445
100
AcDbEntity
  8
Sichtbar (ISO)
100
AcDbVertex
100
AcDb2dVertex
 10
714.2235411020191
 20
1111.797089878709
 30
0.0
  0
VERTEX
  5
452
330
445
100
AcDbEntity
  8
Sichtbar (ISO)
100
AcDbVertex
100
AcDb2dVertex
 10
714.2253851814802
 20
1111.798818457364
 30
0.0
  0
VERTEX
  5
453
330
445
100
AcDbEntity
  8
Sichtbar (ISO)
100
AcDbVertex
100
AcDb2dVertex
 10
714.2272832692522
 20
1111.800547884402
 30
0.0
  0
VERTEX
  5
454
330
445
100
AcDbEntity
  8
Sichtbar (ISO)
100
AcDbVertex
100
AcDb2dVertex
 10
714.2291997032635
 20
1111.802244515685
 30
0.0
  0
VERTEX
  5
455
330
445
100
AcDbEntity
  8
Sichtbar (ISO)
100
AcDbVertex
100
AcDb2dVertex
 10
714.2311130893912
 20
1111.803891132317
 30
0.0
  0
VERTEX
  5
456
330
445
100
AcDbEntity
  8
Sichtbar (ISO)
100
AcDbVertex
100
AcDb2dVertex
 10
714.2330216912027
 20
1111.805487776734
 30
0.0
  0
VERTEX
  5
457
330
445
100
AcDbEntity
  8
Sichtbar (ISO)
100
AcDbVertex
100
AcDb2dVertex
 10
714.2349233718798
 20
1111.807034932929
 30
0.0
  0
VERTEX
  5
458
330
445
100
AcDbEntity
  8
Sichtbar (ISO)
100
AcDbVertex
100
AcDb2dVertex
 10
714.2368096540007
 20
1111.808528189299
 30
0.0
  0
VERTEX
  5
459
330
445
100
AcDbEntity
  8
Sichtbar (ISO)
100
AcDbVertex
100
AcDb2dVertex
 10
714.2386597785858
 20
1111.809953301481
 30
0.0
  0
VERTEX
  5
45A
330
445
100
AcDbEntity
  8
Sichtbar (ISO)
100
AcDbVertex
100
AcDb2dVertex
 10
714.2404689697404
 20
1111.811310786192
 30
0.0
  0
VERTEX
  5
45B
330
445
100
AcDbEntity
  8
Sichtbar (ISO)
100
AcDbVertex
100
AcDb2dVertex
 10
714.2422339964658
 20
1111.812601746912
 30
0.0
  0
VERTEX
  5
45C
330
445
100
AcDbEntity
  8
Sichtbar (ISO)
100
AcDbVertex
100
AcDb2dVertex
 10
714.2439559376916
 20
1111.813829957553
 30
0.0
  0
VERTEX
  5
45D
330
445
100
AcDbEntity
  8
Sichtbar (ISO)
100
AcDbVertex
100
AcDb2dVertex
 10
714.2456348063284
 20
1111.814999035529
 30
0.0
  0
VERTEX
  5
45E
330
445
100
AcDbEntity
  8
Sichtbar (ISO)
100
AcDbVertex
100
AcDb2dVertex
 10
714.2472680858154
 20
1111.816109924933
 30
0.0
  0
VERTEX
  5
45F
330
445
100
AcDbEntity
  8
Sichtbar (ISO)
100
AcDbVertex
100
AcDb2dVertex
 10
714.2488532630557
 20
1111.81716357297
 30
0.0
  0
SEQEND
  5
448
330
445
100
AcDbEntity
  8
Sichtbar (ISO)
  0
POLYLINE
  5
460
330
37
100
AcDbEntity
  8
Sichtbar (ISO)
100
AcDb2dPolyline
 66
     1
 10
0.0
 20
0.0
 30
0.0
 70
   128
  0
VERTEX
  5
461
330
460
100
AcDbEntity
  8
Sichtbar (ISO)
100
AcDbVertex
100
AcDb2dVertex
 10
714.3337038251817
 20
1111.233225393869
 30
0.0
  0
VERTEX
  5
462
330
460
100
AcDbEntity
  8
Sichtbar (ISO)
100
AcDbVertex
100
AcDb2dVertex
 10
714.3278668370522
 20
1111.239826887095
 30
0.0
  0
VERTEX
  5
464
330
460
100
AcDbEntity
  8
Sichtbar (ISO)
100
AcDbVertex
100
AcDb2dVertex
 10
714.320701679322
 20
1111.248059603004
 30
0.0
  0
VERTEX
  5
465
330
460
100
AcDbEntity
  8
Sichtbar (ISO)
100
AcDbVertex
100
AcDb2dVertex
 10
714.3123280325023
 20
1111.257991808504
 30
0.0
  0
VERTEX
  5
466
330
460
100
AcDbEntity
  8
Sichtbar (ISO)
100
AcDbVertex
100
AcDb2dVertex
 10
714.3028651233217
 20
1111.269692164081
 30
0.0
  0
VERTEX
  5
467
330
460
100
AcDbEntity
  8
Sichtbar (ISO)
100
AcDbVertex
100
AcDb2dVertex
 10
714.2924322339303
 20
1111.283229380016
 30
0.0
  0
VERTEX
  5
468
330
460
100
AcDbEntity
  8
Sichtbar (ISO)
100
AcDbVertex
100
AcDb2dVertex
 10
714.2811486326231
 20
1111.298672154141
 30
0.0
  0
VERTEX
  5
469
330
460
100
AcDbEntity
  8
Sichtbar (ISO)
100
AcDbVertex
100
AcDb2dVertex
 10
714.2691335738394
 20
1111.316089171841
 30
0.0
  0
VERTEX
  5
46A
330
460
100
AcDbEntity
  8
Sichtbar (ISO)
100
AcDbVertex
100
AcDb2dVertex
 10
714.256506511199
 20
1111.335548896811
 30
0.0
  0
VERTEX
  5
46B
330
460
100
AcDbEntity
  8
Sichtbar (ISO)
100
AcDbVertex
100
AcDb2dVertex
 10
714.2433867129969
 20
1111.357120026886
 30
0.0
  0
VERTEX
  5
46C
330
460
100
AcDbEntity
  8
Sichtbar (ISO)
100
AcDbVertex
100
AcDb2dVertex
 10
714.230169214938
 20
1111.380586572375
 30
0.0
  0
VERTEX
  5
46D
330
460
100
AcDbEntity
  8
Sichtbar (ISO)
100
AcDbVertex
100
AcDb2dVertex
 10
714.2175549126224
 20
1111.405305420318
 30
0.0
  0
VERTEX
  5
46E
330
460
100
AcDbEntity
  8
Sichtbar (ISO)
100
AcDbVertex
100
AcDb2dVertex
 10
714.2057331139631
 20
1111.431070052519
 30
0.0
  0
VERTEX
  5
46F
330
460
100
AcDbEntity
  8
Sichtbar (ISO)
100
AcDbVertex
100
AcDb2dVertex
 10
714.1948782057128
 20
1111.457688189018
 30
0.0
  0
VERTEX
  5
470
330
460
100
AcDbEntity
  8
Sichtbar (ISO)
100
AcDbVertex
100
AcDb2dVertex
 10
714.1851649591298
 20
1111.484967094035
 30
0.0
  0
VERTEX
  5
471
330
460
100
AcDbEntity
  8
Sichtbar (ISO)
100
AcDbVertex
100
AcDb2dVertex
 10
714.1767675340759
 20
1111.512714684399
 30
0.0
  0
VERTEX
  5
472
330
460
100
AcDbEntity
  8
Sichtbar (ISO)
100
AcDbVertex
100
AcDb2dVertex
 10
714.1698607156646
 20
1111.540738236777
 30
0.0
  0
VERTEX
  5
473
330
460
100
AcDbEntity
  8
Sichtbar (ISO)
100
AcDbVertex
100
AcDb2dVertex
 10
714.1646190898294
 20
1111.568845249523
 30
0.0
  0
VERTEX
  5
474
330
460
100
AcDbEntity
  8
Sichtbar (ISO)
100
AcDbVertex
100
AcDb2dVertex
 10
714.1612170017569
 20
1111.596843405332
 30
0.0
  0
VERTEX
  5
475
330
460
100
AcDbEntity
  8
Sichtbar (ISO)
100
AcDbVertex
100
AcDb2dVertex
 10
714.159829065091
 20
1111.624540227456
 30
0.0
  0
VERTEX
  5
476
330
460
100
AcDbEntity
  8
Sichtbar (ISO)
100
AcDbVertex
100
AcDb2dVertex
 10
714.1606298172713
 20
1111.651743170678
 30
0.0
  0
VERTEX
  5
477
330
460
100
AcDbEntity
  8
Sichtbar (ISO)
100
AcDbVertex
100
AcDb2dVertex
 10
714.1637938442311
 20
1111.678259733352
 30
0.0
  0
VERTEX
  5
478
330
460
100
AcDbEntity
  8
Sichtbar (ISO)
100
AcDbVertex
100
AcDb2dVertex
 10
714.1700606090297
 20
1111.706052398312
 30
0.0
  0
VERTEX
  5
479
330
460
100
AcDbEntity
  8
Sichtbar (ISO)
100
AcDbVertex
100
AcDb2dVertex
 10
714.1822508717043
 20
1111.738958053054
 30
0.0
  0
VERTEX
  5
47A
330
460
100
AcDbEntity
  8
Sichtbar (ISO)
100
AcDbVertex
100
AcDb2dVertex
 10
714.2084171453547
 20
1111.780832649441
 30
0.0
  0
SEQEND
  5
463
330
460
100
AcDbEntity
  8
Sichtbar (ISO)
  0
ARC
  5
47B
330
37
100
AcDbEntity
  8
Sichtbar (ISO)
100
AcDbCircle
 10
711.2211663393439
 20
1115.146294386299
 30
0.0
 40
4.999999999999959
100
AcDbArc
 50
278.4994787745608
 51
285.3784544809954
  0
POLYLINE
  5
47C
330
37
100
AcDbEntity
  8
Sichtbar (ISO)
100
AcDb2dPolyline
 66
     1
 10
0.0
 20
0.0
 30
0.0
 70
   128
  0
VERTEX
  5
47D
330
47C
100
AcDbEntity
  8
Sichtbar (ISO)
100
AcDbVertex
100
AcDb2dVertex
 10
712.1786547914194
 20
1110.749339028938
 30
0.0
  0
VERTEX
  5
47E
330
47C
100
AcDbEntity
  8
Sichtbar (ISO)
100
AcDbVertex
100
AcDb2dVertex
 10
712.2303129841839
 20
1110.745296204074
 30
0.0
  0
VERTEX
  5
480
330
47C
100
AcDbEntity
  8
Sichtbar (ISO)
100
AcDbVertex
100
AcDb2dVertex
 10
712.2651101742625
 20
1110.734944804601
 30
0.0
  0
VERTEX
  5
481
330
47C
100
AcDbEntity
  8
Sichtbar (ISO)
100
AcDbVertex
100
AcDb2dVertex
 10
712.2923077437125
 20
1110.722631563799
 30
0.0
  0
VERTEX
  5
482
330
47C
100
AcDbEntity
  8
Sichtbar (ISO)
100
AcDbVertex
100
AcDb2dVertex
 10
712.3145466210017
 20
1110.709752120273
 30
0.0
  0
VERTEX
  5
483
330
47C
100
AcDbEntity
  8
Sichtbar (ISO)
100
AcDbVertex
100
AcDb2dVertex
 10
712.336113145455
 20
1110.694743725411
 30
0.0
  0
VERTEX
  5
484
330
47C
100
AcDbEntity
  8
Sichtbar (ISO)
100
AcDbVertex
100
AcDb2dVertex
 10
712.3569480018248
 20
1110.677799482963
 30
0.0
  0
VERTEX
  5
485
330
47C
100
AcDbEntity
  8
Sichtbar (ISO)
100
AcDbVertex
100
AcDb2dVertex
 10
712.3769729651005
 20
1110.659121949314
 30
0.0
  0
VERTEX
  5
486
330
47C
100
AcDbEntity
  8
Sichtbar (ISO)
100
AcDbVertex
100
AcDb2dVertex
 10
712.3961101653087
 20
1110.638914400486
 30
0.0
  0
VERTEX
  5
487
330
47C
100
AcDbEntity
  8
Sichtbar (ISO)
100
AcDbVertex
100
AcDb2dVertex
 10
712.4142808907407
 20
1110.617380157512
 30
0.0
  0
VERTEX
  5
488
330
47C
100
AcDbEntity
  8
Sichtbar (ISO)
100
AcDbVertex
100
AcDb2dVertex
 10
712.4314073372537
 20
1110.59472175427
 30
0.0
  0
VERTEX
  5
489
330
47C
100
AcDbEntity
  8
Sichtbar (ISO)
100
AcDbVertex
100
AcDb2dVertex
 10
712.4473917320239
 20
1110.571182678163
 30
0.0
  0
VERTEX
  5
48A
330
47C
100
AcDbEntity
  8
Sichtbar (ISO)
100
AcDbVertex
100
AcDb2dVertex
 10
712.4619862535515
 20
1110.54741087049
 30
0.0
  0
VERTEX
  5
48B
330
47C
100
AcDbEntity
  8
Sichtbar (ISO)
100
AcDbVertex
100
AcDb2dVertex
 10
712.4751864990681
 20
1110.52372850111
 30
0.0
  0
VERTEX
  5
48C
330
47C
100
AcDbEntity
  8
Sichtbar (ISO)
100
AcDbVertex
100
AcDb2dVertex
 10
712.4870579601278
 20
1110.500332234821
 30
0.0
  0
VERTEX
  5
48D
330
47C
100
AcDbEntity
  8
Sichtbar (ISO)
100
AcDbVertex
100
AcDb2dVertex
 10
712.4976666374878
 20
1110.477418392637
 30
0.0
  0
VERTEX
  5
48E
330
47C
100
AcDbEntity
  8
Sichtbar (ISO)
100
AcDbVertex
100
AcDb2dVertex
 10
712.5070778010153
 20
1110.455183440176
 30
0.0
  0
VERTEX
  5
48F
330
47C
100
AcDbEntity
  8
Sichtbar (ISO)
100
AcDbVertex
100
AcDb2dVertex
 10
712.5153572522872
 20
1110.433823920138
 30
0.0
  0
VERTEX
  5
490
330
47C
100
AcDbEntity
  8
Sichtbar (ISO)
100
AcDbVertex
100
AcDb2dVertex
 10
712.5225704603509
 20
1110.413536076453
 30
0.0
  0
VERTEX
  5
491
330
47C
100
AcDbEntity
  8
Sichtbar (ISO)
100
AcDbVertex
100
AcDb2dVertex
 10
712.5287830276032
 20
1110.394516673511
 30
0.0
  0
VERTEX
  5
492
330
47C
100
AcDbEntity
  8
Sichtbar (ISO)
100
AcDbVertex
100
AcDb2dVertex
 10
712.5340607331153
 20
1110.376961833144
 30
0.0
  0
VERTEX
  5
493
330
47C
100
AcDbEntity
  8
Sichtbar (ISO)
100
AcDbVertex
100
AcDb2dVertex
 10
712.5384690684403
 20
1110.361068220149
 30
0.0
  0
VERTEX
  5
494
330
47C
100
AcDbEntity
  8
Sichtbar (ISO)
100
AcDbVertex
100
AcDb2dVertex
 10
712.5420738126494
 20
1110.347031956361
 30
0.0
  0
VERTEX
  5
495
330
47C
100
AcDbEntity
  8
Sichtbar (ISO)
100
AcDbVertex
100
AcDb2dVertex
 10
712.5449402581156
 20
1110.335049928265
 30
0.0
  0
VERTEX
  5
496
330
47C
100
AcDbEntity
  8
Sichtbar (ISO)
100
AcDbVertex
100
AcDb2dVertex
 10
712.54713418391
 20
1110.325318257693
 30
0.0
  0
SEQEND
  5
47F
330
47C
100
AcDbEntity
  8
Sichtbar (ISO)
  0
POLYLINE
  5
497
330
37
100
AcDbEntity
  8
Sichtbar (ISO)
100
AcDb2dPolyline
 66
     1
 10
0.0
 20
0.0
 30
0.0
 70
   128
  0
VERTEX
  5
498
330
497
100
AcDbEntity
  8
Sichtbar (ISO)
100
AcDbVertex
100
AcDb2dVertex
 10
712.1254705953336
 20
1110.738093543217
 30
0.0
  0
VERTEX
  5
499
330
497
100
AcDbEntity
  8
Sichtbar (ISO)
100
AcDbVertex
100
AcDb2dVertex
 10
712.1272563943037
 20
1110.73875291926
 30
0.0
  0
VERTEX
  5
49B
330
497
100
AcDbEntity
  8
Sichtbar (ISO)
100
AcDbVertex
100
AcDb2dVertex
 10
712.1291205280153
 20
1110.739418974594
 30
0.0
  0
VERTEX
  5
49C
330
497
100
AcDbEntity
  8
Sichtbar (ISO)
100
AcDbVertex
100
AcDb2dVertex
 10
712.1310627280808
 20
1110.740088663559
 30
0.0
  0
VERTEX
  5
49D
330
497
100
AcDbEntity
  8
Sichtbar (ISO)
100
AcDbVertex
100
AcDb2dVertex
 10
712.133081574355
 20
1110.740759107606
 30
0.0
  0
VERTEX
  5
49E
330
497
100
AcDbEntity
  8
Sichtbar (ISO)
100
AcDbVertex
100
AcDb2dVertex
 10
712.1351766876069
 20
1110.741427161482
 30
0.0
  0
VERTEX
  5
49F
330
497
100
AcDbEntity
  8
Sichtbar (ISO)
100
AcDbVertex
100
AcDb2dVertex
 10
712.1373470685583
 20
1110.74208992413
 30
0.0
  0
VERTEX
  5
4A0
330
497
100
AcDbEntity
  8
Sichtbar (ISO)
100
AcDbVertex
100
AcDb2dVertex
 10
712.1395920279545
 20
1110.742744372398
 30
0.0
  0
VERTEX
  5
4A1
330
497
100
AcDbEntity
  8
Sichtbar (ISO)
100
AcDbVertex
100
AcDb2dVertex
 10
712.1419060686404
 20
1110.743386368507
 30
0.0
  0
VERTEX
  5
4A2
330
497
100
AcDbEntity
  8
Sichtbar (ISO)
100
AcDbVertex
100
AcDb2dVertex
 10
712.1442688038785
 20
1110.744007611587
 30
0.0
  0
VERTEX
  5
4A3
330
497
100
AcDbEntity
  8
Sichtbar (ISO)
100
AcDbVertex
100
AcDb2dVertex
 10
712.1466763108267
 20
1110.744605778992
 30
0.0
  0
VERTEX
  5
4A4
330
497
100
AcDbEntity
  8
Sichtbar (ISO)
100
AcDbVertex
100
AcDb2dVertex
 10
712.1491281669301
 20
1110.745178888482
 30
0.0
  0
VERTEX
  5
4A5
330
497
100
AcDbEntity
  8
Sichtbar (ISO)
100
AcDbVertex
100
AcDb2dVertex
 10
712.1516233295854
 20
1110.74572520201
 30
0.0
  0
VERTEX
  5
4A6
330
497
100
AcDbEntity
  8
Sichtbar (ISO)
100
AcDbVertex
100
AcDb2dVertex
 10
712.1541367616988
 20
1110.746238250154
 30
0.0
  0
VERTEX
  5
4A7
330
497
100
AcDbEntity
  8
Sichtbar (ISO)
100
AcDbVertex
100
AcDb2dVertex
 10
712.1566198317337
 20
1110.746708393483
 30
0.0
  0
VERTEX
  5
4A8
330
497
100
AcDbEntity
  8
Sichtbar (ISO)
100
AcDbVertex
100
AcDb2dVertex
 10
712.1590694619583
 20
1110.747137273828
 30
0.0
  0
VERTEX
  5
4A9
330
497
100
AcDbEntity
  8
Sichtbar (ISO)
100
AcDbVertex
100
AcDb2dVertex
 10
712.1614841247604
 20
1110.747525922541
 30
0.0
  0
VERTEX
  5
4AA
330
497
100
AcDbEntity
  8
Sichtbar (ISO)
100
AcDbVertex
100
AcDb2dVertex
 10
712.1638599890108
 20
1110.747875705188
 30
0.0
  0
VERTEX
  5
4AB
330
497
100
AcDbEntity
  8
Sichtbar (ISO)
100
AcDbVertex
100
AcDb2dVertex
 10
712.166177604796
 20
1110.74818597359
 30
0.0
  0
VERTEX
  5
4AC
330
497
100
AcDbEntity
  8
Sichtbar (ISO)
100
AcDbVertex
100
AcDb2dVertex
 10
712.1684304166042
 20
1110.748458450039
 30
0.0
  0
VERTEX
  5
4AD
330
497
100
AcDbEntity
  8
Sichtbar (ISO)
100
AcDbVertex
100
AcDb2dVertex
 10
712.1706166543175
 20
1110.748695550585
 30
0.0
  0
VERTEX
  5
4AE
330
497
100
AcDbEntity
  8
Sichtbar (ISO)
100
AcDbVertex
100
AcDb2dVertex
 10
712.1727339277709
 20
1110.748899935465
 30
0.0
  0
VERTEX
  5
4AF
330
497
100
AcDbEntity
  8
Sichtbar (ISO)
100
AcDbVertex
100
AcDb2dVertex
 10
712.1747807543646
 20
1110.749073477766
 30
0.0
  0
VERTEX
  5
4B0
330
497
100
AcDbEntity
  8
Sichtbar (ISO)
100
AcDbVertex
100
AcDb2dVertex
 10
712.1767550764632
 20
1110.749219136498
 30
0.0
  0
VERTEX
  5
4B1
330
497
100
AcDbEntity
  8
Sichtbar (ISO)
100
AcDbVertex
100
AcDb2dVertex
 10
712.1786547914194
 20
1110.749339028938
 30
0.0
  0
SEQEND
  5
49A
330
497
100
AcDbEntity
  8
Sichtbar (ISO)
  0
POLYLINE
  5
4B2
330
37
100
AcDbEntity
  8
Sichtbar (ISO)
100
AcDb2dPolyline
 66
     1
 10
0.0
 20
0.0
 30
0.0
 70
   128
  0
VERTEX
  5
4B3
330
4B2
100
AcDbEntity
  8
Sichtbar (ISO)
100
AcDbVertex
100
AcDb2dVertex
 10
711.9601685490488
 20
1110.201208286813
 30
0.0
  0
VERTEX
  5
4B4
330
4B2
100
AcDbEntity
  8
Sichtbar (ISO)
100
AcDbVertex
100
AcDb2dVertex
 10
711.9584142796838
 20
1110.209844175735
 30
0.0
  0
VERTEX
  5
4B6
330
4B2
100
AcDbEntity
  8
Sichtbar (ISO)
100
AcDbVertex
100
AcDb2dVertex
 10
711.9563253377966
 20
1110.22055640035
 30
0.0
  0
VERTEX
  5
4B7
330
4B2
100
AcDbEntity
  8
Sichtbar (ISO)
100
AcDbVertex
100
AcDb2dVertex
 10
711.9540397295491
 20
1110.233344755841
 30
0.0
  0
VERTEX
  5
4B8
330
4B2
100
AcDbEntity
  8
Sichtbar (ISO)
100
AcDbVertex
100
AcDb2dVertex
 10
711.9516946193694
 20
1110.248209082406
 30
0.0
  0
VERTEX
  5
4B9
330
4B2
100
AcDbEntity
  8
Sichtbar (ISO)
100
AcDbVertex
100
AcDb2dVertex
 10
711.9494282126004
 20
1110.265148953542
 30
0.0
  0
VERTEX
  5
4BA
330
4B2
100
AcDbEntity
  8
Sichtbar (ISO)
100
AcDbVertex
100
AcDb2dVertex
 10
711.9473776961759
 20
1110.284164630313
 30
0.0
  0
VERTEX
  5
4BB
330
4B2
100
AcDbEntity
  8
Sichtbar (ISO)
100
AcDbVertex
100
AcDb2dVertex
 10
711.9456808545717
 20
1110.305255708723
 30
0.0
  0
VERTEX
  5
4BC
330
4B2
100
AcDbEntity
  8
Sichtbar (ISO)
100
AcDbVertex
100
AcDb2dVertex
 10
711.9444752730826
 20
1110.328422006464
 30
0.0
  0
VERTEX
  5
4BD
330
4B2
100
AcDbEntity
  8
Sichtbar (ISO)
100
AcDbVertex
100
AcDb2dVertex
 10
711.9438987361846
 20
1110.353663119538
 30
0.0
  0
VERTEX
  5
4BE
330
4B2
100
AcDbEntity
  8
Sichtbar (ISO)
100
AcDbVertex
100
AcDb2dVertex
 10
711.9441853753957
 20
1110.380594050147
 30
0.0
  0
VERTEX
  5
4BF
330
4B2
100
AcDbEntity
  8
Sichtbar (ISO)
100
AcDbVertex
100
AcDb2dVertex
 10
711.9456205858456
 20
1110.40830854528
 30
0.0
  0
VERTEX
  5
4C0
330
4B2
100
AcDbEntity
  8
Sichtbar (ISO)
100
AcDbVertex
100
AcDb2dVertex
 10
711.948264832847
 20
1110.436532402111
 30
0.0
  0
VERTEX
  5
4C1
330
4B2
100
AcDbEntity
  8
Sichtbar (ISO)
100
AcDbVertex
100
AcDb2dVertex
 10
711.9521731273207
 20
1110.465011757854
 30
0.0
  0
VERTEX
  5
4C2
330
4B2
100
AcDbEntity
  8
Sichtbar (ISO)
100
AcDbVertex
100
AcDb2dVertex
 10
711.9574009010545
 20
1110.493492727213
 30
0.0
  0
VERTEX
  5
4C3
330
4B2
100
AcDbEntity
  8
Sichtbar (ISO)
100
AcDbVertex
100
AcDb2dVertex
 10
711.9640023232349
 20
1110.521721492414
 30
0.0
  0
VERTEX
  5
4C4
330
4B2
100
AcDbEntity
  8
Sichtbar (ISO)
100
AcDbVertex
100
AcDb2dVertex
 10
711.972032603963
 20
1110.549443968982
 30
0.0
  0
VERTEX
  5
4C5
330
4B2
100
AcDbEntity
  8
Sichtbar (ISO)
100
AcDbVertex
100
AcDb2dVertex
 10
711.9815466433164
 20
1110.576406194539
 30
0.0
  0
VERTEX
  5
4C6
330
4B2
100
AcDbEntity
  8
Sichtbar (ISO)
100
AcDbVertex
100
AcDb2dVertex
 10
711.9925994522158
 20
1110.602354306297
 30
0.0
  0
VERTEX
  5
4C7
330
4B2
100
AcDbEntity
  8
Sichtbar (ISO)
100
AcDbVertex
100
AcDb2dVertex
 10
712.0052459307384
 20
1110.627034341879
 30
0.0
  0
VERTEX
  5
4C8
330
4B2
100
AcDbEntity
  8
Sichtbar (ISO)
100
AcDbVertex
100
AcDb2dVertex
 10
712.019540668938
 20
1110.650192461001
 30
0.0
  0
VERTEX
  5
4C9
330
4B2
100
AcDbEntity
  8
Sichtbar (ISO)
100
AcDbVertex
100
AcDb2dVertex
 10
712.0355391869395
 20
1110.671574457094
 30
0.0
  0
VERTEX
  5
4CA
330
4B2
100
AcDbEntity
  8
Sichtbar (ISO)
100
AcDbVertex
100
AcDb2dVertex
 10
712.0548628608649
 20
1110.692510094679
 30
0.0
  0
VERTEX
  5
4CB
330
4B2
100
AcDbEntity
  8
Sichtbar (ISO)
100
AcDbVertex
100
AcDb2dVertex
 10
712.0818725738167
 20
1110.714912295109
 30
0.0
  0
VERTEX
  5
4CC
330
4B2
100
AcDbEntity
  8
Sichtbar (ISO)
100
AcDbVertex
100
AcDb2dVertex
 10
712.1254705953336
 20
1110.738093543217
 30
0.0
  0
SEQEND
  5
4B5
330
4B2
100
AcDbEntity
  8
Sichtbar (ISO)
  0
ARC
  5
4CD
330
37
100
AcDbEntity
  8
Sichtbar (ISO)
100
AcDbCircle
 10
711.2211663393439
 20
1115.146294386299
 30
0.0
 40
5.000000000000095
100
AcDbArc
 50
248.4994787745604
 51
255.3784544809956
  0
POLYLINE
  5
4CE
330
37
100
AcDbEntity
  8
Sichtbar (ISO)
100
AcDb2dPolyline
 66
     1
 10
0.0
 20
0.0
 30
0.0
 70
   128
  0
VERTEX
  5
4CF
330
4CE
100
AcDbEntity
  8
Sichtbar (ISO)
100
AcDbVertex
100
AcDb2dVertex
 10
709.8518978970346
 20
1110.859675113113
 30
0.0
  0
VERTEX
  5
4D0
330
4CE
100
AcDbEntity
  8
Sichtbar (ISO)
100
AcDbVertex
100
AcDb2dVertex
 10
709.8946139386654
 20
1110.830344962531
 30
0.0
  0
VERTEX
  5
4D2
330
4CE
100
AcDbEntity
  8
Sichtbar (ISO)
100
AcDbVertex
100
AcDb2dVertex
 10
709.919573411169
 20
1110.803981438028
 30
0.0
  0
VERTEX
  5
4D3
330
4CE
100
AcDbEntity
  8
Sichtbar (ISO)
100
AcDbVertex
100
AcDb2dVertex
 10
709.9369704329557
 20
1110.779719363846
 30
0.0
  0
VERTEX
  5
4D4
330
4CE
100
AcDbEntity
  8
Sichtbar (ISO)
100
AcDbVertex
100
AcDb2dVertex
 10
709.9497902872457
 20
1110.757445843312
 30
0.0
  0
VERTEX
  5
4D5
330
4CE
100
AcDbEntity
  8
Sichtbar (ISO)
100
AcDbVertex
100
AcDb2dVertex
 10
709.9609633518918
 20
1110.733665275851
 30
0.0
  0
VERTEX
  5
4D6
330
4CE
100
AcDbEntity
  8
Sichtbar (ISO)
100
AcDbVertex
100
AcDb2dVertex
 10
709.9705345938592
 20
1110.70857331348
 30
0.0
  0
VERTEX
  5
4D7
330
4CE
100
AcDbEntity
  8
Sichtbar (ISO)
100
AcDbVertex
100
AcDb2dVertex
 10
709.9785381315332
 20
1110.682385709125
 30
0.0
  0
VERTEX
  5
4D8
330
4CE
100
AcDbEntity
  8
Sichtbar (ISO)
100
AcDbVertex
100
AcDb2dVertex
 10
709.9850075949124
 20
1110.655316975614
 30
0.0
  0
VERTEX
  5
4D9
330
4CE
100
AcDbEntity
  8
Sichtbar (ISO)
100
AcDbVertex
100
AcDb2dVertex
 10
709.9899768581888
 20
1110.627582245825
 30
0.0
  0
VERTEX
  5
4DA
330
4CE
100
AcDbEntity
  8
Sichtbar (ISO)
100
AcDbVertex
100
AcDb2dVertex
 10
709.9934795738675
 20
1110.599396453455
 30
0.0
  0
VERTEX
  5
4DB
330
4CE
100
AcDbEntity
  8
Sichtbar (ISO)
100
AcDbVertex
100
AcDb2dVertex
 10
709.9955528210351
 20
1110.571018877418
 30
0.0
  0
VERTEX
  5
4DC
330
4CE
100
AcDbEntity
  8
Sichtbar (ISO)
100
AcDbVertex
100
AcDb2dVertex
 10
709.9963060308181
 20
1110.543134384458
 30
0.0
  0
VERTEX
  5
4DD
330
4CE
100
AcDbEntity
  8
Sichtbar (ISO)
100
AcDbVertex
100
AcDb2dVertex
 10
709.9958967189515
 20
1110.516024724859
 30
0.0
  0
VERTEX
  5
4DE
330
4CE
100
AcDbEntity
  8
Sichtbar (ISO)
100
AcDbVertex
100
AcDb2dVertex
 10
709.9944795327379
 20
1110.489827243091
 30
0.0
  0
VERTEX
  5
4DF
330
4CE
100
AcDbEntity
  8
Sichtbar (ISO)
100
AcDbVertex
100
AcDb2dVertex
 10
709.9922101603947
 20
1110.464679016923
 30
0.0
  0
VERTEX
  5
4E0
330
4CE
100
AcDbEntity
  8
Sichtbar (ISO)
100
AcDbVertex
100
AcDb2dVertex
 10
709.9892428283575
 20
1110.44071741333
 30
0.0
  0
VERTEX
  5
4E1
330
4CE
100
AcDbEntity
  8
Sichtbar (ISO)
100
AcDbVertex
100
AcDb2dVertex
 10
709.9857334465301
 20
1110.418079709261
 30
0.0
  0
VERTEX
  5
4E2
330
4CE
100
AcDbEntity
  8
Sichtbar (ISO)
100
AcDbVertex
100
AcDb2dVertex
 10
709.9818362413483
 20
1110.396903271691
 30
0.0
  0
VERTEX
  5
4E3
330
4CE
100
AcDbEntity
  8
Sichtbar (ISO)
100
AcDbVertex
100
AcDb2dVertex
 10
709.9777067243552
 20
1110.377325820943
 30
0.0
  0
VERTEX
  5
4E4
330
4CE
100
AcDbEntity
  8
Sichtbar (ISO)
100
AcDbVertex
100
AcDb2dVertex
 10
709.9734999187079
 20
1110.359483837244
 30
0.0
  0
VERTEX
  5
4E5
330
4CE
100
AcDbEntity
  8
Sichtbar (ISO)
100
AcDbVertex
100
AcDb2dVertex
 10
709.969370937589
 20
1110.343515484291
 30
0.0
  0
VERTEX
  5
4E6
330
4CE
100
AcDbEntity
  8
Sichtbar (ISO)
100
AcDbVertex
100
AcDb2dVertex
 10
709.965474604975
 20
1110.329557463999
 30
0.0
  0
VERTEX
  5
4E7
330
4CE
100
AcDbEntity
  8
Sichtbar (ISO)
100
AcDbVertex
100
AcDb2dVertex
 10
709.9619660115421
 20
1110.317747519197
 30
0.0
  0
VERTEX
  5
4E8
330
4CE
100
AcDbEntity
  8
Sichtbar (ISO)
100
AcDbVertex
100
AcDb2dVertex
 10
709.9590000037734
 20
1110.308222772667
 30
0.0
  0
SEQEND
  5
4D1
330
4CE
100
AcDbEntity
  8
Sichtbar (ISO)
  0
POLYLINE
  5
4E9
330
37
100
AcDbEntity
  8
Sichtbar (ISO)
100
AcDb2dPolyline
 66
     1
 10
0.0
 20
0.0
 30
0.0
 70
   128
  0
VERTEX
  5
4EA
330
4E9
100
AcDbEntity
  8
Sichtbar (ISO)
100
AcDbVertex
100
AcDb2dVertex
 10
709.8002163109326
 20
1110.87652840123
 30
0.0
  0
VERTEX
  5
4EB
330
4E9
100
AcDbEntity
  8
Sichtbar (ISO)
100
AcDbVertex
100
AcDb2dVertex
 10
709.802092505127
 20
1110.876206482761
 30
0.0
  0
VERTEX
  5
4ED
330
4E9
100
AcDbEntity
  8
Sichtbar (ISO)
100
AcDbVertex
100
AcDb2dVertex
 10
709.8040399338965
 20
1110.875851210004
 30
0.0
  0
VERTEX
  5
4EE
330
4E9
100
AcDbEntity
  8
Sichtbar (ISO)
100
AcDbVertex
100
AcDb2dVertex
 10
709.8060567787348
 20
1110.875460147781
 30
0.0
  0
VERTEX
  5
4EF
330
4E9
100
AcDbEntity
  8
Sichtbar (ISO)
100
AcDbVertex
100
AcDb2dVertex
 10
709.8081404019077
 20
1110.875031326794
 30
0.0
  0
VERTEX
  5
4F0
330
4E9
100
AcDbEntity
  8
Sichtbar (ISO)
100
AcDbVertex
100
AcDb2dVertex
 10
709.8102889849088
 20
1110.874562311866
 30
0.0
  0
VERTEX
  5
4F1
330
4E9
100
AcDbEntity
  8
Sichtbar (ISO)
100
AcDbVertex
100
AcDb2dVertex
 10
709.8124998900039
 20
1110.874051133698
 30
0.0
  0
VERTEX
  5
4F2
330
4E9
100
AcDbEntity
  8
Sichtbar (ISO)
100
AcDbVertex
100
AcDb2dVertex
 10
709.8147712986866
 20
1110.873495357114
 30
0.0
  0
VERTEX
  5
4F3
330
4E9
100
AcDbEntity
  8
Sichtbar (ISO)
100
AcDbVertex
100
AcDb2dVertex
 10
709.8170963099735
 20
1110.872894190454
 30
0.0
  0
VERTEX
  5
4F4
330
4E9
100
AcDbEntity
  8
Sichtbar (ISO)
100
AcDbVertex
100
AcDb2dVertex
 10
709.8194530517146
 20
1110.872251019227
 30
0.0
  0
VERTEX
  5
4F5
330
4E9
100
AcDbEntity
  8
Sichtbar (ISO)
100
AcDbVertex
100
AcDb2dVertex
 10
709.8218372702257
 20
1110.871565226759
 30
0.0
  0
VERTEX
  5
4F6
330
4E9
100
AcDbEntity
  8
Sichtbar (ISO)
100
AcDbVertex
100
AcDb2dVertex
 10
709.8242472145196
 20
1110.870835640475
 30
0.0
  0
VERTEX
  5
4F7
330
4E9
100
AcDbEntity
  8
Sichtbar (ISO)
100
AcDbVertex
100
AcDb2dVertex
 10
709.8266810340186
 20
1110.870061198643
 30
0.0
  0
VERTEX
  5
4F8
330
4E9
100
AcDbEntity
  8
Sichtbar (ISO)
100
AcDbVertex
100
AcDb2dVertex
 10
709.8291141901431
 20
1110.869248700405
 30
0.0
  0
VERTEX
  5
4F9
330
4E9
100
AcDbEntity
  8
Sichtbar (ISO)
100
AcDbVertex
100
AcDb2dVertex
 10
709.8314999672038
 20
1110.868414466746
 30
0.0
  0
VERTEX
  5
4FA
330
4E9
100
AcDbEntity
  8
Sichtbar (ISO)
100
AcDbVertex
100
AcDb2dVertex
 10
709.8338357533491
 20
1110.867560958725
 30
0.0
  0
VERTEX
  5
4FB
330
4E9
100
AcDbEntity
  8
Sichtbar (ISO)
100
AcDbVertex
100
AcDb2dVertex
 10
709.8361212402432
 20
1110.866690303184
 30
0.0
  0
VERTEX
  5
4FC
330
4E9
100
AcDbEntity
  8
Sichtbar (ISO)
100
AcDbVertex
100
AcDb2dVertex
 10
709.8383536168537
 20
1110.865805182871
 30
0.0
  0
VERTEX
  5
4FD
330
4E9
100
AcDbEntity
  8
Sichtbar (ISO)
100
AcDbVertex
100
AcDb2dVertex
 10
709.8405158785733
 20
1110.864915159572
 30
0.0
  0
VERTEX
  5
4FE
330
4E9
100
AcDbEntity
  8
Sichtbar (ISO)
100
AcDbVertex
100
AcDb2dVertex
 10
709.8426032000594
 20
1110.864024712034
 30
0.0
  0
VERTEX
  5
4FF
330
4E9
100
AcDbEntity
  8
Sichtbar (ISO)
100
AcDbVertex
100
AcDb2dVertex
 10
709.8446150192179
 20
1110.863137141365
 30
0.0
  0
VERTEX
  5
500
330
4E9
100
AcDbEntity
  8
Sichtbar (ISO)
100
AcDbVertex
100
AcDb2dVertex
 10
709.8465508510392
 20
1110.86225521696
 30
0.0
  0
VERTEX
  5
501
330
4E9
100
AcDbEntity
  8
Sichtbar (ISO)
100
AcDbVertex
100
AcDb2dVertex
 10
709.8484102330198
 20
1110.861382129081
 30
0.0
  0
VERTEX
  5
502
330
4E9
100
AcDbEntity
  8
Sichtbar (ISO)
100
AcDbVertex
100
AcDb2dVertex
 10
709.8501927026561
 20
1110.860521067992
 30
0.0
  0
VERTEX
  5
503
330
4E9
100
AcDbEntity
  8
Sichtbar (ISO)
100
AcDbVertex
100
AcDb2dVertex
 10
709.8518978970346
 20
1110.859675113113
 30
0.0
  0
SEQEND
  5
4EC
330
4E9
100
AcDbEntity
  8
Sichtbar (ISO)
  0
POLYLINE
  5
504
330
37
100
AcDbEntity
  8
Sichtbar (ISO)
100
AcDb2dPolyline
 66
     1
 10
0.0
 20
0.0
 30
0.0
 70
   128
  0
VERTEX
  5
505
330
504
100
AcDbEntity
  8
Sichtbar (ISO)
100
AcDbVertex
100
AcDb2dVertex
 10
709.3886178252855
 20
1110.494223073321
 30
0.0
  0
VERTEX
  5
506
330
504
100
AcDbEntity
  8
Sichtbar (ISO)
100
AcDbVertex
100
AcDb2dVertex
 10
709.3914165658623
 20
1110.50257929293
 30
0.0
  0
VERTEX
  5
508
330
504
100
AcDbEntity
  8
Sichtbar (ISO)
100
AcDbVertex
100
AcDb2dVertex
 10
709.3949637349393
 20
1110.512900641898
 30
0.0
  0
VERTEX
  5
509
330
504
100
AcDbEntity
  8
Sichtbar (ISO)
100
AcDbVertex
100
AcDb2dVertex
 10
709.3993782747436
 20
1110.525118504245
 30
0.0
  0
VERTEX
  5
50A
330
504
100
AcDbEntity
  8
Sichtbar (ISO)
100
AcDbVertex
100
AcDb2dVertex
 10
709.4047796254528
 20
1110.539163709772
 30
0.0
  0
VERTEX
  5
50B
330
504
100
AcDbEntity
  8
Sichtbar (ISO)
100
AcDbVertex
100
AcDb2dVertex
 10
709.4112868288841
 20
1110.554967531656
 30
0.0
  0
VERTEX
  5
50C
330
504
100
AcDbEntity
  8
Sichtbar (ISO)
100
AcDbVertex
100
AcDb2dVertex
 10
709.419018904348
 20
1110.572460822206
 30
0.0
  0
VERTEX
  5
50D
330
504
100
AcDbEntity
  8
Sichtbar (ISO)
100
AcDbVertex
100
AcDb2dVertex
 10
709.428094771565
 20
1110.591574544573
 30
0.0
  0
VERTEX
  5
50E
330
504
100
AcDbEntity
  8
Sichtbar (ISO)
100
AcDbVertex
100
AcDb2dVertex
 10
709.4386339928095
 20
1110.612239838584
 30
0.0
  0
VERTEX
  5
50F
330
504
100
AcDbEntity
  8
Sichtbar (ISO)
100
AcDbVertex
100
AcDb2dVertex
 10
709.4507553882116
 20
1110.634387778234
 30
0.0
  0
VERTEX
  5
510
330
504
100
AcDbEntity
  8
Sichtbar (ISO)
100
AcDbVertex
100
AcDb2dVertex
 10
709.4644691333881
 20
1110.657567364431
 30
0.0
  0
VERTEX
  5
511
330
504
100
AcDbEntity
  8
Sichtbar (ISO)
100
AcDbVertex
100
AcDb2dVertex
 10
709.4795691547357
 20
1110.680851248508
 30
0.0
  0
VERTEX
  5
512
330
504
100
AcDbEntity
  8
Sichtbar (ISO)
100
AcDbVertex
100
AcDb2dVertex
 10
709.4959711713417
 20
1110.703971596361
 30
0.0
  0
VERTEX
  5
513
330
504
100
AcDbEntity
  8
Sichtbar (ISO)
100
AcDbVertex
100
AcDb2dVertex
 10
709.5135955937254
 20
1110.726681215504
 30
0.0
  0
VERTEX
  5
514
330
504
100
AcDbEntity
  8
Sichtbar (ISO)
100
AcDbVertex
100
AcDb2dVertex
 10
709.5323633528636
 20
1110.748732780103
 30
0.0
  0
VERTEX
  5
515
330
504
100
AcDbEntity
  8
Sichtbar (ISO)
100
AcDbVertex
100
AcDb2dVertex
 10
709.5521946375891
 20
1110.769878898491
 30
0.0
  0
VERTEX
  5
516
330
504
100
AcDbEntity
  8
Sichtbar (ISO)
100
AcDbVertex
100
AcDb2dVertex
 10
709.5730102567819
 20
1110.789871934809
 30
0.0
  0
VERTEX
  5
517
330
504
100
AcDbEntity
  8
Sichtbar (ISO)
100
AcDbVertex
100
AcDb2dVertex
 10
709.5947308426482
 20
1110.808464895754
 30
0.0
  0
VERTEX
  5
518
330
504
100
AcDbEntity
  8
Sichtbar (ISO)
100
AcDbVertex
100
AcDb2dVertex
 10
709.617277004888
 20
1110.825410367151
 30
0.0
  0
VERTEX
  5
519
330
504
100
AcDbEntity
  8
Sichtbar (ISO)
100
AcDbVertex
100
AcDb2dVertex
 10
709.640569131514
 20
1110.840460735651
 30
0.0
  0
VERTEX
  5
51A
330
504
100
AcDbEntity
  8
Sichtbar (ISO)
100
AcDbVertex
100
AcDb2dVertex
 10
709.6645278322265
 20
1110.853368587078
 30
0.0
  0
VERTEX
  5
51B
330
504
100
AcDbEntity
  8
Sichtbar (ISO)
100
AcDbVertex
100
AcDb2dVertex
 10
709.6890739384116
 20
1110.863886706443
 30
0.0
  0
VERTEX
  5
51C
330
504
100
AcDbEntity
  8
Sichtbar (ISO)
100
AcDbVertex
100
AcDb2dVertex
 10
709.7162766248313
 20
1110.872355952678
 30
0.0
  0
VERTEX
  5
51D
330
504
100
AcDbEntity
  8
Sichtbar (ISO)
100
AcDbVertex
100
AcDb2dVertex
 10
709.7508688012974
 20
1110.878251837252
 30
0.0
  0
VERTEX
  5
51E
330
504
100
AcDbEntity
  8
Sichtbar (ISO)
100
AcDbVertex
100
AcDb2dVertex
 10
709.8002163109326
 20
1110.87652840123
 30
0.0
  0
SEQEND
  5
507
330
504
100
AcDbEntity
  8
Sichtbar (ISO)
  0
ARC
  5
51F
330
37
100
AcDbEntity
  8
Sichtbar (ISO)
100
AcDbCircle
 10
711.2211663393439
 20
1115.146294386299
 30
0.0
 40
5.000000000000088
100
AcDbArc
 50
218.4994787745611
 51
225.378454480997
  0
POLYLINE
  5
520
330
37
100
AcDbEntity
  8
Sichtbar (ISO)
100
AcDb2dPolyline
 66
     1
 10
0.0
 20
0.0
 30
0.0
 70
   128
  0
VERTEX
  5
521
330
520
100
AcDbEntity
  8
Sichtbar (ISO)
100
AcDbVertex
100
AcDb2dVertex
 10
707.8920355260138
 20
1112.118607462585
 30
0.0
  0
VERTEX
  5
522
330
520
100
AcDbEntity
  8
Sichtbar (ISO)
100
AcDbVertex
100
AcDb2dVertex
 10
707.914363435928
 20
1112.071848743305
 30
0.0
  0
VERTEX
  5
524
330
520
100
AcDbEntity
  8
Sichtbar (ISO)
100
AcDbVertex
100
AcDb2dVertex
 10
707.922797344255
 20
1112.036537601148
 30
0.0
  0
VERTEX
  5
525
330
520
100
AcDbEntity
  8
Sichtbar (ISO)
100
AcDbVertex
100
AcDb2dVertex
 10
707.925732597967
 20
1112.006827384451
 30
0.0
  0
VERTEX
  5
526
330
520
100
AcDbEntity
  8
Sichtbar (ISO)
100
AcDbVertex
100
AcDb2dVertex
 10
707.9256982884482
 20
1111.981128161117
 30
0.0
  0
VERTEX
  5
527
330
520
100
AcDbEntity
  8
Sichtbar (ISO)
100
AcDbVertex
100
AcDb2dVertex
 10
707.9234837623298
 20
1111.954946793392
 30
0.0
  0
VERTEX
  5
528
330
520
100
AcDbEntity
  8
Sichtbar (ISO)
100
AcDbVertex
100
AcDb2dVertex
 10
707.919227003699
 20
1111.928431145314
 30
0.0
  0
VERTEX
  5
529
330
520
100
AcDbEntity
  8
Sichtbar (ISO)
100
AcDbVertex
100
AcDb2dVertex
 10
707.9130643377216
 20
1111.901750101702
 30
0.0
  0
VERTEX
  5
52A
330
520
100
AcDbEntity
  8
Sichtbar (ISO)
100
AcDbVertex
100
AcDb2dVertex
 10
707.9051327048283
 20
1111.875073200337
 30
0.0
  0
VERTEX
  5
52B
330
520
100
AcDbEntity
  8
Sichtbar (ISO)
100
AcDbVertex
100
AcDb2dVertex
 10
707.8955688860075
 20
1111.848569710545
 30
0.0
  0
VERTEX
  5
52C
330
520
100
AcDbEntity
  8
Sichtbar (ISO)
100
AcDbVertex
100
AcDb2dVertex
 10
707.884509390765
 20
1111.822408757889
 30
0.0
  0
VERTEX
  5
52D
330
520
100
AcDbEntity
  8
Sichtbar (ISO)
100
AcDbVertex
100
AcDb2dVertex
 10
707.8721161733482
 20
1111.796796251892
 30
0.0
  0
VERTEX
  5
52E
330
520
100
AcDbEntity
  8
Sichtbar (ISO)
100
AcDbVertex
100
AcDb2dVertex
 10
707.8588262155592
 20
1111.772270996292
 30
0.0
  0
VERTEX
  5
52F
330
520
100
AcDbEntity
  8
Sichtbar (ISO)
100
AcDbVertex
100
AcDb2dVertex
 10
707.8449169733691
 20
1111.74899819338
 30
0.0
  0
VERTEX
  5
530
330
520
100
AcDbEntity
  8
Sichtbar (ISO)
100
AcDbVertex
100
AcDb2dVertex
 10
707.8305908430133
 20
1111.727018789426
 30
0.0
  0
VERTEX
  5
531
330
520
100
AcDbEntity
  8
Sichtbar (ISO)
100
AcDbVertex
100
AcDb2dVertex
 10
707.8160513416093
 20
1111.706374712742
 30
0.0
  0
VERTEX
  5
532
330
520
100
AcDbEntity
  8
Sichtbar (ISO)
100
AcDbVertex
100
AcDb2dVertex
 10
707.8015008902903
 20
1111.687106881884
 30
0.0
  0
VERTEX
  5
533
330
520
100
AcDbEntity
  8
Sichtbar (ISO)
100
AcDbVertex
100
AcDb2dVertex
 10
707.7871425503517
 20
1111.669256840662
 30
0.0
  0
VERTEX
  5
534
330
520
100
AcDbEntity
  8
Sichtbar (ISO)
100
AcDbVertex
100
AcDb2dVertex
 10
707.7731794079867
 20
1111.652866105171
 30
0.0
  0
VERTEX
  5
535
330
520
100
AcDbEntity
  8
Sichtbar (ISO)
100
AcDbVertex
100
AcDb2dVertex
 10
707.7598145244906
 20
1111.637976219222
 30
0.0
  0
VERTEX
  5
536
330
520
100
AcDbEntity
  8
Sichtbar (ISO)
100
AcDbVertex
100
AcDb2dVertex
 10
707.7472503209966
 20
1111.624628101369
 30
0.0
  0
VERTEX
  5
537
330
520
100
AcDbEntity
  8
Sichtbar (ISO)
100
AcDbVertex
100
AcDb2dVertex
 10
707.7356900929354
 20
1111.612863480747
 30
0.0
  0
VERTEX
  5
538
330
520
100
AcDbEntity
  8
Sichtbar (ISO)
100
AcDbVertex
100
AcDb2dVertex
 10
707.7253369140516
 20
1111.602723887308
 30
0.0
  0
VERTEX
  5
539
330
520
100
AcDbEntity
  8
Sichtbar (ISO)
100
AcDbVertex
100
AcDb2dVertex
 10
707.7163934147157
 20
1111.594250452645
 30
0.0
  0
VERTEX
  5
53A
330
520
100
AcDbEntity
  8
Sichtbar (ISO)
100
AcDbVertex
100
AcDb2dVertex
 10
707.7090626811211
 20
1111.587484692854
 30
0.0
  0
SEQEND
  5
523
330
520
100
AcDbEntity
  8
Sichtbar (ISO)
  0
POLYLINE
  5
53B
330
37
100
AcDbEntity
  8
Sichtbar (ISO)
100
AcDb2dPolyline
 66
     1
 10
0.0
 20
0.0
 30
0.0
 70
   128
  0
VERTEX
  5
53C
330
53B
100
AcDbEntity
  8
Sichtbar (ISO)
100
AcDbVertex
100
AcDb2dVertex
 10
707.8557046024841
 20
1112.159043580287
 30
0.0
  0
VERTEX
  5
53D
330
53B
100
AcDbEntity
  8
Sichtbar (ISO)
100
AcDbVertex
100
AcDb2dVertex
 10
707.8571703868131
 20
1112.157825089101
 30
0.0
  0
VERTEX
  5
53F
330
53B
100
AcDbEntity
  8
Sichtbar (ISO)
100
AcDbVertex
100
AcDb2dVertex
 10
707.8586814382776
 20
1112.156541946515
 30
0.0
  0
VERTEX
  5
540
330
53B
100
AcDbEntity
  8
Sichtbar (ISO)
100
AcDbVertex
100
AcDb2dVertex
 10
707.8602343784413
 20
1112.155193007628
 30
0.0
  0
VERTEX
  5
541
330
53B
100
AcDbEntity
  8
Sichtbar (ISO)
100
AcDbVertex
100
AcDb2dVertex
 10
707.8618264861471
 20
1112.153777733739
 30
0.0
  0
VERTEX
  5
542
330
53B
100
AcDbEntity
  8
Sichtbar (ISO)
100
AcDbVertex
100
AcDb2dVertex
 10
707.8634548247759
 20
1112.152295380042
 30
0.0
  0
VERTEX
  5
543
330
53B
100
AcDbEntity
  8
Sichtbar (ISO)
100
AcDbVertex
100
AcDb2dVertex
 10
707.8651160120008
 20
1112.150744805965
 30
0.0
  0
VERTEX
  5
544
330
53B
100
AcDbEntity
  8
Sichtbar (ISO)
100
AcDbVertex
100
AcDb2dVertex
 10
707.8668073289994
 20
1112.149125470211
 30
0.0
  0
VERTEX
  5
545
330
53B
100
AcDbEntity
  8
Sichtbar (ISO)
100
AcDbVertex
100
AcDb2dVertex
 10
707.8685180797886
 20
1112.147444372268
 30
0.0
  0
VERTEX
  5
546
330
53B
100
AcDbEntity
  8
Sichtbar (ISO)
100
AcDbVertex
100
AcDb2dVertex
 10
707.8702369848488
 20
1112.145709161099
 30
0.0
  0
VERTEX
  5
547
330
53B
100
AcDbEntity
  8
Sichtbar (ISO)
100
AcDbVertex
100
AcDb2dVertex
 10
707.871961831753
 20
1112.143919623622
 30
0.0
  0
VERTEX
  5
548
330
53B
100
AcDbEntity
  8
Sichtbar (ISO)
100
AcDbVertex
100
AcDb2dVertex
 10
707.8736904104076
 20
1112.142075544161
 30
0.0
  0
VERTEX
  5
549
330
53B
100
AcDbEntity
  8
Sichtbar (ISO)
100
AcDbVertex
100
AcDb2dVertex
 10
707.8754198374448
 20
1112.140177456389
 30
0.0
  0
VERTEX
  5
54A
330
53B
100
AcDbEntity
  8
Sichtbar (ISO)
100
AcDbVertex
100
AcDb2dVertex
 10
707.8771164687289
 20
1112.138261022378
 30
0.0
  0
VERTEX
  5
54B
330
53B
100
AcDbEntity
  8
Sichtbar (ISO)
100
AcDbVertex
100
AcDb2dVertex
 10
707.8787630853604
 20
1112.13634763625
 30
0.0
  0
VERTEX
  5
54C
330
53B
100
AcDbEntity
  8
Sichtbar (ISO)
100
AcDbVertex
100
AcDb2dVertex
 10
707.8803597297774
 20
1112.134439034438
 30
0.0
  0
VERTEX
  5
54D
330
53B
100
AcDbEntity
  8
Sichtbar (ISO)
100
AcDbVertex
100
AcDb2dVertex
 10
707.8819068859724
 20
1112.132537353761
 30
0.0
  0
VERTEX
  5
54E
330
53B
100
AcDbEntity
  8
Sichtbar (ISO)
100
AcDbVertex
100
AcDb2dVertex
 10
707.8834001423423
 20
1112.13065107164
 30
0.0
  0
VERTEX
  5
54F
330
53B
100
AcDbEntity
  8
Sichtbar (ISO)
100
AcDbVertex
100
AcDb2dVertex
 10
707.8848252545244
 20
1112.128800947055
 30
0.0
  0
VERTEX
  5
550
330
53B
100
AcDbEntity
  8
Sichtbar (ISO)
100
AcDbVertex
100
AcDb2dVertex
 10
707.8861827392353
 20
1112.126991755901
 30
0.0
  0
VERTEX
  5
551
330
53B
100
AcDbEntity
  8
Sichtbar (ISO)
100
AcDbVertex
100
AcDb2dVertex
 10
707.8874736999548
 20
1112.125226729175
 30
0.0
  0
VERTEX
  5
552
330
53B
100
AcDbEntity
  8
Sichtbar (ISO)
100
AcDbVertex
100
AcDb2dVertex
 10
707.8887019105967
 20
1112.12350478795
 30
0.0
  0
VERTEX
  5
553
330
53B
100
AcDbEntity
  8
Sichtbar (ISO)
100
AcDbVertex
100
AcDb2dVertex
 10
707.8898709885724
 20
1112.121825919313
 30
0.0
  0
VERTEX
  5
554
330
53B
100
AcDbEntity
  8
Sichtbar (ISO)
100
AcDbVertex
100
AcDb2dVertex
 10
707.890981877976
 20
1112.120192639826
 30
0.0
  0
VERTEX
  5
555
330
53B
100
AcDbEntity
  8
Sichtbar (ISO)
100
AcDbVertex
100
AcDb2dVertex
 10
707.8920355260138
 20
1112.118607462585
 30
0.0
  0
SEQEND
  5
53E
330
53B
100
AcDbEntity
  8
Sichtbar (ISO)
  0
POLYLINE
  5
556
330
37
100
AcDbEntity
  8
Sichtbar (ISO)
100
AcDb2dPolyline
 66
     1
 10
0.0
 20
0.0
 30
0.0
 70
   128
  0
VERTEX
  5
557
330
556
100
AcDbEntity
  8
Sichtbar (ISO)
100
AcDbVertex
100
AcDb2dVertex
 10
707.3080973469139
 20
1112.033756900461
 30
0.0
  0
VERTEX
  5
558
330
556
100
AcDbEntity
  8
Sichtbar (ISO)
100
AcDbVertex
100
AcDb2dVertex
 10
707.3146988401401
 20
1112.03959388859
 30
0.0
  0
VERTEX
  5
55A
330
556
100
AcDbEntity
  8
Sichtbar (ISO)
100
AcDbVertex
100
AcDb2dVertex
 10
707.3229315560491
 20
1112.046759046321
 30
0.0
  0
VERTEX
  5
55B
330
556
100
AcDbEntity
  8
Sichtbar (ISO)
100
AcDbVertex
100
AcDb2dVertex
 10
707.3328637615489
 20
1112.05513269314
 30
0.0
  0
VERTEX
  5
55C
330
556
100
AcDbEntity
  8
Sichtbar (ISO)
100
AcDbVertex
100
AcDb2dVertex
 10
707.3445641171254
 20
1112.064595602321
 30
0.0
  0
VERTEX
  5
55D
330
556
100
AcDbEntity
  8
Sichtbar (ISO)
100
AcDbVertex
100
AcDb2dVertex
 10
707.3581013330602
 20
1112.075028491712
 30
0.0
  0
VERTEX
  5
55E
330
556
100
AcDbEntity
  8
Sichtbar (ISO)
100
AcDbVertex
100
AcDb2dVertex
 10
707.3735441071854
 20
1112.086312093019
 30
0.0
  0
VERTEX
  5
55F
330
556
100
AcDbEntity
  8
Sichtbar (ISO)
100
AcDbVertex
100
AcDb2dVertex
 10
707.3909611248851
 20
1112.098327151803
 30
0.0
  0
VERTEX
  5
560
330
556
100
AcDbEntity
  8
Sichtbar (ISO)
100
AcDbVertex
100
AcDb2dVertex
 10
707.4104208498558
 20
1112.110954214443
 30
0.0
  0
VERTEX
  5
561
330
556
100
AcDbEntity
  8
Sichtbar (ISO)
100
AcDbVertex
100
AcDb2dVertex
 10
707.4319919799302
 20
1112.124074012645
 30
0.0
  0
VERTEX
  5
562
330
556
100
AcDbEntity
  8
Sichtbar (ISO)
100
AcDbVertex
100
AcDb2dVertex
 10
707.455458525419
 20
1112.137291510704
 30
0.0
  0
VERTEX
  5
563
330
556
100
AcDbEntity
  8
Sichtbar (ISO)
100
AcDbVertex
100
AcDb2dVertex
 10
707.4801773733621
 20
1112.149905813019
 30
0.0
  0
VERTEX
  5
564
330
556
100
AcDbEntity
  8
Sichtbar (ISO)
100
AcDbVertex
100
AcDb2dVertex
 10
707.5059420055629
 20
1112.161727611679
 30
0.0
  0
VERTEX
  5
565
330
556
100
AcDbEntity
  8
Sichtbar (ISO)
100
AcDbVertex
100
AcDb2dVertex
 10
707.5325601420622
 20
1112.172582519929
 30
0.0
  0
VERTEX
  5
566
330
556
100
AcDbEntity
  8
Sichtbar (ISO)
100
AcDbVertex
100
AcDb2dVertex
 10
707.5598390470786
 20
1112.182295766512
 30
0.0
  0
VERTEX
  5
567
330
556
100
AcDbEntity
  8
Sichtbar (ISO)
100
AcDbVertex
100
AcDb2dVertex
 10
707.5875866374421
 20
1112.190693191566
 30
0.0
  0
VERTEX
  5
568
330
556
100
AcDbEntity
  8
Sichtbar (ISO)
100
AcDbVertex
100
AcDb2dVertex
 10
707.61561018982
 20
1112.197600009977
 30
0.0
  0
VERTEX
  5
569
330
556
100
AcDbEntity
  8
Sichtbar (ISO)
100
AcDbVertex
100
AcDb2dVertex
 10
707.6437172025664
 20
1112.202841635812
 30
0.0
  0
VERTEX
  5
56A
330
556
100
AcDbEntity
  8
Sichtbar (ISO)
100
AcDbVertex
100
AcDb2dVertex
 10
707.6717153583757
 20
1112.206243723885
 30
0.0
  0
VERTEX
  5
56B
330
556
100
AcDbEntity
  8
Sichtbar (ISO)
100
AcDbVertex
100
AcDb2dVertex
 10
707.6994121804997
 20
1112.20763166055
 30
0.0
  0
VERTEX
  5
56C
330
556
100
AcDbEntity
  8
Sichtbar (ISO)
100
AcDbVertex
100
AcDb2dVertex
 10
707.7266151237217
 20
1112.20683090837
 30
0.0
  0
VERTEX
  5
56D
330
556
100
AcDbEntity
  8
Sichtbar (ISO)
100
AcDbVertex
100
AcDb2dVertex
 10
707.7531316863955
 20
1112.20366688141
 30
0.0
  0
VERTEX
  5
56E
330
556
100
AcDbEntity
  8
Sichtbar (ISO)
100
AcDbVertex
100
AcDb2dVertex
 10
707.7809243513558
 20
1112.197400116611
 30
0.0
  0
VERTEX
  5
56F
330
556
100
AcDbEntity
  8
Sichtbar (ISO)
100
AcDbVertex
100
AcDb2dVertex
 10
707.8138300060969
 20
1112.185209853937
 30
0.0
  0
VERTEX
  5
570
330
556
100
AcDbEntity
  8
Sichtbar (ISO)
100
AcDbVertex
100
AcDb2dVertex
 10
707.8557046024841
 20
1112.159043580287
 30
0.0
  0
SEQEND
  5
559
330
556
100
AcDbEntity
  8
Sichtbar (ISO)
  0
ARC
  5
571
330
37
100
AcDbEntity
  8
Sichtbar (ISO)
100
AcDbCircle
 10
711.221166339344
 20
1115.146294386299
 30
0.0
 40
5.000000000000179
100
AcDbArc
 50
188.4994787745603
 51
195.3784544809959
  0
POLYLINE
  5
572
330
37
100
AcDbEntity
  8
Sichtbar (ISO)
100
AcDb2dPolyline
 66
     1
 10
0.0
 20
0.0
 30
0.0
 70
   128
  0
VERTEX
  5
573
330
572
100
AcDbEntity
  8
Sichtbar (ISO)
100
AcDbVertex
100
AcDb2dVertex
 10
706.8242109819808
 20
1114.188805934222
 30
0.0
  0
VERTEX
  5
574
330
572
100
AcDbEntity
  8
Sichtbar (ISO)
100
AcDbVertex
100
AcDb2dVertex
 10
706.8201681571174
 20
1114.137147741457
 30
0.0
  0
VERTEX
  5
576
330
572
100
AcDbEntity
  8
Sichtbar (ISO)
100
AcDbVertex
100
AcDb2dVertex
 10
706.8098167576447
 20
1114.102350551378
 30
0.0
  0
VERTEX
  5
577
330
572
100
AcDbEntity
  8
Sichtbar (ISO)
100
AcDbVertex
100
AcDb2dVertex
 10
706.7975035168426
 20
1114.075152981929
 30
0.0
  0
VERTEX
  5
578
330
572
100
AcDbEntity
  8
Sichtbar (ISO)
100
AcDbVertex
100
AcDb2dVertex
 10
706.7846240733167
 20
1114.05291410464
 30
0.0
  0
VERTEX
  5
579
330
572
100
AcDbEntity
  8
Sichtbar (ISO)
100
AcDbVertex
100
AcDb2dVertex
 10
706.7696156784543
 20
1114.031347580186
 30
0.0
  0
VERTEX
  5
57A
330
572
100
AcDbEntity
  8
Sichtbar (ISO)
100
AcDbVertex
100
AcDb2dVertex
 10
706.7526714360067
 20
1114.010512723817
 30
0.0
  0
VERTEX
  5
57B
330
572
100
AcDbEntity
  8
Sichtbar (ISO)
100
AcDbVertex
100
AcDb2dVertex
 10
706.7339939023578
 20
1113.990487760541
 30
0.0
  0
VERTEX
  5
57C
330
572
100
AcDbEntity
  8
Sichtbar (ISO)
100
AcDbVertex
100
AcDb2dVertex
 10
706.7137863535294
 20
1113.971350560333
 30
0.0
  0
VERTEX
  5
57D
330
572
100
AcDbEntity
  8
Sichtbar (ISO)
100
AcDbVertex
100
AcDb2dVertex
 10
706.6922521105555
 20
1113.953179834901
 30
0.0
  0
VERTEX
  5
57E
330
572
100
AcDbEntity
  8
Sichtbar (ISO)
100
AcDbVertex
100
AcDb2dVertex
 10
706.6695937073136
 20
1113.936053388388
 30
0.0
  0
VERTEX
  5
57F
330
572
100
AcDbEntity
  8
Sichtbar (ISO)
100
AcDbVertex
100
AcDb2dVertex
 10
706.6460546312066
 20
1113.920068993618
 30
0.0
  0
VERTEX
  5
580
330
572
100
AcDbEntity
  8
Sichtbar (ISO)
100
AcDbVertex
100
AcDb2dVertex
 10
706.6222828235334
 20
1113.90547447209
 30
0.0
  0
VERTEX
  5
581
330
572
100
AcDbEntity
  8
Sichtbar (ISO)
100
AcDbVertex
100
AcDb2dVertex
 10
706.5986004541535
 20
1113.892274226574
 30
0.0
  0
VERTEX
  5
582
330
572
100
AcDbEntity
  8
Sichtbar (ISO)
100
AcDbVertex
100
AcDb2dVertex
 10
706.5752041878647
 20
1113.880402765514
 30
0.0
  0
VERTEX
  5
583
330
572
100
AcDbEntity
  8
Sichtbar (ISO)
100
AcDbVertex
100
AcDb2dVertex
 10
706.5522903456812
 20
1113.869794088154
 30
0.0
  0
VERTEX
  5
584
330
572
100
AcDbEntity
  8
Sichtbar (ISO)
100
AcDbVertex
100
AcDb2dVertex
 10
706.5300553932198
 20
1113.860382924627
 30
0.0
  0
VERTEX
  5
585
330
572
100
AcDbEntity
  8
Sichtbar (ISO)
100
AcDbVertex
100
AcDb2dVertex
 10
706.508695873182
 20
1113.852103473355
 30
0.0
  0
VERTEX
  5
586
330
572
100
AcDbEntity
  8
Sichtbar (ISO)
100
AcDbVertex
100
AcDb2dVertex
 10
706.4884080294977
 20
1113.844890265291
 30
0.0
  0
VERTEX
  5
587
330
572
100
AcDbEntity
  8
Sichtbar (ISO)
100
AcDbVertex
100
AcDb2dVertex
 10
706.4693886265551
 20
1113.838677698039
 30
0.0
  0
VERTEX
  5
588
330
572
100
AcDbEntity
  8
Sichtbar (ISO)
100
AcDbVertex
100
AcDb2dVertex
 10
706.451833786188
 20
1113.833399992527
 30
0.0
  0
VERTEX
  5
589
330
572
100
AcDbEntity
  8
Sichtbar (ISO)
100
AcDbVertex
100
AcDb2dVertex
 10
706.4359401731937
 20
1113.828991657202
 30
0.0
  0
VERTEX
  5
58A
330
572
100
AcDbEntity
  8
Sichtbar (ISO)
100
AcDbVertex
100
AcDb2dVertex
 10
706.421903909406
 20
1113.825386912993
 30
0.0
  0
VERTEX
  5
58B
330
572
100
AcDbEntity
  8
Sichtbar (ISO)
100
AcDbVertex
100
AcDb2dVertex
 10
706.4099218813094
 20
1113.822520467527
 30
0.0
  0
VERTEX
  5
58C
330
572
100
AcDbEntity
  8
Sichtbar (ISO)
100
AcDbVertex
100
AcDb2dVertex
 10
706.4001902107378
 20
1113.820326541733
 30
0.0
  0
SEQEND
  5
575
330
572
100
AcDbEntity
  8
Sichtbar (ISO)
  0
POLYLINE
  5
58D
330
37
100
AcDbEntity
  8
Sichtbar (ISO)
100
AcDb2dPolyline
 66
     1
 10
0.0
 20
0.0
 30
0.0
 70
   128
  0
VERTEX
  5
58E
330
58D
100
AcDbEntity
  8
Sichtbar (ISO)
100
AcDbVertex
100
AcDb2dVertex
 10
706.8129654962606
 20
1114.241990130308
 30
0.0
  0
VERTEX
  5
58F
330
58D
100
AcDbEntity
  8
Sichtbar (ISO)
100
AcDbVertex
100
AcDb2dVertex
 10
706.813624872303
 20
1114.240204331338
 30
0.0
  0
VERTEX
  5
591
330
58D
100
AcDbEntity
  8
Sichtbar (ISO)
100
AcDbVertex
100
AcDb2dVertex
 10
706.8142909276372
 20
1114.238340197626
 30
0.0
  0
VERTEX
  5
592
330
58D
100
AcDbEntity
  8
Sichtbar (ISO)
100
AcDbVertex
100
AcDb2dVertex
 10
706.8149606166029
 20
1114.23639799756
 30
0.0
  0
VERTEX
  5
593
330
58D
100
AcDbEntity
  8
Sichtbar (ISO)
100
AcDbVertex
100
AcDb2dVertex
 10
706.8156310606491
 20
1114.234379151286
 30
0.0
  0
VERTEX
  5
594
330
58D
100
AcDbEntity
  8
Sichtbar (ISO)
100
AcDbVertex
100
AcDb2dVertex
 10
706.8162991145251
 20
1114.232284038034
 30
0.0
  0
VERTEX
  5
595
330
58D
100
AcDbEntity
  8
Sichtbar (ISO)
100
AcDbVertex
100
AcDb2dVertex
 10
706.8169618771737
 20
1114.230113657083
 30
0.0
  0
VERTEX
  5
596
330
58D
100
AcDbEntity
  8
Sichtbar (ISO)
100
AcDbVertex
100
AcDb2dVertex
 10
706.817616325441
 20
1114.227868697686
 30
0.0
  0
VERTEX
  5
597
330
58D
100
AcDbEntity
  8
Sichtbar (ISO)
100
AcDbVertex
100
AcDb2dVertex
 10
706.8182583215506
 20
1114.225554657001
 30
0.0
  0
VERTEX
  5
598
330
58D
100
AcDbEntity
  8
Sichtbar (ISO)
100
AcDbVertex
100
AcDb2dVertex
 10
706.8188795646308
 20
1114.223191921762
 30
0.0
  0
VERTEX
  5
599
330
58D
100
AcDbEntity
  8
Sichtbar (ISO)
100
AcDbVertex
100
AcDb2dVertex
 10
706.8194777320353
 20
1114.220784414814
 30
0.0
  0
VERTEX
  5
59A
330
58D
100
AcDbEntity
  8
Sichtbar (ISO)
100
AcDbVertex
100
AcDb2dVertex
 10
706.8200508415252
 20
1114.218332558711
 30
0.0
  0
VERTEX
  5
59B
330
58D
100
AcDbEntity
  8
Sichtbar (ISO)
100
AcDbVertex
100
AcDb2dVertex
 10
706.820597155054
 20
1114.215837396056
 30
0.0
  0
VERTEX
  5
59C
330
58D
100
AcDbEntity
  8
Sichtbar (ISO)
100
AcDbVertex
100
AcDb2dVertex
 10
706.8211102031977
 20
1114.213323963942
 30
0.0
  0
VERTEX
  5
59D
330
58D
100
AcDbEntity
  8
Sichtbar (ISO)
100
AcDbVertex
100
AcDb2dVertex
 10
706.8215803465261
 20
1114.210840893908
 30
0.0
  0
VERTEX
  5
59E
330
58D
100
AcDbEntity
  8
Sichtbar (ISO)
100
AcDbVertex
100
AcDb2dVertex
 10
706.8220092268717
 20
1114.208391263683
 30
0.0
  0
VERTEX
  5
59F
330
58D
100
AcDbEntity
  8
Sichtbar (ISO)
100
AcDbVertex
100
AcDb2dVertex
 10
706.8223978755841
 20
1114.205976600881
 30
0.0
  0
VERTEX
  5
5A0
330
58D
100
AcDbEntity
  8
Sichtbar (ISO)
100
AcDbVertex
100
AcDb2dVertex
 10
706.822747658231
 20
1114.20360073663
 30
0.0
  0
VERTEX
  5
5A1
330
58D
100
AcDbEntity
  8
Sichtbar (ISO)
100
AcDbVertex
100
AcDb2dVertex
 10
706.8230579266331
 20
1114.201283120845
 30
0.0
  0
VERTEX
  5
5A2
330
58D
100
AcDbEntity
  8
Sichtbar (ISO)
100
AcDbVertex
100
AcDb2dVertex
 10
706.823330403083
 20
1114.199030309037
 30
0.0
  0
VERTEX
  5
5A3
330
58D
100
AcDbEntity
  8
Sichtbar (ISO)
100
AcDbVertex
100
AcDb2dVertex
 10
706.8235675036281
 20
1114.196844071324
 30
0.0
  0
VERTEX
  5
5A4
330
58D
100
AcDbEntity
  8
Sichtbar (ISO)
100
AcDbVertex
100
AcDb2dVertex
 10
706.823771888509
 20
1114.19472679787
 30
0.0
  0
VERTEX
  5
5A5
330
58D
100
AcDbEntity
  8
Sichtbar (ISO)
100
AcDbVertex
100
AcDb2dVertex
 10
706.8239454308097
 20
1114.192679971276
 30
0.0
  0
VERTEX
  5
5A6
330
58D
100
AcDbEntity
  8
Sichtbar (ISO)
100
AcDbVertex
100
AcDb2dVertex
 10
706.8240910895414
 20
1114.190705649178
 30
0.0
  0
VERTEX
  5
5A7
330
58D
100
AcDbEntity
  8
Sichtbar (ISO)
100
AcDbVertex
100
AcDb2dVertex
 10
706.8242109819808
 20
1114.188805934222
 30
0.0
  0
SEQEND
  5
590
330
58D
100
AcDbEntity
  8
Sichtbar (ISO)
  0
POLYLINE
  5
5A8
330
37
100
AcDbEntity
  8
Sichtbar (ISO)
100
AcDb2dPolyline
 66
     1
 10
0.0
 20
0.0
 30
0.0
 70
   128
  0
VERTEX
  5
5A9
330
5A8
100
AcDbEntity
  8
Sichtbar (ISO)
100
AcDbVertex
100
AcDb2dVertex
 10
706.2760802398575
 20
1114.407292176594
 30
0.0
  0
VERTEX
  5
5AA
330
5A8
100
AcDbEntity
  8
Sichtbar (ISO)
100
AcDbVertex
100
AcDb2dVertex
 10
706.28471612878
 20
1114.409046445959
 30
0.0
  0
VERTEX
  5
5AC
330
5A8
100
AcDbEntity
  8
Sichtbar (ISO)
100
AcDbVertex
100
AcDb2dVertex
 10
706.2954283533946
 20
1114.411135387846
 30
0.0
  0
VERTEX
  5
5AD
330
5A8
100
AcDbEntity
  8
Sichtbar (ISO)
100
AcDbVertex
100
AcDb2dVertex
 10
706.3082167088858
 20
1114.413420996093
 30
0.0
  0
VERTEX
  5
5AE
330
5A8
100
AcDbEntity
  8
Sichtbar (ISO)
100
AcDbVertex
100
AcDb2dVertex
 10
706.3230810354505
 20
1114.415766106273
 30
0.0
  0
VERTEX
  5
5AF
330
5A8
100
AcDbEntity
  8
Sichtbar (ISO)
100
AcDbVertex
100
AcDb2dVertex
 10
706.3400209065863
 20
1114.418032513042
 30
0.0
  0
VERTEX
  5
5B0
330
5A8
100
AcDbEntity
  8
Sichtbar (ISO)
100
AcDbVertex
100
AcDb2dVertex
 10
706.3590365833573
 20
1114.420083029466
 30
0.0
  0
VERTEX
  5
5B1
330
5A8
100
AcDbEntity
  8
Sichtbar (ISO)
100
AcDbVertex
100
AcDb2dVertex
 10
706.3801276617676
 20
1114.421779871071
 30
0.0
  0
VERTEX
  5
5B2
330
5A8
100
AcDbEntity
  8
Sichtbar (ISO)
100
AcDbVertex
100
AcDb2dVertex
 10
706.4032939595078
 20
1114.42298545256
 30
0.0
  0
VERTEX
  5
5B3
330
5A8
100
AcDbEntity
  8
Sichtbar (ISO)
100
AcDbVertex
100
AcDb2dVertex
 10
706.4285350725818
 20
1114.423561989458
 30
0.0
  0
VERTEX
  5
5B4
330
5A8
100
AcDbEntity
  8
Sichtbar (ISO)
100
AcDbVertex
100
AcDb2dVertex
 10
706.4554660031909
 20
1114.423275350246
 30
0.0
  0
VERTEX
  5
5B5
330
5A8
100
AcDbEntity
  8
Sichtbar (ISO)
100
AcDbVertex
100
AcDb2dVertex
 10
706.4831804983235
 20
1114.421840139796
 30
0.0
  0
VERTEX
  5
5B6
330
5A8
100
AcDbEntity
  8
Sichtbar (ISO)
100
AcDbVertex
100
AcDb2dVertex
 10
706.511404355155
 20
1114.419195892795
 30
0.0
  0
VERTEX
  5
5B7
330
5A8
100
AcDbEntity
  8
Sichtbar (ISO)
100
AcDbVertex
100
AcDb2dVertex
 10
706.5398837108975
 20
1114.415287598321
 30
0.0
  0
VERTEX
  5
5B8
330
5A8
100
AcDbEntity
  8
Sichtbar (ISO)
100
AcDbVertex
100
AcDb2dVertex
 10
706.5683646802569
 20
1114.410059824587
 30
0.0
  0
VERTEX
  5
5B9
330
5A8
100
AcDbEntity
  8
Sichtbar (ISO)
100
AcDbVertex
100
AcDb2dVertex
 10
706.5965934454579
 20
1114.403458402406
 30
0.0
  0
VERTEX
  5
5BA
330
5A8
100
AcDbEntity
  8
Sichtbar (ISO)
100
AcDbVertex
100
AcDb2dVertex
 10
706.624315922026
 20
1114.395428121678
 30
0.0
  0
VERTEX
  5
5BB
330
5A8
100
AcDbEntity
  8
Sichtbar (ISO)
100
AcDbVertex
100
AcDb2dVertex
 10
706.6512781475831
 20
1114.385914082325
 30
0.0
  0
VERTEX
  5
5BC
330
5A8
100
AcDbEntity
  8
Sichtbar (ISO)
100
AcDbVertex
100
AcDb2dVertex
 10
706.677226259341
 20
1114.374861273425
 30
0.0
  0
VERTEX
  5
5BD
330
5A8
100
AcDbEntity
  8
Sichtbar (ISO)
100
AcDbVertex
100
AcDb2dVertex
 10
706.7019062949221
 20
1114.362214794903
 30
0.0
  0
VERTEX
  5
5BE
330
5A8
100
AcDbEntity
  8
Sichtbar (ISO)
100
AcDbVertex
100
AcDb2dVertex
 10
706.7250644140446
 20
1114.347920056703
 30
0.0
  0
VERTEX
  5
5BF
330
5A8
100
AcDbEntity
  8
Sichtbar (ISO)
100
AcDbVertex
100
AcDb2dVertex
 10
706.7464464101375
 20
1114.331921538702
 30
0.0
  0
VERTEX
  5
5C0
330
5A8
100
AcDbEntity
  8
Sichtbar (ISO)
100
AcDbVertex
100
AcDb2dVertex
 10
706.7673820477225
 20
1114.312597864776
 30
0.0
  0
VERTEX
  5
5C1
330
5A8
100
AcDbEntity
  8
Sichtbar (ISO)
100
AcDbVertex
100
AcDb2dVertex
 10
706.7897842481521
 20
1114.285588151825
 30
0.0
  0
VERTEX
  5
5C2
330
5A8
100
AcDbEntity
  8
Sichtbar (ISO)
100
AcDbVertex
100
AcDb2dVertex
 10
706.8129654962606
 20
1114.241990130308
 30
0.0
  0
SEQEND
  5
5AB
330
5A8
100
AcDbEntity
  8
Sichtbar (ISO)
  0
ARC
  5
5C3
330
37
100
AcDbEntity
  8
Sichtbar (ISO)
100
AcDbCircle
 10
711.2211663393439
 20
1115.146294386299
 30
0.0
 40
4.999999999999985
100
AcDbArc
 50
158.4994787745594
 51
165.3784544809953
  0
POLYLINE
  5
5C4
330
37
100
AcDbEntity
  8
Sichtbar (ISO)
100
AcDb2dPolyline
 66
     1
 10
0.0
 20
0.0
 30
0.0
 70
   128
  0
VERTEX
  5
5C5
330
5C4
100
AcDbEntity
  8
Sichtbar (ISO)
100
AcDbVertex
100
AcDb2dVertex
 10
706.9345470661561
 20
1116.515562828606
 30
0.0
  0
VERTEX
  5
5C6
330
5C4
100
AcDbEntity
  8
Sichtbar (ISO)
100
AcDbVertex
100
AcDb2dVertex
 10
706.9052169155741
 20
1116.472846786976
 30
0.0
  0
VERTEX
  5
5C8
330
5C4
100
AcDbEntity
  8
Sichtbar (ISO)
100
AcDbVertex
100
AcDb2dVertex
 10
706.8788533910714
 20
1116.447887314472
 30
0.0
  0
VERTEX
  5
5C9
330
5C4
100
AcDbEntity
  8
Sichtbar (ISO)
100
AcDbVertex
100
AcDb2dVertex
 10
706.854591316889
 20
1116.430490292686
 30
0.0
  0
VERTEX
  5
5CA
330
5C4
100
AcDbEntity
  8
Sichtbar (ISO)
100
AcDbVertex
100
AcDb2dVertex
 10
706.8323177963553
 20
1116.417670438395
 30
0.0
  0
VERTEX
  5
5CB
330
5C4
100
AcDbEntity
  8
Sichtbar (ISO)
100
AcDbVertex
100
AcDb2dVertex
 10
706.8085372288947
 20
1116.406497373749
 30
0.0
  0
VERTEX
  5
5CC
330
5C4
100
AcDbEntity
  8
Sichtbar (ISO)
100
AcDbVertex
100
AcDb2dVertex
 10
706.783445266524
 20
1116.396926131782
 30
0.0
  0
VERTEX
  5
5CD
330
5C4
100
AcDbEntity
  8
Sichtbar (ISO)
100
AcDbVertex
100
AcDb2dVertex
 10
706.7572576621683
 20
1116.388922594108
 30
0.0
  0
VERTEX
  5
5CE
330
5C4
100
AcDbEntity
  8
Sichtbar (ISO)
100
AcDbVertex
100
AcDb2dVertex
 10
706.7301889286574
 20
1116.382453130729
 30
0.0
  0
VERTEX
  5
5CF
330
5C4
100
AcDbEntity
  8
Sichtbar (ISO)
100
AcDbVertex
100
AcDb2dVertex
 10
706.7024541988684
 20
1116.377483867453
 30
0.0
  0
VERTEX
  5
5D0
330
5C4
100
AcDbEntity
  8
Sichtbar (ISO)
100
AcDbVertex
100
AcDb2dVertex
 10
706.6742684064985
 20
1116.373981151774
 30
0.0
  0
VERTEX
  5
5D1
330
5C4
100
AcDbEntity
  8
Sichtbar (ISO)
100
AcDbVertex
100
AcDb2dVertex
 10
706.6458908304621
 20
1116.371907904607
 30
0.0
  0
VERTEX
  5
5D2
330
5C4
100
AcDbEntity
  8
Sichtbar (ISO)
100
AcDbVertex
100
AcDb2dVertex
 10
706.6180063375012
 20
1116.371154694824
 30
0.0
  0
VERTEX
  5
5D3
330
5C4
100
AcDbEntity
  8
Sichtbar (ISO)
100
AcDbVertex
100
AcDb2dVertex
 10
706.5908966779029
 20
1116.37156400669
 30
0.0
  0
VERTEX
  5
5D4
330
5C4
100
AcDbEntity
  8
Sichtbar (ISO)
100
AcDbVertex
100
AcDb2dVertex
 10
706.5646991961353
 20
1116.372981192904
 30
0.0
  0
VERTEX
  5
5D5
330
5C4
100
AcDbEntity
  8
Sichtbar (ISO)
100
AcDbVertex
100
AcDb2dVertex
 10
706.5395509699675
 20
1116.375250565248
 30
0.0
  0
VERTEX
  5
5D6
330
5C4
100
AcDbEntity
  8
Sichtbar (ISO)
100
AcDbVertex
100
AcDb2dVertex
 10
706.5155893663743
 20
1116.378217897285
 30
0.0
  0
VERTEX
  5
5D7
330
5C4
100
AcDbEntity
  8
Sichtbar (ISO)
100
AcDbVertex
100
AcDb2dVertex
 10
706.4929516623053
 20
1116.381727279112
 30
0.0
  0
VERTEX
  5
5D8
330
5C4
100
AcDbEntity
  8
Sichtbar (ISO)
100
AcDbVertex
100
AcDb2dVertex
 10
706.4717752247352
 20
1116.385624484294
 30
0.0
  0
VERTEX
  5
5D9
330
5C4
100
AcDbEntity
  8
Sichtbar (ISO)
100
AcDbVertex
100
AcDb2dVertex
 10
706.4521977739868
 20
1116.389754001287
 30
0.0
  0
VERTEX
  5
5DA
330
5C4
100
AcDbEntity
  8
Sichtbar (ISO)
100
AcDbVertex
100
AcDb2dVertex
 10
706.4343557902882
 20
1116.393960806934
 30
0.0
  0
VERTEX
  5
5DB
330
5C4
100
AcDbEntity
  8
Sichtbar (ISO)
100
AcDbVertex
100
AcDb2dVertex
 10
706.4183874373356
 20
1116.398089788054
 30
0.0
  0
VERTEX
  5
5DC
330
5C4
100
AcDbEntity
  8
Sichtbar (ISO)
100
AcDbVertex
100
AcDb2dVertex
 10
706.4044294170438
 20
1116.401986120668
 30
0.0
  0
VERTEX
  5
5DD
330
5C4
100
AcDbEntity
  8
Sichtbar (ISO)
100
AcDbVertex
100
AcDb2dVertex
 10
706.3926194722419
 20
1116.405494714101
 30
0.0
  0
VERTEX
  5
5DE
330
5C4
100
AcDbEntity
  8
Sichtbar (ISO)
100
AcDbVertex
100
AcDb2dVertex
 10
706.3830947257115
 20
1116.408460721869
 30
0.0
  0
SEQEND
  5
5C7
330
5C4
100
AcDbEntity
  8
Sichtbar (ISO)
  0
POLYLINE
  5
5DF
330
37
100
AcDbEntity
  8
Sichtbar (ISO)
100
AcDb2dPolyline
 66
     1
 10
0.0
 20
0.0
 30
0.0
 70
   128
  0
VERTEX
  5
5E0
330
5DF
100
AcDbEntity
  8
Sichtbar (ISO)
100
AcDbVertex
100
AcDb2dVertex
 10
706.9514003542733
 20
1116.567244414709
 30
0.0
  0
VERTEX
  5
5E1
330
5DF
100
AcDbEntity
  8
Sichtbar (ISO)
100
AcDbVertex
100
AcDb2dVertex
 10
706.9510784358044
 20
1116.565368220514
 30
0.0
  0
VERTEX
  5
5E3
330
5DF
100
AcDbEntity
  8
Sichtbar (ISO)
100
AcDbVertex
100
AcDb2dVertex
 10
706.9507231630474
 20
1116.563420791744
 30
0.0
  0
VERTEX
  5
5E4
330
5DF
100
AcDbEntity
  8
Sichtbar (ISO)
100
AcDbVertex
100
AcDb2dVertex
 10
706.9503321008245
 20
1116.561403946906
 30
0.0
  0
VERTEX
  5
5E5
330
5DF
100
AcDbEntity
  8
Sichtbar (ISO)
100
AcDbVertex
100
AcDb2dVertex
 10
706.9499032798379
 20
1116.559320323733
 30
0.0
  0
VERTEX
  5
5E6
330
5DF
100
AcDbEntity
  8
Sichtbar (ISO)
100
AcDbVertex
100
AcDb2dVertex
 10
706.9494342649098
 20
1116.557171740732
 30
0.0
  0
VERTEX
  5
5E7
330
5DF
100
AcDbEntity
  8
Sichtbar (ISO)
100
AcDbVertex
100
AcDb2dVertex
 10
706.9489230867421
 20
1116.554960835637
 30
0.0
  0
VERTEX
  5
5E8
330
5DF
100
AcDbEntity
  8
Sichtbar (ISO)
100
AcDbVertex
100
AcDb2dVertex
 10
706.9483673101572
 20
1116.552689426955
 30
0.0
  0
VERTEX
  5
5E9
330
5DF
100
AcDbEntity
  8
Sichtbar (ISO)
100
AcDbVertex
100
AcDb2dVertex
 10
706.9477661434977
 20
1116.550364415668
 30
0.0
  0
VERTEX
  5
5EA
330
5DF
100
AcDbEntity
  8
Sichtbar (ISO)
100
AcDbVertex
100
AcDb2dVertex
 10
706.94712297227
 20
1116.548007673927
 30
0.0
  0
VERTEX
  5
5EB
330
5DF
100
AcDbEntity
  8
Sichtbar (ISO)
100
AcDbVertex
100
AcDb2dVertex
 10
706.9464371798024
 20
1116.545623455415
 30
0.0
  0
VERTEX
  5
5EC
330
5DF
100
AcDbEntity
  8
Sichtbar (ISO)
100
AcDbVertex
100
AcDb2dVertex
 10
706.9457075935186
 20
1116.543213511121
 30
0.0
  0
VERTEX
  5
5ED
330
5DF
100
AcDbEntity
  8
Sichtbar (ISO)
100
AcDbVertex
100
AcDb2dVertex
 10
706.944933151686
 20
1116.540779691622
 30
0.0
  0
VERTEX
  5
5EE
330
5DF
100
AcDbEntity
  8
Sichtbar (ISO)
100
AcDbVertex
100
AcDb2dVertex
 10
706.9441206534484
 20
1116.538346535498
 30
0.0
  0
VERTEX
  5
5EF
330
5DF
100
AcDbEntity
  8
Sichtbar (ISO)
100
AcDbVertex
100
AcDb2dVertex
 10
706.943286419789
 20
1116.535960758437
 30
0.0
  0
VERTEX
  5
5F0
330
5DF
100
AcDbEntity
  8
Sichtbar (ISO)
100
AcDbVertex
100
AcDb2dVertex
 10
706.942432911768
 20
1116.533624972292
 30
0.0
  0
VERTEX
  5
5F1
330
5DF
100
AcDbEntity
  8
Sichtbar (ISO)
100
AcDbVertex
100
AcDb2dVertex
 10
706.9415622562273
 20
1116.531339485398
 30
0.0
  0
VERTEX
  5
5F2
330
5DF
100
AcDbEntity
  8
Sichtbar (ISO)
100
AcDbVertex
100
AcDb2dVertex
 10
706.9406771359138
 20
1116.529107108787
 30
0.0
  0
VERTEX
  5
5F3
330
5DF
100
AcDbEntity
  8
Sichtbar (ISO)
100
AcDbVertex
100
AcDb2dVertex
 10
706.939787112615
 20
1116.526944847068
 30
0.0
  0
VERTEX
  5
5F4
330
5DF
100
AcDbEntity
  8
Sichtbar (ISO)
100
AcDbVertex
100
AcDb2dVertex
 10
706.9388966650778
 20
1116.524857525582
 30
0.0
  0
VERTEX
  5
5F5
330
5DF
100
AcDbEntity
  8
Sichtbar (ISO)
100
AcDbVertex
100
AcDb2dVertex
 10
706.9380090944085
 20
1116.522845706423
 30
0.0
  0
VERTEX
  5
5F6
330
5DF
100
AcDbEntity
  8
Sichtbar (ISO)
100
AcDbVertex
100
AcDb2dVertex
 10
706.9371271700031
 20
1116.520909874602
 30
0.0
  0
VERTEX
  5
5F7
330
5DF
100
AcDbEntity
  8
Sichtbar (ISO)
100
AcDbVertex
100
AcDb2dVertex
 10
706.9362540821245
 20
1116.519050492621
 30
0.0
  0
VERTEX
  5
5F8
330
5DF
100
AcDbEntity
  8
Sichtbar (ISO)
100
AcDbVertex
100
AcDb2dVertex
 10
706.9353930210355
 20
1116.517268022985
 30
0.0
  0
VERTEX
  5
5F9
330
5DF
100
AcDbEntity
  8
Sichtbar (ISO)
100
AcDbVertex
100
AcDb2dVertex
 10
706.9345470661561
 20
1116.515562828606
 30
0.0
  0
SEQEND
  5
5E2
330
5DF
100
AcDbEntity
  8
Sichtbar (ISO)
  0
POLYLINE
  5
5FA
330
37
100
AcDbEntity
  8
Sichtbar (ISO)
100
AcDb2dPolyline
 66
     1
 10
0.0
 20
0.0
 30
0.0
 70
   128
  0
VERTEX
  5
5FB
330
5FA
100
AcDbEntity
  8
Sichtbar (ISO)
100
AcDbVertex
100
AcDb2dVertex
 10
706.5690950263656
 20
1116.978842900357
 30
0.0
  0
VERTEX
  5
5FC
330
5FA
100
AcDbEntity
  8
Sichtbar (ISO)
100
AcDbVertex
100
AcDb2dVertex
 10
706.5774512459744
 20
1116.97604415978
 30
0.0
  0
VERTEX
  5
5FE
330
5FA
100
AcDbEntity
  8
Sichtbar (ISO)
100
AcDbVertex
100
AcDb2dVertex
 10
706.5877725949425
 20
1116.972496990703
 30
0.0
  0
VERTEX
  5
5FF
330
5FA
100
AcDbEntity
  8
Sichtbar (ISO)
100
AcDbVertex
100
AcDb2dVertex
 10
706.599990457289
 20
1116.968082450899
 30
0.0
  0
VERTEX
  5
600
330
5FA
100
AcDbEntity
  8
Sichtbar (ISO)
100
AcDbVertex
100
AcDb2dVertex
 10
706.6140356628165
 20
1116.96268110019
 30
0.0
  0
VERTEX
  5
601
330
5FA
100
AcDbEntity
  8
Sichtbar (ISO)
100
AcDbVertex
100
AcDb2dVertex
 10
706.6298394847007
 20
1116.956173896758
 30
0.0
  0
VERTEX
  5
602
330
5FA
100
AcDbEntity
  8
Sichtbar (ISO)
100
AcDbVertex
100
AcDb2dVertex
 10
706.6473327752504
 20
1116.948441821294
 30
0.0
  0
VERTEX
  5
603
330
5FA
100
AcDbEntity
  8
Sichtbar (ISO)
100
AcDbVertex
100
AcDb2dVertex
 10
706.6664464976175
 20
1116.939365954077
 30
0.0
  0
VERTEX
  5
604
330
5FA
100
AcDbEntity
  8
Sichtbar (ISO)
100
AcDbVertex
100
AcDb2dVertex
 10
706.6871117916284
 20
1116.928826732833
 30
0.0
  0
VERTEX
  5
605
330
5FA
100
AcDbEntity
  8
Sichtbar (ISO)
100
AcDbVertex
100
AcDb2dVertex
 10
706.7092597312785
 20
1116.91670533743
 30
0.0
  0
VERTEX
  5
606
330
5FA
100
AcDbEntity
  8
Sichtbar (ISO)
100
AcDbVertex
100
AcDb2dVertex
 10
706.7324393174747
 20
1116.902991592254
 30
0.0
  0
VERTEX
  5
607
330
5FA
100
AcDbEntity
  8
Sichtbar (ISO)
100
AcDbVertex
100
AcDb2dVertex
 10
706.7557232015521
 20
1116.887891570906
 30
0.0
  0
VERTEX
  5
608
330
5FA
100
AcDbEntity
  8
Sichtbar (ISO)
100
AcDbVertex
100
AcDb2dVertex
 10
706.7788435494049
 20
1116.8714895543
 30
0.0
  0
VERTEX
  5
609
330
5FA
100
AcDbEntity
  8
Sichtbar (ISO)
100
AcDbVertex
100
AcDb2dVertex
 10
706.8015531685482
 20
1116.853865131916
 30
0.0
  0
VERTEX
  5
60A
330
5FA
100
AcDbEntity
  8
Sichtbar (ISO)
100
AcDbVertex
100
AcDb2dVertex
 10
706.8236047331468
 20
1116.835097372778
 30
0.0
  0
VERTEX
  5
60B
330
5FA
100
AcDbEntity
  8
Sichtbar (ISO)
100
AcDbVertex
100
AcDb2dVertex
 10
706.8447508515346
 20
1116.815266088052
 30
0.0
  0
VERTEX
  5
60C
330
5FA
100
AcDbEntity
  8
Sichtbar (ISO)
100
AcDbVertex
100
AcDb2dVertex
 10
706.8647438878531
 20
1116.79445046886
 30
0.0
  0
VERTEX
  5
60D
330
5FA
100
AcDbEntity
  8
Sichtbar (ISO)
100
AcDbVertex
100
AcDb2dVertex
 10
706.8833368487973
 20
1116.772729882993
 30
0.0
  0
VERTEX
  5
60E
330
5FA
100
AcDbEntity
  8
Sichtbar (ISO)
100
AcDbVertex
100
AcDb2dVertex
 10
706.9002823201952
 20
1116.750183720753
 30
0.0
  0
VERTEX
  5
60F
330
5FA
100
AcDbEntity
  8
Sichtbar (ISO)
100
AcDbVertex
100
AcDb2dVertex
 10
706.9153326886938
 20
1116.726891594127
 30
0.0
  0
VERTEX
  5
610
330
5FA
100
AcDbEntity
  8
Sichtbar (ISO)
100
AcDbVertex
100
AcDb2dVertex
 10
706.9282405401216
 20
1116.702932893415
 30
0.0
  0
VERTEX
  5
611
330
5FA
100
AcDbEntity
  8
Sichtbar (ISO)
100
AcDbVertex
100
AcDb2dVertex
 10
706.9387586594867
 20
1116.67838678723
 30
0.0
  0
VERTEX
  5
612
330
5FA
100
AcDbEntity
  8
Sichtbar (ISO)
100
AcDbVertex
100
AcDb2dVertex
 10
706.9472279057214
 20
1116.65118410081
 30
0.0
  0
VERTEX
  5
613
330
5FA
100
AcDbEntity
  8
Sichtbar (ISO)
100
AcDbVertex
100
AcDb2dVertex
 10
706.9531237902959
 20
1116.616591924344
 30
0.0
  0
VERTEX
  5
614
330
5FA
100
AcDbEntity
  8
Sichtbar (ISO)
100
AcDbVertex
100
AcDb2dVertex
 10
706.9514003542733
 20
1116.567244414709
 30
0.0
  0
SEQEND
  5
5FD
330
5FA
100
AcDbEntity
  8
Sichtbar (ISO)
  0
POLYLINE
  5
615
330
37
100
AcDbEntity
  8
Sichtbar (ISO)
100
AcDb2dPolyline
 66
     1
 10
0.0
 20
0.0
 30
0.0
 70
   128
  0
VERTEX
  5
616
330
615
100
AcDbEntity
  8
Sichtbar (ISO)
100
AcDbVertex
100
AcDb2dVertex
 10
708.1934794173608
 20
1118.475425201183
 30
0.0
  0
VERTEX
  5
617
330
615
100
AcDbEntity
  8
Sichtbar (ISO)
100
AcDbVertex
100
AcDb2dVertex
 10
708.1286152071111
 20
1118.448030376008
 30
0.0
  0
VERTEX
  5
619
330
615
100
AcDbEntity
  8
Sichtbar (ISO)
100
AcDbVertex
100
AcDb2dVertex
 10
708.078682901187
 20
1118.441498326771
 30
0.0
  0
VERTEX
  5
61A
330
615
100
AcDbEntity
  8
Sichtbar (ISO)
100
AcDbVertex
100
AcDb2dVertex
 10
708.036309812679
 20
1118.443102628016
 30
0.0
  0
VERTEX
  5
61B
330
615
100
AcDbEntity
  8
Sichtbar (ISO)
100
AcDbVertex
100
AcDb2dVertex
 10
708.0056889549813
 20
1118.447681414058
 30
0.0
  0
VERTEX
  5
61C
330
615
100
AcDbEntity
  8
Sichtbar (ISO)
100
AcDbVertex
100
AcDb2dVertex
 10
707.9806426896417
 20
1118.453263587744
 30
0.0
  0
VERTEX
  5
61D
330
615
100
AcDbEntity
  8
Sichtbar (ISO)
100
AcDbVertex
100
AcDb2dVertex
 10
707.9558656985579
 20
1118.460382985897
 30
0.0
  0
VERTEX
  5
61E
330
615
100
AcDbEntity
  8
Sichtbar (ISO)
100
AcDbVertex
100
AcDb2dVertex
 10
707.931450368036
 20
1118.468880625455
 30
0.0
  0
VERTEX
  5
61F
330
615
100
AcDbEntity
  8
Sichtbar (ISO)
100
AcDbVertex
100
AcDb2dVertex
 10
707.9074898949595
 20
1118.47859664906
 30
0.0
  0
VERTEX
  5
620
330
615
100
AcDbEntity
  8
Sichtbar (ISO)
100
AcDbVertex
100
AcDb2dVertex
 10
707.8840770501399
 20
1118.489371617828
 30
0.0
  0
VERTEX
  5
621
330
615
100
AcDbEntity
  8
Sichtbar (ISO)
100
AcDbVertex
100
AcDb2dVertex
 10
707.8613048451354
 20
1118.501045908534
 30
0.0
  0
VERTEX
  5
622
330
615
100
AcDbEntity
  8
Sichtbar (ISO)
100
AcDbVertex
100
AcDb2dVertex
 10
707.839265652397
 20
1118.513460525669
 30
0.0
  0
VERTEX
  5
623
330
615
100
AcDbEntity
  8
Sichtbar (ISO)
100
AcDbVertex
100
AcDb2dVertex
 10
707.8180528679881
 20
1118.526455390187
 30
0.0
  0
VERTEX
  5
624
330
615
100
AcDbEntity
  8
Sichtbar (ISO)
100
AcDbVertex
100
AcDb2dVertex
 10
707.7977590912511
 20
1118.539871309787
 30
0.0
  0
VERTEX
  5
625
330
615
100
AcDbEntity
  8
Sichtbar (ISO)
100
AcDbVertex
100
AcDb2dVertex
 10
707.7784770929975
 20
1118.553548845587
 30
0.0
  0
VERTEX
  5
626
330
615
100
AcDbEntity
  8
Sichtbar (ISO)
100
AcDbVertex
100
AcDb2dVertex
 10
707.7602998709301
 20
1118.567328361915
 30
0.0
  0
VERTEX
  5
627
330
615
100
AcDbEntity
  8
Sichtbar (ISO)
100
AcDbVertex
100
AcDb2dVertex
 10
707.743380130319
 20
1118.580974460396
 30
0.0
  0
VERTEX
  5
628
330
615
100
AcDbEntity
  8
Sichtbar (ISO)
100
AcDbVertex
100
AcDb2dVertex
 10
707.7280679225246
 20
1118.593959496763
 30
0.0
  0
VERTEX
  5
629
330
615
100
AcDbEntity
  8
Sichtbar (ISO)
100
AcDbVertex
100
AcDb2dVertex
 10
707.7143558671718
 20
1118.60614743134
 30
0.0
  0
VERTEX
  5
62A
330
615
100
AcDbEntity
  8
Sichtbar (ISO)
100
AcDbVertex
100
AcDb2dVertex
 10
707.7021842859419
 20
1118.617464612238
 30
0.0
  0
VERTEX
  5
62B
330
615
100
AcDbEntity
  8
Sichtbar (ISO)
100
AcDbVertex
100
AcDb2dVertex
 10
707.691493912733
 20
1118.627836956648
 30
0.0
  0
VERTEX
  5
62C
330
615
100
AcDbEntity
  8
Sichtbar (ISO)
100
AcDbVertex
100
AcDb2dVertex
 10
707.6822254398766
 20
1118.637190344409
 30
0.0
  0
VERTEX
  5
62D
330
615
100
AcDbEntity
  8
Sichtbar (ISO)
100
AcDbVertex
100
AcDb2dVertex
 10
707.6743192029098
 20
1118.645451136085
 30
0.0
  0
VERTEX
  5
62E
330
615
100
AcDbEntity
  8
Sichtbar (ISO)
100
AcDbVertex
100
AcDb2dVertex
 10
707.6677160933447
 20
1118.652544989831
 30
0.0
  0
VERTEX
  5
62F
330
615
100
AcDbEntity
  8
Sichtbar (ISO)
100
AcDbVertex
100
AcDb2dVertex
 10
707.6623566458984
 20
1118.658398044522
 30
0.0
  0
SEQEND
  5
618
330
615
100
AcDbEntity
  8
Sichtbar (ISO)
  0
POLYLINE
  5
630
330
37
100
AcDbEntity
  8
Sichtbar (ISO)
100
AcDb2dPolyline
 66
     1
 10
0.0
 20
0.0
 30
0.0
 70
   128
  0
VERTEX
  5
631
330
630
100
AcDbEntity
  8
Sichtbar (ISO)
100
AcDbVertex
100
AcDb2dVertex
 10
708.2339155333299
 20
1118.511756123157
 30
0.0
  0
VERTEX
  5
632
330
630
100
AcDbEntity
  8
Sichtbar (ISO)
100
AcDbVertex
100
AcDb2dVertex
 10
708.2326970421448
 20
1118.510290338828
 30
0.0
  0
VERTEX
  5
634
330
630
100
AcDbEntity
  8
Sichtbar (ISO)
100
AcDbVertex
100
AcDb2dVertex
 10
708.2314138926309
 20
1118.508779281139
 30
0.0
  0
VERTEX
  5
635
330
630
100
AcDbEntity
  8
Sichtbar (ISO)
100
AcDbVertex
100
AcDb2dVertex
 10
708.2300649433518
 20
1118.507226331639
 30
0.0
  0
VERTEX
  5
636
330
630
100
AcDbEntity
  8
Sichtbar (ISO)
100
AcDbVertex
100
AcDb2dVertex
 10
708.2286496530098
 20
1118.50563420915
 30
0.0
  0
VERTEX
  5
637
330
630
100
AcDbEntity
  8
Sichtbar (ISO)
100
AcDbVertex
100
AcDb2dVertex
 10
708.2271672767972
 20
1118.504005850292
 30
0.0
  0
VERTEX
  5
638
330
630
100
AcDbEntity
  8
Sichtbar (ISO)
100
AcDbVertex
100
AcDb2dVertex
 10
708.2256166776073
 20
1118.502344640504
 30
0.0
  0
VERTEX
  5
639
330
630
100
AcDbEntity
  8
Sichtbar (ISO)
100
AcDbVertex
100
AcDb2dVertex
 10
708.2239973106787
 20
1118.500653295495
 30
0.0
  0
VERTEX
  5
63A
330
630
100
AcDbEntity
  8
Sichtbar (ISO)
100
AcDbVertex
100
AcDb2dVertex
 10
708.2223159555451
 20
1118.498942313626
 30
0.0
  0
VERTEX
  5
63B
330
630
100
AcDbEntity
  8
Sichtbar (ISO)
100
AcDbVertex
100
AcDb2dVertex
 10
708.2205806426247
 20
1118.497223317145
 30
0.0
  0
VERTEX
  5
63C
330
630
100
AcDbEntity
  8
Sichtbar (ISO)
100
AcDbVertex
100
AcDb2dVertex
 10
708.2187911666315
 20
1118.495498525482
 30
0.0
  0
VERTEX
  5
63D
330
630
100
AcDbEntity
  8
Sichtbar (ISO)
100
AcDbVertex
100
AcDb2dVertex
 10
708.216947310156
 20
1118.493770147175
 30
0.0
  0
VERTEX
  5
63E
330
630
100
AcDbEntity
  8
Sichtbar (ISO)
100
AcDbVertex
100
AcDb2dVertex
 10
708.2150494713841
 20
1118.492040943859
 30
0.0
  0
VERTEX
  5
63F
330
630
100
AcDbEntity
  8
Sichtbar (ISO)
100
AcDbVertex
100
AcDb2dVertex
 10
708.2131327351161
 20
1118.490344041004
 30
0.0
  0
VERTEX
  5
640
330
630
100
AcDbEntity
  8
Sichtbar (ISO)
100
AcDbVertex
100
AcDb2dVertex
 10
708.2112192247225
 20
1118.488697312722
 30
0.0
  0
VERTEX
  5
641
330
630
100
AcDbEntity
  8
Sichtbar (ISO)
100
AcDbVertex
100
AcDb2dVertex
 10
708.2093106791988
 20
1118.487100718878
 30
0.0
  0
VERTEX
  5
642
330
630
100
AcDbEntity
  8
Sichtbar (ISO)
100
AcDbVertex
100
AcDb2dVertex
 10
708.2074092349296
 20
1118.485553775091
 30
0.0
  0
VERTEX
  5
643
330
630
100
AcDbEntity
  8
Sichtbar (ISO)
100
AcDbVertex
100
AcDb2dVertex
 10
708.2055230307457
 20
1118.484060588745
 30
0.0
  0
VERTEX
  5
644
330
630
100
AcDbEntity
  8
Sichtbar (ISO)
100
AcDbVertex
100
AcDb2dVertex
 10
708.2036728697898
 20
1118.482635443885
 30
0.0
  0
VERTEX
  5
645
330
630
100
AcDbEntity
  8
Sichtbar (ISO)
100
AcDbVertex
100
AcDb2dVertex
 10
708.2018636604502
 20
1118.481277942835
 30
0.0
  0
VERTEX
  5
646
330
630
100
AcDbEntity
  8
Sichtbar (ISO)
100
AcDbVertex
100
AcDb2dVertex
 10
708.2000986345906
 20
1118.479986982894
 30
0.0
  0
VERTEX
  5
647
330
630
100
AcDbEntity
  8
Sichtbar (ISO)
100
AcDbVertex
100
AcDb2dVertex
 10
708.1983767098181
 20
1118.478758787035
 30
0.0
  0
VERTEX
  5
648
330
630
100
AcDbEntity
  8
Sichtbar (ISO)
100
AcDbVertex
100
AcDb2dVertex
 10
708.1966978550367
 20
1118.477589721508
 30
0.0
  0
VERTEX
  5
649
330
630
100
AcDbEntity
  8
Sichtbar (ISO)
100
AcDbVertex
100
AcDb2dVertex
 10
708.1950645842095
 20
1118.476478839885
 30
0.0
  0
VERTEX
  5
64A
330
630
100
AcDbEntity
  8
Sichtbar (ISO)
100
AcDbVertex
100
AcDb2dVertex
 10
708.1934794156288
 20
1118.475425199627
 30
0.0
  0
SEQEND
  5
633
330
630
100
AcDbEntity
  8
Sichtbar (ISO)
  0
POLYLINE
  5
64B
330
37
100
AcDbEntity
  8
Sichtbar (ISO)
100
AcDb2dPolyline
 66
     1
 10
0.0
 20
0.0
 30
0.0
 70
   128
  0
VERTEX
  5
64C
330
64B
100
AcDbEntity
  8
Sichtbar (ISO)
100
AcDbVertex
100
AcDb2dVertex
 10
708.1086288535059
 20
1119.059363378729
 30
0.0
  0
VERTEX
  5
64D
330
64B
100
AcDbEntity
  8
Sichtbar (ISO)
100
AcDbVertex
100
AcDb2dVertex
 10
708.1140292605087
 20
1119.053254653858
 30
0.0
  0
VERTEX
  5
64F
330
64B
100
AcDbEntity
  8
Sichtbar (ISO)
100
AcDbVertex
100
AcDb2dVertex
 10
708.1205910740058
 20
1119.04572745789
 30
0.0
  0
VERTEX
  5
650
330
64B
100
AcDbEntity
  8
Sichtbar (ISO)
100
AcDbVertex
100
AcDb2dVertex
 10
708.1282186285854
 20
1119.036726286726
 30
0.0
  0
VERTEX
  5
651
330
64B
100
AcDbEntity
  8
Sichtbar (ISO)
100
AcDbVertex
100
AcDb2dVertex
 10
708.136816430305
 20
1119.026195389684
 30
0.0
  0
VERTEX
  5
652
330
64B
100
AcDbEntity
  8
Sichtbar (ISO)
100
AcDbVertex
100
AcDb2dVertex
 10
708.1462892398246
 20
1119.014078844187
 30
0.0
  0
VERTEX
  5
653
330
64B
100
AcDbEntity
  8
Sichtbar (ISO)
100
AcDbVertex
100
AcDb2dVertex
 10
708.1565415493461
 20
1119.000320887104
 30
0.0
  0
VERTEX
  5
654
330
64B
100
AcDbEntity
  8
Sichtbar (ISO)
100
AcDbVertex
100
AcDb2dVertex
 10
708.1674777211688
 20
1118.984866039234
 30
0.0
  0
VERTEX
  5
655
330
64B
100
AcDbEntity
  8
Sichtbar (ISO)
100
AcDbVertex
100
AcDb2dVertex
 10
708.1790024743857
 20
1118.967658340654
 30
0.0
  0
VERTEX
  5
656
330
64B
100
AcDbEntity
  8
Sichtbar (ISO)
100
AcDbVertex
100
AcDb2dVertex
 10
708.1910203289102
 20
1118.948642053131
 30
0.0
  0
VERTEX
  5
657
330
64B
100
AcDbEntity
  8
Sichtbar (ISO)
100
AcDbVertex
100
AcDb2dVertex
 10
708.2034005912864
 20
1118.927800714324
 30
0.0
  0
VERTEX
  5
658
330
64B
100
AcDbEntity
  8
Sichtbar (ISO)
100
AcDbVertex
100
AcDb2dVertex
 10
708.2155759880582
 20
1118.905638275819
 30
0.0
  0
VERTEX
  5
659
330
64B
100
AcDbEntity
  8
Sichtbar (ISO)
100
AcDbVertex
100
AcDb2dVertex
 10
708.2272490505718
 20
1118.882428741274
 30
0.0
  0
VERTEX
  5
65A
330
64B
100
AcDbEntity
  8
Sichtbar (ISO)
100
AcDbVertex
100
AcDb2dVertex
 10
708.2382535906804
 20
1118.858308054235
 30
0.0
  0
VERTEX
  5
65B
330
64B
100
AcDbEntity
  8
Sichtbar (ISO)
100
AcDbVertex
100
AcDb2dVertex
 10
708.2484234063825
 20
1118.833412145794
 30
0.0
  0
VERTEX
  5
65C
330
64B
100
AcDbEntity
  8
Sichtbar (ISO)
100
AcDbVertex
100
AcDb2dVertex
 10
708.2575922956764
 20
1118.807876947048
 30
0.0
  0
VERTEX
  5
65D
330
64B
100
AcDbEntity
  8
Sichtbar (ISO)
100
AcDbVertex
100
AcDb2dVertex
 10
708.2655942695961
 20
1118.781838179854
 30
0.0
  0
VERTEX
  5
65E
330
64B
100
AcDbEntity
  8
Sichtbar (ISO)
100
AcDbVertex
100
AcDb2dVertex
 10
708.27226312614
 20
1118.755431775306
 30
0.0
  0
VERTEX
  5
65F
330
64B
100
AcDbEntity
  8
Sichtbar (ISO)
100
AcDbVertex
100
AcDb2dVertex
 10
708.2774326633065
 20
1118.7287936645
 30
0.0
  0
VERTEX
  5
660
330
64B
100
AcDbEntity
  8
Sichtbar (ISO)
100
AcDbVertex
100
AcDb2dVertex
 10
708.2809368921295
 20
1118.702059569292
 30
0.0
  0
VERTEX
  5
661
330
64B
100
AcDbEntity
  8
Sichtbar (ISO)
100
AcDbVertex
100
AcDb2dVertex
 10
708.2826100835903
 20
1118.675358233474
 30
0.0
  0
VERTEX
  5
662
330
64B
100
AcDbEntity
  8
Sichtbar (ISO)
100
AcDbVertex
100
AcDb2dVertex
 10
708.2820811680626
 20
1118.644430732384
 30
0.0
  0
VERTEX
  5
663
330
64B
100
AcDbEntity
  8
Sichtbar (ISO)
100
AcDbVertex
100
AcDb2dVertex
 10
708.2773040153074
 20
1118.607357333885
 30
0.0
  0
VERTEX
  5
664
330
64B
100
AcDbEntity
  8
Sichtbar (ISO)
100
AcDbVertex
100
AcDb2dVertex
 10
708.2655170753252
 20
1118.566420126089
 30
0.0
  0
VERTEX
  5
665
330
64B
100
AcDbEntity
  8
Sichtbar (ISO)
100
AcDbVertex
100
AcDb2dVertex
 10
708.2339155315978
 20
1118.511756121601
 30
0.0
  0
SEQEND
  5
64E
330
64B
100
AcDbEntity
  8
Sichtbar (ISO)
  0
ARC
  5
666
330
37
100
AcDbEntity
  8
Sichtbar (ISO)
100
AcDbCircle
 10
711.2211663393439
 20
1115.146294386299
 30
0.0
 40
5.000000000000098
100
AcDbArc
 50
128.4994787745597
 51
135.3784544809948
  0
ARC
  5
667
330
37
100
AcDbEntity
  8
Sichtbar (ISO)
100
AcDbCircle
 10
711.2211663393439
 20
1115.146294386299
 30
0.0
 40
4.99999999999998
100
AcDbArc
 50
135.3784544809963
 51
158.4994787745609
  0
ARC
  5
668
330
37
100
AcDbEntity
  8
Sichtbar (ISO)
100
AcDbCircle
 10
711.2211663393439
 20
1115.146294386299
 30
0.0
 40
4.999999999999971
100
AcDbArc
 50
165.3784544809953
 51
188.4994787745606
  0
ARC
  5
669
330
37
100
AcDbEntity
  8
Sichtbar (ISO)
100
AcDbCircle
 10
711.2211663393439
 20
1115.146294386299
 30
0.0
 40
4.999999999999981
100
AcDbArc
 50
195.3784544809944
 51
218.4994787745601
  0
ARC
  5
66A
330
37
100
AcDbEntity
  8
Sichtbar (ISO)
100
AcDbCircle
 10
711.2211663393439
 20
1115.146294386299
 30
0.0
 40
4.999999999999987
100
AcDbArc
 50
225.3784544809949
 51
248.4994787745604
  0
ARC
  5
66B
330
37
100
AcDbEntity
  8
Sichtbar (ISO)
100
AcDbCircle
 10
711.2211663393439
 20
1115.146294386299
 30
0.0
 40
4.999999999999971
100
AcDbArc
 50
255.3784544809956
 51
278.4994787745608
  0
ARC
  5
66C
330
37
100
AcDbEntity
  8
Sichtbar (ISO)
100
AcDbCircle
 10
711.2211663393439
 20
1115.146294386299
 30
0.0
 40
5.000000000000003
100
AcDbArc
 50
285.3784544809954
 51
308.4994787745602
  0
ARC
  5
66D
330
37
100
AcDbEntity
  8
Sichtbar (ISO)
100
AcDbCircle
 10
711.2211663393439
 20
1115.146294386299
 30
0.0
 40
4.999999999999984
100
AcDbArc
 50
315.3784544809963
 51
338.499478774561
  0
ARC
  5
66E
330
37
100
AcDbEntity
  8
Sichtbar (ISO)
100
AcDbCircle
 10
711.2211663393439
 20
1115.146294386299
 30
0.0
 40
4.999999999999968
100
AcDbArc
 50
345.3784544809953
 51
8.499478774560602
  0
ARC
  5
66F
330
37
100
AcDbEntity
  8
Sichtbar (ISO)
100
AcDbCircle
 10
711.2211663393439
 20
1115.146294386299
 30
0.0
 40
4.999999999999999
100
AcDbArc
 50
15.37845448099415
 51
38.49947877456016
  0
ARC
  5
670
330
37
100
AcDbEntity
  8
Sichtbar (ISO)
100
AcDbCircle
 10
711.2211663393439
 20
1115.146294386299
 30
0.0
 40
4.999999999999995
100
AcDbArc
 50
45.37845448099488
 51
68.49947877456036
  0
ARC
  5
671
330
37
100
AcDbEntity
  8
Sichtbar (ISO)
100
AcDbCircle
 10
711.2211663393439
 20
1115.146294386299
 30
0.0
 40
4.999999999999968
100
AcDbArc
 50
75.37845448099556
 51
98.49947877456081
  0
CIRCLE
  5
672
330
37
100
AcDbEntity
  8
Sichtbar (ISO)
100
AcDbCircle
 10
711.2211663393418
 20
1115.146294386299
 30
0.0
 40
1.950991055577672
  0
CIRCLE
  5
673
330
37
100
AcDbEntity
  8
Sichtbar (ISO)
100
AcDbCircle
 10
711.2211663393416
 20
1115.146294386299
 30
0.0
 40
2.950991055577669
  0
ARC
  5
674
330
37
100
AcDbEntity
  8
Sichtbar (ISO)
100
AcDbCircle
 10
711.2211663393439
 20
1115.146294386299
 30
0.0
 40
4.999999999999974
100
AcDbArc
 50
105.3784544809954
 51
128.4994787745602
  0
CIRCLE
  5
675
330
37
100
AcDbEntity
  8
Sichtbar (ISO)
100
AcDbCircle
 10
711.2211663393439
 20
1115.146294386299
 30
0.0
 40
5.423717232582446
  0
LINE
  5
676
330
37
100
AcDbEntity
  8
Sichtbar (ISO)
100
AcDbLine
 10
721.7186663393756
 20
967.7177977587666
 30
0.0
 11
700.7236663393757
 21
967.7177977587666
 31
0.0
  0
LINE
  5
677
330
37
100
AcDbEntity
  8
Sichtbar (ISO)
100
AcDbLine
 10
698.587759934191
 20
968.8604127053267
 30
0.0
 11
723.8545727445603
 21
968.8604127053267
 31
0.0
  0
ARC
  5
678
330
37
100
AcDbEntity
  8
Sichtbar (ISO)
100
AcDbCircle
 10
701.4539468265739
 20
971.6505690984224
 30
0.0
 40
3.999999999999986
100
AcDbArc
 50
224.229897448835
 51
259.4805019419992
  0
ARC
  5
679
330
37
100
AcDbEntity
  8
Sichtbar (ISO)
100
AcDbCircle
 10
720.9883858521775
 20
971.6505690984224
 30
0.0
 40
3.999999999999986
100
AcDbArc
 50
280.5194980580012
 51
315.7701025511659
  0
LINE
  5
67A
330
37
100
AcDbEntity
  8
Sichtbar (ISO)
100
AcDbLine
 10
698.587759934191
 20
968.8604127053267
 30
0.0
 11
697.4539468265738
 21
971.6505690984224
 31
0.0
  0
LINE
  5
67B
330
37
100
AcDbEntity
  8
Sichtbar (ISO)
100
AcDbLine
 10
723.8545727445603
 20
968.8604127053267
 30
0.0
 11
724.9883858521775
 21
971.6505690984224
 31
0.0
  0
CIRCLE
  5
67C
330
37
100
AcDbEntity
  8
Sichtbar (ISO)
100
AcDbCircle
 10
711.2211663393654
 20
1115.146294386302
 30
0.0
 40
141.0857591727806
  0
CIRCLE
  5
67D
330
37
100
AcDbEntity
  8
Sichtbar (ISO)
100
AcDbCircle
 10
711.2211663393646
 20
1115.146294386302
 30
0.0
 40
139.0604430973848
  0
LINE
  5
67E
330
37
100
AcDbEntity
  8
Sichtbar (ISO)
100
AcDbLine
 10
237.9622118346791
 20
389.2000809996017
 30
0.0
 11
237.9622118346791
 21
671.4000809996015
 31
0.0
  0
LINE
  5
67F
330
37
100
AcDbEntity
  8
Sichtbar (ISO)
100
AcDbLine
 10
245.9622118346791
 20
389.2000809996017
 30
0.0
 11
245.9622118346791
 21
671.4000809996015
 31
0.0
  0
ARC
  5
680
330
37
100
AcDbEntity
  8
Sichtbar (ISO)
100
AcDbCircle
 10
271.1527782728288
 20
444.7676116731374
 30
0.0
 40
52.0
100
AcDbArc
 50
280.2502810492261
 51
346.9101954600414
  0
ARC
  5
681
330
37
100
AcDbEntity
  8
Sichtbar (ISO)
100
AcDbCircle
 10
271.1527782728288
 20
615.8325503260657
 30
0.0
 40
52.0
100
AcDbArc
 50
13.08980453995852
 51
79.74971895077377
  0
ARC
  5
682
330
37
100
AcDbEntity
  8
Sichtbar (ISO)
100
AcDbCircle
 10
-322.895897334968
 20
530.3000809996015
 30
0.0
 40
652.0000000000021
100
AcDbArc
 50
351.4166834032869
 51
354.9295070209516
  0
ARC
  5
683
330
37
100
AcDbEntity
  8
Sichtbar (ISO)
100
AcDbCircle
 10
-322.895897334968
 20
530.3000809996015
 30
0.0
 40
652.000000000002
100
AcDbArc
 50
5.070492979048398
 51
8.583316596713023
  0
ARC
  5
684
330
37
100
AcDbEntity
  8
Sichtbar (ISO)
100
AcDbCircle
 10
298.6622118346848
 20
475.1501315394823
 30
0.0
 40
27.99999999999391
100
AcDbArc
 50
354.9295070209518
 51
0.0
  0
ARC
  5
685
330
37
100
AcDbEntity
  8
Sichtbar (ISO)
100
AcDbCircle
 10
298.6622118346848
 20
585.4500304597208
 30
0.0
 40
27.99999999999391
100
AcDbArc
 50
0.0
 51
5.070492979048183
  0
LINE
  5
686
330
37
100
AcDbEntity
  8
Sichtbar (ISO)
100
AcDbLine
 10
326.662211834679
 20
545.3000809996173
 30
0.0
 11
326.6622118346787
 21
585.4500304597208
 31
0.0
  0
LINE
  5
687
330
37
100
AcDbEntity
  8
Sichtbar (ISO)
100
AcDbLine
 10
326.662211834679
 20
527.6148902940683
 30
0.0
 11
326.662211834679
 21
532.9852717051675
 31
0.0
  0
LINE
  5
688
330
37
100
AcDbEntity
  8
Sichtbar (ISO)
100
AcDbLine
 10
326.6622118346787
 20
475.1501315394823
 30
0.0
 11
326.662211834679
 21
515.3000809996174
 31
0.0
  0
LINE
  5
689
330
37
100
AcDbEntity
  8
Sichtbar (ISO)
100
AcDbLine
 10
237.9622118346791
 20
671.4000809996015
 30
0.0
 11
245.9622118346791
 21
671.4000809996015
 31
0.0
  0
LINE
  5
68A
330
37
100
AcDbEntity
  8
Sichtbar (ISO)
100
AcDbLine
 10
237.9622118346791
 20
389.2000809996017
 30
0.0
 11
245.9622118346791
 21
389.2000809996017
 31
0.0
  0
ARC
  5
68B
330
37
100
AcDbEntity
  8
Sichtbar (ISO)
100
AcDbCircle
 10
240.9622118346779
 20
355.4898924406061
 30
0.0
 40
314.0000000000001
100
AcDbArc
 50
82.78358541199564
 51
89.08760826259737
  0
ARC
  5
68C
330
37
100
AcDbEntity
  8
Sichtbar (ISO)
100
AcDbCircle
 10
240.9622118346779
 20
705.1102695585971
 30
0.0
 40
314.0000000000001
100
AcDbArc
 50
270.9123917374026
 51
277.2164145880044
  0
ARC
  5
68D
330
37
100
AcDbEntity
  8
Sichtbar (ISO)
100
AcDbCircle
 10
186.2622118346812
 20
475.3000809996039
 30
0.0
 40
28.00000000000002
100
AcDbArc
 50
180.0
 51
185.0566706522027
  0
ARC
  5
68E
330
37
100
AcDbEntity
  8
Sichtbar (ISO)
100
AcDbCircle
 10
186.2622118346812
 20
585.300080999599
 30
0.0
 40
28.00000000000001
100
AcDbArc
 50
174.9433293477973
 51
180.0
  0
LINE
  5
68F
330
37
100
AcDbEntity
  8
Sichtbar (ISO)
100
AcDbLine
 10
158.2622118346812
 20
585.300080999599
 30
0.0
 11
158.2622118346812
 21
475.3000809996039
 31
0.0
  0
ARC
  5
690
330
37
100
AcDbEntity
  8
Sichtbar (ISO)
100
AcDbCircle
 10
807.8336075729346
 20
530.3000809995916
 30
0.0
 40
652.0000000000123
100
AcDbArc
 50
185.0566706522029
 51
188.2136037843024
  0
ARC
  5
691
330
37
100
AcDbEntity
  8
Sichtbar (ISO)
100
AcDbCircle
 10
807.8336075729346
 20
530.3000809995916
 30
0.0
 40
652.0000000000123
100
AcDbArc
 50
171.7863962156958
 51
174.9433293477954
  0
ARC
  5
692
330
37
100
AcDbEntity
  8
Sichtbar (ISO)
100
AcDbCircle
 10
213.9882044705794
 20
444.5817211564363
 30
0.0
 40
51.99999999999997
100
AcDbArc
 50
188.2136037843022
 51
264.1356115648921
  0
ARC
  5
693
330
37
100
AcDbEntity
  8
Sichtbar (ISO)
100
AcDbCircle
 10
213.9882044705794
 20
616.0184408427667
 30
0.0
 40
51.99999999999997
100
AcDbArc
 50
95.86438843510791
 51
171.7863962156977
  0
ARC
  5
694
330
37
100
AcDbEntity
  8
Sichtbar (ISO)
100
AcDbCircle
 10
240.9622118348033
 20
353.4000809996005
 30
0.0
 40
315.9999999999998
100
AcDbArc
 50
90.90658756635349
 51
95.86438843510787
  0
ARC
  5
695
330
37
100
AcDbEntity
  8
Sichtbar (ISO)
100
AcDbCircle
 10
240.9622118348033
 20
707.2000809996024
 30
0.0
 40
315.9999999999998
100
AcDbArc
 50
264.1356115648921
 51
269.0934124336465
  0
ELLIPSE
  5
696
330
37
100
AcDbEntity
  8
Sichtbar (ISO)
100
AcDbEllipse
 10
330.2200423913132
 20
530.3000809996382
 30
0.0
 11
0.0000000000000002
 21
-3.500000000000001
 31
0.0
210
0.0
220
0.0
230
1.0
 40
0.0958457525202248
 41
3.141592653654104
 42
6.283185307243898
  0
LINE
  5
697
330
37
100
AcDbEntity
  8
Sichtbar (ISO)
100
AcDbLine
 10
330.8072512497167
 20
526.8000809996364
 30
0.0
 11
330.2200423913132
 21
526.8000809996382
 31
0.0
  0
ELLIPSE
  5
698
330
37
100
AcDbEntity
  8
Sichtbar (ISO)
100
AcDbEllipse
 10
328.0306983979136
 20
530.3000809996349
 30
0.0
 11
-0.0000000000000008
 21
6.000000000000002
 31
0.0
210
0.0
220
0.0
230
1.0
 40
0.7393908304049402
 41
0.2431768919987363
 42
2.898415761590641
  0
ELLIPSE
  5
699
330
37
100
AcDbEntity
  8
Sichtbar (ISO)
100
AcDbEllipse
 10
331.2743456690358
 20
530.3000809996356
 30
0.0
 11
-0.0000000000001123
 21
6.000000000000945
 31
0.0
210
0.0
220
0.0
230
1.0
 40
0.0958457525202248
 41
2.193622912215491
 42
2.315492808035465
  0
POLYLINE
  5
69A
330
37
100
AcDbEntity
  8
Sichtbar (ISO)
100
AcDb2dPolyline
 66
     1
 10
0.0
 20
0.0
 30
0.0
 70
   128
  0
VERTEX
  5
69B
330
69A
100
AcDbEntity
  8
Sichtbar (ISO)
100
AcDbVertex
100
AcDb2dVertex
 10
330.8973764812474
 20
525.3939678519004
 30
0.0
  0
VERTEX
  5
69C
330
69A
100
AcDbEntity
  8
Sichtbar (ISO)
100
AcDbVertex
100
AcDb2dVertex
 10
330.8972635773591
 20
525.4252614825004
 30
0.0
  0
VERTEX
  5
69E
330
69A
100
AcDbEntity
  8
Sichtbar (ISO)
100
AcDbVertex
100
AcDb2dVertex
 10
330.8969607374474
 20
525.4569306223625
 30
0.0
  0
VERTEX
  5
69F
330
69A
100
AcDbEntity
  8
Sichtbar (ISO)
100
AcDbVertex
100
AcDb2dVertex
 10
330.8964727552098
 20
525.4889681189292
 30
0.0
  0
VERTEX
  5
6A0
330
69A
100
AcDbEntity
  8
Sichtbar (ISO)
100
AcDbVertex
100
AcDb2dVertex
 10
330.895804200465
 20
525.5213668196433
 30
0.0
  0
VERTEX
  5
6A1
330
69A
100
AcDbEntity
  8
Sichtbar (ISO)
100
AcDbVertex
100
AcDb2dVertex
 10
330.8949594191528
 20
525.5541183798546
 30
0.0
  0
VERTEX
  5
6A2
330
69A
100
AcDbEntity
  8
Sichtbar (ISO)
100
AcDbVertex
100
AcDb2dVertex
 10
330.8939432049707
 20
525.5872168390983
 30
0.0
  0
VERTEX
  5
6A3
330
69A
100
AcDbEntity
  8
Sichtbar (ISO)
100
AcDbVertex
100
AcDb2dVertex
 10
330.8927599038586
 20
525.6206526606315
 30
0.0
  0
VERTEX
  5
6A4
330
69A
100
AcDbEntity
  8
Sichtbar (ISO)
100
AcDbVertex
100
AcDb2dVertex
 10
330.8914140833176
 20
525.6544198839897
 30
0.0
  0
VERTEX
  5
6A5
330
69A
100
AcDbEntity
  8
Sichtbar (ISO)
100
AcDbVertex
100
AcDb2dVertex
 10
330.889910315484
 20
525.6885113566155
 30
0.0
  0
VERTEX
  5
6A6
330
69A
100
AcDbEntity
  8
Sichtbar (ISO)
100
AcDbVertex
100
AcDb2dVertex
 10
330.8882531690175
 20
525.7229175417656
 30
0.0
  0
VERTEX
  5
6A7
330
69A
100
AcDbEntity
  8
Sichtbar (ISO)
100
AcDbVertex
100
AcDb2dVertex
 10
330.8864472160545
 20
525.7576324789758
 30
0.0
  0
VERTEX
  5
6A8
330
69A
100
AcDbEntity
  8
Sichtbar (ISO)
100
AcDbVertex
100
AcDb2dVertex
 10
330.8844970252549
 20
525.7926490156884
 30
0.0
  0
VERTEX
  5
6A9
330
69A
100
AcDbEntity
  8
Sichtbar (ISO)
100
AcDbVertex
100
AcDb2dVertex
 10
330.8824071675961
 20
525.8279588072533
 30
0.0
  0
VERTEX
  5
6AA
330
69A
100
AcDbEntity
  8
Sichtbar (ISO)
100
AcDbVertex
100
AcDb2dVertex
 10
330.8801819849623
 20
525.8635535090203
 30
0.0
  0
VERTEX
  5
6AB
330
69A
100
AcDbEntity
  8
Sichtbar (ISO)
100
AcDbVertex
100
AcDb2dVertex
 10
330.8778262762654
 20
525.8994283526178
 30
0.0
  0
VERTEX
  5
6AC
330
69A
100
AcDbEntity
  8
Sichtbar (ISO)
100
AcDbVertex
100
AcDb2dVertex
 10
330.8753446113243
 20
525.9355726092096
 30
0.0
  0
VERTEX
  5
6AD
330
69A
100
AcDbEntity
  8
Sichtbar (ISO)
100
AcDbVertex
100
AcDb2dVertex
 10
330.8727411037985
 20
525.9719815104242
 30
0.0
  0
VERTEX
  5
6AE
330
69A
100
AcDbEntity
  8
Sichtbar (ISO)
100
AcDbVertex
100
AcDb2dVertex
 10
330.8700207811142
 20
526.0086455195184
 30
0.0
  0
VERTEX
  5
6AF
330
69A
100
AcDbEntity
  8
Sichtbar (ISO)
100
AcDbVertex
100
AcDb2dVertex
 10
330.8671879847211
 20
526.0455586760278
 30
0.0
  0
VERTEX
  5
6B0
330
69A
100
AcDbEntity
  8
Sichtbar (ISO)
100
AcDbVertex
100
AcDb2dVertex
 10
330.8642475136759
 20
526.0827126353022
 30
0.0
  0
VERTEX
  5
6B1
330
69A
100
AcDbEntity
  8
Sichtbar (ISO)
100
AcDbVertex
100
AcDb2dVertex
 10
330.8612034811314
 20
526.1201002447839
 30
0.0
  0
VERTEX
  5
6B2
330
69A
100
AcDbEntity
  8
Sichtbar (ISO)
100
AcDbVertex
100
AcDb2dVertex
 10
330.8580606859455
 20
526.157714351916
 30
0.0
  0
VERTEX
  5
6B3
330
69A
100
AcDbEntity
  8
Sichtbar (ISO)
100
AcDbVertex
100
AcDb2dVertex
 10
330.8548236984165
 20
526.1955454199549
 30
0.0
  0
VERTEX
  5
6B4
330
69A
100
AcDbEntity
  8
Sichtbar (ISO)
100
AcDbVertex
100
AcDb2dVertex
 10
330.8514970888432
 20
526.2335886805292
 30
0.0
  0
SEQEND
  5
69D
330
69A
100
AcDbEntity
  8
Sichtbar (ISO)
  0
ELLIPSE
  5
6B5
330
37
100
AcDbEntity
  8
Sichtbar (ISO)
100
AcDbEllipse
 10
330.6294933041579
 20
530.300080999635
 30
0.0
 11
0.0000000000000004
 21
-6.0
 31
0.0
210
0.0
220
0.0
230
1.0
 40
0.7393908304049397
 41
4.12194441669863
 42
5.302833544071473
  0
POLYLINE
  5
6B6
330
37
100
AcDbEntity
  8
Sichtbar (ISO)
100
AcDb2dPolyline
 66
     1
 10
0.0
 20
0.0
 30
0.0
 70
   128
  0
VERTEX
  5
6B7
330
6B6
100
AcDbEntity
  8
Sichtbar (ISO)
100
AcDbVertex
100
AcDb2dVertex
 10
330.8514970888432
 20
534.3665733187433
 30
0.0
  0
VERTEX
  5
6B8
330
6B6
100
AcDbEntity
  8
Sichtbar (ISO)
100
AcDbVertex
100
AcDb2dVertex
 10
330.8548236984165
 20
534.4046165793177
 30
0.0
  0
VERTEX
  5
6BA
330
6B6
100
AcDbEntity
  8
Sichtbar (ISO)
100
AcDbVertex
100
AcDb2dVertex
 10
330.8580606859455
 20
534.4424476473566
 30
0.0
  0
VERTEX
  5
6BB
330
6B6
100
AcDbEntity
  8
Sichtbar (ISO)
100
AcDbVertex
100
AcDb2dVertex
 10
330.8612034811314
 20
534.4800617544885
 30
0.0
  0
VERTEX
  5
6BC
330
6B6
100
AcDbEntity
  8
Sichtbar (ISO)
100
AcDbVertex
100
AcDb2dVertex
 10
330.8642475136759
 20
534.5174493639704
 30
0.0
  0
VERTEX
  5
6BD
330
6B6
100
AcDbEntity
  8
Sichtbar (ISO)
100
AcDbVertex
100
AcDb2dVertex
 10
330.8671879847211
 20
534.5546033232446
 30
0.0
  0
VERTEX
  5
6BE
330
6B6
100
AcDbEntity
  8
Sichtbar (ISO)
100
AcDbVertex
100
AcDb2dVertex
 10
330.8700207811142
 20
534.591516479754
 30
0.0
  0
VERTEX
  5
6BF
330
6B6
100
AcDbEntity
  8
Sichtbar (ISO)
100
AcDbVertex
100
AcDb2dVertex
 10
330.8727411037985
 20
534.6281804888482
 30
0.0
  0
VERTEX
  5
6C0
330
6B6
100
AcDbEntity
  8
Sichtbar (ISO)
100
AcDbVertex
100
AcDb2dVertex
 10
330.8753446113243
 20
534.6645893900629
 30
0.0
  0
VERTEX
  5
6C1
330
6B6
100
AcDbEntity
  8
Sichtbar (ISO)
100
AcDbVertex
100
AcDb2dVertex
 10
330.8778262762654
 20
534.7007336466547
 30
0.0
  0
VERTEX
  5
6C2
330
6B6
100
AcDbEntity
  8
Sichtbar (ISO)
100
AcDbVertex
100
AcDb2dVertex
 10
330.8801819849623
 20
534.736608490252
 30
0.0
  0
VERTEX
  5
6C3
330
6B6
100
AcDbEntity
  8
Sichtbar (ISO)
100
AcDbVertex
100
AcDb2dVertex
 10
330.8824071675961
 20
534.772203192019
 30
0.0
  0
VERTEX
  5
6C4
330
6B6
100
AcDbEntity
  8
Sichtbar (ISO)
100
AcDbVertex
100
AcDb2dVertex
 10
330.8844970252549
 20
534.8075129835839
 30
0.0
  0
VERTEX
  5
6C5
330
6B6
100
AcDbEntity
  8
Sichtbar (ISO)
100
AcDbVertex
100
AcDb2dVertex
 10
330.8864472160545
 20
534.8425295202965
 30
0.0
  0
VERTEX
  5
6C6
330
6B6
100
AcDbEntity
  8
Sichtbar (ISO)
100
AcDbVertex
100
AcDb2dVertex
 10
330.8882531690175
 20
534.8772444575066
 30
0.0
  0
VERTEX
  5
6C7
330
6B6
100
AcDbEntity
  8
Sichtbar (ISO)
100
AcDbVertex
100
AcDb2dVertex
 10
330.889910315484
 20
534.9116506426567
 30
0.0
  0
VERTEX
  5
6C8
330
6B6
100
AcDbEntity
  8
Sichtbar (ISO)
100
AcDbVertex
100
AcDb2dVertex
 10
330.8914140833176
 20
534.9457421152824
 30
0.0
  0
VERTEX
  5
6C9
330
6B6
100
AcDbEntity
  8
Sichtbar (ISO)
100
AcDbVertex
100
AcDb2dVertex
 10
330.8927599038586
 20
534.9795093386407
 30
0.0
  0
VERTEX
  5
6CA
330
6B6
100
AcDbEntity
  8
Sichtbar (ISO)
100
AcDbVertex
100
AcDb2dVertex
 10
330.8939432049707
 20
535.0129451601738
 30
0.0
  0
VERTEX
  5
6CB
330
6B6
100
AcDbEntity
  8
Sichtbar (ISO)
100
AcDbVertex
100
AcDb2dVertex
 10
330.8949594191528
 20
535.0460436194175
 30
0.0
  0
VERTEX
  5
6CC
330
6B6
100
AcDbEntity
  8
Sichtbar (ISO)
100
AcDbVertex
100
AcDb2dVertex
 10
330.895804200465
 20
535.0787951796287
 30
0.0
  0
VERTEX
  5
6CD
330
6B6
100
AcDbEntity
  8
Sichtbar (ISO)
100
AcDbVertex
100
AcDb2dVertex
 10
330.8964727552098
 20
535.1111938803428
 30
0.0
  0
VERTEX
  5
6CE
330
6B6
100
AcDbEntity
  8
Sichtbar (ISO)
100
AcDbVertex
100
AcDb2dVertex
 10
330.8969607374474
 20
535.1432313769096
 30
0.0
  0
VERTEX
  5
6CF
330
6B6
100
AcDbEntity
  8
Sichtbar (ISO)
100
AcDbVertex
100
AcDb2dVertex
 10
330.8972635773591
 20
535.1749005167716
 30
0.0
  0
VERTEX
  5
6D0
330
6B6
100
AcDbEntity
  8
Sichtbar (ISO)
100
AcDbVertex
100
AcDb2dVertex
 10
330.8973764812474
 20
535.2061941473715
 30
0.0
  0
SEQEND
  5
6B9
330
6B6
100
AcDbEntity
  8
Sichtbar (ISO)
  0
ELLIPSE
  5
6D1
330
37
100
AcDbEntity
  8
Sichtbar (ISO)
100
AcDbEllipse
 10
331.2743456690358
 20
530.3000809996343
 30
0.0
 11
-0.0000000000001719
 21
6.000000000000952
 31
0.0
210
0.0
220
0.0
230
1.0
 40
0.0958457525202248
 41
0.8260998455639807
 42
0.9479697413825824
  0
LINE
  5
6D2
330
37
100
AcDbEntity
  8
Sichtbar (ISO)
100
AcDbLine
 10
330.2200423913133
 20
533.8000809996383
 30
0.0
 11
330.8072512497167
 21
533.8000809996364
 31
0.0
  0
ELLIPSE
  5
6D3
330
37
100
AcDbEntity
  8
Sichtbar (ISO)
100
AcDbEllipse
 10
332.6860774867693
 20
530.3000809996245
 30
0.0
 11
-0.0000000000017195
 21
59.99999999999983
 31
0.0
210
0.0
220
0.0
230
1.0
 40
0.0958457525202249
 41
1.318116071652522
 42
1.823476581936681
  0
LINE
  5
6D4
330
37
100
AcDbEntity
  8
Sichtbar (ISO)
100
AcDbLine
 10
329.1087348337704
 20
515.3000809996417
 30
0.0
 11
327.1179424370361
 21
515.3000809996416
 31
0.0
  0
ELLIPSE
  5
6D5
330
37
100
AcDbEntity
  8
Sichtbar (ISO)
100
AcDbEllipse
 10
334.6768698835037
 20
530.3000809996245
 30
0.0
 11
0.0000000000017167
 21
-60.00000000000002
 31
0.0
210
0.0
220
0.0
230
1.0
 40
0.0958457525202248
 41
4.459708725242314
 42
4.965069235526471
  0
LINE
  5
6D6
330
37
100
AcDbEntity
  8
Sichtbar (ISO)
100
AcDbLine
 10
327.1179424370361
 20
545.3000809996416
 30
0.0
 11
329.1087348337705
 21
545.3000809996416
 31
0.0
  0
LINE
  5
6D7
330
37
100
AcDbEntity
  8
Sichtbar (ISO)
100
AcDbLine
 10
327.0782345360873
 20
515.3000809996345
 30
0.0
 11
327.1179424370361
 21
515.3000809996345
 31
0.0
  0
LINE
  5
6D8
330
37
100
AcDbEntity
  8
Sichtbar (ISO)
100
AcDbLine
 10
327.1179424370361
 20
545.3000809996344
 30
0.0
 11
327.0782345360873
 21
545.3000809996344
 31
0.0
  0
LINE
  5
6D9
330
37
100
AcDbEntity
  8
Sichtbar (ISO)
100
AcDbLine
 10
330.8975350485979
 20
515.3000809996361
 30
0.0
 11
330.8514970322697
 21
515.3000809996362
 31
0.0
  0
LINE
  5
6DA
330
37
100
AcDbEntity
  8
Sichtbar (ISO)
100
AcDbLine
 10
330.8514970322697
 20
545.3000809996362
 30
0.0
 11
330.8975350485979
 21
545.300080999636
 31
0.0
  0
LINE
  5
6DB
330
37
100
AcDbEntity
  8
Sichtbar (ISO)
100
AcDbLine
 10
330.897535048598
 20
515.3000809996361
 30
0.0
 11
330.897535048598
 21
525.3934845139162
 31
0.0
  0
LINE
  5
6DC
330
37
100
AcDbEntity
  8
Sichtbar (ISO)
100
AcDbLine
 10
330.897535048598
 20
535.2066774853559
 30
0.0
 11
330.897535048598
 21
545.300080999636
 31
0.0
  0
LINE
  5
6DD
330
37
100
AcDbEntity
  8
Sichtbar (ISO)
100
AcDbLine
 10
321.2990970943203
 20
545.3000809996315
 30
0.0
 11
322.1784661512101
 21
545.3000809996323
 31
0.0
  0
LINE
  5
6DE
330
37
100
AcDbEntity
  8
Sichtbar (ISO)
100
AcDbLine
 10
322.1784661512101
 20
515.3000809996324
 30
0.0
 11
321.2990970943203
 21
515.3000809996316
 31
0.0
  0
LINE
  5
6DF
330
37
100
AcDbEntity
  8
Sichtbar (ISO)
100
AcDbLine
 10
321.2990970943203
 20
515.3000809996316
 30
0.0
 11
321.2990970943203
 21
545.3000809996315
 31
0.0
  0
LINE
  5
6E0
330
37
100
AcDbEntity
  8
Sichtbar (ISO)
100
AcDbLine
 10
327.0782345360873
 20
545.3000809996344
 30
0.0
 11
322.1784661512101
 21
545.3000809996323
 31
0.0
  0
LINE
  5
6E1
330
37
100
AcDbEntity
  8
Sichtbar (ISO)
100
AcDbLine
 10
322.1784661512101
 20
515.3000809996324
 30
0.0
 11
327.0782345360873
 21
515.3000809996345
 31
0.0
  0
LINE
  5
6E2
330
37
100
AcDbEntity
  8
Sichtbar (ISO)
100
AcDbLine
 10
329.1087348337704
 20
515.3000809996417
 30
0.0
 11
330.8514970322698
 21
515.3000809996362
 31
0.0
  0
LINE
  5
6E3
330
37
100
AcDbEntity
  8
Sichtbar (ISO)
100
AcDbLine
 10
330.8514970322697
 20
545.3000809996362
 30
0.0
 11
329.1087348337704
 21
545.3000809996416
 31
0.0
  0
LINE
  5
6E4
330
37
100
AcDbEntity
  8
Sichtbar (ISO)
100
AcDbLine
 10
235.9623720670152
 20
669.3605240969863
 30
0.0
 11
235.9623720670152
 21
391.2396379022169
 31
0.0
  0
LINE
  5
6E5
330
37
100
AcDbEntity
  8
Sichtbar (ISO)
100
AcDbLine
 10
235.9623720670152
 20
669.3605240969864
 30
0.0
 11
237.9622118346788
 21
671.3858401723822
 31
0.0
  0
LINE
  5
6E6
330
37
100
AcDbEntity
  8
Sichtbar (ISO)
100
AcDbLine
 10
235.9623720670152
 20
391.2396379022169
 30
0.0
 11
237.9622118346788
 21
389.214321826821
 31
0.0
  0
INSERT
  5
6E7
330
37
100
AcDbEntity
  8
0
100
AcDbBlockReference
  2
P gross
 10
711.5837846134409
 20
1012.22016124781
 30
0.0
 41
1.5
 42
1.5
 43
1.5
  0
INSERT
  5
6E8
330
37
100
AcDbEntity
  8
0
100
AcDbBlockReference
  2
P gross
 10
211.618575479452
 20
529.7452752565018
 30
0.0
 41
1.5
 42
1.5
 43
1.5
  0
INSERT
  5
6E9
330
37
100
AcDbEntity
  8
0
100
AcDbBlockReference
  2
P gross
 10
211.5830548862994
 20
1115.236063320371
 30
0.0
 41
1.5
 42
1.5
 43
1.5
  0
ENDSEC
  0
SECTION
  2
OBJECTS
  0
DICTIONARY
  5
C
330
0
100
AcDbDictionary
281
     1
  3
ACAD_COLOR
350
30
  3
ACAD_GROUP
350
D
  3
ACAD_LAYOUT
350
2F
  3
ACAD_MATERIAL
350
10
  3
ACAD_MLINESTYLE
350
2C
  3
ACAD_PLOTSETTINGS
350
2E
  3
ACAD_PLOTSTYLENAME
350
E
  3
ACAD_TABLESTYLE
350
31
  3
ACAD_VISUALSTYLE
350
14
  3
AcDbVariableDictionary
350
6EA
  0
DICTIONARY
  5
30
102
{ACAD_REACTORS
330
C
102
}
330
C
100
AcDbDictionary
281
     1
  0
DICTIONARY
  5
D
102
{ACAD_REACTORS
330
C
102
}
330
C
100
AcDbDictionary
281
     1
  0
DICTIONARY
  5
2F
102
{ACAD_REACTORS
330
C
102
}
330
C
100
AcDbDictionary
281
     1
  3
Layout1
350
36
  3
Layout2
350
3E
  3
Model
350
3A
  0
DICTIONARY
  5
10
102
{ACAD_REACTORS
330
C
102
}
330
C
100
AcDbDictionary
281
     1
  3
ByBlock
350
12
  3
ByLayer
350
11
  3
Global
350
13
  0
DICTIONARY
  5
2C
102
{ACAD_REACTORS
330
C
102
}
330
C
100
AcDbDictionary
281
     1
  3
Standard
350
2D
  0
DICTIONARY
  5
2E
102
{ACAD_REACTORS
330
C
102
}
330
C
100
AcDbDictionary
281
     1
  0
ACDBDICTIONARYWDFLT
  5
E
102
{ACAD_REACTORS
330
C
102
}
330
C
100
AcDbDictionary
281
     1
  3
Normal
350
F
100
AcDbDictionaryWithDefault
340
F
  0
DICTIONARY
  5
31
102
{ACAD_REACTORS
330
C
102
}
330
C
100
AcDbDictionary
281
     1
  3
Standard
350
32
  0
DICTIONARY
  5
14
102
{ACAD_REACTORS
330
C
102
}
330
C
100
AcDbDictionary
281
     1
  3
2dWireframe
350
1A
  3
3D Hidden
350
1C
  3
3dWireframe
350
1B
  3
Basic
350
19
  3
Brighten
350
20
  3
ColorChange
350
24
  3
Conceptual
350
1D
  3
Dim
350
1F
  3
Facepattern
350
23
  3
Flat
350
15
  3
FlatWithEdges
350
16
  3
Gouraud
350
17
  3
GouraudWithEdges
350
18
  3
Linepattern
350
22
  3
Realistic
350
1E
  3
Thicken
350
21
  0
DICTIONARY
  5
6EA
102
{ACAD_REACTORS
330
C
102
}
330
C
100
AcDbDictionary
281
     1
  3
CTABLESTYLE
350
6EB
  0
LAYOUT
  5
36
102
{ACAD_REACTORS
330
2F
102
}
330
2F
100
AcDbPlotSettings
  1

  2

  4

  6

 40
0.0
 41
0.0
 42
0.0
 43
0.0
 44
0.0
 45
0.0
 46
0.0
 47
0.0
 48
0.0
 49
0.0
140
0.0
141
0.0
142
1.0
143
1.0
 70
   688
 72
     0
 73
     0
 74
     5
  7

 75
    16
147
1.0
 76
     0
 77
     2
 78
   300
148
0.0
149
0.0
100
AcDbLayout
  1
Layout1
 70
     1
 71
     1
 10
0.0
 20
0.0
 11
12.0
 21
9.0
 12
0.0
 22
0.0
 32
0.0
 14
0.0
 24
0.0
 34
0.0
 15
0.0
 25
0.0
 35
0.0
146
0.0
 13
0.0
 23
0.0
 33
0.0
 16
1.0
 26
0.0
 36
0.0
 17
0.0
 27
1.0
 37
0.0
 76
     0
330
33
  0
LAYOUT
  5
3E
102
{ACAD_REACTORS
330
2F
102
}
330
2F
100
AcDbPlotSettings
  1

  2

  4

  6

 40
0.0
 41
0.0
 42
0.0
 43
0.0
 44
0.0
 45
0.0
 46
0.0
 47
0.0
 48
0.0
 49
0.0
140
0.0
141
0.0
142
1.0
143
1.0
 70
   688
 72
     0
 73
     0
 74
     5
  7

 75
    16
147
1.0
 76
     0
 77
     2
 78
   300
148
0.0
149
0.0
100
AcDbLayout
  1
Layout2
 70
     1
 71
     2
 10
0.0
 20
0.0
 11
12.0
 21
9.0
 12
0.0
 22
0.0
 32
0.0
 14
0.0
 24
0.0
 34
0.0
 15
0.0
 25
0.0
 35
0.0
146
0.0
 13
0.0
 23
0.0
 33
0.0
 16
1.0
 26
0.0
 36
0.0
 17
0.0
 27
1.0
 37
0.0
 76
     0
330
3B
  0
LAYOUT
  5
3A
102
{ACAD_REACTORS
330
2F
102
}
330
2F
100
AcDbPlotSettings
  1

  2

  4

  6

 40
0.0
 41
0.0
 42
0.0
 43
0.0
 44
0.0
 45
0.0
 46
0.0
 47
0.0
 48
0.0
 49
0.0
140
0.0
141
0.0
142
1.0
143
1.0
 70
  1712
 72
     0
 73
     0
 74
     0
  7

 75
     0
147
1.0
 76
     0
 77
     2
 78
   300
148
0.0
149
0.0
100
AcDbLayout
  1
Model
 70
     1
 71
     0
 10
0.0
 20
0.0
 11
12.0
 21
9.0
 12
0.0
 22
0.0
 32
0.0
 14
0.0
 24
0.0
 34
0.0
 15
0.0
 25
0.0
 35
0.0
146
0.0
 13
0.0
 23
0.0
 33
0.0
 16
1.0
 26
0.0
 36
0.0
 17
0.0
 27
1.0
 37
0.0
 76
     0
330
37
  0
MATERIAL
  5
12
102
{ACAD_XDICTIONARY
360
6EE
102
}
102
{ACAD_REACTORS
330
10
102
}
330
10
100
AcDbMaterial
  1
ByBlock
  0
MATERIAL
  5
11
102
{ACAD_XDICTIONARY
360
6EC
102
}
102
{ACAD_REACTORS
330
10
102
}
330
10
100
AcDbMaterial
  1
ByLayer
  0
MATERIAL
  5
13
102
{ACAD_XDICTIONARY
360
6F0
102
}
102
{ACAD_REACTORS
330
10
102
}
330
10
100
AcDbMaterial
  1
Global
  0
MLINESTYLE
  5
2D
102
{ACAD_REACTORS
330
2C
102
}
330
2C
100
AcDbMlineStyle
  2
STANDARD
 70
     0
  3

 62
   256
 51
90.0
 52
90.0
 71
     2
 49
0.5
 62
   256
  6
BYLAYER
 49
-0.5
 62
   256
  6
BYLAYER
  0
ACDBPLACEHOLDER
  5
F
102
{ACAD_REACTORS
330
E
102
}
330
E
  0
TABLESTYLE
  5
32
102
{ACAD_XDICTIONARY
360
6F2
102
}
102
{ACAD_REACTORS
330
31
102
}
330
31
100
AcDbTableStyle
  3
Standard
 70
     0
 71
     0
 40
0.06
 41
0.06
280
     0
281
     0
  7
Standard
140
0.18
170
     2
 62
     0
 63
     7
283
     0
274
    -2
284
     1
 64
     0
275
    -2
285
     1
 65
     0
276
    -2
286
     1
 66
     0
277
    -2
287
     1
 67
     0
278
    -2
288
     1
 68
     0
279
    -2
289
     1
 69
     0
  7
Standard
140
0.25
170
     5
 62
     0
 63
     7
283
     0
274
    -2
284
     1
 64
     0
275
    -2
285
     1
 65
     0
276
    -2
286
     1
 66
     0
277
    -2
287
     1
 67
     0
278
    -2
288
     1
 68
     0
279
    -2
289
     1
 69
     0
  7
Standard
140
0.18
170
     5
 62
     0
 63
     7
283
     0
274
    -2
284
     1
 64
     0
275
    -2
285
     1
 65
     0
276
    -2
286
     1
 66
     0
277
    -2
287
     1
 67
     0
278
    -2
288
     1
 68
     0
279
    -2
289
     1
 69
     0
  0
VISUALSTYLE
  5
1A
102
{ACAD_REACTORS
330
14
102
}
330
14
100
AcDbVisualStyle
  2
2dWireframe
 70
     4
 71
     0
 72
     2
 73
     0
 90
        0
 40
-0.6
 41
-30.0
 62
     5
 63
     7
421
 16777215
 74
     1
 91
        4
 64
     7
 65
   257
 75
     1
175
     1
 42
1.0
 92
        0
 66
   257
 43
1.0
 76
     1
 77
     6
 78
     2
 67
     7
 79
     5
170
     0
171
     0
290
     0
174
     0
 93
        1
 44
0.0
173
     0
291
     0
 45
0.0
1001
ACAD
1000
AcDbSavedByObjectVersion
1070
     0
  0
VISUALSTYLE
  5
1C
102
{ACAD_REACTORS
330
14
102
}
330
14
100
AcDbVisualStyle
  2
3D Hidden
 70
     6
 71
     1
 72
     2
 73
     2
 90
        0
 40
-0.6
 41
-30.0
 62
     5
 63
     7
421
 16777215
 74
     2
 91
        2
 64
     7
 65
   257
 75
     2
175
     1
 42
40.0
 92
        0
 66
   257
 43
1.0
 76
     1
 77
     6
 78
     2
 67
     7
 79
     3
170
     0
171
     0
290
     0
174
     0
 93
        1
 44
0.0
173
     0
291
     0
 45
0.0
1001
ACAD
1000
AcDbSavedByObjectVersion
1070
     0
  0
VISUALSTYLE
  5
1B
102
{ACAD_REACTORS
330
14
102
}
330
14
100
AcDbVisualStyle
  2
3dWireframe
 70
     5
 71
     0
 72
     2
 73
     0
 90
        0
 40
-0.6
 41
-30.0
 62
     5
 63
     7
421
 16777215
 74
     1
 91
        4
 64
     7
 65
   257
 75
     1
175
     1
 42
1.0
 92
        0
 66
   257
 43
1.0
 76
     1
 77
     6
 78
     2
 67
     7
 79
     5
170
     0
171
     0
290
     0
174
     0
 93
        1
 44
0.0
173
     0
291
     0
 45
0.0
1001
ACAD
1000
AcDbSavedByObjectVersion
1070
     0
  0
VISUALSTYLE
  5
19
102
{ACAD_REACTORS
330
14
102
}
330
14
100
AcDbVisualStyle
  2
Basic
 70
     7
 71
     1
 72
     0
 73
     1
 90
        0
 40
-0.6
 41
-30.0
 62
     5
 63
     7
421
 16777215
 74
     0
 91
        4
 64
     7
 65
   257
 75
     1
175
     1
 42
1.0
 92
        8
 66
     7
 43
1.0
 76
     1
 77
     6
 78
     2
 67
     7
 79
     5
170
     0
171
     0
290
     0
174
     0
 93
        1
 44
0.0
173
     0
291
     1
 45
0.0
1001
ACAD
1000
AcDbSavedByObjectVersion
1070
     0
  0
VISUALSTYLE
  5
20
102
{ACAD_REACTORS
330
14
102
}
330
14
100
AcDbVisualStyle
  2
Brighten
 70
    12
 71
     2
 72
     2
 73
     0
 90
        0
 40
-0.6
 41
-30.0
 62
     5
 63
     7
421
 16777215
 74
     1
 91
        4
 64
     7
 65
   257
 75
     1
175
     1
 42
1.0
 92
        8
 66
     7
 43
1.0
 76
     1
 77
     6
 78
     2
 67
     7
 79
     5
170
     0
171
     0
290
     0
174
     0
 93
        1
 44
50.0
173
     0
291
     1
 45
0.0
1001
ACAD
1000
AcDbSavedByObjectVersion
1070
     0
  0
VISUALSTYLE
  5
24
102
{ACAD_REACTORS
330
14
102
}
330
14
100
AcDbVisualStyle
  2
ColorChange
 70
    16
 71
     2
 72
     2
 73
     3
 90
        0
 40
-0.6
 41
-30.0
 62
     5
 63
     8
421
  8421504
 74
     1
 91
        4
 64
     7
 65
   257
 75
     1
175
     1
 42
1.0
 92
        8
 66
     8
424
  8421504
 43
1.0
 76
     1
 77
     6
 78
     2
 67
     7
 79
     5
170
     0
171
     0
290
     0
174
     0
 93
        1
 44
0.0
173
     0
291
     1
 45
0.0
1001
ACAD
1000
AcDbSavedByObjectVersion
1070
     0
  0
VISUALSTYLE
  5
1D
102
{ACAD_REACTORS
330
14
102
}
330
14
100
AcDbVisualStyle
  2
Conceptual
 70
     9
 71
     3
 72
     2
 73
     0
 90
        0
 40
-0.6
 41
-30.0
 62
     5
 63
     7
421
 16777215
 74
     2
 91
        2
 64
     7
 65
   257
 75
     1
175
     1
 42
40.0
 92
        8
 66
     7
 43
1.0
 76
     1
 77
     6
 78
     2
 67
     7
 79
     3
170
     0
171
     0
290
     0
174
     0
 93
        1
 44
0.0
173
     0
291
     0
 45
0.0
1001
ACAD
1000
AcDbSavedByObjectVersion
1070
     0
  0
VISUALSTYLE
  5
1F
102
{ACAD_REACTORS
330
14
102
}
330
14
100
AcDbVisualStyle
  2
Dim
 70
    11
 71
     2
 72
     2
 73
     0
 90
        0
 40
-0.6
 41
-30.0
 62
     5
 63
     7
421
 16777215
 74
     1
 91
        4
 64
     7
 65
   257
 75
     1
175
     1
 42
1.0
 92
        8
 66
     7
 43
1.0
 76
     1
 77
     6
 78
     2
 67
     7
 79
     5
170
     0
171
     0
290
     0
174
     0
 93
        1
 44
-50.0
173
     0
291
     1
 45
0.0
1001
ACAD
1000
AcDbSavedByObjectVersion
1070
     0
  0
VISUALSTYLE
  5
23
102
{ACAD_REACTORS
330
14
102
}
330
14
100
AcDbVisualStyle
  2
Facepattern
 70
    15
 71
     2
 72
     2
 73
     0
 90
        0
 40
-0.6
 41
-30.0
 62
     5
 63
     7
421
 16777215
 74
     1
 91
        4
 64
     7
 65
   257
 75
     1
175
     1
 42
1.0
 92
        8
 66
     7
 43
1.0
 76
     1
 77
     6
 78
     2
 67
     7
 79
     5
170
     0
171
     0
290
     0
174
     0
 93
        1
 44
0.0
173
     0
291
     1
 45
0.0
1001
ACAD
1000
AcDbSavedByObjectVersion
1070
     0
  0
VISUALSTYLE
  5
15
102
{ACAD_REACTORS
330
14
102
}
330
14
100
AcDbVisualStyle
  2
Flat
 70
     0
 71
     2
 72
     1
 73
     1
 90
        2
 40
-0.6
 41
30.0
 62
     5
 63
     7
421
 16777215
 74
     0
 91
        4
 64
     7
 65
   257
 75
     1
175
     1
 42
1.0
 92
        8
 66
     7
 43
1.0
 76
     1
 77
     6
 78
     2
 67
     7
 79
     5
170
     0
171
     0
290
     0
174
     0
 93
       13
 44
0.0
173
     0
291
     1
 45
0.0
1001
ACAD
1000
AcDbSavedByObjectVersion
1070
     0
  0
VISUALSTYLE
  5
16
102
{ACAD_REACTORS
330
14
102
}
330
14
100
AcDbVisualStyle
  2
FlatWithEdges
 70
     1
 71
     2
 72
     1
 73
     1
 90
        2
 40
-0.6
 41
30.0
 62
     5
 63
     7
421
 16777215
 74
     1
 91
        4
 64
     7
 65
   257
 75
     1
175
     1
 42
1.0
 92
        0
 66
   257
 43
1.0
 76
     1
 77
     6
 78
     2
 67
     7
 79
     5
170
     0
171
     0
290
     0
174
     0
 93
       13
 44
0.0
173
     0
291
     1
 45
0.0
1001
ACAD
1000
AcDbSavedByObjectVersion
1070
     0
  0
VISUALSTYLE
  5
17
102
{ACAD_REACTORS
330
14
102
}
330
14
100
AcDbVisualStyle
  2
Gouraud
 70
     2
 71
     2
 72
     2
 73
     1
 90
        2
 40
-0.6
 41
30.0
 62
     5
 63
     7
421
 16777215
 74
     0
 91
        4
 64
     7
 65
   257
 75
     1
175
     1
 42
1.0
 92
        0
 66
     7
 43
1.0
 76
     1
 77
     6
 78
     2
 67
     7
 79
     5
170
     0
171
     0
290
     0
174
     0
 93
       13
 44
0.0
173
     0
291
     1
 45
0.0
1001
ACAD
1000
AcDbSavedByObjectVersion
1070
     0
  0
VISUALSTYLE
  5
18
102
{ACAD_REACTORS
330
14
102
}
330
14
100
AcDbVisualStyle
  2
GouraudWithEdges
 70
     3
 71
     2
 72
     2
 73
     1
 90
        2
 40
-0.6
 41
30.0
 62
     5
 63
     7
421
 16777215
 74
     1
 91
        4
 64
     7
 65
   257
 75
     1
175
     1
 42
1.0
 92
        0
 66
   257
 43
1.0
 76
     1
 77
     6
 78
     2
 67
     7
 79
     5
170
     0
171
     0
290
     0
174
     0
 93
       13
 44
0.0
173
     0
291
     1
 45
0.0
1001
ACAD
1000
AcDbSavedByObjectVersion
1070
     0
  0
VISUALSTYLE
  5
22
102
{ACAD_REACTORS
330
14
102
}
330
14
100
AcDbVisualStyle
  2
Linepattern
 70
    14
 71
     2
 72
     2
 73
     0
 90
        0
 40
-0.6
 41
-30.0
 62
     5
 63
     7
421
 16777215
 74
     1
 91
        4
 64
     7
 65
   257
 75
     7
175
     7
 42
1.0
 92
        8
 66
     7
 43
1.0
 76
     1
 77
     6
 78
     2
 67
     7
 79
     5
170
     0
171
     0
290
     0
174
     0
 93
        1
 44
0.0
173
     0
291
     1
 45
0.0
1001
ACAD
1000
AcDbSavedByObjectVersion
1070
     0
  0
VISUALSTYLE
  5
1E
102
{ACAD_REACTORS
330
14
102
}
330
14
100
AcDbVisualStyle
  2
Realistic
 70
     8
 71
     2
 72
     2
 73
     0
 90
        0
 40
-0.6
 41
-30.0
 62
     5
 63
     7
421
 16777215
 74
     1
 91
        0
 64
     7
 65
   257
 75
     1
175
     1
 42
1.0
 92
        8
 66
     8
424
  7895160
 43
1.0
 76
     1
 77
     6
 78
     2
 67
     7
 79
     5
170
     0
171
     0
290
     0
174
     0
 93
       13
 44
0.0
173
     0
291
     0
 45
0.0
1001
ACAD
1000
AcDbSavedByObjectVersion
1070
     0
  0
VISUALSTYLE
  5
21
102
{ACAD_REACTORS
330
14
102
}
330
14
100
AcDbVisualStyle
  2
Thicken
 70
    13
 71
     2
 72
     2
 73
     0
 90
        0
 40
-0.6
 41
-30.0
 62
     5
 63
     7
421
 16777215
 74
     1
 91
        4
 64
     7
 65
   257
 75
     1
175
     1
 42
1.0
 92
       12
 66
     7
 43
1.0
 76
     1
 77
     6
 78
     2
 67
     7
 79
     5
170
     0
171
     0
290
     0
174
     0
 93
        1
 44
0.0
173
     0
291
     1
 45
0.0
1001
ACAD
1000
AcDbSavedByObjectVersion
1070
     0
  0
DICTIONARYVAR
  5
6EB
102
{ACAD_REACTORS
330
6EA
102
}
330
6EA
100
DictionaryVariables
280
     0
  1
STANDARD
  0
DICTIONARY
  5
6EE
330
12
100
AcDbDictionary
280
     1
281
     1
  3
ACAD_XREC_ROUNDTRIP
360
6EF
  0
DICTIONARY
  5
6EC
330
11
100
AcDbDictionary
280
     1
281
     1
  3
ACAD_XREC_ROUNDTRIP
360
6ED
  0
DICTIONARY
  5
6F0
330
13
100
AcDbDictionary
280
     1
281
     1
  3
ACAD_XREC_ROUNDTRIP
360
6F1
  0
DICTIONARY
  5
6F2
330
32
100
AcDbDictionary
280
     1
281
     1
  3
ACAD_XREC_ROUNDTRIP
360
6F3
  0
XRECORD
  5
6EF
102
{ACAD_REACTORS
330
6EE
102
}
330
6EE
100
AcDbXrecord
280
     1
102
MATERIAL
148
0.0
149
0.0
149
0.0
 93
        0
 94
       63
282
     0
 72
     1
 77
     1
171
     1
175
     1
179
     1
273
     0
  0
XRECORD
  5
6ED
102
{ACAD_REACTORS
330
6EC
102
}
330
6EC
100
AcDbXrecord
280
     1
102
MATERIAL
148
0.0
149
0.0
149
0.0
 93
        0
 94
       63
282
     0
 72
     1
 77
     1
171
     1
175
     1
179
     1
273
     0
  0
XRECORD
  5
6F1
102
{ACAD_REACTORS
330
6F0
102
}
330
6F0
100
AcDbXrecord
280
     1
102
MATERIAL
148
0.0
149
0.0
149
0.0
 93
        0
 94
       63
282
     0
 72
     1
 77
     1
171
     1
175
     1
179
     1
273
     0
  0
XRECORD
  5
6F3
102
{ACAD_REACTORS
330
6F2
102
}
330
6F2
100
AcDbXrecord
280
     1
102
ACAD_ROUNDTRIP_PRE2007_TABLESTYLE
 90
      512
 91
        0
  1

 92
      512
 93
        0
  2

 94
      512
 95
        0
  3

  0
ENDSEC
  0
EOF
