  0
SECTION
  2
HEADER
  9
$ACADVER
  1
AC1018
  9
$ACADMAINTVER
 70
   104
  9
$DWGCODEPAGE
  3
ANSI_1252
  9
$TITLE
  1
SD 18.3
  9
$CUSTOMPROPERTYTAG
  1
Manager
  9
$CUSTOMPROPERTY
  1

  9
$CUSTOMPROPERTYTAG
  1
Firma
  9
$CUSTOMPROPERTY
  1

  9
$CUSTOMPROPERTYTAG
  1
Kategorie
  9
$CUSTOMPROPERTY
  1

  9
$CUSTOMPROPERTYTAG
  1
Bauteilnummer
  9
$CUSTOMPROPERTY
  1
108446
  9
$CUSTOMPROPERTYTAG
  1
Bezeichnung
  9
$CUSTOMPROPERTY
  1

  9
$CUSTOMPROPERTYTAG
  1
Projekt
  9
$CUSTOMPROPERTY
  1
Internet 2D
  9
$CUSTOMPROPERTYTAG
  1
Konstrukteur
  9
$CUSTOMPROPERTY
  1
LTS
  9
$CUSTOMPROPERTYTAG
  1
Ingenieur
  9
$CUSTOMPROPERTY
  1

  9
$CUSTOMPROPERTYTAG
  1
Bevollmächtigter
  9
$CUSTOMPROPERTY
  1

  9
$CUSTOMPROPERTYTAG
  1
Kostenstelle
  9
$CUSTOMPROPERTY
  1

  9
$CUSTOMPROPERTYTAG
  1
Zulieferer
  9
$CUSTOMPROPERTY
  1

  9
$CUSTOMPROPERTYTAG
  1
Benutzerstatus
  9
$CUSTOMPROPERTY
  1

  9
$CUSTOMPROPERTYTAG
  1
Konstruktionsstatus
  9
$CUSTOMPROPERTY
  1
InBearbeitung
  9
$CUSTOMPROPERTYTAG
  1
Kontrolliert von
  9
$CUSTOMPROPERTY
  1
GAD
  9
$CUSTOMPROPERTYTAG
  1
Datum Überprüfung
  9
$CUSTOMPROPERTY
  1
05/28/2008
  9
$CUSTOMPROPERTYTAG
  1
Konstruktion genehmigt von
  9
$CUSTOMPROPERTY
  1
GAD
  9
$CUSTOMPROPERTYTAG
  1
Datum Konstruktionsgenehmigung
  9
$CUSTOMPROPERTY
  1
05/28/2008
  9
$CUSTOMPROPERTYTAG
  1
Fertigung genehmigt von
  9
$CUSTOMPROPERTY
  1

  9
$CUSTOMPROPERTYTAG
  1
Massstab
  9
$CUSTOMPROPERTY
  1
1:5
  9
$CUSTOMPROPERTYTAG
  1
Gewicht
  9
$CUSTOMPROPERTY
  1

  9
$CUSTOMPROPERTYTAG
  1
AeDatum1
  9
$CUSTOMPROPERTY
  1
  
  9
$CUSTOMPROPERTYTAG
  1
AeDesc1
  9
$CUSTOMPROPERTY
  1

  9
$CUSTOMPROPERTYTAG
  1
AeIDX1
  9
$CUSTOMPROPERTY
  1

  9
$CUSTOMPROPERTYTAG
  1
TolLange_Fein
  9
$CUSTOMPROPERTY
  1

  9
$CUSTOMPROPERTYTAG
  1
TolLange_Grob
  9
$CUSTOMPROPERTY
  1

  9
$CUSTOMPROPERTYTAG
  1
TolLange_Mittel
  9
$CUSTOMPROPERTY
  1
X
  9
$CUSTOMPROPERTYTAG
  1
TolWinkel_Fein
  9
$CUSTOMPROPERTY
  1

  9
$CUSTOMPROPERTYTAG
  1
TolWinkel_Grob
  9
$CUSTOMPROPERTY
  1
X
  9
$CUSTOMPROPERTYTAG
  1
ProtoTyp_NR
  9
$CUSTOMPROPERTY
  1
1
  9
$CUSTOMPROPERTYTAG
  1
AeDatum2
  9
$CUSTOMPROPERTY
  1
  
  9
$CUSTOMPROPERTYTAG
  1
AeDatum3
  9
$CUSTOMPROPERTY
  1
  
  9
$CUSTOMPROPERTYTAG
  1
AeDatum4
  9
$CUSTOMPROPERTY
  1
  
  9
$CUSTOMPROPERTYTAG
  1
AeDatum5
  9
$CUSTOMPROPERTY
  1
  
  9
$CUSTOMPROPERTYTAG
  1
AeDesc2
  9
$CUSTOMPROPERTY
  1

  9
$CUSTOMPROPERTYTAG
  1
AeDesc3
  9
$CUSTOMPROPERTY
  1

  9
$CUSTOMPROPERTYTAG
  1
AeDesc4
  9
$CUSTOMPROPERTY
  1

  9
$CUSTOMPROPERTYTAG
  1
AeDesc5
  9
$CUSTOMPROPERTY
  1

  9
$CUSTOMPROPERTYTAG
  1
AeIDX2
  9
$CUSTOMPROPERTY
  1

  9
$CUSTOMPROPERTYTAG
  1
AeIDX3
  9
$CUSTOMPROPERTY
  1

  9
$CUSTOMPROPERTYTAG
  1
AeIDX4
  9
$CUSTOMPROPERTY
  1

  9
$CUSTOMPROPERTYTAG
  1
AeIDX5
  9
$CUSTOMPROPERTY
  1

  9
$CUSTOMPROPERTYTAG
  1
Fachgeprüft_am
  9
$CUSTOMPROPERTY
  1
  .  .    
  9
$CUSTOMPROPERTYTAG
  1
Fachgeprüft_von
  9
$CUSTOMPROPERTY
  1

  9
$CUSTOMPROPERTYTAG
  1
ZeichnungsNummer
  9
$CUSTOMPROPERTY
  1

  9
$CUSTOMPROPERTYTAG
  1
AIMD_MATERIAL
  9
$CUSTOMPROPERTY
  1

  9
$CUSTOMPROPERTYTAG
  1
AIMD_WEIGHT
  9
$CUSTOMPROPERTY
  1

  9
$CUSTOMPROPERTYTAG
  1
AIMD_DESCRIPTION
  9
$CUSTOMPROPERTY
  1

  9
$CUSTOMPROPERTYTAG
  1
AIMD_ORIGIN
  9
$CUSTOMPROPERTY
  1
105893
  9
$CUSTOMPROPERTYTAG
  1
AIMD_PARTNO
  9
$CUSTOMPROPERTY
  1
7101002
  9
$CUSTOMPROPERTYTAG
  1
AIMD_WEIGHT_UNIT
  9
$CUSTOMPROPERTY
  1

  9
$CUSTOMPROPERTYTAG
  1
Einheit
  9
$CUSTOMPROPERTY
  1
Stk
  9
$INSBASE
 10
0.0
 20
0.0
 30
0.0
  9
$EXTMIN
 10
0.0
 20
0.0
 30
0.0
  9
$EXTMAX
 10
1050.0
 20
1485.0
 30
0.0
  9
$LIMMIN
 10
0.0
 20
0.0
  9
$LIMMAX
 10
1050.0
 20
1485.0
  9
$ORTHOMODE
 70
     0
  9
$REGENMODE
 70
     1
  9
$FILLMODE
 70
     1
  9
$QTEXTMODE
 70
     0
  9
$MIRRTEXT
 70
     0
  9
$LTSCALE
 40
5.0
  9
$ATTMODE
 70
     1
  9
$TEXTSIZE
 40
0.2
  9
$TRACEWID
 40
0.05
  9
$TEXTSTYLE
  7
Standard
  9
$CLAYER
  8
0
  9
$CELTYPE
  6
ByLayer
  9
$CECOLOR
 62
   256
  9
$CELTSCALE
 40
1.0
  9
$DISPSILH
 70
     0
  9
$DIMSCALE
 40
1.0
  9
$DIMASZ
 40
1.799999999999999
  9
$DIMEXO
 40
0.0625
  9
$DIMDLI
 40
0.38
  9
$DIMRND
 40
0.0
  9
$DIMDLE
 40
0.0
  9
$DIMEXE
 40
0.18
  9
$DIMTP
 40
0.0
  9
$DIMTM
 40
0.0
  9
$DIMTXT
 40
0.3499999940395355
  9
$DIMCEN
 40
0.09
  9
$DIMTSZ
 40
0.0
  9
$DIMTOL
 70
     0
  9
$DIMLIM
 70
     0
  9
$DIMTIH
 70
     1
  9
$DIMTOH
 70
     1
  9
$DIMSE1
 70
     0
  9
$DIMSE2
 70
     0
  9
$DIMTAD
 70
     0
  9
$DIMZIN
 70
     0
  9
$DIMBLK
  1

  9
$DIMASO
 70
     1
  9
$DIMSHO
 70
     1
  9
$DIMPOST
  1

  9
$DIMAPOST
  1

  9
$DIMALT
 70
     0
  9
$DIMALTD
 70
     2
  9
$DIMALTF
 40
25.4
  9
$DIMLFAC
 40
1.0
  9
$DIMTOFL
 70
     0
  9
$DIMTVP
 40
0.0
  9
$DIMTIX
 70
     0
  9
$DIMSOXD
 70
     0
  9
$DIMSAH
 70
     0
  9
$DIMBLK1
  1

  9
$DIMBLK2
  1

  9
$DIMSTYLE
  2
Standard
  9
$DIMCLRD
 70
     0
  9
$DIMCLRE
 70
     0
  9
$DIMCLRT
 70
     0
  9
$DIMTFAC
 40
1.0
  9
$DIMGAP
 40
0.09
  9
$DIMJUST
 70
     0
  9
$DIMSD1
 70
     0
  9
$DIMSD2
 70
     0
  9
$DIMTOLJ
 70
     1
  9
$DIMTZIN
 70
     0
  9
$DIMALTZ
 70
     0
  9
$DIMALTTZ
 70
     0
  9
$DIMUPT
 70
     0
  9
$DIMDEC
 70
     4
  9
$DIMTDEC
 70
     4
  9
$DIMALTU
 70
     2
  9
$DIMALTTD
 70
     2
  9
$DIMTXSTY
  7
Standard
  9
$DIMAUNIT
 70
     0
  9
$DIMADEC
 70
     0
  9
$DIMALTRND
 40
0.0
  9
$DIMAZIN
 70
     0
  9
$DIMDSEP
 70
    46
  9
$DIMATFIT
 70
     3
  9
$DIMFRAC
 70
     0
  9
$DIMLDRBLK
  1

  9
$DIMLUNIT
 70
     2
  9
$DIMLWD
 70
    -2
  9
$DIMLWE
 70
    -2
  9
$DIMTMOVE
 70
     0
  9
$LUNITS
 70
     2
  9
$LUPREC
 70
     4
  9
$SKETCHINC
 40
0.1
  9
$FILLETRAD
 40
0.0
  9
$AUNITS
 70
     0
  9
$AUPREC
 70
     0
  9
$MENU
  1
.
  9
$ELEVATION
 40
0.0
  9
$PELEVATION
 40
0.0
  9
$THICKNESS
 40
0.0
  9
$LIMCHECK
 70
     0
  9
$CHAMFERA
 40
0.0
  9
$CHAMFERB
 40
0.0
  9
$CHAMFERC
 40
0.0
  9
$CHAMFERD
 40
0.0
  9
$SKPOLY
 70
     0
  9
$TDCREATE
 40
2454615.503270139
  9
$TDUCREATE
 40
2454615.419936806
  9
$TDUPDATE
 40
2454615.503270139
  9
$TDUUPDATE
 40
2454615.419936806
  9
$TDINDWG
 40
0.0000184491
  9
$TDUSRTIMER
 40
0.0000184491
  9
$USRTIMER
 70
     1
  9
$ANGBASE
 50
0.0
  9
$ANGDIR
 70
     0
  9
$PDMODE
 70
     0
  9
$PDSIZE
 40
0.0
  9
$PLINEWID
 40
0.0
  9
$SPLFRAME
 70
     0
  9
$SPLINETYPE
 70
     6
  9
$SPLINESEGS
 70
     8
  9
$HANDSEED
  5
75D
  9
$SURFTAB1
 70
     6
  9
$SURFTAB2
 70
     6
  9
$SURFTYPE
 70
     6
  9
$SURFU
 70
     6
  9
$SURFV
 70
     6
  9
$UCSBASE
  2

  9
$UCSNAME
  2

  9
$UCSORG
 10
0.0
 20
0.0
 30
0.0
  9
$UCSXDIR
 10
1.0
 20
0.0
 30
0.0
  9
$UCSYDIR
 10
0.0
 20
1.0
 30
0.0
  9
$UCSORTHOREF
  2

  9
$UCSORTHOVIEW
 70
     0
  9
$UCSORGTOP
 10
0.0
 20
0.0
 30
0.0
  9
$UCSORGBOTTOM
 10
0.0
 20
0.0
 30
0.0
  9
$UCSORGLEFT
 10
0.0
 20
0.0
 30
0.0
  9
$UCSORGRIGHT
 10
0.0
 20
0.0
 30
0.0
  9
$UCSORGFRONT
 10
0.0
 20
0.0
 30
0.0
  9
$UCSORGBACK
 10
0.0
 20
0.0
 30
0.0
  9
$PUCSBASE
  2

  9
$PUCSNAME
  2

  9
$PUCSORG
 10
0.0
 20
0.0
 30
0.0
  9
$PUCSXDIR
 10
1.0
 20
0.0
 30
0.0
  9
$PUCSYDIR
 10
0.0
 20
1.0
 30
0.0
  9
$PUCSORTHOREF
  2

  9
$PUCSORTHOVIEW
 70
     0
  9
$PUCSORGTOP
 10
0.0
 20
0.0
 30
0.0
  9
$PUCSORGBOTTOM
 10
0.0
 20
0.0
 30
0.0
  9
$PUCSORGLEFT
 10
0.0
 20
0.0
 30
0.0
  9
$PUCSORGRIGHT
 10
0.0
 20
0.0
 30
0.0
  9
$PUCSORGFRONT
 10
0.0
 20
0.0
 30
0.0
  9
$PUCSORGBACK
 10
0.0
 20
0.0
 30
0.0
  9
$USERI1
 70
     0
  9
$USERI2
 70
     0
  9
$USERI3
 70
     0
  9
$USERI4
 70
     0
  9
$USERI5
 70
     0
  9
$USERR1
 40
0.0
  9
$USERR2
 40
0.0
  9
$USERR3
 40
0.0
  9
$USERR4
 40
0.0
  9
$USERR5
 40
0.0
  9
$WORLDVIEW
 70
     1
  9
$SHADEDGE
 70
     3
  9
$SHADEDIF
 70
    70
  9
$TILEMODE
 70
     1
  9
$MAXACTVP
 70
    64
  9
$PINSBASE
 10
0.0
 20
0.0
 30
0.0
  9
$PLIMCHECK
 70
     0
  9
$PEXTMIN
 10
0.0
 20
0.0
 30
0.0
  9
$PEXTMAX
 10
1050.0
 20
1485.0
 30
0.0
  9
$PLIMMIN
 10
0.0
 20
0.0
  9
$PLIMMAX
 10
1050.0
 20
1485.0
  9
$UNITMODE
 70
     0
  9
$VISRETAIN
 70
     1
  9
$PLINEGEN
 70
     0
  9
$PSLTSCALE
 70
     1
  9
$TREEDEPTH
 70
  3020
  9
$CMLSTYLE
  2
Standard
  9
$CMLJUST
 70
     0
  9
$CMLSCALE
 40
1.0
  9
$PROXYGRAPHICS
 70
     1
  9
$MEASUREMENT
 70
     1
  9
$CELWEIGHT
370
    -1
  9
$ENDCAPS
280
     0
  9
$JOINSTYLE
280
     0
  9
$LWDISPLAY
290
     0
  9
$INSUNITS
 70
     0
  9
$HYPERLINKBASE
  1

  9
$STYLESHEET
  1

  9
$XEDIT
290
     1
  9
$CEPSNTYPE
380
     0
  9
$PSTYLEMODE
290
     1
  9
$FINGERPRINTGUID
  2
{113B61A4-1F45-471A-9CC7-D447A686284D}
  9
$VERSIONGUID
  2
{88836E7E-515F-4CE3-BC8D-FFA3510AB88E}
  9
$EXTNAMES
290
     1
  9
$PSVPSCALE
 40
0.0
  9
$OLESTARTUP
290
     0
  9
$SORTENTS
280
   127
  9
$INDEXCTL
280
     0
  9
$HIDETEXT
280
     1
  9
$XCLIPFRAME
290
     0
  9
$HALOGAP
280
     0
  9
$OBSCOLOR
 70
   257
  9
$OBSLTYPE
280
     0
  9
$INTERSECTIONDISPLAY
280
     0
  9
$INTERSECTIONCOLOR
 70
   257
  9
$DIMASSOC
280
     1
  9
$PROJECTNAME
  1

  0
ENDSEC
  0
SECTION
  2
CLASSES
  0
CLASS
  1
ACDBDICTIONARYWDFLT
  2
AcDbDictionaryWithDefault
  3
ObjectDBX Classes
 90
        0
 91
        1
280
     0
281
     0
  0
CLASS
  1
MATERIAL
  2
AcDbMaterial
  3
ObjectDBX Classes
 90
     1024
 91
        3
280
     0
281
     0
  0
CLASS
  1
VISUALSTYLE
  2
AcDbVisualStyle
  3
ObjectDBX Classes
 90
     4095
 91
       16
280
     0
281
     0
  0
CLASS
  1
TABLESTYLE
  2
AcDbTableStyle
  3
ObjectDBX Classes
 90
     4095
 91
        1
280
     0
281
     0
  0
CLASS
  1
DICTIONARYVAR
  2
AcDbDictionaryVar
  3
ObjectDBX Classes
 90
        0
 91
        1
280
     0
281
     0
  0
ENDSEC
  0
SECTION
  2
TABLES
  0
TABLE
  2
VPORT
  5
8
330
0
100
AcDbSymbolTable
 70
     1
  0
VPORT
  5
28
330
8
100
AcDbSymbolTableRecord
100
AcDbViewportTableRecord
  2
*Active
 70
     0
 10
0.0
 20
0.0
 11
1.0
 21
1.0
 12
525.0
 22
742.4999999999999
 13
0.0
 23
0.0
 14
1.0
 24
1.0
 15
0.0
 25
0.0
 16
0.0
 26
0.0
 36
1.0
 17
0.0
 27
0.0
 37
0.0
 40
1485.0
 41
0.7070707070707071
 42
50.0
 43
0.0
 44
0.0
 50
0.0
 51
0.0
 71
     0
 72
   100
 73
     1
 74
     1
 75
     0
 76
     0
 77
     0
 78
     0
281
     0
 65
     1
110
0.0
120
0.0
130
0.0
111
1.0
121
0.0
131
0.0
112
0.0
122
1.0
132
0.0
 79
     0
146
0.0
  0
ENDTAB
  0
TABLE
  2
LTYPE
  5
5
330
0
100
AcDbSymbolTable
 70
    59
  0
LTYPE
  5
29
330
5
100
AcDbSymbolTableRecord
100
AcDbLinetypeTableRecord
  2
ByBlock
 70
     0
  3

 72
    65
 73
     0
 40
0.0
  0
LTYPE
  5
2A
330
5
100
AcDbSymbolTableRecord
100
AcDbLinetypeTableRecord
  2
ByLayer
 70
     0
  3

 72
    65
 73
     0
 40
0.0
  0
LTYPE
  5
2B
330
5
100
AcDbSymbolTableRecord
100
AcDbLinetypeTableRecord
  2
Continuous
 70
     0
  3
Solid line
 72
    65
 73
     0
 40
0.0
  0
LTYPE
  5
40
330
5
100
AcDbSymbolTableRecord
100
AcDbLinetypeTableRecord
  2
Section_View_Lines
 70
     0
  3
Section View Lines
 72
    65
 73
     4
 40
0.8406
 49
0.6614
 74
     0
 49
-0.0827
 74
     0
 49
0.0138
 74
     0
 49
-0.0827
 74
     0
  0
LTYPE
  5
41
330
5
100
AcDbSymbolTableRecord
100
AcDbLinetypeTableRecord
  2
CHAIN
 70
     0
  3
Chain ____ _ ____ _ ____ _ ____ _ ____ _ ____
 72
    65
 73
     4
 40
0.3543
 49
0.2362
 74
     0
 49
-0.0295
 74
     0
 49
0.0591
 74
     0
 49
-0.0295
 74
     0
  0
LTYPE
  5
42
330
5
100
AcDbSymbolTableRecord
100
AcDbLinetypeTableRecord
  2
DASH_DOT
 70
     0
  3
Dash dot _._._._._._._._._._._._._._._.
 72
    65
 73
     4
 40
0.37
 49
0.24
 74
     0
 49
-0.06
 74
     0
 49
0.01
 74
     0
 49
-0.06
 74
     0
  0
LTYPE
  5
43
330
5
100
AcDbSymbolTableRecord
100
AcDbLinetypeTableRecord
  2
DASH_DOUBLE_DOT
 70
     0
  3
Dash Double Dot __ __ . __ __ . __ __ . __ _
 72
    65
 73
     6
 40
0.4398
 49
0.24
 74
     0
 49
-0.06
 74
     0
 49
0.0098
 74
     0
 49
-0.06
 74
     0
 49
0.01
 74
     0
 49
-0.06
 74
     0
  0
LTYPE
  5
44
330
5
100
AcDbSymbolTableRecord
100
AcDbLinetypeTableRecord
  2
DASH_TRIPLE_DOT
 70
     0
  3
Dash Triple-Dot _ . . . _ . . . _ . . . _
 72
    65
 73
     8
 40
0.51
 49
0.24
 74
     0
 49
-0.06
 74
     0
 49
0.01
 74
     0
 49
-0.06
 74
     0
 49
0.01
 74
     0
 49
-0.06
 74
     0
 49
0.01
 74
     0
 49
-0.06
 74
     0
  0
LTYPE
  5
45
330
5
100
AcDbSymbolTableRecord
100
AcDbLinetypeTableRecord
  2
DASHED
 70
     0
  3
Dashed __ __ __ __ __ __ __ __ __ __ __ __ __ _
 72
    65
 73
     2
 40
0.2067
 49
0.1654
 74
     0
 49
-0.0413
 74
     0
  0
LTYPE
  5
46
330
5
100
AcDbSymbolTableRecord
100
AcDbLinetypeTableRecord
  2
DASHED_SPACE
 70
     0
  3
Dashed Space _._._._._._._._._._._._._._._.
 72
    65
 73
     2
 40
0.2067
 49
0.1654
 74
     0
 49
-0.0413
 74
     0
  0
LTYPE
  5
47
330
5
100
AcDbSymbolTableRecord
100
AcDbLinetypeTableRecord
  2
DOTTED
 70
     0
  3
Dotted . . . . . . . . . . . . . . . . . . . . 
 72
    65
 73
     2
 40
0.0482
 49
0.0069
 74
     0
 49
-0.0413
 74
     0
  0
LTYPE
  5
48
330
5
100
AcDbSymbolTableRecord
100
AcDbLinetypeTableRecord
  2
DOUBLE_DASH_CHAIN
 70
     0
  3
Double Dash Chain ___ _ _ ___ _ _ ___ _ _ ___ _
 72
    65
 73
     6
 40
1.240299999999999
 49
0.6614
 74
     0
 49
-0.0827
 74
     0
 49
0.1654
 74
     0
 49
-0.0827
 74
     0
 49
0.1654
 74
     0
 49
-0.0827
 74
     0
  0
LTYPE
  5
49
330
5
100
AcDbSymbolTableRecord
100
AcDbLinetypeTableRecord
  2
DOUBLE_DASH_DOT
 70
     0
  3
Double Dash Dot __ __ . __ __ . __ __ . __ _
 72
    65
 73
     6
 40
0.67
 49
0.24
 74
     0
 49
-0.06
 74
     0
 49
0.24
 74
     0
 49
-0.06
 74
     0
 49
0.01
 74
     0
 49
-0.06
 74
     0
  0
LTYPE
  5
4A
330
5
100
AcDbSymbolTableRecord
100
AcDbLinetypeTableRecord
  2
DOUBLE_DASH_DOUBLE_DOT
 70
     0
  3
Double-dash double-dot _ _ . . _ _ . . _
 72
    65
 73
     8
 40
0.7400000000000001
 49
0.24
 74
     0
 49
-0.06
 74
     0
 49
0.24
 74
     0
 49
-0.06
 74
     0
 49
0.01
 74
     0
 49
-0.06
 74
     0
 49
0.01
 74
     0
 49
-0.06
 74
     0
  0
LTYPE
  5
4B
330
5
100
AcDbSymbolTableRecord
100
AcDbLinetypeTableRecord
  2
DOUBLE_DASH_TRIPLE_DOT
 70
     0
  3
Double Dash Triple Dot __ __ . . . __ __ . . .
 72
    65
 73
    10
 40
0.8100000000000001
 49
0.24
 74
     0
 49
-0.06
 74
     0
 49
0.24
 74
     0
 49
-0.06
 74
     0
 49
0.01
 74
     0
 49
-0.06
 74
     0
 49
0.01
 74
     0
 49
-0.06
 74
     0
 49
0.01
 74
     0
 49
-0.06
 74
     0
  0
LTYPE
  5
4C
330
5
100
AcDbSymbolTableRecord
100
AcDbLinetypeTableRecord
  2
LONG_DASH_DOTTED
 70
     0
  3
Long-Dash Dot ____ . ____ . ____ . ____ . _
 72
    65
 73
     4
 40
0.3001
 49
0.2362
 74
     0
 49
-0.0295
 74
     0
 49
0.0049
 74
     0
 49
-0.0295
 74
     0
  0
LTYPE
  5
4D
330
5
100
AcDbSymbolTableRecord
100
AcDbLinetypeTableRecord
  2
LONG_DASH_DOUBLE_DOT
 70
     0
  3
Long Dash Double Dot ____ . . ____ . . ____ . .
 72
    65
 73
     6
 40
0.3345
 49
0.2362
 74
     0
 49
-0.0295
 74
     0
 49
0.0049
 74
     0
 49
-0.0295
 74
     0
 49
0.0049
 74
     0
 49
-0.0295
 74
     0
  0
LTYPE
  5
4E
330
5
100
AcDbSymbolTableRecord
100
AcDbLinetypeTableRecord
  2
LONG_DASH_TRIPLE_DOT
 70
     0
  3
Long Dash Triple Dot ____ ... ____ ... ____
 72
    65
 73
     8
 40
0.75
 49
0.48
 74
     0
 49
-0.06
 74
     0
 49
0.01
 74
     0
 49
-0.06
 74
     0
 49
0.01
 74
     0
 49
-0.06
 74
     0
 49
0.01
 74
     0
 49
-0.06
 74
     0
  0
LTYPE
  5
4F
330
5
100
AcDbSymbolTableRecord
100
AcDbLinetypeTableRecord
  2
BORDER
 70
     0
  3
Border __ __ . __ __ . __ __ . __ __ . __ __ .
 72
    65
 73
     6
 40
44.45
 49
12.7
 74
     0
 49
-6.349999999999999
 74
     0
 49
12.7
 74
     0
 49
-6.349999999999999
 74
     0
 49
0.0
 74
     0
 49
-6.349999999999999
 74
     0
  0
LTYPE
  5
50
330
5
100
AcDbSymbolTableRecord
100
AcDbLinetypeTableRecord
  2
BORDER2
 70
     0
  3
Border (.5x) __.__.__.__.__.__.__.__.__.__.__.
 72
    65
 73
     6
 40
22.225
 49
6.349999999999999
 74
     0
 49
-3.174999999999999
 74
     0
 49
6.349999999999999
 74
     0
 49
-3.174999999999999
 74
     0
 49
0.0
 74
     0
 49
-3.174999999999999
 74
     0
  0
LTYPE
  5
51
330
5
100
AcDbSymbolTableRecord
100
AcDbLinetypeTableRecord
  2
BORDERX2
 70
     0
  3
Border (2x) ____  ____  .  ____  ____  .  ___
 72
    65
 73
     6
 40
88.9
 49
25.4
 74
     0
 49
-12.7
 74
     0
 49
25.4
 74
     0
 49
-12.7
 74
     0
 49
0.0
 74
     0
 49
-12.7
 74
     0
  0
LTYPE
  5
52
330
5
100
AcDbSymbolTableRecord
100
AcDbLinetypeTableRecord
  2
CENTER
 70
     0
  3
Center ____ _ ____ _ ____ _ ____ _ ____ _ ____
 72
    65
 73
     4
 40
50.8
 49
31.75
 74
     0
 49
-6.349999999999999
 74
     0
 49
6.349999999999999
 74
     0
 49
-6.349999999999999
 74
     0
  0
LTYPE
  5
53
330
5
100
AcDbSymbolTableRecord
100
AcDbLinetypeTableRecord
  2
CENTER2
 70
     0
  3
Center (.5x) ___ _ ___ _ ___ _ ___ _ ___ _ ___
 72
    65
 73
     4
 40
28.575
 49
19.05
 74
     0
 49
-3.174999999999999
 74
     0
 49
3.174999999999999
 74
     0
 49
-3.174999999999999
 74
     0
  0
LTYPE
  5
54
330
5
100
AcDbSymbolTableRecord
100
AcDbLinetypeTableRecord
  2
CENTERX2
 70
     0
  3
Center (2x) ________  __  ________  __  _____
 72
    65
 73
     4
 40
101.6
 49
63.5
 74
     0
 49
-12.7
 74
     0
 49
12.7
 74
     0
 49
-12.7
 74
     0
  0
LTYPE
  5
55
330
5
100
AcDbSymbolTableRecord
100
AcDbLinetypeTableRecord
  2
DASHDOT2
 70
     0
  3
Dash dot (.5x) _._._._._._._._._._._._._._._.
 72
    65
 73
     4
 40
12.7
 49
6.349999999999999
 74
     0
 49
-3.174999999999999
 74
     0
 49
0.0
 74
     0
 49
-3.174999999999999
 74
     0
  0
LTYPE
  5
56
330
5
100
AcDbSymbolTableRecord
100
AcDbLinetypeTableRecord
  2
DASHDOTX2
 70
     0
  3
Dash dot (2x) ____  .  ____  .  ____  .  ___
 72
    65
 73
     4
 40
50.8
 49
25.4
 74
     0
 49
-12.7
 74
     0
 49
0.0
 74
     0
 49
-12.7
 74
     0
  0
LTYPE
  5
57
330
5
100
AcDbSymbolTableRecord
100
AcDbLinetypeTableRecord
  2
DASHED2
 70
     0
  3
Dashed (.5x) _ _ _ _ _ _ _ _ _ _ _ _ _ _ _ _ _
 72
    65
 73
     2
 40
9.524999999999998
 49
6.349999999999999
 74
     0
 49
-3.174999999999999
 74
     0
  0
LTYPE
  5
58
330
5
100
AcDbSymbolTableRecord
100
AcDbLinetypeTableRecord
  2
DASHEDX2
 70
     0
  3
Dashed (2x) ____  ____  ____  ____  ____  ___
 72
    65
 73
     2
 40
38.1
 49
25.4
 74
     0
 49
-12.7
 74
     0
  0
LTYPE
  5
59
330
5
100
AcDbSymbolTableRecord
100
AcDbLinetypeTableRecord
  2
DIVIDE
 70
     0
  3
Divide ____ . . ____ . . ____ . . ____ . . ____
 72
    65
 73
     6
 40
31.75
 49
12.7
 74
     0
 49
-6.349999999999999
 74
     0
 49
0.0
 74
     0
 49
-6.349999999999999
 74
     0
 49
0.0
 74
     0
 49
-6.349999999999999
 74
     0
  0
LTYPE
  5
5A
330
5
100
AcDbSymbolTableRecord
100
AcDbLinetypeTableRecord
  2
DIVIDE2
 70
     0
  3
Divide (.5x) __..__..__..__..__..__..__..__.._
 72
    65
 73
     6
 40
15.875
 49
6.349999999999999
 74
     0
 49
-3.174999999999999
 74
     0
 49
0.0
 74
     0
 49
-3.174999999999999
 74
     0
 49
0.0
 74
     0
 49
-3.174999999999999
 74
     0
  0
LTYPE
  5
5B
330
5
100
AcDbSymbolTableRecord
100
AcDbLinetypeTableRecord
  2
DIVIDEX2
 70
     0
  3
Divide (2x) ________  .  .  ________  .  .  _
 72
    65
 73
     6
 40
63.49999999999999
 49
25.4
 74
     0
 49
-12.7
 74
     0
 49
0.0
 74
     0
 49
-12.7
 74
     0
 49
0.0
 74
     0
 49
-12.7
 74
     0
  0
LTYPE
  5
5C
330
5
100
AcDbSymbolTableRecord
100
AcDbLinetypeTableRecord
  2
DOT
 70
     0
  3
Dot . . . . . . . . . . . . . . . . . . . . . .
 72
    65
 73
     2
 40
6.349999999999999
 49
0.0
 74
     0
 49
-6.349999999999999
 74
     0
  0
LTYPE
  5
5D
330
5
100
AcDbSymbolTableRecord
100
AcDbLinetypeTableRecord
  2
DOT2
 70
     0
  3
Dot (.5x) .....................................
 72
    65
 73
     2
 40
3.174999999999999
 49
0.0
 74
     0
 49
-3.174999999999999
 74
     0
  0
LTYPE
  5
5E
330
5
100
AcDbSymbolTableRecord
100
AcDbLinetypeTableRecord
  2
DOTX2
 70
     0
  3
Dot (2x) .  .  .  .  .  .  .  .  .  .  .  .  . 
 72
    65
 73
     2
 40
12.7
 49
0.0
 74
     0
 49
-12.7
 74
     0
  0
LTYPE
  5
5F
330
5
100
AcDbSymbolTableRecord
100
AcDbLinetypeTableRecord
  2
HIDDEN
 70
     0
  3
Hidden __ __ __ __ __ __ __ __ __ __ __ __ __ _
 72
    65
 73
     2
 40
9.524999999999998
 49
6.349999999999999
 74
     0
 49
-3.174999999999999
 74
     0
  0
LTYPE
  5
60
330
5
100
AcDbSymbolTableRecord
100
AcDbLinetypeTableRecord
  2
HIDDEN2
 70
     0
  3
Hidden (.5x) _ _ _ _ _ _ _ _ _ _ _ _ _ _ _ _ _
 72
    65
 73
     2
 40
4.762499999999999
 49
3.174999999999999
 74
     0
 49
-1.587499999999999
 74
     0
  0
LTYPE
  5
61
330
5
100
AcDbSymbolTableRecord
100
AcDbLinetypeTableRecord
  2
HIDDENX2
 70
     0
  3
Hidden (2x) ____ ____ ____ ____ ____ ____ ____
 72
    65
 73
     2
 40
19.05
 49
12.7
 74
     0
 49
-6.349999999999999
 74
     0
  0
LTYPE
  5
62
330
5
100
AcDbSymbolTableRecord
100
AcDbLinetypeTableRecord
  2
PHANTOM
 70
     0
  3
Phantom ______  __  __  ______  __  __  ______
 72
    65
 73
     6
 40
63.5
 49
31.75
 74
     0
 49
-6.349999999999999
 74
     0
 49
6.349999999999999
 74
     0
 49
-6.349999999999999
 74
     0
 49
6.349999999999999
 74
     0
 49
-6.349999999999999
 74
     0
  0
LTYPE
  5
63
330
5
100
AcDbSymbolTableRecord
100
AcDbLinetypeTableRecord
  2
PHANTOM2
 70
     0
  3
Phantom (.5x) ___ _ _ ___ _ _ ___ _ _ ___ _ _
 72
    65
 73
     6
 40
31.75
 49
15.875
 74
     0
 49
-3.174999999999999
 74
     0
 49
3.174999999999999
 74
     0
 49
-3.174999999999999
 74
     0
 49
3.174999999999999
 74
     0
 49
-3.174999999999999
 74
     0
  0
LTYPE
  5
64
330
5
100
AcDbSymbolTableRecord
100
AcDbLinetypeTableRecord
  2
PHANTOMX2
 70
     0
  3
Phantom (2x) ____________    ____    ____   _
 72
    65
 73
     6
 40
127.0
 49
63.5
 74
     0
 49
-12.7
 74
     0
 49
12.7
 74
     0
 49
-12.7
 74
     0
 49
12.7
 74
     0
 49
-12.7
 74
     0
  0
LTYPE
  5
65
330
5
100
AcDbSymbolTableRecord
100
AcDbLinetypeTableRecord
  2
ACAD_ISO02W100
 70
     0
  3
ISO dash __ __ __ __ __ __ __ __ __ __ __ __ __
 72
    65
 73
     2
 40
15.0
 49
12.0
 74
     0
 49
-3.0
 74
     0
  0
LTYPE
  5
66
330
5
100
AcDbSymbolTableRecord
100
AcDbLinetypeTableRecord
  2
ACAD_ISO03W100
 70
     0
  3
ISO dash space __    __    __    __    __    __
 72
    65
 73
     2
 40
30.0
 49
12.0
 74
     0
 49
-18.0
 74
     0
  0
LTYPE
  5
67
330
5
100
AcDbSymbolTableRecord
100
AcDbLinetypeTableRecord
  2
ACAD_ISO04W100
 70
     0
  3
ISO long-dash dot ____ . ____ . ____ . ____ . _
 72
    65
 73
     4
 40
30.0
 49
24.0
 74
     0
 49
-3.0
 74
     0
 49
0.0
 74
     0
 49
-3.0
 74
     0
  0
LTYPE
  5
68
330
5
100
AcDbSymbolTableRecord
100
AcDbLinetypeTableRecord
  2
ACAD_ISO05W100
 70
     0
  3
ISO long-dash double-dot ____ .. ____ .. ____ .
 72
    65
 73
     6
 40
33.0
 49
24.0
 74
     0
 49
-3.0
 74
     0
 49
0.0
 74
     0
 49
-3.0
 74
     0
 49
0.0
 74
     0
 49
-3.0
 74
     0
  0
LTYPE
  5
69
330
5
100
AcDbSymbolTableRecord
100
AcDbLinetypeTableRecord
  2
ACAD_ISO06W100
 70
     0
  3
ISO long-dash triple-dot ____ ... ____ ... ____
 72
    65
 73
     8
 40
36.0
 49
24.0
 74
     0
 49
-3.0
 74
     0
 49
0.0
 74
     0
 49
-3.0
 74
     0
 49
0.0
 74
     0
 49
-3.0
 74
     0
 49
0.0
 74
     0
 49
-3.0
 74
     0
  0
LTYPE
  5
6A
330
5
100
AcDbSymbolTableRecord
100
AcDbLinetypeTableRecord
  2
ACAD_ISO07W100
 70
     0
  3
ISO dot . . . . . . . . . . . . . . . . . . . .
 72
    65
 73
     2
 40
3.0
 49
0.0
 74
     0
 49
-3.0
 74
     0
  0
LTYPE
  5
6B
330
5
100
AcDbSymbolTableRecord
100
AcDbLinetypeTableRecord
  2
ACAD_ISO08W100
 70
     0
  3
ISO long-dash short-dash ____ __ ____ __ ____ _
 72
    65
 73
     4
 40
36.0
 49
24.0
 74
     0
 49
-3.0
 74
     0
 49
6.0
 74
     0
 49
-3.0
 74
     0
  0
LTYPE
  5
6C
330
5
100
AcDbSymbolTableRecord
100
AcDbLinetypeTableRecord
  2
ACAD_ISO09W100
 70
     0
  3
ISO long-dash double-short-dash ____ __ __ ____
 72
    65
 73
     6
 40
45.0
 49
24.0
 74
     0
 49
-3.0
 74
     0
 49
6.0
 74
     0
 49
-3.0
 74
     0
 49
6.0
 74
     0
 49
-3.0
 74
     0
  0
LTYPE
  5
6D
330
5
100
AcDbSymbolTableRecord
100
AcDbLinetypeTableRecord
  2
ACAD_ISO10W100
 70
     0
  3
ISO dash dot __ . __ . __ . __ . __ . __ . __ .
 72
    65
 73
     4
 40
18.0
 49
12.0
 74
     0
 49
-3.0
 74
     0
 49
0.0
 74
     0
 49
-3.0
 74
     0
  0
LTYPE
  5
6E
330
5
100
AcDbSymbolTableRecord
100
AcDbLinetypeTableRecord
  2
ACAD_ISO11W100
 70
     0
  3
ISO double-dash dot __ __ . __ __ . __ __ . __ 
 72
    65
 73
     6
 40
33.0
 49
12.0
 74
     0
 49
-3.0
 74
     0
 49
12.0
 74
     0
 49
-3.0
 74
     0
 49
0.0
 74
     0
 49
-3.0
 74
     0
  0
LTYPE
  5
6F
330
5
100
AcDbSymbolTableRecord
100
AcDbLinetypeTableRecord
  2
ACAD_ISO12W100
 70
     0
  3
ISO dash double-dot __ . . __ . . __ . . __ . .
 72
    65
 73
     6
 40
21.0
 49
12.0
 74
     0
 49
-3.0
 74
     0
 49
0.0
 74
     0
 49
-3.0
 74
     0
 49
0.0
 74
     0
 49
-3.0
 74
     0
  0
LTYPE
  5
70
330
5
100
AcDbSymbolTableRecord
100
AcDbLinetypeTableRecord
  2
ACAD_ISO13W100
 70
     0
  3
ISO double-dash double-dot __ __ . . __ __ . . 
 72
    65
 73
     8
 40
36.0
 49
12.0
 74
     0
 49
-3.0
 74
     0
 49
12.0
 74
     0
 49
-3.0
 74
     0
 49
0.0
 74
     0
 49
-3.0
 74
     0
 49
0.0
 74
     0
 49
-3.0
 74
     0
  0
LTYPE
  5
71
330
5
100
AcDbSymbolTableRecord
100
AcDbLinetypeTableRecord
  2
ACAD_ISO14W100
 70
     0
  3
ISO dash triple-dot __ . . . __ . . . __ . . . 
 72
    65
 73
     8
 40
24.0
 49
12.0
 74
     0
 49
-3.0
 74
     0
 49
0.0
 74
     0
 49
-3.0
 74
     0
 49
0.0
 74
     0
 49
-3.0
 74
     0
 49
0.0
 74
     0
 49
-3.0
 74
     0
  0
LTYPE
  5
72
330
5
100
AcDbSymbolTableRecord
100
AcDbLinetypeTableRecord
  2
ACAD_ISO15W100
 70
     0
  3
ISO double-dash triple-dot __ __ . . . __ __ . 
 72
    65
 73
    10
 40
39.0
 49
12.0
 74
     0
 49
-3.0
 74
     0
 49
12.0
 74
     0
 49
-3.0
 74
     0
 49
0.0
 74
     0
 49
-3.0
 74
     0
 49
0.0
 74
     0
 49
-3.0
 74
     0
 49
0.0
 74
     0
 49
-3.0
 74
     0
  0
LTYPE
  5
75
330
5
100
AcDbSymbolTableRecord
100
AcDbLinetypeTableRecord
  2
FENCELINE1
 70
     0
  3
Fenceline circle ----0-----0----0-----0----0---
 72
    65
 73
     4
 40
36.83
 49
6.349999999999999
 74
     0
 49
-2.54
 74
     4
 75
   133
340
74
 46
2.54
 50
0.0
 44
-2.54
 45
0.0
 49
-2.54
 74
     0
 49
25.4
 74
     0
  0
LTYPE
  5
76
330
5
100
AcDbSymbolTableRecord
100
AcDbLinetypeTableRecord
  2
FENCELINE2
 70
     0
  3
Fenceline square ----[]-----[]----[]-----[]----
 72
    65
 73
     4
 40
36.83
 49
6.349999999999999
 74
     0
 49
-2.54
 74
     4
 75
   132
340
74
 46
2.54
 50
0.0
 44
-2.54
 45
0.0
 49
-2.54
 74
     0
 49
25.4
 74
     0
  0
LTYPE
  5
77
330
5
100
AcDbSymbolTableRecord
100
AcDbLinetypeTableRecord
  2
TRACKS
 70
     0
  3
Tracks -|-|-|-|-|-|-|-|-|-|-|-|-|-|-|-|-|-|-|-|
 72
    65
 73
     2
 40
7.62
 49
3.81
 74
     4
 75
   130
340
74
 46
6.349999999999999
 50
0.0
 44
0.0
 45
0.0
 49
3.81
 74
     0
  0
LTYPE
  5
78
330
5
100
AcDbSymbolTableRecord
100
AcDbLinetypeTableRecord
  2
BATTING
 70
     0
  3
Batting SSSSSSSSSSSSSSSSSSSSSSSSSSSSSSSSSSSSSSS
 72
    65
 73
     4
 40
10.16254
 49
0.00254
 74
     0
 49
-2.54
 74
     4
 75
   134
340
74
 46
2.54
 50
0.0
 44
-2.54
 45
0.0
 49
-5.08
 74
     4
 75
   134
340
74
 46
2.54
 50
180.0
 44
2.54
 45
0.0
 49
-2.54
 74
     0
  0
LTYPE
  5
79
330
5
100
AcDbSymbolTableRecord
100
AcDbLinetypeTableRecord
  2
HOT_WATER_SUPPLY
 70
     0
  3
Hot water supply ---- HW ---- HW ---- HW ----
 72
    65
 73
     3
 40
22.86
 49
12.7
 74
     0
 49
-5.08
 74
     2
 75
     0
340
26
 46
2.54
 50
0.0
 44
-2.54
 45
-1.27
  9
HW
 49
-5.08
 74
     0
  0
LTYPE
  5
7A
330
5
100
AcDbSymbolTableRecord
100
AcDbLinetypeTableRecord
  2
GAS_LINE
 70
     0
  3
Gas line ----GAS----GAS----GAS----GAS----GAS---
 72
    65
 73
     3
 40
24.13
 49
12.7
 74
     0
 49
-5.08
 74
     2
 75
     0
340
26
 46
2.54
 50
0.0
 44
-2.54
 45
-1.27
  9
GAS
 49
-6.349999999999999
 74
     0
  0
LTYPE
  5
7B
330
5
100
AcDbSymbolTableRecord
100
AcDbLinetypeTableRecord
  2
ZIGZAG
 70
     0
  3
Zig zag /\/\/\/\/\/\/\/\/\/\/\/\/\/\/\/\/\/\/\/
 72
    65
 73
     4
 40
20.32254
 49
0.00254
 74
     0
 49
-5.08
 74
     4
 75
   131
340
74
 46
5.08
 50
0.0
 44
-5.08
 45
0.0
 49
-10.16
 74
     4
 75
   131
340
74
 46
5.08
 50
180.0
 44
5.08
 45
0.0
 49
-5.08
 74
     0
  0
ENDTAB
  0
TABLE
  2
LAYER
  5
2
330
0
100
AcDbSymbolTable
 70
    25
  0
LAYER
  5
25
330
2
100
AcDbSymbolTableRecord
100
AcDbLayerTableRecord
  2
0
 70
     0
 62
     7
  6
Continuous
370
    -3
390
F
  0
LAYER
  5
8B
330
2
100
AcDbSymbolTableRecord
100
AcDbLayerTableRecord
  2
Schraffur (ISO)
 70
     0
 62
     7
  6
Continuous
370
    18
390
F
  0
LAYER
  5
8C
330
2
100
AcDbSymbolTableRecord
100
AcDbLayerTableRecord
  2
Sichtbar (ISO)
 70
     0
 62
     7
  6
Continuous
370
    35
390
F
  0
LAYER
  5
8E
330
2
100
AcDbSymbolTableRecord
100
AcDbLayerTableRecord
  2
Skizziergeometrie (ISO)
 70
     0
 62
     7
  6
Continuous
370
    25
390
F
  0
LAYER
  5
8F
330
2
100
AcDbSymbolTableRecord
100
AcDbLayerTableRecord
  2
Symbol (ISO)
 70
     0
 62
     7
  6
Continuous
370
    25
390
F
  0
LAYER
  5
90
330
2
100
AcDbSymbolTableRecord
100
AcDbLayerTableRecord
  2
Titel (ISO)
 70
     0
 62
     7
  6
Continuous
370
    50
390
F
  0
ENDTAB
  0
TABLE
  2
STYLE
  5
3
330
0
100
AcDbSymbolTable
 70
    11
  0
STYLE
  5
26
330
3
100
AcDbSymbolTableRecord
100
AcDbTextStyleTableRecord
  2
Standard
 70
     0
 40
0.0
 41
1.0
 50
0.0
 71
     0
 42
0.2
  3
isocpeur.ttf
  4

1001
ACAD
1000
ISOCPEUR
1071
      256
  0
STYLE
  5
74
330
3
100
AcDbSymbolTableRecord
100
AcDbTextStyleTableRecord
  2

 70
     1
 40
0.0
 41
1.0
 50
0.0
 71
     0
 42
0.2
  3
ltypeshp.shx
  4

  0
STYLE
  5
94
330
3
100
AcDbSymbolTableRecord
100
AcDbTextStyleTableRecord
  2
Bezeichnungstext (DIN)
 70
     0
 40
0.0
 41
1.0
 50
0.0
 71
     0
 42
0.2
  3
isocpeur.ttf
  4

1001
ACAD
1000
ISOCPEUR
1071
      256
  0
STYLE
  5
95
330
3
100
AcDbSymbolTableRecord
100
AcDbTextStyleTableRecord
  2
Notiztext (DIN)
 70
     0
 40
0.0
 41
1.0
 50
0.0
 71
     0
 42
0.2
  3
isocpeur.ttf
  4

1001
ACAD
1000
ISOCPEUR
1071
      256
  0
STYLE
  5
96
330
3
100
AcDbSymbolTableRecord
100
AcDbTextStyleTableRecord
  2
Plan_Kopf_01.5
 70
     0
 40
0.0
 41
0.899999976158142
 50
0.0
 71
     0
 42
0.2
  3
ARIAL.TTF
  4

1001
ACAD
1000
Arial
1071
      256
  0
STYLE
  5
97
330
3
100
AcDbSymbolTableRecord
100
AcDbTextStyleTableRecord
  2
Plan_Kopf_02.0
 70
     0
 40
0.0
 41
0.899999976158142
 50
0.0
 71
     0
 42
0.2
  3
ARIAL.TTF
  4

1001
ACAD
1000
Arial
1071
      256
  0
STYLE
  5
98
330
3
100
AcDbSymbolTableRecord
100
AcDbTextStyleTableRecord
  2
Plan_Kopf_02.5
 70
     0
 40
0.0
 41
0.899999976158142
 50
0.0
 71
     0
 42
0.2
  3
ARIAL.TTF
  4

1001
ACAD
1000
Arial
1071
      256
  0
STYLE
  5
99
330
3
100
AcDbSymbolTableRecord
100
AcDbTextStyleTableRecord
  2
Plan_Kopf_05.0
 70
     0
 40
0.0
 41
0.899999976158142
 50
0.0
 71
     0
 42
0.2
  3
ARIAL.TTF
  4

1001
ACAD
1000
Arial
1071
      256
  0
STYLE
  5
9A
330
3
100
AcDbSymbolTableRecord
100
AcDbTextStyleTableRecord
  2
Stückliste
 70
     0
 40
0.0
 41
0.899999976158142
 50
0.0
 71
     0
 42
0.2
  3
isocpeur.ttf
  4

1001
ACAD
1000
ISOCPEUR
1071
      256
  0
STYLE
  5
9B
330
3
100
AcDbSymbolTableRecord
100
AcDbTextStyleTableRecord
  2
TolListe_12
 70
     0
 40
0.0
 41
1.0
 50
0.0
 71
     0
 42
0.2
  3
isocpeur.ttf
  4

1001
ACAD
1000
ISOCPEUR
1071
      256
  0
STYLE
  5
155
330
3
100
AcDbSymbolTableRecord
100
AcDbTextStyleTableRecord
  2
TolListe_12-Arial
 70
     0
 40
0.0
 41
1.100000023841857
 50
0.0
 71
     0
 42
0.2
  3

  4

1001
ACAD
1000
Arial
1071
-33554176
  0
ENDTAB
  0
TABLE
  2
VIEW
  5
6
330
0
100
AcDbSymbolTable
 70
     0
  0
ENDTAB
  0
TABLE
  2
UCS
  5
7
330
0
100
AcDbSymbolTable
 70
     0
  0
ENDTAB
  0
TABLE
  2
APPID
  5
9
330
0
100
AcDbSymbolTable
 70
     1
  0
APPID
  5
27
330
9
100
AcDbSymbolTableRecord
100
AcDbRegAppTableRecord
  2
ACAD
 70
     0
  0
ENDTAB
  0
TABLE
  2
DIMSTYLE
  5
A
330
0
100
AcDbSymbolTable
 70
    11
100
AcDbDimStyleTable
 71
     0
  0
DIMSTYLE
105
3F
330
A
100
AcDbSymbolTableRecord
100
AcDbDimStyleTableRecord
  2
Standard
 70
     0
340
26
  0
DIMSTYLE
105
AA
330
A
100
AcDbSymbolTableRecord
100
AcDbDimStyleTableRecord
  2
Sonstiges Objekt (DIN)
 70
     0
 40
5.0
 41
5.0
 42
0.0
 43
6.0
 44
3.174999999999999
 45
0.00000001
 46
10.0
 77
     1
 78
     8
 79
     2
140
5.25
143
0.03937
146
0.6666666666666666
147
0.8
171
     3
172
     1
176
   256
177
   256
178
   256
271
     2
272
     2
274
     3
278
    44
284
     8
286
     8
340
94
341
9C
371
    -1
372
    -1
  0
DIMSTYLE
105
AB
330
A
100
AcDbSymbolTableRecord
100
AcDbDimStyleTableRecord
  2
Sonstiges Objekt (DIN)$7
 70
     0
 40
5.0
 41
5.0
 42
0.0
 43
6.0
 44
3.174999999999999
 45
0.00000001
 46
10.0
 77
     1
 78
     8
 79
     2
140
5.25
143
0.03937
146
0.6666666666666666
147
0.8
171
     3
172
     1
176
   256
177
   256
178
   256
271
     2
272
     2
274
     3
278
    44
284
     8
286
     8
340
94
341
9C
371
    25
372
    -1
  0
DIMSTYLE
105
AC
330
A
100
AcDbSymbolTableRecord
100
AcDbDimStyleTableRecord
  2
Standard - Methode 2a (DIN)
 70
     0
 40
5.0
 41
2.5
 42
0.8
 43
6.0
 44
3.174999999999999
 45
0.00000001
 46
10.0
 77
     1
 78
     8
 79
     2
140
3.5
143
0.03937
147
0.8
170
     1
171
     3
172
     1
176
   256
177
   256
178
   256
179
     2
271
     2
272
     2
274
     3
278
    44
284
     8
286
     8
340
95
371
    -1
372
    -1
  0
DIMSTYLE
105
AD
330
A
100
AcDbSymbolTableRecord
100
AcDbDimStyleTableRecord
  2
Standard - Methode 2a (DIN)$7
 70
     0
 40
5.0
 41
2.5
 42
0.8
 43
6.0
 44
3.174999999999999
 45
0.00000001
 46
10.0
 77
     1
 78
     8
 79
     2
140
3.5
143
0.03937
147
0.8
170
     1
171
     3
172
     1
176
   256
177
   256
178
   256
179
     2
271
     2
272
     2
274
     3
278
    44
284
     8
286
     8
340
95
371
    -1
372
    -1
  0
DIMSTYLE
105
AE
330
A
100
AcDbSymbolTableRecord
100
AcDbDimStyleTableRecord
  2
Standard - Methode 2b (DIN)
 70
     0
 40
5.0
 41
2.5
 42
0.0
 43
6.0
 44
3.174999999999999
 45
0.00000001
 46
10.0
 77
     1
 78
     8
 79
     2
140
3.5
143
0.03937
147
0.8
171
     3
172
     1
176
   256
177
   256
178
   256
271
     2
272
     2
274
     3
278
    44
284
     8
286
     8
340
95
371
    -1
372
    -1
  0
DIMSTYLE
105
AF
330
A
100
AcDbSymbolTableRecord
100
AcDbDimStyleTableRecord
  2
Standard - Methode 2b (DIN)$7
 70
     0
 40
5.0
 41
2.5
 42
0.0
 43
6.0
 44
3.174999999999999
 45
0.00000001
 46
10.0
 77
     1
 78
     8
 79
     2
140
3.5
143
0.03937
147
0.8
171
     3
172
     1
176
   256
177
   256
178
   256
271
     2
272
     2
274
     3
278
    44
284
     8
286
     8
340
95
371
    -1
372
    -1
  0
DIMSTYLE
105
B0
330
A
100
AcDbSymbolTableRecord
100
AcDbDimStyleTableRecord
  2
Standard (DIN)
 70
     0
 40
5.0
 41
2.5
 42
0.8
 43
6.0
 44
3.174999999999999
 45
0.00000001
 46
10.0
 73
     0
 74
     0
 77
     1
 78
     8
 79
     2
140
3.5
143
0.03937
147
0.8
171
     3
172
     1
176
   256
177
   256
178
   256
271
     2
272
     3
274
     3
278
    44
340
95
371
    -1
372
    -1
  0
DIMSTYLE
105
B1
330
A
100
AcDbSymbolTableRecord
100
AcDbDimStyleTableRecord
  2
Standard (DIN)$7
 70
     0
 40
5.0
 41
2.5
 42
0.8
 43
6.0
 44
3.174999999999999
 45
0.00000001
 46
10.0
 73
     0
 74
     0
 77
     1
 78
     8
 79
     2
140
3.5
143
0.03937
147
0.8
171
     3
172
     1
176
   256
177
   256
178
   256
271
     2
272
     3
274
     3
278
    44
340
95
371
    -1
372
    -1
  0
DIMSTYLE
105
B2
330
A
100
AcDbSymbolTableRecord
100
AcDbDimStyleTableRecord
  2
Alternativ (ISO)
 70
     0
 40
5.0
 41
2.5
340
26
342
B3
  0
DIMSTYLE
105
C4
330
A
100
AcDbSymbolTableRecord
100
AcDbDimStyleTableRecord
  2
Bezug (ISO)
 70
     0
 40
5.0
 41
2.5
340
26
342
B3
  0
ENDTAB
  0
TABLE
  2
BLOCK_RECORD
  5
1
330
0
100
AcDbSymbolTable
 70
     8
  0
BLOCK_RECORD
  5
37
330
1
100
AcDbSymbolTableRecord
100
AcDbBlockTableRecord
  2
*Model_Space
340
3A
  0
BLOCK_RECORD
  5
33
330
1
100
AcDbSymbolTableRecord
100
AcDbBlockTableRecord
  2
*Paper_Space
340
36
  0
BLOCK_RECORD
  5
3B
330
1
100
AcDbSymbolTableRecord
100
AcDbBlockTableRecord
  2
*Paper_Space0
340
3E
  0
BLOCK_RECORD
  5
9C
330
1
100
AcDbSymbolTableRecord
100
AcDbBlockTableRecord
  2
Filled-1
340
0
  0
BLOCK_RECORD
  5
B3
330
1
100
AcDbSymbolTableRecord
100
AcDbBlockTableRecord
  2
_Closed
340
0
  0
BLOCK_RECORD
  5
BA
330
1
100
AcDbSymbolTableRecord
100
AcDbBlockTableRecord
  2
DatumFilled45
340
0
  0
BLOCK_RECORD
  5
C5
330
1
100
AcDbSymbolTableRecord
100
AcDbBlockTableRecord
  2
Tolleranz Liste
340
0
  0
BLOCK_RECORD
  5
15D
330
1
100
AcDbSymbolTableRecord
100
AcDbBlockTableRecord
  2
ProtoTyp
340
0
  0
BLOCK_RECORD
  5
162
330
1
100
AcDbSymbolTableRecord
100
AcDbBlockTableRecord
  2
Logo
340
0
  0
BLOCK_RECORD
  5
1DF
330
1
100
AcDbSymbolTableRecord
100
AcDbBlockTableRecord
  2
P gross
340
0
102
{BLKREFS
331
750
331
751
331
752
102
}
  0
ENDTAB
  0
ENDSEC
  0
SECTION
  2
BLOCKS
  0
BLOCK
  5
38
330
37
100
AcDbEntity
  8
0
100
AcDbBlockBegin
  2
*Model_Space
 70
     0
 10
0.0
 20
0.0
 30
0.0
  3
*Model_Space
  1

  0
ENDBLK
  5
39
330
37
100
AcDbEntity
  8
0
100
AcDbBlockEnd
  0
BLOCK
  5
34
330
33
100
AcDbEntity
 67
     1
  8
0
100
AcDbBlockBegin
  2
*Paper_Space
 70
     0
 10
0.0
 20
0.0
 30
0.0
  3
*Paper_Space
  1

  0
ENDBLK
  5
35
330
33
100
AcDbEntity
 67
     1
  8
0
100
AcDbBlockEnd
  0
BLOCK
  5
3C
330
3B
100
AcDbEntity
 67
     1
  8
0
100
AcDbBlockBegin
  2
*Paper_Space0
 70
     0
 10
0.0
 20
0.0
 30
0.0
  3
*Paper_Space0
  1

  0
ENDBLK
  5
3D
330
3B
100
AcDbEntity
 67
     1
  8
0
100
AcDbBlockEnd
  0
BLOCK
  5
9D
330
9C
100
AcDbEntity
  8
0
100
AcDbBlockBegin
  2
Filled-1
 70
     0
 10
0.0
 20
0.0
 30
0.0
  3
Filled-1
  1

  0
LINE
  5
9F
330
9C
100
AcDbEntity
  8
0
 62
     0
100
AcDbLine
 10
-1.0
 20
0.0
 30
0.0
 11
0.0
 21
0.0
 31
0.0
  0
POLYLINE
  5
A0
330
9C
100
AcDbEntity
  8
0
 62
     0
100
AcDb2dPolyline
 66
     1
 10
0.0
 20
0.0
 30
0.0
 70
   128
  0
VERTEX
  5
A1
330
A0
100
AcDbEntity
  8
0
 62
     0
100
AcDbVertex
100
AcDb2dVertex
 10
-1.0
 20
-0.1
 30
0.0
  0
VERTEX
  5
A2
330
A0
100
AcDbEntity
  8
0
 62
     0
100
AcDbVertex
100
AcDb2dVertex
 10
0.0
 20
0.0
 30
0.0
  0
VERTEX
  5
A4
330
A0
100
AcDbEntity
  8
0
 62
     0
100
AcDbVertex
100
AcDb2dVertex
 10
-1.0
 20
0.1
 30
0.0
  0
VERTEX
  5
A5
330
A0
100
AcDbEntity
  8
0
 62
     0
100
AcDbVertex
100
AcDb2dVertex
 10
-1.0
 20
-0.1
 30
0.0
  0
SEQEND
  5
A3
330
A0
100
AcDbEntity
  8
0
 62
     0
  0
SOLID
  5
A6
330
9C
100
AcDbEntity
  8
0
 62
     0
100
AcDbTrace
 10
-1.0
 20
-0.1
 30
0.0
 11
0.0
 21
0.0
 31
0.0
 12
-1.0
 22
0.1
 32
0.0
 13
-1.0
 23
-0.1
 33
0.0
  0
LINE
  5
A7
330
9C
100
AcDbEntity
  8
0
 62
     0
100
AcDbLine
 10
-1.0
 20
-0.1
 30
0.0
 11
0.0
 21
0.0
 31
0.0
  0
LINE
  5
A8
330
9C
100
AcDbEntity
  8
0
 62
     0
100
AcDbLine
 10
0.0
 20
0.0
 30
0.0
 11
-1.0
 21
0.1
 31
0.0
  0
LINE
  5
A9
330
9C
100
AcDbEntity
  8
0
 62
     0
100
AcDbLine
 10
-1.0
 20
0.1
 30
0.0
 11
-1.0
 21
-0.1
 31
0.0
  0
ENDBLK
  5
9E
330
9C
100
AcDbEntity
  8
0
100
AcDbBlockEnd
  0
BLOCK
  5
B8
330
B3
100
AcDbEntity
  8
0
100
AcDbBlockBegin
  2
_Closed
 70
     0
 10
0.0
 20
0.0
 30
0.0
  3
_Closed
  1

  0
LINE
  5
B4
330
B3
100
AcDbEntity
  8
0
  6
ByBlock
 62
     0
370
    -2
100
AcDbLine
 10
-1.0
 20
0.1666666666666666
 30
0.0
 11
0.0
 21
0.0
 31
0.0
  0
LINE
  5
B5
330
B3
100
AcDbEntity
  8
0
  6
ByBlock
 62
     0
370
    -2
100
AcDbLine
 10
0.0
 20
0.0
 30
0.0
 11
-1.0
 21
-0.1666666666666666
 31
0.0
  0
LINE
  5
B6
330
B3
100
AcDbEntity
  8
0
  6
ByBlock
 62
     0
370
    -2
100
AcDbLine
 10
-1.0
 20
0.1666666666666666
 30
0.0
 11
-1.0
 21
-0.1666666666666666
 31
0.0
  0
LINE
  5
B7
330
B3
100
AcDbEntity
  8
0
  6
ByBlock
 62
     0
370
    -2
100
AcDbLine
 10
0.0
 20
0.0
 30
0.0
 11
-1.0
 21
0.0
 31
0.0
  0
ENDBLK
  5
B9
330
B3
100
AcDbEntity
  8
0
100
AcDbBlockEnd
  0
BLOCK
  5
BB
330
BA
100
AcDbEntity
  8
0
100
AcDbBlockBegin
  2
DatumFilled45
 70
     0
 10
0.0
 20
0.0
 30
0.0
  3
DatumFilled45
  1

  0
POLYLINE
  5
BD
330
BA
100
AcDbEntity
  8
0
 62
     0
100
AcDb2dPolyline
 66
     1
 10
0.0
 20
0.0
 30
0.0
 70
   128
  0
VERTEX
  5
BE
330
BD
100
AcDbEntity
  8
0
 62
     0
100
AcDbVertex
100
AcDb2dVertex
 10
0.0
 20
1.0
 30
0.0
  0
VERTEX
  5
BF
330
BD
100
AcDbEntity
  8
0
 62
     0
100
AcDbVertex
100
AcDb2dVertex
 10
0.0
 20
-1.0
 30
0.0
  0
VERTEX
  5
C1
330
BD
100
AcDbEntity
  8
0
 62
     0
100
AcDbVertex
100
AcDb2dVertex
 10
-1.0
 20
0.0
 30
0.0
  0
VERTEX
  5
C2
330
BD
100
AcDbEntity
  8
0
 62
     0
100
AcDbVertex
100
AcDb2dVertex
 10
0.0
 20
1.0
 30
0.0
  0
SEQEND
  5
C0
330
BD
100
AcDbEntity
  8
0
 62
     0
  0
SOLID
  5
C3
330
BA
100
AcDbEntity
  8
0
 62
     0
100
AcDbTrace
 10
0.0
 20
1.0
 30
0.0
 11
0.0
 21
-1.0
 31
0.0
 12
-1.0
 22
0.0
 32
0.0
 13
0.0
 23
1.0
 33
0.0
  0
ENDBLK
  5
BC
330
BA
100
AcDbEntity
  8
0
100
AcDbBlockEnd
  0
BLOCK
  5
C6
330
C5
100
AcDbEntity
  8
0
100
AcDbBlockBegin
  2
Tolleranz Liste
 70
     2
 10
0.0
 20
0.0
 30
0.0
  3
Tolleranz Liste
  1

  0
LINE
  5
C8
330
C5
100
AcDbEntity
  8
Titel (ISO)
 62
     7
100
AcDbLine
 10
-190.0
 20
0.0
 30
0.0
 11
0.0
 21
0.0
 31
0.0
  0
LINE
  5
C9
330
C5
100
AcDbEntity
  8
Titel (ISO)
 62
     7
370
    18
100
AcDbLine
 10
-190.0
 20
2.999999999999989
 30
0.0
 11
0.0
 21
2.999999999999989
 31
0.0
  0
LINE
  5
CA
330
C5
100
AcDbEntity
  8
Titel (ISO)
 62
     7
370
    18
100
AcDbLine
 10
-190.0
 20
5.999999999999978
 30
0.0
 11
0.0
 21
5.999999999999978
 31
0.0
  0
LINE
  5
CB
330
C5
100
AcDbEntity
  8
Titel (ISO)
 62
     7
370
    18
100
AcDbLine
 10
-190.0
 20
8.999999999999968
 30
0.0
 11
0.0
 21
8.999999999999968
 31
0.0
  0
LINE
  5
CC
330
C5
100
AcDbEntity
  8
Titel (ISO)
 62
     7
100
AcDbLine
 10
-190.0
 20
18.99999999999996
 30
0.0
 11
0.0
 21
18.99999999999996
 31
0.0
  0
LINE
  5
CD
330
C5
100
AcDbEntity
  8
Titel (ISO)
 62
     7
370
    18
100
AcDbLine
 10
-130.861111
 20
13.7701170573068
 30
0.0
 11
-130.861111
 21
0.0
 31
0.0
  0
LINE
  5
CE
330
C5
100
AcDbEntity
  8
Titel (ISO)
 62
     7
370
    18
100
AcDbLine
 10
-162.972222
 20
13.7701170573068
 30
0.0
 11
-162.972222
 21
0.0
 31
0.0
  0
LINE
  5
CF
330
C5
100
AcDbEntity
  8
Titel (ISO)
 62
     7
370
    18
100
AcDbLine
 10
-154.944444
 20
13.7701170573068
 30
0.0
 11
-154.944444
 21
0.0
 31
0.0
  0
LINE
  5
D0
330
C5
100
AcDbEntity
  8
Titel (ISO)
 62
     7
370
    18
100
AcDbLine
 10
-146.916667
 20
13.7701170573068
 30
0.0
 11
-146.916667
 21
0.0
 31
0.0
  0
LINE
  5
D1
330
C5
100
AcDbEntity
  8
Titel (ISO)
 62
     7
370
    18
100
AcDbLine
 10
-138.888889
 20
13.7701170573068
 30
0.0
 11
-138.888889
 21
0.0
 31
0.0
  0
LINE
  5
D2
330
C5
100
AcDbEntity
  8
Titel (ISO)
 62
     7
370
    18
100
AcDbLine
 10
-183.25
 20
9.070117057306816
 30
0.0
 11
-183.25
 21
0.0
 31
0.0
  0
LINE
  5
D3
330
C5
100
AcDbEntity
  8
Titel (ISO)
 62
     7
100
AcDbLine
 10
-190.0
 20
18.99999999999996
 30
0.0
 11
-190.0
 21
0.0
 31
0.0
  0
LINE
  5
D4
330
C5
100
AcDbEntity
  8
Titel (ISO)
 62
     7
100
AcDbLine
 10
-171.0
 20
18.99999999999996
 30
0.0
 11
-171.0
 21
0.0
 31
0.0
  0
LINE
  5
D5
330
C5
100
AcDbEntity
  8
Titel (ISO)
 62
     7
370
    18
100
AcDbLine
 10
-190.0
 20
11.99999999999997
 30
0.0
 11
-171.0
 21
11.99999999999995
 31
0.0
  0
LINE
  5
D6
330
C5
100
AcDbEntity
  8
Titel (ISO)
  6
ByBlock
 62
     7
370
    25
100
AcDbLine
 10
-105.0
 20
7.570117057306813
 30
0.0
 11
-103.5
 21
7.570117057306813
 31
0.0
  0
LINE
  5
D7
330
C5
100
AcDbEntity
  8
Titel (ISO)
  6
ByBlock
 62
     7
370
    25
100
AcDbLine
 10
-112.5
 20
7.570117057306813
 30
0.0
 11
-111.0
 21
7.570117057306813
 31
0.0
  0
LINE
  5
D8
330
C5
100
AcDbEntity
  8
Titel (ISO)
 62
     7
370
    18
100
AcDbLine
 10
-122.833333
 20
13.7701170573068
 30
0.0
 11
-122.833333
 21
0.0
 31
0.0
  0
LINE
  5
D9
330
C5
100
AcDbEntity
  8
Titel (ISO)
 62
     7
370
    18
100
AcDbLine
 10
-114.805556
 20
13.7701170573068
 30
0.0
 11
-114.805556
 21
0.0
 31
0.0
  0
LINE
  5
DA
330
C5
100
AcDbEntity
  8
Titel (ISO)
 62
     7
370
    18
100
AcDbLine
 10
-106.777778
 20
13.7701170573068
 30
0.0
 11
-106.777778
 21
0.0
 31
0.0
  0
LINE
  5
DB
330
C5
100
AcDbEntity
  8
Titel (ISO)
 62
     7
100
AcDbLine
 10
-99.25000000000004
 20
18.99999999999996
 30
0.0
 11
-99.25000000000004
 21
0.0
 31
0.0
  0
LINE
  5
DC
330
C5
100
AcDbEntity
  8
Titel (ISO)
 62
     7
370
    18
100
AcDbLine
 10
-95.75000000000002
 20
6.070117057306809
 30
0.0
 11
-95.75000000000002
 21
0.0
 31
0.0
  0
LINE
  5
DD
330
C5
100
AcDbEntity
  8
Titel (ISO)
 62
     7
370
    18
100
AcDbLine
 10
-50.75000000000002
 20
6.070117057306809
 30
0.0
 11
-50.75000000000002
 21
0.0
 31
0.0
  0
LINE
  5
DE
330
C5
100
AcDbEntity
  8
Titel (ISO)
 62
     7
370
    18
100
AcDbLine
 10
-60.25000000000002
 20
6.070117057306809
 30
0.0
 11
-60.25000000000002
 21
0.0
 31
0.0
  0
LINE
  5
DF
330
C5
100
AcDbEntity
  8
Titel (ISO)
 62
     7
370
    18
100
AcDbLine
 10
-69.75000000000001
 20
13.7701170573068
 30
0.0
 11
-69.75000000000001
 21
9.070117057306816
 31
0.0
  0
LINE
  5
E0
330
C5
100
AcDbEntity
  8
Titel (ISO)
 62
     7
370
    18
100
AcDbLine
 10
-60.25000000000002
 20
13.7701170573068
 30
0.0
 11
-60.25000000000002
 21
9.070117057306816
 31
0.0
  0
LINE
  5
E1
330
C5
100
AcDbEntity
  8
Titel (ISO)
 62
     7
370
    18
100
AcDbLine
 10
-50.75000000000002
 20
13.7701170573068
 30
0.0
 11
-50.75000000000002
 21
9.070117057306816
 31
0.0
  0
LINE
  5
E2
330
C5
100
AcDbEntity
  8
Titel (ISO)
 62
     7
370
    18
100
AcDbLine
 10
-30.93750000000003
 20
13.7701170573068
 30
0.0
 11
-30.93750000000003
 21
9.070117057306816
 31
0.0
  0
LINE
  5
E3
330
C5
100
AcDbEntity
  8
Titel (ISO)
 62
     7
370
    18
100
AcDbLine
 10
-20.88650000000005
 20
6.070117057306809
 30
0.0
 11
-20.88650000000005
 21
0.0
 31
0.0
  0
LINE
  5
E4
330
C5
100
AcDbEntity
  8
Titel (ISO)
 62
     7
370
    18
100
AcDbLine
 10
-20.88650000000005
 20
13.7701170573068
 30
0.0
 11
-20.88650000000005
 21
9.070117057306816
 31
0.0
  0
LINE
  5
E5
330
C5
100
AcDbEntity
  8
Titel (ISO)
 62
     7
370
    18
100
AcDbLine
 10
-10.31250000000003
 20
13.7701170573068
 30
0.0
 11
-10.31250000000003
 21
9.070117057306816
 31
0.0
  0
LINE
  5
E6
330
C5
100
AcDbEntity
  8
Titel (ISO)
 62
     7
370
    18
100
AcDbLine
 10
-10.31250000000003
 20
6.070117057306809
 30
0.0
 11
-10.31250000000003
 21
0.0
 31
0.0
  0
LINE
  5
E7
330
C5
100
AcDbEntity
  8
Titel (ISO)
 62
     7
370
    18
100
AcDbLine
 10
-30.93750000000003
 20
6.070117057306809
 30
0.0
 11
-30.93750000000003
 21
0.0
 31
0.0
  0
LINE
  5
E8
330
C5
100
AcDbEntity
  8
Titel (ISO)
 62
     7
100
AcDbLine
 10
0.0
 20
0.0
 30
0.0
 11
0.0
 21
18.99999999999996
 31
0.0
  0
LINE
  5
E9
330
C5
100
AcDbEntity
  8
Titel (ISO)
 62
     7
370
    18
100
AcDbLine
 10
-69.75000000000001
 20
6.070117057306809
 30
0.0
 11
-69.75000000000001
 21
0.0
 31
0.0
  0
LINE
  5
EA
330
C5
100
AcDbEntity
  8
Titel (ISO)
 62
     7
100
AcDbLine
 10
-79.25000000000003
 20
18.99999999999996
 30
0.0
 11
-79.25000000000003
 21
0.0
 31
0.0
  0
LINE
  5
EB
330
C5
100
AcDbEntity
  8
Titel (ISO)
370
    18
100
AcDbLine
 10
-40.98894210789946
 20
8.999999999999968
 30
0.0
 11
-40.98894210789946
 21
13.7701170573068
 31
0.0
  0
LINE
  5
EC
330
C5
100
AcDbEntity
  8
Titel (ISO)
370
    18
100
AcDbLine
 10
-40.81485039283569
 20
5.999999999999978
 30
0.0
 11
-40.81485039283569
 21
0.0
 31
0.0
  0
SPLINE
  5
ED
330
C5
100
AcDbEntity
  8
Titel (ISO)
 62
     7
370
    18
100
AcDbSpline
210
0.0
220
0.0
230
1.0
 70
     8
 71
     4
 72
    15
 73
    10
 74
     0
 42
0.0000000001
 43
0.0000000001
 40
0.0
 40
0.0
 40
0.0
 40
0.0
 40
0.0
 40
0.2448862522902173
 40
0.372542829838283
 40
0.537712414826782
 40
0.6892572885860062
 40
0.7957086571447725
 40
1.0
 40
1.0
 40
1.0
 40
1.0
 40
1.0
 10
-66.28694873925519
 20
7.64651126040853
 30
0.0
 10
-66.28992133139053
 20
7.684326472464615
 30
0.0
 10
-66.30278798934259
 20
7.801058419170612
 30
0.0
 10
-66.54106167347689
 20
7.859647761643628
 30
0.0
 10
-66.76118299621641
 20
7.833028120844396
 30
0.0
 10
-66.95021102053759
 20
7.740235927209404
 30
0.0
 10
-66.9202360191262
 20
7.49058708009608
 30
0.0
 10
-66.82199748484567
 20
7.453245599066988
 30
0.0
 10
-66.75742436020357
 20
7.442433905354555
 30
0.0
 10
-66.71777189204616
 20
7.426104053762667
 30
0.0
  0
LINE
  5
EE
330
C5
100
AcDbEntity
  8
0
100
AcDbLine
 10
-66.26659572485762
 20
7.671004611388436
 30
0.0
 11
-66.37244477211755
 21
7.81624801356239
 31
0.0
  0
ARC
  5
EF
330
C5
100
AcDbEntity
  8
0
100
AcDbCircle
 10
-66.45038101106777
 20
7.648258902765228
 30
0.0
 40
0.1619243095334992
100
AcDbArc
 50
12.14398738960057
 51
60.02290540986514
  0
LINE
  5
F0
330
C5
100
AcDbEntity
  8
0
100
AcDbLine
 10
-66.89670837859369
 20
7.487238148935002
 30
0.0
 11
-66.71468159031151
 21
7.422119968654339
 31
0.0
  0
ARC
  5
F1
330
C5
100
AcDbEntity
  8
0
100
AcDbCircle
 10
-66.6890673438411
 20
7.78069177527314
 30
0.0
 40
0.3462460077174544
100
AcDbArc
 50
237.7261995458496
 51
262.9055232599758
  0
SPLINE
  5
F2
330
C5
100
AcDbEntity
  8
Titel (ISO)
 62
     7
370
    18
100
AcDbSpline
210
0.0
220
0.0
230
1.0
 70
     8
 71
     4
 72
    12
 73
     7
 74
     0
 42
0.0000000001
 43
0.0000000001
 40
0.0
 40
0.0
 40
0.0
 40
0.0
 40
0.0
 40
0.3933269697832906
 40
0.5579414211012799
 40
1.0
 40
1.0
 40
1.0
 40
1.0
 40
1.0
 10
-66.7177718920461
 20
7.426104053762667
 30
0.0
 10
-66.94102867992272
 20
7.36506224211622
 30
0.0
 10
-66.95038095686311
 20
7.40547820884279
 30
0.0
 10
-67.03925767066545
 20
6.865044071034649
 30
0.0
 10
-66.44367713306704
 20
6.956885902430158
 30
0.0
 10
-66.3418945025619
 20
7.013553608348583
 30
0.0
 10
-66.25537378160072
 20
7.154138853519782
 30
0.0
  0
SPLINE
  5
F3
330
C5
100
AcDbEntity
  8
Titel (ISO)
 62
     7
370
    18
100
AcDbSpline
210
0.0
220
0.0
230
1.0
 70
     8
 71
     4
 72
    12
 73
     7
 74
     0
 42
0.0000000001
 43
0.0000000001
 40
0.0
 40
0.0
 40
0.0
 40
0.0
 40
0.0
 40
0.3872212693569691
 40
0.5575199507602742
 40
1.0
 40
1.0
 40
1.0
 40
1.0
 40
1.0
 10
-23.59108108251476
 20
7.528905781183539
 30
0.0
 10
-23.70063657153558
 20
7.500278841709757
 30
0.0
 10
-23.87007003961081
 20
7.495055014400904
 30
0.0
 10
-23.87709660835664
 20
6.981211874419681
 30
0.0
 10
-23.33833653350904
 20
7.052090909862052
 30
0.0
 10
-23.20493964281642
 20
7.119913147019296
 30
0.0
 10
-23.12868297206911
 20
7.256940580940742
 30
0.0
  0
SPLINE
  5
F4
330
C5
100
AcDbEntity
  8
Titel (ISO)
 62
     7
370
    18
100
AcDbSpline
210
0.0
220
0.0
230
1.0
 70
     8
 71
     4
 72
    15
 73
    10
 74
     0
 42
0.0000000001
 43
0.0000000001
 40
0.0
 40
0.0
 40
0.0
 40
0.0
 40
0.0
 40
0.2448862522902173
 40
0.372542829838283
 40
0.537712414826782
 40
0.6892572885860062
 40
0.7957086571447725
 40
1.0
 40
1.0
 40
1.0
 40
1.0
 40
1.0
 10
-23.16025792972365
 20
7.74931298782949
 30
0.0
 10
-23.16323052185901
 20
7.787128199885575
 30
0.0
 10
-23.17609717981107
 20
7.903860146591572
 30
0.0
 10
-23.41437086394535
 20
7.962449489064589
 30
0.0
 10
-23.63449218668485
 20
7.935829848265356
 30
0.0
 10
-23.82352021100605
 20
7.843037654630364
 30
0.0
 10
-23.79354520959467
 20
7.59338880751704
 30
0.0
 10
-23.69530667531414
 20
7.556047326487949
 30
0.0
 10
-23.630733550672
 20
7.545235632775515
 30
0.0
 10
-23.59108108251462
 20
7.528905781183627
 30
0.0
  0
LINE
  5
F5
330
C5
100
AcDbEntity
  8
Skizziergeometrie (ISO)
100
AcDbLine
 10
-23.13990491532607
 20
7.773806338809468
 30
0.0
 11
-23.24575396258602
 21
7.91904974098335
 31
0.0
  0
LINE
  5
F6
330
C5
100
AcDbEntity
  8
Skizziergeometrie (ISO)
100
AcDbLine
 10
-23.77001756906214
 20
7.590039876355962
 30
0.0
 11
-23.5879907807799
 21
7.524921696075281
 31
0.0
  0
ARC
  5
F7
330
C5
100
AcDbEntity
  8
Skizziergeometrie (ISO)
100
AcDbCircle
 10
-23.32369020153624
 20
7.75106063018617
 30
0.0
 40
0.1619243095335294
100
AcDbArc
 50
12.14398738962304
 51
60.02290540987669
  0
ARC
  5
F8
330
C5
100
AcDbEntity
  8
Skizziergeometrie (ISO)
100
AcDbCircle
 10
-23.56237653430956
 20
7.883493502694083
 30
0.0
 40
0.3462460077174411
100
AcDbArc
 50
237.7261995458445
 51
262.9055232599874
  0
TEXT
  5
F9
330
C5
100
AcDbEntity
  8
Titel (ISO)
 62
     7
100
AcDbText
 10
-67.77000000000001
 20
10.07011705730681
 30
0.0
 40
1.500000059604644
  1
...50
  7
TolListe_12
100
AcDbText
  0
TEXT
  5
FB
330
C5
100
AcDbEntity
  8
Titel (ISO)
 62
     7
100
AcDbText
 10
-67.77000000000001
 20
12.47011705730679
 30
0.0
 40
1.500000059604644
  1
>  10
  7
TolListe_12
100
AcDbText
  0
TEXT
  5
FC
330
C5
100
AcDbEntity
  8
Titel (ISO)
 62
     7
100
AcDbText
 10
-77.52000000000001
 20
6.970117057306808
 30
0.0
 40
1.500000059604644
  1
Abmasse ±   Grad und Minuten)
  7
TolListe_12
100
AcDbText
  0
TEXT
  5
FD
330
C5
100
AcDbEntity
  8
Titel (ISO)
 62
     7
100
AcDbText
 10
-77.27000000000001
 20
10.07011705730681
 30
0.0
 40
1.500000059604644
  1
...10
  7
TolListe_12
100
AcDbText
  0
TEXT
  5
100
330
C5
100
AcDbEntity
  8
Titel (ISO)
 62
     7
100
AcDbText
 10
-97.77000000000001
 20
11.97011705730681
 30
0.0
 40
1.500000059604644
  1
für Winkelmasse
  7
TolListe_12
100
AcDbText
  0
TEXT
  5
101
330
C5
100
AcDbEntity
  8
Titel (ISO)
 62
     7
100
AcDbText
 10
-97.97000000000004
 20
6.970117057306808
 30
0.0
 40
1.500000059604644
  1
Genauigkeitsgrad
  7
TolListe_12
100
AcDbText
  0
TEXT
  5
102
330
C5
100
AcDbEntity
  8
Titel (ISO)
 62
     7
100
AcDbText
 10
-94.49929825881072
 20
0.9701170573068029
 30
0.0
 40
1.500000059604644
  1
c(grob)
  7
TolListe_12
100
AcDbText
  0
TEXT
  5
103
330
C5
100
AcDbEntity
  8
Titel (ISO)
 62
     7
100
AcDbText
 10
-69.51999999999999
 20
15.97011705730679
 30
0.0
 40
1.500000059604644
  1
Nennmass in mm = Länge des kürzeren Winkelschenkels
  7
TolListe_12
100
AcDbText
  0
TEXT
  5
104
330
C5
100
AcDbEntity
  8
Titel (ISO)
 62
     7
100
AcDbText
 10
-8.332499999999996
 20
10.07011705730681
 30
0.0
 40
1.500000059604644
  1
..400
  7
TolListe_12
100
AcDbText
  0
TEXT
  5
105
330
C5
100
AcDbEntity
  8
Titel (ISO)
 62
     7
100
AcDbText
 10
-8.332499999999996
 20
12.47011705730679
 30
0.0
 40
1.500000059604644
  1
> 120
  7
TolListe_12
100
AcDbText
  0
TEXT
  5
106
330
C5
100
AcDbEntity
  8
Titel (ISO)
 62
     7
100
AcDbText
 10
-18.64499999999999
 20
10.07011705730681
 30
0.0
 40
1.500000059604644
  1
..120
  7
TolListe_12
100
AcDbText
  0
TEXT
  5
107
330
C5
100
AcDbEntity
  8
Titel (ISO)
 62
     7
100
AcDbText
 10
-18.64499999999999
 20
12.47011705730679
 30
0.0
 40
1.500000059604644
  1
>  50
  7
TolListe_12
100
AcDbText
  0
TEXT
  5
108
330
C5
100
AcDbEntity
  8
Titel (ISO)
 62
     7
100
AcDbText
 10
-28.95749999999999
 20
10.07011705730681
 30
0.0
 40
1.500000059604644
  1
...50
  7
TolListe_12
100
AcDbText
  0
TEXT
  5
109
330
C5
100
AcDbEntity
  8
Titel (ISO)
 62
     7
100
AcDbText
 10
-28.95749999999999
 20
12.47011705730679
 30
0.0
 40
1.500000059604644
  1
>  10
  7
TolListe_12
100
AcDbText
  0
TEXT
  5
10A
330
C5
100
AcDbEntity
  8
Titel (ISO)
 62
     7
100
AcDbText
 10
-39.26999999999999
 20
10.07011705730681
 30
0.0
 40
1.500000059604644
  1
...10
  7
TolListe_12
100
AcDbText
  0
TEXT
  5
10C
330
C5
100
AcDbEntity
  8
Titel (ISO)
 62
     7
100
AcDbText
 10
-34.52000000000002
 20
6.970117057306808
 30
0.0
 40
1.500000059604644
  1
Abmasse ±     (mm/100mm)
  7
TolListe_12
100
AcDbText
  0
TEXT
  5
111
330
C5
100
AcDbEntity
  8
Titel (ISO)
 62
     7
100
AcDbText
 10
-48.77000000000001
 20
10.07011705730681
 30
0.0
 40
1.500000059604644
  1
..400
  7
TolListe_12
100
AcDbText
  0
TEXT
  5
112
330
C5
100
AcDbEntity
  8
Titel (ISO)
 62
     7
100
AcDbText
 10
-48.77000000000001
 20
12.47011705730679
 30
0.0
 40
1.500000059604644
  1
> 120
  7
TolListe_12
100
AcDbText
  0
TEXT
  5
116
330
C5
100
AcDbEntity
  8
Titel (ISO)
 62
     7
100
AcDbText
 10
-139.52
 20
15.97011705730679
 30
0.0
 40
1.500000059604644
  1
Nennmass mm
  7
TolListe_12
100
AcDbText
  0
TEXT
  5
11B
330
C5
100
AcDbEntity
  8
Titel (ISO)
 62
     7
100
AcDbText
 10
-58.26999999999999
 20
10.07011705730681
 30
0.0
 40
1.500000059604644
  1
..120
  7
TolListe_12
100
AcDbText
  0
TEXT
  5
11C
330
C5
100
AcDbEntity
  8
Titel (ISO)
 62
     7
100
AcDbText
 10
-58.26999999999999
 20
12.47011705730679
 30
0.0
 40
1.500000059604644
  1
>  50
  7
TolListe_12
100
AcDbText
  0
TEXT
  5
120
330
C5
100
AcDbEntity
  8
Titel (ISO)
 62
     7
100
AcDbText
 10
-137.908889
 20
10.07011705730681
 30
0.0
 40
1.500000059604644
  1
..400
  7
TolListe_12
100
AcDbText
  0
TEXT
  5
128
330
C5
100
AcDbEntity
  8
Titel (ISO)
 62
     7
100
AcDbText
 10
-153.964444
 20
12.47011705730679
 30
0.0
 40
1.500000059604644
  1
>  6
  7
TolListe_12
100
AcDbText
  0
TEXT
  5
129
330
C5
100
AcDbEntity
  8
Titel (ISO)
 62
     7
100
AcDbText
 10
-153.964444
 20
10.07011705730681
 30
0.0
 40
1.500000059604644
  1
..30
  7
TolListe_12
100
AcDbText
  0
TEXT
  5
12C
330
C5
100
AcDbEntity
  8
Titel (ISO)
 62
     7
100
AcDbText
 10
-161.992222
 20
10.07011705730681
 30
0.0
 40
1.500000059604644
  1
...6
  7
TolListe_12
100
AcDbText
  0
TEXT
  5
12D
330
C5
100
AcDbEntity
  8
Titel (ISO)
 62
     7
100
AcDbText
 10
-161.992222
 20
12.47011705730679
 30
0.0
 40
1.500000059604644
  1
>  3
  7
TolListe_12
100
AcDbText
  0
TEXT
  5
133
330
C5
100
AcDbEntity
  8
Titel (ISO)
 62
     7
100
AcDbText
 10
-170.02
 20
12.47011705730679
 30
0.0
 40
1.500000059604644
  1
>  0,5
  7
TolListe_12
100
AcDbText
  0
TEXT
  5
134
330
C5
100
AcDbEntity
  8
Titel (ISO)
 62
     7
100
AcDbText
 10
-145.936667
 20
10.07011705730681
 30
0.0
 40
1.500000059604644
  1
..120
  7
TolListe_12
100
AcDbText
  0
TEXT
  5
135
330
C5
100
AcDbEntity
  8
Titel (ISO)
 62
     7
100
AcDbText
 10
-145.936667
 20
12.47011705730679
 30
0.0
 40
1.500000059604644
  1
>  30
  7
TolListe_12
100
AcDbText
  0
TEXT
  5
136
330
C5
100
AcDbEntity
  8
Titel (ISO)
 62
     7
100
AcDbText
 10
-137.908889
 20
12.47011705730679
 30
0.0
 40
1.500000059604644
  1
> 120
  7
TolListe_12
100
AcDbText
  0
TEXT
  5
137
330
C5
100
AcDbEntity
  8
Titel (ISO)
 62
     7
100
AcDbText
 10
-88.26999999999999
 20
3.970117057306801
 30
0.0
 40
1.500000059604644
  1
m(mittel)
  7
TolListe_12
100
AcDbText
  0
TEXT
  5
138
330
C5
100
AcDbEntity
  8
Titel (ISO)
 62
     7
100
AcDbText
 10
-189.02
 20
12.89999999999995
 30
0.0
 40
1.500000059604644
  1
für Längenmasse
  7
TolListe_12
100
AcDbText
  0
TEXT
  5
139
330
C5
100
AcDbEntity
  8
Titel (ISO)
 62
     7
100
AcDbText
 10
-189.02
 20
9.899999999999966
 30
0.0
 40
1.500000059604644
  1
Genauigkeitsgrad
  7
TolListe_12
100
AcDbText
  0
TEXT
  5
13A
330
C5
100
AcDbEntity
  8
Titel (ISO)
 62
     7
100
AcDbText
 10
-170.02
 20
10.07011705730681
 30
0.0
 40
1.500000059604644
  1
...3
  7
TolListe_12
100
AcDbText
  0
TEXT
  5
13B
330
C5
100
AcDbEntity
  8
Titel (ISO)
 62
     7
100
AcDbText
 10
-182.02
 20
3.899999999999987
 30
0.0
 40
1.500000059604644
  1
m (mittel)
  7
TolListe_12
100
AcDbText
  0
TEXT
  5
13C
330
C5
100
AcDbEntity
  8
Titel (ISO)
 62
     7
100
AcDbText
 10
-182.02
 20
6.899999999999977
 30
0.0
 40
1.500000059604644
  1
f (fein)
  7
TolListe_12
100
AcDbText
  0
TEXT
  5
13D
330
C5
100
AcDbEntity
  8
Titel (ISO)
 62
     7
100
AcDbText
 10
-182.02
 20
0.8999999999999985
 30
0.0
 40
1.500000059604644
  1
c (grob)
  7
TolListe_12
100
AcDbText
  0
TEXT
  5
13E
330
C5
100
AcDbEntity
  8
Titel (ISO)
 62
     7
100
AcDbText
 10
-189.02
 20
14.8701170573068
 30
0.0
 40
1.500000059604644
  1
toleranzen
  7
TolListe_12
100
AcDbText
  0
TEXT
  5
13F
330
C5
100
AcDbEntity
  8
Titel (ISO)
 62
     7
100
AcDbText
 10
-189.02
 20
16.77011705730679
 30
0.0
 40
1.500000059604644
  1
Allgemein-
  7
TolListe_12
100
AcDbText
  0
TEXT
  5
140
330
C5
100
AcDbEntity
  8
Titel (ISO)
 62
     7
100
AcDbText
 10
-105.797778
 20
10.07011705730681
 30
0.0
 40
1.500000059604644
  1
..8000
  7
TolListe_12
100
AcDbText
  0
TEXT
  5
141
330
C5
100
AcDbEntity
  8
Titel (ISO)
 62
     7
100
AcDbText
 10
-105.797778
 20
12.47011705730679
 30
0.0
 40
1.500000059604644
  1
> 4000
  7
TolListe_12
100
AcDbText
  0
TEXT
  5
144
330
C5
100
AcDbEntity
  8
Titel (ISO)
 62
     7
100
AcDbText
 10
-97.77000000000001
 20
14.37011705730681
 30
0.0
 40
1.500000059604644
  1
toleranzen
  7
TolListe_12
100
AcDbText
  0
TEXT
  5
145
330
C5
100
AcDbEntity
  8
Titel (ISO)
 62
     7
100
AcDbText
 10
-97.77000000000001
 20
16.77011705730679
 30
0.0
 40
1.500000059604644
  1
Allgemein-
  7
TolListe_12
100
AcDbText
  0
TEXT
  5
148
330
C5
100
AcDbEntity
  8
Titel (ISO)
 62
     7
100
AcDbText
 10
-113.825556
 20
10.07011705730681
 30
0.0
 40
1.500000059604644
  1
..4000
  7
TolListe_12
100
AcDbText
  0
TEXT
  5
149
330
C5
100
AcDbEntity
  8
Titel (ISO)
 62
     7
100
AcDbText
 10
-113.825556
 20
12.47011705730679
 30
0.0
 40
1.500000059604644
  1
> 2000
  7
TolListe_12
100
AcDbText
  0
TEXT
  5
14A
330
C5
100
AcDbEntity
  8
Titel (ISO)
 62
     7
100
AcDbText
 10
-121.853333
 20
10.07011705730681
 30
0.0
 40
1.500000059604644
  1
..2000
  7
TolListe_12
100
AcDbText
  0
TEXT
  5
14B
330
C5
100
AcDbEntity
  8
Titel (ISO)
 62
     7
100
AcDbText
 10
-121.853333
 20
12.47011705730679
 30
0.0
 40
1.500000059604644
  1
> 1000
  7
TolListe_12
100
AcDbText
  0
TEXT
  5
150
330
C5
100
AcDbEntity
  8
Titel (ISO)
 62
     7
100
AcDbText
 10
-129.881111
 20
10.07011705730681
 30
0.0
 40
1.500000059604644
  1
..1000
  7
TolListe_12
100
AcDbText
  0
TEXT
  5
151
330
C5
100
AcDbEntity
  8
Titel (ISO)
 62
     7
100
AcDbText
 10
-129.881111
 20
12.47011705730679
 30
0.0
 40
1.500000059604644
  1
>  400
  7
TolListe_12
100
AcDbText
  0
TEXT
  5
154
330
C5
100
AcDbEntity
  8
Titel (ISO)
 62
     7
100
AcDbText
 10
-94.3154314551193
 20
3.970117057306801
 30
0.0
 40
1.500000059604644
  1
f(fein)
 41
0.8000000119209289
  7
TolListe_12
100
AcDbText
  0
TEXT
  5
156
330
C5
100
AcDbEntity
  8
Titel (ISO)
 62
     7
100
AcDbText
 10
-189.02
 20
6.399999985098823
 30
0.0
 40
2.000000029802322
  1
 
 41
1.100000023841857
  7
TolListe_12-Arial
 11
-189.02
 21
7.399999999999984
 31
0.0
100
AcDbText
 73
     2
  0
TEXT
  5
158
330
C5
100
AcDbEntity
  8
Titel (ISO)
 62
     7
100
AcDbText
 10
-189.02
 20
3.399999985098824
 30
0.0
 40
2.000000029802322
  1
 
 41
1.100000023841857
  7
TolListe_12-Arial
 11
-189.02
 21
4.399999999999986
 31
0.0
100
AcDbText
 73
     2
  0
TEXT
  5
159
330
C5
100
AcDbEntity
  8
Titel (ISO)
 62
     7
100
AcDbText
 10
-189.02
 20
0.3999999850988356
 30
0.0
 40
2.000000029802322
  1
 
 41
1.100000023841857
  7
TolListe_12-Arial
 11
-189.02
 21
1.399999999999996
 31
0.0
100
AcDbText
 73
     2
  0
ATTDEF
  5
15A
330
C5
100
AcDbEntity
  8
Titel (ISO)
 62
     7
100
AcDbText
 10
-98.35000000000002
 20
3.499999985098831
 30
0.0
 40
2.000000029802322
  1
 
 41
0.899999976158142
  7
TolListe_12-Arial
 11
-98.35000000000002
 21
4.499999999999992
 31
0.0
100
AcDbAttributeDefinition
  3
TolWinkel_Fein
  2
TolWinkel_Fein
 70
     0
 74
     2
  0
ATTDEF
  5
15B
330
C5
100
AcDbEntity
  8
Titel (ISO)
 62
     7
100
AcDbText
 10
-98.35000000000002
 20
0.4999999850988424
 30
0.0
 40
2.000000029802322
  1
 
 41
1.100000023841857
  7
TolListe_12-Arial
 11
-98.35000000000002
 21
1.500000000000003
 31
0.0
100
AcDbAttributeDefinition
  3
TolWinkel_Grob
  2
TolWinkel_Grob
 70
     0
 74
     2
  0
TEXT
  5
15C
330
C5
100
AcDbEntity
  8
Titel (ISO)
 62
     7
100
AcDbText
 10
-23.10385197106264
 20
6.481150342666044
 30
0.0
 40
1.199999973177909
  1
R
 41
0.899999976158142
  7
TolListe_12
100
AcDbText
  0
ENDBLK
  5
C7
330
C5
100
AcDbEntity
  8
0
100
AcDbBlockEnd
  0
BLOCK
  5
15E
330
15D
100
AcDbEntity
  8
0
100
AcDbBlockBegin
  2
ProtoTyp
 70
     0
 10
0.0
 20
0.0
 30
0.0
  3
ProtoTyp
  1

  0
MTEXT
  5
160
330
15D
100
AcDbEntity
  8
Symbol (ISO)
100
AcDbMText
 10
-15.0
 20
3.333333333333428
 30
0.0
 40
5.0
 41
113.3539674448862
 71
     9
 72
     5
  1
\fArial|b1|i0;\W1.20;\H5.0000;Prototyp 
  7
Notiztext (DIN)
 73
     1
 44
1.0
  0
ENDBLK
  5
15F
330
15D
100
AcDbEntity
  8
0
100
AcDbBlockEnd
  0
BLOCK
  5
163
330
162
100
AcDbEntity
  8
0
100
AcDbBlockBegin
  2
Logo
 70
     0
 10
0.0
 20
0.0
 30
0.0
  3
Logo
  1

  0
LINE
  5
165
102
{ACAD_REACTORS
330
170
102
}
330
162
100
AcDbEntity
  8
0
100
AcDbLine
 10
-63.82219267516564
 20
13.78707153306683
 30
0.0
 11
-63.44194367516561
 21
13.78707153306683
 31
0.0
  0
SPLINE
  5
166
102
{ACAD_REACTORS
330
170
102
}
330
162
100
AcDbEntity
  8
0
100
AcDbSpline
210
0.0
220
0.0
230
1.0
 70
     8
 71
     3
 72
    13
 73
     9
 74
     0
 42
0.0000000001
 43
0.0000000001
 40
-0.2488465402991201
 40
-0.2488465402991201
 40
-0.2488465402991201
 40
-0.2488465402991201
 40
-0.213514800971061
 40
-0.1813686001396738
 40
-0.151852207945606
 40
-0.122610058815004
 40
-0.0548379298616244
 40
0.0
 40
0.0
 40
0.0
 40
0.0
 10
-63.44194367516561
 20
13.78707153306683
 30
0.0
 10
-63.32417121073874
 20
13.78707153306683
 30
0.0
 10
-63.08419178569152
 20
13.80580234228952
 30
0.0
 10
-62.85168098131063
 20
14.06077992123113
 30
0.0
 10
-62.75106357115923
 20
14.3528991457025
 30
0.0
 10
-62.73688326920373
 20
14.7669903791009
 30
0.0
 10
-62.81190429146026
 20
15.35988989299784
 30
0.0
 10
-63.28410391460164
 20
15.46016853306682
 30
0.0
 10
-63.46689701414039
 20
15.46016853306682
 30
0.0
  0
LINE
  5
167
102
{ACAD_REACTORS
330
170
102
}
330
162
100
AcDbEntity
  8
0
100
AcDbLine
 10
-63.46689701414039
 20
15.46016853306682
 30
0.0
 11
-63.82219267516564
 21
15.46016853306682
 31
0.0
  0
LINE
  5
168
102
{ACAD_REACTORS
330
170
102
}
330
162
100
AcDbEntity
  8
0
100
AcDbLine
 10
-63.82219267516564
 20
15.46016853306682
 30
0.0
 11
-63.82219267516564
 21
13.78707153306683
 31
0.0
  0
LINE
  5
169
102
{ACAD_REACTORS
330
170
102
}
330
162
100
AcDbEntity
  8
0
100
AcDbLine
 10
-63.09258967516566
 20
16.44881753306684
 30
0.0
 11
-65.1910906751657
 21
16.44881753306684
 31
0.0
  0
SPLINE
  5
16A
102
{ACAD_REACTORS
330
170
102
}
330
162
100
AcDbEntity
  8
0
100
AcDbSpline
210
0.0
220
0.0
230
1.0
 70
     8
 71
     3
 72
    11
 73
     7
 74
     0
 42
0.0000000001
 43
0.0000000001
 40
0.2936837717354933
 40
0.2936837717354933
 40
0.2936837717354933
 40
0.2936837717354933
 40
0.3486086586423288
 40
0.4181833865755395
 40
0.4874646771879993
 40
0.5758658507171156
 40
0.5758658507171156
 40
0.5758658507171156
 40
0.5758658507171156
 10
-61.3885963599133
 20
14.628373224245
 30
0.0
 10
-61.3866327111799
 20
14.81461430976022
 30
0.0
 10
-61.42180843855425
 20
15.22586839198035
 30
0.0
 10
-61.65248502722848
 20
15.84811296147202
 30
0.0
 10
-62.25323916657581
 20
16.38211568442156
 30
0.0
 10
-62.79106792157026
 20
16.42485607934071
 30
0.0
 10
-63.09258967516566
 20
16.44881753306684
 30
0.0
  0
SPLINE
  5
16B
102
{ACAD_REACTORS
330
170
102
}
330
162
100
AcDbEntity
  8
0
100
AcDbSpline
210
0.0
220
0.0
230
1.0
 70
     8
 71
     3
 72
    10
 73
     6
 74
     0
 42
0.0000000001
 43
0.0000000001
 40
0.0
 40
0.0
 40
0.0
 40
0.0
 40
0.0653965997920125
 40
0.148785267001393
 40
0.2936837717354933
 40
0.2936837717354933
 40
0.2936837717354933
 40
0.2936837717354933
 10
-63.2280526751656
 20
12.79842253306682
 30
0.0
 10
-63.00807050524145
 20
12.79414883947174
 30
0.0
 10
-62.50758414980694
 20
12.78442566357808
 30
0.0
 10
-61.5936272368743
 20
13.31022024821636
 30
0.0
 10
-61.3937767031296
 20
14.13704668119749
 30
0.0
 10
-61.3885963599133
 20
14.628373224245
 30
0.0
  0
LINE
  5
16C
102
{ACAD_REACTORS
330
170
102
}
330
162
100
AcDbEntity
  8
0
100
AcDbLine
 10
-63.82219267516564
 20
12.79842253306682
 30
0.0
 11
-63.2280526751656
 21
12.79842253306682
 31
0.0
  0
LINE
  5
16D
102
{ACAD_REACTORS
330
170
102
}
330
162
100
AcDbEntity
  8
0
100
AcDbLine
 10
-63.82219267516564
 20
10.44087653306682
 30
0.0
 11
-63.82219267516564
 21
12.79842253306682
 31
0.0
  0
LINE
  5
16E
102
{ACAD_REACTORS
330
170
102
}
330
162
100
AcDbEntity
  8
0
100
AcDbLine
 10
-65.1910906751657
 20
10.44087653306682
 30
0.0
 11
-63.82219267516564
 21
10.44087653306682
 31
0.0
  0
LINE
  5
16F
102
{ACAD_REACTORS
330
170
102
}
330
162
100
AcDbEntity
  8
0
100
AcDbLine
 10
-65.1910906751657
 20
16.44881753306684
 30
0.0
 11
-65.1910906751657
 21
10.44087653306682
 31
0.0
  0
HATCH
  5
170
330
162
100
AcDbEntity
  8
Schraffur (ISO)
100
AcDbHatch
 10
0.0
 20
0.0
 30
0.0
210
0.0
220
0.0
230
1.0
  2
SOLID
 70
     1
 71
     1
 91
        2
 92
        0
 93
        4
 72
     1
 10
-63.82219267516564
 20
13.78707153306683
 11
-63.44194367516561
 21
13.78707153306683
 72
     4
 94
        3
 73
     0
 74
     0
 95
       13
 96
        9
 40
-0.2488465402991201
 40
-0.2488465402991201
 40
-0.2488465402991201
 40
-0.2488465402991201
 40
-0.213514800971061
 40
-0.1813686001396738
 40
-0.151852207945606
 40
-0.122610058815004
 40
-0.0548379298616244
 40
0.0
 40
0.0
 40
0.0
 40
0.0
 10
-63.44194367516561
 20
13.78707153306683
 10
-63.32417121073874
 20
13.78707153306683
 10
-63.08419178569152
 20
13.80580234228952
 10
-62.85168098131063
 20
14.06077992123113
 10
-62.75106357115923
 20
14.3528991457025
 10
-62.73688326920373
 20
14.7669903791009
 10
-62.81190429146026
 20
15.35988989299784
 10
-63.28410391460164
 20
15.46016853306682
 10
-63.46689701414039
 20
15.46016853306682
 72
     1
 10
-63.46689701414039
 20
15.46016853306682
 11
-63.82219267516564
 21
15.46016853306682
 72
     1
 10
-63.82219267516564
 20
15.46016853306682
 11
-63.82219267516564
 21
13.78707153306683
 97
        4
330
165
330
166
330
167
330
168
 92
        1
 93
        7
 72
     1
 10
-63.09258967516566
 20
16.44881753306684
 11
-65.1910906751657
 21
16.44881753306684
 72
     1
 10
-65.1910906751657
 20
16.44881753306684
 11
-65.1910906751657
 21
10.44087653306682
 72
     1
 10
-65.1910906751657
 20
10.44087653306682
 11
-63.82219267516564
 21
10.44087653306682
 72
     1
 10
-63.82219267516564
 20
10.44087653306682
 11
-63.82219267516564
 21
12.79842253306682
 72
     1
 10
-63.82219267516564
 20
12.79842253306682
 11
-63.2280526751656
 21
12.79842253306682
 72
     4
 94
        3
 73
     0
 74
     0
 95
       10
 96
        6
 40
0.0
 40
0.0
 40
0.0
 40
0.0
 40
0.0653965997920125
 40
0.148785267001393
 40
0.2936837717354933
 40
0.2936837717354933
 40
0.2936837717354933
 40
0.2936837717354933
 10
-63.2280526751656
 20
12.79842253306682
 10
-63.00807050524145
 20
12.79414883947174
 10
-62.50758414980694
 20
12.78442566357808
 10
-61.5936272368743
 20
13.31022024821636
 10
-61.3937767031296
 20
14.13704668119749
 10
-61.3885963599133
 20
14.628373224245
 72
     4
 94
        3
 73
     0
 74
     0
 95
       11
 96
        7
 40
0.2936837717354933
 40
0.2936837717354933
 40
0.2936837717354933
 40
0.2936837717354933
 40
0.3486086586423288
 40
0.4181833865755395
 40
0.4874646771879993
 40
0.5758658507171156
 40
0.5758658507171156
 40
0.5758658507171156
 40
0.5758658507171156
 10
-61.3885963599133
 20
14.628373224245
 10
-61.3866327111799
 20
14.81461430976022
 10
-61.42180843855425
 20
15.22586839198035
 10
-61.65248502722848
 20
15.84811296147202
 10
-62.25323916657581
 20
16.38211568442156
 10
-62.79106792157026
 20
16.42485607934071
 10
-63.09258967516566
 20
16.44881753306684
 97
        7
330
169
330
16F
330
16E
330
16D
330
16C
330
16B
330
16A
 75
     0
 76
     1
 98
        1
 10
0.0
 20
0.0
450
        0
451
        0
460
0.0
461
0.0
452
        0
462
0.0
453
        0
470

  0
LINE
  5
171
102
{ACAD_REACTORS
330
17B
102
}
330
162
100
AcDbEntity
  8
0
100
AcDbLine
 10
-60.62809767516559
 20
16.44881753306684
 30
0.0
 11
-60.62809767516559
 21
10.40524878827717
 31
0.0
  0
LINE
  5
172
102
{ACAD_REACTORS
330
17B
102
}
330
162
100
AcDbEntity
  8
0
100
AcDbLine
 10
-58.98987681977541
 20
16.44881753306684
 30
0.0
 11
-60.62809767516559
 21
16.44881753306684
 31
0.0
  0
LINE
  5
173
102
{ACAD_REACTORS
330
17B
102
}
330
162
100
AcDbEntity
  8
0
100
AcDbLine
 10
-57.88930580282222
 20
12.61710582815194
 30
0.0
 11
-58.98987681977541
 21
16.44881753306684
 31
0.0
  0
LINE
  5
174
102
{ACAD_REACTORS
330
17B
102
}
330
162
100
AcDbEntity
  8
0
100
AcDbLine
 10
-57.88930580282222
 20
16.44881753306684
 30
0.0
 11
-57.88930580282222
 21
12.61710582815194
 31
0.0
  0
LINE
  5
175
102
{ACAD_REACTORS
330
17B
102
}
330
162
100
AcDbEntity
  8
0
100
AcDbLine
 10
-56.69354904308139
 20
16.44881753306684
 30
0.0
 11
-57.88930580282222
 21
16.44881753306684
 31
0.0
  0
LINE
  5
176
102
{ACAD_REACTORS
330
17B
102
}
330
162
100
AcDbEntity
  8
0
100
AcDbLine
 10
-56.69354904308139
 20
10.40524878827717
 30
0.0
 11
-56.69354904308139
 21
16.44881753306684
 31
0.0
  0
LINE
  5
177
102
{ACAD_REACTORS
330
17B
102
}
330
162
100
AcDbEntity
  8
0
100
AcDbLine
 10
-58.22507916596087
 20
10.40524878827717
 30
0.0
 11
-56.69354904308139
 21
10.40524878827717
 31
0.0
  0
LINE
  5
178
102
{ACAD_REACTORS
330
17B
102
}
330
162
100
AcDbEntity
  8
0
100
AcDbLine
 10
-59.41118327390213
 20
14.53474967794081
 30
0.0
 11
-58.22507916596087
 21
10.40524878827717
 31
0.0
  0
LINE
  5
179
102
{ACAD_REACTORS
330
17B
102
}
330
162
100
AcDbEntity
  8
0
100
AcDbLine
 10
-59.41118327390213
 20
10.40524878827717
 30
0.0
 11
-59.41118327390213
 21
14.53474967794081
 31
0.0
  0
LINE
  5
17A
102
{ACAD_REACTORS
330
17B
102
}
330
162
100
AcDbEntity
  8
0
100
AcDbLine
 10
-60.62809767516559
 20
10.40524878827717
 30
0.0
 11
-59.41118327390213
 21
10.40524878827717
 31
0.0
  0
HATCH
  5
17B
330
162
100
AcDbEntity
  8
Schraffur (ISO)
100
AcDbHatch
 10
0.0
 20
0.0
 30
0.0
210
0.0
220
0.0
230
1.0
  2
SOLID
 70
     1
 71
     1
 91
        1
 92
        1
 93
       10
 72
     1
 10
-60.62809767516559
 20
16.44881753306684
 11
-60.62809767516559
 21
10.40524878827717
 72
     1
 10
-60.62809767516559
 20
10.40524878827717
 11
-59.41118327390213
 21
10.40524878827717
 72
     1
 10
-59.41118327390213
 20
10.40524878827717
 11
-59.41118327390213
 21
14.53474967794082
 72
     1
 10
-59.41118327390213
 20
14.53474967794081
 11
-58.22507916596087
 21
10.40524878827717
 72
     1
 10
-58.22507916596087
 20
10.40524878827717
 11
-56.69354904308139
 21
10.40524878827717
 72
     1
 10
-56.69354904308139
 20
10.40524878827717
 11
-56.69354904308139
 21
16.44881753306684
 72
     1
 10
-56.69354904308139
 20
16.44881753306684
 11
-57.88930580282222
 21
16.44881753306684
 72
     1
 10
-57.88930580282222
 20
16.44881753306684
 11
-57.88930580282222
 21
12.61710582815194
 72
     1
 10
-57.88930580282222
 20
12.61710582815194
 11
-58.98987681977541
 21
16.44881753306684
 72
     1
 10
-58.98987681977541
 20
16.44881753306684
 11
-60.62809767516559
 21
16.44881753306684
 97
       10
330
171
330
17A
330
179
330
178
330
177
330
176
330
175
330
174
330
173
330
172
 75
     0
 76
     1
 98
        1
 10
0.0
 20
0.0
450
        0
451
        0
460
0.0
461
0.0
452
        0
462
0.0
453
        0
470

  0
LINE
  5
17C
102
{ACAD_REACTORS
330
188
102
}
330
162
100
AcDbEntity
  8
0
100
AcDbLine
 10
-54.3920076751656
 20
11.58162453306683
 30
10.0
 11
-52.27805867516565
 21
11.58162453306683
 31
10.0
  0
LINE
  5
17D
102
{ACAD_REACTORS
330
188
102
}
330
162
100
AcDbEntity
  8
0
100
AcDbLine
 10
-54.3920076751656
 20
12.95052253306684
 30
10.0
 11
-54.3920076751656
 21
11.58162453306683
 31
10.0
  0
LINE
  5
17E
102
{ACAD_REACTORS
330
188
102
}
330
162
100
AcDbEntity
  8
0
100
AcDbLine
 10
-52.49194867516564
 20
12.95052253306684
 30
10.0
 11
-54.3920076751656
 21
12.95052253306684
 31
10.0
  0
LINE
  5
17F
102
{ACAD_REACTORS
330
188
102
}
330
162
100
AcDbEntity
  8
0
100
AcDbLine
 10
-52.49194867516564
 20
14.09127053306683
 30
10.0
 11
-52.49194867516564
 21
12.95052253306684
 31
10.0
  0
LINE
  5
180
102
{ACAD_REACTORS
330
188
102
}
330
162
100
AcDbEntity
  8
0
100
AcDbLine
 10
-54.3920076751656
 20
14.09127053306683
 30
10.0
 11
-52.49194867516564
 21
14.09127053306683
 31
10.0
  0
LINE
  5
181
102
{ACAD_REACTORS
330
188
102
}
330
162
100
AcDbEntity
  8
0
100
AcDbLine
 10
-54.3920076751656
 20
15.30806953306683
 30
10.0
 11
-54.3920076751656
 21
14.09127053306683
 31
10.0
  0
LINE
  5
182
102
{ACAD_REACTORS
330
188
102
}
330
162
100
AcDbEntity
  8
0
100
AcDbLine
 10
-52.36836767516571
 20
15.30806953306683
 30
10.0
 11
-54.3920076751656
 21
15.30806953306683
 31
10.0
  0
LINE
  5
183
102
{ACAD_REACTORS
330
188
102
}
330
162
100
AcDbEntity
  8
0
100
AcDbLine
 10
-52.36836767516571
 20
16.44881753306684
 30
10.0
 11
-52.36836767516571
 21
15.30806953306683
 31
10.0
  0
LINE
  5
184
102
{ACAD_REACTORS
330
188
102
}
330
162
100
AcDbEntity
  8
0
100
AcDbLine
 10
-55.76090567516565
 20
16.44881753306684
 30
10.0
 11
-52.36836767516571
 21
16.44881753306684
 31
10.0
  0
LINE
  5
185
102
{ACAD_REACTORS
330
188
102
}
330
162
100
AcDbEntity
  8
0
100
AcDbLine
 10
-55.76090567516565
 20
10.44087653306682
 30
10.0
 11
-55.76090567516565
 21
16.44881753306684
 31
10.0
  0
LINE
  5
186
102
{ACAD_REACTORS
330
188
102
}
330
162
100
AcDbEntity
  8
0
100
AcDbLine
 10
-52.27805867516565
 20
10.44087653306682
 30
10.0
 11
-55.76090567516565
 21
10.44087653306682
 31
10.0
  0
LINE
  5
187
102
{ACAD_REACTORS
330
188
102
}
330
162
100
AcDbEntity
  8
0
100
AcDbLine
 10
-52.27805867516565
 20
11.58162453306683
 30
10.0
 11
-52.27805867516565
 21
10.44087653306682
 31
10.0
  0
HATCH
  5
188
330
162
100
AcDbEntity
  8
Schraffur (ISO)
100
AcDbHatch
 10
0.0
 20
0.0
 30
0.0
210
0.0
220
0.0
230
1.0
  2
SOLID
 70
     1
 71
     1
 91
        1
 92
        1
 93
       12
 72
     1
 10
-54.3920076751656
 20
11.58162453306683
 11
-52.27805867516565
 21
11.58162453306683
 72
     1
 10
-52.27805867516565
 20
11.58162453306683
 11
-52.27805867516565
 21
10.44087653306682
 72
     1
 10
-52.27805867516565
 20
10.44087653306682
 11
-55.76090567516565
 21
10.44087653306682
 72
     1
 10
-55.76090567516565
 20
10.44087653306682
 11
-55.76090567516565
 21
16.44881753306684
 72
     1
 10
-55.76090567516565
 20
16.44881753306684
 11
-52.36836767516571
 21
16.44881753306684
 72
     1
 10
-52.36836767516571
 20
16.44881753306684
 11
-52.36836767516571
 21
15.30806953306683
 72
     1
 10
-52.36836767516571
 20
15.30806953306683
 11
-54.3920076751656
 21
15.30806953306683
 72
     1
 10
-54.3920076751656
 20
15.30806953306683
 11
-54.3920076751656
 21
14.09127053306683
 72
     1
 10
-54.3920076751656
 20
14.09127053306683
 11
-52.49194867516564
 21
14.09127053306683
 72
     1
 10
-52.49194867516564
 20
14.09127053306683
 11
-52.49194867516564
 21
12.95052253306684
 72
     1
 10
-52.49194867516564
 20
12.95052253306684
 11
-54.3920076751656
 21
12.95052253306684
 72
     1
 10
-54.3920076751656
 20
12.95052253306684
 11
-54.3920076751656
 21
11.58162453306683
 97
       12
330
17C
330
187
330
186
330
185
330
184
330
183
330
182
330
181
330
180
330
17F
330
17E
330
17D
 75
     0
 76
     1
 98
        1
 10
0.0
 20
0.0
450
        0
451
        0
460
0.0
461
0.0
452
        0
462
0.0
453
        0
470

  0
SPLINE
  5
189
102
{ACAD_REACTORS
330
191
102
}
330
162
100
AcDbEntity
  8
0
100
AcDbSpline
210
0.0
220
0.0
230
1.0
 70
     8
 71
     3
 72
    15
 73
    11
 74
     0
 42
0.0000000001
 43
0.0000000001
 40
0.0
 40
0.0
 40
0.0
 40
0.0
 40
0.0672548563799885
 40
0.1521664902326495
 40
0.2281703146548317
 40
0.3255600897830795
 40
0.4120495207317158
 40
0.4985389234182298
 40
0.5654159866690202
 40
0.6509023544104405
 40
0.6509023544104405
 40
0.6509023544104405
 40
0.6509023544104405
 10
-51.7302616751656
 20
12.50372953306684
 30
0.0
 10
-51.72250972741318
 20
12.28042993765319
 30
0.0
 10
-51.7049706715673
 20
11.77520670867943
 30
0.0
 10
-51.45830183546912
 20
11.01272899934195
 30
0.0
 10
-50.70619437300852
 20
10.49759629449973
 30
0.0
 10
-49.8251698126684
 20
10.4107231579618
 30
0.0
 10
-48.92313273835776
 20
10.49749520180978
 30
0.0
 10
-48.18766130508738
 20
10.93968926311738
 30
0.0
 10
-47.88526518983896
 20
11.71052808496217
 30
0.0
 10
-47.86377509624168
 20
12.21864242747865
 30
0.0
 10
-47.85171767516569
 20
12.50372953306684
 30
0.0
  0
LINE
  5
18A
102
{ACAD_REACTORS
330
191
102
}
330
162
100
AcDbEntity
  8
0
100
AcDbLine
 10
-51.7302616751656
 20
16.44881753306684
 30
0.0
 11
-51.7302616751656
 21
12.50372953306684
 31
0.0
  0
LINE
  5
18B
102
{ACAD_REACTORS
330
191
102
}
330
162
100
AcDbEntity
  8
0
100
AcDbLine
 10
-50.36136367516565
 20
16.44881753306684
 30
0.0
 11
-51.7302616751656
 21
16.44881753306684
 31
0.0
  0
LINE
  5
18C
102
{ACAD_REACTORS
330
191
102
}
330
162
100
AcDbEntity
  8
0
100
AcDbLine
 10
-50.36136367516565
 20
12.15437597654793
 30
0.0
 11
-50.36136367516565
 21
16.44881753306684
 31
0.0
  0
SPLINE
  5
18D
102
{ACAD_REACTORS
330
191
102
}
330
162
100
AcDbEntity
  8
0
100
AcDbSpline
210
0.0
220
0.0
230
1.0
 70
     8
 71
     3
 72
    12
 73
     8
 74
     0
 42
0.0000000001
 43
0.0000000001
 40
0.0
 40
0.0
 40
0.0
 40
0.0
 40
0.0459373561447192
 40
0.0841298945751798
 40
0.1189845232173717
 40
0.1628560898790358
 40
0.2038542643486715
 40
0.2038542643486715
 40
0.2038542643486715
 40
0.2038542643486715
 10
-49.22061567516561
 20
12.15437553306683
 30
0.0
 10
-49.2268789446577
 20
11.99485470427934
 30
0.0
 10
-49.23834952647364
 20
11.70270749262533
 30
0.0
 10
-49.57024113653026
 20
11.41847892432864
 30
0.0
 10
-49.99594522261111
 20
11.40074526513182
 30
0.0
 10
-50.29158571586791
 20
11.73973014957667
 30
0.0
 10
-50.33863533382652
 20
12.01931596640863
 30
0.0
 10
-50.36136367516565
 20
12.15437597654793
 30
0.0
  0
LINE
  5
18E
102
{ACAD_REACTORS
330
191
102
}
330
162
100
AcDbEntity
  8
0
100
AcDbLine
 10
-49.22061567516561
 20
16.44881753306684
 30
0.0
 11
-49.22061567516561
 21
12.15437553306683
 31
0.0
  0
LINE
  5
18F
102
{ACAD_REACTORS
330
191
102
}
330
162
100
AcDbEntity
  8
0
100
AcDbLine
 10
-47.85171767516569
 20
16.44881753306684
 30
0.0
 11
-49.22061567516561
 21
16.44881753306684
 31
0.0
  0
LINE
  5
190
102
{ACAD_REACTORS
330
191
102
}
330
162
100
AcDbEntity
  8
0
100
AcDbLine
 10
-47.85171767516569
 20
12.50372953306684
 30
0.0
 11
-47.85171767516569
 21
16.44881753306684
 31
0.0
  0
HATCH
  5
191
330
162
100
AcDbEntity
  8
Schraffur (ISO)
100
AcDbHatch
 10
0.0
 20
0.0
 30
0.0
210
0.0
220
0.0
230
1.0
  2
SOLID
 70
     1
 71
     1
 91
        1
 92
        1
 93
        8
 72
     4
 94
        3
 73
     0
 74
     0
 95
       15
 96
       11
 40
0.0
 40
0.0
 40
0.0
 40
0.0
 40
0.0672548563799885
 40
0.1521664902326495
 40
0.2281703146548317
 40
0.3255600897830795
 40
0.4120495207317158
 40
0.4985389234182298
 40
0.5654159866690202
 40
0.6509023544104405
 40
0.6509023544104405
 40
0.6509023544104405
 40
0.6509023544104405
 10
-51.7302616751656
 20
12.50372953306684
 10
-51.72250972741318
 20
12.28042993765319
 10
-51.7049706715673
 20
11.77520670867943
 10
-51.45830183546912
 20
11.01272899934195
 10
-50.70619437300852
 20
10.49759629449973
 10
-49.8251698126684
 20
10.4107231579618
 10
-48.92313273835776
 20
10.49749520180978
 10
-48.18766130508738
 20
10.93968926311738
 10
-47.88526518983896
 20
11.71052808496217
 10
-47.86377509624168
 20
12.21864242747865
 10
-47.85171767516569
 20
12.50372953306684
 72
     1
 10
-47.85171767516569
 20
12.50372953306684
 11
-47.85171767516569
 21
16.44881753306684
 72
     1
 10
-47.85171767516569
 20
16.44881753306684
 11
-49.22061567516561
 21
16.44881753306684
 72
     1
 10
-49.22061567516561
 20
16.44881753306684
 11
-49.22061567516561
 21
12.15437553306683
 72
     4
 94
        3
 73
     0
 74
     0
 95
       12
 96
        8
 40
0.0
 40
0.0
 40
0.0
 40
0.0
 40
0.0459373561447192
 40
0.0841298945751798
 40
0.1189845232173717
 40
0.1628560898790358
 40
0.2038542643486715
 40
0.2038542643486715
 40
0.2038542643486715
 40
0.2038542643486715
 10
-49.22061567516561
 20
12.15437553306683
 10
-49.2268789446577
 20
11.99485470427934
 10
-49.23834952647364
 20
11.70270749262533
 10
-49.57024113653026
 20
11.41847892432864
 10
-49.99594522261111
 20
11.40074526513182
 10
-50.29158571586791
 20
11.73973014957667
 10
-50.33863533382652
 20
12.01931596640863
 10
-50.36136367516565
 20
12.15437597654793
 72
     1
 10
-50.36136367516565
 20
12.15437597654793
 11
-50.36136367516565
 21
16.44881753306684
 72
     1
 10
-50.36136367516565
 20
16.44881753306684
 11
-51.7302616751656
 21
16.44881753306684
 72
     1
 10
-51.7302616751656
 20
16.44881753306684
 11
-51.7302616751656
 21
12.50372953306684
 97
        8
330
189
330
190
330
18F
330
18E
330
18D
330
18C
330
18B
330
18A
 75
     0
 76
     1
 98
        1
 10
0.0
 20
0.0
450
        0
451
        0
460
0.0
461
0.0
452
        0
462
0.0
453
        0
470

  0
LINE
  5
192
102
{ACAD_REACTORS
330
1A0
102
}
330
162
100
AcDbEntity
  8
0
100
AcDbLine
 10
-44.98677667516563
 20
16.44881753306684
 30
10.0
 11
-44.26073767516562
 21
12.52868353306683
 31
10.0
  0
LINE
  5
193
102
{ACAD_REACTORS
330
1A0
102
}
330
162
100
AcDbEntity
  8
0
100
AcDbLine
 10
-47.01516967516568
 20
16.44881753306684
 30
10.0
 11
-44.98677667516563
 21
16.44881753306684
 31
10.0
  0
LINE
  5
194
102
{ACAD_REACTORS
330
1A0
102
}
330
162
100
AcDbEntity
  8
0
100
AcDbLine
 10
-47.01516967516568
 20
10.44087653306682
 30
10.0
 11
-47.01516967516568
 21
16.44881753306684
 31
10.0
  0
LINE
  5
195
102
{ACAD_REACTORS
330
1A0
102
}
330
162
100
AcDbEntity
  8
0
100
AcDbLine
 10
-45.79837167516565
 20
10.44087653306682
 30
10.0
 11
-47.01516967516568
 21
10.44087653306682
 31
10.0
  0
LINE
  5
196
102
{ACAD_REACTORS
330
1A0
102
}
330
162
100
AcDbEntity
  8
0
100
AcDbLine
 10
-45.79837167516565
 20
15.1559695330669
 30
10.0
 11
-45.79837167516565
 21
10.44087653306682
 31
10.0
  0
LINE
  5
197
102
{ACAD_REACTORS
330
1A0
102
}
330
162
100
AcDbEntity
  8
0
100
AcDbLine
 10
-44.83467667516558
 20
10.44087653306682
 30
10.0
 11
-45.79837167516565
 21
15.1559695330669
 31
10.0
  0
LINE
  5
198
102
{ACAD_REACTORS
330
1A0
102
}
330
162
100
AcDbEntity
  8
0
100
AcDbLine
 10
-43.74621267516555
 20
10.44087653306682
 30
10.0
 11
-44.83467667516558
 21
10.44087653306682
 31
10.0
  0
LINE
  5
199
102
{ACAD_REACTORS
330
1A0
102
}
330
162
100
AcDbEntity
  8
0
100
AcDbLine
 10
-42.83242567516563
 20
15.15596953306682
 30
10.0
 11
-43.74621267516555
 21
10.44087653306682
 31
10.0
  0
LINE
  5
19A
102
{ACAD_REACTORS
330
1A0
102
}
330
162
100
AcDbEntity
  8
0
100
AcDbLine
 10
-42.83242567516563
 20
10.44087653306682
 30
10.0
 11
-42.83242567516563
 21
15.15596953306682
 31
10.0
  0
LINE
  5
19B
102
{ACAD_REACTORS
330
1A0
102
}
330
162
100
AcDbEntity
  8
0
100
AcDbLine
 10
-41.53957767516555
 20
10.44087653306682
 30
10.0
 11
-42.83242567516563
 21
10.44087653306682
 31
10.0
  0
LINE
  5
19C
102
{ACAD_REACTORS
330
1A0
102
}
330
162
100
AcDbEntity
  8
0
100
AcDbLine
 10
-41.53957767516555
 20
16.44881753306684
 30
10.0
 11
-41.53957767516555
 21
10.44087653306682
 31
10.0
  0
LINE
  5
19D
102
{ACAD_REACTORS
330
1A0
102
}
330
162
100
AcDbEntity
  8
0
100
AcDbLine
 10
-43.54301667516562
 20
16.44881753306684
 30
10.0
 11
-41.53957767516555
 21
16.44881753306684
 31
10.0
  0
LINE
  5
19E
102
{ACAD_REACTORS
330
1A0
102
}
330
162
100
AcDbEntity
  8
0
100
AcDbLine
 10
-44.24410167516565
 20
12.52868353306683
 30
10.0
 11
-43.54301667516562
 21
16.44881753306684
 31
10.0
  0
LINE
  5
19F
102
{ACAD_REACTORS
330
1A0
102
}
330
162
100
AcDbEntity
  8
0
100
AcDbLine
 10
-44.26073767516562
 20
12.52868353306683
 30
10.0
 11
-44.24410167516565
 21
12.52868353306683
 31
10.0
  0
HATCH
  5
1A0
330
162
100
AcDbEntity
  8
Schraffur (ISO)
100
AcDbHatch
 10
0.0
 20
0.0
 30
0.0
210
0.0
220
0.0
230
1.0
  2
SOLID
 70
     1
 71
     1
 91
        1
 92
        1
 93
       14
 72
     1
 10
-44.98677667516563
 20
16.44881753306684
 11
-44.26073767516562
 21
12.52868353306683
 72
     1
 10
-44.26073767516562
 20
12.52868353306683
 11
-44.24410167516565
 21
12.52868353306683
 72
     1
 10
-44.24410167516565
 20
12.52868353306683
 11
-43.54301667516562
 21
16.44881753306684
 72
     1
 10
-43.54301667516562
 20
16.44881753306684
 11
-41.53957767516555
 21
16.44881753306684
 72
     1
 10
-41.53957767516555
 20
16.44881753306684
 11
-41.53957767516555
 21
10.44087653306682
 72
     1
 10
-41.53957767516555
 20
10.44087653306682
 11
-42.83242567516563
 21
10.44087653306682
 72
     1
 10
-42.83242567516563
 20
10.44087653306682
 11
-42.83242567516563
 21
15.15596953306682
 72
     1
 10
-42.83242567516563
 20
15.15596953306682
 11
-43.74621267516555
 21
10.44087653306682
 72
     1
 10
-43.74621267516555
 20
10.44087653306682
 11
-44.83467667516558
 21
10.44087653306682
 72
     1
 10
-44.83467667516558
 20
10.44087653306682
 11
-45.79837167516565
 21
15.1559695330669
 72
     1
 10
-45.79837167516565
 20
15.1559695330669
 11
-45.79837167516565
 21
10.44087653306682
 72
     1
 10
-45.79837167516565
 20
10.44087653306682
 11
-47.01516967516568
 21
10.44087653306682
 72
     1
 10
-47.01516967516568
 20
10.44087653306682
 11
-47.01516967516568
 21
16.44881753306684
 72
     1
 10
-47.01516967516568
 20
16.44881753306684
 11
-44.98677667516563
 21
16.44881753306684
 97
       14
330
192
330
19F
330
19E
330
19D
330
19C
330
19B
330
19A
330
199
330
198
330
197
330
196
330
195
330
194
330
193
 75
     0
 76
     1
 98
        1
 10
0.0
 20
0.0
450
        0
451
        0
460
0.0
461
0.0
452
        0
462
0.0
453
        0
470

  0
LINE
  5
1A1
102
{ACAD_REACTORS
330
1AD
102
}
330
162
100
AcDbEntity
  8
0
100
AcDbLine
 10
-39.2521406751656
 20
12.64632353306684
 30
0.0
 11
-38.24923267516571
 21
12.64632353306684
 31
0.0
  0
LINE
  5
1A2
102
{ACAD_REACTORS
330
1AD
102
}
330
162
100
AcDbEntity
  8
0
100
AcDbLine
 10
-38.24923267516571
 20
12.64632353306684
 30
0.0
 11
-38.75068667516565
 21
15.46016853306682
 31
0.0
  0
LINE
  5
1A3
102
{ACAD_REACTORS
330
1AD
102
}
330
162
100
AcDbEntity
  8
0
100
AcDbLine
 10
-38.75068667516565
 20
15.46016853306682
 30
0.0
 11
-38.76732267516559
 21
15.46016853306682
 31
0.0
  0
LINE
  5
1A4
102
{ACAD_REACTORS
330
1AD
102
}
330
162
100
AcDbEntity
  8
0
100
AcDbLine
 10
-38.76732267516559
 20
15.46016853306682
 30
0.0
 11
-39.2521406751656
 21
12.64632353306684
 31
0.0
  0
LINE
  5
1A5
102
{ACAD_REACTORS
330
1AD
102
}
330
162
100
AcDbEntity
  8
0
100
AcDbLine
 10
-37.80719267516563
 20
10.44087653306682
 30
0.0
 11
-36.36818667516561
 21
10.44087653306682
 31
0.0
  0
LINE
  5
1A6
102
{ACAD_REACTORS
330
1AD
102
}
330
162
100
AcDbEntity
  8
0
100
AcDbLine
 10
-38.02227067516558
 20
11.65767453306683
 30
0.0
 11
-37.80719267516563
 21
10.44087653306682
 31
0.0
  0
LINE
  5
1A7
102
{ACAD_REACTORS
330
1AD
102
}
330
162
100
AcDbEntity
  8
0
100
AcDbLine
 10
-39.43751167516563
 20
11.65767453306683
 30
0.0
 11
-38.02227067516558
 21
11.65767453306683
 31
0.0
  0
LINE
  5
1A8
102
{ACAD_REACTORS
330
1AD
102
}
330
162
100
AcDbEntity
  8
0
100
AcDbLine
 10
-39.64427267516566
 20
10.44087653306682
 30
0.0
 11
-39.43751167516563
 21
11.65767453306683
 31
0.0
  0
LINE
  5
1A9
102
{ACAD_REACTORS
330
1AD
102
}
330
162
100
AcDbEntity
  8
0
100
AcDbLine
 10
-41.0832786751656
 20
10.44087653306682
 30
0.0
 11
-39.64427267516566
 21
10.44087653306682
 31
0.0
  0
LINE
  5
1AA
102
{ACAD_REACTORS
330
1AD
102
}
330
162
100
AcDbEntity
  8
0
100
AcDbLine
 10
-39.57772867516564
 20
16.44881753306684
 30
0.0
 11
-41.0832786751656
 21
10.44087653306682
 31
0.0
  0
LINE
  5
1AB
102
{ACAD_REACTORS
330
1AD
102
}
330
162
100
AcDbEntity
  8
0
100
AcDbLine
 10
-37.84046467516564
 20
16.44881753306684
 30
0.0
 11
-39.57772867516564
 21
16.44881753306684
 31
0.0
  0
LINE
  5
1AC
102
{ACAD_REACTORS
330
1AD
102
}
330
162
100
AcDbEntity
  8
0
100
AcDbLine
 10
-36.36818667516561
 20
10.44087653306682
 30
0.0
 11
-37.84046467516564
 21
16.44881753306684
 31
0.0
  0
HATCH
  5
1AD
330
162
100
AcDbEntity
  8
Schraffur (ISO)
100
AcDbHatch
 10
0.0
 20
0.0
 30
0.0
210
0.0
220
0.0
230
1.0
  2
SOLID
 70
     1
 71
     1
 91
        2
 92
        0
 93
        4
 72
     1
 10
-39.2521406751656
 20
12.64632353306684
 11
-38.24923267516571
 21
12.64632353306684
 72
     1
 10
-38.24923267516571
 20
12.64632353306684
 11
-38.75068667516565
 21
15.46016853306682
 72
     1
 10
-38.75068667516565
 20
15.46016853306682
 11
-38.76732267516559
 21
15.46016853306682
 72
     1
 10
-38.76732267516559
 20
15.46016853306682
 11
-39.2521406751656
 21
12.64632353306684
 97
        4
330
1A1
330
1A2
330
1A3
330
1A4
 92
        1
 93
        8
 72
     1
 10
-37.80719267516563
 20
10.44087653306682
 11
-36.36818667516561
 21
10.44087653306682
 72
     1
 10
-36.36818667516561
 20
10.44087653306682
 11
-37.84046467516564
 21
16.44881753306684
 72
     1
 10
-37.84046467516564
 20
16.44881753306684
 11
-39.57772867516564
 21
16.44881753306684
 72
     1
 10
-39.57772867516564
 20
16.44881753306684
 11
-41.0832786751656
 21
10.44087653306682
 72
     1
 10
-41.0832786751656
 20
10.44087653306682
 11
-39.64427267516566
 21
10.44087653306682
 72
     1
 10
-39.64427267516566
 20
10.44087653306682
 11
-39.43751167516563
 21
11.65767453306683
 72
     1
 10
-39.43751167516563
 20
11.65767453306683
 11
-38.02227067516558
 21
11.65767453306683
 72
     1
 10
-38.02227067516558
 20
11.65767453306683
 11
-37.80719267516563
 21
10.44087653306682
 97
        8
330
1A5
330
1AC
330
1AB
330
1AA
330
1A9
330
1A8
330
1A7
330
1A6
 75
     0
 76
     1
 98
        1
 10
0.0
 20
0.0
450
        0
451
        0
460
0.0
461
0.0
452
        0
462
0.0
453
        0
470

  0
LINE
  5
1AE
102
{ACAD_REACTORS
330
1B6
102
}
330
162
100
AcDbEntity
  8
0
100
AcDbLine
 10
-33.7824906751656
 20
15.30806953306683
 30
10.0
 11
-33.7824906751656
 21
10.44087653306682
 31
10.0
  0
LINE
  5
1AF
102
{ACAD_REACTORS
330
1B6
102
}
330
162
100
AcDbEntity
  8
0
100
AcDbLine
 10
-32.52410267516563
 20
15.30806953306683
 30
10.0
 11
-33.7824906751656
 21
15.30806953306683
 31
10.0
  0
LINE
  5
1B0
102
{ACAD_REACTORS
330
1B6
102
}
330
162
100
AcDbEntity
  8
0
100
AcDbLine
 10
-32.52410267516563
 20
16.44881753306684
 30
10.0
 11
-32.52410267516563
 21
15.30806953306683
 31
10.0
  0
LINE
  5
1B1
102
{ACAD_REACTORS
330
1B6
102
}
330
162
100
AcDbEntity
  8
0
100
AcDbLine
 10
-36.36818667516561
 20
16.44881753306684
 30
10.0
 11
-32.52410267516563
 21
16.44881753306684
 31
10.0
  0
LINE
  5
1B2
102
{ACAD_REACTORS
330
1B6
102
}
330
162
100
AcDbEntity
  8
0
100
AcDbLine
 10
-36.36818667516561
 20
15.30806953306683
 30
10.0
 11
-36.36818667516561
 21
16.44881753306684
 31
10.0
  0
LINE
  5
1B3
102
{ACAD_REACTORS
330
1B6
102
}
330
162
100
AcDbEntity
  8
0
100
AcDbLine
 10
-35.15138767516564
 20
15.30806953306683
 30
10.0
 11
-36.36818667516561
 21
15.30806953306683
 31
10.0
  0
LINE
  5
1B4
102
{ACAD_REACTORS
330
1B6
102
}
330
162
100
AcDbEntity
  8
0
100
AcDbLine
 10
-35.15138767516564
 20
10.44087653306682
 30
10.0
 11
-35.15138767516564
 21
15.30806953306683
 31
10.0
  0
LINE
  5
1B5
102
{ACAD_REACTORS
330
1B6
102
}
330
162
100
AcDbEntity
  8
0
100
AcDbLine
 10
-33.7824906751656
 20
10.44087653306682
 30
10.0
 11
-35.15138767516564
 21
10.44087653306682
 31
10.0
  0
HATCH
  5
1B6
330
162
100
AcDbEntity
  8
Schraffur (ISO)
100
AcDbHatch
 10
0.0
 20
0.0
 30
0.0
210
0.0
220
0.0
230
1.0
  2
SOLID
 70
     1
 71
     1
 91
        1
 92
        1
 93
        8
 72
     1
 10
-33.7824906751656
 20
15.30806953306683
 11
-33.7824906751656
 21
10.44087653306682
 72
     1
 10
-33.7824906751656
 20
10.44087653306682
 11
-35.15138767516564
 21
10.44087653306682
 72
     1
 10
-35.15138767516564
 20
10.44087653306682
 11
-35.15138767516564
 21
15.30806953306683
 72
     1
 10
-35.15138767516564
 20
15.30806953306683
 11
-36.36818667516561
 21
15.30806953306683
 72
     1
 10
-36.36818667516561
 20
15.30806953306683
 11
-36.36818667516561
 21
16.44881753306684
 72
     1
 10
-36.36818667516561
 20
16.44881753306684
 11
-32.52410267516563
 21
16.44881753306684
 72
     1
 10
-32.52410267516563
 20
16.44881753306684
 11
-32.52410267516563
 21
15.30806953306683
 72
     1
 10
-32.52410267516563
 20
15.30806953306683
 11
-33.7824906751656
 21
15.30806953306683
 97
        8
330
1AE
330
1B5
330
1B4
330
1B3
330
1B2
330
1B1
330
1B0
330
1AF
 75
     0
 76
     1
 98
        1
 10
0.0
 20
0.0
450
        0
451
        0
460
0.0
461
0.0
452
        0
462
0.0
453
        0
470

  0
LINE
  5
1B7
102
{ACAD_REACTORS
330
1C3
102
}
330
162
100
AcDbEntity
  8
0
100
AcDbLine
 10
-30.66444567516566
 20
11.58162453306683
 30
10.0
 11
-28.55049667516564
 21
11.58162453306683
 31
10.0
  0
LINE
  5
1B8
102
{ACAD_REACTORS
330
1C3
102
}
330
162
100
AcDbEntity
  8
0
100
AcDbLine
 10
-30.66444567516566
 20
12.95052253306684
 30
10.0
 11
-30.66444567516566
 21
11.58162453306683
 31
10.0
  0
LINE
  5
1B9
102
{ACAD_REACTORS
330
1C3
102
}
330
162
100
AcDbEntity
  8
0
100
AcDbLine
 10
-28.76438667516563
 20
12.95052253306684
 30
10.0
 11
-30.66444567516566
 21
12.95052253306684
 31
10.0
  0
LINE
  5
1BA
102
{ACAD_REACTORS
330
1C3
102
}
330
162
100
AcDbEntity
  8
0
100
AcDbLine
 10
-28.76438667516563
 20
14.09127053306683
 30
10.0
 11
-28.76438667516563
 21
12.95052253306684
 31
10.0
  0
LINE
  5
1BB
102
{ACAD_REACTORS
330
1C3
102
}
330
162
100
AcDbEntity
  8
0
100
AcDbLine
 10
-30.66444567516566
 20
14.09127053306683
 30
10.0
 11
-28.76438667516563
 21
14.09127053306683
 31
10.0
  0
LINE
  5
1BC
102
{ACAD_REACTORS
330
1C3
102
}
330
162
100
AcDbEntity
  8
0
100
AcDbLine
 10
-30.66444567516566
 20
15.30806953306683
 30
10.0
 11
-30.66444567516566
 21
14.09127053306683
 31
10.0
  0
LINE
  5
1BD
102
{ACAD_REACTORS
330
1C3
102
}
330
162
100
AcDbEntity
  8
0
100
AcDbLine
 10
-28.6408056751657
 20
15.30806953306683
 30
10.0
 11
-30.66444567516566
 21
15.30806953306683
 31
10.0
  0
LINE
  5
1BE
102
{ACAD_REACTORS
330
1C3
102
}
330
162
100
AcDbEntity
  8
0
100
AcDbLine
 10
-28.6408056751657
 20
16.44881753306684
 30
10.0
 11
-28.6408056751657
 21
15.30806953306683
 31
10.0
  0
LINE
  5
1BF
102
{ACAD_REACTORS
330
1C3
102
}
330
162
100
AcDbEntity
  8
0
100
AcDbLine
 10
-32.03334267516563
 20
16.44881753306684
 30
10.0
 11
-28.6408056751657
 21
16.44881753306684
 31
10.0
  0
LINE
  5
1C0
102
{ACAD_REACTORS
330
1C3
102
}
330
162
100
AcDbEntity
  8
0
100
AcDbLine
 10
-32.03334267516563
 20
10.44087653306682
 30
10.0
 11
-32.03334267516563
 21
16.44881753306684
 31
10.0
  0
LINE
  5
1C1
102
{ACAD_REACTORS
330
1C3
102
}
330
162
100
AcDbEntity
  8
0
100
AcDbLine
 10
-28.55049667516564
 20
10.44087653306682
 30
10.0
 11
-32.03334267516563
 21
10.44087653306682
 31
10.0
  0
LINE
  5
1C2
102
{ACAD_REACTORS
330
1C3
102
}
330
162
100
AcDbEntity
  8
0
100
AcDbLine
 10
-28.55049667516564
 20
11.58162453306683
 30
10.0
 11
-28.55049667516564
 21
10.44087653306682
 31
10.0
  0
HATCH
  5
1C3
330
162
100
AcDbEntity
  8
Schraffur (ISO)
100
AcDbHatch
 10
0.0
 20
0.0
 30
0.0
210
0.0
220
0.0
230
1.0
  2
SOLID
 70
     1
 71
     1
 91
        1
 92
        1
 93
       12
 72
     1
 10
-30.66444567516566
 20
11.58162453306683
 11
-28.55049667516564
 21
11.58162453306683
 72
     1
 10
-28.55049667516564
 20
11.58162453306683
 11
-28.55049667516564
 21
10.44087653306682
 72
     1
 10
-28.55049667516564
 20
10.44087653306682
 11
-32.03334267516563
 21
10.44087653306682
 72
     1
 10
-32.03334267516563
 20
10.44087653306682
 11
-32.03334267516563
 21
16.44881753306684
 72
     1
 10
-32.03334267516563
 20
16.44881753306684
 11
-28.6408056751657
 21
16.44881753306684
 72
     1
 10
-28.6408056751657
 20
16.44881753306684
 11
-28.6408056751657
 21
15.30806953306683
 72
     1
 10
-28.6408056751657
 20
15.30806953306683
 11
-30.66444567516566
 21
15.30806953306683
 72
     1
 10
-30.66444567516566
 20
15.30806953306683
 11
-30.66444567516566
 21
14.09127053306683
 72
     1
 10
-30.66444567516566
 20
14.09127053306683
 11
-28.76438667516563
 21
14.09127053306683
 72
     1
 10
-28.76438667516563
 20
14.09127053306683
 11
-28.76438667516563
 21
12.95052253306684
 72
     1
 10
-28.76438667516563
 20
12.95052253306684
 11
-30.66444567516566
 21
12.95052253306684
 72
     1
 10
-30.66444567516566
 20
12.95052253306684
 11
-30.66444567516566
 21
11.58162453306683
 97
       12
330
1B7
330
1C2
330
1C1
330
1C0
330
1BF
330
1BE
330
1BD
330
1BC
330
1BB
330
1BA
330
1B9
330
1B8
 75
     0
 76
     1
 98
        1
 10
0.0
 20
0.0
450
        0
451
        0
460
0.0
461
0.0
452
        0
462
0.0
453
        0
470

  0
LINE
  5
1C4
102
{ACAD_REACTORS
330
1D1
102
}
330
162
100
AcDbEntity
  8
0
100
AcDbLine
 10
-25.43246658829611
 20
16.4546514228036
 30
10.0
 11
-23.90435631161623
 21
16.46180057898531
 31
10.0
  0
LINE
  5
1C5
102
{ACAD_REACTORS
330
1D1
102
}
330
162
100
AcDbEntity
  8
0
100
AcDbLine
 10
-26.01549057645176
 20
14.58511635645683
 30
10.0
 11
-25.43246658829611
 21
16.4546514228036
 31
10.0
  0
LINE
  5
1C6
102
{ACAD_REACTORS
330
1D1
102
}
330
162
100
AcDbEntity
  8
0
100
AcDbLine
 10
-26.03093740740494
 20
14.58504408954738
 30
10.0
 11
-26.01549057645176
 21
14.58511635645683
 31
10.0
  0
LINE
  5
1C7
102
{ACAD_REACTORS
330
1D1
102
}
330
162
100
AcDbEntity
  8
0
100
AcDbLine
 10
-26.64612930682606
 20
16.44881753306684
 30
10.0
 11
-26.03093740740494
 21
14.58504408954738
 31
10.0
  0
LINE
  5
1C8
102
{ACAD_REACTORS
330
1D1
102
}
330
162
100
AcDbEntity
  8
0
100
AcDbLine
 10
-28.16787067516568
 20
16.44881753306684
 30
10.0
 11
-26.64612930682606
 21
16.44881753306684
 31
10.0
  0
LINE
  5
1C9
102
{ACAD_REACTORS
330
1D1
102
}
330
162
100
AcDbEntity
  8
0
100
AcDbLine
 10
-26.87026967516569
 20
13.49475453306683
 30
10.0
 11
-28.16787067516568
 21
16.44881753306684
 31
10.0
  0
LINE
  5
1CA
102
{ACAD_REACTORS
330
1D1
102
}
330
162
100
AcDbEntity
  8
0
100
AcDbLine
 10
-28.30689867516558
 20
10.44087653306682
 30
10.0
 11
-26.87026967516569
 21
13.49475453306683
 31
10.0
  0
LINE
  5
1CB
102
{ACAD_REACTORS
330
1D1
102
}
330
162
100
AcDbEntity
  8
0
100
AcDbLine
 10
-26.78946667516559
 20
10.44087653306682
 30
10.0
 11
-28.30689867516558
 21
10.44087653306682
 31
10.0
  0
LINE
  5
1CC
102
{ACAD_REACTORS
330
1D1
102
}
330
162
100
AcDbEntity
  8
0
100
AcDbLine
 10
-26.0800636751657
 20
12.44669253306682
 30
10.0
 11
-26.78946667516559
 21
10.44087653306682
 31
10.0
  0
LINE
  5
1CD
102
{ACAD_REACTORS
330
1D1
102
}
330
162
100
AcDbEntity
  8
0
100
AcDbLine
 10
-25.52255357088104
 20
10.44087653306682
 30
10.0
 11
-26.0800636751657
 21
12.44669253306682
 31
10.0
  0
LINE
  5
1CE
102
{ACAD_REACTORS
330
1D1
102
}
330
162
100
AcDbEntity
  8
0
100
AcDbLine
 10
-23.91733373362687
 20
10.44087653306682
 30
10.0
 11
-25.52255357088104
 21
10.44087653306682
 31
10.0
  0
LINE
  5
1CF
102
{ACAD_REACTORS
330
1D1
102
}
330
162
100
AcDbEntity
  8
0
100
AcDbLine
 10
-25.16745525516015
 20
13.49429112836466
 30
10.0
 11
-23.91733373362687
 21
10.44087653306682
 31
10.0
  0
LINE
  5
1D0
102
{ACAD_REACTORS
330
1D1
102
}
330
162
100
AcDbEntity
  8
0
100
AcDbLine
 10
-23.90435631161623
 20
16.46180057898531
 30
10.0
 11
-25.16745525516015
 21
13.49429112836466
 31
10.0
  0
HATCH
  5
1D1
330
162
100
AcDbEntity
  8
Schraffur (ISO)
100
AcDbHatch
 10
0.0
 20
0.0
 30
0.0
210
0.0
220
0.0
230
1.0
  2
SOLID
 70
     1
 71
     1
 91
        1
 92
        1
 93
       13
 72
     1
 10
-25.43246658829611
 20
16.4546514228036
 11
-23.90435631161623
 21
16.46180057898531
 72
     1
 10
-23.90435631161623
 20
16.46180057898531
 11
-25.16745525516015
 21
13.49429112836467
 72
     1
 10
-25.16745525516015
 20
13.49429112836466
 11
-23.91733373362687
 21
10.44087653306682
 72
     1
 10
-23.91733373362687
 20
10.44087653306682
 11
-25.52255357088104
 21
10.44087653306682
 72
     1
 10
-25.52255357088104
 20
10.44087653306682
 11
-26.0800636751657
 21
12.44669253306682
 72
     1
 10
-26.0800636751657
 20
12.44669253306682
 11
-26.78946667516559
 21
10.44087653306682
 72
     1
 10
-26.78946667516559
 20
10.44087653306682
 11
-28.30689867516558
 21
10.44087653306682
 72
     1
 10
-28.30689867516558
 20
10.44087653306682
 11
-26.87026967516569
 21
13.49475453306683
 72
     1
 10
-26.87026967516569
 20
13.49475453306683
 11
-28.16787067516568
 21
16.44881753306684
 72
     1
 10
-28.16787067516568
 20
16.44881753306684
 11
-26.64612930682606
 21
16.44881753306684
 72
     1
 10
-26.64612930682606
 20
16.44881753306684
 11
-26.03093740740494
 21
14.58504408954738
 72
     1
 10
-26.03093740740494
 20
14.58504408954738
 11
-26.01549057645176
 21
14.58511635645683
 72
     1
 10
-26.01549057645176
 20
14.58511635645683
 11
-25.43246658829611
 21
16.4546514228036
 97
       13
330
1C4
330
1D0
330
1CF
330
1CE
330
1CD
330
1CC
330
1CB
330
1CA
330
1C9
330
1C8
330
1C7
330
1C6
330
1C5
 75
     0
 76
     1
 98
        1
 10
0.0
 20
0.0
450
        0
451
        0
460
0.0
461
0.0
452
        0
462
0.0
453
        0
470

  0
LINE
  5
1D2
330
162
100
AcDbEntity
  8
Skizziergeometrie (ISO)
100
AcDbLine
 10
-66.74197817516563
 20
0.2208965330668366
 30
0.0
 11
-53.44197817516562
 21
0.2208965330668366
 31
0.0
  0
LINE
  5
1D3
330
162
100
AcDbEntity
  8
Skizziergeometrie (ISO)
100
AcDbLine
 10
-53.44197817516562
 20
0.2208965330668366
 30
0.0
 11
-53.44197817516562
 21
13.52089653306683
 31
0.0
  0
LINE
  5
1D4
330
162
100
AcDbEntity
  8
Skizziergeometrie (ISO)
100
AcDbLine
 10
-53.44197817516562
 20
13.52089653306683
 30
0.0
 11
-66.74197817516563
 21
13.52089653306683
 31
0.0
  0
LINE
  5
1D5
330
162
100
AcDbEntity
  8
Skizziergeometrie (ISO)
100
AcDbLine
 10
-66.74197817516563
 20
13.52089653306683
 30
0.0
 11
-66.74197817516563
 21
0.2208965330668366
 31
0.0
  0
LINE
  5
1D6
330
162
100
AcDbEntity
  8
Skizziergeometrie (ISO)
100
AcDbLine
 10
-74.30834701753944
 20
20.17089653306684
 30
0.0
 11
-61.00834701753945
 21
20.17089653306684
 31
0.0
  0
LINE
  5
1D7
330
162
100
AcDbEntity
  8
Skizziergeometrie (ISO)
100
AcDbLine
 10
-61.00834701753945
 20
20.17089653306684
 30
0.0
 11
-61.00834701753945
 21
6.870896533066837
 31
0.0
  0
LINE
  5
1D8
330
162
100
AcDbEntity
  8
Skizziergeometrie (ISO)
100
AcDbLine
 10
-61.00834701753945
 20
6.870896533066837
 30
0.0
 11
-74.30834701753944
 21
6.870896533066837
 31
0.0
  0
LINE
  5
1D9
330
162
100
AcDbEntity
  8
Skizziergeometrie (ISO)
100
AcDbLine
 10
-74.30834701753944
 20
6.870896533066837
 30
0.0
 11
-74.30834701753944
 21
20.17089653306684
 31
0.0
  0
LINE
  5
1DA
330
162
100
AcDbEntity
  8
Skizziergeometrie (ISO)
100
AcDbLine
 10
-49.79098967516563
 20
25.34881753306685
 30
0.0
 11
-36.49098967516564
 21
25.34881753306685
 31
0.0
  0
LINE
  5
1DB
330
162
100
AcDbEntity
  8
Skizziergeometrie (ISO)
100
AcDbLine
 10
-36.49098967516564
 20
25.34881753306685
 30
0.0
 11
-36.49098967516564
 21
12.04881753306685
 31
0.0
  0
LINE
  5
1DC
330
162
100
AcDbEntity
  8
Skizziergeometrie (ISO)
100
AcDbLine
 10
-36.49098967516564
 20
12.04881753306685
 30
0.0
 11
-49.79098967516563
 21
12.04881753306685
 31
0.0
  0
LINE
  5
1DD
330
162
100
AcDbEntity
  8
Skizziergeometrie (ISO)
100
AcDbLine
 10
-49.79098967516563
 20
12.04881753306685
 30
0.0
 11
-49.79098967516563
 21
25.34881753306685
 31
0.0
  0
MTEXT
  5
1DE
330
162
100
AcDbEntity
  8
Titel (ISO)
100
AcDbMText
 10
-23.23075129610368
 20
16.30481426074307
 30
0.0
 40
2.5
 41
0.0
 71
     4
 72
     1
  1
\fAIGDT|b0|i0;\H2.5000;}
  7
Notiztext (DIN)
 73
     1
 44
1.0
  0
ENDBLK
  5
164
330
162
100
AcDbEntity
  8
0
100
AcDbBlockEnd
  0
BLOCK
  5
1E0
330
1DF
100
AcDbEntity
  8
0
100
AcDbBlockBegin
  2
P gross
 70
     0
 10
0.0
 20
0.0
 30
0.0
  3
P gross
  1

  0
LINE
  5
1E2
102
{ACAD_REACTORS
330
1F0
102
}
330
1DF
100
AcDbEntity
  8
0
100
AcDbLine
 10
8.769225522167296
 20
4.689310313762291
 30
0.0
 11
7.981577449080567
 21
4.689310313762327
 31
0.0
  0
LINE
  5
1E3
102
{ACAD_REACTORS
330
1F0
102
}
330
1DF
100
AcDbEntity
  8
0
100
AcDbLine
 10
7.981577449080567
 20
4.689310313762327
 30
0.0
 11
7.981577449080567
 21
0.7845927762325644
 31
0.0
  0
LINE
  5
1E4
102
{ACAD_REACTORS
330
1F0
102
}
330
1DF
100
AcDbEntity
  8
0
100
AcDbLine
 10
7.981577449080567
 20
0.7845927762325644
 30
0.0
 11
8.769225522167296
 21
0.7845927762325644
 31
0.0
  0
ARC
  5
1E5
102
{ACAD_REACTORS
330
1F0
102
}
330
1DF
100
AcDbEntity
  8
0
100
AcDbCircle
 10
8.769225522167296
 20
2.284592776232585
 30
0.0
 40
1.5
100
AcDbArc
 50
270.0
 51
0.0
  0
LINE
  5
1E6
102
{ACAD_REACTORS
330
1F0
102
}
330
1DF
100
AcDbEntity
  8
0
100
AcDbLine
 10
10.26922552216724
 20
2.284592776232585
 30
0.0
 11
10.26922552216728
 21
3.189310313762341
 31
0.0
  0
ARC
  5
1E7
102
{ACAD_REACTORS
330
1F0
102
}
330
1DF
100
AcDbEntity
  8
0
100
AcDbCircle
 10
8.769225522167296
 20
3.189310313762341
 30
0.0
 40
1.5
100
AcDbArc
 50
0.0
 51
90.0
  0
LINE
  5
1E8
102
{ACAD_REACTORS
330
1F0
102
}
330
1DF
100
AcDbEntity
  8
0
100
AcDbLine
 10
4.481577449080553
 20
7.033965470643472
 30
0.0
 11
4.481577449080553
 21
-7.033965470643472
 31
0.0
  0
LINE
  5
1E9
102
{ACAD_REACTORS
330
1F0
102
}
330
1DF
100
AcDbEntity
  8
0
100
AcDbLine
 10
9.557661927330194
 20
7.033965470643472
 30
0.0
 11
4.481577449080553
 21
7.033965470643472
 31
0.0
  0
ARC
  5
1EA
102
{ACAD_REACTORS
330
1F0
102
}
330
1DF
100
AcDbEntity
  8
0
100
AcDbCircle
 10
9.557661927330194
 20
3.033965470643487
 30
0.0
 40
4.0
100
AcDbArc
 50
0.0
 51
90.0
  0
LINE
  5
1EB
102
{ACAD_REACTORS
330
1F0
102
}
330
1DF
100
AcDbEntity
  8
0
100
AcDbLine
 10
13.55766192733018
 20
2.439937619351439
 30
0.0
 11
13.55766192733018
 21
3.033965470643487
 31
0.0
  0
ARC
  5
1EC
102
{ACAD_REACTORS
330
1F0
102
}
330
1DF
100
AcDbEntity
  8
0
100
AcDbCircle
 10
9.557661927330194
 20
2.439937619351439
 30
0.0
 40
4.0
100
AcDbArc
 50
270.0
 51
0.0
  0
LINE
  5
1ED
102
{ACAD_REACTORS
330
1F0
102
}
330
1DF
100
AcDbEntity
  8
0
100
AcDbLine
 10
7.981577449080603
 20
-1.560062380648581
 30
0.0
 11
9.557661927330194
 21
-1.560062380648581
 31
0.0
  0
LINE
  5
1EE
102
{ACAD_REACTORS
330
1F0
102
}
330
1DF
100
AcDbEntity
  8
0
100
AcDbLine
 10
7.981577449080567
 20
-7.033965470643508
 30
0.0
 11
7.981577449080603
 21
-1.560062380648581
 31
0.0
  0
LINE
  5
1EF
102
{ACAD_REACTORS
330
1F0
102
}
330
1DF
100
AcDbEntity
  8
0
100
AcDbLine
 10
4.481577449080553
 20
-7.033965470643472
 30
0.0
 11
7.981577449080567
 21
-7.033965470643508
 31
0.0
  0
HATCH
  5
1F0
330
1DF
100
AcDbEntity
  8
Schraffur (ISO)
100
AcDbHatch
 10
0.0
 20
0.0
 30
0.0
210
0.0
220
0.0
230
1.0
  2
SOLID
 70
     1
 71
     1
 91
        2
 92
        0
 93
        6
 72
     1
 10
8.769225522167296
 20
4.689310313762291
 11
7.981577449080567
 21
4.689310313762327
 72
     1
 10
7.981577449080567
 20
4.689310313762327
 11
7.981577449080567
 21
0.7845927762325644
 72
     1
 10
7.981577449080567
 20
0.7845927762325644
 11
8.769225522167296
 21
0.7845927762325644
 72
     2
 10
8.769225522167296
 20
2.284592776232585
 40
1.5
 50
270.0
 51
360.0
 73
     1
 72
     1
 10
10.26922552216724
 20
2.284592776232585
 11
10.26922552216728
 21
3.189310313762341
 72
     2
 10
8.769225522167296
 20
3.189310313762341
 40
1.5
 50
0.0
 51
90.0
 73
     1
 97
        6
330
1E2
330
1E3
330
1E4
330
1E5
330
1E6
330
1E7
 92
        1
 93
        8
 72
     1
 10
4.481577449080553
 20
7.033965470643472
 11
4.481577449080553
 21
-7.033965470643472
 72
     1
 10
4.481577449080553
 20
-7.033965470643472
 11
7.981577449080567
 21
-7.033965470643508
 72
     1
 10
7.981577449080567
 20
-7.033965470643508
 11
7.981577449080603
 21
-1.560062380648581
 72
     1
 10
7.981577449080603
 20
-1.560062380648581
 11
9.557661927330194
 21
-1.560062380648581
 72
     2
 10
9.557661927330194
 20
2.439937619351439
 40
4.0
 50
270.0
 51
360.0
 73
     1
 72
     1
 10
13.55766192733018
 20
2.439937619351439
 11
13.55766192733018
 21
3.033965470643487
 72
     2
 10
9.557661927330194
 20
3.033965470643487
 40
4.0
 50
0.0
 51
90.0
 73
     1
 72
     1
 10
9.557661927330194
 20
7.033965470643472
 11
4.481577449080553
 21
7.033965470643472
 97
        8
330
1E8
330
1EF
330
1EE
330
1ED
330
1EC
330
1EB
330
1EA
330
1E9
 75
     0
 76
     1
 98
        1
 10
0.0
 20
0.0
450
        0
451
        0
460
0.0
461
0.0
452
        0
462
0.0
453
        0
470

  0
LINE
  5
1F1
330
1DF
100
AcDbEntity
  8
Skizziergeometrie (ISO)
100
AcDbLine
 10
-13.99999999999998
 20
14.00746616799352
 30
0.0
 11
14.00000000000002
 21
14.00746616799352
 31
0.0
  0
LINE
  5
1F2
330
1DF
100
AcDbEntity
  8
Skizziergeometrie (ISO)
100
AcDbLine
 10
14.00000000000002
 20
14.00746616799352
 30
0.0
 11
14.00000000000002
 21
-14.00746616799352
 31
0.0
  0
LINE
  5
1F3
330
1DF
100
AcDbEntity
  8
Skizziergeometrie (ISO)
100
AcDbLine
 10
14.00000000000002
 20
-14.00746616799352
 30
0.0
 11
-13.99999999999998
 21
-14.00746616799352
 31
0.0
  0
LINE
  5
1F4
330
1DF
100
AcDbEntity
  8
Skizziergeometrie (ISO)
100
AcDbLine
 10
-13.99999999999998
 20
-14.00746616799352
 30
0.0
 11
-13.99999999999998
 21
14.00746616799352
 31
0.0
  0
LINE
  5
1F5
330
1DF
100
AcDbEntity
  8
Skizziergeometrie (ISO)
100
AcDbLine
 10
4.481577449080553
 20
7.033965470643472
 30
0.0
 11
4.481577449080553
 21
-7.033965470643472
 31
0.0
  0
LINE
  5
1F6
330
1DF
100
AcDbEntity
  8
Skizziergeometrie (ISO)
100
AcDbLine
 10
4.481577449080553
 20
-7.033965470643472
 30
0.0
 11
7.981577449080567
 21
-7.033965470643508
 31
0.0
  0
LINE
  5
1F7
330
1DF
100
AcDbEntity
  8
Skizziergeometrie (ISO)
100
AcDbLine
 10
7.981577449080567
 20
-7.033965470643508
 30
0.0
 11
7.981577449080603
 21
-1.560062380648581
 31
0.0
  0
LINE
  5
1F8
330
1DF
100
AcDbEntity
  8
Skizziergeometrie (ISO)
100
AcDbLine
 10
7.981577449080603
 20
-1.560062380648581
 30
0.0
 11
9.557661927330194
 21
-1.560062380648581
 31
0.0
  0
LINE
  5
1F9
330
1DF
100
AcDbEntity
  8
Skizziergeometrie (ISO)
100
AcDbLine
 10
9.557661927330194
 20
7.033965470643472
 30
0.0
 11
4.481577449080553
 21
7.033965470643472
 31
0.0
  0
ARC
  5
1FA
330
1DF
100
AcDbEntity
  8
Skizziergeometrie (ISO)
100
AcDbCircle
 10
9.557661927330194
 20
2.439937619351439
 30
0.0
 40
4.0
100
AcDbArc
 50
270.0
 51
0.0
  0
LINE
  5
1FB
330
1DF
100
AcDbEntity
  8
Skizziergeometrie (ISO)
100
AcDbLine
 10
13.55766192733018
 20
2.439937619351439
 30
0.0
 11
13.55766192733018
 21
3.033965470643487
 31
0.0
  0
ARC
  5
1FC
330
1DF
100
AcDbEntity
  8
Skizziergeometrie (ISO)
100
AcDbCircle
 10
9.557661927330194
 20
3.033965470643487
 30
0.0
 40
4.0
100
AcDbArc
 50
0.0
 51
90.0
  0
LINE
  5
1FD
330
1DF
100
AcDbEntity
  8
Skizziergeometrie (ISO)
100
AcDbLine
 10
7.981577449080567
 20
0.7845927762325644
 30
0.0
 11
7.981577449080567
 21
4.689310313762327
 31
0.0
  0
LINE
  5
1FE
330
1DF
100
AcDbEntity
  8
Skizziergeometrie (ISO)
100
AcDbLine
 10
7.981577449080567
 20
4.689310313762327
 30
0.0
 11
8.769225522167296
 21
4.689310313762291
 31
0.0
  0
ARC
  5
1FF
330
1DF
100
AcDbEntity
  8
Skizziergeometrie (ISO)
100
AcDbCircle
 10
8.769225522167296
 20
3.189310313762341
 30
0.0
 40
1.5
100
AcDbArc
 50
0.0
 51
90.0
  0
LINE
  5
200
330
1DF
100
AcDbEntity
  8
Skizziergeometrie (ISO)
100
AcDbLine
 10
10.26922552216728
 20
3.189310313762341
 30
0.0
 11
10.26922552216724
 21
2.284592776232585
 31
0.0
  0
ARC
  5
201
330
1DF
100
AcDbEntity
  8
Skizziergeometrie (ISO)
100
AcDbCircle
 10
8.769225522167296
 20
2.284592776232585
 30
0.0
 40
1.5
100
AcDbArc
 50
270.0
 51
0.0
  0
LINE
  5
202
330
1DF
100
AcDbEntity
  8
Skizziergeometrie (ISO)
100
AcDbLine
 10
8.769225522167296
 20
0.7845927762325644
 30
0.0
 11
7.981577449080567
 21
0.7845927762325644
 31
0.0
  0
ENDBLK
  5
1E1
330
1DF
100
AcDbEntity
  8
0
100
AcDbBlockEnd
  0
ENDSEC
  0
SECTION
  2
ENTITIES
  0
LINE
  5
203
330
37
100
AcDbEntity
  8
Sichtbar (ISO)
100
AcDbLine
 10
273.109966553504
 20
862.0652529735444
 30
0.0
 11
309.6157350479522
 21
862.0652529735444
 31
0.0
  0
POLYLINE
  5
204
330
37
100
AcDbEntity
  8
Sichtbar (ISO)
100
AcDb2dPolyline
 66
     1
 10
0.0
 20
0.0
 30
0.0
 70
   128
  0
VERTEX
  5
205
330
204
100
AcDbEntity
  8
Sichtbar (ISO)
100
AcDbVertex
100
AcDb2dVertex
 10
269.932814971184
 20
867.5682456722716
 30
0.0
  0
VERTEX
  5
206
330
204
100
AcDbEntity
  8
Sichtbar (ISO)
100
AcDbVertex
100
AcDb2dVertex
 10
270.0749863540881
 20
867.5923927059631
 30
0.0
  0
VERTEX
  5
208
330
204
100
AcDbEntity
  8
Sichtbar (ISO)
100
AcDbVertex
100
AcDb2dVertex
 10
270.4984749710314
 20
867.6635558834533
 30
0.0
  0
VERTEX
  5
209
330
204
100
AcDbEntity
  8
Sichtbar (ISO)
100
AcDbVertex
100
AcDb2dVertex
 10
271.198729411339
 20
867.7798087826232
 30
0.0
  0
VERTEX
  5
20A
330
204
100
AcDbEntity
  8
Sichtbar (ISO)
100
AcDbVertex
100
AcDb2dVertex
 10
272.1697570240252
 20
867.9389770260314
 30
0.0
  0
VERTEX
  5
20B
330
204
100
AcDbEntity
  8
Sichtbar (ISO)
100
AcDbVertex
100
AcDb2dVertex
 10
273.3948935425036
 20
868.1361396542053
 30
0.0
  0
VERTEX
  5
20C
330
204
100
AcDbEntity
  8
Sichtbar (ISO)
100
AcDbVertex
100
AcDb2dVertex
 10
274.8599697506183
 20
868.3662231197814
 30
0.0
  0
VERTEX
  5
20D
330
204
100
AcDbEntity
  8
Sichtbar (ISO)
100
AcDbVertex
100
AcDb2dVertex
 10
276.5520121013873
 20
868.6243255367736
 30
0.0
  0
VERTEX
  5
20E
330
204
100
AcDbEntity
  8
Sichtbar (ISO)
100
AcDbVertex
100
AcDb2dVertex
 10
278.4486175930254
 20
868.9039619198302
 30
0.0
  0
VERTEX
  5
20F
330
204
100
AcDbEntity
  8
Sichtbar (ISO)
100
AcDbVertex
100
AcDb2dVertex
 10
280.521524087166
 20
869.197731756256
 30
0.0
  0
VERTEX
  5
210
330
204
100
AcDbEntity
  8
Sichtbar (ISO)
100
AcDbVertex
100
AcDb2dVertex
 10
282.7512098705523
 20
869.4998939266662
 30
0.0
  0
VERTEX
  5
211
330
204
100
AcDbEntity
  8
Sichtbar (ISO)
100
AcDbVertex
100
AcDb2dVertex
 10
285.115213528847
 20
869.8042686214904
 30
0.0
  0
VERTEX
  5
212
330
204
100
AcDbEntity
  8
Sichtbar (ISO)
100
AcDbVertex
100
AcDb2dVertex
 10
287.5727321064227
 20
870.1029975643615
 30
0.0
  0
VERTEX
  5
213
330
204
100
AcDbEntity
  8
Sichtbar (ISO)
100
AcDbVertex
100
AcDb2dVertex
 10
290.0966168796771
 20
870.3913123836974
 30
0.0
  0
VERTEX
  5
214
330
204
100
AcDbEntity
  8
Sichtbar (ISO)
100
AcDbVertex
100
AcDb2dVertex
 10
292.6631499683612
 20
870.6649024715881
 30
0.0
  0
VERTEX
  5
215
330
204
100
AcDbEntity
  8
Sichtbar (ISO)
100
AcDbVertex
100
AcDb2dVertex
 10
295.2308703815692
 20
870.9182365169983
 30
0.0
  0
VERTEX
  5
216
330
204
100
AcDbEntity
  8
Sichtbar (ISO)
100
AcDbVertex
100
AcDb2dVertex
 10
297.7613808071368
 20
871.148300909088
 30
0.0
  0
VERTEX
  5
217
330
204
100
AcDbEntity
  8
Sichtbar (ISO)
100
AcDbVertex
100
AcDb2dVertex
 10
300.2305771267169
 20
871.3539703121643
 30
0.0
  0
VERTEX
  5
218
330
204
100
AcDbEntity
  8
Sichtbar (ISO)
100
AcDbVertex
100
AcDb2dVertex
 10
302.6087595379107
 20
871.5339477291564
 30
0.0
  0
VERTEX
  5
219
330
204
100
AcDbEntity
  8
Sichtbar (ISO)
100
AcDbVertex
100
AcDb2dVertex
 10
304.8513389980547
 20
871.6873367062072
 30
0.0
  0
VERTEX
  5
21A
330
204
100
AcDbEntity
  8
Sichtbar (ISO)
100
AcDbVertex
100
AcDb2dVertex
 10
306.9361330425494
 20
871.8158347835998
 30
0.0
  0
VERTEX
  5
21B
330
204
100
AcDbEntity
  8
Sichtbar (ISO)
100
AcDbVertex
100
AcDb2dVertex
 10
308.8432194149249
 20
871.9213302364806
 30
0.0
  0
VERTEX
  5
21C
330
204
100
AcDbEntity
  8
Sichtbar (ISO)
100
AcDbVertex
100
AcDb2dVertex
 10
310.5413223659747
 20
872.0055396786193
 30
0.0
  0
VERTEX
  5
21D
330
204
100
AcDbEntity
  8
Sichtbar (ISO)
100
AcDbVertex
100
AcDb2dVertex
 10
312.0092607891314
 20
872.0708472958069
 30
0.0
  0
VERTEX
  5
21E
330
204
100
AcDbEntity
  8
Sichtbar (ISO)
100
AcDbVertex
100
AcDb2dVertex
 10
313.2347799694292
 20
872.1199615231018
 30
0.0
  0
VERTEX
  5
21F
330
204
100
AcDbEntity
  8
Sichtbar (ISO)
100
AcDbVertex
100
AcDb2dVertex
 10
314.2040563976519
 20
872.1555335751038
 30
0.0
  0
VERTEX
  5
220
330
204
100
AcDbEntity
  8
Sichtbar (ISO)
100
AcDbVertex
100
AcDb2dVertex
 10
314.9020553982012
 20
872.1794135799864
 30
0.0
  0
VERTEX
  5
221
330
204
100
AcDbEntity
  8
Sichtbar (ISO)
100
AcDbVertex
100
AcDb2dVertex
 10
315.3238417064898
 20
872.1928603878478
 30
0.0
  0
VERTEX
  5
222
330
204
100
AcDbEntity
  8
Sichtbar (ISO)
100
AcDbVertex
100
AcDb2dVertex
 10
315.465338364815
 20
872.1970756283264
 30
0.0
  0
SEQEND
  5
207
330
204
100
AcDbEntity
  8
Sichtbar (ISO)
  0
LINE
  5
223
330
37
100
AcDbEntity
  8
Sichtbar (ISO)
100
AcDbLine
 10
273.109966553504
 20
861.0808621816687
 30
0.0
 11
309.6157350479522
 21
861.0808621816687
 31
0.0
  0
LINE
  5
224
330
37
100
AcDbEntity
  8
Sichtbar (ISO)
100
AcDbLine
 10
273.109966553504
 20
862.0652529735444
 30
0.0
 11
269.9328154663663
 21
867.5682400797896
 31
0.0
  0
LINE
  5
225
330
37
100
AcDbEntity
  8
Sichtbar (ISO)
100
AcDbLine
 10
309.6157350479523
 20
862.0652529735444
 30
0.0
 11
315.4653402017347
 21
872.1970663041124
 31
0.0
  0
LINE
  5
226
330
37
100
AcDbEntity
  8
Sichtbar (ISO)
100
AcDbLine
 10
309.6157350479523
 20
862.0652529735444
 30
0.0
 11
309.6157350479523
 21
861.0808621816687
 31
0.0
  0
LINE
  5
227
330
37
100
AcDbEntity
  8
Sichtbar (ISO)
100
AcDbLine
 10
273.109966553504
 20
862.0652529735444
 30
0.0
 11
273.109966553504
 21
861.0808621816687
 31
0.0
  0
LINE
  5
228
330
37
100
AcDbEntity
  8
Sichtbar (ISO)
100
AcDbLine
 10
253.3628508007281
 20
865.3471175899962
 30
0.0
 11
253.3628508007281
 21
1228.547117589996
 31
0.0
  0
LINE
  5
229
330
37
100
AcDbEntity
  8
Sichtbar (ISO)
100
AcDbLine
 10
261.3628508007281
 20
865.3471175899962
 30
0.0
 11
261.3628508007281
 21
1228.547117589996
 31
0.0
  0
ARC
  5
22A
330
37
100
AcDbEntity
  8
Sichtbar (ISO)
100
AcDbCircle
 10
-278.3952583689185
 20
1046.947117589996
 30
0.0
 40
652.0
100
AcDbArc
 50
347.1428570276888
 51
354.9295070209515
  0
ARC
  5
22B
330
37
100
AcDbEntity
  8
Sichtbar (ISO)
100
AcDbCircle
 10
-278.3952583689185
 20
1046.947117589996
 30
0.0
 40
652.0
100
AcDbArc
 50
10.06582391292518
 51
12.85714297231129
  0
ARC
  5
22C
330
37
100
AcDbEntity
  8
Sichtbar (ISO)
100
AcDbCircle
 10
-278.3952583689185
 20
1046.947117589996
 30
0.0
 40
652.0
100
AcDbArc
 50
5.070492979048398
 51
8.391234479077619
  0
ARC
  5
22D
330
37
100
AcDbEntity
  8
Sichtbar (ISO)
100
AcDbCircle
 10
343.1628508007342
 20
991.7971681298768
 30
0.0
 40
27.99999999999391
100
AcDbArc
 50
354.9295070209516
 51
0.0
  0
ARC
  5
22E
330
37
100
AcDbEntity
  8
Sichtbar (ISO)
100
AcDbCircle
 10
343.1628508007342
 20
1102.097067050116
 30
0.0
 40
27.99999999999391
100
AcDbArc
 50
0.0
 51
5.070492979048398
  0
LINE
  5
22F
330
37
100
AcDbEntity
  8
Sichtbar (ISO)
100
AcDbLine
 10
371.1628508007281
 20
991.7971681298768
 30
0.0
 11
371.1628508007281
 21
1102.097067050116
 31
0.0
  0
LINE
  5
230
330
37
100
AcDbEntity
  8
Sichtbar (ISO)
100
AcDbLine
 10
253.3628508007281
 20
1228.547117589996
 30
0.0
 11
261.3628508007281
 21
1228.547117589996
 31
0.0
  0
LINE
  5
231
330
37
100
AcDbEntity
  8
Sichtbar (ISO)
100
AcDbLine
 10
253.3628508007281
 20
865.3471175899962
 30
0.0
 11
261.3628508007281
 21
865.3471175899962
 31
0.0
  0
ARC
  5
232
330
37
100
AcDbEntity
  8
Sichtbar (ISO)
100
AcDbCircle
 10
256.3628508007281
 20
866.5818414868699
 30
0.0
 40
360.0
100
AcDbArc
 50
80.17379881807972
 51
89.20419969799857
  0
ARC
  5
233
330
37
100
AcDbEntity
  8
Sichtbar (ISO)
100
AcDbCircle
 10
256.3628508007281
 20
1227.312393693123
 30
0.0
 40
360.0
100
AcDbArc
 50
279.4492295221424
 51
279.8262011819203
  0
ARC
  5
234
330
37
100
AcDbEntity
  8
Sichtbar (ISO)
100
AcDbCircle
 10
256.3628508007281
 20
1227.312393693123
 30
0.0
 40
360.0
100
AcDbArc
 50
270.7958003020014
 51
272.1602387276956
  0
ARC
  5
235
330
37
100
AcDbEntity
  8
Sichtbar (ISO)
100
AcDbCircle
 10
310.2230104199988
 20
924.0385481081901
 30
0.0
 40
52.0
100
AcDbArc
 50
278.3790176620017
 51
334.7579106646938
  0
ARC
  5
236
330
37
100
AcDbEntity
  8
Sichtbar (ISO)
100
AcDbCircle
 10
310.2230104199988
 20
1169.855687071802
 30
0.0
 40
52.00000000000001
100
AcDbArc
 50
25.24208933530621
 51
81.62098233799836
  0
ARC
  5
237
330
37
100
AcDbEntity
  8
Sichtbar (ISO)
100
AcDbCircle
 10
172.5628508022717
 20
991.9167155805487
 30
0.0
 40
28.0
100
AcDbArc
 50
180.0
 51
185.0566706522035
  0
ARC
  5
238
330
37
100
AcDbEntity
  8
Sichtbar (ISO)
100
AcDbCircle
 10
172.5628508022714
 20
1101.977519599444
 30
0.0
 40
28.00000000000001
100
AcDbArc
 50
174.9433293477956
 51
180.0
  0
LINE
  5
239
330
37
100
AcDbEntity
  8
Sichtbar (ISO)
100
AcDbLine
 10
144.5628508022713
 20
1101.977519599444
 30
0.0
 11
144.5628508022717
 21
991.9167155805487
 31
0.0
  0
ARC
  5
23A
330
37
100
AcDbEntity
  8
Sichtbar (ISO)
100
AcDbCircle
 10
794.1342465405235
 20
1046.916715580548
 30
0.0
 40
651.9999999999986
100
AcDbArc
 50
185.0566706522038
 51
191.8926013736528
  0
ARC
  5
23B
330
37
100
AcDbEntity
  8
Sichtbar (ISO)
100
AcDbCircle
 10
794.1342465405235
 20
1046.977519599444
 30
0.0
 40
651.9999999999992
100
AcDbArc
 50
168.1073986263467
 51
174.9433293477958
  0
ARC
  5
23C
330
37
100
AcDbEntity
  8
Sichtbar (ISO)
100
AcDbCircle
 10
207.0128840382801
 20
923.2700185219231
 30
0.0
 40
51.99999999999995
100
AcDbArc
 50
191.8926013736531
 51
260.8399162249301
  0
ARC
  5
23D
330
37
100
AcDbEntity
  8
Sichtbar (ISO)
100
AcDbCircle
 10
207.0128840382793
 20
1170.62421665807
 30
0.0
 40
51.99999999999997
100
AcDbArc
 50
99.16008377507017
 51
168.1073986263467
  0
ARC
  5
23E
330
37
100
AcDbEntity
  8
Sichtbar (ISO)
100
AcDbCircle
 10
256.3628508012445
 20
864.5775195994453
 30
0.0
 40
361.9999999999993
100
AcDbArc
 50
90.77555638722438
 51
99.16008377507065
  0
ARC
  5
23F
330
37
100
AcDbEntity
  8
Sichtbar (ISO)
100
AcDbCircle
 10
256.3628508012433
 20
1229.316715580547
 30
0.0
 40
361.9999999999996
100
AcDbArc
 50
260.8399162249302
 51
269.2244436127765
  0
LINE
  5
240
330
37
100
AcDbEntity
  8
Sichtbar (ISO)
100
AcDbLine
 10
279.7887323450739
 20
832.8629081709314
 30
0.0
 11
302.9369692563823
 21
832.8629081709314
 31
0.0
  0
LINE
  5
241
330
37
100
AcDbEntity
  8
Sichtbar (ISO)
100
AcDbLine
 10
304.2503347184093
 20
833.5466029557952
 30
0.0
 11
278.4753668830469
 21
833.5466029557952
 31
0.0
  0
LINE
  5
242
330
37
100
AcDbEntity
  8
Sichtbar (ISO)
100
AcDbLine
 10
302.9790161729568
 20
834.2084095013133
 30
0.0
 11
279.7466854284995
 21
834.2084095013133
 31
0.0
  0
LINE
  5
243
330
37
100
AcDbEntity
  8
Sichtbar (ISO)
100
AcDbLine
 10
304.2923816349837
 20
834.8921042861771
 30
0.0
 11
278.4333199664725
 21
834.8921042861771
 31
0.0
  0
LINE
  5
244
330
37
100
AcDbEntity
  8
Sichtbar (ISO)
100
AcDbLine
 10
303.0210630895312
 20
835.5539108316952
 30
0.0
 11
279.7046385119251
 21
835.5539108316952
 31
0.0
  0
LINE
  5
245
330
37
100
AcDbEntity
  8
Sichtbar (ISO)
100
AcDbLine
 10
304.3344285515582
 20
836.237605616559
 30
0.0
 11
278.3912730498981
 21
836.237605616559
 31
0.0
  0
LINE
  5
246
330
37
100
AcDbEntity
  8
Sichtbar (ISO)
100
AcDbLine
 10
303.0631100061057
 20
836.8994121620771
 30
0.0
 11
279.6625915953506
 21
836.8994121620771
 31
0.0
  0
LINE
  5
247
330
37
100
AcDbEntity
  8
Sichtbar (ISO)
100
AcDbLine
 10
304.3764754681327
 20
837.5831069469409
 30
0.0
 11
278.3492261333236
 21
837.5831069469409
 31
0.0
  0
LINE
  5
248
330
37
100
AcDbEntity
  8
Sichtbar (ISO)
100
AcDbLine
 10
303.10515692268
 20
838.2449134924589
 30
0.0
 11
279.6205446787762
 21
838.2449134924589
 31
0.0
  0
LINE
  5
249
330
37
100
AcDbEntity
  8
Sichtbar (ISO)
100
AcDbLine
 10
304.418522384707
 20
838.9286082773228
 30
0.0
 11
278.3071792167492
 21
838.9286082773228
 31
0.0
  0
LINE
  5
24A
330
37
100
AcDbEntity
  8
Sichtbar (ISO)
100
AcDbLine
 10
303.1472038392545
 20
839.5904148228408
 30
0.0
 11
279.5784977622017
 21
839.5904148228408
 31
0.0
  0
LINE
  5
24B
330
37
100
AcDbEntity
  8
Sichtbar (ISO)
100
AcDbLine
 10
304.4605693012815
 20
840.2741096077047
 30
0.0
 11
278.2651323001748
 21
840.2741096077047
 31
0.0
  0
LINE
  5
24C
330
37
100
AcDbEntity
  8
Sichtbar (ISO)
100
AcDbLine
 10
303.189250755829
 20
840.9359161532227
 30
0.0
 11
279.5364508456273
 21
840.9359161532227
 31
0.0
  0
LINE
  5
24D
330
37
100
AcDbEntity
  8
Sichtbar (ISO)
100
AcDbLine
 10
304.5026162178559
 20
841.6196109380866
 30
0.0
 11
278.2230853836003
 21
841.6196109380866
 31
0.0
  0
LINE
  5
24E
330
37
100
AcDbEntity
  8
Sichtbar (ISO)
100
AcDbLine
 10
303.2312976724034
 20
842.2814174836046
 30
0.0
 11
279.4944039290529
 21
842.2814174836046
 31
0.0
  0
LINE
  5
24F
330
37
100
AcDbEntity
  8
Sichtbar (ISO)
100
AcDbLine
 10
304.5446631344304
 20
842.9651122684685
 30
0.0
 11
278.1810384670259
 21
842.9651122684685
 31
0.0
  0
LINE
  5
250
330
37
100
AcDbEntity
  8
Sichtbar (ISO)
100
AcDbLine
 10
303.2733445889778
 20
843.6269188139865
 30
0.0
 11
279.4523570124785
 21
843.6269188139865
 31
0.0
  0
LINE
  5
251
330
37
100
AcDbEntity
  8
Sichtbar (ISO)
100
AcDbLine
 10
304.5867100510048
 20
844.3106135988504
 30
0.0
 11
278.1389915504515
 21
844.3106135988504
 31
0.0
  0
LINE
  5
252
330
37
100
AcDbEntity
  8
Sichtbar (ISO)
100
AcDbLine
 10
303.3153915055523
 20
844.9724201443684
 30
0.0
 11
279.410310095904
 21
844.9724201443684
 31
0.0
  0
LINE
  5
253
330
37
100
AcDbEntity
  8
Sichtbar (ISO)
100
AcDbLine
 10
304.6287569675793
 20
845.6561149292323
 30
0.0
 11
278.096944633877
 21
845.6561149292323
 31
0.0
  0
LINE
  5
254
330
37
100
AcDbEntity
  8
Sichtbar (ISO)
100
AcDbLine
 10
279.3682631793296
 20
846.3179214747503
 30
0.0
 11
303.3574384221267
 21
846.3179214747503
 31
0.0
  0
LINE
  5
255
330
37
100
AcDbEntity
  8
Sichtbar (ISO)
100
AcDbLine
 10
304.6708038841537
 20
847.0016162596143
 30
0.0
 11
278.0548977173026
 21
847.0016162596143
 31
0.0
  0
LINE
  5
256
330
37
100
AcDbEntity
  8
Sichtbar (ISO)
100
AcDbLine
 10
278.0128508007281
 20
848.3471175899962
 30
0.0
 11
304.7128508007281
 21
848.3471175899962
 31
0.0
  0
LINE
  5
257
330
37
100
AcDbEntity
  8
Sichtbar (ISO)
100
AcDbLine
 10
279.3262162627551
 20
847.6634228051322
 30
0.0
 11
303.3994853387012
 21
847.6634228051322
 31
0.0
  0
LINE
  5
258
330
37
100
AcDbEntity
  8
Sichtbar (ISO)
100
AcDbLine
 10
279.2630357672372
 20
832.5892478539216
 30
0.0
 11
303.4626658342191
 21
832.5892478539216
 31
0.0
  0
LINE
  5
259
330
37
100
AcDbEntity
  8
Sichtbar (ISO)
100
AcDbLine
 10
279.7887323450739
 20
832.8629081709314
 30
0.0
 11
278.4753668830469
 21
833.5466029557952
 31
0.0
  0
LINE
  5
25A
330
37
100
AcDbEntity
  8
Sichtbar (ISO)
100
AcDbLine
 10
302.9369692563823
 20
832.8629081709314
 30
0.0
 11
304.2503347184093
 21
833.5466029557952
 31
0.0
  0
LINE
  5
25B
330
37
100
AcDbEntity
  8
Sichtbar (ISO)
100
AcDbLine
 10
302.9790161729568
 20
834.2084095013133
 30
0.0
 11
304.2503347184093
 21
833.5466029557952
 31
0.0
  0
LINE
  5
25C
330
37
100
AcDbEntity
  8
Sichtbar (ISO)
100
AcDbLine
 10
279.7466854284995
 20
834.2084095013133
 30
0.0
 11
278.4753668830469
 21
833.5466029557952
 31
0.0
  0
LINE
  5
25D
330
37
100
AcDbEntity
  8
Sichtbar (ISO)
100
AcDbLine
 10
279.7466854284995
 20
834.2084095013133
 30
0.0
 11
278.4333199664725
 21
834.8921042861771
 31
0.0
  0
LINE
  5
25E
330
37
100
AcDbEntity
  8
Sichtbar (ISO)
100
AcDbLine
 10
302.9790161729568
 20
834.2084095013133
 30
0.0
 11
304.2923816349837
 21
834.8921042861771
 31
0.0
  0
LINE
  5
25F
330
37
100
AcDbEntity
  8
Sichtbar (ISO)
100
AcDbLine
 10
303.0210630895312
 20
835.5539108316952
 30
0.0
 11
304.2923816349837
 21
834.8921042861771
 31
0.0
  0
LINE
  5
260
330
37
100
AcDbEntity
  8
Sichtbar (ISO)
100
AcDbLine
 10
279.7046385119251
 20
835.5539108316952
 30
0.0
 11
278.4333199664725
 21
834.8921042861771
 31
0.0
  0
LINE
  5
261
330
37
100
AcDbEntity
  8
Sichtbar (ISO)
100
AcDbLine
 10
279.7046385119251
 20
835.5539108316952
 30
0.0
 11
278.3912730498981
 21
836.237605616559
 31
0.0
  0
LINE
  5
262
330
37
100
AcDbEntity
  8
Sichtbar (ISO)
100
AcDbLine
 10
303.0210630895312
 20
835.5539108316952
 30
0.0
 11
304.3344285515582
 21
836.237605616559
 31
0.0
  0
LINE
  5
263
330
37
100
AcDbEntity
  8
Sichtbar (ISO)
100
AcDbLine
 10
303.0631100061057
 20
836.8994121620771
 30
0.0
 11
304.3344285515583
 21
836.237605616559
 31
0.0
  0
LINE
  5
264
330
37
100
AcDbEntity
  8
Sichtbar (ISO)
100
AcDbLine
 10
279.6625915953506
 20
836.8994121620771
 30
0.0
 11
278.391273049898
 21
836.237605616559
 31
0.0
  0
LINE
  5
265
330
37
100
AcDbEntity
  8
Sichtbar (ISO)
100
AcDbLine
 10
279.6625915953506
 20
836.8994121620771
 30
0.0
 11
278.3492261333236
 21
837.5831069469409
 31
0.0
  0
LINE
  5
266
330
37
100
AcDbEntity
  8
Sichtbar (ISO)
100
AcDbLine
 10
303.0631100061057
 20
836.8994121620771
 30
0.0
 11
304.3764754681327
 21
837.5831069469409
 31
0.0
  0
LINE
  5
267
330
37
100
AcDbEntity
  8
Sichtbar (ISO)
100
AcDbLine
 10
303.10515692268
 20
838.2449134924589
 30
0.0
 11
304.3764754681327
 21
837.5831069469409
 31
0.0
  0
LINE
  5
268
330
37
100
AcDbEntity
  8
Sichtbar (ISO)
100
AcDbLine
 10
279.6205446787762
 20
838.2449134924589
 30
0.0
 11
278.3492261333236
 21
837.5831069469409
 31
0.0
  0
LINE
  5
269
330
37
100
AcDbEntity
  8
Sichtbar (ISO)
100
AcDbLine
 10
279.6205446787762
 20
838.2449134924589
 30
0.0
 11
278.3071792167492
 21
838.9286082773228
 31
0.0
  0
LINE
  5
26A
330
37
100
AcDbEntity
  8
Sichtbar (ISO)
100
AcDbLine
 10
303.10515692268
 20
838.2449134924589
 30
0.0
 11
304.418522384707
 21
838.928608277323
 31
0.0
  0
LINE
  5
26B
330
37
100
AcDbEntity
  8
Sichtbar (ISO)
100
AcDbLine
 10
303.1472038392545
 20
839.5904148228408
 30
0.0
 11
304.418522384707
 21
838.928608277323
 31
0.0
  0
LINE
  5
26C
330
37
100
AcDbEntity
  8
Sichtbar (ISO)
100
AcDbLine
 10
279.5784977622017
 20
839.5904148228408
 30
0.0
 11
278.3071792167492
 21
838.9286082773228
 31
0.0
  0
LINE
  5
26D
330
37
100
AcDbEntity
  8
Sichtbar (ISO)
100
AcDbLine
 10
279.5784977622017
 20
839.5904148228408
 30
0.0
 11
278.2651323001748
 21
840.2741096077047
 31
0.0
  0
LINE
  5
26E
330
37
100
AcDbEntity
  8
Sichtbar (ISO)
100
AcDbLine
 10
303.1472038392545
 20
839.5904148228408
 30
0.0
 11
304.4605693012815
 21
840.2741096077047
 31
0.0
  0
LINE
  5
26F
330
37
100
AcDbEntity
  8
Sichtbar (ISO)
100
AcDbLine
 10
303.189250755829
 20
840.9359161532227
 30
0.0
 11
304.4605693012815
 21
840.2741096077047
 31
0.0
  0
LINE
  5
270
330
37
100
AcDbEntity
  8
Sichtbar (ISO)
100
AcDbLine
 10
279.5364508456273
 20
840.9359161532227
 30
0.0
 11
278.2651323001748
 21
840.2741096077047
 31
0.0
  0
LINE
  5
271
330
37
100
AcDbEntity
  8
Sichtbar (ISO)
100
AcDbLine
 10
279.5364508456273
 20
840.9359161532227
 30
0.0
 11
278.2230853836003
 21
841.6196109380866
 31
0.0
  0
LINE
  5
272
330
37
100
AcDbEntity
  8
Sichtbar (ISO)
100
AcDbLine
 10
303.189250755829
 20
840.9359161532227
 30
0.0
 11
304.5026162178559
 21
841.6196109380866
 31
0.0
  0
LINE
  5
273
330
37
100
AcDbEntity
  8
Sichtbar (ISO)
100
AcDbLine
 10
303.2312976724034
 20
842.2814174836046
 30
0.0
 11
304.502616217856
 21
841.6196109380866
 31
0.0
  0
LINE
  5
274
330
37
100
AcDbEntity
  8
Sichtbar (ISO)
100
AcDbLine
 10
279.4944039290529
 20
842.2814174836046
 30
0.0
 11
278.2230853836003
 21
841.6196109380866
 31
0.0
  0
LINE
  5
275
330
37
100
AcDbEntity
  8
Sichtbar (ISO)
100
AcDbLine
 10
279.4944039290529
 20
842.2814174836046
 30
0.0
 11
278.1810384670259
 21
842.9651122684685
 31
0.0
  0
LINE
  5
276
330
37
100
AcDbEntity
  8
Sichtbar (ISO)
100
AcDbLine
 10
303.2312976724034
 20
842.2814174836046
 30
0.0
 11
304.5446631344304
 21
842.9651122684685
 31
0.0
  0
LINE
  5
277
330
37
100
AcDbEntity
  8
Sichtbar (ISO)
100
AcDbLine
 10
303.2733445889778
 20
843.6269188139865
 30
0.0
 11
304.5446631344304
 21
842.9651122684685
 31
0.0
  0
LINE
  5
278
330
37
100
AcDbEntity
  8
Sichtbar (ISO)
100
AcDbLine
 10
279.4523570124785
 20
843.6269188139865
 30
0.0
 11
278.1810384670259
 21
842.9651122684685
 31
0.0
  0
LINE
  5
279
330
37
100
AcDbEntity
  8
Sichtbar (ISO)
100
AcDbLine
 10
279.4523570124785
 20
843.6269188139865
 30
0.0
 11
278.1389915504514
 21
844.3106135988504
 31
0.0
  0
LINE
  5
27A
330
37
100
AcDbEntity
  8
Sichtbar (ISO)
100
AcDbLine
 10
303.2733445889778
 20
843.6269188139865
 30
0.0
 11
304.5867100510049
 21
844.3106135988506
 31
0.0
  0
LINE
  5
27B
330
37
100
AcDbEntity
  8
Sichtbar (ISO)
100
AcDbLine
 10
303.3153915055522
 20
844.9724201443684
 30
0.0
 11
304.5867100510048
 21
844.3106135988504
 31
0.0
  0
LINE
  5
27C
330
37
100
AcDbEntity
  8
Sichtbar (ISO)
100
AcDbLine
 10
279.410310095904
 20
844.9724201443684
 30
0.0
 11
278.1389915504514
 21
844.3106135988504
 31
0.0
  0
LINE
  5
27D
330
37
100
AcDbEntity
  8
Sichtbar (ISO)
100
AcDbLine
 10
279.410310095904
 20
844.9724201443684
 30
0.0
 11
278.096944633877
 21
845.6561149292323
 31
0.0
  0
LINE
  5
27E
330
37
100
AcDbEntity
  8
Sichtbar (ISO)
100
AcDbLine
 10
303.3153915055522
 20
844.9724201443684
 30
0.0
 11
304.6287569675793
 21
845.6561149292324
 31
0.0
  0
LINE
  5
27F
330
37
100
AcDbEntity
  8
Sichtbar (ISO)
100
AcDbLine
 10
303.3574384221267
 20
846.3179214747503
 30
0.0
 11
304.6287569675793
 21
845.6561149292324
 31
0.0
  0
LINE
  5
280
330
37
100
AcDbEntity
  8
Sichtbar (ISO)
100
AcDbLine
 10
279.3682631793296
 20
846.3179214747503
 30
0.0
 11
278.096944633877
 21
845.6561149292323
 31
0.0
  0
LINE
  5
281
330
37
100
AcDbEntity
  8
Sichtbar (ISO)
100
AcDbLine
 10
279.3682631793296
 20
846.3179214747503
 30
0.0
 11
278.0548977173026
 21
847.0016162596142
 31
0.0
  0
LINE
  5
282
330
37
100
AcDbEntity
  8
Sichtbar (ISO)
100
AcDbLine
 10
303.3574384221267
 20
846.3179214747503
 30
0.0
 11
304.6708038841537
 21
847.0016162596143
 31
0.0
  0
LINE
  5
283
330
37
100
AcDbEntity
  8
Sichtbar (ISO)
100
AcDbLine
 10
279.3262162627551
 20
847.6634228051322
 30
0.0
 11
278.0128508007281
 21
848.3471175899962
 31
0.0
  0
LINE
  5
284
330
37
100
AcDbEntity
  8
Sichtbar (ISO)
100
AcDbLine
 10
303.3994853387012
 20
847.6634228051322
 30
0.0
 11
304.7128508007281
 21
848.3471175899962
 31
0.0
  0
LINE
  5
285
330
37
100
AcDbEntity
  8
Sichtbar (ISO)
100
AcDbLine
 10
303.3994853387011
 20
847.6634228051322
 30
0.0
 11
304.6708038841537
 21
847.0016162596143
 31
0.0
  0
LINE
  5
286
330
37
100
AcDbEntity
  8
Sichtbar (ISO)
100
AcDbLine
 10
279.3262162627551
 20
847.6634228051322
 30
0.0
 11
278.0548977173026
 21
847.0016162596142
 31
0.0
  0
LINE
  5
287
330
37
100
AcDbEntity
  8
Sichtbar (ISO)
100
AcDbLine
 10
302.9369692563823
 20
832.8629081709314
 30
0.0
 11
303.4626658342191
 21
832.5892478539216
 31
0.0
  0
LINE
  5
288
330
37
100
AcDbEntity
  8
Sichtbar (ISO)
100
AcDbLine
 10
279.7887323450739
 20
832.8629081709314
 30
0.0
 11
279.2630357672372
 21
832.5892478539216
 31
0.0
  0
LINE
  5
289
330
37
100
AcDbEntity
  8
Sichtbar (ISO)
100
AcDbLine
 10
303.2128508007281
 20
832.3471175899962
 30
0.0
 11
279.5128508007282
 21
832.3471175899962
 31
0.0
  0
LINE
  5
28A
330
37
100
AcDbEntity
  8
Sichtbar (ISO)
100
AcDbLine
 10
279.5128508007282
 20
832.3471175899962
 30
0.0
 11
279.2630357672372
 21
832.5892478539216
 31
0.0
  0
LINE
  5
28B
330
37
100
AcDbEntity
  8
Sichtbar (ISO)
100
AcDbLine
 10
303.2128508007281
 20
832.3471175899962
 30
0.0
 11
303.4626658342191
 21
832.5892478539216
 31
0.0
  0
LINE
  5
28C
330
37
100
AcDbEntity
  8
Sichtbar (ISO)
100
AcDbLine
 10
304.7128508007281
 20
857.0816473879325
 30
0.0
 11
304.7128508007281
 21
848.3471175899962
 31
0.0
  0
LINE
  5
28D
330
37
100
AcDbEntity
  8
Sichtbar (ISO)
100
AcDbLine
 10
278.0128508007281
 20
857.0816473879325
 30
0.0
 11
278.0128508007281
 21
848.3471175899962
 31
0.0
  0
LINE
  5
28E
330
37
100
AcDbEntity
  8
Sichtbar (ISO)
100
AcDbLine
 10
374.1430293071997
 20
1220.978113310353
 30
0.0
 11
374.0101257990695
 21
1222.87872202447
 31
0.0
  0
LINE
  5
28F
330
37
100
AcDbEntity
  8
Sichtbar (ISO)
100
AcDbLine
 10
372.0149976985498
 20
1222.739209076982
 30
0.0
 11
372.14790120668
 21
1220.838600362865
 31
0.0
  0
LINE
  5
290
330
37
100
AcDbEntity
  8
Sichtbar (ISO)
100
AcDbLine
 10
374.1430293071997
 20
1220.978113310353
 30
0.0
 11
372.14790120668
 21
1220.838600362865
 31
0.0
  0
LINE
  5
291
330
37
100
AcDbEntity
  8
Sichtbar (ISO)
100
AcDbLine
 10
374.0101257990695
 20
1222.87872202447
 30
0.0
 11
372.0149976985498
 21
1222.739209076982
 31
0.0
  0
LINE
  5
292
330
37
100
AcDbEntity
  8
Sichtbar (ISO)
100
AcDbLine
 10
374.1430293071997
 20
1220.978113310353
 30
0.0
 11
375.8138792365117
 21
1197.08384610621
 31
0.0
  0
LINE
  5
293
330
37
100
AcDbEntity
  8
Sichtbar (ISO)
100
AcDbLine
 10
373.818751135992
 20
1196.944333158722
 30
0.0
 11
372.14790120668
 21
1220.838600362865
 31
0.0
  0
LINE
  5
294
330
37
100
AcDbEntity
  8
Sichtbar (ISO)
100
AcDbLine
 10
363.0596351732136
 20
1180.102952136998
 30
0.0
 11
371.3902064356215
 21
1189.686178131375
 31
0.0
  0
LINE
  5
295
330
37
100
AcDbEntity
  8
Sichtbar (ISO)
100
AcDbLine
 10
365.4905426227965
 20
1148.770562078626
 30
0.0
 11
361.428783850607
 21
1174.415497678783
 31
0.0
  0
LINE
  5
296
330
37
100
AcDbEntity
  8
Sichtbar (ISO)
100
AcDbLine
 10
363.4041605317973
 20
1174.728366608864
 30
0.0
 11
367.4659193039868
 21
1149.083431008707
 31
0.0
  0
LINE
  5
297
330
37
100
AcDbEntity
  8
Sichtbar (ISO)
100
AcDbLine
 10
372.899625596067
 20
1188.374060073394
 30
0.0
 11
364.5690543336592
 21
1178.790834079017
 31
0.0
  0
ARC
  5
298
330
37
100
AcDbEntity
  8
Sichtbar (ISO)
100
AcDbCircle
 10
368.3426022347731
 20
1175.510538934065
 30
0.0
 40
7.000000000000001
100
AcDbArc
 50
138.9999999999996
 51
188.9999999999999
  0
LINE
  5
299
330
37
100
AcDbEntity
  8
Sichtbar (ISO)
100
AcDbLine
 10
365.4905426227965
 20
1148.770562078626
 30
0.0
 11
367.4659193039868
 21
1149.083431008707
 31
0.0
  0
LINE
  5
29A
330
37
100
AcDbEntity
  8
Sichtbar (ISO)
100
AcDbLine
 10
368.5251751499121
 20
1142.395552807068
 30
0.0
 11
367.4659193039868
 21
1149.083431008707
 31
0.0
  0
LINE
  5
29B
330
37
100
AcDbEntity
  8
Sichtbar (ISO)
100
AcDbLine
 10
365.4905426227965
 20
1148.770562078626
 30
0.0
 11
365.9568701685935
 21
1145.826285830016
 31
0.0
  0
LINE
  5
29C
330
37
100
AcDbEntity
  8
Sichtbar (ISO)
100
AcDbLine
 10
368.525175149912
 20
1142.395552807068
 30
0.0
 11
366.6248666142059
 21
1142.094573503196
 31
0.0
  0
ARC
  5
29D
330
37
100
AcDbEntity
  8
Sichtbar (ISO)
100
AcDbCircle
 10
368.3426022347731
 20
1175.510538934065
 30
0.0
 40
5.000000000000008
100
AcDbArc
 50
138.9999999999996
 51
188.9999999999993
  0
ARC
  5
29E
330
37
100
AcDbEntity
  8
Sichtbar (ISO)
100
AcDbCircle
 10
363.8431106333938
 20
1196.24676842128
 30
0.0
 40
12.00000000000001
100
AcDbArc
 50
318.9999999999998
 51
4.000000000000145
  0
ARC
  5
29F
330
37
100
AcDbEntity
  8
Sichtbar (ISO)
100
AcDbCircle
 10
363.8431106333938
 20
1196.24676842128
 30
0.0
 40
10.0
100
AcDbArc
 50
318.9999999999996
 51
3.999999999999984
  0
LINE
  5
2A0
330
37
100
AcDbEntity
  8
Sichtbar (ISO)
100
AcDbLine
 10
143.7894441447362
 20
1045.496126534418
 30
0.0
 11
143.7894441447362
 21
1048.398108645574
 31
0.0
  0
ARC
  5
2A1
330
37
100
AcDbEntity
  8
Sichtbar (ISO)
100
AcDbCircle
 10
144.2894441447362
 20
1045.496126534418
 30
0.0
 40
0.5000000000000007
100
AcDbArc
 50
180.0
 51
213.0407834526752
  0
ARC
  5
2A2
330
37
100
AcDbEntity
  8
Sichtbar (ISO)
100
AcDbCircle
 10
144.2894441447362
 20
1048.398108645574
 30
0.0
 40
0.5000000000000008
100
AcDbArc
 50
146.9592165473262
 51
180.0
  0
ARC
  5
2A3
330
37
100
AcDbEntity
  8
Sichtbar (ISO)
100
AcDbCircle
 10
143.9203028055171
 20
1043.946126534418
 30
0.0
 40
0.0500000000000007
100
AcDbArc
 50
180.0
 51
203.902081386414
  0
ARC
  5
2A4
330
37
100
AcDbEntity
  8
Sichtbar (ISO)
100
AcDbCircle
 10
143.9203028055171
 20
1049.948108645573
 30
0.0
 40
0.0500000000000007
100
AcDbArc
 50
156.0979186135963
 51
180.0
  0
LINE
  5
2A5
330
37
100
AcDbEntity
  8
Sichtbar (ISO)
100
AcDbLine
 10
143.8703028055171
 20
1049.948108645573
 30
0.0
 11
143.8703028055171
 21
1043.946126534418
 31
0.0
  0
ARC
  5
2A6
330
37
100
AcDbEntity
  8
Sichtbar (ISO)
100
AcDbCircle
 10
146.1982822377947
 20
1044.955687074405
 30
0.0
 40
2.541666666666808
100
AcDbArc
 50
203.9020813863539
 51
229.9505562082607
  0
ARC
  5
2A7
330
37
100
AcDbEntity
  8
Sichtbar (ISO)
100
AcDbCircle
 10
146.1982822377947
 20
1048.938548105587
 30
0.0
 40
2.541666666666809
100
AcDbArc
 50
130.0494437917385
 51
156.0979186136499
  0
LINE
  5
2A8
330
37
100
AcDbEntity
  8
Sichtbar (ISO)
100
AcDbLine
 10
304.7128508007281
 20
857.0816473879327
 30
0.0
 11
278.0128508007281
 21
857.0816473879327
 31
0.0
  0
LINE
  5
2A9
330
37
100
AcDbEntity
  8
Sichtbar (ISO)
100
AcDbLine
 10
277.3333480467721
 20
857.153485226447
 30
0.0
 11
305.3923535546841
 21
857.153485226447
 31
0.0
  0
ARC
  5
2AA
330
37
100
AcDbEntity
  8
Sichtbar (ISO)
100
AcDbCircle
 10
278.0921037726769
 20
861.0808621816687
 30
0.0
 40
3.999999999999962
100
AcDbArc
 50
259.0653688427403
 51
268.8647105110247
  0
ARC
  5
2AB
330
37
100
AcDbEntity
  8
Sichtbar (ISO)
100
AcDbCircle
 10
304.6335978287792
 20
861.0808621816687
 30
0.0
 40
3.999999999999963
100
AcDbArc
 50
271.1352894889753
 51
280.9346311572597
  0
LINE
  5
2AC
330
37
100
AcDbEntity
  8
Sichtbar (ISO)
100
AcDbLine
 10
277.3333480467721
 20
857.153485226447
 30
0.0
 11
274.0921037726769
 21
861.0808621816687
 31
0.0
  0
LINE
  5
2AD
330
37
100
AcDbEntity
  8
Sichtbar (ISO)
100
AcDbLine
 10
305.3923535546841
 20
857.153485226447
 30
0.0
 11
308.6335978287792
 21
861.0808621816687
 31
0.0
  0
LINE
  5
2AE
330
37
100
AcDbEntity
  8
Sichtbar (ISO)
100
AcDbLine
 10
251.4629639115446
 20
867.349878551977
 30
0.0
 11
251.4629639115447
 21
1226.544356628016
 31
0.0
  0
LINE
  5
2AF
330
37
100
AcDbEntity
  8
Sichtbar (ISO)
100
AcDbLine
 10
251.4629639115447
 20
1226.544356628016
 30
0.0
 11
253.3628508007281
 21
1228.465088446769
 31
0.0
  0
LINE
  5
2B0
330
37
100
AcDbEntity
  8
Sichtbar (ISO)
100
AcDbLine
 10
251.4629639115446
 20
867.349878551977
 30
0.0
 11
253.362850800728
 21
865.4291467332232
 31
0.0
  0
LINE
  5
2B1
330
37
100
AcDbEntity
  8
Sichtbar (ISO)
100
AcDbLine
 10
759.0816571680139
 20
862.0652529735444
 30
0.0
 11
795.5874256624621
 21
862.0652529735444
 31
0.0
  0
LINE
  5
2B2
330
37
100
AcDbEntity
  8
Sichtbar (ISO)
100
AcDbLine
 10
759.0816571680139
 20
861.0808621816687
 30
0.0
 11
795.5874256624621
 21
861.0808621816687
 31
0.0
  0
LINE
  5
2B3
330
37
100
AcDbEntity
  8
Sichtbar (ISO)
100
AcDbLine
 10
759.0816571680139
 20
862.0652529735444
 30
0.0
 11
756.4941782624499
 21
866.5468979014939
 31
0.0
  0
LINE
  5
2B4
330
37
100
AcDbEntity
  8
Sichtbar (ISO)
100
AcDbLine
 10
795.5874256624621
 20
862.0652529735444
 30
0.0
 11
798.174904568026
 21
866.5468979014939
 31
0.0
  0
LINE
  5
2B5
330
37
100
AcDbEntity
  8
Sichtbar (ISO)
100
AcDbLine
 10
795.5874256624621
 20
862.0652529735444
 30
0.0
 11
795.5874256624621
 21
861.0808621816687
 31
0.0
  0
LINE
  5
2B6
330
37
100
AcDbEntity
  8
Sichtbar (ISO)
100
AcDbLine
 10
759.0816571680139
 20
862.0652529735444
 30
0.0
 11
759.0816571680139
 21
861.0808621816687
 31
0.0
  0
CIRCLE
  5
2B7
330
37
100
AcDbEntity
  8
Sichtbar (ISO)
100
AcDbCircle
 10
777.3345414152267
 20
1046.947117589996
 30
0.0
 40
181.6
  0
CIRCLE
  5
2B8
330
37
100
AcDbEntity
  8
Sichtbar (ISO)
100
AcDbCircle
 10
777.3345414152003
 20
1046.947117589996
 30
0.0
 40
12.30558662311653
  0
LINE
  5
2B9
330
37
100
AcDbEntity
  8
Sichtbar (ISO)
100
AcDbLine
 10
765.7604229595837
 20
832.8629081709314
 30
0.0
 11
788.9086598708923
 21
832.8629081709314
 31
0.0
  0
LINE
  5
2BA
330
37
100
AcDbEntity
  8
Sichtbar (ISO)
100
AcDbLine
 10
790.2220253329192
 20
833.5466029557952
 30
0.0
 11
764.4470574975567
 21
833.5466029557952
 31
0.0
  0
LINE
  5
2BB
330
37
100
AcDbEntity
  8
Sichtbar (ISO)
100
AcDbLine
 10
788.9507067874666
 20
834.2084095013133
 30
0.0
 11
765.7183760430093
 21
834.2084095013133
 31
0.0
  0
LINE
  5
2BC
330
37
100
AcDbEntity
  8
Sichtbar (ISO)
100
AcDbLine
 10
790.2640722494936
 20
834.8921042861771
 30
0.0
 11
764.4050105809823
 21
834.8921042861771
 31
0.0
  0
LINE
  5
2BD
330
37
100
AcDbEntity
  8
Sichtbar (ISO)
100
AcDbLine
 10
788.9927537040411
 20
835.5539108316952
 30
0.0
 11
765.6763291264349
 21
835.5539108316952
 31
0.0
  0
LINE
  5
2BE
330
37
100
AcDbEntity
  8
Sichtbar (ISO)
100
AcDbLine
 10
790.306119166068
 20
836.237605616559
 30
0.0
 11
764.3629636644079
 21
836.237605616559
 31
0.0
  0
LINE
  5
2BF
330
37
100
AcDbEntity
  8
Sichtbar (ISO)
100
AcDbLine
 10
789.0348006206155
 20
836.8994121620771
 30
0.0
 11
765.6342822098604
 21
836.8994121620771
 31
0.0
  0
LINE
  5
2C0
330
37
100
AcDbEntity
  8
Sichtbar (ISO)
100
AcDbLine
 10
790.3481660826424
 20
837.5831069469409
 30
0.0
 11
764.3209167478334
 21
837.5831069469409
 31
0.0
  0
LINE
  5
2C1
330
37
100
AcDbEntity
  8
Sichtbar (ISO)
100
AcDbLine
 10
789.0768475371899
 20
838.2449134924589
 30
0.0
 11
765.592235293286
 21
838.2449134924589
 31
0.0
  0
LINE
  5
2C2
330
37
100
AcDbEntity
  8
Sichtbar (ISO)
100
AcDbLine
 10
790.3902129992169
 20
838.9286082773228
 30
0.0
 11
764.278869831259
 21
838.9286082773228
 31
0.0
  0
LINE
  5
2C3
330
37
100
AcDbEntity
  8
Sichtbar (ISO)
100
AcDbLine
 10
789.1188944537644
 20
839.5904148228408
 30
0.0
 11
765.5501883767116
 21
839.5904148228408
 31
0.0
  0
LINE
  5
2C4
330
37
100
AcDbEntity
  8
Sichtbar (ISO)
100
AcDbLine
 10
790.4322599157914
 20
840.2741096077047
 30
0.0
 11
764.2368229146845
 21
840.2741096077047
 31
0.0
  0
LINE
  5
2C5
330
37
100
AcDbEntity
  8
Sichtbar (ISO)
100
AcDbLine
 10
789.1609413703388
 20
840.9359161532227
 30
0.0
 11
765.5081414601371
 21
840.9359161532227
 31
0.0
  0
LINE
  5
2C6
330
37
100
AcDbEntity
  8
Sichtbar (ISO)
100
AcDbLine
 10
790.4743068323657
 20
841.6196109380866
 30
0.0
 11
764.1947759981102
 21
841.6196109380866
 31
0.0
  0
LINE
  5
2C7
330
37
100
AcDbEntity
  8
Sichtbar (ISO)
100
AcDbLine
 10
789.2029882869133
 20
842.2814174836046
 30
0.0
 11
765.4660945435627
 21
842.2814174836046
 31
0.0
  0
LINE
  5
2C8
330
37
100
AcDbEntity
  8
Sichtbar (ISO)
100
AcDbLine
 10
790.5163537489402
 20
842.9651122684685
 30
0.0
 11
764.1527290815357
 21
842.9651122684685
 31
0.0
  0
LINE
  5
2C9
330
37
100
AcDbEntity
  8
Sichtbar (ISO)
100
AcDbLine
 10
789.2450352034876
 20
843.6269188139865
 30
0.0
 11
765.4240476269882
 21
843.6269188139865
 31
0.0
  0
LINE
  5
2CA
330
37
100
AcDbEntity
  8
Sichtbar (ISO)
100
AcDbLine
 10
790.5584006655146
 20
844.3106135988504
 30
0.0
 11
764.1106821649612
 21
844.3106135988504
 31
0.0
  0
LINE
  5
2CB
330
37
100
AcDbEntity
  8
Sichtbar (ISO)
100
AcDbLine
 10
789.2870821200621
 20
844.9724201443684
 30
0.0
 11
765.3820007104139
 21
844.9724201443684
 31
0.0
  0
LINE
  5
2CC
330
37
100
AcDbEntity
  8
Sichtbar (ISO)
100
AcDbLine
 10
790.6004475820891
 20
845.6561149292323
 30
0.0
 11
764.0686352483868
 21
845.6561149292323
 31
0.0
  0
LINE
  5
2CD
330
37
100
AcDbEntity
  8
Sichtbar (ISO)
100
AcDbLine
 10
765.3399537938394
 20
846.3179214747503
 30
0.0
 11
789.3291290366366
 21
846.3179214747503
 31
0.0
  0
LINE
  5
2CE
330
37
100
AcDbEntity
  8
Sichtbar (ISO)
100
AcDbLine
 10
790.6424944986635
 20
847.0016162596143
 30
0.0
 11
764.0265883318124
 21
847.0016162596143
 31
0.0
  0
LINE
  5
2CF
330
37
100
AcDbEntity
  8
Sichtbar (ISO)
100
AcDbLine
 10
763.984541415238
 20
848.3471175899962
 30
0.0
 11
790.6845414152379
 21
848.3471175899962
 31
0.0
  0
LINE
  5
2D0
330
37
100
AcDbEntity
  8
Sichtbar (ISO)
100
AcDbLine
 10
765.2979068772649
 20
847.6634228051322
 30
0.0
 11
789.3711759532109
 21
847.6634228051322
 31
0.0
  0
LINE
  5
2D1
330
37
100
AcDbEntity
  8
Sichtbar (ISO)
100
AcDbLine
 10
765.2347263817469
 20
832.5892478539216
 30
0.0
 11
789.4343564487289
 21
832.5892478539216
 31
0.0
  0
LINE
  5
2D2
330
37
100
AcDbEntity
  8
Sichtbar (ISO)
100
AcDbLine
 10
765.7604229595838
 20
832.8629081709314
 30
0.0
 11
764.4470574975567
 21
833.5466029557952
 31
0.0
  0
LINE
  5
2D3
330
37
100
AcDbEntity
  8
Sichtbar (ISO)
100
AcDbLine
 10
788.9086598708923
 20
832.8629081709314
 30
0.0
 11
790.2220253329192
 21
833.5466029557952
 31
0.0
  0
LINE
  5
2D4
330
37
100
AcDbEntity
  8
Sichtbar (ISO)
100
AcDbLine
 10
788.9507067874666
 20
834.2084095013133
 30
0.0
 11
790.2220253329192
 21
833.5466029557952
 31
0.0
  0
LINE
  5
2D5
330
37
100
AcDbEntity
  8
Sichtbar (ISO)
100
AcDbLine
 10
765.7183760430093
 20
834.2084095013133
 30
0.0
 11
764.4470574975567
 21
833.5466029557952
 31
0.0
  0
LINE
  5
2D6
330
37
100
AcDbEntity
  8
Sichtbar (ISO)
100
AcDbLine
 10
765.7183760430093
 20
834.2084095013133
 30
0.0
 11
764.4050105809823
 21
834.8921042861771
 31
0.0
  0
LINE
  5
2D7
330
37
100
AcDbEntity
  8
Sichtbar (ISO)
100
AcDbLine
 10
788.9507067874666
 20
834.2084095013133
 30
0.0
 11
790.2640722494936
 21
834.8921042861771
 31
0.0
  0
LINE
  5
2D8
330
37
100
AcDbEntity
  8
Sichtbar (ISO)
100
AcDbLine
 10
788.9927537040411
 20
835.5539108316952
 30
0.0
 11
790.2640722494936
 21
834.8921042861771
 31
0.0
  0
LINE
  5
2D9
330
37
100
AcDbEntity
  8
Sichtbar (ISO)
100
AcDbLine
 10
765.6763291264349
 20
835.5539108316952
 30
0.0
 11
764.4050105809823
 21
834.8921042861771
 31
0.0
  0
LINE
  5
2DA
330
37
100
AcDbEntity
  8
Sichtbar (ISO)
100
AcDbLine
 10
765.6763291264349
 20
835.5539108316952
 30
0.0
 11
764.3629636644079
 21
836.237605616559
 31
0.0
  0
LINE
  5
2DB
330
37
100
AcDbEntity
  8
Sichtbar (ISO)
100
AcDbLine
 10
788.9927537040411
 20
835.5539108316952
 30
0.0
 11
790.306119166068
 21
836.237605616559
 31
0.0
  0
LINE
  5
2DC
330
37
100
AcDbEntity
  8
Sichtbar (ISO)
100
AcDbLine
 10
789.0348006206155
 20
836.8994121620771
 30
0.0
 11
790.3061191660681
 21
836.237605616559
 31
0.0
  0
LINE
  5
2DD
330
37
100
AcDbEntity
  8
Sichtbar (ISO)
100
AcDbLine
 10
765.6342822098604
 20
836.8994121620771
 30
0.0
 11
764.3629636644079
 21
836.237605616559
 31
0.0
  0
LINE
  5
2DE
330
37
100
AcDbEntity
  8
Sichtbar (ISO)
100
AcDbLine
 10
765.6342822098604
 20
836.8994121620771
 30
0.0
 11
764.3209167478334
 21
837.5831069469409
 31
0.0
  0
LINE
  5
2DF
330
37
100
AcDbEntity
  8
Sichtbar (ISO)
100
AcDbLine
 10
789.0348006206155
 20
836.8994121620771
 30
0.0
 11
790.3481660826424
 21
837.5831069469409
 31
0.0
  0
LINE
  5
2E0
330
37
100
AcDbEntity
  8
Sichtbar (ISO)
100
AcDbLine
 10
789.0768475371899
 20
838.2449134924589
 30
0.0
 11
790.3481660826424
 21
837.5831069469409
 31
0.0
  0
LINE
  5
2E1
330
37
100
AcDbEntity
  8
Sichtbar (ISO)
100
AcDbLine
 10
765.592235293286
 20
838.2449134924589
 30
0.0
 11
764.3209167478334
 21
837.5831069469409
 31
0.0
  0
LINE
  5
2E2
330
37
100
AcDbEntity
  8
Sichtbar (ISO)
100
AcDbLine
 10
765.592235293286
 20
838.2449134924589
 30
0.0
 11
764.278869831259
 21
838.9286082773228
 31
0.0
  0
LINE
  5
2E3
330
37
100
AcDbEntity
  8
Sichtbar (ISO)
100
AcDbLine
 10
789.0768475371899
 20
838.2449134924589
 30
0.0
 11
790.3902129992169
 21
838.9286082773228
 31
0.0
  0
LINE
  5
2E4
330
37
100
AcDbEntity
  8
Sichtbar (ISO)
100
AcDbLine
 10
789.1188944537644
 20
839.5904148228408
 30
0.0
 11
790.3902129992169
 21
838.9286082773228
 31
0.0
  0
LINE
  5
2E5
330
37
100
AcDbEntity
  8
Sichtbar (ISO)
100
AcDbLine
 10
765.5501883767116
 20
839.5904148228408
 30
0.0
 11
764.278869831259
 21
838.9286082773228
 31
0.0
  0
LINE
  5
2E6
330
37
100
AcDbEntity
  8
Sichtbar (ISO)
100
AcDbLine
 10
765.5501883767116
 20
839.5904148228408
 30
0.0
 11
764.2368229146845
 21
840.2741096077047
 31
0.0
  0
LINE
  5
2E7
330
37
100
AcDbEntity
  8
Sichtbar (ISO)
100
AcDbLine
 10
789.1188944537644
 20
839.5904148228408
 30
0.0
 11
790.4322599157914
 21
840.2741096077047
 31
0.0
  0
LINE
  5
2E8
330
37
100
AcDbEntity
  8
Sichtbar (ISO)
100
AcDbLine
 10
789.1609413703388
 20
840.9359161532227
 30
0.0
 11
790.4322599157914
 21
840.2741096077047
 31
0.0
  0
LINE
  5
2E9
330
37
100
AcDbEntity
  8
Sichtbar (ISO)
100
AcDbLine
 10
765.5081414601371
 20
840.9359161532227
 30
0.0
 11
764.2368229146845
 21
840.2741096077047
 31
0.0
  0
LINE
  5
2EA
330
37
100
AcDbEntity
  8
Sichtbar (ISO)
100
AcDbLine
 10
765.5081414601371
 20
840.9359161532227
 30
0.0
 11
764.1947759981102
 21
841.6196109380866
 31
0.0
  0
LINE
  5
2EB
330
37
100
AcDbEntity
  8
Sichtbar (ISO)
100
AcDbLine
 10
789.1609413703388
 20
840.9359161532227
 30
0.0
 11
790.4743068323657
 21
841.6196109380866
 31
0.0
  0
LINE
  5
2EC
330
37
100
AcDbEntity
  8
Sichtbar (ISO)
100
AcDbLine
 10
789.2029882869133
 20
842.2814174836046
 30
0.0
 11
790.4743068323658
 21
841.6196109380866
 31
0.0
  0
LINE
  5
2ED
330
37
100
AcDbEntity
  8
Sichtbar (ISO)
100
AcDbLine
 10
765.4660945435627
 20
842.2814174836046
 30
0.0
 11
764.1947759981102
 21
841.6196109380866
 31
0.0
  0
LINE
  5
2EE
330
37
100
AcDbEntity
  8
Sichtbar (ISO)
100
AcDbLine
 10
765.4660945435627
 20
842.2814174836046
 30
0.0
 11
764.1527290815357
 21
842.9651122684685
 31
0.0
  0
LINE
  5
2EF
330
37
100
AcDbEntity
  8
Sichtbar (ISO)
100
AcDbLine
 10
789.2029882869133
 20
842.2814174836046
 30
0.0
 11
790.5163537489402
 21
842.9651122684685
 31
0.0
  0
LINE
  5
2F0
330
37
100
AcDbEntity
  8
Sichtbar (ISO)
100
AcDbLine
 10
789.2450352034876
 20
843.6269188139865
 30
0.0
 11
790.5163537489402
 21
842.9651122684685
 31
0.0
  0
LINE
  5
2F1
330
37
100
AcDbEntity
  8
Sichtbar (ISO)
100
AcDbLine
 10
765.4240476269883
 20
843.6269188139865
 30
0.0
 11
764.1527290815357
 21
842.9651122684685
 31
0.0
  0
LINE
  5
2F2
330
37
100
AcDbEntity
  8
Sichtbar (ISO)
100
AcDbLine
 10
765.4240476269882
 20
843.6269188139865
 30
0.0
 11
764.1106821649612
 21
844.3106135988506
 31
0.0
  0
LINE
  5
2F3
330
37
100
AcDbEntity
  8
Sichtbar (ISO)
100
AcDbLine
 10
789.2450352034876
 20
843.6269188139865
 30
0.0
 11
790.5584006655146
 21
844.3106135988506
 31
0.0
  0
LINE
  5
2F4
330
37
100
AcDbEntity
  8
Sichtbar (ISO)
100
AcDbLine
 10
789.2870821200621
 20
844.9724201443684
 30
0.0
 11
790.5584006655146
 21
844.3106135988504
 31
0.0
  0
LINE
  5
2F5
330
37
100
AcDbEntity
  8
Sichtbar (ISO)
100
AcDbLine
 10
765.3820007104139
 20
844.9724201443684
 30
0.0
 11
764.1106821649612
 21
844.3106135988504
 31
0.0
  0
LINE
  5
2F6
330
37
100
AcDbEntity
  8
Sichtbar (ISO)
100
AcDbLine
 10
765.3820007104139
 20
844.9724201443684
 30
0.0
 11
764.0686352483869
 21
845.6561149292323
 31
0.0
  0
LINE
  5
2F7
330
37
100
AcDbEntity
  8
Sichtbar (ISO)
100
AcDbLine
 10
789.2870821200621
 20
844.9724201443684
 30
0.0
 11
790.6004475820891
 21
845.6561149292323
 31
0.0
  0
LINE
  5
2F8
330
37
100
AcDbEntity
  8
Sichtbar (ISO)
100
AcDbLine
 10
789.3291290366366
 20
846.3179214747503
 30
0.0
 11
790.6004475820891
 21
845.6561149292323
 31
0.0
  0
LINE
  5
2F9
330
37
100
AcDbEntity
  8
Sichtbar (ISO)
100
AcDbLine
 10
765.3399537938394
 20
846.3179214747503
 30
0.0
 11
764.0686352483868
 21
845.6561149292323
 31
0.0
  0
LINE
  5
2FA
330
37
100
AcDbEntity
  8
Sichtbar (ISO)
100
AcDbLine
 10
765.3399537938394
 20
846.3179214747503
 30
0.0
 11
764.0265883318124
 21
847.0016162596142
 31
0.0
  0
LINE
  5
2FB
330
37
100
AcDbEntity
  8
Sichtbar (ISO)
100
AcDbLine
 10
789.3291290366366
 20
846.3179214747503
 30
0.0
 11
790.6424944986635
 21
847.0016162596142
 31
0.0
  0
LINE
  5
2FC
330
37
100
AcDbEntity
  8
Sichtbar (ISO)
100
AcDbLine
 10
765.2979068772649
 20
847.6634228051322
 30
0.0
 11
763.984541415238
 21
848.3471175899962
 31
0.0
  0
LINE
  5
2FD
330
37
100
AcDbEntity
  8
Sichtbar (ISO)
100
AcDbLine
 10
789.3711759532109
 20
847.6634228051322
 30
0.0
 11
790.6845414152379
 21
848.3471175899962
 31
0.0
  0
LINE
  5
2FE
330
37
100
AcDbEntity
  8
Sichtbar (ISO)
100
AcDbLine
 10
789.3711759532109
 20
847.6634228051322
 30
0.0
 11
790.6424944986635
 21
847.0016162596142
 31
0.0
  0
LINE
  5
2FF
330
37
100
AcDbEntity
  8
Sichtbar (ISO)
100
AcDbLine
 10
765.2979068772649
 20
847.6634228051322
 30
0.0
 11
764.0265883318124
 21
847.0016162596142
 31
0.0
  0
LINE
  5
300
330
37
100
AcDbEntity
  8
Sichtbar (ISO)
100
AcDbLine
 10
788.9086598708923
 20
832.8629081709314
 30
0.0
 11
789.4343564487289
 21
832.5892478539216
 31
0.0
  0
LINE
  5
301
330
37
100
AcDbEntity
  8
Sichtbar (ISO)
100
AcDbLine
 10
765.7604229595837
 20
832.8629081709314
 30
0.0
 11
765.2347263817469
 21
832.5892478539216
 31
0.0
  0
LINE
  5
302
330
37
100
AcDbEntity
  8
Sichtbar (ISO)
100
AcDbLine
 10
789.1845414152379
 20
832.3471175899962
 30
0.0
 11
765.484541415238
 21
832.3471175899962
 31
0.0
  0
LINE
  5
303
330
37
100
AcDbEntity
  8
Sichtbar (ISO)
100
AcDbLine
 10
765.484541415238
 20
832.3471175899962
 30
0.0
 11
765.2347263817469
 21
832.5892478539216
 31
0.0
  0
LINE
  5
304
330
37
100
AcDbEntity
  8
Sichtbar (ISO)
100
AcDbLine
 10
789.1845414152379
 20
832.3471175899962
 30
0.0
 11
789.4343564487289
 21
832.5892478539216
 31
0.0
  0
LINE
  5
305
330
37
100
AcDbEntity
  8
Sichtbar (ISO)
100
AcDbLine
 10
790.6845414152379
 20
857.0816473879325
 30
0.0
 11
790.6845414152379
 21
848.3471175899962
 31
0.0
  0
LINE
  5
306
330
37
100
AcDbEntity
  8
Sichtbar (ISO)
100
AcDbLine
 10
763.984541415238
 20
857.0816473879325
 30
0.0
 11
763.984541415238
 21
848.3471175899962
 31
0.0
  0
ARC
  5
307
330
37
100
AcDbEntity
  8
Sichtbar (ISO)
100
AcDbCircle
 10
777.3345414151961
 20
1046.947117589996
 30
0.0
 40
5.000000000000109
100
AcDbArc
 50
110.060097693644
 51
116.9390734000789
  0
POLYLINE
  5
308
330
37
100
AcDbEntity
  8
Sichtbar (ISO)
100
AcDb2dPolyline
 66
     1
 10
0.0
 20
0.0
 30
0.0
 70
   128
  0
VERTEX
  5
309
330
308
100
AcDbEntity
  8
Sichtbar (ISO)
100
AcDbVertex
100
AcDb2dVertex
 10
775.5153073123238
 20
1051.062987829622
 30
0.0
  0
VERTEX
  5
30A
330
308
100
AcDbEntity
  8
Sichtbar (ISO)
100
AcDbVertex
100
AcDb2dVertex
 10
775.4638868970634
 20
1051.056596100043
 30
0.0
  0
VERTEX
  5
30C
330
308
100
AcDbEntity
  8
Sichtbar (ISO)
100
AcDbVertex
100
AcDb2dVertex
 10
775.427721161859
 20
1051.059763986646
 30
0.0
  0
VERTEX
  5
30D
330
308
100
AcDbEntity
  8
Sichtbar (ISO)
100
AcDbVertex
100
AcDb2dVertex
 10
775.3986077134964
 20
1051.066376913946
 30
0.0
  0
VERTEX
  5
30E
330
308
100
AcDbEntity
  8
Sichtbar (ISO)
100
AcDbVertex
100
AcDb2dVertex
 10
775.3742388918018
 20
1051.074538302176
 30
0.0
  0
VERTEX
  5
30F
330
308
100
AcDbEntity
  8
Sichtbar (ISO)
100
AcDbVertex
100
AcDb2dVertex
 10
775.3501021314684
 20
1051.084920194775
 30
0.0
  0
VERTEX
  5
310
330
308
100
AcDbEntity
  8
Sichtbar (ISO)
100
AcDbVertex
100
AcDb2dVertex
 10
775.3262942433051
 20
1051.097345292492
 30
0.0
  0
VERTEX
  5
311
330
308
100
AcDbEntity
  8
Sichtbar (ISO)
100
AcDbVertex
100
AcDb2dVertex
 10
775.3029324586168
 20
1051.111630824809
 30
0.0
  0
VERTEX
  5
312
330
308
100
AcDbEntity
  8
Sichtbar (ISO)
100
AcDbVertex
100
AcDb2dVertex
 10
775.2801338050931
 20
1051.127593245019
 30
0.0
  0
VERTEX
  5
313
330
308
100
AcDbEntity
  8
Sichtbar (ISO)
100
AcDbVertex
100
AcDb2dVertex
 10
775.2580161441025
 20
1051.145049131003
 30
0.0
  0
VERTEX
  5
314
330
308
100
AcDbEntity
  8
Sichtbar (ISO)
100
AcDbVertex
100
AcDb2dVertex
 10
775.2366962901101
 20
1051.16381564995
 30
0.0
  0
VERTEX
  5
315
330
308
100
AcDbEntity
  8
Sichtbar (ISO)
100
AcDbVertex
100
AcDb2dVertex
 10
775.2163188284356
 20
1051.183673848152
 30
0.0
  0
VERTEX
  5
316
330
308
100
AcDbEntity
  8
Sichtbar (ISO)
100
AcDbVertex
100
AcDb2dVertex
 10
775.1972564034859
 20
1051.204038593515
 30
0.0
  0
VERTEX
  5
317
330
308
100
AcDbEntity
  8
Sichtbar (ISO)
100
AcDbVertex
100
AcDb2dVertex
 10
775.1795778930269
 20
1051.224595134301
 30
0.0
  0
VERTEX
  5
318
330
308
100
AcDbEntity
  8
Sichtbar (ISO)
100
AcDbVertex
100
AcDb2dVertex
 10
775.1632585466443
 20
1051.2451376706
 30
0.0
  0
VERTEX
  5
319
330
308
100
AcDbEntity
  8
Sichtbar (ISO)
100
AcDbVertex
100
AcDb2dVertex
 10
775.1482730461539
 20
1051.265460637264
 30
0.0
  0
VERTEX
  5
31A
330
308
100
AcDbEntity
  8
Sichtbar (ISO)
100
AcDbVertex
100
AcDb2dVertex
 10
775.1345968184141
 20
1051.285358473948
 30
0.0
  0
VERTEX
  5
31B
330
308
100
AcDbEntity
  8
Sichtbar (ISO)
100
AcDbVertex
100
AcDb2dVertex
 10
775.1222047848073
 20
1051.304625438231
 30
0.0
  0
VERTEX
  5
31C
330
308
100
AcDbEntity
  8
Sichtbar (ISO)
100
AcDbVertex
100
AcDb2dVertex
 10
775.1110721326251
 20
1051.323056147043
 30
0.0
  0
VERTEX
  5
31D
330
308
100
AcDbEntity
  8
Sichtbar (ISO)
100
AcDbVertex
100
AcDb2dVertex
 10
775.1011740228168
 20
1051.34044468069
 30
0.0
  0
VERTEX
  5
31E
330
308
100
AcDbEntity
  8
Sichtbar (ISO)
100
AcDbVertex
100
AcDb2dVertex
 10
775.0924853144709
 20
1051.35658571359
 30
0.0
  0
VERTEX
  5
31F
330
308
100
AcDbEntity
  8
Sichtbar (ISO)
100
AcDbVertex
100
AcDb2dVertex
 10
775.084981257173
 20
1051.371273445832
 30
0.0
  0
VERTEX
  5
320
330
308
100
AcDbEntity
  8
Sichtbar (ISO)
100
AcDbVertex
100
AcDb2dVertex
 10
775.0786367100117
 20
1051.384302551835
 30
0.0
  0
VERTEX
  5
321
330
308
100
AcDbEntity
  8
Sichtbar (ISO)
100
AcDbVertex
100
AcDb2dVertex
 10
775.073427162139
 20
1051.395467054416
 30
0.0
  0
VERTEX
  5
322
330
308
100
AcDbEntity
  8
Sichtbar (ISO)
100
AcDbVertex
100
AcDb2dVertex
 10
775.0693274726438
 20
1051.404561627993
 30
0.0
  0
SEQEND
  5
30B
330
308
100
AcDbEntity
  8
Sichtbar (ISO)
  0
POLYLINE
  5
323
330
37
100
AcDbEntity
  8
Sichtbar (ISO)
100
AcDb2dPolyline
 66
     1
 10
0.0
 20
0.0
 30
0.0
 70
   128
  0
VERTEX
  5
324
330
323
100
AcDbEntity
  8
Sichtbar (ISO)
100
AcDbVertex
100
AcDb2dVertex
 10
775.5651589257166
 20
1051.084663537328
 30
0.0
  0
VERTEX
  5
325
330
323
100
AcDbEntity
  8
Sichtbar (ISO)
100
AcDbVertex
100
AcDb2dVertex
 10
775.5635414968289
 20
1051.083659655601
 30
0.0
  0
VERTEX
  5
327
330
323
100
AcDbEntity
  8
Sichtbar (ISO)
100
AcDbVertex
100
AcDb2dVertex
 10
775.56184866092
 20
1051.082633531443
 30
0.0
  0
VERTEX
  5
328
330
323
100
AcDbEntity
  8
Sichtbar (ISO)
100
AcDbVertex
100
AcDb2dVertex
 10
775.5600800705678
 20
1051.081588202513
 30
0.0
  0
VERTEX
  5
329
330
323
100
AcDbEntity
  8
Sichtbar (ISO)
100
AcDbVertex
100
AcDb2dVertex
 10
775.5582365402331
 20
1051.080526773569
 30
0.0
  0
VERTEX
  5
32A
330
323
100
AcDbEntity
  8
Sichtbar (ISO)
100
AcDbVertex
100
AcDb2dVertex
 10
775.5563178111306
 20
1051.079452402055
 30
0.0
  0
VERTEX
  5
32B
330
323
100
AcDbEntity
  8
Sichtbar (ISO)
100
AcDbVertex
100
AcDb2dVertex
 10
775.5543242808813
 20
1051.078368130434
 30
0.0
  0
VERTEX
  5
32C
330
323
100
AcDbEntity
  8
Sichtbar (ISO)
100
AcDbVertex
100
AcDb2dVertex
 10
775.5522560189031
 20
1051.07727705866
 30
0.0
  0
VERTEX
  5
32D
330
323
100
AcDbEntity
  8
Sichtbar (ISO)
100
AcDbVertex
100
AcDb2dVertex
 10
775.5501175816024
 20
1051.076184342223
 30
0.0
  0
VERTEX
  5
32E
330
323
100
AcDbEntity
  8
Sichtbar (ISO)
100
AcDbVertex
100
AcDb2dVertex
 10
775.5479272786027
 20
1051.075102199192
 30
0.0
  0
VERTEX
  5
32F
330
323
100
AcDbEntity
  8
Sichtbar (ISO)
100
AcDbVertex
100
AcDb2dVertex
 10
775.5456884876953
 20
1051.07403369125
 30
0.0
  0
VERTEX
  5
330
330
323
100
AcDbEntity
  8
Sichtbar (ISO)
100
AcDbVertex
100
AcDb2dVertex
 10
775.5434012256134
 20
1051.072980845104
 30
0.0
  0
VERTEX
  5
331
330
323
100
AcDbEntity
  8
Sichtbar (ISO)
100
AcDbVertex
100
AcDb2dVertex
 10
775.5410661654961
 20
1051.071945572484
 30
0.0
  0
VERTEX
  5
332
330
323
100
AcDbEntity
  8
Sichtbar (ISO)
100
AcDbVertex
100
AcDb2dVertex
 10
775.5387065400136
 20
1051.070939229119
 30
0.0
  0
VERTEX
  5
333
330
323
100
AcDbEntity
  8
Sichtbar (ISO)
100
AcDbVertex
100
AcDb2dVertex
 10
775.5363680623395
 20
1051.069981004868
 30
0.0
  0
VERTEX
  5
334
330
323
100
AcDbEntity
  8
Sichtbar (ISO)
100
AcDbVertex
100
AcDb2dVertex
 10
775.5340540767987
 20
1051.069069907999
 30
0.0
  0
VERTEX
  5
335
330
323
100
AcDbEntity
  8
Sichtbar (ISO)
100
AcDbVertex
100
AcDb2dVertex
 10
775.5317662867009
 20
1051.068205234224
 30
0.0
  0
VERTEX
  5
336
330
323
100
AcDbEntity
  8
Sichtbar (ISO)
100
AcDbVertex
100
AcDb2dVertex
 10
775.5295087191192
 20
1051.067386413455
 30
0.0
  0
VERTEX
  5
337
330
323
100
AcDbEntity
  8
Sichtbar (ISO)
100
AcDbVertex
100
AcDb2dVertex
 10
775.5273002994936
 20
1051.066617978574
 30
0.0
  0
VERTEX
  5
338
330
323
100
AcDbEntity
  8
Sichtbar (ISO)
100
AcDbVertex
100
AcDb2dVertex
 10
775.525147795501
 20
1051.065899555982
 30
0.0
  0
VERTEX
  5
339
330
323
100
AcDbEntity
  8
Sichtbar (ISO)
100
AcDbVertex
100
AcDb2dVertex
 10
775.523053425536
 20
1051.065229133386
 30
0.0
  0
VERTEX
  5
33A
330
323
100
AcDbEntity
  8
Sichtbar (ISO)
100
AcDbVertex
100
AcDb2dVertex
 10
775.5210200643995
 20
1051.064604583513
 30
0.0
  0
VERTEX
  5
33B
330
323
100
AcDbEntity
  8
Sichtbar (ISO)
100
AcDbVertex
100
AcDb2dVertex
 10
775.5190495399888
 20
1051.064024368396
 30
0.0
  0
VERTEX
  5
33C
330
323
100
AcDbEntity
  8
Sichtbar (ISO)
100
AcDbVertex
100
AcDb2dVertex
 10
775.5171444611956
 20
1051.063486001414
 30
0.0
  0
VERTEX
  5
33D
330
323
100
AcDbEntity
  8
Sichtbar (ISO)
100
AcDbVertex
100
AcDb2dVertex
 10
775.5153073123238
 20
1051.062987829622
 30
0.0
  0
SEQEND
  5
326
330
323
100
AcDbEntity
  8
Sichtbar (ISO)
  0
POLYLINE
  5
33E
330
37
100
AcDbEntity
  8
Sichtbar (ISO)
100
AcDb2dPolyline
 66
     1
 10
0.0
 20
0.0
 30
0.0
 70
   128
  0
VERTEX
  5
33F
330
33E
100
AcDbEntity
  8
Sichtbar (ISO)
100
AcDbVertex
100
AcDb2dVertex
 10
775.6195132608099
 20
1051.643784410939
 30
0.0
  0
VERTEX
  5
340
330
33E
100
AcDbEntity
  8
Sichtbar (ISO)
100
AcDbVertex
100
AcDb2dVertex
 10
775.6229626134227
 20
1051.635675279972
 30
0.0
  0
VERTEX
  5
342
330
33E
100
AcDbEntity
  8
Sichtbar (ISO)
100
AcDbVertex
100
AcDb2dVertex
 10
775.6271559563196
 20
1051.625599005375
 30
0.0
  0
VERTEX
  5
343
330
33E
100
AcDbEntity
  8
Sichtbar (ISO)
100
AcDbVertex
100
AcDb2dVertex
 10
775.6319580419924
 20
1051.613528130741
 30
0.0
  0
VERTEX
  5
344
330
33E
100
AcDbEntity
  8
Sichtbar (ISO)
100
AcDbVertex
100
AcDb2dVertex
 10
775.6372344566117
 20
1051.599435324252
 30
0.0
  0
VERTEX
  5
345
330
33E
100
AcDbEntity
  8
Sichtbar (ISO)
100
AcDbVertex
100
AcDb2dVertex
 10
775.6428497131026
 20
1051.583293306773
 30
0.0
  0
VERTEX
  5
346
330
33E
100
AcDbEntity
  8
Sichtbar (ISO)
100
AcDbVertex
100
AcDb2dVertex
 10
775.6486694599299
 20
1051.565074329647
 30
0.0
  0
VERTEX
  5
347
330
33E
100
AcDbEntity
  8
Sichtbar (ISO)
100
AcDbVertex
100
AcDb2dVertex
 10
775.6545586268578
 20
1051.544751176032
 30
0.0
  0
VERTEX
  5
348
330
33E
100
AcDbEntity
  8
Sichtbar (ISO)
100
AcDbVertex
100
AcDb2dVertex
 10
775.6603823832179
 20
1051.522296451817
 30
0.0
  0
VERTEX
  5
349
330
33E
100
AcDbEntity
  8
Sichtbar (ISO)
100
AcDbVertex
100
AcDb2dVertex
 10
775.6660056587742
 20
1051.497682940161
 30
0.0
  0
VERTEX
  5
34A
330
33E
100
AcDbEntity
  8
Sichtbar (ISO)
100
AcDbVertex
100
AcDb2dVertex
 10
775.671121916459
 20
1051.471240907471
 30
0.0
  0
VERTEX
  5
34B
330
33E
100
AcDbEntity
  8
Sichtbar (ISO)
100
AcDbVertex
100
AcDb2dVertex
 10
775.6752699336324
 20
1051.443801027314
 30
0.0
  0
VERTEX
  5
34C
330
33E
100
AcDbEntity
  8
Sichtbar (ISO)
100
AcDbVertex
100
AcDb2dVertex
 10
775.6783355201256
 20
1051.415619822299
 30
0.0
  0
VERTEX
  5
34D
330
33E
100
AcDbEntity
  8
Sichtbar (ISO)
100
AcDbVertex
100
AcDb2dVertex
 10
775.680213905746
 20
1051.386934980715
 30
0.0
  0
VERTEX
  5
34E
330
33E
100
AcDbEntity
  8
Sichtbar (ISO)
100
AcDbVertex
100
AcDb2dVertex
 10
775.6807999034612
 20
1051.357984128559
 30
0.0
  0
VERTEX
  5
34F
330
33E
100
AcDbEntity
  8
Sichtbar (ISO)
100
AcDbVertex
100
AcDb2dVertex
 10
775.6799895767579
 20
1051.329005078709
 30
0.0
  0
VERTEX
  5
350
330
33E
100
AcDbEntity
  8
Sichtbar (ISO)
100
AcDbVertex
100
AcDb2dVertex
 10
775.6776779158761
 20
1051.300235696728
 30
0.0
  0
VERTEX
  5
351
330
33E
100
AcDbEntity
  8
Sichtbar (ISO)
100
AcDbVertex
100
AcDb2dVertex
 10
775.6737602392602
 20
1051.271913790688
 30
0.0
  0
VERTEX
  5
352
330
33E
100
AcDbEntity
  8
Sichtbar (ISO)
100
AcDbVertex
100
AcDb2dVertex
 10
775.6681317767171
 20
1051.244277048879
 30
0.0
  0
VERTEX
  5
353
330
33E
100
AcDbEntity
  8
Sichtbar (ISO)
100
AcDbVertex
100
AcDb2dVertex
 10
775.6606878466907
 20
1051.217563279376
 30
0.0
  0
VERTEX
  5
354
330
33E
100
AcDbEntity
  8
Sichtbar (ISO)
100
AcDbVertex
100
AcDb2dVertex
 10
775.6513240958278
 20
1051.192010232762
 30
0.0
  0
VERTEX
  5
355
330
33E
100
AcDbEntity
  8
Sichtbar (ISO)
100
AcDbVertex
100
AcDb2dVertex
 10
775.6399351861658
 20
1051.167855832089
 30
0.0
  0
VERTEX
  5
356
330
33E
100
AcDbEntity
  8
Sichtbar (ISO)
100
AcDbVertex
100
AcDb2dVertex
 10
775.6251991249796
 20
1051.143472358263
 30
0.0
  0
VERTEX
  5
357
330
33E
100
AcDbEntity
  8
Sichtbar (ISO)
100
AcDbVertex
100
AcDb2dVertex
 10
775.6032268556264
 20
1051.11611175598
 30
0.0
  0
VERTEX
  5
358
330
33E
100
AcDbEntity
  8
Sichtbar (ISO)
100
AcDbVertex
100
AcDb2dVertex
 10
775.5651589257166
 20
1051.084663537328
 30
0.0
  0
SEQEND
  5
341
330
33E
100
AcDbEntity
  8
Sichtbar (ISO)
  0
ARC
  5
359
330
37
100
AcDbEntity
  8
Sichtbar (ISO)
100
AcDbCircle
 10
777.3345414151961
 20
1046.947117589996
 30
0.0
 40
4.999999999999923
100
AcDbArc
 50
80.0600976936426
 51
86.93907340007831
  0
POLYLINE
  5
35A
330
37
100
AcDbEntity
  8
Sichtbar (ISO)
100
AcDb2dPolyline
 66
     1
 10
0.0
 20
0.0
 30
0.0
 70
   128
  0
VERTEX
  5
35B
330
35A
100
AcDbEntity
  8
Sichtbar (ISO)
100
AcDbVertex
100
AcDb2dVertex
 10
777.8169736700058
 20
1051.421182853252
 30
0.0
  0
VERTEX
  5
35C
330
35A
100
AcDbEntity
  8
Sichtbar (ISO)
100
AcDbVertex
100
AcDb2dVertex
 10
777.7692463025126
 20
1051.44135749917
 30
0.0
  0
VERTEX
  5
35E
330
35A
100
AcDbEntity
  8
Sichtbar (ISO)
100
AcDbVertex
100
AcDb2dVertex
 10
777.7395098060853
 20
1051.462184200111
 30
0.0
  0
VERTEX
  5
35F
330
35A
100
AcDbEntity
  8
Sichtbar (ISO)
100
AcDbVertex
100
AcDb2dVertex
 10
777.7176034829132
 20
1051.482467632161
 30
0.0
  0
VERTEX
  5
360
330
35A
100
AcDbEntity
  8
Sichtbar (ISO)
100
AcDbVertex
100
AcDb2dVertex
 10
777.7005799865348
 20
1051.501720137246
 30
0.0
  0
VERTEX
  5
361
330
35A
100
AcDbEntity
  8
Sichtbar (ISO)
100
AcDbVertex
100
AcDb2dVertex
 10
777.6848678526388
 20
1051.522779140327
 30
0.0
  0
VERTEX
  5
362
330
35A
100
AcDbEntity
  8
Sichtbar (ISO)
100
AcDbVertex
100
AcDb2dVertex
 10
777.6704622360555
 20
1051.54544394695
 30
0.0
  0
VERTEX
  5
363
330
35A
100
AcDbEntity
  8
Sichtbar (ISO)
100
AcDbVertex
100
AcDb2dVertex
 10
777.6573729484265
 20
1051.569496343641
 30
0.0
  0
VERTEX
  5
364
330
35A
100
AcDbEntity
  8
Sichtbar (ISO)
100
AcDbVertex
100
AcDb2dVertex
 10
777.6456100313516
 20
1051.594719429736
 30
0.0
  0
VERTEX
  5
365
330
35A
100
AcDbEntity
  8
Sichtbar (ISO)
100
AcDbVertex
100
AcDb2dVertex
 10
777.6351834114513
 20
1051.620895648169
 30
0.0
  0
VERTEX
  5
366
330
35A
100
AcDbEntity
  8
Sichtbar (ISO)
100
AcDbVertex
100
AcDb2dVertex
 10
777.6261031926193
 20
1051.647807681437
 30
0.0
  0
VERTEX
  5
367
330
35A
100
AcDbEntity
  8
Sichtbar (ISO)
100
AcDbVertex
100
AcDb2dVertex
 10
777.6183850086668
 20
1051.67519407974
 30
0.0
  0
VERTEX
  5
368
330
35A
100
AcDbEntity
  8
Sichtbar (ISO)
100
AcDbVertex
100
AcDb2dVertex
 10
777.6120588989053
 20
1051.702361939573
 30
0.0
  0
VERTEX
  5
369
330
35A
100
AcDbEntity
  8
Sichtbar (ISO)
100
AcDbVertex
100
AcDb2dVertex
 10
777.6070270071351
 20
1051.729003659581
 30
0.0
  0
VERTEX
  5
36A
330
35A
100
AcDbEntity
  8
Sichtbar (ISO)
100
AcDbVertex
100
AcDb2dVertex
 10
777.6031653478091
 20
1051.754953689542
 30
0.0
  0
VERTEX
  5
36B
330
35A
100
AcDbEntity
  8
Sichtbar (ISO)
100
AcDbVertex
100
AcDb2dVertex
 10
777.6003488621353
 20
1051.780046531921
 30
0.0
  0
VERTEX
  5
36C
330
35A
100
AcDbEntity
  8
Sichtbar (ISO)
100
AcDbVertex
100
AcDb2dVertex
 10
777.5984539814061
 20
1051.804116698792
 30
0.0
  0
VERTEX
  5
36D
330
35A
100
AcDbEntity
  8
Sichtbar (ISO)
100
AcDbVertex
100
AcDb2dVertex
 10
777.5973554695565
 20
1051.826998453053
 30
0.0
  0
VERTEX
  5
36E
330
35A
100
AcDbEntity
  8
Sichtbar (ISO)
100
AcDbVertex
100
AcDb2dVertex
 10
777.5969297578792
 20
1051.848526306777
 30
0.0
  0
VERTEX
  5
36F
330
35A
100
AcDbEntity
  8
Sichtbar (ISO)
100
AcDbVertex
100
AcDb2dVertex
 10
777.5970520894427
 20
1051.868534168317
 30
0.0
  0
VERTEX
  5
370
330
35A
100
AcDbEntity
  8
Sichtbar (ISO)
100
AcDbVertex
100
AcDb2dVertex
 10
777.5975979372725
 20
1051.886857258837
 30
0.0
  0
VERTEX
  5
371
330
35A
100
AcDbEntity
  8
Sichtbar (ISO)
100
AcDbVertex
100
AcDb2dVertex
 10
777.5984430235707
 20
1051.903329132144
 30
0.0
  0
VERTEX
  5
372
330
35A
100
AcDbEntity
  8
Sichtbar (ISO)
100
AcDbVertex
100
AcDb2dVertex
 10
777.5994630609297
 20
1051.917784832131
 30
0.0
  0
VERTEX
  5
373
330
35A
100
AcDbEntity
  8
Sichtbar (ISO)
100
AcDbVertex
100
AcDb2dVertex
 10
777.6005337092573
 20
1051.930058329442
 30
0.0
  0
VERTEX
  5
374
330
35A
100
AcDbEntity
  8
Sichtbar (ISO)
100
AcDbVertex
100
AcDb2dVertex
 10
777.60153074344
 20
1051.939984251132
 30
0.0
  0
SEQEND
  5
35D
330
35A
100
AcDbEntity
  8
Sichtbar (ISO)
  0
POLYLINE
  5
375
330
37
100
AcDbEntity
  8
Sichtbar (ISO)
100
AcDb2dPolyline
 66
     1
 10
0.0
 20
0.0
 30
0.0
 70
   128
  0
VERTEX
  5
376
330
375
100
AcDbEntity
  8
Sichtbar (ISO)
100
AcDbVertex
100
AcDb2dVertex
 10
777.8709842795712
 20
1051.415028690695
 30
0.0
  0
VERTEX
  5
377
330
375
100
AcDbEntity
  8
Sichtbar (ISO)
100
AcDbVertex
100
AcDb2dVertex
 10
777.8690816333699
 20
1051.414968080562
 30
0.0
  0
VERTEX
  5
379
330
375
100
AcDbEntity
  8
Sichtbar (ISO)
100
AcDbVertex
100
AcDb2dVertex
 10
777.867102513361
 20
1051.41492587233
 30
0.0
  0
VERTEX
  5
37A
330
375
100
AcDbEntity
  8
Sichtbar (ISO)
100
AcDbVertex
100
AcDb2dVertex
 10
777.8650482131385
 20
1051.414904816214
 30
0.0
  0
VERTEX
  5
37B
330
375
100
AcDbEntity
  8
Sichtbar (ISO)
100
AcDbVertex
100
AcDb2dVertex
 10
777.8629209222692
 20
1051.414907370173
 30
0.0
  0
VERTEX
  5
37C
330
375
100
AcDbEntity
  8
Sichtbar (ISO)
100
AcDbVertex
100
AcDb2dVertex
 10
777.8607219343471
 20
1051.414936284421
 30
0.0
  0
VERTEX
  5
37D
330
375
100
AcDbEntity
  8
Sichtbar (ISO)
100
AcDbVertex
100
AcDb2dVertex
 10
777.8584534389388
 20
1051.414994016919
 30
0.0
  0
VERTEX
  5
37E
330
375
100
AcDbEntity
  8
Sichtbar (ISO)
100
AcDbVertex
100
AcDb2dVertex
 10
777.8561167296385
 20
1051.41508331788
 30
0.0
  0
VERTEX
  5
37F
330
375
100
AcDbEntity
  8
Sichtbar (ISO)
100
AcDbVertex
100
AcDb2dVertex
 10
777.8537184087789
 20
1051.41520634589
 30
0.0
  0
VERTEX
  5
380
330
375
100
AcDbEntity
  8
Sichtbar (ISO)
100
AcDbVertex
100
AcDb2dVertex
 10
777.8512805832658
 20
1051.415364167403
 30
0.0
  0
VERTEX
  5
381
330
375
100
AcDbEntity
  8
Sichtbar (ISO)
100
AcDbVertex
100
AcDb2dVertex
 10
777.8488072969057
 20
1051.415558239037
 30
0.0
  0
VERTEX
  5
382
330
375
100
AcDbEntity
  8
Sichtbar (ISO)
100
AcDbVertex
100
AcDb2dVertex
 10
777.8463000301748
 20
1051.415790060487
 30
0.0
  0
VERTEX
  5
383
330
375
100
AcDbEntity
  8
Sichtbar (ISO)
100
AcDbVertex
100
AcDb2dVertex
 10
777.8437603833321
 20
1051.416061042812
 30
0.0
  0
VERTEX
  5
384
330
375
100
AcDbEntity
  8
Sichtbar (ISO)
100
AcDbVertex
100
AcDb2dVertex
 10
777.8412137597282
 20
1051.416369442443
 30
0.0
  0
VERTEX
  5
385
330
375
100
AcDbEntity
  8
Sichtbar (ISO)
100
AcDbVertex
100
AcDb2dVertex
 10
777.8387091981415
 20
1051.416708631535
 30
0.0
  0
VERTEX
  5
386
330
375
100
AcDbEntity
  8
Sichtbar (ISO)
100
AcDbVertex
100
AcDb2dVertex
 10
777.8362497506455
 20
1051.417076722383
 30
0.0
  0
VERTEX
  5
387
330
375
100
AcDbEntity
  8
Sichtbar (ISO)
100
AcDbVertex
100
AcDb2dVertex
 10
777.8338361455495
 20
1051.417471693083
 30
0.0
  0
VERTEX
  5
388
330
375
100
AcDbEntity
  8
Sichtbar (ISO)
100
AcDbVertex
100
AcDb2dVertex
 10
777.8314716744939
 20
1051.417891478657
 30
0.0
  0
VERTEX
  5
389
330
375
100
AcDbEntity
  8
Sichtbar (ISO)
100
AcDbVertex
100
AcDb2dVertex
 10
777.8291749133434
 20
1051.418330119096
 30
0.0
  0
VERTEX
  5
38A
330
375
100
AcDbEntity
  8
Sichtbar (ISO)
100
AcDbVertex
100
AcDb2dVertex
 10
777.8269514871117
 20
1051.418784193533
 30
0.0
  0
VERTEX
  5
38B
330
375
100
AcDbEntity
  8
Sichtbar (ISO)
100
AcDbVertex
100
AcDb2dVertex
 10
777.8248026080461
 20
1051.419250580477
 30
0.0
  0
VERTEX
  5
38C
330
375
100
AcDbEntity
  8
Sichtbar (ISO)
100
AcDbVertex
100
AcDb2dVertex
 10
777.822729306317
 20
1051.419726663912
 30
0.0
  0
VERTEX
  5
38D
330
375
100
AcDbEntity
  8
Sichtbar (ISO)
100
AcDbVertex
100
AcDb2dVertex
 10
777.8207326743884
 20
1051.420209410983
 30
0.0
  0
VERTEX
  5
38E
330
375
100
AcDbEntity
  8
Sichtbar (ISO)
100
AcDbVertex
100
AcDb2dVertex
 10
777.8188138047243
 20
1051.420695788836
 30
0.0
  0
VERTEX
  5
38F
330
375
100
AcDbEntity
  8
Sichtbar (ISO)
100
AcDbVertex
100
AcDb2dVertex
 10
777.8169736700058
 20
1051.421182853252
 30
0.0
  0
SEQEND
  5
378
330
375
100
AcDbEntity
  8
Sichtbar (ISO)
  0
POLYLINE
  5
390
330
37
100
AcDbEntity
  8
Sichtbar (ISO)
100
AcDb2dPolyline
 66
     1
 10
0.0
 20
0.0
 30
0.0
 70
   128
  0
VERTEX
  5
391
330
390
100
AcDbEntity
  8
Sichtbar (ISO)
100
AcDbVertex
100
AcDb2dVertex
 10
778.1976170196424
 20
1051.872064499194
 30
0.0
  0
VERTEX
  5
392
330
390
100
AcDbEntity
  8
Sichtbar (ISO)
100
AcDbVertex
100
AcDb2dVertex
 10
778.1965496811896
 20
1051.863316919895
 30
0.0
  0
VERTEX
  5
394
330
390
100
AcDbEntity
  8
Sichtbar (ISO)
100
AcDbVertex
100
AcDb2dVertex
 10
778.1951429183663
 20
1051.852494088872
 30
0.0
  0
VERTEX
  5
395
330
390
100
AcDbEntity
  8
Sichtbar (ISO)
100
AcDbVertex
100
AcDb2dVertex
 10
778.1932664509428
 20
1051.839639393543
 30
0.0
  0
VERTEX
  5
396
330
390
100
AcDbEntity
  8
Sichtbar (ISO)
100
AcDbVertex
100
AcDb2dVertex
 10
778.1907893997728
 20
1051.824796664505
 30
0.0
  0
VERTEX
  5
397
330
390
100
AcDbEntity
  8
Sichtbar (ISO)
100
AcDbVertex
100
AcDb2dVertex
 10
778.1875813648432
 20
1051.808009377811
 30
0.0
  0
VERTEX
  5
398
330
390
100
AcDbEntity
  8
Sichtbar (ISO)
100
AcDbVertex
100
AcDb2dVertex
 10
778.1835118838473
 20
1051.789321426354
 30
0.0
  0
VERTEX
  5
399
330
390
100
AcDbEntity
  8
Sichtbar (ISO)
100
AcDbVertex
100
AcDb2dVertex
 10
778.1784506142614
 20
1051.768776614389
 30
0.0
  0
VERTEX
  5
39A
330
390
100
AcDbEntity
  8
Sichtbar (ISO)
100
AcDbVertex
100
AcDb2dVertex
 10
778.1722666194498
 20
1051.746418444313
 30
0.0
  0
VERTEX
  5
39B
330
390
100
AcDbEntity
  8
Sichtbar (ISO)
100
AcDbVertex
100
AcDb2dVertex
 10
778.1648296766722
 20
1051.722290631744
 30
0.0
  0
VERTEX
  5
39C
330
390
100
AcDbEntity
  8
Sichtbar (ISO)
100
AcDbVertex
100
AcDb2dVertex
 10
778.1560394344576
 20
1051.696832987218
 30
0.0
  0
VERTEX
  5
39D
330
390
100
AcDbEntity
  8
Sichtbar (ISO)
100
AcDbVertex
100
AcDb2dVertex
 10
778.145911940918
 20
1051.670995344581
 30
0.0
  0
VERTEX
  5
39E
330
390
100
AcDbEntity
  8
Sichtbar (ISO)
100
AcDbVertex
100
AcDb2dVertex
 10
778.134476091996
 20
1051.645056994729
 30
0.0
  0
VERTEX
  5
39F
330
390
100
AcDbEntity
  8
Sichtbar (ISO)
100
AcDbVertex
100
AcDb2dVertex
 10
778.1217603240516
 20
1051.619276065507
 30
0.0
  0
VERTEX
  5
3A0
330
390
100
AcDbEntity
  8
Sichtbar (ISO)
100
AcDbVertex
100
AcDb2dVertex
 10
778.1077925368217
 20
1051.593910711099
 30
0.0
  0
VERTEX
  5
3A1
330
390
100
AcDbEntity
  8
Sichtbar (ISO)
100
AcDbVertex
100
AcDb2dVertex
 10
778.092601343939
 20
1051.569219298917
 30
0.0
  0
VERTEX
  5
3A2
330
390
100
AcDbEntity
  8
Sichtbar (ISO)
100
AcDbVertex
100
AcDb2dVertex
 10
778.0762147026297
 20
1051.54546031135
 30
0.0
  0
VERTEX
  5
3A3
330
390
100
AcDbEntity
  8
Sichtbar (ISO)
100
AcDbVertex
100
AcDb2dVertex
 10
778.0586608719811
 20
1051.522891636674
 30
0.0
  0
VERTEX
  5
3A4
330
390
100
AcDbEntity
  8
Sichtbar (ISO)
100
AcDbVertex
100
AcDb2dVertex
 10
778.0399680487862
 20
1051.501771580007
 30
0.0
  0
VERTEX
  5
3A5
330
390
100
AcDbEntity
  8
Sichtbar (ISO)
100
AcDbVertex
100
AcDb2dVertex
 10
778.0201646071109
 20
1051.48235868603
 30
0.0
  0
VERTEX
  5
3A6
330
390
100
AcDbEntity
  8
Sichtbar (ISO)
100
AcDbVertex
100
AcDb2dVertex
 10
777.9992787437484
 20
1051.464911259861
 30
0.0
  0
VERTEX
  5
3A7
330
390
100
AcDbEntity
  8
Sichtbar (ISO)
100
AcDbVertex
100
AcDb2dVertex
 10
777.9773384782188
 20
1051.44968736705
 30
0.0
  0
VERTEX
  5
3A8
330
390
100
AcDbEntity
  8
Sichtbar (ISO)
100
AcDbVertex
100
AcDb2dVertex
 10
777.9523849223355
 20
1051.435938391488
 30
0.0
  0
VERTEX
  5
3A9
330
390
100
AcDbEntity
  8
Sichtbar (ISO)
100
AcDbVertex
100
AcDb2dVertex
 10
777.9196760718583
 20
1051.423229684707
 30
0.0
  0
VERTEX
  5
3AA
330
390
100
AcDbEntity
  8
Sichtbar (ISO)
100
AcDbVertex
100
AcDb2dVertex
 10
777.8709842795712
 20
1051.415028690695
 30
0.0
  0
SEQEND
  5
393
330
390
100
AcDbEntity
  8
Sichtbar (ISO)
  0
ARC
  5
3AB
330
37
100
AcDbEntity
  8
Sichtbar (ISO)
100
AcDbCircle
 10
777.3345414151961
 20
1046.947117589996
 30
0.0
 40
5.000000000000098
100
AcDbArc
 50
50.06009769364435
 51
56.93907340008006
  0
POLYLINE
  5
3AC
330
37
100
AcDbEntity
  8
Sichtbar (ISO)
100
AcDb2dPolyline
 66
     1
 10
0.0
 20
0.0
 30
0.0
 70
   128
  0
VERTEX
  5
3AD
330
3AC
100
AcDbEntity
  8
Sichtbar (ISO)
100
AcDbVertex
100
AcDb2dVertex
 10
779.989372566221
 20
1050.580555581736
 30
0.0
  0
VERTEX
  5
3AE
330
3AC
100
AcDbEntity
  8
Sichtbar (ISO)
100
AcDbVertex
100
AcDb2dVertex
 10
779.9581269559661
 20
1050.621891101929
 30
0.0
  0
VERTEX
  5
3B0
330
3AC
100
AcDbEntity
  8
Sichtbar (ISO)
100
AcDbVertex
100
AcDb2dVertex
 10
779.9427876297308
 20
1050.654795701011
 30
0.0
  0
VERTEX
  5
3B1
330
3AC
100
AcDbEntity
  8
Sichtbar (ISO)
100
AcDbVertex
100
AcDb2dVertex
 10
779.933957859271
 20
1050.683314954932
 30
0.0
  0
VERTEX
  5
3B2
330
3AC
100
AcDbEntity
  8
Sichtbar (ISO)
100
AcDbVertex
100
AcDb2dVertex
 10
779.9288412306321
 20
1050.708499699689
 30
0.0
  0
VERTEX
  5
3B3
330
3AC
100
AcDbEntity
  8
Sichtbar (ISO)
100
AcDbVertex
100
AcDb2dVertex
 10
779.9257639650837
 20
1050.73459373308
 30
0.0
  0
VERTEX
  5
3B4
330
3AC
100
AcDbEntity
  8
Sichtbar (ISO)
100
AcDbVertex
100
AcDb2dVertex
 10
779.9246205104219
 20
1050.761424538109
 30
0.0
  0
VERTEX
  5
3B5
330
3AC
100
AcDbEntity
  8
Sichtbar (ISO)
100
AcDbVertex
100
AcDb2dVertex
 10
779.9253111523698
 20
1050.788799335896
 30
0.0
  0
VERTEX
  5
3B6
330
3AC
100
AcDbEntity
  8
Sichtbar (ISO)
100
AcDbVertex
100
AcDb2dVertex
 10
779.9277357047253
 20
1050.816524584544
 30
0.0
  0
VERTEX
  5
3B7
330
3AC
100
AcDbEntity
  8
Sichtbar (ISO)
100
AcDbVertex
100
AcDb2dVertex
 10
779.9317940836933
 20
1050.844407037122
 30
0.0
  0
VERTEX
  5
3B8
330
3AC
100
AcDbEntity
  8
Sichtbar (ISO)
100
AcDbVertex
100
AcDb2dVertex
 10
779.9373864426438
 20
1050.872253641947
 30
0.0
  0
VERTEX
  5
3B9
330
3AC
100
AcDbEntity
  8
Sichtbar (ISO)
100
AcDbVertex
100
AcDb2dVertex
 10
779.944395378071
 20
1050.899830210362
 30
0.0
  0
VERTEX
  5
3BA
330
3AC
100
AcDbEntity
  8
Sichtbar (ISO)
100
AcDbVertex
100
AcDb2dVertex
 10
779.9525007518621
 20
1050.926521296066
 30
0.0
  0
VERTEX
  5
3BB
330
3AC
100
AcDbEntity
  8
Sichtbar (ISO)
100
AcDbVertex
100
AcDb2dVertex
 10
779.9614638440296
 20
1050.952109444737
 30
0.0
  0
VERTEX
  5
3BC
330
3AC
100
AcDbEntity
  8
Sichtbar (ISO)
100
AcDbVertex
100
AcDb2dVertex
 10
779.9710945701247
 20
1050.976513979645
 30
0.0
  0
VERTEX
  5
3BD
330
3AC
100
AcDbEntity
  8
Sichtbar (ISO)
100
AcDbVertex
100
AcDb2dVertex
 10
779.9812019443617
 20
1050.999653037302
 30
0.0
  0
VERTEX
  5
3BE
330
3AC
100
AcDbEntity
  8
Sichtbar (ISO)
100
AcDbVertex
100
AcDb2dVertex
 10
779.9915958523459
 20
1051.021445963135
 30
0.0
  0
VERTEX
  5
3BF
330
3AC
100
AcDbEntity
  8
Sichtbar (ISO)
100
AcDbVertex
100
AcDb2dVertex
 10
780.0020856778102
 20
1051.041811361711
 30
0.0
  0
VERTEX
  5
3C0
330
3AC
100
AcDbEntity
  8
Sichtbar (ISO)
100
AcDbVertex
100
AcDb2dVertex
 10
780.0124807745417
 20
1051.060667859757
 30
0.0
  0
VERTEX
  5
3C1
330
3AC
100
AcDbEntity
  8
Sichtbar (ISO)
100
AcDbVertex
100
AcDb2dVertex
 10
780.0225905262731
 20
1051.077934061841
 30
0.0
  0
VERTEX
  5
3C2
330
3AC
100
AcDbEntity
  8
Sichtbar (ISO)
100
AcDbVertex
100
AcDb2dVertex
 10
780.0322248186097
 20
1051.093529313388
 30
0.0
  0
VERTEX
  5
3C3
330
3AC
100
AcDbEntity
  8
Sichtbar (ISO)
100
AcDbVertex
100
AcDb2dVertex
 10
780.0411928430388
 20
1051.107371990479
 30
0.0
  0
VERTEX
  5
3C4
330
3AC
100
AcDbEntity
  8
Sichtbar (ISO)
100
AcDbVertex
100
AcDb2dVertex
 10
780.0493039683202
 20
1051.119380708761
 30
0.0
  0
VERTEX
  5
3C5
330
3AC
100
AcDbEntity
  8
Sichtbar (ISO)
100
AcDbVertex
100
AcDb2dVertex
 10
780.0563679177596
 20
1051.129474563015
 30
0.0
  0
VERTEX
  5
3C6
330
3AC
100
AcDbEntity
  8
Sichtbar (ISO)
100
AcDbVertex
100
AcDb2dVertex
 10
780.0621940451438
 20
1051.137572179966
 30
0.0
  0
SEQEND
  5
3AF
330
3AC
100
AcDbEntity
  8
Sichtbar (ISO)
  0
POLYLINE
  5
3C7
330
37
100
AcDbEntity
  8
Sichtbar (ISO)
100
AcDb2dPolyline
 66
     1
 10
0.0
 20
0.0
 30
0.0
 70
   128
  0
VERTEX
  5
3C8
330
3C7
100
AcDbEntity
  8
Sichtbar (ISO)
100
AcDbVertex
100
AcDb2dVertex
 10
780.0330700357736
 20
1050.548220666026
 30
0.0
  0
VERTEX
  5
3C9
330
3C7
100
AcDbEntity
  8
Sichtbar (ISO)
100
AcDbVertex
100
AcDb2dVertex
 10
780.0313897962641
 20
1050.549120688058
 30
0.0
  0
VERTEX
  5
3CB
330
3C7
100
AcDbEntity
  8
Sichtbar (ISO)
100
AcDbVertex
100
AcDb2dVertex
 10
780.029652251506
 20
1050.550074978181
 30
0.0
  0
VERTEX
  5
3CC
330
3C7
100
AcDbEntity
  8
Sichtbar (ISO)
100
AcDbVertex
100
AcDb2dVertex
 10
780.0278604819553
 20
1050.551085335123
 30
0.0
  0
VERTEX
  5
3CD
330
3C7
100
AcDbEntity
  8
Sichtbar (ISO)
100
AcDbVertex
100
AcDb2dVertex
 10
780.0260170456072
 20
1050.552152831988
 30
0.0
  0
VERTEX
  5
3CE
330
3C7
100
AcDbEntity
  8
Sichtbar (ISO)
100
AcDbVertex
100
AcDb2dVertex
 10
780.0241246702436
 20
1050.553278786987
 30
0.0
  0
VERTEX
  5
3CF
330
3C7
100
AcDbEntity
  8
Sichtbar (ISO)
100
AcDbVertex
100
AcDb2dVertex
 10
780.0221864409992
 20
1050.554464995384
 30
0.0
  0
VERTEX
  5
3D0
330
3C7
100
AcDbEntity
  8
Sichtbar (ISO)
100
AcDbVertex
100
AcDb2dVertex
 10
780.020204913062
 20
1050.55571253236
 30
0.0
  0
VERTEX
  5
3D1
330
3C7
100
AcDbEntity
  8
Sichtbar (ISO)
100
AcDbVertex
100
AcDb2dVertex
 10
780.0181919681575
 20
1050.557016683949
 30
0.0
  0
VERTEX
  5
3D2
330
3C7
100
AcDbEntity
  8
Sichtbar (ISO)
100
AcDbVertex
100
AcDb2dVertex
 10
780.0161601898671
 20
1050.558372216828
 30
0.0
  0
VERTEX
  5
3D3
330
3C7
100
AcDbEntity
  8
Sichtbar (ISO)
100
AcDbVertex
100
AcDb2dVertex
 10
780.014111703033
 20
1050.559779783137
 30
0.0
  0
VERTEX
  5
3D4
330
3C7
100
AcDbEntity
  8
Sichtbar (ISO)
100
AcDbVertex
100
AcDb2dVertex
 10
780.0120486296896
 20
1050.561240037089
 30
0.0
  0
VERTEX
  5
3D5
330
3C7
100
AcDbEntity
  8
Sichtbar (ISO)
100
AcDbVertex
100
AcDb2dVertex
 10
780.0099739016616
 20
1050.562753033678
 30
0.0
  0
VERTEX
  5
3D6
330
3C7
100
AcDbEntity
  8
Sichtbar (ISO)
100
AcDbVertex
100
AcDb2dVertex
 10
780.0079276273963
 20
1050.564290576739
 30
0.0
  0
VERTEX
  5
3D7
330
3C7
100
AcDbEntity
  8
Sichtbar (ISO)
100
AcDbVertex
100
AcDb2dVertex
 10
780.0059309639575
 20
1050.565835156914
 30
0.0
  0
VERTEX
  5
3D8
330
3C7
100
AcDbEntity
  8
Sichtbar (ISO)
100
AcDbVertex
100
AcDb2dVertex
 10
780.0039842177569
 20
1050.567385064491
 30
0.0
  0
VERTEX
  5
3D9
330
3C7
100
AcDbEntity
  8
Sichtbar (ISO)
100
AcDbVertex
100
AcDb2dVertex
 10
780.002087342849
 20
1050.568938109009
 30
0.0
  0
VERTEX
  5
3DA
330
3C7
100
AcDbEntity
  8
Sichtbar (ISO)
100
AcDbVertex
100
AcDb2dVertex
 10
780.0002463602537
 20
1050.570486869129
 30
0.0
  0
VERTEX
  5
3DB
330
3C7
100
AcDbEntity
  8
Sichtbar (ISO)
100
AcDbVertex
100
AcDb2dVertex
 10
779.9984793855565
 20
1050.572013861641
 30
0.0
  0
VERTEX
  5
3DC
330
3C7
100
AcDbEntity
  8
Sichtbar (ISO)
100
AcDbVertex
100
AcDb2dVertex
 10
779.9967868696341
 20
1050.573514303985
 30
0.0
  0
VERTEX
  5
3DD
330
3C7
100
AcDbEntity
  8
Sichtbar (ISO)
100
AcDbVertex
100
AcDb2dVertex
 10
779.9951683788998
 20
1050.574984809566
 30
0.0
  0
VERTEX
  5
3DE
330
3C7
100
AcDbEntity
  8
Sichtbar (ISO)
100
AcDbVertex
100
AcDb2dVertex
 10
779.9936199997781
 20
1050.576425679116
 30
0.0
  0
VERTEX
  5
3DF
330
3C7
100
AcDbEntity
  8
Sichtbar (ISO)
100
AcDbVertex
100
AcDb2dVertex
 10
779.9921381856558
 20
1050.577836200339
 30
0.0
  0
VERTEX
  5
3E0
330
3C7
100
AcDbEntity
  8
Sichtbar (ISO)
100
AcDbVertex
100
AcDb2dVertex
 10
779.9907225159214
 20
1050.579213718525
 30
0.0
  0
VERTEX
  5
3E1
330
3C7
100
AcDbEntity
  8
Sichtbar (ISO)
100
AcDbVertex
100
AcDb2dVertex
 10
779.989372566221
 20
1050.580555581736
 30
0.0
  0
SEQEND
  5
3CA
330
3C7
100
AcDbEntity
  8
Sichtbar (ISO)
  0
POLYLINE
  5
3E2
330
37
100
AcDbEntity
  8
Sichtbar (ISO)
100
AcDb2dPolyline
 66
     1
 10
0.0
 20
0.0
 30
0.0
 70
   128
  0
VERTEX
  5
3E3
330
3E2
100
AcDbEntity
  8
Sichtbar (ISO)
100
AcDbVertex
100
AcDb2dVertex
 10
780.5444600813719
 20
1050.780708686709
 30
0.0
  0
VERTEX
  5
3E4
330
3E2
100
AcDbEntity
  8
Sichtbar (ISO)
100
AcDbVertex
100
AcDb2dVertex
 10
780.5391622703238
 20
1050.773667142749
 30
0.0
  0
VERTEX
  5
3E6
330
3E2
100
AcDbEntity
  8
Sichtbar (ISO)
100
AcDbVertex
100
AcDb2dVertex
 10
780.5325325001148
 20
1050.764997468966
 30
0.0
  0
VERTEX
  5
3E7
330
3E2
100
AcDbEntity
  8
Sichtbar (ISO)
100
AcDbVertex
100
AcDb2dVertex
 10
780.5244799042298
 20
1050.754803236937
 30
0.0
  0
VERTEX
  5
3E8
330
3E2
100
AcDbEntity
  8
Sichtbar (ISO)
100
AcDbVertex
100
AcDb2dVertex
 10
780.5149133214996
 20
1050.743187494789
 30
0.0
  0
VERTEX
  5
3E9
330
3E2
100
AcDbEntity
  8
Sichtbar (ISO)
100
AcDbVertex
100
AcDb2dVertex
 10
780.5037415308636
 20
1050.730253334967
 30
0.0
  0
VERTEX
  5
3EA
330
3E2
100
AcDbEntity
  8
Sichtbar (ISO)
100
AcDbVertex
100
AcDb2dVertex
 10
780.4908733262337
 20
1050.716103838836
 30
0.0
  0
VERTEX
  5
3EB
330
3E2
100
AcDbEntity
  8
Sichtbar (ISO)
100
AcDbVertex
100
AcDb2dVertex
 10
780.4762175164952
 20
1050.700842076682
 30
0.0
  0
VERTEX
  5
3EC
330
3E2
100
AcDbEntity
  8
Sichtbar (ISO)
100
AcDbVertex
100
AcDb2dVertex
 10
780.4596830878057
 20
1050.684571358358
 30
0.0
  0
VERTEX
  5
3ED
330
3E2
100
AcDbEntity
  8
Sichtbar (ISO)
100
AcDbVertex
100
AcDb2dVertex
 10
780.4411788340773
 20
1050.667394765229
 30
0.0
  0
VERTEX
  5
3EE
330
3E2
100
AcDbEntity
  8
Sichtbar (ISO)
100
AcDbVertex
100
AcDb2dVertex
 10
780.4208371962999
 20
1050.649742604323
 30
0.0
  0
VERTEX
  5
3EF
330
3E2
100
AcDbEntity
  8
Sichtbar (ISO)
100
AcDbVertex
100
AcDb2dVertex
 10
780.3991477780551
 20
1050.632430435114
 30
0.0
  0
VERTEX
  5
3F0
330
3E2
100
AcDbEntity
  8
Sichtbar (ISO)
100
AcDbVertex
100
AcDb2dVertex
 10
780.3762749697778
 20
1050.615685112259
 30
0.0
  0
VERTEX
  5
3F1
330
3E2
100
AcDbEntity
  8
Sichtbar (ISO)
100
AcDbVertex
100
AcDb2dVertex
 10
780.3523722027829
 20
1050.599716018552
 30
0.0
  0
VERTEX
  5
3F2
330
3E2
100
AcDbEntity
  8
Sichtbar (ISO)
100
AcDbVertex
100
AcDb2dVertex
 10
780.327593277903
 20
1050.584733004841
 30
0.0
  0
VERTEX
  5
3F3
330
3E2
100
AcDbEntity
  8
Sichtbar (ISO)
100
AcDbVertex
100
AcDb2dVertex
 10
780.3020914791259
 20
1050.570945192192
 30
0.0
  0
VERTEX
  5
3F4
330
3E2
100
AcDbEntity
  8
Sichtbar (ISO)
100
AcDbVertex
100
AcDb2dVertex
 10
780.2760205923113
 20
1050.558562442531
 30
0.0
  0
VERTEX
  5
3F5
330
3E2
100
AcDbEntity
  8
Sichtbar (ISO)
100
AcDbVertex
100
AcDb2dVertex
 10
780.2495342260467
 20
1050.547794378219
 30
0.0
  0
VERTEX
  5
3F6
330
3E2
100
AcDbEntity
  8
Sichtbar (ISO)
100
AcDbVertex
100
AcDb2dVertex
 10
780.2227858565652
 20
1050.53885034881
 30
0.0
  0
VERTEX
  5
3F7
330
3E2
100
AcDbEntity
  8
Sichtbar (ISO)
100
AcDbVertex
100
AcDb2dVertex
 10
780.1959290625084
 20
1050.531939998823
 30
0.0
  0
VERTEX
  5
3F8
330
3E2
100
AcDbEntity
  8
Sichtbar (ISO)
100
AcDbVertex
100
AcDb2dVertex
 10
780.1691175048684
 20
1050.52727291184
 30
0.0
  0
VERTEX
  5
3F9
330
3E2
100
AcDbEntity
  8
Sichtbar (ISO)
100
AcDbVertex
100
AcDb2dVertex
 10
780.1425047922328
 20
1050.525058710219
 30
0.0
  0
VERTEX
  5
3FA
330
3E2
100
AcDbEntity
  8
Sichtbar (ISO)
100
AcDbVertex
100
AcDb2dVertex
 10
780.114020062429
 20
1050.525628565146
 30
0.0
  0
VERTEX
  5
3FB
330
3E2
100
AcDbEntity
  8
Sichtbar (ISO)
100
AcDbVertex
100
AcDb2dVertex
 10
780.0793389727973
 20
1050.530977082697
 30
0.0
  0
VERTEX
  5
3FC
330
3E2
100
AcDbEntity
  8
Sichtbar (ISO)
100
AcDbVertex
100
AcDb2dVertex
 10
780.0330700357736
 20
1050.548220666026
 30
0.0
  0
SEQEND
  5
3E5
330
3E2
100
AcDbEntity
  8
Sichtbar (ISO)
  0
ARC
  5
3FD
330
37
100
AcDbEntity
  8
Sichtbar (ISO)
100
AcDbCircle
 10
777.3345414151961
 20
1046.947117589996
 30
0.0
 40
5.00000000000001
100
AcDbArc
 50
20.06009769364593
 51
26.93907340007936
  0
POLYLINE
  5
3FE
330
37
100
AcDbEntity
  8
Sichtbar (ISO)
100
AcDb2dPolyline
 66
     1
 10
0.0
 20
0.0
 30
0.0
 70
   128
  0
VERTEX
  5
3FF
330
3FE
100
AcDbEntity
  8
Sichtbar (ISO)
100
AcDbVertex
100
AcDb2dVertex
 10
781.4504116548208
 20
1048.766351692867
 30
0.0
  0
VERTEX
  5
400
330
3FE
100
AcDbEntity
  8
Sichtbar (ISO)
100
AcDbVertex
100
AcDb2dVertex
 10
781.4440199252414
 20
1048.817772108127
 30
0.0
  0
VERTEX
  5
402
330
3FE
100
AcDbEntity
  8
Sichtbar (ISO)
100
AcDbVertex
100
AcDb2dVertex
 10
781.447187811845
 20
1048.853937843332
 30
0.0
  0
VERTEX
  5
403
330
3FE
100
AcDbEntity
  8
Sichtbar (ISO)
100
AcDbVertex
100
AcDb2dVertex
 10
781.4538007391449
 20
1048.883051291694
 30
0.0
  0
VERTEX
  5
404
330
3FE
100
AcDbEntity
  8
Sichtbar (ISO)
100
AcDbVertex
100
AcDb2dVertex
 10
781.4619621273747
 20
1048.907420113389
 30
0.0
  0
VERTEX
  5
405
330
3FE
100
AcDbEntity
  8
Sichtbar (ISO)
100
AcDbVertex
100
AcDb2dVertex
 10
781.472344019974
 20
1048.931556873722
 30
0.0
  0
VERTEX
  5
406
330
3FE
100
AcDbEntity
  8
Sichtbar (ISO)
100
AcDbVertex
100
AcDb2dVertex
 10
781.4847691176908
 20
1048.955364761885
 30
0.0
  0
VERTEX
  5
407
330
3FE
100
AcDbEntity
  8
Sichtbar (ISO)
100
AcDbVertex
100
AcDb2dVertex
 10
781.4990546500078
 20
1048.978726546574
 30
0.0
  0
VERTEX
  5
408
330
3FE
100
AcDbEntity
  8
Sichtbar (ISO)
100
AcDbVertex
100
AcDb2dVertex
 10
781.5150170702179
 20
1049.001525200098
 30
0.0
  0
VERTEX
  5
409
330
3FE
100
AcDbEntity
  8
Sichtbar (ISO)
100
AcDbVertex
100
AcDb2dVertex
 10
781.5324729562021
 20
1049.023642861089
 30
0.0
  0
VERTEX
  5
40A
330
3FE
100
AcDbEntity
  8
Sichtbar (ISO)
100
AcDbVertex
100
AcDb2dVertex
 10
781.5512394751488
 20
1049.044962715081
 30
0.0
  0
VERTEX
  5
40B
330
3FE
100
AcDbEntity
  8
Sichtbar (ISO)
100
AcDbVertex
100
AcDb2dVertex
 10
781.5710976733512
 20
1049.065340176755
 30
0.0
  0
VERTEX
  5
40C
330
3FE
100
AcDbEntity
  8
Sichtbar (ISO)
100
AcDbVertex
100
AcDb2dVertex
 10
781.5914624187143
 20
1049.084402601705
 30
0.0
  0
VERTEX
  5
40D
330
3FE
100
AcDbEntity
  8
Sichtbar (ISO)
100
AcDbVertex
100
AcDb2dVertex
 10
781.6120189595006
 20
1049.102081112164
 30
0.0
  0
VERTEX
  5
40E
330
3FE
100
AcDbEntity
  8
Sichtbar (ISO)
100
AcDbVertex
100
AcDb2dVertex
 10
781.6325614957997
 20
1049.118400458547
 30
0.0
  0
VERTEX
  5
40F
330
3FE
100
AcDbEntity
  8
Sichtbar (ISO)
100
AcDbVertex
100
AcDb2dVertex
 10
781.652884462463
 20
1049.133385959037
 30
0.0
  0
VERTEX
  5
410
330
3FE
100
AcDbEntity
  8
Sichtbar (ISO)
100
AcDbVertex
100
AcDb2dVertex
 10
781.6727822991471
 20
1049.147062186777
 30
0.0
  0
VERTEX
  5
411
330
3FE
100
AcDbEntity
  8
Sichtbar (ISO)
100
AcDbVertex
100
AcDb2dVertex
 10
781.6920492634307
 20
1049.159454220384
 30
0.0
  0
VERTEX
  5
412
330
3FE
100
AcDbEntity
  8
Sichtbar (ISO)
100
AcDbVertex
100
AcDb2dVertex
 10
781.7104799722429
 20
1049.170586872566
 30
0.0
  0
VERTEX
  5
413
330
3FE
100
AcDbEntity
  8
Sichtbar (ISO)
100
AcDbVertex
100
AcDb2dVertex
 10
781.7278685058896
 20
1049.180484982375
 30
0.0
  0
VERTEX
  5
414
330
3FE
100
AcDbEntity
  8
Sichtbar (ISO)
100
AcDbVertex
100
AcDb2dVertex
 10
781.7440095387895
 20
1049.189173690721
 30
0.0
  0
VERTEX
  5
415
330
3FE
100
AcDbEntity
  8
Sichtbar (ISO)
100
AcDbVertex
100
AcDb2dVertex
 10
781.7586972710318
 20
1049.196677748019
 30
0.0
  0
VERTEX
  5
416
330
3FE
100
AcDbEntity
  8
Sichtbar (ISO)
100
AcDbVertex
100
AcDb2dVertex
 10
781.7717263770353
 20
1049.20302229518
 30
0.0
  0
VERTEX
  5
417
330
3FE
100
AcDbEntity
  8
Sichtbar (ISO)
100
AcDbVertex
100
AcDb2dVertex
 10
781.7828908796164
 20
1049.208231843053
 30
0.0
  0
VERTEX
  5
418
330
3FE
100
AcDbEntity
  8
Sichtbar (ISO)
100
AcDbVertex
100
AcDb2dVertex
 10
781.7919854531935
 20
1049.212331532548
 30
0.0
  0
SEQEND
  5
401
330
3FE
100
AcDbEntity
  8
Sichtbar (ISO)
  0
POLYLINE
  5
419
330
37
100
AcDbEntity
  8
Sichtbar (ISO)
100
AcDb2dPolyline
 66
     1
 10
0.0
 20
0.0
 30
0.0
 70
   128
  0
VERTEX
  5
41A
330
419
100
AcDbEntity
  8
Sichtbar (ISO)
100
AcDbVertex
100
AcDb2dVertex
 10
781.472087362526
 20
1048.716500079474
 30
0.0
  0
VERTEX
  5
41B
330
419
100
AcDbEntity
  8
Sichtbar (ISO)
100
AcDbVertex
100
AcDb2dVertex
 10
781.4710834807994
 20
1048.718117508362
 30
0.0
  0
VERTEX
  5
41D
330
419
100
AcDbEntity
  8
Sichtbar (ISO)
100
AcDbVertex
100
AcDb2dVertex
 10
781.4700573566414
 20
1048.71981034427
 30
0.0
  0
VERTEX
  5
41E
330
419
100
AcDbEntity
  8
Sichtbar (ISO)
100
AcDbVertex
100
AcDb2dVertex
 10
781.4690120277114
 20
1048.721578934623
 30
0.0
  0
VERTEX
  5
41F
330
419
100
AcDbEntity
  8
Sichtbar (ISO)
100
AcDbVertex
100
AcDb2dVertex
 10
781.4679505987677
 20
1048.723422464957
 30
0.0
  0
VERTEX
  5
420
330
419
100
AcDbEntity
  8
Sichtbar (ISO)
100
AcDbVertex
100
AcDb2dVertex
 10
781.4668762272533
 20
1048.72534119406
 30
0.0
  0
VERTEX
  5
421
330
419
100
AcDbEntity
  8
Sichtbar (ISO)
100
AcDbVertex
100
AcDb2dVertex
 10
781.4657919556325
 20
1048.727334724309
 30
0.0
  0
VERTEX
  5
422
330
419
100
AcDbEntity
  8
Sichtbar (ISO)
100
AcDbVertex
100
AcDb2dVertex
 10
781.464700883859
 20
1048.729402986287
 30
0.0
  0
VERTEX
  5
423
330
419
100
AcDbEntity
  8
Sichtbar (ISO)
100
AcDbVertex
100
AcDb2dVertex
 10
781.4636081674221
 20
1048.731541423588
 30
0.0
  0
VERTEX
  5
424
330
419
100
AcDbEntity
  8
Sichtbar (ISO)
100
AcDbVertex
100
AcDb2dVertex
 10
781.4625260243911
 20
1048.733731726588
 30
0.0
  0
VERTEX
  5
425
330
419
100
AcDbEntity
  8
Sichtbar (ISO)
100
AcDbVertex
100
AcDb2dVertex
 10
781.4614575164486
 20
1048.735970517495
 30
0.0
  0
VERTEX
  5
426
330
419
100
AcDbEntity
  8
Sichtbar (ISO)
100
AcDbVertex
100
AcDb2dVertex
 10
781.4604046703029
 20
1048.738257779577
 30
0.0
  0
VERTEX
  5
427
330
419
100
AcDbEntity
  8
Sichtbar (ISO)
100
AcDbVertex
100
AcDb2dVertex
 10
781.459369397683
 20
1048.740592839694
 30
0.0
  0
VERTEX
  5
428
330
419
100
AcDbEntity
  8
Sichtbar (ISO)
100
AcDbVertex
100
AcDb2dVertex
 10
781.4583630543177
 20
1048.742952465177
 30
0.0
  0
VERTEX
  5
429
330
419
100
AcDbEntity
  8
Sichtbar (ISO)
100
AcDbVertex
100
AcDb2dVertex
 10
781.4574048300669
 20
1048.745290942851
 30
0.0
  0
VERTEX
  5
42A
330
419
100
AcDbEntity
  8
Sichtbar (ISO)
100
AcDbVertex
100
AcDb2dVertex
 10
781.4564937331974
 20
1048.747604928392
 30
0.0
  0
VERTEX
  5
42B
330
419
100
AcDbEntity
  8
Sichtbar (ISO)
100
AcDbVertex
100
AcDb2dVertex
 10
781.4556290594229
 20
1048.74989271849
 30
0.0
  0
VERTEX
  5
42C
330
419
100
AcDbEntity
  8
Sichtbar (ISO)
100
AcDbVertex
100
AcDb2dVertex
 10
781.4548102386542
 20
1048.752150286071
 30
0.0
  0
VERTEX
  5
42D
330
419
100
AcDbEntity
  8
Sichtbar (ISO)
100
AcDbVertex
100
AcDb2dVertex
 10
781.4540418037728
 20
1048.754358705697
 30
0.0
  0
VERTEX
  5
42E
330
419
100
AcDbEntity
  8
Sichtbar (ISO)
100
AcDbVertex
100
AcDb2dVertex
 10
781.4533233811811
 20
1048.756511209689
 30
0.0
  0
VERTEX
  5
42F
330
419
100
AcDbEntity
  8
Sichtbar (ISO)
100
AcDbVertex
100
AcDb2dVertex
 10
781.4526529585848
 20
1048.758605579654
 30
0.0
  0
VERTEX
  5
430
330
419
100
AcDbEntity
  8
Sichtbar (ISO)
100
AcDbVertex
100
AcDb2dVertex
 10
781.452028408711
 20
1048.760638940791
 30
0.0
  0
VERTEX
  5
431
330
419
100
AcDbEntity
  8
Sichtbar (ISO)
100
AcDbVertex
100
AcDb2dVertex
 10
781.4514481935946
 20
1048.762609465202
 30
0.0
  0
VERTEX
  5
432
330
419
100
AcDbEntity
  8
Sichtbar (ISO)
100
AcDbVertex
100
AcDb2dVertex
 10
781.4509098266126
 20
1048.764514543995
 30
0.0
  0
VERTEX
  5
433
330
419
100
AcDbEntity
  8
Sichtbar (ISO)
100
AcDbVertex
100
AcDb2dVertex
 10
781.4504116548208
 20
1048.766351692867
 30
0.0
  0
SEQEND
  5
41C
330
419
100
AcDbEntity
  8
Sichtbar (ISO)
  0
POLYLINE
  5
434
330
37
100
AcDbEntity
  8
Sichtbar (ISO)
100
AcDb2dPolyline
 66
     1
 10
0.0
 20
0.0
 30
0.0
 70
   128
  0
VERTEX
  5
435
330
434
100
AcDbEntity
  8
Sichtbar (ISO)
100
AcDbVertex
100
AcDb2dVertex
 10
782.0312082361389
 20
1048.662145744382
 30
0.0
  0
VERTEX
  5
436
330
434
100
AcDbEntity
  8
Sichtbar (ISO)
100
AcDbVertex
100
AcDb2dVertex
 10
782.0230991051718
 20
1048.658696391769
 30
0.0
  0
VERTEX
  5
438
330
434
100
AcDbEntity
  8
Sichtbar (ISO)
100
AcDbVertex
100
AcDb2dVertex
 10
782.0130228305747
 20
1048.654503048872
 30
0.0
  0
VERTEX
  5
439
330
434
100
AcDbEntity
  8
Sichtbar (ISO)
100
AcDbVertex
100
AcDb2dVertex
 10
782.000951955941
 20
1048.649700963199
 30
0.0
  0
VERTEX
  5
43A
330
434
100
AcDbEntity
  8
Sichtbar (ISO)
100
AcDbVertex
100
AcDb2dVertex
 10
781.9868591494517
 20
1048.64442454858
 30
0.0
  0
VERTEX
  5
43B
330
434
100
AcDbEntity
  8
Sichtbar (ISO)
100
AcDbVertex
100
AcDb2dVertex
 10
781.9707171319729
 20
1048.638809292089
 30
0.0
  0
VERTEX
  5
43C
330
434
100
AcDbEntity
  8
Sichtbar (ISO)
100
AcDbVertex
100
AcDb2dVertex
 10
781.9524981548463
 20
1048.632989545262
 30
0.0
  0
VERTEX
  5
43D
330
434
100
AcDbEntity
  8
Sichtbar (ISO)
100
AcDbVertex
100
AcDb2dVertex
 10
781.9321750012318
 20
1048.627100378334
 30
0.0
  0
VERTEX
  5
43E
330
434
100
AcDbEntity
  8
Sichtbar (ISO)
100
AcDbVertex
100
AcDb2dVertex
 10
781.9097202770167
 20
1048.621276621974
 30
0.0
  0
VERTEX
  5
43F
330
434
100
AcDbEntity
  8
Sichtbar (ISO)
100
AcDbVertex
100
AcDb2dVertex
 10
781.8851067653609
 20
1048.615653346417
 30
0.0
  0
VERTEX
  5
440
330
434
100
AcDbEntity
  8
Sichtbar (ISO)
100
AcDbVertex
100
AcDb2dVertex
 10
781.8586647326699
 20
1048.610537088732
 30
0.0
  0
VERTEX
  5
441
330
434
100
AcDbEntity
  8
Sichtbar (ISO)
100
AcDbVertex
100
AcDb2dVertex
 10
781.8312248525129
 20
1048.606389071559
 30
0.0
  0
VERTEX
  5
442
330
434
100
AcDbEntity
  8
Sichtbar (ISO)
100
AcDbVertex
100
AcDb2dVertex
 10
781.8030436474978
 20
1048.603323485066
 30
0.0
  0
VERTEX
  5
443
330
434
100
AcDbEntity
  8
Sichtbar (ISO)
100
AcDbVertex
100
AcDb2dVertex
 10
781.7743588059142
 20
1048.601445099445
 30
0.0
  0
VERTEX
  5
444
330
434
100
AcDbEntity
  8
Sichtbar (ISO)
100
AcDbVertex
100
AcDb2dVertex
 10
781.7454079537584
 20
1048.60085910173
 30
0.0
  0
VERTEX
  5
445
330
434
100
AcDbEntity
  8
Sichtbar (ISO)
100
AcDbVertex
100
AcDb2dVertex
 10
781.7164289039082
 20
1048.601669428433
 30
0.0
  0
VERTEX
  5
446
330
434
100
AcDbEntity
  8
Sichtbar (ISO)
100
AcDbVertex
100
AcDb2dVertex
 10
781.6876595219264
 20
1048.603981089315
 30
0.0
  0
VERTEX
  5
447
330
434
100
AcDbEntity
  8
Sichtbar (ISO)
100
AcDbVertex
100
AcDb2dVertex
 10
781.6593376158863
 20
1048.607898765931
 30
0.0
  0
VERTEX
  5
448
330
434
100
AcDbEntity
  8
Sichtbar (ISO)
100
AcDbVertex
100
AcDb2dVertex
 10
781.631700874078
 20
1048.613527228474
 30
0.0
  0
VERTEX
  5
449
330
434
100
AcDbEntity
  8
Sichtbar (ISO)
100
AcDbVertex
100
AcDb2dVertex
 10
781.6049871045747
 20
1048.6209711585
 30
0.0
  0
VERTEX
  5
44A
330
434
100
AcDbEntity
  8
Sichtbar (ISO)
100
AcDbVertex
100
AcDb2dVertex
 10
781.5794340579603
 20
1048.630334909363
 30
0.0
  0
VERTEX
  5
44B
330
434
100
AcDbEntity
  8
Sichtbar (ISO)
100
AcDbVertex
100
AcDb2dVertex
 10
781.5552796572873
 20
1048.641723819025
 30
0.0
  0
VERTEX
  5
44C
330
434
100
AcDbEntity
  8
Sichtbar (ISO)
100
AcDbVertex
100
AcDb2dVertex
 10
781.5308961834621
 20
1048.656459880211
 30
0.0
  0
VERTEX
  5
44D
330
434
100
AcDbEntity
  8
Sichtbar (ISO)
100
AcDbVertex
100
AcDb2dVertex
 10
781.5035355811788
 20
1048.678432149564
 30
0.0
  0
VERTEX
  5
44E
330
434
100
AcDbEntity
  8
Sichtbar (ISO)
100
AcDbVertex
100
AcDb2dVertex
 10
781.472087362526
 20
1048.716500079474
 30
0.0
  0
SEQEND
  5
437
330
434
100
AcDbEntity
  8
Sichtbar (ISO)
  0
ARC
  5
44F
330
37
100
AcDbEntity
  8
Sichtbar (ISO)
100
AcDbCircle
 10
777.3345414151961
 20
1046.947117589996
 30
0.0
 40
5.000000000000126
100
AcDbArc
 50
350.0600976936432
 51
356.9390734000795
  0
POLYLINE
  5
450
330
37
100
AcDbEntity
  8
Sichtbar (ISO)
100
AcDb2dPolyline
 66
     1
 10
0.0
 20
0.0
 30
0.0
 70
   128
  0
VERTEX
  5
451
330
450
100
AcDbEntity
  8
Sichtbar (ISO)
100
AcDbVertex
100
AcDb2dVertex
 10
781.8086066784498
 20
1046.464685335185
 30
0.0
  0
VERTEX
  5
452
330
450
100
AcDbEntity
  8
Sichtbar (ISO)
100
AcDbVertex
100
AcDb2dVertex
 10
781.828781324368
 20
1046.512412702678
 30
0.0
  0
VERTEX
  5
454
330
450
100
AcDbEntity
  8
Sichtbar (ISO)
100
AcDbVertex
100
AcDb2dVertex
 10
781.8496080253091
 20
1046.542149199105
 30
0.0
  0
VERTEX
  5
455
330
450
100
AcDbEntity
  8
Sichtbar (ISO)
100
AcDbVertex
100
AcDb2dVertex
 10
781.8698914573599
 20
1046.564055522277
 30
0.0
  0
VERTEX
  5
456
330
450
100
AcDbEntity
  8
Sichtbar (ISO)
100
AcDbVertex
100
AcDb2dVertex
 10
781.8891439624446
 20
1046.581079018656
 30
0.0
  0
VERTEX
  5
457
330
450
100
AcDbEntity
  8
Sichtbar (ISO)
100
AcDbVertex
100
AcDb2dVertex
 10
781.9102029655258
 20
1046.596791152552
 30
0.0
  0
VERTEX
  5
458
330
450
100
AcDbEntity
  8
Sichtbar (ISO)
100
AcDbVertex
100
AcDb2dVertex
 10
781.9328677721489
 20
1046.611196769135
 30
0.0
  0
VERTEX
  5
459
330
450
100
AcDbEntity
  8
Sichtbar (ISO)
100
AcDbVertex
100
AcDb2dVertex
 10
781.9569201688396
 20
1046.624286056764
 30
0.0
  0
VERTEX
  5
45A
330
450
100
AcDbEntity
  8
Sichtbar (ISO)
100
AcDbVertex
100
AcDb2dVertex
 10
781.9821432549352
 20
1046.636048973839
 30
0.0
  0
VERTEX
  5
45B
330
450
100
AcDbEntity
  8
Sichtbar (ISO)
100
AcDbVertex
100
AcDb2dVertex
 10
782.008319473368
 20
1046.64647559374
 30
0.0
  0
VERTEX
  5
45C
330
450
100
AcDbEntity
  8
Sichtbar (ISO)
100
AcDbVertex
100
AcDb2dVertex
 10
782.0352315066359
 20
1046.655555812572
 30
0.0
  0
VERTEX
  5
45D
330
450
100
AcDbEntity
  8
Sichtbar (ISO)
100
AcDbVertex
100
AcDb2dVertex
 10
782.0626179049387
 20
1046.663273996524
 30
0.0
  0
VERTEX
  5
45E
330
450
100
AcDbEntity
  8
Sichtbar (ISO)
100
AcDbVertex
100
AcDb2dVertex
 10
782.0897857647726
 20
1046.669600106286
 30
0.0
  0
VERTEX
  5
45F
330
450
100
AcDbEntity
  8
Sichtbar (ISO)
100
AcDbVertex
100
AcDb2dVertex
 10
782.1164274847801
 20
1046.674631998056
 30
0.0
  0
VERTEX
  5
460
330
450
100
AcDbEntity
  8
Sichtbar (ISO)
100
AcDbVertex
100
AcDb2dVertex
 10
782.1423775147414
 20
1046.678493657382
 30
0.0
  0
VERTEX
  5
461
330
450
100
AcDbEntity
  8
Sichtbar (ISO)
100
AcDbVertex
100
AcDb2dVertex
 10
782.1674703571207
 20
1046.681310143056
 30
0.0
  0
VERTEX
  5
462
330
450
100
AcDbEntity
  8
Sichtbar (ISO)
100
AcDbVertex
100
AcDb2dVertex
 10
782.1915405239918
 20
1046.683205023785
 30
0.0
  0
VERTEX
  5
463
330
450
100
AcDbEntity
  8
Sichtbar (ISO)
100
AcDbVertex
100
AcDb2dVertex
 10
782.2144222782526
 20
1046.684303535635
 30
0.0
  0
VERTEX
  5
464
330
450
100
AcDbEntity
  8
Sichtbar (ISO)
100
AcDbVertex
100
AcDb2dVertex
 10
782.2359501319767
 20
1046.684729247312
 30
0.0
  0
VERTEX
  5
465
330
450
100
AcDbEntity
  8
Sichtbar (ISO)
100
AcDbVertex
100
AcDb2dVertex
 10
782.2559579935165
 20
1046.684606915749
 30
0.0
  0
VERTEX
  5
466
330
450
100
AcDbEntity
  8
Sichtbar (ISO)
100
AcDbVertex
100
AcDb2dVertex
 10
782.2742810840367
 20
1046.684061067919
 30
0.0
  0
VERTEX
  5
467
330
450
100
AcDbEntity
  8
Sichtbar (ISO)
100
AcDbVertex
100
AcDb2dVertex
 10
782.2907529573441
 20
1046.683215981621
 30
0.0
  0
VERTEX
  5
468
330
450
100
AcDbEntity
  8
Sichtbar (ISO)
100
AcDbVertex
100
AcDb2dVertex
 10
782.3052086573306
 20
1046.682195944262
 30
0.0
  0
VERTEX
  5
469
330
450
100
AcDbEntity
  8
Sichtbar (ISO)
100
AcDbVertex
100
AcDb2dVertex
 10
782.3174821546425
 20
1046.681125295935
 30
0.0
  0
VERTEX
  5
46A
330
450
100
AcDbEntity
  8
Sichtbar (ISO)
100
AcDbVertex
100
AcDb2dVertex
 10
782.3274080763324
 20
1046.680128261752
 30
0.0
  0
SEQEND
  5
453
330
450
100
AcDbEntity
  8
Sichtbar (ISO)
  0
POLYLINE
  5
46B
330
37
100
AcDbEntity
  8
Sichtbar (ISO)
100
AcDb2dPolyline
 66
     1
 10
0.0
 20
0.0
 30
0.0
 70
   128
  0
VERTEX
  5
46C
330
46B
100
AcDbEntity
  8
Sichtbar (ISO)
100
AcDbVertex
100
AcDb2dVertex
 10
781.8024525158935
 20
1046.410674725619
 30
0.0
  0
VERTEX
  5
46D
330
46B
100
AcDbEntity
  8
Sichtbar (ISO)
100
AcDbVertex
100
AcDb2dVertex
 10
781.8023919057601
 20
1046.412577371821
 30
0.0
  0
VERTEX
  5
46F
330
46B
100
AcDbEntity
  8
Sichtbar (ISO)
100
AcDbVertex
100
AcDb2dVertex
 10
781.8023496975288
 20
1046.414556491829
 30
0.0
  0
VERTEX
  5
470
330
46B
100
AcDbEntity
  8
Sichtbar (ISO)
100
AcDbVertex
100
AcDb2dVertex
 10
781.8023286414121
 20
1046.416610792052
 30
0.0
  0
VERTEX
  5
471
330
46B
100
AcDbEntity
  8
Sichtbar (ISO)
100
AcDbVertex
100
AcDb2dVertex
 10
781.8023311953713
 20
1046.418738082921
 30
0.0
  0
VERTEX
  5
472
330
46B
100
AcDbEntity
  8
Sichtbar (ISO)
100
AcDbVertex
100
AcDb2dVertex
 10
781.8023601096195
 20
1046.420937070843
 30
0.0
  0
VERTEX
  5
473
330
46B
100
AcDbEntity
  8
Sichtbar (ISO)
100
AcDbVertex
100
AcDb2dVertex
 10
781.8024178421177
 20
1046.423205566252
 30
0.0
  0
VERTEX
  5
474
330
46B
100
AcDbEntity
  8
Sichtbar (ISO)
100
AcDbVertex
100
AcDb2dVertex
 10
781.8025071430787
 20
1046.425542275552
 30
0.0
  0
VERTEX
  5
475
330
46B
100
AcDbEntity
  8
Sichtbar (ISO)
100
AcDbVertex
100
AcDb2dVertex
 10
781.8026301710887
 20
1046.427940596411
 30
0.0
  0
VERTEX
  5
476
330
46B
100
AcDbEntity
  8
Sichtbar (ISO)
100
AcDbVertex
100
AcDb2dVertex
 10
781.8027879926013
 20
1046.430378421925
 30
0.0
  0
VERTEX
  5
477
330
46B
100
AcDbEntity
  8
Sichtbar (ISO)
100
AcDbVertex
100
AcDb2dVertex
 10
781.8029820642357
 20
1046.432851708285
 30
0.0
  0
VERTEX
  5
478
330
46B
100
AcDbEntity
  8
Sichtbar (ISO)
100
AcDbVertex
100
AcDb2dVertex
 10
781.8032138856859
 20
1046.435358975016
 30
0.0
  0
VERTEX
  5
479
330
46B
100
AcDbEntity
  8
Sichtbar (ISO)
100
AcDbVertex
100
AcDb2dVertex
 10
781.8034848680103
 20
1046.437898621858
 30
0.0
  0
VERTEX
  5
47A
330
46B
100
AcDbEntity
  8
Sichtbar (ISO)
100
AcDbVertex
100
AcDb2dVertex
 10
781.8037932676412
 20
1046.440445245462
 30
0.0
  0
VERTEX
  5
47B
330
46B
100
AcDbEntity
  8
Sichtbar (ISO)
100
AcDbVertex
100
AcDb2dVertex
 10
781.8041324567338
 20
1046.442949807049
 30
0.0
  0
VERTEX
  5
47C
330
46B
100
AcDbEntity
  8
Sichtbar (ISO)
100
AcDbVertex
100
AcDb2dVertex
 10
781.8045005475818
 20
1046.445409254545
 30
0.0
  0
VERTEX
  5
47D
330
46B
100
AcDbEntity
  8
Sichtbar (ISO)
100
AcDbVertex
100
AcDb2dVertex
 10
781.8048955182821
 20
1046.447822859641
 30
0.0
  0
VERTEX
  5
47E
330
46B
100
AcDbEntity
  8
Sichtbar (ISO)
100
AcDbVertex
100
AcDb2dVertex
 10
781.805315303856
 20
1046.450187330697
 30
0.0
  0
VERTEX
  5
47F
330
46B
100
AcDbEntity
  8
Sichtbar (ISO)
100
AcDbVertex
100
AcDb2dVertex
 10
781.8057539442946
 20
1046.452484091847
 30
0.0
  0
VERTEX
  5
480
330
46B
100
AcDbEntity
  8
Sichtbar (ISO)
100
AcDbVertex
100
AcDb2dVertex
 10
781.8062080187317
 20
1046.454707518079
 30
0.0
  0
VERTEX
  5
481
330
46B
100
AcDbEntity
  8
Sichtbar (ISO)
100
AcDbVertex
100
AcDb2dVertex
 10
781.8066744056754
 20
1046.456856397144
 30
0.0
  0
VERTEX
  5
482
330
46B
100
AcDbEntity
  8
Sichtbar (ISO)
100
AcDbVertex
100
AcDb2dVertex
 10
781.8071504891106
 20
1046.458929698873
 30
0.0
  0
VERTEX
  5
483
330
46B
100
AcDbEntity
  8
Sichtbar (ISO)
100
AcDbVertex
100
AcDb2dVertex
 10
781.807633236182
 20
1046.460926330802
 30
0.0
  0
VERTEX
  5
484
330
46B
100
AcDbEntity
  8
Sichtbar (ISO)
100
AcDbVertex
100
AcDb2dVertex
 10
781.8081196140346
 20
1046.462845200466
 30
0.0
  0
VERTEX
  5
485
330
46B
100
AcDbEntity
  8
Sichtbar (ISO)
100
AcDbVertex
100
AcDb2dVertex
 10
781.8086066784498
 20
1046.464685335185
 30
0.0
  0
SEQEND
  5
46E
330
46B
100
AcDbEntity
  8
Sichtbar (ISO)
  0
POLYLINE
  5
486
330
37
100
AcDbEntity
  8
Sichtbar (ISO)
100
AcDb2dPolyline
 66
     1
 10
0.0
 20
0.0
 30
0.0
 70
   128
  0
VERTEX
  5
487
330
486
100
AcDbEntity
  8
Sichtbar (ISO)
100
AcDbVertex
100
AcDb2dVertex
 10
782.2594883243945
 20
1046.08404198555
 30
0.0
  0
VERTEX
  5
488
330
486
100
AcDbEntity
  8
Sichtbar (ISO)
100
AcDbVertex
100
AcDb2dVertex
 10
782.2507407450951
 20
1046.085109324002
 30
0.0
  0
VERTEX
  5
48A
330
486
100
AcDbEntity
  8
Sichtbar (ISO)
100
AcDbVertex
100
AcDb2dVertex
 10
782.2399179140724
 20
1046.086516086826
 30
0.0
  0
VERTEX
  5
48B
330
486
100
AcDbEntity
  8
Sichtbar (ISO)
100
AcDbVertex
100
AcDb2dVertex
 10
782.2270632187428
 20
1046.088392554249
 30
0.0
  0
VERTEX
  5
48C
330
486
100
AcDbEntity
  8
Sichtbar (ISO)
100
AcDbVertex
100
AcDb2dVertex
 10
782.2122204897046
 20
1046.090869605419
 30
0.0
  0
VERTEX
  5
48D
330
486
100
AcDbEntity
  8
Sichtbar (ISO)
100
AcDbVertex
100
AcDb2dVertex
 10
782.1954332030108
 20
1046.094077640348
 30
0.0
  0
VERTEX
  5
48E
330
486
100
AcDbEntity
  8
Sichtbar (ISO)
100
AcDbVertex
100
AcDb2dVertex
 10
782.1767452515536
 20
1046.098147121344
 30
0.0
  0
VERTEX
  5
48F
330
486
100
AcDbEntity
  8
Sichtbar (ISO)
100
AcDbVertex
100
AcDb2dVertex
 10
782.1562004395891
 20
1046.10320839093
 30
0.0
  0
VERTEX
  5
490
330
486
100
AcDbEntity
  8
Sichtbar (ISO)
100
AcDbVertex
100
AcDb2dVertex
 10
782.1338422695125
 20
1046.109392385742
 30
0.0
  0
VERTEX
  5
491
330
486
100
AcDbEntity
  8
Sichtbar (ISO)
100
AcDbVertex
100
AcDb2dVertex
 10
782.1097144569433
 20
1046.116829328519
 30
0.0
  0
VERTEX
  5
492
330
486
100
AcDbEntity
  8
Sichtbar (ISO)
100
AcDbVertex
100
AcDb2dVertex
 10
782.0842568124174
 20
1046.125619570734
 30
0.0
  0
VERTEX
  5
493
330
486
100
AcDbEntity
  8
Sichtbar (ISO)
100
AcDbVertex
100
AcDb2dVertex
 10
782.0584191697802
 20
1046.135747064273
 30
0.0
  0
VERTEX
  5
494
330
486
100
AcDbEntity
  8
Sichtbar (ISO)
100
AcDbVertex
100
AcDb2dVertex
 10
782.0324808199285
 20
1046.147182913195
 30
0.0
  0
VERTEX
  5
495
330
486
100
AcDbEntity
  8
Sichtbar (ISO)
100
AcDbVertex
100
AcDb2dVertex
 10
782.0066998907059
 20
1046.159898681139
 30
0.0
  0
VERTEX
  5
496
330
486
100
AcDbEntity
  8
Sichtbar (ISO)
100
AcDbVertex
100
AcDb2dVertex
 10
781.9813345362982
 20
1046.173866468369
 30
0.0
  0
VERTEX
  5
497
330
486
100
AcDbEntity
  8
Sichtbar (ISO)
100
AcDbVertex
100
AcDb2dVertex
 10
781.9566431241162
 20
1046.189057661252
 30
0.0
  0
VERTEX
  5
498
330
486
100
AcDbEntity
  8
Sichtbar (ISO)
100
AcDbVertex
100
AcDb2dVertex
 10
781.9328841365488
 20
1046.205444302561
 30
0.0
  0
VERTEX
  5
499
330
486
100
AcDbEntity
  8
Sichtbar (ISO)
100
AcDbVertex
100
AcDb2dVertex
 10
781.9103154618731
 20
1046.22299813321
 30
0.0
  0
VERTEX
  5
49A
330
486
100
AcDbEntity
  8
Sichtbar (ISO)
100
AcDbVertex
100
AcDb2dVertex
 10
781.8891954052054
 20
1046.241690956404
 30
0.0
  0
VERTEX
  5
49B
330
486
100
AcDbEntity
  8
Sichtbar (ISO)
100
AcDbVertex
100
AcDb2dVertex
 10
781.8697825112289
 20
1046.26149439808
 30
0.0
  0
VERTEX
  5
49C
330
486
100
AcDbEntity
  8
Sichtbar (ISO)
100
AcDbVertex
100
AcDb2dVertex
 10
781.8523350850603
 20
1046.282380261442
 30
0.0
  0
VERTEX
  5
49D
330
486
100
AcDbEntity
  8
Sichtbar (ISO)
100
AcDbVertex
100
AcDb2dVertex
 10
781.837111192249
 20
1046.304320526972
 30
0.0
  0
VERTEX
  5
49E
330
486
100
AcDbEntity
  8
Sichtbar (ISO)
100
AcDbVertex
100
AcDb2dVertex
 10
781.8233622166866
 20
1046.329274082855
 30
0.0
  0
VERTEX
  5
49F
330
486
100
AcDbEntity
  8
Sichtbar (ISO)
100
AcDbVertex
100
AcDb2dVertex
 10
781.8106535099062
 20
1046.361982933332
 30
0.0
  0
VERTEX
  5
4A0
330
486
100
AcDbEntity
  8
Sichtbar (ISO)
100
AcDbVertex
100
AcDb2dVertex
 10
781.8024525158935
 20
1046.410674725619
 30
0.0
  0
SEQEND
  5
489
330
486
100
AcDbEntity
  8
Sichtbar (ISO)
  0
ARC
  5
4A1
330
37
100
AcDbEntity
  8
Sichtbar (ISO)
100
AcDbCircle
 10
777.3345414151961
 20
1046.947117589996
 30
0.0
 40
5.000000000000115
100
AcDbArc
 50
320.0600976936428
 51
326.9390734000778
  0
POLYLINE
  5
4A2
330
37
100
AcDbEntity
  8
Sichtbar (ISO)
100
AcDb2dPolyline
 66
     1
 10
0.0
 20
0.0
 30
0.0
 70
   128
  0
VERTEX
  5
4A3
330
4A2
100
AcDbEntity
  8
Sichtbar (ISO)
100
AcDbVertex
100
AcDb2dVertex
 10
780.9679794069343
 20
1044.29228643897
 30
0.0
  0
VERTEX
  5
4A4
330
4A2
100
AcDbEntity
  8
Sichtbar (ISO)
100
AcDbVertex
100
AcDb2dVertex
 10
781.0093149271279
 20
1044.323532049224
 30
0.0
  0
VERTEX
  5
4A6
330
4A2
100
AcDbEntity
  8
Sichtbar (ISO)
100
AcDbVertex
100
AcDb2dVertex
 10
781.04221952621
 20
1044.33887137546
 30
0.0
  0
VERTEX
  5
4A7
330
4A2
100
AcDbEntity
  8
Sichtbar (ISO)
100
AcDbVertex
100
AcDb2dVertex
 10
781.0707387801303
 20
1044.34770114592
 30
0.0
  0
VERTEX
  5
4A8
330
4A2
100
AcDbEntity
  8
Sichtbar (ISO)
100
AcDbVertex
100
AcDb2dVertex
 10
781.0959235248877
 20
1044.352817774559
 30
0.0
  0
VERTEX
  5
4A9
330
4A2
100
AcDbEntity
  8
Sichtbar (ISO)
100
AcDbVertex
100
AcDb2dVertex
 10
781.1220175582791
 20
1044.355895040107
 30
0.0
  0
VERTEX
  5
4AA
330
4A2
100
AcDbEntity
  8
Sichtbar (ISO)
100
AcDbVertex
100
AcDb2dVertex
 10
781.1488483633074
 20
1044.357038494769
 30
0.0
  0
VERTEX
  5
4AB
330
4A2
100
AcDbEntity
  8
Sichtbar (ISO)
100
AcDbVertex
100
AcDb2dVertex
 10
781.1762231610944
 20
1044.356347852821
 30
0.0
  0
VERTEX
  5
4AC
330
4A2
100
AcDbEntity
  8
Sichtbar (ISO)
100
AcDbVertex
100
AcDb2dVertex
 10
781.2039484097431
 20
1044.353923300466
 30
0.0
  0
VERTEX
  5
4AD
330
4A2
100
AcDbEntity
  8
Sichtbar (ISO)
100
AcDbVertex
100
AcDb2dVertex
 10
781.2318308623215
 20
1044.349864921498
 30
0.0
  0
VERTEX
  5
4AE
330
4A2
100
AcDbEntity
  8
Sichtbar (ISO)
100
AcDbVertex
100
AcDb2dVertex
 10
781.2596774671455
 20
1044.344272562547
 30
0.0
  0
VERTEX
  5
4AF
330
4A2
100
AcDbEntity
  8
Sichtbar (ISO)
100
AcDbVertex
100
AcDb2dVertex
 10
781.2872540355615
 20
1044.33726362712
 30
0.0
  0
VERTEX
  5
4B0
330
4A2
100
AcDbEntity
  8
Sichtbar (ISO)
100
AcDbVertex
100
AcDb2dVertex
 10
781.3139451212649
 20
1044.329158253329
 30
0.0
  0
VERTEX
  5
4B1
330
4A2
100
AcDbEntity
  8
Sichtbar (ISO)
100
AcDbVertex
100
AcDb2dVertex
 10
781.3395332699365
 20
1044.320195161161
 30
0.0
  0
VERTEX
  5
4B2
330
4A2
100
AcDbEntity
  8
Sichtbar (ISO)
100
AcDbVertex
100
AcDb2dVertex
 10
781.3639378048441
 20
1044.310564435067
 30
0.0
  0
VERTEX
  5
4B3
330
4A2
100
AcDbEntity
  8
Sichtbar (ISO)
100
AcDbVertex
100
AcDb2dVertex
 10
781.3870768625011
 20
1044.30045706083
 30
0.0
  0
VERTEX
  5
4B4
330
4A2
100
AcDbEntity
  8
Sichtbar (ISO)
100
AcDbVertex
100
AcDb2dVertex
 10
781.4088697883341
 20
1044.290063152845
 30
0.0
  0
VERTEX
  5
4B5
330
4A2
100
AcDbEntity
  8
Sichtbar (ISO)
100
AcDbVertex
100
AcDb2dVertex
 10
781.4292351869107
 20
1044.279573327381
 30
0.0
  0
VERTEX
  5
4B6
330
4A2
100
AcDbEntity
  8
Sichtbar (ISO)
100
AcDbVertex
100
AcDb2dVertex
 10
781.4480916849568
 20
1044.26917823065
 30
0.0
  0
VERTEX
  5
4B7
330
4A2
100
AcDbEntity
  8
Sichtbar (ISO)
100
AcDbVertex
100
AcDb2dVertex
 10
781.4653578870403
 20
1044.259068478919
 30
0.0
  0
VERTEX
  5
4B8
330
4A2
100
AcDbEntity
  8
Sichtbar (ISO)
100
AcDbVertex
100
AcDb2dVertex
 10
781.4809531385876
 20
1044.249434186582
 30
0.0
  0
VERTEX
  5
4B9
330
4A2
100
AcDbEntity
  8
Sichtbar (ISO)
100
AcDbVertex
100
AcDb2dVertex
 10
781.494795815679
 20
1044.240466162153
 30
0.0
  0
VERTEX
  5
4BA
330
4A2
100
AcDbEntity
  8
Sichtbar (ISO)
100
AcDbVertex
100
AcDb2dVertex
 10
781.5068045339613
 20
1044.232355036871
 30
0.0
  0
VERTEX
  5
4BB
330
4A2
100
AcDbEntity
  8
Sichtbar (ISO)
100
AcDbVertex
100
AcDb2dVertex
 10
781.5168983882149
 20
1044.225291087432
 30
0.0
  0
VERTEX
  5
4BC
330
4A2
100
AcDbEntity
  8
Sichtbar (ISO)
100
AcDbVertex
100
AcDb2dVertex
 10
781.5249960051663
 20
1044.219464960048
 30
0.0
  0
SEQEND
  5
4A5
330
4A2
100
AcDbEntity
  8
Sichtbar (ISO)
  0
POLYLINE
  5
4BD
330
37
100
AcDbEntity
  8
Sichtbar (ISO)
100
AcDb2dPolyline
 66
     1
 10
0.0
 20
0.0
 30
0.0
 70
   128
  0
VERTEX
  5
4BE
330
4BD
100
AcDbEntity
  8
Sichtbar (ISO)
100
AcDbVertex
100
AcDb2dVertex
 10
780.9356444912248
 20
1044.248588969417
 30
0.0
  0
VERTEX
  5
4BF
330
4BD
100
AcDbEntity
  8
Sichtbar (ISO)
100
AcDbVertex
100
AcDb2dVertex
 10
780.9365445132565
 20
1044.250269208927
 30
0.0
  0
VERTEX
  5
4C1
330
4BD
100
AcDbEntity
  8
Sichtbar (ISO)
100
AcDbVertex
100
AcDb2dVertex
 10
780.9374988033794
 20
1044.252006753684
 30
0.0
  0
VERTEX
  5
4C2
330
4BD
100
AcDbEntity
  8
Sichtbar (ISO)
100
AcDbVertex
100
AcDb2dVertex
 10
780.9385091603218
 20
1044.253798523235
 30
0.0
  0
VERTEX
  5
4C3
330
4BD
100
AcDbEntity
  8
Sichtbar (ISO)
100
AcDbVertex
100
AcDb2dVertex
 10
780.9395766571871
 20
1044.255641959583
 30
0.0
  0
VERTEX
  5
4C4
330
4BD
100
AcDbEntity
  8
Sichtbar (ISO)
100
AcDbVertex
100
AcDb2dVertex
 10
780.9407026121853
 20
1044.257534334947
 30
0.0
  0
VERTEX
  5
4C5
330
4BD
100
AcDbEntity
  8
Sichtbar (ISO)
100
AcDbVertex
100
AcDb2dVertex
 10
780.9418888205822
 20
1044.259472564191
 30
0.0
  0
VERTEX
  5
4C6
330
4BD
100
AcDbEntity
  8
Sichtbar (ISO)
100
AcDbVertex
100
AcDb2dVertex
 10
780.9431363575586
 20
1044.261454092129
 30
0.0
  0
VERTEX
  5
4C7
330
4BD
100
AcDbEntity
  8
Sichtbar (ISO)
100
AcDbVertex
100
AcDb2dVertex
 10
780.9444405091473
 20
1044.263467037033
 30
0.0
  0
VERTEX
  5
4C8
330
4BD
100
AcDbEntity
  8
Sichtbar (ISO)
100
AcDbVertex
100
AcDb2dVertex
 10
780.945796042027
 20
1044.265498815323
 30
0.0
  0
VERTEX
  5
4C9
330
4BD
100
AcDbEntity
  8
Sichtbar (ISO)
100
AcDbVertex
100
AcDb2dVertex
 10
780.9472036083355
 20
1044.267547302158
 30
0.0
  0
VERTEX
  5
4CA
330
4BD
100
AcDbEntity
  8
Sichtbar (ISO)
100
AcDbVertex
100
AcDb2dVertex
 10
780.9486638622875
 20
1044.269610375501
 30
0.0
  0
VERTEX
  5
4CB
330
4BD
100
AcDbEntity
  8
Sichtbar (ISO)
100
AcDbVertex
100
AcDb2dVertex
 10
780.9501768588761
 20
1044.271685103529
 30
0.0
  0
VERTEX
  5
4CC
330
4BD
100
AcDbEntity
  8
Sichtbar (ISO)
100
AcDbVertex
100
AcDb2dVertex
 10
780.9517144019372
 20
1044.273731377794
 30
0.0
  0
VERTEX
  5
4CD
330
4BD
100
AcDbEntity
  8
Sichtbar (ISO)
100
AcDbVertex
100
AcDb2dVertex
 10
780.9532589821123
 20
1044.275728041233
 30
0.0
  0
VERTEX
  5
4CE
330
4BD
100
AcDbEntity
  8
Sichtbar (ISO)
100
AcDbVertex
100
AcDb2dVertex
 10
780.95480888969
 20
1044.277674787434
 30
0.0
  0
VERTEX
  5
4CF
330
4BD
100
AcDbEntity
  8
Sichtbar (ISO)
100
AcDbVertex
100
AcDb2dVertex
 10
780.9563619342076
 20
1044.279571662341
 30
0.0
  0
VERTEX
  5
4D0
330
4BD
100
AcDbEntity
  8
Sichtbar (ISO)
100
AcDbVertex
100
AcDb2dVertex
 10
780.9579106943276
 20
1044.281412644937
 30
0.0
  0
VERTEX
  5
4D1
330
4BD
100
AcDbEntity
  8
Sichtbar (ISO)
100
AcDbVertex
100
AcDb2dVertex
 10
780.9594376868395
 20
1044.283179619634
 30
0.0
  0
VERTEX
  5
4D2
330
4BD
100
AcDbEntity
  8
Sichtbar (ISO)
100
AcDbVertex
100
AcDb2dVertex
 10
780.9609381291831
 20
1044.284872135556
 30
0.0
  0
VERTEX
  5
4D3
330
4BD
100
AcDbEntity
  8
Sichtbar (ISO)
100
AcDbVertex
100
AcDb2dVertex
 10
780.9624086347643
 20
1044.286490626291
 30
0.0
  0
VERTEX
  5
4D4
330
4BD
100
AcDbEntity
  8
Sichtbar (ISO)
100
AcDbVertex
100
AcDb2dVertex
 10
780.9638495043148
 20
1044.288039005412
 30
0.0
  0
VERTEX
  5
4D5
330
4BD
100
AcDbEntity
  8
Sichtbar (ISO)
100
AcDbVertex
100
AcDb2dVertex
 10
780.9652600255373
 20
1044.289520819535
 30
0.0
  0
VERTEX
  5
4D6
330
4BD
100
AcDbEntity
  8
Sichtbar (ISO)
100
AcDbVertex
100
AcDb2dVertex
 10
780.9666375437234
 20
1044.290936489269
 30
0.0
  0
VERTEX
  5
4D7
330
4BD
100
AcDbEntity
  8
Sichtbar (ISO)
100
AcDbVertex
100
AcDb2dVertex
 10
780.9679794069343
 20
1044.29228643897
 30
0.0
  0
SEQEND
  5
4C0
330
4BD
100
AcDbEntity
  8
Sichtbar (ISO)
  0
POLYLINE
  5
4D8
330
37
100
AcDbEntity
  8
Sichtbar (ISO)
100
AcDb2dPolyline
 66
     1
 10
0.0
 20
0.0
 30
0.0
 70
   128
  0
VERTEX
  5
4D9
330
4D8
100
AcDbEntity
  8
Sichtbar (ISO)
100
AcDbVertex
100
AcDb2dVertex
 10
781.1681325119093
 20
1043.73719892382
 30
0.0
  0
VERTEX
  5
4DA
330
4D8
100
AcDbEntity
  8
Sichtbar (ISO)
100
AcDbVertex
100
AcDb2dVertex
 10
781.1610909679495
 20
1043.742496734868
 30
0.0
  0
VERTEX
  5
4DC
330
4D8
100
AcDbEntity
  8
Sichtbar (ISO)
100
AcDbVertex
100
AcDb2dVertex
 10
781.1524212941657
 20
1043.749126505077
 30
0.0
  0
VERTEX
  5
4DD
330
4D8
100
AcDbEntity
  8
Sichtbar (ISO)
100
AcDbVertex
100
AcDb2dVertex
 10
781.1422270621364
 20
1043.757179100962
 30
0.0
  0
VERTEX
  5
4DE
330
4D8
100
AcDbEntity
  8
Sichtbar (ISO)
100
AcDbVertex
100
AcDb2dVertex
 10
781.1306113199884
 20
1043.766745683692
 30
0.0
  0
VERTEX
  5
4DF
330
4D8
100
AcDbEntity
  8
Sichtbar (ISO)
100
AcDbVertex
100
AcDb2dVertex
 10
781.1176771601663
 20
1043.777917474328
 30
0.0
  0
VERTEX
  5
4E0
330
4D8
100
AcDbEntity
  8
Sichtbar (ISO)
100
AcDbVertex
100
AcDb2dVertex
 10
781.1035276640356
 20
1043.790785678958
 30
0.0
  0
VERTEX
  5
4E1
330
4D8
100
AcDbEntity
  8
Sichtbar (ISO)
100
AcDbVertex
100
AcDb2dVertex
 10
781.0882659018818
 20
1043.805441488696
 30
0.0
  0
VERTEX
  5
4E2
330
4D8
100
AcDbEntity
  8
Sichtbar (ISO)
100
AcDbVertex
100
AcDb2dVertex
 10
781.0719951835578
 20
1043.821975917386
 30
0.0
  0
VERTEX
  5
4E3
330
4D8
100
AcDbEntity
  8
Sichtbar (ISO)
100
AcDbVertex
100
AcDb2dVertex
 10
781.0548185904287
 20
1043.840480171114
 30
0.0
  0
VERTEX
  5
4E4
330
4D8
100
AcDbEntity
  8
Sichtbar (ISO)
100
AcDbVertex
100
AcDb2dVertex
 10
781.0371664295226
 20
1043.860821808891
 30
0.0
  0
VERTEX
  5
4E5
330
4D8
100
AcDbEntity
  8
Sichtbar (ISO)
100
AcDbVertex
100
AcDb2dVertex
 10
781.019854260313
 20
1043.882511227136
 30
0.0
  0
VERTEX
  5
4E6
330
4D8
100
AcDbEntity
  8
Sichtbar (ISO)
100
AcDbVertex
100
AcDb2dVertex
 10
781.0031089374581
 20
1043.905384035413
 30
0.0
  0
VERTEX
  5
4E7
330
4D8
100
AcDbEntity
  8
Sichtbar (ISO)
100
AcDbVertex
100
AcDb2dVertex
 10
780.9871398437516
 20
1043.929286802408
 30
0.0
  0
VERTEX
  5
4E8
330
4D8
100
AcDbEntity
  8
Sichtbar (ISO)
100
AcDbVertex
100
AcDb2dVertex
 10
780.97215683004
 20
1043.954065727288
 30
0.0
  0
VERTEX
  5
4E9
330
4D8
100
AcDbEntity
  8
Sichtbar (ISO)
100
AcDbVertex
100
AcDb2dVertex
 10
780.9583690173907
 20
1043.979567526065
 30
0.0
  0
VERTEX
  5
4EA
330
4D8
100
AcDbEntity
  8
Sichtbar (ISO)
100
AcDbVertex
100
AcDb2dVertex
 10
780.9459862677301
 20
1044.00563841288
 30
0.0
  0
VERTEX
  5
4EB
330
4D8
100
AcDbEntity
  8
Sichtbar (ISO)
100
AcDbVertex
100
AcDb2dVertex
 10
780.9352182034182
 20
1044.032124779144
 30
0.0
  0
VERTEX
  5
4EC
330
4D8
100
AcDbEntity
  8
Sichtbar (ISO)
100
AcDbVertex
100
AcDb2dVertex
 10
780.9262741740093
 20
1044.058873148625
 30
0.0
  0
VERTEX
  5
4ED
330
4D8
100
AcDbEntity
  8
Sichtbar (ISO)
100
AcDbVertex
100
AcDb2dVertex
 10
780.9193638240221
 20
1044.085729942682
 30
0.0
  0
VERTEX
  5
4EE
330
4D8
100
AcDbEntity
  8
Sichtbar (ISO)
100
AcDbVertex
100
AcDb2dVertex
 10
780.9146967370382
 20
1044.112541500322
 30
0.0
  0
VERTEX
  5
4EF
330
4D8
100
AcDbEntity
  8
Sichtbar (ISO)
100
AcDbVertex
100
AcDb2dVertex
 10
780.9124825354172
 20
1044.139154212958
 30
0.0
  0
VERTEX
  5
4F0
330
4D8
100
AcDbEntity
  8
Sichtbar (ISO)
100
AcDbVertex
100
AcDb2dVertex
 10
780.9130523903446
 20
1044.167638942761
 30
0.0
  0
VERTEX
  5
4F1
330
4D8
100
AcDbEntity
  8
Sichtbar (ISO)
100
AcDbVertex
100
AcDb2dVertex
 10
780.9184009078959
 20
1044.202320032393
 30
0.0
  0
VERTEX
  5
4F2
330
4D8
100
AcDbEntity
  8
Sichtbar (ISO)
100
AcDbVertex
100
AcDb2dVertex
 10
780.9356444912248
 20
1044.248588969417
 30
0.0
  0
SEQEND
  5
4DB
330
4D8
100
AcDbEntity
  8
Sichtbar (ISO)
  0
ARC
  5
4F3
330
37
100
AcDbEntity
  8
Sichtbar (ISO)
100
AcDbCircle
 10
777.3345414151961
 20
1046.947117589996
 30
0.0
 40
4.999999999999976
100
AcDbArc
 50
290.060097693644
 51
296.9390734000789
  0
POLYLINE
  5
4F4
330
37
100
AcDbEntity
  8
Sichtbar (ISO)
100
AcDb2dPolyline
 66
     1
 10
0.0
 20
0.0
 30
0.0
 70
   128
  0
VERTEX
  5
4F5
330
4F4
100
AcDbEntity
  8
Sichtbar (ISO)
100
AcDbVertex
100
AcDb2dVertex
 10
779.1537755180653
 20
1042.83124735037
 30
0.0
  0
VERTEX
  5
4F6
330
4F4
100
AcDbEntity
  8
Sichtbar (ISO)
100
AcDbVertex
100
AcDb2dVertex
 10
779.2051959333258
 20
1042.837639079949
 30
0.0
  0
VERTEX
  5
4F8
330
4F4
100
AcDbEntity
  8
Sichtbar (ISO)
100
AcDbVertex
100
AcDb2dVertex
 10
779.2413616685303
 20
1042.834471193346
 30
0.0
  0
VERTEX
  5
4F9
330
4F4
100
AcDbEntity
  8
Sichtbar (ISO)
100
AcDbVertex
100
AcDb2dVertex
 10
779.2704751168929
 20
1042.827858266045
 30
0.0
  0
VERTEX
  5
4FA
330
4F4
100
AcDbEntity
  8
Sichtbar (ISO)
100
AcDbVertex
100
AcDb2dVertex
 10
779.2948439385875
 20
1042.819696877816
 30
0.0
  0
VERTEX
  5
4FB
330
4F4
100
AcDbEntity
  8
Sichtbar (ISO)
100
AcDbVertex
100
AcDb2dVertex
 10
779.3189806989211
 20
1042.809314985217
 30
0.0
  0
VERTEX
  5
4FC
330
4F4
100
AcDbEntity
  8
Sichtbar (ISO)
100
AcDbVertex
100
AcDb2dVertex
 10
779.3427885870844
 20
1042.7968898875
 30
0.0
  0
VERTEX
  5
4FD
330
4F4
100
AcDbEntity
  8
Sichtbar (ISO)
100
AcDbVertex
100
AcDb2dVertex
 10
779.3661503717729
 20
1042.782604355183
 30
0.0
  0
VERTEX
  5
4FE
330
4F4
100
AcDbEntity
  8
Sichtbar (ISO)
100
AcDbVertex
100
AcDb2dVertex
 10
779.3889490252966
 20
1042.766641934973
 30
0.0
  0
VERTEX
  5
4FF
330
4F4
100
AcDbEntity
  8
Sichtbar (ISO)
100
AcDbVertex
100
AcDb2dVertex
 10
779.4110666862874
 20
1042.749186048989
 30
0.0
  0
VERTEX
  5
500
330
4F4
100
AcDbEntity
  8
Sichtbar (ISO)
100
AcDbVertex
100
AcDb2dVertex
 10
779.4323865402799
 20
1042.730419530042
 30
0.0
  0
VERTEX
  5
501
330
4F4
100
AcDbEntity
  8
Sichtbar (ISO)
100
AcDbVertex
100
AcDb2dVertex
 10
779.4527640019544
 20
1042.71056133184
 30
0.0
  0
VERTEX
  5
502
330
4F4
100
AcDbEntity
  8
Sichtbar (ISO)
100
AcDbVertex
100
AcDb2dVertex
 10
779.4718264269045
 20
1042.690196586477
 30
0.0
  0
VERTEX
  5
503
330
4F4
100
AcDbEntity
  8
Sichtbar (ISO)
100
AcDbVertex
100
AcDb2dVertex
 10
779.4895049373636
 20
1042.66964004569
 30
0.0
  0
VERTEX
  5
504
330
4F4
100
AcDbEntity
  8
Sichtbar (ISO)
100
AcDbVertex
100
AcDb2dVertex
 10
779.5058242837462
 20
1042.649097509392
 30
0.0
  0
VERTEX
  5
505
330
4F4
100
AcDbEntity
  8
Sichtbar (ISO)
100
AcDbVertex
100
AcDb2dVertex
 10
779.5208097842368
 20
1042.628774542728
 30
0.0
  0
VERTEX
  5
506
330
4F4
100
AcDbEntity
  8
Sichtbar (ISO)
100
AcDbVertex
100
AcDb2dVertex
 10
779.5344860119767
 20
1042.608876706044
 30
0.0
  0
VERTEX
  5
507
330
4F4
100
AcDbEntity
  8
Sichtbar (ISO)
100
AcDbVertex
100
AcDb2dVertex
 10
779.5468780455837
 20
1042.589609741761
 30
0.0
  0
VERTEX
  5
508
330
4F4
100
AcDbEntity
  8
Sichtbar (ISO)
100
AcDbVertex
100
AcDb2dVertex
 10
779.5580106977661
 20
1042.571179032949
 30
0.0
  0
VERTEX
  5
509
330
4F4
100
AcDbEntity
  8
Sichtbar (ISO)
100
AcDbVertex
100
AcDb2dVertex
 10
779.5679088075745
 20
1042.553790499302
 30
0.0
  0
VERTEX
  5
50A
330
4F4
100
AcDbEntity
  8
Sichtbar (ISO)
100
AcDbVertex
100
AcDb2dVertex
 10
779.5765975159206
 20
1042.537649466402
 30
0.0
  0
VERTEX
  5
50B
330
4F4
100
AcDbEntity
  8
Sichtbar (ISO)
100
AcDbVertex
100
AcDb2dVertex
 10
779.5841015732186
 20
1042.52296173416
 30
0.0
  0
VERTEX
  5
50C
330
4F4
100
AcDbEntity
  8
Sichtbar (ISO)
100
AcDbVertex
100
AcDb2dVertex
 10
779.5904461203802
 20
1042.509932628157
 30
0.0
  0
VERTEX
  5
50D
330
4F4
100
AcDbEntity
  8
Sichtbar (ISO)
100
AcDbVertex
100
AcDb2dVertex
 10
779.595655668253
 20
1042.498768125575
 30
0.0
  0
VERTEX
  5
50E
330
4F4
100
AcDbEntity
  8
Sichtbar (ISO)
100
AcDbVertex
100
AcDb2dVertex
 10
779.5997553577485
 20
1042.489673551999
 30
0.0
  0
SEQEND
  5
4F7
330
4F4
100
AcDbEntity
  8
Sichtbar (ISO)
  0
POLYLINE
  5
50F
330
37
100
AcDbEntity
  8
Sichtbar (ISO)
100
AcDb2dPolyline
 66
     1
 10
0.0
 20
0.0
 30
0.0
 70
   128
  0
VERTEX
  5
510
330
50F
100
AcDbEntity
  8
Sichtbar (ISO)
100
AcDbVertex
100
AcDb2dVertex
 10
779.1039239046725
 20
1042.809571642664
 30
0.0
  0
VERTEX
  5
511
330
50F
100
AcDbEntity
  8
Sichtbar (ISO)
100
AcDbVertex
100
AcDb2dVertex
 10
779.1055413335601
 20
1042.810575524391
 30
0.0
  0
VERTEX
  5
513
330
50F
100
AcDbEntity
  8
Sichtbar (ISO)
100
AcDbVertex
100
AcDb2dVertex
 10
779.1072341694692
 20
1042.811601648549
 30
0.0
  0
VERTEX
  5
514
330
50F
100
AcDbEntity
  8
Sichtbar (ISO)
100
AcDbVertex
100
AcDb2dVertex
 10
779.1090027598214
 20
1042.812646977479
 30
0.0
  0
VERTEX
  5
515
330
50F
100
AcDbEntity
  8
Sichtbar (ISO)
100
AcDbVertex
100
AcDb2dVertex
 10
779.110846290156
 20
1042.813708406423
 30
0.0
  0
VERTEX
  5
516
330
50F
100
AcDbEntity
  8
Sichtbar (ISO)
100
AcDbVertex
100
AcDb2dVertex
 10
779.1127650192585
 20
1042.814782777937
 30
0.0
  0
VERTEX
  5
517
330
50F
100
AcDbEntity
  8
Sichtbar (ISO)
100
AcDbVertex
100
AcDb2dVertex
 10
779.1147585495077
 20
1042.815867049558
 30
0.0
  0
VERTEX
  5
518
330
50F
100
AcDbEntity
  8
Sichtbar (ISO)
100
AcDbVertex
100
AcDb2dVertex
 10
779.1168268114859
 20
1042.816958121332
 30
0.0
  0
VERTEX
  5
519
330
50F
100
AcDbEntity
  8
Sichtbar (ISO)
100
AcDbVertex
100
AcDb2dVertex
 10
779.1189652487867
 20
1042.818050837768
 30
0.0
  0
VERTEX
  5
51A
330
50F
100
AcDbEntity
  8
Sichtbar (ISO)
100
AcDbVertex
100
AcDb2dVertex
 10
779.1211555517864
 20
1042.8191329808
 30
0.0
  0
VERTEX
  5
51B
330
50F
100
AcDbEntity
  8
Sichtbar (ISO)
100
AcDbVertex
100
AcDb2dVertex
 10
779.1233943426937
 20
1042.820201488742
 30
0.0
  0
VERTEX
  5
51C
330
50F
100
AcDbEntity
  8
Sichtbar (ISO)
100
AcDbVertex
100
AcDb2dVertex
 10
779.1256816047757
 20
1042.821254334888
 30
0.0
  0
VERTEX
  5
51D
330
50F
100
AcDbEntity
  8
Sichtbar (ISO)
100
AcDbVertex
100
AcDb2dVertex
 10
779.1280166648929
 20
1042.822289607507
 30
0.0
  0
VERTEX
  5
51E
330
50F
100
AcDbEntity
  8
Sichtbar (ISO)
100
AcDbVertex
100
AcDb2dVertex
 10
779.1303762903754
 20
1042.823295950873
 30
0.0
  0
VERTEX
  5
51F
330
50F
100
AcDbEntity
  8
Sichtbar (ISO)
100
AcDbVertex
100
AcDb2dVertex
 10
779.1327147680496
 20
1042.824254175124
 30
0.0
  0
VERTEX
  5
520
330
50F
100
AcDbEntity
  8
Sichtbar (ISO)
100
AcDbVertex
100
AcDb2dVertex
 10
779.1350287535903
 20
1042.825165271993
 30
0.0
  0
VERTEX
  5
521
330
50F
100
AcDbEntity
  8
Sichtbar (ISO)
100
AcDbVertex
100
AcDb2dVertex
 10
779.1373165436883
 20
1042.826029945768
 30
0.0
  0
VERTEX
  5
522
330
50F
100
AcDbEntity
  8
Sichtbar (ISO)
100
AcDbVertex
100
AcDb2dVertex
 10
779.13957411127
 20
1042.826848766536
 30
0.0
  0
VERTEX
  5
523
330
50F
100
AcDbEntity
  8
Sichtbar (ISO)
100
AcDbVertex
100
AcDb2dVertex
 10
779.1417825308955
 20
1042.827617201417
 30
0.0
  0
VERTEX
  5
524
330
50F
100
AcDbEntity
  8
Sichtbar (ISO)
100
AcDbVertex
100
AcDb2dVertex
 10
779.1439350348881
 20
1042.828335624009
 30
0.0
  0
VERTEX
  5
525
330
50F
100
AcDbEntity
  8
Sichtbar (ISO)
100
AcDbVertex
100
AcDb2dVertex
 10
779.1460294048532
 20
1042.829006046606
 30
0.0
  0
VERTEX
  5
526
330
50F
100
AcDbEntity
  8
Sichtbar (ISO)
100
AcDbVertex
100
AcDb2dVertex
 10
779.1480627659896
 20
1042.829630596479
 30
0.0
  0
VERTEX
  5
527
330
50F
100
AcDbEntity
  8
Sichtbar (ISO)
100
AcDbVertex
100
AcDb2dVertex
 10
779.1500332904003
 20
1042.830210811596
 30
0.0
  0
VERTEX
  5
528
330
50F
100
AcDbEntity
  8
Sichtbar (ISO)
100
AcDbVertex
100
AcDb2dVertex
 10
779.1519383691934
 20
1042.830749178578
 30
0.0
  0
VERTEX
  5
529
330
50F
100
AcDbEntity
  8
Sichtbar (ISO)
100
AcDbVertex
100
AcDb2dVertex
 10
779.1537755180653
 20
1042.83124735037
 30
0.0
  0
SEQEND
  5
512
330
50F
100
AcDbEntity
  8
Sichtbar (ISO)
  0
POLYLINE
  5
52A
330
37
100
AcDbEntity
  8
Sichtbar (ISO)
100
AcDb2dPolyline
 66
     1
 10
0.0
 20
0.0
 30
0.0
 70
   128
  0
VERTEX
  5
52B
330
52A
100
AcDbEntity
  8
Sichtbar (ISO)
100
AcDbVertex
100
AcDb2dVertex
 10
779.0495695695823
 20
1042.250450769053
 30
0.0
  0
VERTEX
  5
52C
330
52A
100
AcDbEntity
  8
Sichtbar (ISO)
100
AcDbVertex
100
AcDb2dVertex
 10
779.0461202169693
 20
1042.25855990002
 30
0.0
  0
VERTEX
  5
52E
330
52A
100
AcDbEntity
  8
Sichtbar (ISO)
100
AcDbVertex
100
AcDb2dVertex
 10
779.0419268740723
 20
1042.268636174617
 30
0.0
  0
VERTEX
  5
52F
330
52A
100
AcDbEntity
  8
Sichtbar (ISO)
100
AcDbVertex
100
AcDb2dVertex
 10
779.0371247883994
 20
1042.280707049251
 30
0.0
  0
VERTEX
  5
530
330
52A
100
AcDbEntity
  8
Sichtbar (ISO)
100
AcDbVertex
100
AcDb2dVertex
 10
779.0318483737798
 20
1042.29479985574
 30
0.0
  0
VERTEX
  5
531
330
52A
100
AcDbEntity
  8
Sichtbar (ISO)
100
AcDbVertex
100
AcDb2dVertex
 10
779.0262331172887
 20
1042.310941873219
 30
0.0
  0
VERTEX
  5
532
330
52A
100
AcDbEntity
  8
Sichtbar (ISO)
100
AcDbVertex
100
AcDb2dVertex
 10
779.0204133704613
 20
1042.329160850345
 30
0.0
  0
VERTEX
  5
533
330
52A
100
AcDbEntity
  8
Sichtbar (ISO)
100
AcDbVertex
100
AcDb2dVertex
 10
779.0145242035332
 20
1042.34948400396
 30
0.0
  0
VERTEX
  5
534
330
52A
100
AcDbEntity
  8
Sichtbar (ISO)
100
AcDbVertex
100
AcDb2dVertex
 10
779.0087004471732
 20
1042.371938728175
 30
0.0
  0
VERTEX
  5
535
330
52A
100
AcDbEntity
  8
Sichtbar (ISO)
100
AcDbVertex
100
AcDb2dVertex
 10
779.0030771716165
 20
1042.39655223983
 30
0.0
  0
VERTEX
  5
536
330
52A
100
AcDbEntity
  8
Sichtbar (ISO)
100
AcDbVertex
100
AcDb2dVertex
 10
778.9979609139317
 20
1042.422994272521
 30
0.0
  0
VERTEX
  5
537
330
52A
100
AcDbEntity
  8
Sichtbar (ISO)
100
AcDbVertex
100
AcDb2dVertex
 10
778.9938128967579
 20
1042.450434152678
 30
0.0
  0
VERTEX
  5
538
330
52A
100
AcDbEntity
  8
Sichtbar (ISO)
100
AcDbVertex
100
AcDb2dVertex
 10
778.9907473102646
 20
1042.478615357693
 30
0.0
  0
VERTEX
  5
539
330
52A
100
AcDbEntity
  8
Sichtbar (ISO)
100
AcDbVertex
100
AcDb2dVertex
 10
778.9888689246441
 20
1042.507300199277
 30
0.0
  0
VERTEX
  5
53A
330
52A
100
AcDbEntity
  8
Sichtbar (ISO)
100
AcDbVertex
100
AcDb2dVertex
 10
778.9882829269287
 20
1042.536251051433
 30
0.0
  0
VERTEX
  5
53B
330
52A
100
AcDbEntity
  8
Sichtbar (ISO)
100
AcDbVertex
100
AcDb2dVertex
 10
778.989093253632
 20
1042.565230101283
 30
0.0
  0
VERTEX
  5
53C
330
52A
100
AcDbEntity
  8
Sichtbar (ISO)
100
AcDbVertex
100
AcDb2dVertex
 10
778.9914049145135
 20
1042.593999483265
 30
0.0
  0
VERTEX
  5
53D
330
52A
100
AcDbEntity
  8
Sichtbar (ISO)
100
AcDbVertex
100
AcDb2dVertex
 10
778.9953225911294
 20
1042.622321389304
 30
0.0
  0
VERTEX
  5
53E
330
52A
100
AcDbEntity
  8
Sichtbar (ISO)
100
AcDbVertex
100
AcDb2dVertex
 10
779.0009510536724
 20
1042.649958131113
 30
0.0
  0
VERTEX
  5
53F
330
52A
100
AcDbEntity
  8
Sichtbar (ISO)
100
AcDbVertex
100
AcDb2dVertex
 10
779.0083949836987
 20
1042.676671900616
 30
0.0
  0
VERTEX
  5
540
330
52A
100
AcDbEntity
  8
Sichtbar (ISO)
100
AcDbVertex
100
AcDb2dVertex
 10
779.0177587345615
 20
1042.70222494723
 30
0.0
  0
VERTEX
  5
541
330
52A
100
AcDbEntity
  8
Sichtbar (ISO)
100
AcDbVertex
100
AcDb2dVertex
 10
779.0291476442233
 20
1042.726379347903
 30
0.0
  0
VERTEX
  5
542
330
52A
100
AcDbEntity
  8
Sichtbar (ISO)
100
AcDbVertex
100
AcDb2dVertex
 10
779.0438837054096
 20
1042.750762821728
 30
0.0
  0
VERTEX
  5
543
330
52A
100
AcDbEntity
  8
Sichtbar (ISO)
100
AcDbVertex
100
AcDb2dVertex
 10
779.0658559747627
 20
1042.778123424012
 30
0.0
  0
VERTEX
  5
544
330
52A
100
AcDbEntity
  8
Sichtbar (ISO)
100
AcDbVertex
100
AcDb2dVertex
 10
779.1039239046725
 20
1042.809571642664
 30
0.0
  0
SEQEND
  5
52D
330
52A
100
AcDbEntity
  8
Sichtbar (ISO)
  0
ARC
  5
545
330
37
100
AcDbEntity
  8
Sichtbar (ISO)
100
AcDbCircle
 10
777.3345414151961
 20
1046.947117589996
 30
0.0
 40
5.000000000000111
100
AcDbArc
 50
260.0600976936439
 51
266.9390734000784
  0
POLYLINE
  5
546
330
37
100
AcDbEntity
  8
Sichtbar (ISO)
100
AcDb2dPolyline
 66
     1
 10
0.0
 20
0.0
 30
0.0
 70
   128
  0
VERTEX
  5
547
330
546
100
AcDbEntity
  8
Sichtbar (ISO)
100
AcDbVertex
100
AcDb2dVertex
 10
776.8521091603832
 20
1042.473052326741
 30
0.0
  0
VERTEX
  5
548
330
546
100
AcDbEntity
  8
Sichtbar (ISO)
100
AcDbVertex
100
AcDb2dVertex
 10
776.8998365278766
 20
1042.452877680823
 30
0.0
  0
VERTEX
  5
54A
330
546
100
AcDbEntity
  8
Sichtbar (ISO)
100
AcDbVertex
100
AcDb2dVertex
 10
776.929573024304
 20
1042.432050979881
 30
0.0
  0
VERTEX
  5
54B
330
546
100
AcDbEntity
  8
Sichtbar (ISO)
100
AcDbVertex
100
AcDb2dVertex
 10
776.9514793474761
 20
1042.411767547831
 30
0.0
  0
VERTEX
  5
54C
330
546
100
AcDbEntity
  8
Sichtbar (ISO)
100
AcDbVertex
100
AcDb2dVertex
 10
776.9685028438547
 20
1042.392515042746
 30
0.0
  0
VERTEX
  5
54D
330
546
100
AcDbEntity
  8
Sichtbar (ISO)
100
AcDbVertex
100
AcDb2dVertex
 10
776.9842149777506
 20
1042.371456039665
 30
0.0
  0
VERTEX
  5
54E
330
546
100
AcDbEntity
  8
Sichtbar (ISO)
100
AcDbVertex
100
AcDb2dVertex
 10
776.9986205943341
 20
1042.348791233042
 30
0.0
  0
VERTEX
  5
54F
330
546
100
AcDbEntity
  8
Sichtbar (ISO)
100
AcDbVertex
100
AcDb2dVertex
 10
777.0117098819631
 20
1042.324738836351
 30
0.0
  0
VERTEX
  5
550
330
546
100
AcDbEntity
  8
Sichtbar (ISO)
100
AcDbVertex
100
AcDb2dVertex
 10
777.0234727990382
 20
1042.299515750255
 30
0.0
  0
VERTEX
  5
551
330
546
100
AcDbEntity
  8
Sichtbar (ISO)
100
AcDbVertex
100
AcDb2dVertex
 10
777.0338994189385
 20
1042.273339531823
 30
0.0
  0
VERTEX
  5
552
330
546
100
AcDbEntity
  8
Sichtbar (ISO)
100
AcDbVertex
100
AcDb2dVertex
 10
777.0429796377706
 20
1042.246427498555
 30
0.0
  0
VERTEX
  5
553
330
546
100
AcDbEntity
  8
Sichtbar (ISO)
100
AcDbVertex
100
AcDb2dVertex
 10
777.0506978217235
 20
1042.219041100252
 30
0.0
  0
VERTEX
  5
554
330
546
100
AcDbEntity
  8
Sichtbar (ISO)
100
AcDbVertex
100
AcDb2dVertex
 10
777.0570239314849
 20
1042.191873240419
 30
0.0
  0
VERTEX
  5
555
330
546
100
AcDbEntity
  8
Sichtbar (ISO)
100
AcDbVertex
100
AcDb2dVertex
 10
777.0620558232553
 20
1042.165231520411
 30
0.0
  0
VERTEX
  5
556
330
546
100
AcDbEntity
  8
Sichtbar (ISO)
100
AcDbVertex
100
AcDb2dVertex
 10
777.0659174825813
 20
1042.13928149045
 30
0.0
  0
VERTEX
  5
557
330
546
100
AcDbEntity
  8
Sichtbar (ISO)
100
AcDbVertex
100
AcDb2dVertex
 10
777.0687339682553
 20
1042.114188648071
 30
0.0
  0
VERTEX
  5
558
330
546
100
AcDbEntity
  8
Sichtbar (ISO)
100
AcDbVertex
100
AcDb2dVertex
 10
777.0706288489848
 20
1042.0901184812
 30
0.0
  0
VERTEX
  5
559
330
546
100
AcDbEntity
  8
Sichtbar (ISO)
100
AcDbVertex
100
AcDb2dVertex
 10
777.0717273608345
 20
1042.067236726939
 30
0.0
  0
VERTEX
  5
55A
330
546
100
AcDbEntity
  8
Sichtbar (ISO)
100
AcDbVertex
100
AcDb2dVertex
 10
777.0721530725119
 20
1042.045708873215
 30
0.0
  0
VERTEX
  5
55B
330
546
100
AcDbEntity
  8
Sichtbar (ISO)
100
AcDbVertex
100
AcDb2dVertex
 10
777.0720307409487
 20
1042.025701011675
 30
0.0
  0
VERTEX
  5
55C
330
546
100
AcDbEntity
  8
Sichtbar (ISO)
100
AcDbVertex
100
AcDb2dVertex
 10
777.071484893119
 20
1042.007377921155
 30
0.0
  0
VERTEX
  5
55D
330
546
100
AcDbEntity
  8
Sichtbar (ISO)
100
AcDbVertex
100
AcDb2dVertex
 10
777.070639806821
 20
1041.990906047848
 30
0.0
  0
VERTEX
  5
55E
330
546
100
AcDbEntity
  8
Sichtbar (ISO)
100
AcDbVertex
100
AcDb2dVertex
 10
777.0696197694621
 20
1041.976450347861
 30
0.0
  0
VERTEX
  5
55F
330
546
100
AcDbEntity
  8
Sichtbar (ISO)
100
AcDbVertex
100
AcDb2dVertex
 10
777.0685491211349
 20
1041.96417685055
 30
0.0
  0
VERTEX
  5
560
330
546
100
AcDbEntity
  8
Sichtbar (ISO)
100
AcDbVertex
100
AcDb2dVertex
 10
777.0675520869522
 20
1041.95425092886
 30
0.0
  0
SEQEND
  5
549
330
546
100
AcDbEntity
  8
Sichtbar (ISO)
  0
POLYLINE
  5
561
330
37
100
AcDbEntity
  8
Sichtbar (ISO)
100
AcDb2dPolyline
 66
     1
 10
0.0
 20
0.0
 30
0.0
 70
   128
  0
VERTEX
  5
562
330
561
100
AcDbEntity
  8
Sichtbar (ISO)
100
AcDbVertex
100
AcDb2dVertex
 10
776.7980985508179
 20
1042.479206489297
 30
0.0
  0
VERTEX
  5
563
330
561
100
AcDbEntity
  8
Sichtbar (ISO)
100
AcDbVertex
100
AcDb2dVertex
 10
776.8000011970192
 20
1042.47926709943
 30
0.0
  0
VERTEX
  5
565
330
561
100
AcDbEntity
  8
Sichtbar (ISO)
100
AcDbVertex
100
AcDb2dVertex
 10
776.8019803170281
 20
1042.479309307662
 30
0.0
  0
VERTEX
  5
566
330
561
100
AcDbEntity
  8
Sichtbar (ISO)
100
AcDbVertex
100
AcDb2dVertex
 10
776.8040346172506
 20
1042.479330363778
 30
0.0
  0
VERTEX
  5
567
330
561
100
AcDbEntity
  8
Sichtbar (ISO)
100
AcDbVertex
100
AcDb2dVertex
 10
776.8061619081199
 20
1042.479327809819
 30
0.0
  0
VERTEX
  5
568
330
561
100
AcDbEntity
  8
Sichtbar (ISO)
100
AcDbVertex
100
AcDb2dVertex
 10
776.808360896042
 20
1042.479298895571
 30
0.0
  0
VERTEX
  5
569
330
561
100
AcDbEntity
  8
Sichtbar (ISO)
100
AcDbVertex
100
AcDb2dVertex
 10
776.8106293914503
 20
1042.479241163073
 30
0.0
  0
VERTEX
  5
56A
330
561
100
AcDbEntity
  8
Sichtbar (ISO)
100
AcDbVertex
100
AcDb2dVertex
 10
776.8129661007506
 20
1042.479151862112
 30
0.0
  0
VERTEX
  5
56B
330
561
100
AcDbEntity
  8
Sichtbar (ISO)
100
AcDbVertex
100
AcDb2dVertex
 10
776.8153644216101
 20
1042.479028834102
 30
0.0
  0
VERTEX
  5
56C
330
561
100
AcDbEntity
  8
Sichtbar (ISO)
100
AcDbVertex
100
AcDb2dVertex
 10
776.8178022471233
 20
1042.478871012589
 30
0.0
  0
VERTEX
  5
56D
330
561
100
AcDbEntity
  8
Sichtbar (ISO)
100
AcDbVertex
100
AcDb2dVertex
 10
776.8202755334834
 20
1042.478676940955
 30
0.0
  0
VERTEX
  5
56E
330
561
100
AcDbEntity
  8
Sichtbar (ISO)
100
AcDbVertex
100
AcDb2dVertex
 10
776.8227828002143
 20
1042.478445119504
 30
0.0
  0
VERTEX
  5
56F
330
561
100
AcDbEntity
  8
Sichtbar (ISO)
100
AcDbVertex
100
AcDb2dVertex
 10
776.825322447057
 20
1042.47817413718
 30
0.0
  0
VERTEX
  5
570
330
561
100
AcDbEntity
  8
Sichtbar (ISO)
100
AcDbVertex
100
AcDb2dVertex
 10
776.8278690706608
 20
1042.477865737549
 30
0.0
  0
VERTEX
  5
571
330
561
100
AcDbEntity
  8
Sichtbar (ISO)
100
AcDbVertex
100
AcDb2dVertex
 10
776.8303736322476
 20
1042.477526548457
 30
0.0
  0
VERTEX
  5
572
330
561
100
AcDbEntity
  8
Sichtbar (ISO)
100
AcDbVertex
100
AcDb2dVertex
 10
776.8328330797436
 20
1042.477158457609
 30
0.0
  0
VERTEX
  5
573
330
561
100
AcDbEntity
  8
Sichtbar (ISO)
100
AcDbVertex
100
AcDb2dVertex
 10
776.8352466848396
 20
1042.476763486908
 30
0.0
  0
VERTEX
  5
574
330
561
100
AcDbEntity
  8
Sichtbar (ISO)
100
AcDbVertex
100
AcDb2dVertex
 10
776.8376111558951
 20
1042.476343701334
 30
0.0
  0
VERTEX
  5
575
330
561
100
AcDbEntity
  8
Sichtbar (ISO)
100
AcDbVertex
100
AcDb2dVertex
 10
776.8399079170456
 20
1042.475905060896
 30
0.0
  0
VERTEX
  5
576
330
561
100
AcDbEntity
  8
Sichtbar (ISO)
100
AcDbVertex
100
AcDb2dVertex
 10
776.8421313432773
 20
1042.475450986459
 30
0.0
  0
VERTEX
  5
577
330
561
100
AcDbEntity
  8
Sichtbar (ISO)
100
AcDbVertex
100
AcDb2dVertex
 10
776.8442802223429
 20
1042.474984599515
 30
0.0
  0
VERTEX
  5
578
330
561
100
AcDbEntity
  8
Sichtbar (ISO)
100
AcDbVertex
100
AcDb2dVertex
 10
776.8463535240721
 20
1042.47450851608
 30
0.0
  0
VERTEX
  5
579
330
561
100
AcDbEntity
  8
Sichtbar (ISO)
100
AcDbVertex
100
AcDb2dVertex
 10
776.8483501560007
 20
1042.474025769009
 30
0.0
  0
VERTEX
  5
57A
330
561
100
AcDbEntity
  8
Sichtbar (ISO)
100
AcDbVertex
100
AcDb2dVertex
 10
776.8502690256648
 20
1042.473539391156
 30
0.0
  0
VERTEX
  5
57B
330
561
100
AcDbEntity
  8
Sichtbar (ISO)
100
AcDbVertex
100
AcDb2dVertex
 10
776.8521091603832
 20
1042.473052326741
 30
0.0
  0
SEQEND
  5
564
330
561
100
AcDbEntity
  8
Sichtbar (ISO)
  0
POLYLINE
  5
57C
330
37
100
AcDbEntity
  8
Sichtbar (ISO)
100
AcDb2dPolyline
 66
     1
 10
0.0
 20
0.0
 30
0.0
 70
   128
  0
VERTEX
  5
57D
330
57C
100
AcDbEntity
  8
Sichtbar (ISO)
100
AcDbVertex
100
AcDb2dVertex
 10
776.4714658107499
 20
1042.022170680798
 30
0.0
  0
VERTEX
  5
57E
330
57C
100
AcDbEntity
  8
Sichtbar (ISO)
100
AcDbVertex
100
AcDb2dVertex
 10
776.4725331492025
 20
1042.030918260097
 30
0.0
  0
VERTEX
  5
580
330
57C
100
AcDbEntity
  8
Sichtbar (ISO)
100
AcDbVertex
100
AcDb2dVertex
 10
776.4739399120257
 20
1042.04174109112
 30
0.0
  0
VERTEX
  5
581
330
57C
100
AcDbEntity
  8
Sichtbar (ISO)
100
AcDbVertex
100
AcDb2dVertex
 10
776.4758163794489
 20
1042.054595786449
 30
0.0
  0
VERTEX
  5
582
330
57C
100
AcDbEntity
  8
Sichtbar (ISO)
100
AcDbVertex
100
AcDb2dVertex
 10
776.4782934306188
 20
1042.069438515487
 30
0.0
  0
VERTEX
  5
583
330
57C
100
AcDbEntity
  8
Sichtbar (ISO)
100
AcDbVertex
100
AcDb2dVertex
 10
776.4815014655481
 20
1042.086225802181
 30
0.0
  0
VERTEX
  5
584
330
57C
100
AcDbEntity
  8
Sichtbar (ISO)
100
AcDbVertex
100
AcDb2dVertex
 10
776.4855709465439
 20
1042.104913753638
 30
0.0
  0
VERTEX
  5
585
330
57C
100
AcDbEntity
  8
Sichtbar (ISO)
100
AcDbVertex
100
AcDb2dVertex
 10
776.4906322161297
 20
1042.125458565603
 30
0.0
  0
VERTEX
  5
586
330
57C
100
AcDbEntity
  8
Sichtbar (ISO)
100
AcDbVertex
100
AcDb2dVertex
 10
776.4968162109411
 20
1042.147816735679
 30
0.0
  0
VERTEX
  5
587
330
57C
100
AcDbEntity
  8
Sichtbar (ISO)
100
AcDbVertex
100
AcDb2dVertex
 10
776.5042531537184
 20
1042.171944548248
 30
0.0
  0
VERTEX
  5
588
330
57C
100
AcDbEntity
  8
Sichtbar (ISO)
100
AcDbVertex
100
AcDb2dVertex
 10
776.5130433959329
 20
1042.197402192774
 30
0.0
  0
VERTEX
  5
589
330
57C
100
AcDbEntity
  8
Sichtbar (ISO)
100
AcDbVertex
100
AcDb2dVertex
 10
776.5231708894725
 20
1042.223239835411
 30
0.0
  0
VERTEX
  5
58A
330
57C
100
AcDbEntity
  8
Sichtbar (ISO)
100
AcDbVertex
100
AcDb2dVertex
 10
776.5346067383942
 20
1042.249178185262
 30
0.0
  0
VERTEX
  5
58B
330
57C
100
AcDbEntity
  8
Sichtbar (ISO)
100
AcDbVertex
100
AcDb2dVertex
 10
776.5473225063384
 20
1042.274959114485
 30
0.0
  0
VERTEX
  5
58C
330
57C
100
AcDbEntity
  8
Sichtbar (ISO)
100
AcDbVertex
100
AcDb2dVertex
 10
776.5612902935682
 20
1042.300324468893
 30
0.0
  0
VERTEX
  5
58D
330
57C
100
AcDbEntity
  8
Sichtbar (ISO)
100
AcDbVertex
100
AcDb2dVertex
 10
776.5764814864509
 20
1042.325015881075
 30
0.0
  0
VERTEX
  5
58E
330
57C
100
AcDbEntity
  8
Sichtbar (ISO)
100
AcDbVertex
100
AcDb2dVertex
 10
776.5928681277601
 20
1042.348774868642
 30
0.0
  0
VERTEX
  5
58F
330
57C
100
AcDbEntity
  8
Sichtbar (ISO)
100
AcDbVertex
100
AcDb2dVertex
 10
776.6104219584085
 20
1042.371343543318
 30
0.0
  0
VERTEX
  5
590
330
57C
100
AcDbEntity
  8
Sichtbar (ISO)
100
AcDbVertex
100
AcDb2dVertex
 10
776.6291147816033
 20
1042.392463599985
 30
0.0
  0
VERTEX
  5
591
330
57C
100
AcDbEntity
  8
Sichtbar (ISO)
100
AcDbVertex
100
AcDb2dVertex
 10
776.6489182232785
 20
1042.411876493962
 30
0.0
  0
VERTEX
  5
592
330
57C
100
AcDbEntity
  8
Sichtbar (ISO)
100
AcDbVertex
100
AcDb2dVertex
 10
776.6698040866409
 20
1042.42932392013
 30
0.0
  0
VERTEX
  5
593
330
57C
100
AcDbEntity
  8
Sichtbar (ISO)
100
AcDbVertex
100
AcDb2dVertex
 10
776.6917443521704
 20
1042.444547812942
 30
0.0
  0
VERTEX
  5
594
330
57C
100
AcDbEntity
  8
Sichtbar (ISO)
100
AcDbVertex
100
AcDb2dVertex
 10
776.7166979080537
 20
1042.458296788504
 30
0.0
  0
VERTEX
  5
595
330
57C
100
AcDbEntity
  8
Sichtbar (ISO)
100
AcDbVertex
100
AcDb2dVertex
 10
776.7494067585309
 20
1042.471005495284
 30
0.0
  0
VERTEX
  5
596
330
57C
100
AcDbEntity
  8
Sichtbar (ISO)
100
AcDbVertex
100
AcDb2dVertex
 10
776.7980985508179
 20
1042.479206489297
 30
0.0
  0
SEQEND
  5
57F
330
57C
100
AcDbEntity
  8
Sichtbar (ISO)
  0
ARC
  5
597
330
37
100
AcDbEntity
  8
Sichtbar (ISO)
100
AcDbCircle
 10
777.3345414151962
 20
1046.947117589996
 30
0.0
 40
5.000000000000106
100
AcDbArc
 50
230.0600976936443
 51
236.9390734000801
  0
POLYLINE
  5
598
330
37
100
AcDbEntity
  8
Sichtbar (ISO)
100
AcDb2dPolyline
 66
     1
 10
0.0
 20
0.0
 30
0.0
 70
   128
  0
VERTEX
  5
599
330
598
100
AcDbEntity
  8
Sichtbar (ISO)
100
AcDbVertex
100
AcDb2dVertex
 10
774.679710264168
 20
1043.313679598256
 30
0.0
  0
VERTEX
  5
59A
330
598
100
AcDbEntity
  8
Sichtbar (ISO)
100
AcDbVertex
100
AcDb2dVertex
 10
774.7109558744231
 20
1043.272344078063
 30
0.0
  0
VERTEX
  5
59C
330
598
100
AcDbEntity
  8
Sichtbar (ISO)
100
AcDbVertex
100
AcDb2dVertex
 10
774.7262952006583
 20
1043.239439478981
 30
0.0
  0
VERTEX
  5
59D
330
598
100
AcDbEntity
  8
Sichtbar (ISO)
100
AcDbVertex
100
AcDb2dVertex
 10
774.7351249711183
 20
1043.21092022506
 30
0.0
  0
VERTEX
  5
59E
330
598
100
AcDbEntity
  8
Sichtbar (ISO)
100
AcDbVertex
100
AcDb2dVertex
 10
774.7402415997572
 20
1043.185735480303
 30
0.0
  0
VERTEX
  5
59F
330
598
100
AcDbEntity
  8
Sichtbar (ISO)
100
AcDbVertex
100
AcDb2dVertex
 10
774.7433188653056
 20
1043.159641446911
 30
0.0
  0
VERTEX
  5
5A0
330
598
100
AcDbEntity
  8
Sichtbar (ISO)
100
AcDbVertex
100
AcDb2dVertex
 10
774.7444623199678
 20
1043.132810641883
 30
0.0
  0
VERTEX
  5
5A1
330
598
100
AcDbEntity
  8
Sichtbar (ISO)
100
AcDbVertex
100
AcDb2dVertex
 10
774.7437716780198
 20
1043.105435844096
 30
0.0
  0
VERTEX
  5
5A2
330
598
100
AcDbEntity
  8
Sichtbar (ISO)
100
AcDbVertex
100
AcDb2dVertex
 10
774.7413471256646
 20
1043.077710595448
 30
0.0
  0
VERTEX
  5
5A3
330
598
100
AcDbEntity
  8
Sichtbar (ISO)
100
AcDbVertex
100
AcDb2dVertex
 10
774.7372887466966
 20
1043.049828142869
 30
0.0
  0
VERTEX
  5
5A4
330
598
100
AcDbEntity
  8
Sichtbar (ISO)
100
AcDbVertex
100
AcDb2dVertex
 10
774.7316963877461
 20
1043.021981538045
 30
0.0
  0
VERTEX
  5
5A5
330
598
100
AcDbEntity
  8
Sichtbar (ISO)
100
AcDbVertex
100
AcDb2dVertex
 10
774.7246874523191
 20
1042.99440496963
 30
0.0
  0
VERTEX
  5
5A6
330
598
100
AcDbEntity
  8
Sichtbar (ISO)
100
AcDbVertex
100
AcDb2dVertex
 10
774.7165820785282
 20
1042.967713883926
 30
0.0
  0
VERTEX
  5
5A7
330
598
100
AcDbEntity
  8
Sichtbar (ISO)
100
AcDbVertex
100
AcDb2dVertex
 10
774.7076189863608
 20
1042.942125735255
 30
0.0
  0
VERTEX
  5
5A8
330
598
100
AcDbEntity
  8
Sichtbar (ISO)
100
AcDbVertex
100
AcDb2dVertex
 10
774.6979882602659
 20
1042.917721200347
 30
0.0
  0
VERTEX
  5
5A9
330
598
100
AcDbEntity
  8
Sichtbar (ISO)
100
AcDbVertex
100
AcDb2dVertex
 10
774.687880886029
 20
1042.89458214269
 30
0.0
  0
VERTEX
  5
5AA
330
598
100
AcDbEntity
  8
Sichtbar (ISO)
100
AcDbVertex
100
AcDb2dVertex
 10
774.6774869780449
 20
1042.872789216857
 30
0.0
  0
VERTEX
  5
5AB
330
598
100
AcDbEntity
  8
Sichtbar (ISO)
100
AcDbVertex
100
AcDb2dVertex
 10
774.6669971525808
 20
1042.852423818281
 30
0.0
  0
VERTEX
  5
5AC
330
598
100
AcDbEntity
  8
Sichtbar (ISO)
100
AcDbVertex
100
AcDb2dVertex
 10
774.6566020558494
 20
1042.833567320235
 30
0.0
  0
VERTEX
  5
5AD
330
598
100
AcDbEntity
  8
Sichtbar (ISO)
100
AcDbVertex
100
AcDb2dVertex
 10
774.6464923041182
 20
1042.816301118151
 30
0.0
  0
VERTEX
  5
5AE
330
598
100
AcDbEntity
  8
Sichtbar (ISO)
100
AcDbVertex
100
AcDb2dVertex
 10
774.6368580117818
 20
1042.800705866604
 30
0.0
  0
VERTEX
  5
5AF
330
598
100
AcDbEntity
  8
Sichtbar (ISO)
100
AcDbVertex
100
AcDb2dVertex
 10
774.6278899873528
 20
1042.786863189513
 30
0.0
  0
VERTEX
  5
5B0
330
598
100
AcDbEntity
  8
Sichtbar (ISO)
100
AcDbVertex
100
AcDb2dVertex
 10
774.6197788620715
 20
1042.774854471231
 30
0.0
  0
VERTEX
  5
5B1
330
598
100
AcDbEntity
  8
Sichtbar (ISO)
100
AcDbVertex
100
AcDb2dVertex
 10
774.6127149126325
 20
1042.764760616977
 30
0.0
  0
VERTEX
  5
5B2
330
598
100
AcDbEntity
  8
Sichtbar (ISO)
100
AcDbVertex
100
AcDb2dVertex
 10
774.6068887852485
 20
1042.756663000026
 30
0.0
  0
SEQEND
  5
59B
330
598
100
AcDbEntity
  8
Sichtbar (ISO)
  0
POLYLINE
  5
5B3
330
37
100
AcDbEntity
  8
Sichtbar (ISO)
100
AcDb2dPolyline
 66
     1
 10
0.0
 20
0.0
 30
0.0
 70
   128
  0
VERTEX
  5
5B4
330
5B3
100
AcDbEntity
  8
Sichtbar (ISO)
100
AcDbVertex
100
AcDb2dVertex
 10
774.6360127946155
 20
1043.346014513966
 30
0.0
  0
VERTEX
  5
5B5
330
5B3
100
AcDbEntity
  8
Sichtbar (ISO)
100
AcDbVertex
100
AcDb2dVertex
 10
774.637693034125
 20
1043.345114491934
 30
0.0
  0
VERTEX
  5
5B7
330
5B3
100
AcDbEntity
  8
Sichtbar (ISO)
100
AcDbVertex
100
AcDb2dVertex
 10
774.6394305788831
 20
1043.344160201811
 30
0.0
  0
VERTEX
  5
5B8
330
5B3
100
AcDbEntity
  8
Sichtbar (ISO)
100
AcDbVertex
100
AcDb2dVertex
 10
774.6412223484338
 20
1043.343149844869
 30
0.0
  0
VERTEX
  5
5B9
330
5B3
100
AcDbEntity
  8
Sichtbar (ISO)
100
AcDbVertex
100
AcDb2dVertex
 10
774.6430657847819
 20
1043.342082348003
 30
0.0
  0
VERTEX
  5
5BA
330
5B3
100
AcDbEntity
  8
Sichtbar (ISO)
100
AcDbVertex
100
AcDb2dVertex
 10
774.6449581601455
 20
1043.340956393005
 30
0.0
  0
VERTEX
  5
5BB
330
5B3
100
AcDbEntity
  8
Sichtbar (ISO)
100
AcDbVertex
100
AcDb2dVertex
 10
774.6468963893899
 20
1043.339770184608
 30
0.0
  0
VERTEX
  5
5BC
330
5B3
100
AcDbEntity
  8
Sichtbar (ISO)
100
AcDbVertex
100
AcDb2dVertex
 10
774.6488779173271
 20
1043.338522647632
 30
0.0
  0
VERTEX
  5
5BD
330
5B3
100
AcDbEntity
  8
Sichtbar (ISO)
100
AcDbVertex
100
AcDb2dVertex
 10
774.6508908622315
 20
1043.337218496043
 30
0.0
  0
VERTEX
  5
5BE
330
5B3
100
AcDbEntity
  8
Sichtbar (ISO)
100
AcDbVertex
100
AcDb2dVertex
 10
774.6529226405219
 20
1043.335862963163
 30
0.0
  0
VERTEX
  5
5BF
330
5B3
100
AcDbEntity
  8
Sichtbar (ISO)
100
AcDbVertex
100
AcDb2dVertex
 10
774.6549711273562
 20
1043.334455396855
 30
0.0
  0
VERTEX
  5
5C0
330
5B3
100
AcDbEntity
  8
Sichtbar (ISO)
100
AcDbVertex
100
AcDb2dVertex
 10
774.6570342006995
 20
1043.332995142903
 30
0.0
  0
VERTEX
  5
5C1
330
5B3
100
AcDbEntity
  8
Sichtbar (ISO)
100
AcDbVertex
100
AcDb2dVertex
 10
774.6591089287274
 20
1043.331482146314
 30
0.0
  0
VERTEX
  5
5C2
330
5B3
100
AcDbEntity
  8
Sichtbar (ISO)
100
AcDbVertex
100
AcDb2dVertex
 10
774.6611552029927
 20
1043.329944603253
 30
0.0
  0
VERTEX
  5
5C3
330
5B3
100
AcDbEntity
  8
Sichtbar (ISO)
100
AcDbVertex
100
AcDb2dVertex
 10
774.6631518664315
 20
1043.328400023078
 30
0.0
  0
VERTEX
  5
5C4
330
5B3
100
AcDbEntity
  8
Sichtbar (ISO)
100
AcDbVertex
100
AcDb2dVertex
 10
774.6650986126321
 20
1043.3268501155
 30
0.0
  0
VERTEX
  5
5C5
330
5B3
100
AcDbEntity
  8
Sichtbar (ISO)
100
AcDbVertex
100
AcDb2dVertex
 10
774.6669954875401
 20
1043.325297070983
 30
0.0
  0
VERTEX
  5
5C6
330
5B3
100
AcDbEntity
  8
Sichtbar (ISO)
100
AcDbVertex
100
AcDb2dVertex
 10
774.6688364701354
 20
1043.323748310863
 30
0.0
  0
VERTEX
  5
5C7
330
5B3
100
AcDbEntity
  8
Sichtbar (ISO)
100
AcDbVertex
100
AcDb2dVertex
 10
774.6706034448326
 20
1043.322221318351
 30
0.0
  0
VERTEX
  5
5C8
330
5B3
100
AcDbEntity
  8
Sichtbar (ISO)
100
AcDbVertex
100
AcDb2dVertex
 10
774.672295960755
 20
1043.320720876007
 30
0.0
  0
VERTEX
  5
5C9
330
5B3
100
AcDbEntity
  8
Sichtbar (ISO)
100
AcDbVertex
100
AcDb2dVertex
 10
774.6739144514893
 20
1043.319250370426
 30
0.0
  0
VERTEX
  5
5CA
330
5B3
100
AcDbEntity
  8
Sichtbar (ISO)
100
AcDbVertex
100
AcDb2dVertex
 10
774.6754628306109
 20
1043.317809500876
 30
0.0
  0
VERTEX
  5
5CB
330
5B3
100
AcDbEntity
  8
Sichtbar (ISO)
100
AcDbVertex
100
AcDb2dVertex
 10
774.6769446447334
 20
1043.316398979653
 30
0.0
  0
VERTEX
  5
5CC
330
5B3
100
AcDbEntity
  8
Sichtbar (ISO)
100
AcDbVertex
100
AcDb2dVertex
 10
774.6783603144677
 20
1043.315021461467
 30
0.0
  0
VERTEX
  5
5CD
330
5B3
100
AcDbEntity
  8
Sichtbar (ISO)
100
AcDbVertex
100
AcDb2dVertex
 10
774.679710264168
 20
1043.313679598256
 30
0.0
  0
SEQEND
  5
5B6
330
5B3
100
AcDbEntity
  8
Sichtbar (ISO)
  0
POLYLINE
  5
5CE
330
37
100
AcDbEntity
  8
Sichtbar (ISO)
100
AcDb2dPolyline
 66
     1
 10
0.0
 20
0.0
 30
0.0
 70
   128
  0
VERTEX
  5
5CF
330
5CE
100
AcDbEntity
  8
Sichtbar (ISO)
100
AcDbVertex
100
AcDb2dVertex
 10
774.1246227490204
 20
1043.113526493283
 30
0.0
  0
VERTEX
  5
5D0
330
5CE
100
AcDbEntity
  8
Sichtbar (ISO)
100
AcDbVertex
100
AcDb2dVertex
 10
774.1299205600683
 20
1043.120568037243
 30
0.0
  0
VERTEX
  5
5D2
330
5CE
100
AcDbEntity
  8
Sichtbar (ISO)
100
AcDbVertex
100
AcDb2dVertex
 10
774.1365503302771
 20
1043.129237711026
 30
0.0
  0
VERTEX
  5
5D3
330
5CE
100
AcDbEntity
  8
Sichtbar (ISO)
100
AcDbVertex
100
AcDb2dVertex
 10
774.1446029261619
 20
1043.139431943055
 30
0.0
  0
VERTEX
  5
5D4
330
5CE
100
AcDbEntity
  8
Sichtbar (ISO)
100
AcDbVertex
100
AcDb2dVertex
 10
774.154169508892
 20
1043.151047685203
 30
0.0
  0
VERTEX
  5
5D5
330
5CE
100
AcDbEntity
  8
Sichtbar (ISO)
100
AcDbVertex
100
AcDb2dVertex
 10
774.1653412995279
 20
1043.163981845025
 30
0.0
  0
VERTEX
  5
5D6
330
5CE
100
AcDbEntity
  8
Sichtbar (ISO)
100
AcDbVertex
100
AcDb2dVertex
 10
774.1782095041575
 20
1043.178131341156
 30
0.0
  0
VERTEX
  5
5D7
330
5CE
100
AcDbEntity
  8
Sichtbar (ISO)
100
AcDbVertex
100
AcDb2dVertex
 10
774.1928653138959
 20
1043.19339310331
 30
0.0
  0
VERTEX
  5
5D8
330
5CE
100
AcDbEntity
  8
Sichtbar (ISO)
100
AcDbVertex
100
AcDb2dVertex
 10
774.2093997425852
 20
1043.209663821634
 30
0.0
  0
VERTEX
  5
5D9
330
5CE
100
AcDbEntity
  8
Sichtbar (ISO)
100
AcDbVertex
100
AcDb2dVertex
 10
774.2279039963133
 20
1043.226840414763
 30
0.0
  0
VERTEX
  5
5DA
330
5CE
100
AcDbEntity
  8
Sichtbar (ISO)
100
AcDbVertex
100
AcDb2dVertex
 10
774.2482456340907
 20
1043.244492575668
 30
0.0
  0
VERTEX
  5
5DB
330
5CE
100
AcDbEntity
  8
Sichtbar (ISO)
100
AcDbVertex
100
AcDb2dVertex
 10
774.2699350523354
 20
1043.261804744878
 30
0.0
  0
VERTEX
  5
5DC
330
5CE
100
AcDbEntity
  8
Sichtbar (ISO)
100
AcDbVertex
100
AcDb2dVertex
 10
774.2928078606125
 20
1043.278550067733
 30
0.0
  0
VERTEX
  5
5DD
330
5CE
100
AcDbEntity
  8
Sichtbar (ISO)
100
AcDbVertex
100
AcDb2dVertex
 10
774.3167106276073
 20
1043.29451916144
 30
0.0
  0
VERTEX
  5
5DE
330
5CE
100
AcDbEntity
  8
Sichtbar (ISO)
100
AcDbVertex
100
AcDb2dVertex
 10
774.341489552487
 20
1043.309502175151
 30
0.0
  0
VERTEX
  5
5DF
330
5CE
100
AcDbEntity
  8
Sichtbar (ISO)
100
AcDbVertex
100
AcDb2dVertex
 10
774.366991351264
 20
1043.3232899878
 30
0.0
  0
VERTEX
  5
5E0
330
5CE
100
AcDbEntity
  8
Sichtbar (ISO)
100
AcDbVertex
100
AcDb2dVertex
 10
774.3930622380784
 20
1043.335672737461
 30
0.0
  0
VERTEX
  5
5E1
330
5CE
100
AcDbEntity
  8
Sichtbar (ISO)
100
AcDbVertex
100
AcDb2dVertex
 10
774.4195486043429
 20
1043.346440801772
 30
0.0
  0
VERTEX
  5
5E2
330
5CE
100
AcDbEntity
  8
Sichtbar (ISO)
100
AcDbVertex
100
AcDb2dVertex
 10
774.4462969738242
 20
1043.355384831182
 30
0.0
  0
VERTEX
  5
5E3
330
5CE
100
AcDbEntity
  8
Sichtbar (ISO)
100
AcDbVertex
100
AcDb2dVertex
 10
774.473153767881
 20
1043.362295181168
 30
0.0
  0
VERTEX
  5
5E4
330
5CE
100
AcDbEntity
  8
Sichtbar (ISO)
100
AcDbVertex
100
AcDb2dVertex
 10
774.4999653255209
 20
1043.366962268152
 30
0.0
  0
VERTEX
  5
5E5
330
5CE
100
AcDbEntity
  8
Sichtbar (ISO)
100
AcDbVertex
100
AcDb2dVertex
 10
774.5265780381566
 20
1043.369176469773
 30
0.0
  0
VERTEX
  5
5E6
330
5CE
100
AcDbEntity
  8
Sichtbar (ISO)
100
AcDbVertex
100
AcDb2dVertex
 10
774.5550627679602
 20
1043.368606614846
 30
0.0
  0
VERTEX
  5
5E7
330
5CE
100
AcDbEntity
  8
Sichtbar (ISO)
100
AcDbVertex
100
AcDb2dVertex
 10
774.5897438575918
 20
1043.363258097294
 30
0.0
  0
VERTEX
  5
5E8
330
5CE
100
AcDbEntity
  8
Sichtbar (ISO)
100
AcDbVertex
100
AcDb2dVertex
 10
774.6360127946155
 20
1043.346014513966
 30
0.0
  0
SEQEND
  5
5D1
330
5CE
100
AcDbEntity
  8
Sichtbar (ISO)
  0
ARC
  5
5E9
330
37
100
AcDbEntity
  8
Sichtbar (ISO)
100
AcDbCircle
 10
777.3345414151963
 20
1046.947117589996
 30
0.0
 40
5.000000000000196
100
AcDbArc
 50
200.0600976936429
 51
206.9390734000784
  0
POLYLINE
  5
5EA
330
37
100
AcDbEntity
  8
Sichtbar (ISO)
100
AcDb2dPolyline
 66
     1
 10
0.0
 20
0.0
 30
0.0
 70
   128
  0
VERTEX
  5
5EB
330
5EA
100
AcDbEntity
  8
Sichtbar (ISO)
100
AcDbVertex
100
AcDb2dVertex
 10
773.2186711755682
 20
1045.127883487125
 30
0.0
  0
VERTEX
  5
5EC
330
5EA
100
AcDbEntity
  8
Sichtbar (ISO)
100
AcDbVertex
100
AcDb2dVertex
 10
773.2250629051478
 20
1045.076463071865
 30
0.0
  0
VERTEX
  5
5EE
330
5EA
100
AcDbEntity
  8
Sichtbar (ISO)
100
AcDbVertex
100
AcDb2dVertex
 10
773.2218950185443
 20
1045.04029733666
 30
0.0
  0
VERTEX
  5
5EF
330
5EA
100
AcDbEntity
  8
Sichtbar (ISO)
100
AcDbVertex
100
AcDb2dVertex
 10
773.2152820912443
 20
1045.011183888298
 30
0.0
  0
VERTEX
  5
5F0
330
5EA
100
AcDbEntity
  8
Sichtbar (ISO)
100
AcDbVertex
100
AcDb2dVertex
 10
773.2071207030146
 20
1044.986815066603
 30
0.0
  0
VERTEX
  5
5F1
330
5EA
100
AcDbEntity
  8
Sichtbar (ISO)
100
AcDbVertex
100
AcDb2dVertex
 10
773.1967388104155
 20
1044.962678306269
 30
0.0
  0
VERTEX
  5
5F2
330
5EA
100
AcDbEntity
  8
Sichtbar (ISO)
100
AcDbVertex
100
AcDb2dVertex
 10
773.1843137126987
 20
1044.938870418106
 30
0.0
  0
VERTEX
  5
5F3
330
5EA
100
AcDbEntity
  8
Sichtbar (ISO)
100
AcDbVertex
100
AcDb2dVertex
 10
773.1700281803818
 20
1044.915508633418
 30
0.0
  0
VERTEX
  5
5F4
330
5EA
100
AcDbEntity
  8
Sichtbar (ISO)
100
AcDbVertex
100
AcDb2dVertex
 10
773.1540657601717
 20
1044.892709979894
 30
0.0
  0
VERTEX
  5
5F5
330
5EA
100
AcDbEntity
  8
Sichtbar (ISO)
100
AcDbVertex
100
AcDb2dVertex
 10
773.1366098741877
 20
1044.870592318903
 30
0.0
  0
VERTEX
  5
5F6
330
5EA
100
AcDbEntity
  8
Sichtbar (ISO)
100
AcDbVertex
100
AcDb2dVertex
 10
773.1178433552412
 20
1044.849272464911
 30
0.0
  0
VERTEX
  5
5F7
330
5EA
100
AcDbEntity
  8
Sichtbar (ISO)
100
AcDbVertex
100
AcDb2dVertex
 10
773.0979851570388
 20
1044.828895003236
 30
0.0
  0
VERTEX
  5
5F8
330
5EA
100
AcDbEntity
  8
Sichtbar (ISO)
100
AcDbVertex
100
AcDb2dVertex
 10
773.0776204116759
 20
1044.809832578287
 30
0.0
  0
VERTEX
  5
5F9
330
5EA
100
AcDbEntity
  8
Sichtbar (ISO)
100
AcDbVertex
100
AcDb2dVertex
 10
773.0570638708898
 20
1044.792154067827
 30
0.0
  0
VERTEX
  5
5FA
330
5EA
100
AcDbEntity
  8
Sichtbar (ISO)
100
AcDbVertex
100
AcDb2dVertex
 10
773.0365213345909
 20
1044.775834721445
 30
0.0
  0
VERTEX
  5
5FB
330
5EA
100
AcDbEntity
  8
Sichtbar (ISO)
100
AcDbVertex
100
AcDb2dVertex
 10
773.0161983679277
 20
1044.760849220955
 30
0.0
  0
VERTEX
  5
5FC
330
5EA
100
AcDbEntity
  8
Sichtbar (ISO)
100
AcDbVertex
100
AcDb2dVertex
 10
772.9963005312437
 20
1044.747172993215
 30
0.0
  0
VERTEX
  5
5FD
330
5EA
100
AcDbEntity
  8
Sichtbar (ISO)
100
AcDbVertex
100
AcDb2dVertex
 10
772.9770335669603
 20
1044.734780959608
 30
0.0
  0
VERTEX
  5
5FE
330
5EA
100
AcDbEntity
  8
Sichtbar (ISO)
100
AcDbVertex
100
AcDb2dVertex
 10
772.9586028581484
 20
1044.723648307426
 30
0.0
  0
VERTEX
  5
5FF
330
5EA
100
AcDbEntity
  8
Sichtbar (ISO)
100
AcDbVertex
100
AcDb2dVertex
 10
772.9412143245017
 20
1044.713750197617
 30
0.0
  0
VERTEX
  5
600
330
5EA
100
AcDbEntity
  8
Sichtbar (ISO)
100
AcDbVertex
100
AcDb2dVertex
 10
772.925073291602
 20
1044.705061489271
 30
0.0
  0
VERTEX
  5
601
330
5EA
100
AcDbEntity
  8
Sichtbar (ISO)
100
AcDbVertex
100
AcDb2dVertex
 10
772.9103855593598
 20
1044.697557431973
 30
0.0
  0
VERTEX
  5
602
330
5EA
100
AcDbEntity
  8
Sichtbar (ISO)
100
AcDbVertex
100
AcDb2dVertex
 10
772.8973564533567
 20
1044.691212884812
 30
0.0
  0
VERTEX
  5
603
330
5EA
100
AcDbEntity
  8
Sichtbar (ISO)
100
AcDbVertex
100
AcDb2dVertex
 10
772.8861919507757
 20
1044.686003336939
 30
0.0
  0
VERTEX
  5
604
330
5EA
100
AcDbEntity
  8
Sichtbar (ISO)
100
AcDbVertex
100
AcDb2dVertex
 10
772.8770973771986
 20
1044.681903647444
 30
0.0
  0
SEQEND
  5
5ED
330
5EA
100
AcDbEntity
  8
Sichtbar (ISO)
  0
POLYLINE
  5
605
330
37
100
AcDbEntity
  8
Sichtbar (ISO)
100
AcDb2dPolyline
 66
     1
 10
0.0
 20
0.0
 30
0.0
 70
   128
  0
VERTEX
  5
606
330
605
100
AcDbEntity
  8
Sichtbar (ISO)
100
AcDbVertex
100
AcDb2dVertex
 10
773.196995467863
 20
1045.177735100518
 30
0.0
  0
VERTEX
  5
607
330
605
100
AcDbEntity
  8
Sichtbar (ISO)
100
AcDbVertex
100
AcDb2dVertex
 10
773.1979993495896
 20
1045.17611767163
 30
0.0
  0
VERTEX
  5
609
330
605
100
AcDbEntity
  8
Sichtbar (ISO)
100
AcDbVertex
100
AcDb2dVertex
 10
773.1990254737477
 20
1045.174424835721
 30
0.0
  0
VERTEX
  5
60A
330
605
100
AcDbEntity
  8
Sichtbar (ISO)
100
AcDbVertex
100
AcDb2dVertex
 10
773.2000708026776
 20
1045.172656245369
 30
0.0
  0
VERTEX
  5
60B
330
605
100
AcDbEntity
  8
Sichtbar (ISO)
100
AcDbVertex
100
AcDb2dVertex
 10
773.2011322316213
 20
1045.170812715035
 30
0.0
  0
VERTEX
  5
60C
330
605
100
AcDbEntity
  8
Sichtbar (ISO)
100
AcDbVertex
100
AcDb2dVertex
 10
773.2022066031357
 20
1045.168893985932
 30
0.0
  0
VERTEX
  5
60D
330
605
100
AcDbEntity
  8
Sichtbar (ISO)
100
AcDbVertex
100
AcDb2dVertex
 10
773.2032908747566
 20
1045.166900455683
 30
0.0
  0
VERTEX
  5
60E
330
605
100
AcDbEntity
  8
Sichtbar (ISO)
100
AcDbVertex
100
AcDb2dVertex
 10
773.2043819465301
 20
1045.164832193704
 30
0.0
  0
VERTEX
  5
60F
330
605
100
AcDbEntity
  8
Sichtbar (ISO)
100
AcDbVertex
100
AcDb2dVertex
 10
773.205474662967
 20
1045.162693756404
 30
0.0
  0
VERTEX
  5
610
330
605
100
AcDbEntity
  8
Sichtbar (ISO)
100
AcDbVertex
100
AcDb2dVertex
 10
773.2065568059981
 20
1045.160503453404
 30
0.0
  0
VERTEX
  5
611
330
605
100
AcDbEntity
  8
Sichtbar (ISO)
100
AcDbVertex
100
AcDb2dVertex
 10
773.2076253139405
 20
1045.158264662497
 30
0.0
  0
VERTEX
  5
612
330
605
100
AcDbEntity
  8
Sichtbar (ISO)
100
AcDbVertex
100
AcDb2dVertex
 10
773.2086781600862
 20
1045.155977400415
 30
0.0
  0
VERTEX
  5
613
330
605
100
AcDbEntity
  8
Sichtbar (ISO)
100
AcDbVertex
100
AcDb2dVertex
 10
773.2097134327061
 20
1045.153642340298
 30
0.0
  0
VERTEX
  5
614
330
605
100
AcDbEntity
  8
Sichtbar (ISO)
100
AcDbVertex
100
AcDb2dVertex
 10
773.2107197760714
 20
1045.151282714815
 30
0.0
  0
VERTEX
  5
615
330
605
100
AcDbEntity
  8
Sichtbar (ISO)
100
AcDbVertex
100
AcDb2dVertex
 10
773.2116780003222
 20
1045.148944237141
 30
0.0
  0
VERTEX
  5
616
330
605
100
AcDbEntity
  8
Sichtbar (ISO)
100
AcDbVertex
100
AcDb2dVertex
 10
773.2125890971916
 20
1045.1466302516
 30
0.0
  0
VERTEX
  5
617
330
605
100
AcDbEntity
  8
Sichtbar (ISO)
100
AcDbVertex
100
AcDb2dVertex
 10
773.2134537709663
 20
1045.144342461502
 30
0.0
  0
VERTEX
  5
618
330
605
100
AcDbEntity
  8
Sichtbar (ISO)
100
AcDbVertex
100
AcDb2dVertex
 10
773.214272591735
 20
1045.142084893921
 30
0.0
  0
VERTEX
  5
619
330
605
100
AcDbEntity
  8
Sichtbar (ISO)
100
AcDbVertex
100
AcDb2dVertex
 10
773.2150410266162
 20
1045.139876474295
 30
0.0
  0
VERTEX
  5
61A
330
605
100
AcDbEntity
  8
Sichtbar (ISO)
100
AcDbVertex
100
AcDb2dVertex
 10
773.215759449208
 20
1045.137723970302
 30
0.0
  0
VERTEX
  5
61B
330
605
100
AcDbEntity
  8
Sichtbar (ISO)
100
AcDbVertex
100
AcDb2dVertex
 10
773.2164298718043
 20
1045.135629600337
 30
0.0
  0
VERTEX
  5
61C
330
605
100
AcDbEntity
  8
Sichtbar (ISO)
100
AcDbVertex
100
AcDb2dVertex
 10
773.217054421678
 20
1045.133596239201
 30
0.0
  0
VERTEX
  5
61D
330
605
100
AcDbEntity
  8
Sichtbar (ISO)
100
AcDbVertex
100
AcDb2dVertex
 10
773.2176346367944
 20
1045.13162571479
 30
0.0
  0
VERTEX
  5
61E
330
605
100
AcDbEntity
  8
Sichtbar (ISO)
100
AcDbVertex
100
AcDb2dVertex
 10
773.2181730037766
 20
1045.129720635997
 30
0.0
  0
VERTEX
  5
61F
330
605
100
AcDbEntity
  8
Sichtbar (ISO)
100
AcDbVertex
100
AcDb2dVertex
 10
773.2186711755682
 20
1045.127883487125
 30
0.0
  0
SEQEND
  5
608
330
605
100
AcDbEntity
  8
Sichtbar (ISO)
  0
POLYLINE
  5
620
330
37
100
AcDbEntity
  8
Sichtbar (ISO)
100
AcDb2dPolyline
 66
     1
 10
0.0
 20
0.0
 30
0.0
 70
   128
  0
VERTEX
  5
621
330
620
100
AcDbEntity
  8
Sichtbar (ISO)
100
AcDbVertex
100
AcDb2dVertex
 10
772.6378745942533
 20
1045.23208943561
 30
0.0
  0
VERTEX
  5
622
330
620
100
AcDbEntity
  8
Sichtbar (ISO)
100
AcDbVertex
100
AcDb2dVertex
 10
772.6459837252203
 20
1045.235538788223
 30
0.0
  0
VERTEX
  5
624
330
620
100
AcDbEntity
  8
Sichtbar (ISO)
100
AcDbVertex
100
AcDb2dVertex
 10
772.6560599998172
 20
1045.239732131119
 30
0.0
  0
VERTEX
  5
625
330
620
100
AcDbEntity
  8
Sichtbar (ISO)
100
AcDbVertex
100
AcDb2dVertex
 10
772.6681308744509
 20
1045.244534216793
 30
0.0
  0
VERTEX
  5
626
330
620
100
AcDbEntity
  8
Sichtbar (ISO)
100
AcDbVertex
100
AcDb2dVertex
 10
772.6822236809399
 20
1045.249810631412
 30
0.0
  0
VERTEX
  5
627
330
620
100
AcDbEntity
  8
Sichtbar (ISO)
100
AcDbVertex
100
AcDb2dVertex
 10
772.6983656984184
 20
1045.255425887903
 30
0.0
  0
VERTEX
  5
628
330
620
100
AcDbEntity
  8
Sichtbar (ISO)
100
AcDbVertex
100
AcDb2dVertex
 10
772.7165846755449
 20
1045.26124563473
 30
0.0
  0
VERTEX
  5
629
330
620
100
AcDbEntity
  8
Sichtbar (ISO)
100
AcDbVertex
100
AcDb2dVertex
 10
772.7369078291592
 20
1045.267134801658
 30
0.0
  0
VERTEX
  5
62A
330
620
100
AcDbEntity
  8
Sichtbar (ISO)
100
AcDbVertex
100
AcDb2dVertex
 10
772.7593625533742
 20
1045.272958558018
 30
0.0
  0
VERTEX
  5
62B
330
620
100
AcDbEntity
  8
Sichtbar (ISO)
100
AcDbVertex
100
AcDb2dVertex
 10
772.7839760650299
 20
1045.278581833575
 30
0.0
  0
VERTEX
  5
62C
330
620
100
AcDbEntity
  8
Sichtbar (ISO)
100
AcDbVertex
100
AcDb2dVertex
 10
772.8104180977206
 20
1045.28369809126
 30
0.0
  0
VERTEX
  5
62D
330
620
100
AcDbEntity
  8
Sichtbar (ISO)
100
AcDbVertex
100
AcDb2dVertex
 10
772.8378579778774
 20
1045.287846108433
 30
0.0
  0
VERTEX
  5
62E
330
620
100
AcDbEntity
  8
Sichtbar (ISO)
100
AcDbVertex
100
AcDb2dVertex
 10
772.8660391828925
 20
1045.290911694926
 30
0.0
  0
VERTEX
  5
62F
330
620
100
AcDbEntity
  8
Sichtbar (ISO)
100
AcDbVertex
100
AcDb2dVertex
 10
772.8947240244758
 20
1045.292790080547
 30
0.0
  0
VERTEX
  5
630
330
620
100
AcDbEntity
  8
Sichtbar (ISO)
100
AcDbVertex
100
AcDb2dVertex
 10
772.9236748766315
 20
1045.293376078262
 30
0.0
  0
VERTEX
  5
631
330
620
100
AcDbEntity
  8
Sichtbar (ISO)
100
AcDbVertex
100
AcDb2dVertex
 10
772.9526539264816
 20
1045.292565751559
 30
0.0
  0
VERTEX
  5
632
330
620
100
AcDbEntity
  8
Sichtbar (ISO)
100
AcDbVertex
100
AcDb2dVertex
 10
772.9814233084633
 20
1045.290254090677
 30
0.0
  0
VERTEX
  5
633
330
620
100
AcDbEntity
  8
Sichtbar (ISO)
100
AcDbVertex
100
AcDb2dVertex
 10
773.0097452145034
 20
1045.286336414061
 30
0.0
  0
VERTEX
  5
634
330
620
100
AcDbEntity
  8
Sichtbar (ISO)
100
AcDbVertex
100
AcDb2dVertex
 10
773.0373819563115
 20
1045.280707951518
 30
0.0
  0
VERTEX
  5
635
330
620
100
AcDbEntity
  8
Sichtbar (ISO)
100
AcDbVertex
100
AcDb2dVertex
 10
773.0640957258148
 20
1045.273264021492
 30
0.0
  0
VERTEX
  5
636
330
620
100
AcDbEntity
  8
Sichtbar (ISO)
100
AcDbVertex
100
AcDb2dVertex
 10
773.0896487724289
 20
1045.263900270629
 30
0.0
  0
VERTEX
  5
637
330
620
100
AcDbEntity
  8
Sichtbar (ISO)
100
AcDbVertex
100
AcDb2dVertex
 10
773.113803173102
 20
1045.252511360967
 30
0.0
  0
VERTEX
  5
638
330
620
100
AcDbEntity
  8
Sichtbar (ISO)
100
AcDbVertex
100
AcDb2dVertex
 10
773.1381866469271
 20
1045.237775299781
 30
0.0
  0
VERTEX
  5
639
330
620
100
AcDbEntity
  8
Sichtbar (ISO)
100
AcDbVertex
100
AcDb2dVertex
 10
773.1655472492104
 20
1045.215803030428
 30
0.0
  0
VERTEX
  5
63A
330
620
100
AcDbEntity
  8
Sichtbar (ISO)
100
AcDbVertex
100
AcDb2dVertex
 10
773.196995467863
 20
1045.177735100518
 30
0.0
  0
SEQEND
  5
623
330
620
100
AcDbEntity
  8
Sichtbar (ISO)
  0
ARC
  5
63B
330
37
100
AcDbEntity
  8
Sichtbar (ISO)
100
AcDbCircle
 10
777.3345414151961
 20
1046.947117589996
 30
0.0
 40
5.000000000000002
100
AcDbArc
 50
170.0600976936429
 51
176.9390734000793
  0
POLYLINE
  5
63C
330
37
100
AcDbEntity
  8
Sichtbar (ISO)
100
AcDb2dPolyline
 66
     1
 10
0.0
 20
0.0
 30
0.0
 70
   128
  0
VERTEX
  5
63D
330
63C
100
AcDbEntity
  8
Sichtbar (ISO)
100
AcDbVertex
100
AcDb2dVertex
 10
772.8604761519392
 20
1047.429549844807
 30
0.0
  0
VERTEX
  5
63E
330
63C
100
AcDbEntity
  8
Sichtbar (ISO)
100
AcDbVertex
100
AcDb2dVertex
 10
772.8403015060211
 20
1047.381822477314
 30
0.0
  0
VERTEX
  5
640
330
63C
100
AcDbEntity
  8
Sichtbar (ISO)
100
AcDbVertex
100
AcDb2dVertex
 10
772.8194748050801
 20
1047.352085980886
 30
0.0
  0
VERTEX
  5
641
330
63C
100
AcDbEntity
  8
Sichtbar (ISO)
100
AcDbVertex
100
AcDb2dVertex
 10
772.7991913730293
 20
1047.330179657715
 30
0.0
  0
VERTEX
  5
642
330
63C
100
AcDbEntity
  8
Sichtbar (ISO)
100
AcDbVertex
100
AcDb2dVertex
 10
772.7799388679446
 20
1047.313156161336
 30
0.0
  0
VERTEX
  5
643
330
63C
100
AcDbEntity
  8
Sichtbar (ISO)
100
AcDbVertex
100
AcDb2dVertex
 10
772.7588798648636
 20
1047.29744402744
 30
0.0
  0
VERTEX
  5
644
330
63C
100
AcDbEntity
  8
Sichtbar (ISO)
100
AcDbVertex
100
AcDb2dVertex
 10
772.7362150582406
 20
1047.283038410856
 30
0.0
  0
VERTEX
  5
645
330
63C
100
AcDbEntity
  8
Sichtbar (ISO)
100
AcDbVertex
100
AcDb2dVertex
 10
772.7121626615502
 20
1047.269949123228
 30
0.0
  0
VERTEX
  5
646
330
63C
100
AcDbEntity
  8
Sichtbar (ISO)
100
AcDbVertex
100
AcDb2dVertex
 10
772.6869395754544
 20
1047.258186206152
 30
0.0
  0
VERTEX
  5
647
330
63C
100
AcDbEntity
  8
Sichtbar (ISO)
100
AcDbVertex
100
AcDb2dVertex
 10
772.6607633570218
 20
1047.247759586252
 30
0.0
  0
VERTEX
  5
648
330
63C
100
AcDbEntity
  8
Sichtbar (ISO)
100
AcDbVertex
100
AcDb2dVertex
 10
772.633851323754
 20
1047.23867936742
 30
0.0
  0
VERTEX
  5
649
330
63C
100
AcDbEntity
  8
Sichtbar (ISO)
100
AcDbVertex
100
AcDb2dVertex
 10
772.6064649254514
 20
1047.230961183468
 30
0.0
  0
VERTEX
  5
64A
330
63C
100
AcDbEntity
  8
Sichtbar (ISO)
100
AcDbVertex
100
AcDb2dVertex
 10
772.5792970656176
 20
1047.224635073706
 30
0.0
  0
VERTEX
  5
64B
330
63C
100
AcDbEntity
  8
Sichtbar (ISO)
100
AcDbVertex
100
AcDb2dVertex
 10
772.5526553456102
 20
1047.219603181936
 30
0.0
  0
VERTEX
  5
64C
330
63C
100
AcDbEntity
  8
Sichtbar (ISO)
100
AcDbVertex
100
AcDb2dVertex
 10
772.5267053156491
 20
1047.21574152261
 30
0.0
  0
VERTEX
  5
64D
330
63C
100
AcDbEntity
  8
Sichtbar (ISO)
100
AcDbVertex
100
AcDb2dVertex
 10
772.50161247327
 20
1047.212925036936
 30
0.0
  0
VERTEX
  5
64E
330
63C
100
AcDbEntity
  8
Sichtbar (ISO)
100
AcDbVertex
100
AcDb2dVertex
 10
772.4775423063991
 20
1047.211030156207
 30
0.0
  0
VERTEX
  5
64F
330
63C
100
AcDbEntity
  8
Sichtbar (ISO)
100
AcDbVertex
100
AcDb2dVertex
 10
772.4546605521384
 20
1047.209931644357
 30
0.0
  0
VERTEX
  5
650
330
63C
100
AcDbEntity
  8
Sichtbar (ISO)
100
AcDbVertex
100
AcDb2dVertex
 10
772.4331326984144
 20
1047.20950593268
 30
0.0
  0
VERTEX
  5
651
330
63C
100
AcDbEntity
  8
Sichtbar (ISO)
100
AcDbVertex
100
AcDb2dVertex
 10
772.4131248368749
 20
1047.209628264243
 30
0.0
  0
VERTEX
  5
652
330
63C
100
AcDbEntity
  8
Sichtbar (ISO)
100
AcDbVertex
100
AcDb2dVertex
 10
772.3948017463549
 20
1047.210174112073
 30
0.0
  0
VERTEX
  5
653
330
63C
100
AcDbEntity
  8
Sichtbar (ISO)
100
AcDbVertex
100
AcDb2dVertex
 10
772.3783298730477
 20
1047.211019198371
 30
0.0
  0
VERTEX
  5
654
330
63C
100
AcDbEntity
  8
Sichtbar (ISO)
100
AcDbVertex
100
AcDb2dVertex
 10
772.3638741730614
 20
1047.21203923573
 30
0.0
  0
VERTEX
  5
655
330
63C
100
AcDbEntity
  8
Sichtbar (ISO)
100
AcDbVertex
100
AcDb2dVertex
 10
772.3516006757496
 20
1047.213109884057
 30
0.0
  0
VERTEX
  5
656
330
63C
100
AcDbEntity
  8
Sichtbar (ISO)
100
AcDbVertex
100
AcDb2dVertex
 10
772.3416747540599
 20
1047.21410691824
 30
0.0
  0
SEQEND
  5
63F
330
63C
100
AcDbEntity
  8
Sichtbar (ISO)
  0
POLYLINE
  5
657
330
37
100
AcDbEntity
  8
Sichtbar (ISO)
100
AcDb2dPolyline
 66
     1
 10
0.0
 20
0.0
 30
0.0
 70
   128
  0
VERTEX
  5
658
330
657
100
AcDbEntity
  8
Sichtbar (ISO)
100
AcDbVertex
100
AcDb2dVertex
 10
772.8666303144956
 20
1047.483560454373
 30
0.0
  0
VERTEX
  5
659
330
657
100
AcDbEntity
  8
Sichtbar (ISO)
100
AcDbVertex
100
AcDb2dVertex
 10
772.866690924629
 20
1047.481657808171
 30
0.0
  0
VERTEX
  5
65B
330
657
100
AcDbEntity
  8
Sichtbar (ISO)
100
AcDbVertex
100
AcDb2dVertex
 10
772.8667331328603
 20
1047.479678688162
 30
0.0
  0
VERTEX
  5
65C
330
657
100
AcDbEntity
  8
Sichtbar (ISO)
100
AcDbVertex
100
AcDb2dVertex
 10
772.8667541889771
 20
1047.47762438794
 30
0.0
  0
VERTEX
  5
65D
330
657
100
AcDbEntity
  8
Sichtbar (ISO)
100
AcDbVertex
100
AcDb2dVertex
 10
772.8667516350177
 20
1047.47549709707
 30
0.0
  0
VERTEX
  5
65E
330
657
100
AcDbEntity
  8
Sichtbar (ISO)
100
AcDbVertex
100
AcDb2dVertex
 10
772.8667227207696
 20
1047.473298109149
 30
0.0
  0
VERTEX
  5
65F
330
657
100
AcDbEntity
  8
Sichtbar (ISO)
100
AcDbVertex
100
AcDb2dVertex
 10
772.8666649882714
 20
1047.47102961374
 30
0.0
  0
VERTEX
  5
660
330
657
100
AcDbEntity
  8
Sichtbar (ISO)
100
AcDbVertex
100
AcDb2dVertex
 10
772.8665756873103
 20
1047.46869290444
 30
0.0
  0
VERTEX
  5
661
330
657
100
AcDbEntity
  8
Sichtbar (ISO)
100
AcDbVertex
100
AcDb2dVertex
 10
772.8664526593004
 20
1047.46629458358
 30
0.0
  0
VERTEX
  5
662
330
657
100
AcDbEntity
  8
Sichtbar (ISO)
100
AcDbVertex
100
AcDb2dVertex
 10
772.8662948377878
 20
1047.463856758067
 30
0.0
  0
VERTEX
  5
663
330
657
100
AcDbEntity
  8
Sichtbar (ISO)
100
AcDbVertex
100
AcDb2dVertex
 10
772.8661007661534
 20
1047.461383471707
 30
0.0
  0
VERTEX
  5
664
330
657
100
AcDbEntity
  8
Sichtbar (ISO)
100
AcDbVertex
100
AcDb2dVertex
 10
772.8658689447031
 20
1047.458876204976
 30
0.0
  0
VERTEX
  5
665
330
657
100
AcDbEntity
  8
Sichtbar (ISO)
100
AcDbVertex
100
AcDb2dVertex
 10
772.8655979623789
 20
1047.456336558133
 30
0.0
  0
VERTEX
  5
666
330
657
100
AcDbEntity
  8
Sichtbar (ISO)
100
AcDbVertex
100
AcDb2dVertex
 10
772.865289562748
 20
1047.45378993453
 30
0.0
  0
VERTEX
  5
667
330
657
100
AcDbEntity
  8
Sichtbar (ISO)
100
AcDbVertex
100
AcDb2dVertex
 10
772.8649503736554
 20
1047.451285372943
 30
0.0
  0
VERTEX
  5
668
330
657
100
AcDbEntity
  8
Sichtbar (ISO)
100
AcDbVertex
100
AcDb2dVertex
 10
772.8645822828073
 20
1047.448825925447
 30
0.0
  0
VERTEX
  5
669
330
657
100
AcDbEntity
  8
Sichtbar (ISO)
100
AcDbVertex
100
AcDb2dVertex
 10
772.8641873121069
 20
1047.446412320351
 30
0.0
  0
VERTEX
  5
66A
330
657
100
AcDbEntity
  8
Sichtbar (ISO)
100
AcDbVertex
100
AcDb2dVertex
 10
772.8637675265331
 20
1047.444047849295
 30
0.0
  0
VERTEX
  5
66B
330
657
100
AcDbEntity
  8
Sichtbar (ISO)
100
AcDbVertex
100
AcDb2dVertex
 10
772.8633288860944
 20
1047.441751088145
 30
0.0
  0
VERTEX
  5
66C
330
657
100
AcDbEntity
  8
Sichtbar (ISO)
100
AcDbVertex
100
AcDb2dVertex
 10
772.8628748116574
 20
1047.439527661913
 30
0.0
  0
VERTEX
  5
66D
330
657
100
AcDbEntity
  8
Sichtbar (ISO)
100
AcDbVertex
100
AcDb2dVertex
 10
772.8624084247136
 20
1047.437378782848
 30
0.0
  0
VERTEX
  5
66E
330
657
100
AcDbEntity
  8
Sichtbar (ISO)
100
AcDbVertex
100
AcDb2dVertex
 10
772.8619323412786
 20
1047.435305481118
 30
0.0
  0
VERTEX
  5
66F
330
657
100
AcDbEntity
  8
Sichtbar (ISO)
100
AcDbVertex
100
AcDb2dVertex
 10
772.861449594207
 20
1047.43330884919
 30
0.0
  0
VERTEX
  5
670
330
657
100
AcDbEntity
  8
Sichtbar (ISO)
100
AcDbVertex
100
AcDb2dVertex
 10
772.8609632163546
 20
1047.431389979526
 30
0.0
  0
VERTEX
  5
671
330
657
100
AcDbEntity
  8
Sichtbar (ISO)
100
AcDbVertex
100
AcDb2dVertex
 10
772.8604761519392
 20
1047.429549844807
 30
0.0
  0
SEQEND
  5
65A
330
657
100
AcDbEntity
  8
Sichtbar (ISO)
  0
POLYLINE
  5
672
330
37
100
AcDbEntity
  8
Sichtbar (ISO)
100
AcDb2dPolyline
 66
     1
 10
0.0
 20
0.0
 30
0.0
 70
   128
  0
VERTEX
  5
673
330
672
100
AcDbEntity
  8
Sichtbar (ISO)
100
AcDbVertex
100
AcDb2dVertex
 10
772.4095945059977
 20
1047.810193194442
 30
0.0
  0
VERTEX
  5
674
330
672
100
AcDbEntity
  8
Sichtbar (ISO)
100
AcDbVertex
100
AcDb2dVertex
 10
772.4183420852969
 20
1047.80912585599
 30
0.0
  0
VERTEX
  5
676
330
672
100
AcDbEntity
  8
Sichtbar (ISO)
100
AcDbVertex
100
AcDb2dVertex
 10
772.4291649163196
 20
1047.807719093166
 30
0.0
  0
VERTEX
  5
677
330
672
100
AcDbEntity
  8
Sichtbar (ISO)
100
AcDbVertex
100
AcDb2dVertex
 10
772.4420196116489
 20
1047.805842625743
 30
0.0
  0
VERTEX
  5
678
330
672
100
AcDbEntity
  8
Sichtbar (ISO)
100
AcDbVertex
100
AcDb2dVertex
 10
772.4568623406869
 20
1047.803365574573
 30
0.0
  0
VERTEX
  5
679
330
672
100
AcDbEntity
  8
Sichtbar (ISO)
100
AcDbVertex
100
AcDb2dVertex
 10
772.4736496273806
 20
1047.800157539644
 30
0.0
  0
VERTEX
  5
67A
330
672
100
AcDbEntity
  8
Sichtbar (ISO)
100
AcDbVertex
100
AcDb2dVertex
 10
772.4923375788375
 20
1047.796088058648
 30
0.0
  0
VERTEX
  5
67B
330
672
100
AcDbEntity
  8
Sichtbar (ISO)
100
AcDbVertex
100
AcDb2dVertex
 10
772.512882390802
 20
1047.791026789062
 30
0.0
  0
VERTEX
  5
67C
330
672
100
AcDbEntity
  8
Sichtbar (ISO)
100
AcDbVertex
100
AcDb2dVertex
 10
772.5352405608783
 20
1047.78484279425
 30
0.0
  0
VERTEX
  5
67D
330
672
100
AcDbEntity
  8
Sichtbar (ISO)
100
AcDbVertex
100
AcDb2dVertex
 10
772.5593683734473
 20
1047.777405851473
 30
0.0
  0
VERTEX
  5
67E
330
672
100
AcDbEntity
  8
Sichtbar (ISO)
100
AcDbVertex
100
AcDb2dVertex
 10
772.5848260179733
 20
1047.768615609258
 30
0.0
  0
VERTEX
  5
67F
330
672
100
AcDbEntity
  8
Sichtbar (ISO)
100
AcDbVertex
100
AcDb2dVertex
 10
772.6106636606101
 20
1047.758488115719
 30
0.0
  0
VERTEX
  5
680
330
672
100
AcDbEntity
  8
Sichtbar (ISO)
100
AcDbVertex
100
AcDb2dVertex
 10
772.6366020104617
 20
1047.747052266797
 30
0.0
  0
VERTEX
  5
681
330
672
100
AcDbEntity
  8
Sichtbar (ISO)
100
AcDbVertex
100
AcDb2dVertex
 10
772.6623829396842
 20
1047.734336498852
 30
0.0
  0
VERTEX
  5
682
330
672
100
AcDbEntity
  8
Sichtbar (ISO)
100
AcDbVertex
100
AcDb2dVertex
 10
772.6877482940917
 20
1047.720368711622
 30
0.0
  0
VERTEX
  5
683
330
672
100
AcDbEntity
  8
Sichtbar (ISO)
100
AcDbVertex
100
AcDb2dVertex
 10
772.7124397062737
 20
1047.70517751874
 30
0.0
  0
VERTEX
  5
684
330
672
100
AcDbEntity
  8
Sichtbar (ISO)
100
AcDbVertex
100
AcDb2dVertex
 10
772.7361986938409
 20
1047.688790877431
 30
0.0
  0
VERTEX
  5
685
330
672
100
AcDbEntity
  8
Sichtbar (ISO)
100
AcDbVertex
100
AcDb2dVertex
 10
772.7587673685166
 20
1047.671237046782
 30
0.0
  0
VERTEX
  5
686
330
672
100
AcDbEntity
  8
Sichtbar (ISO)
100
AcDbVertex
100
AcDb2dVertex
 10
772.7798874251841
 20
1047.652544223587
 30
0.0
  0
VERTEX
  5
687
330
672
100
AcDbEntity
  8
Sichtbar (ISO)
100
AcDbVertex
100
AcDb2dVertex
 10
772.7993003191604
 20
1047.632740781912
 30
0.0
  0
VERTEX
  5
688
330
672
100
AcDbEntity
  8
Sichtbar (ISO)
100
AcDbVertex
100
AcDb2dVertex
 10
772.8167477453292
 20
1047.61185491855
 30
0.0
  0
VERTEX
  5
689
330
672
100
AcDbEntity
  8
Sichtbar (ISO)
100
AcDbVertex
100
AcDb2dVertex
 10
772.8319716381404
 20
1047.58991465302
 30
0.0
  0
VERTEX
  5
68A
330
672
100
AcDbEntity
  8
Sichtbar (ISO)
100
AcDbVertex
100
AcDb2dVertex
 10
772.8457206137027
 20
1047.564961097137
 30
0.0
  0
VERTEX
  5
68B
330
672
100
AcDbEntity
  8
Sichtbar (ISO)
100
AcDbVertex
100
AcDb2dVertex
 10
772.8584293204829
 20
1047.53225224666
 30
0.0
  0
VERTEX
  5
68C
330
672
100
AcDbEntity
  8
Sichtbar (ISO)
100
AcDbVertex
100
AcDb2dVertex
 10
772.8666303144956
 20
1047.483560454373
 30
0.0
  0
SEQEND
  5
675
330
672
100
AcDbEntity
  8
Sichtbar (ISO)
  0
POLYLINE
  5
68D
330
37
100
AcDbEntity
  8
Sichtbar (ISO)
100
AcDb2dPolyline
 66
     1
 10
0.0
 20
0.0
 30
0.0
 70
   128
  0
VERTEX
  5
68E
330
68D
100
AcDbEntity
  8
Sichtbar (ISO)
100
AcDbVertex
100
AcDb2dVertex
 10
773.7011034248397
 20
1049.601948742894
 30
0.0
  0
VERTEX
  5
68F
330
68D
100
AcDbEntity
  8
Sichtbar (ISO)
100
AcDbVertex
100
AcDb2dVertex
 10
773.6430451487371
 20
1049.562110585386
 30
0.0
  0
VERTEX
  5
691
330
68D
100
AcDbEntity
  8
Sichtbar (ISO)
100
AcDbVertex
100
AcDb2dVertex
 10
773.5954348608703
 20
1049.545704387429
 30
0.0
  0
VERTEX
  5
692
330
68D
100
AcDbEntity
  8
Sichtbar (ISO)
100
AcDbVertex
100
AcDb2dVertex
 10
773.5535998763538
 20
1049.538784381454
 30
0.0
  0
VERTEX
  5
693
330
68D
100
AcDbEntity
  8
Sichtbar (ISO)
100
AcDbVertex
100
AcDb2dVertex
 10
773.5226826074006
 20
1049.537133718486
 30
0.0
  0
VERTEX
  5
694
330
68D
100
AcDbEntity
  8
Sichtbar (ISO)
100
AcDbVertex
100
AcDb2dVertex
 10
773.4970257568225
 20
1049.537583261516
 30
0.0
  0
VERTEX
  5
695
330
68D
100
AcDbEntity
  8
Sichtbar (ISO)
100
AcDbVertex
100
AcDb2dVertex
 10
773.4713246509661
 20
1049.539592807481
 30
0.0
  0
VERTEX
  5
696
330
68D
100
AcDbEntity
  8
Sichtbar (ISO)
100
AcDbVertex
100
AcDb2dVertex
 10
773.4457016628515
 20
1049.543025113213
 30
0.0
  0
VERTEX
  5
697
330
68D
100
AcDbEntity
  8
Sichtbar (ISO)
100
AcDbVertex
100
AcDb2dVertex
 10
773.4202801348453
 20
1049.547742241424
 30
0.0
  0
VERTEX
  5
698
330
68D
100
AcDbEntity
  8
Sichtbar (ISO)
100
AcDbVertex
100
AcDb2dVertex
 10
773.395182908021
 20
1049.553606579429
 30
0.0
  0
VERTEX
  5
699
330
68D
100
AcDbEntity
  8
Sichtbar (ISO)
100
AcDbVertex
100
AcDb2dVertex
 10
773.3705330962584
 20
1049.560480382185
 30
0.0
  0
VERTEX
  5
69A
330
68D
100
AcDbEntity
  8
Sichtbar (ISO)
100
AcDbVertex
100
AcDb2dVertex
 10
773.346453061498
 20
1049.568226391551
 30
0.0
  0
VERTEX
  5
69B
330
68D
100
AcDbEntity
  8
Sichtbar (ISO)
100
AcDbVertex
100
AcDb2dVertex
 10
773.3230663856727
 20
1049.576706492968
 30
0.0
  0
VERTEX
  5
69C
330
68D
100
AcDbEntity
  8
Sichtbar (ISO)
100
AcDbVertex
100
AcDb2dVertex
 10
773.3004956924491
 20
1049.585783280968
 30
0.0
  0
VERTEX
  5
69D
330
68D
100
AcDbEntity
  8
Sichtbar (ISO)
100
AcDbVertex
100
AcDb2dVertex
 10
773.2788638229011
 20
1049.595319142863
 30
0.0
  0
VERTEX
  5
69E
330
68D
100
AcDbEntity
  8
Sichtbar (ISO)
100
AcDbVertex
100
AcDb2dVertex
 10
773.2582938798286
 20
1049.60517631864
 30
0.0
  0
VERTEX
  5
69F
330
68D
100
AcDbEntity
  8
Sichtbar (ISO)
100
AcDbVertex
100
AcDb2dVertex
 10
773.2389826455166
 20
1049.615154788234
 30
0.0
  0
VERTEX
  5
6A0
330
68D
100
AcDbEntity
  8
Sichtbar (ISO)
100
AcDbVertex
100
AcDb2dVertex
 10
773.2213788122419
 20
1049.624807763477
 30
0.0
  0
VERTEX
  5
6A1
330
68D
100
AcDbEntity
  8
Sichtbar (ISO)
100
AcDbVertex
100
AcDb2dVertex
 10
773.205502412328
 20
1049.634000485436
 30
0.0
  0
VERTEX
  5
6A2
330
68D
100
AcDbEntity
  8
Sichtbar (ISO)
100
AcDbVertex
100
AcDb2dVertex
 10
773.1913097383126
 20
1049.642648836574
 30
0.0
  0
VERTEX
  5
6A3
330
68D
100
AcDbEntity
  8
Sichtbar (ISO)
100
AcDbVertex
100
AcDb2dVertex
 10
773.1787575729466
 20
1049.650668359784
 30
0.0
  0
VERTEX
  5
6A4
330
68D
100
AcDbEntity
  8
Sichtbar (ISO)
100
AcDbVertex
100
AcDb2dVertex
 10
773.1678026657426
 20
1049.657974553038
 30
0.0
  0
VERTEX
  5
6A5
330
68D
100
AcDbEntity
  8
Sichtbar (ISO)
100
AcDbVertex
100
AcDb2dVertex
 10
773.1584013203175
 20
1049.664483313772
 30
0.0
  0
VERTEX
  5
6A6
330
68D
100
AcDbEntity
  8
Sichtbar (ISO)
100
AcDbVertex
100
AcDb2dVertex
 10
773.1505105257505
 20
1049.670109962685
 30
0.0
  0
VERTEX
  5
6A7
330
68D
100
AcDbEntity
  8
Sichtbar (ISO)
100
AcDbVertex
100
AcDb2dVertex
 10
773.1440868252259
 20
1049.674770219944
 30
0.0
  0
SEQEND
  5
690
330
68D
100
AcDbEntity
  8
Sichtbar (ISO)
  0
POLYLINE
  5
6A8
330
37
100
AcDbEntity
  8
Sichtbar (ISO)
100
AcDb2dPolyline
 66
     1
 10
0.0
 20
0.0
 30
0.0
 70
   128
  0
VERTEX
  5
6A9
330
6A8
100
AcDbEntity
  8
Sichtbar (ISO)
100
AcDbVertex
100
AcDb2dVertex
 10
773.7334383391644
 20
1049.645646210575
 30
0.0
  0
VERTEX
  5
6AA
330
6A8
100
AcDbEntity
  8
Sichtbar (ISO)
100
AcDbVertex
100
AcDb2dVertex
 10
773.7325383171326
 20
1049.643965971065
 30
0.0
  0
VERTEX
  5
6AC
330
6A8
100
AcDbEntity
  8
Sichtbar (ISO)
100
AcDbVertex
100
AcDb2dVertex
 10
773.73158402147
 20
1049.642228418821
 30
0.0
  0
VERTEX
  5
6AD
330
6A8
100
AcDbEntity
  8
Sichtbar (ISO)
100
AcDbVertex
100
AcDb2dVertex
 10
773.7305736562178
 20
1049.64043663804
 30
0.0
  0
VERTEX
  5
6AE
330
6A8
100
AcDbEntity
  8
Sichtbar (ISO)
100
AcDbVertex
100
AcDb2dVertex
 10
773.7295061461956
 20
1049.638593183912
 30
0.0
  0
VERTEX
  5
6AF
330
6A8
100
AcDbEntity
  8
Sichtbar (ISO)
100
AcDbVertex
100
AcDb2dVertex
 10
773.7283801731932
 20
1049.636700784218
 30
0.0
  0
VERTEX
  5
6B0
330
6A8
100
AcDbEntity
  8
Sichtbar (ISO)
100
AcDbVertex
100
AcDb2dVertex
 10
773.7271939447146
 20
1049.634762527835
 30
0.0
  0
VERTEX
  5
6B1
330
6A8
100
AcDbEntity
  8
Sichtbar (ISO)
100
AcDbVertex
100
AcDb2dVertex
 10
773.7259463828092
 20
1049.632780966208
 30
0.0
  0
VERTEX
  5
6B2
330
6A8
100
AcDbEntity
  8
Sichtbar (ISO)
100
AcDbVertex
100
AcDb2dVertex
 10
773.7246420255565
 20
1049.630767743369
 30
0.0
  0
VERTEX
  5
6B3
330
6A8
100
AcDbEntity
  8
Sichtbar (ISO)
100
AcDbVertex
100
AcDb2dVertex
 10
773.7232864113113
 20
1049.628735855121
 30
0.0
  0
VERTEX
  5
6B4
330
6A8
100
AcDbEntity
  8
Sichtbar (ISO)
100
AcDbVertex
100
AcDb2dVertex
 10
773.7218788941683
 20
1049.626687434729
 30
0.0
  0
VERTEX
  5
6B5
330
6A8
100
AcDbEntity
  8
Sichtbar (ISO)
100
AcDbVertex
100
AcDb2dVertex
 10
773.7204188185277
 20
1049.624624602357
 30
0.0
  0
VERTEX
  5
6B6
330
6A8
100
AcDbEntity
  8
Sichtbar (ISO)
100
AcDbVertex
100
AcDb2dVertex
 10
773.718906021053
 20
1049.622550143412
 30
0.0
  0
VERTEX
  5
6B7
330
6A8
100
AcDbEntity
  8
Sichtbar (ISO)
100
AcDbVertex
100
AcDb2dVertex
 10
773.717368236291
 20
1049.620503542511
 30
0.0
  0
VERTEX
  5
6B8
330
6A8
100
AcDbEntity
  8
Sichtbar (ISO)
100
AcDbVertex
100
AcDb2dVertex
 10
773.7158235567463
 20
1049.618506744784
 30
0.0
  0
VERTEX
  5
6B9
330
6A8
100
AcDbEntity
  8
Sichtbar (ISO)
100
AcDbVertex
100
AcDb2dVertex
 10
773.7142736941791
 20
1049.616560059411
 30
0.0
  0
VERTEX
  5
6BA
330
6A8
100
AcDbEntity
  8
Sichtbar (ISO)
100
AcDbVertex
100
AcDb2dVertex
 10
773.7127208387065
 20
1049.614663439978
 30
0.0
  0
VERTEX
  5
6BB
330
6A8
100
AcDbEntity
  8
Sichtbar (ISO)
100
AcDbVertex
100
AcDb2dVertex
 10
773.7111721409087
 20
1049.612822541606
 30
0.0
  0
VERTEX
  5
6BC
330
6A8
100
AcDbEntity
  8
Sichtbar (ISO)
100
AcDbVertex
100
AcDb2dVertex
 10
773.709645119313
 20
1049.611055527605
 30
0.0
  0
VERTEX
  5
6BD
330
6A8
100
AcDbEntity
  8
Sichtbar (ISO)
100
AcDbVertex
100
AcDb2dVertex
 10
773.7081446624276
 20
1049.60936299203
 30
0.0
  0
VERTEX
  5
6BE
330
6A8
100
AcDbEntity
  8
Sichtbar (ISO)
100
AcDbVertex
100
AcDb2dVertex
 10
773.7066741575389
 20
1049.607744502232
 30
0.0
  0
VERTEX
  5
6BF
330
6A8
100
AcDbEntity
  8
Sichtbar (ISO)
100
AcDbVertex
100
AcDb2dVertex
 10
773.7052333011454
 20
1049.60619614089
 30
0.0
  0
VERTEX
  5
6C0
330
6A8
100
AcDbEntity
  8
Sichtbar (ISO)
100
AcDbVertex
100
AcDb2dVertex
 10
773.7038227910024
 20
1049.604714341741
 30
0.0
  0
VERTEX
  5
6C1
330
6A8
100
AcDbEntity
  8
Sichtbar (ISO)
100
AcDbVertex
100
AcDb2dVertex
 10
773.702445279741
 20
1049.603298681365
 30
0.0
  0
VERTEX
  5
6C2
330
6A8
100
AcDbEntity
  8
Sichtbar (ISO)
100
AcDbVertex
100
AcDb2dVertex
 10
773.7011034234548
 20
1049.601948741022
 30
0.0
  0
SEQEND
  5
6AB
330
6A8
100
AcDbEntity
  8
Sichtbar (ISO)
  0
POLYLINE
  5
6C3
330
37
100
AcDbEntity
  8
Sichtbar (ISO)
100
AcDb2dPolyline
 66
     1
 10
0.0
 20
0.0
 30
0.0
 70
   128
  0
VERTEX
  5
6C4
330
6C3
100
AcDbEntity
  8
Sichtbar (ISO)
100
AcDbVertex
100
AcDb2dVertex
 10
773.5009503184829
 20
1050.157036256172
 30
0.0
  0
VERTEX
  5
6C5
330
6C3
100
AcDbEntity
  8
Sichtbar (ISO)
100
AcDbVertex
100
AcDb2dVertex
 10
773.5074653851025
 20
1050.152133723939
 30
0.0
  0
VERTEX
  5
6C7
330
6C3
100
AcDbEntity
  8
Sichtbar (ISO)
100
AcDbVertex
100
AcDb2dVertex
 10
773.5154025651326
 20
1050.146074247998
 30
0.0
  0
VERTEX
  5
6C8
330
6C3
100
AcDbEntity
  8
Sichtbar (ISO)
100
AcDbVertex
100
AcDb2dVertex
 10
773.5246792571794
 20
1050.138784278461
 30
0.0
  0
VERTEX
  5
6C9
330
6C3
100
AcDbEntity
  8
Sichtbar (ISO)
100
AcDbVertex
100
AcDb2dVertex
 10
773.5352130772576
 20
1050.130190058224
 30
0.0
  0
VERTEX
  5
6CA
330
6C3
100
AcDbEntity
  8
Sichtbar (ISO)
100
AcDbVertex
100
AcDb2dVertex
 10
773.5469219252657
 20
1050.120217712798
 30
0.0
  0
VERTEX
  5
6CB
330
6C3
100
AcDbEntity
  8
Sichtbar (ISO)
100
AcDbVertex
100
AcDb2dVertex
 10
773.5597234061389
 20
1050.108793470107
 30
0.0
  0
VERTEX
  5
6CC
330
6C3
100
AcDbEntity
  8
Sichtbar (ISO)
100
AcDbVertex
100
AcDb2dVertex
 10
773.5735349406426
 20
1050.095843810209
 30
0.0
  0
VERTEX
  5
6CD
330
6C3
100
AcDbEntity
  8
Sichtbar (ISO)
100
AcDbVertex
100
AcDb2dVertex
 10
773.5882743954374
 20
1050.081294813698
 30
0.0
  0
VERTEX
  5
6CE
330
6C3
100
AcDbEntity
  8
Sichtbar (ISO)
100
AcDbVertex
100
AcDb2dVertex
 10
773.603859397617
 20
1050.065072738442
 30
0.0
  0
VERTEX
  5
6CF
330
6C3
100
AcDbEntity
  8
Sichtbar (ISO)
100
AcDbVertex
100
AcDb2dVertex
 10
773.6201652042024
 20
1050.047135264501
 30
0.0
  0
VERTEX
  5
6D0
330
6C3
100
AcDbEntity
  8
Sichtbar (ISO)
100
AcDbVertex
100
AcDb2dVertex
 10
773.6365350556799
 20
1050.02786243571
 30
0.0
  0
VERTEX
  5
6D1
330
6C3
100
AcDbEntity
  8
Sichtbar (ISO)
100
AcDbVertex
100
AcDb2dVertex
 10
773.6526226064859
 20
1050.007463082992
 30
0.0
  0
VERTEX
  5
6D2
330
6C3
100
AcDbEntity
  8
Sichtbar (ISO)
100
AcDbVertex
100
AcDb2dVertex
 10
773.6682377961861
 20
1049.986037087172
 30
0.0
  0
VERTEX
  5
6D3
330
6C3
100
AcDbEntity
  8
Sichtbar (ISO)
100
AcDbVertex
100
AcDb2dVertex
 10
773.6831905532676
 20
1049.963684314096
 30
0.0
  0
VERTEX
  5
6D4
330
6C3
100
AcDbEntity
  8
Sichtbar (ISO)
100
AcDbVertex
100
AcDb2dVertex
 10
773.6972908062164
 20
1049.940504629615
 30
0.0
  0
VERTEX
  5
6D5
330
6C3
100
AcDbEntity
  8
Sichtbar (ISO)
100
AcDbVertex
100
AcDb2dVertex
 10
773.7103487341656
 20
1049.916597737277
 30
0.0
  0
VERTEX
  5
6D6
330
6C3
100
AcDbEntity
  8
Sichtbar (ISO)
100
AcDbVertex
100
AcDb2dVertex
 10
773.7221742656015
 20
1049.892063502929
 30
0.0
  0
VERTEX
  5
6D7
330
6C3
100
AcDbEntity
  8
Sichtbar (ISO)
100
AcDbVertex
100
AcDb2dVertex
 10
773.7325773290109
 20
1049.867001792422
 30
0.0
  0
VERTEX
  5
6D8
330
6C3
100
AcDbEntity
  8
Sichtbar (ISO)
100
AcDbVertex
100
AcDb2dVertex
 10
773.7413681035264
 20
1049.841512309305
 30
0.0
  0
VERTEX
  5
6D9
330
6C3
100
AcDbEntity
  8
Sichtbar (ISO)
100
AcDbVertex
100
AcDb2dVertex
 10
773.7483584213911
 20
1049.815687972714
 30
0.0
  0
VERTEX
  5
6DA
330
6C3
100
AcDbEntity
  8
Sichtbar (ISO)
100
AcDbVertex
100
AcDb2dVertex
 10
773.7540382488039
 20
1049.785281893785
 30
0.0
  0
VERTEX
  5
6DB
330
6C3
100
AcDbEntity
  8
Sichtbar (ISO)
100
AcDbVertex
100
AcDb2dVertex
 10
773.7567876880277
 20
1049.748003231676
 30
0.0
  0
VERTEX
  5
6DC
330
6C3
100
AcDbEntity
  8
Sichtbar (ISO)
100
AcDbVertex
100
AcDb2dVertex
 10
773.7534438710905
 20
1049.705534351015
 30
0.0
  0
VERTEX
  5
6DD
330
6C3
100
AcDbEntity
  8
Sichtbar (ISO)
100
AcDbVertex
100
AcDb2dVertex
 10
773.7334383377794
 20
1049.645646208703
 30
0.0
  0
SEQEND
  5
6C6
330
6C3
100
AcDbEntity
  8
Sichtbar (ISO)
  0
ARC
  5
6DE
330
37
100
AcDbEntity
  8
Sichtbar (ISO)
100
AcDbCircle
 10
777.3345414151962
 20
1046.947117589996
 30
0.0
 40
5.000000000000115
100
AcDbArc
 50
140.0600976936428
 51
146.9390734000778
  0
ARC
  5
6DF
330
37
100
AcDbEntity
  8
Sichtbar (ISO)
100
AcDbCircle
 10
777.3345414151961
 20
1046.947117589996
 30
0.0
 40
4.999999999999997
100
AcDbArc
 50
146.9390734000789
 51
170.0600976936429
  0
ARC
  5
6E0
330
37
100
AcDbEntity
  8
Sichtbar (ISO)
100
AcDbCircle
 10
777.3345414151961
 20
1046.947117589996
 30
0.0
 40
4.999999999999987
100
AcDbArc
 50
176.9390734000793
 51
200.060097693644
  0
ARC
  5
6E1
330
37
100
AcDbEntity
  8
Sichtbar (ISO)
100
AcDbCircle
 10
777.3345414151961
 20
1046.947117589996
 30
0.0
 40
4.999999999999999
100
AcDbArc
 50
206.9390734000794
 51
230.060097693643
  0
ARC
  5
6E2
330
37
100
AcDbEntity
  8
Sichtbar (ISO)
100
AcDbCircle
 10
777.3345414151961
 20
1046.947117589996
 30
0.0
 40
5.000000000000005
100
AcDbArc
 50
236.9390734000801
 51
260.0600976936439
  0
ARC
  5
6E3
330
37
100
AcDbEntity
  8
Sichtbar (ISO)
100
AcDbCircle
 10
777.3345414151961
 20
1046.947117589996
 30
0.0
 40
4.999999999999987
100
AcDbArc
 50
266.9390734000773
 51
290.0600976936431
  0
ARC
  5
6E4
330
37
100
AcDbEntity
  8
Sichtbar (ISO)
100
AcDbCircle
 10
777.3345414151961
 20
1046.947117589996
 30
0.0
 40
5.000000000000019
100
AcDbArc
 50
296.939073400078
 51
320.0600976936437
  0
ARC
  5
6E5
330
37
100
AcDbEntity
  8
Sichtbar (ISO)
100
AcDbCircle
 10
777.3345414151961
 20
1046.947117589996
 30
0.0
 40
5.0
100
AcDbArc
 50
326.9390734000789
 51
350.0600976936429
  0
ARC
  5
6E6
330
37
100
AcDbEntity
  8
Sichtbar (ISO)
100
AcDbCircle
 10
777.3345414151961
 20
1046.947117589996
 30
0.0
 40
4.999999999999984
100
AcDbArc
 50
356.9390734000793
 51
20.06009769364398
  0
ARC
  5
6E7
330
37
100
AcDbEntity
  8
Sichtbar (ISO)
100
AcDbCircle
 10
777.3345414151961
 20
1046.947117589996
 30
0.0
 40
5.000000000000015
100
AcDbArc
 50
26.93907340007936
 51
50.06009769364305
  0
ARC
  5
6E8
330
37
100
AcDbEntity
  8
Sichtbar (ISO)
100
AcDbCircle
 10
777.3345414151961
 20
1046.947117589996
 30
0.0
 40
5.000000000000013
100
AcDbArc
 50
56.93907340007811
 51
80.06009769364295
  0
ARC
  5
6E9
330
37
100
AcDbEntity
  8
Sichtbar (ISO)
100
AcDbCircle
 10
777.3345414151961
 20
1046.947117589996
 30
0.0
 40
4.999999999999983
100
AcDbArc
 50
86.93907340007729
 51
110.060097693643
  0
CIRCLE
  5
6EA
330
37
100
AcDbEntity
  8
Sichtbar (ISO)
100
AcDbCircle
 10
777.3345414151942
 20
1046.947117589996
 30
0.0
 40
1.950991055577678
  0
CIRCLE
  5
6EB
330
37
100
AcDbEntity
  8
Sichtbar (ISO)
100
AcDbCircle
 10
777.3345414151941
 20
1046.947117589996
 30
0.0
 40
2.950991055577679
  0
ARC
  5
6EC
330
37
100
AcDbEntity
  8
Sichtbar (ISO)
100
AcDbCircle
 10
777.3345414151961
 20
1046.947117589996
 30
0.0
 40
4.999999999999991
100
AcDbArc
 50
116.939073400078
 51
140.0600976936437
  0
CIRCLE
  5
6ED
330
37
100
AcDbEntity
  8
Sichtbar (ISO)
100
AcDbCircle
 10
777.3345414151961
 20
1046.947117589996
 30
0.0
 40
5.423717232582464
  0
CIRCLE
  5
6EE
330
37
100
AcDbEntity
  8
Sichtbar (ISO)
100
AcDbCircle
 10
777.334541415199
 20
1046.947117589996
 30
0.0
 40
5.800000000000001
  0
LINE
  5
6EF
330
37
100
AcDbEntity
  8
Sichtbar (ISO)
100
AcDbLine
 10
777.3190493017965
 20
1054.452654860756
 30
0.0
 11
783.8267813646869
 21
1050.71330289471
 31
0.0
  0
LINE
  5
6F0
330
37
100
AcDbEntity
  8
Sichtbar (ISO)
100
AcDbLine
 10
770.8268093523087
 20
1050.686469556043
 30
0.0
 11
777.3190493017965
 21
1054.452654860756
 31
0.0
  0
LINE
  5
6F1
330
37
100
AcDbEntity
  8
Sichtbar (ISO)
100
AcDbLine
 10
770.8423014657114
 20
1043.180932285282
 30
0.0
 11
770.8268093523087
 21
1050.686469556043
 31
0.0
  0
LINE
  5
6F2
330
37
100
AcDbEntity
  8
Sichtbar (ISO)
100
AcDbLine
 10
777.350033528602
 20
1039.441580319236
 30
0.0
 11
770.8423014657114
 21
1043.180932285282
 31
0.0
  0
LINE
  5
6F3
330
37
100
AcDbEntity
  8
Sichtbar (ISO)
100
AcDbLine
 10
783.8422734780897
 20
1043.207765623949
 30
0.0
 11
777.350033528602
 21
1039.441580319236
 31
0.0
  0
LINE
  5
6F4
330
37
100
AcDbEntity
  8
Sichtbar (ISO)
100
AcDbLine
 10
783.8267813646869
 20
1050.71330289471
 30
0.0
 11
783.8422734780897
 21
1043.207765623949
 31
0.0
  0
LINE
  5
6F5
330
37
100
AcDbEntity
  8
Sichtbar (ISO)
100
AcDbLine
 10
790.6845414152379
 20
857.0816473879327
 30
0.0
 11
763.984541415238
 21
857.0816473879327
 31
0.0
  0
LINE
  5
6F6
330
37
100
AcDbEntity
  8
Sichtbar (ISO)
100
AcDbLine
 10
763.305038661282
 20
857.153485226447
 30
0.0
 11
791.3640441691939
 21
857.153485226447
 31
0.0
  0
ARC
  5
6F7
330
37
100
AcDbEntity
  8
Sichtbar (ISO)
100
AcDbCircle
 10
764.0637943871868
 20
861.0808621816687
 30
0.0
 40
3.999999999999962
100
AcDbArc
 50
259.0653688427409
 51
268.8647105110253
  0
ARC
  5
6F8
330
37
100
AcDbEntity
  8
Sichtbar (ISO)
100
AcDbCircle
 10
790.6052884432892
 20
861.0808621816687
 30
0.0
 40
3.999999999999963
100
AcDbArc
 50
271.1352894889747
 51
280.9346311572602
  0
LINE
  5
6F9
330
37
100
AcDbEntity
  8
Sichtbar (ISO)
100
AcDbLine
 10
763.305038661282
 20
857.153485226447
 30
0.0
 11
760.0637943871868
 21
861.0808621816687
 31
0.0
  0
LINE
  5
6FA
330
37
100
AcDbEntity
  8
Sichtbar (ISO)
100
AcDbLine
 10
791.3640441691939
 20
857.153485226447
 30
0.0
 11
794.6052884432892
 21
861.0808621816687
 31
0.0
  0
CIRCLE
  5
6FB
330
37
100
AcDbEntity
  8
Sichtbar (ISO)
100
AcDbCircle
 10
777.3345414152262
 20
1046.947117589996
 30
0.0
 40
179.5972390380192
  0
CIRCLE
  5
6FC
330
37
100
AcDbEntity
  8
Sichtbar (ISO)
100
AcDbCircle
 10
777.3345414152267
 20
1046.947117589996
 30
0.0
 40
181.5179708567732
  0
LINE
  5
6FD
330
37
100
AcDbEntity
  8
Sichtbar (ISO)
100
AcDbLine
 10
253.3628508003957
 20
248.2245819346154
 30
0.0
 11
253.3628508003957
 21
611.4245819346153
 31
0.0
  0
LINE
  5
6FE
330
37
100
AcDbEntity
  8
Sichtbar (ISO)
100
AcDbLine
 10
261.3628508003957
 20
248.2245819346154
 30
0.0
 11
261.3628508003957
 21
611.4245819346153
 31
0.0
  0
ARC
  5
6FF
330
37
100
AcDbEntity
  8
Sichtbar (ISO)
100
AcDbCircle
 10
-278.395258369251
 20
429.8245819346154
 30
0.0
 40
652.0
100
AcDbArc
 50
347.1428570276888
 51
354.9295070209515
  0
ARC
  5
700
330
37
100
AcDbEntity
  8
Sichtbar (ISO)
100
AcDbCircle
 10
-278.395258369251
 20
429.8245819346154
 30
0.0
 40
652.0
100
AcDbArc
 50
5.070492979048398
 51
12.85714297231129
  0
ARC
  5
701
330
37
100
AcDbEntity
  8
Sichtbar (ISO)
100
AcDbCircle
 10
343.1628508004018
 20
374.674632474496
 30
0.0
 40
27.99999999999391
100
AcDbArc
 50
354.9295070209516
 51
0.0
  0
ARC
  5
702
330
37
100
AcDbEntity
  8
Sichtbar (ISO)
100
AcDbCircle
 10
343.1628508004018
 20
484.9745313947348
 30
0.0
 40
27.99999999999391
100
AcDbArc
 50
0.0
 51
5.070492979048398
  0
LINE
  5
703
330
37
100
AcDbEntity
  8
Sichtbar (ISO)
100
AcDbLine
 10
371.1628508003956
 20
444.824581934631
 30
0.0
 11
371.1628508003956
 21
484.9745313947348
 31
0.0
  0
LINE
  5
704
330
37
100
AcDbEntity
  8
Sichtbar (ISO)
100
AcDbLine
 10
371.1628508003956
 20
374.6746324744959
 30
0.0
 11
371.1628508003956
 21
414.824581934631
 31
0.0
  0
LINE
  5
705
330
37
100
AcDbEntity
  8
Sichtbar (ISO)
100
AcDbLine
 10
253.3628508003957
 20
611.4245819346153
 30
0.0
 11
261.3628508003957
 21
611.4245819346153
 31
0.0
  0
LINE
  5
706
330
37
100
AcDbEntity
  8
Sichtbar (ISO)
100
AcDbLine
 10
253.3628508003957
 20
248.2245819346154
 30
0.0
 11
261.3628508003957
 21
248.2245819346154
 31
0.0
  0
ARC
  5
707
330
37
100
AcDbEntity
  8
Sichtbar (ISO)
100
AcDbCircle
 10
256.3628508003956
 20
249.459305831489
 30
0.0
 40
360.0
100
AcDbArc
 50
80.17379881807972
 51
89.20419969799857
  0
ARC
  5
708
330
37
100
AcDbEntity
  8
Sichtbar (ISO)
100
AcDbCircle
 10
256.3628508003956
 20
610.1898580377418
 30
0.0
 40
360.0
100
AcDbArc
 50
270.7958003020014
 51
279.8262011819203
  0
ARC
  5
709
330
37
100
AcDbEntity
  8
Sichtbar (ISO)
100
AcDbCircle
 10
310.2230104196663
 20
306.9160124528092
 30
0.0
 40
52.0
100
AcDbArc
 50
278.3790176620017
 51
334.7579106646938
  0
ARC
  5
70A
330
37
100
AcDbEntity
  8
Sichtbar (ISO)
100
AcDbCircle
 10
310.2230104196663
 20
552.7331514164216
 30
0.0
 40
52.00000000000001
100
AcDbArc
 50
25.24208933530621
 51
81.62098233799836
  0
ARC
  5
70B
330
37
100
AcDbEntity
  8
Sichtbar (ISO)
100
AcDbCircle
 10
172.5628508019391
 20
374.7941799251674
 30
0.0
 40
28.00000000000002
100
AcDbArc
 50
180.0
 51
185.056670652204
  0
ARC
  5
70C
330
37
100
AcDbEntity
  8
Sichtbar (ISO)
100
AcDbCircle
 10
172.5628508019391
 20
484.8549839440633
 30
0.0
 40
28.00000000000003
100
AcDbArc
 50
174.943329347796
 51
180.0
  0
LINE
  5
70D
330
37
100
AcDbEntity
  8
Sichtbar (ISO)
100
AcDbLine
 10
144.5628508019391
 20
484.8549839440633
 30
0.0
 11
144.5628508019391
 21
374.7941799251673
 31
0.0
  0
ARC
  5
70E
330
37
100
AcDbEntity
  8
Sichtbar (ISO)
100
AcDbCircle
 10
794.1342465401911
 20
429.7941799251677
 30
0.0
 40
651.9999999999996
100
AcDbArc
 50
185.0566706522041
 51
191.8926013736531
  0
ARC
  5
70F
330
37
100
AcDbEntity
  8
Sichtbar (ISO)
100
AcDbCircle
 10
794.1342465401911
 20
429.8549839440632
 30
0.0
 40
651.9999999999996
100
AcDbArc
 50
168.1073986263469
 51
174.943329347796
  0
ARC
  5
710
330
37
100
AcDbEntity
  8
Sichtbar (ISO)
100
AcDbCircle
 10
207.0128840379473
 20
306.1474828665416
 30
0.0
 40
51.99999999999998
100
AcDbArc
 50
191.8926013736531
 51
260.8399162249298
  0
ARC
  5
711
330
37
100
AcDbEntity
  8
Sichtbar (ISO)
100
AcDbCircle
 10
207.0128840379473
 20
553.5016810026892
 30
0.0
 40
51.99999999999998
100
AcDbArc
 50
99.16008377507012
 51
168.1073986263468
  0
ARC
  5
712
330
37
100
AcDbEntity
  8
Sichtbar (ISO)
100
AcDbCircle
 10
256.3628508009114
 20
247.4549839440636
 30
0.0
 40
361.9999999999998
100
AcDbArc
 50
90.77555638722385
 51
99.16008377507013
  0
ARC
  5
713
330
37
100
AcDbEntity
  8
Sichtbar (ISO)
100
AcDbCircle
 10
256.3628508009114
 20
612.1941799251672
 30
0.0
 40
361.9999999999998
100
AcDbArc
 50
260.8399162249298
 51
269.2244436127761
  0
ELLIPSE
  5
714
330
37
100
AcDbEntity
  8
Sichtbar (ISO)
100
AcDbEllipse
 10
374.9518381942826
 20
429.8245819346635
 30
0.0
 11
-0.000000000000003
 21
-3.500000000000012
 31
0.0
210
0.0
220
0.0
230
1.0
 40
0.0697564737441211
 41
3.141592653711362
 42
6.283185307301155
  0
LINE
  5
715
330
37
100
AcDbEntity
  8
Sichtbar (ISO)
100
AcDbLine
 10
375.3792084035664
 20
426.3245819346617
 30
0.0
 11
374.9518381942826
 21
426.3245819346635
 31
0.0
  0
POLYLINE
  5
716
330
37
100
AcDbEntity
  8
Sichtbar (ISO)
100
AcDb2dPolyline
 66
     1
 10
0.0
 20
0.0
 30
0.0
 70
   128
  0
VERTEX
  5
717
330
716
100
AcDbEntity
  8
Sichtbar (ISO)
100
AcDbVertex
100
AcDb2dVertex
 10
375.8138791699064
 20
435.6689127223186
 30
0.0
  0
VERTEX
  5
718
330
716
100
AcDbEntity
  8
Sichtbar (ISO)
100
AcDbVertex
100
AcDb2dVertex
 10
375.8417001993774
 20
435.47684509918
 30
0.0
  0
VERTEX
  5
71A
330
716
100
AcDbEntity
  8
Sichtbar (ISO)
100
AcDbVertex
100
AcDb2dVertex
 10
375.8345043162205
 20
435.2106436030555
 30
0.0
  0
VERTEX
  5
71B
330
716
100
AcDbEntity
  8
Sichtbar (ISO)
100
AcDbVertex
100
AcDb2dVertex
 10
375.7969216642067
 20
434.8762305514501
 30
0.0
  0
VERTEX
  5
71C
330
716
100
AcDbEntity
  8
Sichtbar (ISO)
100
AcDbVertex
100
AcDb2dVertex
 10
375.7365383092215
 20
434.4854577319309
 30
0.0
  0
VERTEX
  5
71D
330
716
100
AcDbEntity
  8
Sichtbar (ISO)
100
AcDbVertex
100
AcDb2dVertex
 10
375.6610937224875
 20
434.050496412961
 30
0.0
  0
VERTEX
  5
71E
330
716
100
AcDbEntity
  8
Sichtbar (ISO)
100
AcDbVertex
100
AcDb2dVertex
 10
375.5749136793655
 20
433.563195063321
 30
0.0
  0
VERTEX
  5
71F
330
716
100
AcDbEntity
  8
Sichtbar (ISO)
100
AcDbVertex
100
AcDb2dVertex
 10
375.4833956525665
 20
433.0188973681609
 30
0.0
  0
VERTEX
  5
720
330
716
100
AcDbEntity
  8
Sichtbar (ISO)
100
AcDbVertex
100
AcDb2dVertex
 10
375.3945624558769
 20
432.4274261729399
 30
0.0
  0
VERTEX
  5
721
330
716
100
AcDbEntity
  8
Sichtbar (ISO)
100
AcDbVertex
100
AcDb2dVertex
 10
375.3166799133384
 20
431.7986818091551
 30
0.0
  0
VERTEX
  5
722
330
716
100
AcDbEntity
  8
Sichtbar (ISO)
100
AcDbVertex
100
AcDb2dVertex
 10
375.2570491253117
 20
431.1450954215207
 30
0.0
  0
VERTEX
  5
723
330
716
100
AcDbEntity
  8
Sichtbar (ISO)
100
AcDbVertex
100
AcDb2dVertex
 10
375.2190514091997
 20
430.4819269911923
 30
0.0
  0
VERTEX
  5
724
330
716
100
AcDbEntity
  8
Sichtbar (ISO)
100
AcDbVertex
100
AcDb2dVertex
 10
375.2057128697869
 20
429.8245819346584
 30
0.0
  0
VERTEX
  5
725
330
716
100
AcDbEntity
  8
Sichtbar (ISO)
100
AcDbVertex
100
AcDb2dVertex
 10
375.2190514091997
 20
429.1672368781247
 30
0.0
  0
VERTEX
  5
726
330
716
100
AcDbEntity
  8
Sichtbar (ISO)
100
AcDbVertex
100
AcDb2dVertex
 10
375.2570491253117
 20
428.5040684477963
 30
0.0
  0
VERTEX
  5
727
330
716
100
AcDbEntity
  8
Sichtbar (ISO)
100
AcDbVertex
100
AcDb2dVertex
 10
375.3166799133384
 20
427.8504820601621
 30
0.0
  0
VERTEX
  5
728
330
716
100
AcDbEntity
  8
Sichtbar (ISO)
100
AcDbVertex
100
AcDb2dVertex
 10
375.3945624558769
 20
427.2217376963774
 30
0.0
  0
VERTEX
  5
729
330
716
100
AcDbEntity
  8
Sichtbar (ISO)
100
AcDbVertex
100
AcDb2dVertex
 10
375.4833956525665
 20
426.6302665011566
 30
0.0
  0
VERTEX
  5
72A
330
716
100
AcDbEntity
  8
Sichtbar (ISO)
100
AcDbVertex
100
AcDb2dVertex
 10
375.5749136793655
 20
426.0859688059968
 30
0.0
  0
VERTEX
  5
72B
330
716
100
AcDbEntity
  8
Sichtbar (ISO)
100
AcDbVertex
100
AcDb2dVertex
 10
375.6610937224874
 20
425.598667456357
 30
0.0
  0
VERTEX
  5
72C
330
716
100
AcDbEntity
  8
Sichtbar (ISO)
100
AcDbVertex
100
AcDb2dVertex
 10
375.7365383092215
 20
425.1637061373874
 30
0.0
  0
VERTEX
  5
72D
330
716
100
AcDbEntity
  8
Sichtbar (ISO)
100
AcDbVertex
100
AcDb2dVertex
 10
375.7969216642067
 20
424.7729321257756
 30
0.0
  0
VERTEX
  5
72E
330
716
100
AcDbEntity
  8
Sichtbar (ISO)
100
AcDbVertex
100
AcDb2dVertex
 10
375.8345043162204
 20
424.4385202662635
 30
0.0
  0
VERTEX
  5
72F
330
716
100
AcDbEntity
  8
Sichtbar (ISO)
100
AcDbVertex
100
AcDb2dVertex
 10
375.8417001993774
 20
424.1723187701394
 30
0.0
  0
VERTEX
  5
730
330
716
100
AcDbEntity
  8
Sichtbar (ISO)
100
AcDbVertex
100
AcDb2dVertex
 10
375.8138791699064
 20
423.9802511470012
 30
0.0
  0
SEQEND
  5
719
330
716
100
AcDbEntity
  8
Sichtbar (ISO)
  0
ELLIPSE
  5
731
330
37
100
AcDbEntity
  8
Sichtbar (ISO)
100
AcDbEllipse
 10
375.719159405468
 20
429.8245819346602
 30
0.0
 11
-0.0000000000001194
 21
6.00000000000003
 31
0.0
210
0.0
220
0.0
230
1.0
 40
0.0697564737441211
 41
6.05489683904201
 42
7.231155048562224
  0
ELLIPSE
  5
732
330
37
100
AcDbEntity
  8
Sichtbar (ISO)
100
AcDbEllipse
 10
375.719159405468
 20
429.8245819346603
 30
0.0
 11
0.0000000000001194
 21
-6.000000000000023
 31
0.0
210
0.0
220
0.0
230
1.0
 40
0.0697564737441211
 41
5.335215565796429
 42
6.51147377531659
  0
LINE
  5
733
330
37
100
AcDbEntity
  8
Sichtbar (ISO)
100
AcDbLine
 10
374.9518381942826
 20
433.3245819346635
 30
0.0
 11
375.3792084035664
 21
433.3245819346617
 31
0.0
  0
LINE
  5
734
330
37
100
AcDbEntity
  8
Sichtbar (ISO)
100
AcDbLine
 10
375.8138792361792
 20
444.8245819346599
 30
0.0
 11
374.1430293068672
 21
444.824581934667
 31
0.0
  0
LINE
  5
735
330
37
100
AcDbEntity
  8
Sichtbar (ISO)
100
AcDbLine
 10
374.1430293068672
 20
414.8245819346669
 30
0.0
 11
375.8138792361792
 21
414.8245819346598
 31
0.0
  0
LINE
  5
736
330
37
100
AcDbEntity
  8
Sichtbar (ISO)
100
AcDbLine
 10
363.0596351728812
 20
414.8245819346548
 30
0.0
 11
371.3902064352891
 21
414.8245819346576
 31
0.0
  0
LINE
  5
737
330
37
100
AcDbEntity
  8
Sichtbar (ISO)
100
AcDbLine
 10
371.3902064352891
 20
444.8245819346578
 30
0.0
 11
363.0596351728812
 21
444.8245819346549
 31
0.0
  0
ELLIPSE
  5
738
330
37
100
AcDbEntity
  8
Sichtbar (ISO)
100
AcDbEllipse
 10
378.1955142233843
 20
429.8245819346497
 30
0.0
 11
0.0000000000011931
 21
-60.00000000000018
 31
0.0
210
0.0
220
0.0
230
1.0
 40
0.0697564737441211
 41
4.459708725242313
 42
4.965069235526468
  0
ELLIPSE
  5
739
330
37
100
AcDbEntity
  8
Sichtbar (ISO)
100
AcDbEllipse
 10
376.2003861228647
 20
429.8245819346497
 30
0.0
 11
-0.0000000000011949
 21
60.0
 31
0.0
210
0.0
220
0.0
230
1.0
 40
0.0697564737441211
 41
1.318116071652518
 42
1.823476581936676
  0
LINE
  5
73A
330
37
100
AcDbEntity
  8
Sichtbar (ISO)
100
AcDbLine
 10
374.1430293068672
 20
414.8245819346669
 30
0.0
 11
372.1479012063476
 21
414.8245819346668
 31
0.0
  0
LINE
  5
73B
330
37
100
AcDbEntity
  8
Sichtbar (ISO)
100
AcDbLine
 10
372.1479012063476
 20
444.824581934667
 30
0.0
 11
374.1430293068672
 21
444.824581934667
 31
0.0
  0
LINE
  5
73C
330
37
100
AcDbEntity
  8
Sichtbar (ISO)
100
AcDbLine
 10
361.3426022344406
 20
444.8245819346535
 30
0.0
 11
363.0596351728812
 21
444.8245819346548
 31
0.0
  0
LINE
  5
73D
330
37
100
AcDbEntity
  8
Sichtbar (ISO)
100
AcDbLine
 10
363.0596351728812
 20
414.8245819346548
 30
0.0
 11
361.3426022344406
 21
414.8245819346534
 31
0.0
  0
LINE
  5
73E
330
37
100
AcDbEntity
  8
Sichtbar (ISO)
100
AcDbLine
 10
361.3426022344406
 20
414.8245819346534
 30
0.0
 11
361.3426022344406
 21
444.8245819346535
 31
0.0
  0
LINE
  5
73F
330
37
100
AcDbEntity
  8
Sichtbar (ISO)
100
AcDbLine
 10
375.8431106330614
 20
414.8245819346596
 30
0.0
 11
375.8138792361792
 21
414.8245819346598
 31
0.0
  0
LINE
  5
740
330
37
100
AcDbEntity
  8
Sichtbar (ISO)
100
AcDbLine
 10
375.8138792361792
 20
444.8245819346599
 30
0.0
 11
375.8431106330614
 21
444.8245819346596
 31
0.0
  0
LINE
  5
741
330
37
100
AcDbEntity
  8
Sichtbar (ISO)
100
AcDbLine
 10
375.8431106330614
 20
414.8245819346596
 30
0.0
 11
375.8431106330614
 21
424.2404768722542
 31
0.0
  0
LINE
  5
742
330
37
100
AcDbEntity
  8
Sichtbar (ISO)
100
AcDbLine
 10
375.8431106330614
 20
435.408686997065
 30
0.0
 11
375.8431106330614
 21
444.8245819346596
 31
0.0
  0
LINE
  5
743
330
37
100
AcDbEntity
  8
Sichtbar (ISO)
100
AcDbLine
 10
371.3902064352891
 20
414.8245819346576
 30
0.0
 11
372.1479012063475
 21
414.8245819346579
 31
0.0
  0
LINE
  5
744
330
37
100
AcDbEntity
  8
Sichtbar (ISO)
100
AcDbLine
 10
372.1479012063476
 20
444.8245819346579
 30
0.0
 11
371.3902064352891
 21
444.8245819346578
 31
0.0
  0
LINE
  5
745
330
37
100
AcDbEntity
  8
Sichtbar (ISO)
100
AcDbLine
 10
143.7894441444037
 20
428.3735908790378
 30
0.0
 11
143.7894441444037
 21
431.2755729901931
 31
0.0
  0
ARC
  5
746
330
37
100
AcDbEntity
  8
Sichtbar (ISO)
100
AcDbCircle
 10
144.2894441444037
 20
428.3735908790378
 30
0.0
 40
0.5000000000000006
100
AcDbArc
 50
180.0
 51
213.0407834526653
  0
ARC
  5
747
330
37
100
AcDbEntity
  8
Sichtbar (ISO)
100
AcDbCircle
 10
144.2894441444037
 20
431.2755729901931
 30
0.0
 40
0.5000000000000007
100
AcDbArc
 50
146.9592165473347
 51
180.0
  0
ARC
  5
748
330
37
100
AcDbEntity
  8
Sichtbar (ISO)
100
AcDbCircle
 10
143.9203028051847
 20
426.8235908790378
 30
0.0
 40
0.0500000000000006
100
AcDbArc
 50
180.0
 51
203.9020813863003
  0
ARC
  5
749
330
37
100
AcDbEntity
  8
Sichtbar (ISO)
100
AcDbCircle
 10
143.9203028051847
 20
432.8255729901932
 30
0.0
 40
0.0500000000000006
100
AcDbArc
 50
156.0979186136893
 51
180.0
  0
LINE
  5
74A
330
37
100
AcDbEntity
  8
Sichtbar (ISO)
100
AcDbLine
 10
143.8703028051847
 20
432.8255729901932
 30
0.0
 11
143.8703028051847
 21
426.8235908790377
 31
0.0
  0
ARC
  5
74B
330
37
100
AcDbEntity
  8
Sichtbar (ISO)
100
AcDbCircle
 10
146.1982822374623
 20
427.8331514190248
 30
0.0
 40
2.541666666666808
100
AcDbArc
 50
203.9020813863519
 51
229.9505562082607
  0
ARC
  5
74C
330
37
100
AcDbEntity
  8
Sichtbar (ISO)
100
AcDbCircle
 10
146.1982822374623
 20
431.8160124502062
 30
0.0
 40
2.541666666666808
100
AcDbArc
 50
130.0494437917392
 51
156.0979186136501
  0
LINE
  5
74D
330
37
100
AcDbEntity
  8
Sichtbar (ISO)
100
AcDbLine
 10
251.4629639112122
 20
250.2273428965962
 30
0.0
 11
251.4629639112122
 21
609.4218209726346
 31
0.0
  0
LINE
  5
74E
330
37
100
AcDbEntity
  8
Sichtbar (ISO)
100
AcDbLine
 10
251.4629639112122
 20
609.4218209726347
 30
0.0
 11
253.3628508003956
 21
611.3425527913886
 31
0.0
  0
LINE
  5
74F
330
37
100
AcDbEntity
  8
Sichtbar (ISO)
100
AcDbLine
 10
251.4629639112122
 20
250.2273428965961
 30
0.0
 11
253.3628508003956
 21
248.3066110778422
 31
0.0
  0
INSERT
  5
750
330
37
100
AcDbEntity
  8
0
100
AcDbBlockReference
  2
P gross
 10
204.7085912356922
 20
1043.674201883004
 30
0.0
 41
2.5
 42
2.5
 43
2.5
  0
INSERT
  5
751
330
37
100
AcDbEntity
  8
0
100
AcDbBlockReference
  2
P gross
 10
204.7085912356922
 20
438.1261006724062
 30
0.0
 41
2.5
 42
2.5
 43
2.5
  0
INSERT
  5
752
330
37
100
AcDbEntity
  8
0
100
AcDbBlockReference
  2
P gross
 10
778.46546411601
 20
940.7310246772029
 30
0.0
 41
2.5
 42
2.5
 43
2.5
  0
ENDSEC
  0
SECTION
  2
OBJECTS
  0
DICTIONARY
  5
C
330
0
100
AcDbDictionary
281
     1
  3
ACAD_COLOR
350
30
  3
ACAD_GROUP
350
D
  3
ACAD_LAYOUT
350
2F
  3
ACAD_MATERIAL
350
10
  3
ACAD_MLINESTYLE
350
2C
  3
ACAD_PLOTSETTINGS
350
2E
  3
ACAD_PLOTSTYLENAME
350
E
  3
ACAD_TABLESTYLE
350
31
  3
ACAD_VISUALSTYLE
350
14
  3
AcDbVariableDictionary
350
753
  0
DICTIONARY
  5
30
102
{ACAD_REACTORS
330
C
102
}
330
C
100
AcDbDictionary
281
     1
  0
DICTIONARY
  5
D
102
{ACAD_REACTORS
330
C
102
}
330
C
100
AcDbDictionary
281
     1
  0
DICTIONARY
  5
2F
102
{ACAD_REACTORS
330
C
102
}
330
C
100
AcDbDictionary
281
     1
  3
Layout1
350
36
  3
Layout2
350
3E
  3
Model
350
3A
  0
DICTIONARY
  5
10
102
{ACAD_REACTORS
330
C
102
}
330
C
100
AcDbDictionary
281
     1
  3
ByBlock
350
12
  3
ByLayer
350
11
  3
Global
350
13
  0
DICTIONARY
  5
2C
102
{ACAD_REACTORS
330
C
102
}
330
C
100
AcDbDictionary
281
     1
  3
Standard
350
2D
  0
DICTIONARY
  5
2E
102
{ACAD_REACTORS
330
C
102
}
330
C
100
AcDbDictionary
281
     1
  0
ACDBDICTIONARYWDFLT
  5
E
102
{ACAD_REACTORS
330
C
102
}
330
C
100
AcDbDictionary
281
     1
  3
Normal
350
F
100
AcDbDictionaryWithDefault
340
F
  0
DICTIONARY
  5
31
102
{ACAD_REACTORS
330
C
102
}
330
C
100
AcDbDictionary
281
     1
  3
Standard
350
32
  0
DICTIONARY
  5
14
102
{ACAD_REACTORS
330
C
102
}
330
C
100
AcDbDictionary
281
     1
  3
2dWireframe
350
1A
  3
3D Hidden
350
1C
  3
3dWireframe
350
1B
  3
Basic
350
19
  3
Brighten
350
20
  3
ColorChange
350
24
  3
Conceptual
350
1D
  3
Dim
350
1F
  3
Facepattern
350
23
  3
Flat
350
15
  3
FlatWithEdges
350
16
  3
Gouraud
350
17
  3
GouraudWithEdges
350
18
  3
Linepattern
350
22
  3
Realistic
350
1E
  3
Thicken
350
21
  0
DICTIONARY
  5
753
102
{ACAD_REACTORS
330
C
102
}
330
C
100
AcDbDictionary
281
     1
  3
CTABLESTYLE
350
754
  0
LAYOUT
  5
36
102
{ACAD_REACTORS
330
2F
102
}
330
2F
100
AcDbPlotSettings
  1

  2

  4

  6

 40
0.0
 41
0.0
 42
0.0
 43
0.0
 44
0.0
 45
0.0
 46
0.0
 47
0.0
 48
0.0
 49
0.0
140
0.0
141
0.0
142
1.0
143
1.0
 70
   688
 72
     0
 73
     0
 74
     5
  7

 75
    16
147
1.0
 76
     0
 77
     2
 78
   300
148
0.0
149
0.0
100
AcDbLayout
  1
Layout1
 70
     1
 71
     1
 10
0.0
 20
0.0
 11
12.0
 21
9.0
 12
0.0
 22
0.0
 32
0.0
 14
0.0
 24
0.0
 34
0.0
 15
0.0
 25
0.0
 35
0.0
146
0.0
 13
0.0
 23
0.0
 33
0.0
 16
1.0
 26
0.0
 36
0.0
 17
0.0
 27
1.0
 37
0.0
 76
     0
330
33
  0
LAYOUT
  5
3E
102
{ACAD_REACTORS
330
2F
102
}
330
2F
100
AcDbPlotSettings
  1

  2

  4

  6

 40
0.0
 41
0.0
 42
0.0
 43
0.0
 44
0.0
 45
0.0
 46
0.0
 47
0.0
 48
0.0
 49
0.0
140
0.0
141
0.0
142
1.0
143
1.0
 70
   688
 72
     0
 73
     0
 74
     5
  7

 75
    16
147
1.0
 76
     0
 77
     2
 78
   300
148
0.0
149
0.0
100
AcDbLayout
  1
Layout2
 70
     1
 71
     2
 10
0.0
 20
0.0
 11
12.0
 21
9.0
 12
0.0
 22
0.0
 32
0.0
 14
0.0
 24
0.0
 34
0.0
 15
0.0
 25
0.0
 35
0.0
146
0.0
 13
0.0
 23
0.0
 33
0.0
 16
1.0
 26
0.0
 36
0.0
 17
0.0
 27
1.0
 37
0.0
 76
     0
330
3B
  0
LAYOUT
  5
3A
102
{ACAD_REACTORS
330
2F
102
}
330
2F
100
AcDbPlotSettings
  1

  2

  4

  6

 40
0.0
 41
0.0
 42
0.0
 43
0.0
 44
0.0
 45
0.0
 46
0.0
 47
0.0
 48
0.0
 49
0.0
140
0.0
141
0.0
142
1.0
143
1.0
 70
  1712
 72
     0
 73
     0
 74
     0
  7

 75
     0
147
1.0
 76
     0
 77
     2
 78
   300
148
0.0
149
0.0
100
AcDbLayout
  1
Model
 70
     1
 71
     0
 10
0.0
 20
0.0
 11
12.0
 21
9.0
 12
0.0
 22
0.0
 32
0.0
 14
0.0
 24
0.0
 34
0.0
 15
0.0
 25
0.0
 35
0.0
146
0.0
 13
0.0
 23
0.0
 33
0.0
 16
1.0
 26
0.0
 36
0.0
 17
0.0
 27
1.0
 37
0.0
 76
     0
330
37
  0
MATERIAL
  5
12
102
{ACAD_XDICTIONARY
360
757
102
}
102
{ACAD_REACTORS
330
10
102
}
330
10
100
AcDbMaterial
  1
ByBlock
  0
MATERIAL
  5
11
102
{ACAD_XDICTIONARY
360
755
102
}
102
{ACAD_REACTORS
330
10
102
}
330
10
100
AcDbMaterial
  1
ByLayer
  0
MATERIAL
  5
13
102
{ACAD_XDICTIONARY
360
759
102
}
102
{ACAD_REACTORS
330
10
102
}
330
10
100
AcDbMaterial
  1
Global
  0
MLINESTYLE
  5
2D
102
{ACAD_REACTORS
330
2C
102
}
330
2C
100
AcDbMlineStyle
  2
STANDARD
 70
     0
  3

 62
   256
 51
90.0
 52
90.0
 71
     2
 49
0.5
 62
   256
  6
BYLAYER
 49
-0.5
 62
   256
  6
BYLAYER
  0
ACDBPLACEHOLDER
  5
F
102
{ACAD_REACTORS
330
E
102
}
330
E
  0
TABLESTYLE
  5
32
102
{ACAD_XDICTIONARY
360
75B
102
}
102
{ACAD_REACTORS
330
31
102
}
330
31
100
AcDbTableStyle
  3
Standard
 70
     0
 71
     0
 40
0.06
 41
0.06
280
     0
281
     0
  7
Standard
140
0.18
170
     2
 62
     0
 63
     7
283
     0
274
    -2
284
     1
 64
     0
275
    -2
285
     1
 65
     0
276
    -2
286
     1
 66
     0
277
    -2
287
     1
 67
     0
278
    -2
288
     1
 68
     0
279
    -2
289
     1
 69
     0
  7
Standard
140
0.25
170
     5
 62
     0
 63
     7
283
     0
274
    -2
284
     1
 64
     0
275
    -2
285
     1
 65
     0
276
    -2
286
     1
 66
     0
277
    -2
287
     1
 67
     0
278
    -2
288
     1
 68
     0
279
    -2
289
     1
 69
     0
  7
Standard
140
0.18
170
     5
 62
     0
 63
     7
283
     0
274
    -2
284
     1
 64
     0
275
    -2
285
     1
 65
     0
276
    -2
286
     1
 66
     0
277
    -2
287
     1
 67
     0
278
    -2
288
     1
 68
     0
279
    -2
289
     1
 69
     0
  0
VISUALSTYLE
  5
1A
102
{ACAD_REACTORS
330
14
102
}
330
14
100
AcDbVisualStyle
  2
2dWireframe
 70
     4
 71
     0
 72
     2
 73
     0
 90
        0
 40
-0.6
 41
-30.0
 62
     5
 63
     7
421
 16777215
 74
     1
 91
        4
 64
     7
 65
   257
 75
     1
175
     1
 42
1.0
 92
        0
 66
   257
 43
1.0
 76
     1
 77
     6
 78
     2
 67
     7
 79
     5
170
     0
171
     0
290
     0
174
     0
 93
        1
 44
0.0
173
     0
291
     0
 45
0.0
1001
ACAD
1000
AcDbSavedByObjectVersion
1070
     0
  0
VISUALSTYLE
  5
1C
102
{ACAD_REACTORS
330
14
102
}
330
14
100
AcDbVisualStyle
  2
3D Hidden
 70
     6
 71
     1
 72
     2
 73
     2
 90
        0
 40
-0.6
 41
-30.0
 62
     5
 63
     7
421
 16777215
 74
     2
 91
        2
 64
     7
 65
   257
 75
     2
175
     1
 42
40.0
 92
        0
 66
   257
 43
1.0
 76
     1
 77
     6
 78
     2
 67
     7
 79
     3
170
     0
171
     0
290
     0
174
     0
 93
        1
 44
0.0
173
     0
291
     0
 45
0.0
1001
ACAD
1000
AcDbSavedByObjectVersion
1070
     0
  0
VISUALSTYLE
  5
1B
102
{ACAD_REACTORS
330
14
102
}
330
14
100
AcDbVisualStyle
  2
3dWireframe
 70
     5
 71
     0
 72
     2
 73
     0
 90
        0
 40
-0.6
 41
-30.0
 62
     5
 63
     7
421
 16777215
 74
     1
 91
        4
 64
     7
 65
   257
 75
     1
175
     1
 42
1.0
 92
        0
 66
   257
 43
1.0
 76
     1
 77
     6
 78
     2
 67
     7
 79
     5
170
     0
171
     0
290
     0
174
     0
 93
        1
 44
0.0
173
     0
291
     0
 45
0.0
1001
ACAD
1000
AcDbSavedByObjectVersion
1070
     0
  0
VISUALSTYLE
  5
19
102
{ACAD_REACTORS
330
14
102
}
330
14
100
AcDbVisualStyle
  2
Basic
 70
     7
 71
     1
 72
     0
 73
     1
 90
        0
 40
-0.6
 41
-30.0
 62
     5
 63
     7
421
 16777215
 74
     0
 91
        4
 64
     7
 65
   257
 75
     1
175
     1
 42
1.0
 92
        8
 66
     7
 43
1.0
 76
     1
 77
     6
 78
     2
 67
     7
 79
     5
170
     0
171
     0
290
     0
174
     0
 93
        1
 44
0.0
173
     0
291
     1
 45
0.0
1001
ACAD
1000
AcDbSavedByObjectVersion
1070
     0
  0
VISUALSTYLE
  5
20
102
{ACAD_REACTORS
330
14
102
}
330
14
100
AcDbVisualStyle
  2
Brighten
 70
    12
 71
     2
 72
     2
 73
     0
 90
        0
 40
-0.6
 41
-30.0
 62
     5
 63
     7
421
 16777215
 74
     1
 91
        4
 64
     7
 65
   257
 75
     1
175
     1
 42
1.0
 92
        8
 66
     7
 43
1.0
 76
     1
 77
     6
 78
     2
 67
     7
 79
     5
170
     0
171
     0
290
     0
174
     0
 93
        1
 44
50.0
173
     0
291
     1
 45
0.0
1001
ACAD
1000
AcDbSavedByObjectVersion
1070
     0
  0
VISUALSTYLE
  5
24
102
{ACAD_REACTORS
330
14
102
}
330
14
100
AcDbVisualStyle
  2
ColorChange
 70
    16
 71
     2
 72
     2
 73
     3
 90
        0
 40
-0.6
 41
-30.0
 62
     5
 63
     8
421
  8421504
 74
     1
 91
        4
 64
     7
 65
   257
 75
     1
175
     1
 42
1.0
 92
        8
 66
     8
424
  8421504
 43
1.0
 76
     1
 77
     6
 78
     2
 67
     7
 79
     5
170
     0
171
     0
290
     0
174
     0
 93
        1
 44
0.0
173
     0
291
     1
 45
0.0
1001
ACAD
1000
AcDbSavedByObjectVersion
1070
     0
  0
VISUALSTYLE
  5
1D
102
{ACAD_REACTORS
330
14
102
}
330
14
100
AcDbVisualStyle
  2
Conceptual
 70
     9
 71
     3
 72
     2
 73
     0
 90
        0
 40
-0.6
 41
-30.0
 62
     5
 63
     7
421
 16777215
 74
     2
 91
        2
 64
     7
 65
   257
 75
     1
175
     1
 42
40.0
 92
        8
 66
     7
 43
1.0
 76
     1
 77
     6
 78
     2
 67
     7
 79
     3
170
     0
171
     0
290
     0
174
     0
 93
        1
 44
0.0
173
     0
291
     0
 45
0.0
1001
ACAD
1000
AcDbSavedByObjectVersion
1070
     0
  0
VISUALSTYLE
  5
1F
102
{ACAD_REACTORS
330
14
102
}
330
14
100
AcDbVisualStyle
  2
Dim
 70
    11
 71
     2
 72
     2
 73
     0
 90
        0
 40
-0.6
 41
-30.0
 62
     5
 63
     7
421
 16777215
 74
     1
 91
        4
 64
     7
 65
   257
 75
     1
175
     1
 42
1.0
 92
        8
 66
     7
 43
1.0
 76
     1
 77
     6
 78
     2
 67
     7
 79
     5
170
     0
171
     0
290
     0
174
     0
 93
        1
 44
-50.0
173
     0
291
     1
 45
0.0
1001
ACAD
1000
AcDbSavedByObjectVersion
1070
     0
  0
VISUALSTYLE
  5
23
102
{ACAD_REACTORS
330
14
102
}
330
14
100
AcDbVisualStyle
  2
Facepattern
 70
    15
 71
     2
 72
     2
 73
     0
 90
        0
 40
-0.6
 41
-30.0
 62
     5
 63
     7
421
 16777215
 74
     1
 91
        4
 64
     7
 65
   257
 75
     1
175
     1
 42
1.0
 92
        8
 66
     7
 43
1.0
 76
     1
 77
     6
 78
     2
 67
     7
 79
     5
170
     0
171
     0
290
     0
174
     0
 93
        1
 44
0.0
173
     0
291
     1
 45
0.0
1001
ACAD
1000
AcDbSavedByObjectVersion
1070
     0
  0
VISUALSTYLE
  5
15
102
{ACAD_REACTORS
330
14
102
}
330
14
100
AcDbVisualStyle
  2
Flat
 70
     0
 71
     2
 72
     1
 73
     1
 90
        2
 40
-0.6
 41
30.0
 62
     5
 63
     7
421
 16777215
 74
     0
 91
        4
 64
     7
 65
   257
 75
     1
175
     1
 42
1.0
 92
        8
 66
     7
 43
1.0
 76
     1
 77
     6
 78
     2
 67
     7
 79
     5
170
     0
171
     0
290
     0
174
     0
 93
       13
 44
0.0
173
     0
291
     1
 45
0.0
1001
ACAD
1000
AcDbSavedByObjectVersion
1070
     0
  0
VISUALSTYLE
  5
16
102
{ACAD_REACTORS
330
14
102
}
330
14
100
AcDbVisualStyle
  2
FlatWithEdges
 70
     1
 71
     2
 72
     1
 73
     1
 90
        2
 40
-0.6
 41
30.0
 62
     5
 63
     7
421
 16777215
 74
     1
 91
        4
 64
     7
 65
   257
 75
     1
175
     1
 42
1.0
 92
        0
 66
   257
 43
1.0
 76
     1
 77
     6
 78
     2
 67
     7
 79
     5
170
     0
171
     0
290
     0
174
     0
 93
       13
 44
0.0
173
     0
291
     1
 45
0.0
1001
ACAD
1000
AcDbSavedByObjectVersion
1070
     0
  0
VISUALSTYLE
  5
17
102
{ACAD_REACTORS
330
14
102
}
330
14
100
AcDbVisualStyle
  2
Gouraud
 70
     2
 71
     2
 72
     2
 73
     1
 90
        2
 40
-0.6
 41
30.0
 62
     5
 63
     7
421
 16777215
 74
     0
 91
        4
 64
     7
 65
   257
 75
     1
175
     1
 42
1.0
 92
        0
 66
     7
 43
1.0
 76
     1
 77
     6
 78
     2
 67
     7
 79
     5
170
     0
171
     0
290
     0
174
     0
 93
       13
 44
0.0
173
     0
291
     1
 45
0.0
1001
ACAD
1000
AcDbSavedByObjectVersion
1070
     0
  0
VISUALSTYLE
  5
18
102
{ACAD_REACTORS
330
14
102
}
330
14
100
AcDbVisualStyle
  2
GouraudWithEdges
 70
     3
 71
     2
 72
     2
 73
     1
 90
        2
 40
-0.6
 41
30.0
 62
     5
 63
     7
421
 16777215
 74
     1
 91
        4
 64
     7
 65
   257
 75
     1
175
     1
 42
1.0
 92
        0
 66
   257
 43
1.0
 76
     1
 77
     6
 78
     2
 67
     7
 79
     5
170
     0
171
     0
290
     0
174
     0
 93
       13
 44
0.0
173
     0
291
     1
 45
0.0
1001
ACAD
1000
AcDbSavedByObjectVersion
1070
     0
  0
VISUALSTYLE
  5
22
102
{ACAD_REACTORS
330
14
102
}
330
14
100
AcDbVisualStyle
  2
Linepattern
 70
    14
 71
     2
 72
     2
 73
     0
 90
        0
 40
-0.6
 41
-30.0
 62
     5
 63
     7
421
 16777215
 74
     1
 91
        4
 64
     7
 65
   257
 75
     7
175
     7
 42
1.0
 92
        8
 66
     7
 43
1.0
 76
     1
 77
     6
 78
     2
 67
     7
 79
     5
170
     0
171
     0
290
     0
174
     0
 93
        1
 44
0.0
173
     0
291
     1
 45
0.0
1001
ACAD
1000
AcDbSavedByObjectVersion
1070
     0
  0
VISUALSTYLE
  5
1E
102
{ACAD_REACTORS
330
14
102
}
330
14
100
AcDbVisualStyle
  2
Realistic
 70
     8
 71
     2
 72
     2
 73
     0
 90
        0
 40
-0.6
 41
-30.0
 62
     5
 63
     7
421
 16777215
 74
     1
 91
        0
 64
     7
 65
   257
 75
     1
175
     1
 42
1.0
 92
        8
 66
     8
424
  7895160
 43
1.0
 76
     1
 77
     6
 78
     2
 67
     7
 79
     5
170
     0
171
     0
290
     0
174
     0
 93
       13
 44
0.0
173
     0
291
     0
 45
0.0
1001
ACAD
1000
AcDbSavedByObjectVersion
1070
     0
  0
VISUALSTYLE
  5
21
102
{ACAD_REACTORS
330
14
102
}
330
14
100
AcDbVisualStyle
  2
Thicken
 70
    13
 71
     2
 72
     2
 73
     0
 90
        0
 40
-0.6
 41
-30.0
 62
     5
 63
     7
421
 16777215
 74
     1
 91
        4
 64
     7
 65
   257
 75
     1
175
     1
 42
1.0
 92
       12
 66
     7
 43
1.0
 76
     1
 77
     6
 78
     2
 67
     7
 79
     5
170
     0
171
     0
290
     0
174
     0
 93
        1
 44
0.0
173
     0
291
     1
 45
0.0
1001
ACAD
1000
AcDbSavedByObjectVersion
1070
     0
  0
DICTIONARYVAR
  5
754
102
{ACAD_REACTORS
330
753
102
}
330
753
100
DictionaryVariables
280
     0
  1
STANDARD
  0
DICTIONARY
  5
757
330
12
100
AcDbDictionary
280
     1
281
     1
  3
ACAD_XREC_ROUNDTRIP
360
758
  0
DICTIONARY
  5
755
330
11
100
AcDbDictionary
280
     1
281
     1
  3
ACAD_XREC_ROUNDTRIP
360
756
  0
DICTIONARY
  5
759
330
13
100
AcDbDictionary
280
     1
281
     1
  3
ACAD_XREC_ROUNDTRIP
360
75A
  0
DICTIONARY
  5
75B
330
32
100
AcDbDictionary
280
     1
281
     1
  3
ACAD_XREC_ROUNDTRIP
360
75C
  0
XRECORD
  5
758
102
{ACAD_REACTORS
330
757
102
}
330
757
100
AcDbXrecord
280
     1
102
MATERIAL
148
0.0
149
0.0
149
0.0
 93
        0
 94
       63
282
     0
 72
     1
 77
     1
171
     1
175
     1
179
     1
273
     0
  0
XRECORD
  5
756
102
{ACAD_REACTORS
330
755
102
}
330
755
100
AcDbXrecord
280
     1
102
MATERIAL
148
0.0
149
0.0
149
0.0
 93
        0
 94
       63
282
     0
 72
     1
 77
     1
171
     1
175
     1
179
     1
273
     0
  0
XRECORD
  5
75A
102
{ACAD_REACTORS
330
759
102
}
330
759
100
AcDbXrecord
280
     1
102
MATERIAL
148
0.0
149
0.0
149
0.0
 93
        0
 94
       63
282
     0
 72
     1
 77
     1
171
     1
175
     1
179
     1
273
     0
  0
XRECORD
  5
75C
102
{ACAD_REACTORS
330
75B
102
}
330
75B
100
AcDbXrecord
280
     1
102
ACAD_ROUNDTRIP_PRE2007_TABLESTYLE
 90
      512
 91
        0
  1

 92
      512
 93
        0
  2

 94
      512
 95
        0
  3

  0
ENDSEC
  0
EOF
