  0
SECTION
  2
HEADER
  9
$ACADVER
  1
AC1021
  9
$ACADMAINTVER
 70
    50
  9
$DWGCODEPAGE
  3
ANSI_1252
  9
$TITLE
  1
Statico SD 12.3
  9
$CUSTOMPROPERTYTAG
  1
Manager
  9
$CUSTOMPROPERTY
  1

  9
$CUSTOMPROPERTYTAG
  1
Firma
  9
$CUSTOMPROPERTY
  1

  9
$CUSTOMPROPERTYTAG
  1
Kategorie
  9
$CUSTOMPROPERTY
  1

  9
$CUSTOMPROPERTYTAG
  1
Bauteilnummer
  9
$CUSTOMPROPERTY
  1
108442
  9
$CUSTOMPROPERTYTAG
  1
Bezeichnung
  9
$CUSTOMPROPERTY
  1
Diskus-Gefässe
  9
$CUSTOMPROPERTYTAG
  1
Projekt
  9
$CUSTOMPROPERTY
  1
Internet 2D
  9
$CUSTOMPROPERTYTAG
  1
Konstrukteur
  9
$CUSTOMPROPERTY
  1
LTS
  9
$CUSTOMPROPERTYTAG
  1
Ingenieur
  9
$CUSTOMPROPERTY
  1

  9
$CUSTOMPROPERTYTAG
  1
Bevollmächtigter
  9
$CUSTOMPROPERTY
  1

  9
$CUSTOMPROPERTYTAG
  1
Kostenstelle
  9
$CUSTOMPROPERTY
  1

  9
$CUSTOMPROPERTYTAG
  1
Zulieferer
  9
$CUSTOMPROPERTY
  1

  9
$CUSTOMPROPERTYTAG
  1
Benutzerstatus
  9
$CUSTOMPROPERTY
  1

  9
$CUSTOMPROPERTYTAG
  1
Konstruktionsstatus
  9
$CUSTOMPROPERTY
  1
InBearbeitung
  9
$CUSTOMPROPERTYTAG
  1
Kontrolliert von
  9
$CUSTOMPROPERTY
  1
GAD
  9
$CUSTOMPROPERTYTAG
  1
Datum Überprüfung
  9
$CUSTOMPROPERTY
  1
05/28/2008
  9
$CUSTOMPROPERTYTAG
  1
Konstruktion genehmigt von
  9
$CUSTOMPROPERTY
  1
GAD
  9
$CUSTOMPROPERTYTAG
  1
Datum Konstruktionsgenehmigung
  9
$CUSTOMPROPERTY
  1
05/28/2008
  9
$CUSTOMPROPERTYTAG
  1
Fertigung genehmigt von
  9
$CUSTOMPROPERTY
  1

  9
$CUSTOMPROPERTYTAG
  1
Massstab
  9
$CUSTOMPROPERTY
  1
1:5
  9
$CUSTOMPROPERTYTAG
  1
Gewicht
  9
$CUSTOMPROPERTY
  1

  9
$CUSTOMPROPERTYTAG
  1
AeDatum1
  9
$CUSTOMPROPERTY
  1
  
  9
$CUSTOMPROPERTYTAG
  1
AeDesc1
  9
$CUSTOMPROPERTY
  1

  9
$CUSTOMPROPERTYTAG
  1
AeIDX1
  9
$CUSTOMPROPERTY
  1

  9
$CUSTOMPROPERTYTAG
  1
TolLange_Fein
  9
$CUSTOMPROPERTY
  1

  9
$CUSTOMPROPERTYTAG
  1
TolLange_Grob
  9
$CUSTOMPROPERTY
  1

  9
$CUSTOMPROPERTYTAG
  1
TolLange_Mittel
  9
$CUSTOMPROPERTY
  1
X
  9
$CUSTOMPROPERTYTAG
  1
TolWinkel_Fein
  9
$CUSTOMPROPERTY
  1

  9
$CUSTOMPROPERTYTAG
  1
TolWinkel_Grob
  9
$CUSTOMPROPERTY
  1
X
  9
$CUSTOMPROPERTYTAG
  1
ProtoTyp_NR
  9
$CUSTOMPROPERTY
  1
1
  9
$CUSTOMPROPERTYTAG
  1
AeDatum2
  9
$CUSTOMPROPERTY
  1
  
  9
$CUSTOMPROPERTYTAG
  1
AeDatum3
  9
$CUSTOMPROPERTY
  1
  
  9
$CUSTOMPROPERTYTAG
  1
AeDatum4
  9
$CUSTOMPROPERTY
  1
  
  9
$CUSTOMPROPERTYTAG
  1
AeDatum5
  9
$CUSTOMPROPERTY
  1
  
  9
$CUSTOMPROPERTYTAG
  1
AeDesc2
  9
$CUSTOMPROPERTY
  1

  9
$CUSTOMPROPERTYTAG
  1
AeDesc3
  9
$CUSTOMPROPERTY
  1

  9
$CUSTOMPROPERTYTAG
  1
AeDesc4
  9
$CUSTOMPROPERTY
  1

  9
$CUSTOMPROPERTYTAG
  1
AeDesc5
  9
$CUSTOMPROPERTY
  1

  9
$CUSTOMPROPERTYTAG
  1
AeIDX2
  9
$CUSTOMPROPERTY
  1

  9
$CUSTOMPROPERTYTAG
  1
AeIDX3
  9
$CUSTOMPROPERTY
  1

  9
$CUSTOMPROPERTYTAG
  1
AeIDX4
  9
$CUSTOMPROPERTY
  1

  9
$CUSTOMPROPERTYTAG
  1
AeIDX5
  9
$CUSTOMPROPERTY
  1

  9
$CUSTOMPROPERTYTAG
  1
Fachgeprüft_am
  9
$CUSTOMPROPERTY
  1

  9
$CUSTOMPROPERTYTAG
  1
Fachgeprüft_von
  9
$CUSTOMPROPERTY
  1

  9
$CUSTOMPROPERTYTAG
  1
ZeichnungsNummer
  9
$CUSTOMPROPERTY
  1

  9
$CUSTOMPROPERTYTAG
  1
AIMD_MATERIAL
  9
$CUSTOMPROPERTY
  1

  9
$CUSTOMPROPERTYTAG
  1
AIMD_WEIGHT
  9
$CUSTOMPROPERTY
  1
3.097
  9
$CUSTOMPROPERTYTAG
  1
AIMD_DESCRIPTION
  9
$CUSTOMPROPERTY
  1
Diskus-Gefässe
  9
$CUSTOMPROPERTYTAG
  1
AIMD_ORIGIN
  9
$CUSTOMPROPERTY
  1
108349
  9
$CUSTOMPROPERTYTAG
  1
AIMD_PARTNO
  9
$CUSTOMPROPERTY
  1
7101001
  9
$CUSTOMPROPERTYTAG
  1
AIMD_WEIGHT_UNIT
  9
$CUSTOMPROPERTY
  1
kg
  9
$CUSTOMPROPERTYTAG
  1
Einheit
  9
$CUSTOMPROPERTY
  1
Stk
  9
$INSBASE
 10
0.0
 20
0.0
 30
0.0
  9
$EXTMIN
 10
0.0
 20
0.0
 30
0.0
  9
$EXTMAX
 10
1050.0
 20
1485.0
 30
0.0
  9
$LIMMIN
 10
0.0
 20
0.0
  9
$LIMMAX
 10
1050.0
 20
1485.0
  9
$ORTHOMODE
 70
     0
  9
$REGENMODE
 70
     1
  9
$FILLMODE
 70
     1
  9
$QTEXTMODE
 70
     0
  9
$MIRRTEXT
 70
     0
  9
$LTSCALE
 40
5.0
  9
$ATTMODE
 70
     1
  9
$TEXTSIZE
 40
0.2
  9
$TRACEWID
 40
0.05
  9
$TEXTSTYLE
  7
Standard
  9
$CLAYER
  8
0
  9
$CELTYPE
  6
ByLayer
  9
$CECOLOR
 62
   256
  9
$CELTSCALE
 40
1.0
  9
$DISPSILH
 70
     0
  9
$DIMSCALE
 40
1.0
  9
$DIMASZ
 40
1.799999999999999
  9
$DIMEXO
 40
0.0625
  9
$DIMDLI
 40
0.38
  9
$DIMRND
 40
0.0
  9
$DIMDLE
 40
0.0
  9
$DIMEXE
 40
0.18
  9
$DIMTP
 40
0.0
  9
$DIMTM
 40
0.0
  9
$DIMTXT
 40
0.3499999940395355
  9
$DIMCEN
 40
0.09
  9
$DIMTSZ
 40
0.0
  9
$DIMTOL
 70
     0
  9
$DIMLIM
 70
     0
  9
$DIMTIH
 70
     1
  9
$DIMTOH
 70
     1
  9
$DIMSE1
 70
     0
  9
$DIMSE2
 70
     0
  9
$DIMTAD
 70
     0
  9
$DIMZIN
 70
     0
  9
$DIMBLK
  1

  9
$DIMASO
 70
     1
  9
$DIMSHO
 70
     1
  9
$DIMPOST
  1

  9
$DIMAPOST
  1

  9
$DIMALT
 70
     0
  9
$DIMALTD
 70
     2
  9
$DIMALTF
 40
25.4
  9
$DIMLFAC
 40
1.0
  9
$DIMTOFL
 70
     0
  9
$DIMTVP
 40
0.0
  9
$DIMTIX
 70
     0
  9
$DIMSOXD
 70
     0
  9
$DIMSAH
 70
     0
  9
$DIMBLK1
  1

  9
$DIMBLK2
  1

  9
$DIMSTYLE
  2
Standard
  9
$DIMCLRD
 70
     0
  9
$DIMCLRE
 70
     0
  9
$DIMCLRT
 70
     0
  9
$DIMTFAC
 40
1.0
  9
$DIMGAP
 40
0.09
  9
$DIMJUST
 70
     0
  9
$DIMSD1
 70
     0
  9
$DIMSD2
 70
     0
  9
$DIMTOLJ
 70
     1
  9
$DIMTZIN
 70
     0
  9
$DIMALTZ
 70
     0
  9
$DIMALTTZ
 70
     0
  9
$DIMUPT
 70
     0
  9
$DIMDEC
 70
     4
  9
$DIMTDEC
 70
     4
  9
$DIMALTU
 70
     2
  9
$DIMALTTD
 70
     2
  9
$DIMTXSTY
  7
Standard
  9
$DIMAUNIT
 70
     0
  9
$DIMADEC
 70
     0
  9
$DIMALTRND
 40
0.0
  9
$DIMAZIN
 70
     0
  9
$DIMDSEP
 70
    46
  9
$DIMATFIT
 70
     3
  9
$DIMFRAC
 70
     0
  9
$DIMLDRBLK
  1

  9
$DIMLUNIT
 70
     2
  9
$DIMLWD
 70
    -2
  9
$DIMLWE
 70
    -2
  9
$DIMTMOVE
 70
     0
  9
$DIMFXL
 40
1.0
  9
$DIMFXLON
 70
     0
  9
$DIMJOGANG
 40
0.7853981633974483
  9
$DIMTFILL
 70
     0
  9
$DIMTFILLCLR
 70
     0
  9
$DIMARCSYM
 70
     0
  9
$DIMLTYPE
  6

  9
$DIMLTEX1
  6

  9
$DIMLTEX2
  6

  9
$LUNITS
 70
     2
  9
$LUPREC
 70
     4
  9
$SKETCHINC
 40
0.1
  9
$FILLETRAD
 40
0.0
  9
$AUNITS
 70
     0
  9
$AUPREC
 70
     0
  9
$MENU
  1
.
  9
$ELEVATION
 40
0.0
  9
$PELEVATION
 40
0.0
  9
$THICKNESS
 40
0.0
  9
$LIMCHECK
 70
     0
  9
$CHAMFERA
 40
0.0
  9
$CHAMFERB
 40
0.0
  9
$CHAMFERC
 40
0.0
  9
$CHAMFERD
 40
0.0
  9
$SKPOLY
 70
     0
  9
$TDCREATE
 40
2455230.470689699
  9
$TDUCREATE
 40
2455230.429023033
  9
$TDUPDATE
 40
2455230.470689699
  9
$TDUUPDATE
 40
2455230.429023033
  9
$TDINDWG
 40
0.0001296644
  9
$TDUSRTIMER
 40
0.0001296644
  9
$USRTIMER
 70
     1
  9
$ANGBASE
 50
0.0
  9
$ANGDIR
 70
     0
  9
$PDMODE
 70
     0
  9
$PDSIZE
 40
0.0
  9
$PLINEWID
 40
0.0
  9
$SPLFRAME
 70
     0
  9
$SPLINETYPE
 70
     6
  9
$SPLINESEGS
 70
     8
  9
$HANDSEED
  5
35D
  9
$SURFTAB1
 70
     6
  9
$SURFTAB2
 70
     6
  9
$SURFTYPE
 70
     6
  9
$SURFU
 70
     6
  9
$SURFV
 70
     6
  9
$UCSBASE
  2

  9
$UCSNAME
  2

  9
$UCSORG
 10
0.0
 20
0.0
 30
0.0
  9
$UCSXDIR
 10
1.0
 20
0.0
 30
0.0
  9
$UCSYDIR
 10
0.0
 20
1.0
 30
0.0
  9
$UCSORTHOREF
  2

  9
$UCSORTHOVIEW
 70
     0
  9
$UCSORGTOP
 10
0.0
 20
0.0
 30
0.0
  9
$UCSORGBOTTOM
 10
0.0
 20
0.0
 30
0.0
  9
$UCSORGLEFT
 10
0.0
 20
0.0
 30
0.0
  9
$UCSORGRIGHT
 10
0.0
 20
0.0
 30
0.0
  9
$UCSORGFRONT
 10
0.0
 20
0.0
 30
0.0
  9
$UCSORGBACK
 10
0.0
 20
0.0
 30
0.0
  9
$PUCSBASE
  2

  9
$PUCSNAME
  2

  9
$PUCSORG
 10
0.0
 20
0.0
 30
0.0
  9
$PUCSXDIR
 10
1.0
 20
0.0
 30
0.0
  9
$PUCSYDIR
 10
0.0
 20
1.0
 30
0.0
  9
$PUCSORTHOREF
  2

  9
$PUCSORTHOVIEW
 70
     0
  9
$PUCSORGTOP
 10
0.0
 20
0.0
 30
0.0
  9
$PUCSORGBOTTOM
 10
0.0
 20
0.0
 30
0.0
  9
$PUCSORGLEFT
 10
0.0
 20
0.0
 30
0.0
  9
$PUCSORGRIGHT
 10
0.0
 20
0.0
 30
0.0
  9
$PUCSORGFRONT
 10
0.0
 20
0.0
 30
0.0
  9
$PUCSORGBACK
 10
0.0
 20
0.0
 30
0.0
  9
$USERI1
 70
     0
  9
$USERI2
 70
     0
  9
$USERI3
 70
     0
  9
$USERI4
 70
     0
  9
$USERI5
 70
     0
  9
$USERR1
 40
0.0
  9
$USERR2
 40
0.0
  9
$USERR3
 40
0.0
  9
$USERR4
 40
0.0
  9
$USERR5
 40
0.0
  9
$WORLDVIEW
 70
     1
  9
$SHADEDGE
 70
     3
  9
$SHADEDIF
 70
    70
  9
$TILEMODE
 70
     1
  9
$MAXACTVP
 70
    64
  9
$PINSBASE
 10
0.0
 20
0.0
 30
0.0
  9
$PLIMCHECK
 70
     0
  9
$PEXTMIN
 10
0.0
 20
0.0
 30
0.0
  9
$PEXTMAX
 10
1050.0
 20
1485.0
 30
0.0
  9
$PLIMMIN
 10
0.0
 20
0.0
  9
$PLIMMAX
 10
1050.0
 20
1485.0
  9
$UNITMODE
 70
     0
  9
$VISRETAIN
 70
     1
  9
$PLINEGEN
 70
     0
  9
$PSLTSCALE
 70
     1
  9
$TREEDEPTH
 70
  3020
  9
$CMLSTYLE
  2
Standard
  9
$CMLJUST
 70
     0
  9
$CMLSCALE
 40
1.0
  9
$PROXYGRAPHICS
 70
     1
  9
$MEASUREMENT
 70
     1
  9
$CELWEIGHT
370
    -1
  9
$ENDCAPS
280
     0
  9
$JOINSTYLE
280
     0
  9
$LWDISPLAY
290
     0
  9
$INSUNITS
 70
     4
  9
$HYPERLINKBASE
  1

  9
$STYLESHEET
  1

  9
$XEDIT
290
     1
  9
$CEPSNTYPE
380
     0
  9
$PSTYLEMODE
290
     1
  9
$FINGERPRINTGUID
  2
{B0AA2F29-64FA-44A8-AD27-E43769CC46D7}
  9
$VERSIONGUID
  2
{A31F58C8-BE42-4104-A0D9-9F1D674392F2}
  9
$EXTNAMES
290
     1
  9
$PSVPSCALE
 40
0.0
  9
$OLESTARTUP
290
     0
  9
$SORTENTS
280
   127
  9
$INDEXCTL
280
     0
  9
$HIDETEXT
280
     1
  9
$XCLIPFRAME
290
     0
  9
$HALOGAP
280
     0
  9
$OBSCOLOR
 70
   257
  9
$OBSLTYPE
280
     0
  9
$INTERSECTIONDISPLAY
280
     0
  9
$INTERSECTIONCOLOR
 70
   257
  9
$DIMASSOC
280
     1
  9
$PROJECTNAME
  1

  9
$CAMERADISPLAY
290
     0
  9
$LENSLENGTH
 40
50.0
  9
$CAMERAHEIGHT
 40
0.0
  9
$STEPSPERSEC
 40
2.0
  9
$STEPSIZE
 40
6.0
  9
$3DDWFPREC
 40
2.0
  9
$PSOLWIDTH
 40
0.25
  9
$PSOLHEIGHT
 40
4.0
  9
$LOFTANG1
 40
1.570796326794896
  9
$LOFTANG2
 40
1.570796326794896
  9
$LOFTMAG1
 40
0.0
  9
$LOFTMAG2
 40
0.0
  9
$LOFTPARAM
 70
     7
  9
$LOFTNORMALS
280
     1
  9
$LATITUDE
 40
37.795
  9
$LONGITUDE
 40
-122.394
  9
$NORTHDIRECTION
 40
0.0
  9
$TIMEZONE
 70
 -8000
  9
$LIGHTGLYPHDISPLAY
280
     1
  9
$TILEMODELIGHTSYNCH
280
     1
  9
$CMATERIAL
347
11
  9
$SOLIDHIST
280
     1
  9
$SHOWHIST
280
     1
  9
$DWFFRAME
280
     2
  9
$DGNFRAME
280
     0
  9
$REALWORLDSCALE
290
     1
  9
$INTERFERECOLOR
 62
     1
  9
$INTERFEREOBJVS
345
33
  9
$INTERFEREVPVS
346
30
  9
$CSHADOW
280
     0
  9
$SHADOWPLANELOCATION
 40
0.0
  0
ENDSEC
  0
SECTION
  2
CLASSES
  0
CLASS
  1
ACDBDICTIONARYWDFLT
  2
AcDbDictionaryWithDefault
  3
ObjectDBX Classes
 90
        0
 91
        1
280
     0
281
     0
  0
CLASS
  1
MATERIAL
  2
AcDbMaterial
  3
ObjectDBX Classes
 90
     1153
 91
        3
280
     0
281
     0
  0
CLASS
  1
VISUALSTYLE
  2
AcDbVisualStyle
  3
ObjectDBX Classes
 90
     4095
 91
       16
280
     0
281
     0
  0
CLASS
  1
SCALE
  2
AcDbScale
  3
ObjectDBX Classes
 90
     1153
 91
       33
280
     0
281
     0
  0
CLASS
  1
TABLESTYLE
  2
AcDbTableStyle
  3
ObjectDBX Classes
 90
     4095
 91
        1
280
     0
281
     0
  0
CLASS
  1
MLEADERSTYLE
  2
AcDbMLeaderStyle
  3
ACDB_MLEADERSTYLE_CLASS
 90
     4095
 91
        1
280
     0
281
     0
  0
CLASS
  1
DICTIONARYVAR
  2
AcDbDictionaryVar
  3
ObjectDBX Classes
 90
        0
 91
        3
280
     0
281
     0
  0
CLASS
  1
CELLSTYLEMAP
  2
AcDbCellStyleMap
  3
ObjectDBX Classes
 90
     1152
 91
        1
280
     0
281
     0
  0
ENDSEC
  0
SECTION
  2
TABLES
  0
TABLE
  2
VPORT
  5
8
330
0
100
AcDbSymbolTable
 70
     1
  0
VPORT
  5
5F
330
8
100
AcDbSymbolTableRecord
100
AcDbViewportTableRecord
  2
*Active
 70
     0
 10
0.0
 20
0.0
 11
1.0
 21
1.0
 12
525.0
 22
742.4999999999999
 13
0.0
 23
0.0
 14
1.0
 24
1.0
 15
0.0
 25
0.0
 16
0.0
 26
0.0
 36
1.0
 17
0.0
 27
0.0
 37
0.0
 40
1485.0
 41
0.7070707070707071
 42
50.0
 43
0.0
 44
0.0
 50
0.0
 51
0.0
 71
     0
 72
   100
 73
     1
 74
     1
 75
     0
 76
     0
 77
     0
 78
     0
281
     0
 65
     1
110
0.0
120
0.0
130
0.0
111
1.0
121
0.0
131
0.0
112
0.0
122
1.0
132
0.0
 79
     0
146
0.0
 60
     3
 61
     5
292
     1
282
     1
141
0.0
142
0.0
 63
   250
421
  3355443
  0
ENDTAB
  0
TABLE
  2
LTYPE
  5
5
330
0
100
AcDbSymbolTable
 70
    60
  0
LTYPE
  5
63
330
5
100
AcDbSymbolTableRecord
100
AcDbLinetypeTableRecord
  2
ByBlock
 70
     0
  3

 72
    65
 73
     0
 40
0.0
  0
LTYPE
  5
64
330
5
100
AcDbSymbolTableRecord
100
AcDbLinetypeTableRecord
  2
ByLayer
 70
     0
  3

 72
    65
 73
     0
 40
0.0
  0
LTYPE
  5
65
330
5
100
AcDbSymbolTableRecord
100
AcDbLinetypeTableRecord
  2
Continuous
 70
     0
  3
Solid line
 72
    65
 73
     0
 40
0.0
  0
LTYPE
  5
7D
330
5
100
AcDbSymbolTableRecord
100
AcDbLinetypeTableRecord
  2
Section_View_Lines
 70
     0
  3
Section View Lines
 72
    65
 73
     4
 40
0.8406
 49
0.6614
 74
     0
 49
-0.0827
 74
     0
 49
0.0138
 74
     0
 49
-0.0827
 74
     0
  0
LTYPE
  5
7E
330
5
100
AcDbSymbolTableRecord
100
AcDbLinetypeTableRecord
  2
CHAIN
 70
     0
  3
Chain ____ _ ____ _ ____ _ ____ _ ____ _ ____
 72
    65
 73
     4
 40
0.3543
 49
0.2362
 74
     0
 49
-0.0295
 74
     0
 49
0.0591
 74
     0
 49
-0.0295
 74
     0
  0
LTYPE
  5
7F
330
5
100
AcDbSymbolTableRecord
100
AcDbLinetypeTableRecord
  2
DASH_DOT
 70
     0
  3
Dash dot _._._._._._._._._._._._._._._.
 72
    65
 73
     4
 40
0.37
 49
0.24
 74
     0
 49
-0.06
 74
     0
 49
0.01
 74
     0
 49
-0.06
 74
     0
  0
LTYPE
  5
80
330
5
100
AcDbSymbolTableRecord
100
AcDbLinetypeTableRecord
  2
DASH_DOUBLE_DOT
 70
     0
  3
Dash Double Dot __ __ . __ __ . __ __ . __ _
 72
    65
 73
     6
 40
0.4398
 49
0.24
 74
     0
 49
-0.06
 74
     0
 49
0.0098
 74
     0
 49
-0.06
 74
     0
 49
0.01
 74
     0
 49
-0.06
 74
     0
  0
LTYPE
  5
81
330
5
100
AcDbSymbolTableRecord
100
AcDbLinetypeTableRecord
  2
DASH_TRIPLE_DOT
 70
     0
  3
Dash Triple-Dot _ . . . _ . . . _ . . . _
 72
    65
 73
     8
 40
0.51
 49
0.24
 74
     0
 49
-0.06
 74
     0
 49
0.01
 74
     0
 49
-0.06
 74
     0
 49
0.01
 74
     0
 49
-0.06
 74
     0
 49
0.01
 74
     0
 49
-0.06
 74
     0
  0
LTYPE
  5
82
330
5
100
AcDbSymbolTableRecord
100
AcDbLinetypeTableRecord
  2
DASHED
 70
     0
  3
Dashed __ __ __ __ __ __ __ __ __ __ __ __ __ _
 72
    65
 73
     2
 40
0.2067
 49
0.1654
 74
     0
 49
-0.0413
 74
     0
  0
LTYPE
  5
83
330
5
100
AcDbSymbolTableRecord
100
AcDbLinetypeTableRecord
  2
DASHED_SPACE
 70
     0
  3
Dashed Space _._._._._._._._._._._._._._._.
 72
    65
 73
     2
 40
0.2067
 49
0.1654
 74
     0
 49
-0.0413
 74
     0
  0
LTYPE
  5
84
330
5
100
AcDbSymbolTableRecord
100
AcDbLinetypeTableRecord
  2
DOTTED
 70
     0
  3
Dotted . . . . . . . . . . . . . . . . . . . . 
 72
    65
 73
     2
 40
0.0482
 49
0.0069
 74
     0
 49
-0.0413
 74
     0
  0
LTYPE
  5
85
330
5
100
AcDbSymbolTableRecord
100
AcDbLinetypeTableRecord
  2
DOUBLE_DASH_CHAIN
 70
     0
  3
Double Dash Chain ___ _ _ ___ _ _ ___ _ _ ___ _
 72
    65
 73
     6
 40
1.240299999999999
 49
0.6614
 74
     0
 49
-0.0827
 74
     0
 49
0.1654
 74
     0
 49
-0.0827
 74
     0
 49
0.1654
 74
     0
 49
-0.0827
 74
     0
  0
LTYPE
  5
86
330
5
100
AcDbSymbolTableRecord
100
AcDbLinetypeTableRecord
  2
DOUBLE_DASH_DOT
 70
     0
  3
Double Dash Dot __ __ . __ __ . __ __ . __ _
 72
    65
 73
     6
 40
0.67
 49
0.24
 74
     0
 49
-0.06
 74
     0
 49
0.24
 74
     0
 49
-0.06
 74
     0
 49
0.01
 74
     0
 49
-0.06
 74
     0
  0
LTYPE
  5
87
330
5
100
AcDbSymbolTableRecord
100
AcDbLinetypeTableRecord
  2
DOUBLE_DASH_DOUBLE_DOT
 70
     0
  3
Double-dash double-dot _ _ . . _ _ . . _
 72
    65
 73
     8
 40
0.7400000000000001
 49
0.24
 74
     0
 49
-0.06
 74
     0
 49
0.24
 74
     0
 49
-0.06
 74
     0
 49
0.01
 74
     0
 49
-0.06
 74
     0
 49
0.01
 74
     0
 49
-0.06
 74
     0
  0
LTYPE
  5
88
330
5
100
AcDbSymbolTableRecord
100
AcDbLinetypeTableRecord
  2
DOUBLE_DASH_TRIPLE_DOT
 70
     0
  3
Double Dash Triple Dot __ __ . . . __ __ . . .
 72
    65
 73
    10
 40
0.8100000000000001
 49
0.24
 74
     0
 49
-0.06
 74
     0
 49
0.24
 74
     0
 49
-0.06
 74
     0
 49
0.01
 74
     0
 49
-0.06
 74
     0
 49
0.01
 74
     0
 49
-0.06
 74
     0
 49
0.01
 74
     0
 49
-0.06
 74
     0
  0
LTYPE
  5
89
330
5
100
AcDbSymbolTableRecord
100
AcDbLinetypeTableRecord
  2
LONG_DASH_DOTTED
 70
     0
  3
Long-Dash Dot ____ . ____ . ____ . ____ . _
 72
    65
 73
     4
 40
0.3001
 49
0.2362
 74
     0
 49
-0.0295
 74
     0
 49
0.0049
 74
     0
 49
-0.0295
 74
     0
  0
LTYPE
  5
8A
330
5
100
AcDbSymbolTableRecord
100
AcDbLinetypeTableRecord
  2
LONG_DASH_DOUBLE_DOT
 70
     0
  3
Long Dash Double Dot ____ . . ____ . . ____ . .
 72
    65
 73
     6
 40
0.3345
 49
0.2362
 74
     0
 49
-0.0295
 74
     0
 49
0.0049
 74
     0
 49
-0.0295
 74
     0
 49
0.0049
 74
     0
 49
-0.0295
 74
     0
  0
LTYPE
  5
8B
330
5
100
AcDbSymbolTableRecord
100
AcDbLinetypeTableRecord
  2
LONG_DASH_TRIPLE_DOT
 70
     0
  3
Long Dash Triple Dot ____ ... ____ ... ____
 72
    65
 73
     8
 40
0.75
 49
0.48
 74
     0
 49
-0.06
 74
     0
 49
0.01
 74
     0
 49
-0.06
 74
     0
 49
0.01
 74
     0
 49
-0.06
 74
     0
 49
0.01
 74
     0
 49
-0.06
 74
     0
  0
LTYPE
  5
8C
330
5
100
AcDbSymbolTableRecord
100
AcDbLinetypeTableRecord
  2
BORDER
 70
     0
  3
Border __ __ . __ __ . __ __ . __ __ . __ __ .
 72
    65
 73
     6
 40
44.45
 49
12.7
 74
     0
 49
-6.349999999999999
 74
     0
 49
12.7
 74
     0
 49
-6.349999999999999
 74
     0
 49
0.0
 74
     0
 49
-6.349999999999999
 74
     0
  0
LTYPE
  5
8D
330
5
100
AcDbSymbolTableRecord
100
AcDbLinetypeTableRecord
  2
BORDER2
 70
     0
  3
Border (.5x) __.__.__.__.__.__.__.__.__.__.__.
 72
    65
 73
     6
 40
22.225
 49
6.349999999999999
 74
     0
 49
-3.174999999999999
 74
     0
 49
6.349999999999999
 74
     0
 49
-3.174999999999999
 74
     0
 49
0.0
 74
     0
 49
-3.174999999999999
 74
     0
  0
LTYPE
  5
8E
330
5
100
AcDbSymbolTableRecord
100
AcDbLinetypeTableRecord
  2
BORDERX2
 70
     0
  3
Border (2x) ____  ____  .  ____  ____  .  ___
 72
    65
 73
     6
 40
88.9
 49
25.4
 74
     0
 49
-12.7
 74
     0
 49
25.4
 74
     0
 49
-12.7
 74
     0
 49
0.0
 74
     0
 49
-12.7
 74
     0
  0
LTYPE
  5
8F
330
5
100
AcDbSymbolTableRecord
100
AcDbLinetypeTableRecord
  2
CENTER
 70
     0
  3
Center ____ _ ____ _ ____ _ ____ _ ____ _ ____
 72
    65
 73
     4
 40
50.8
 49
31.75
 74
     0
 49
-6.349999999999999
 74
     0
 49
6.349999999999999
 74
     0
 49
-6.349999999999999
 74
     0
  0
LTYPE
  5
90
330
5
100
AcDbSymbolTableRecord
100
AcDbLinetypeTableRecord
  2
CENTER2
 70
     0
  3
Center (.5x) ___ _ ___ _ ___ _ ___ _ ___ _ ___
 72
    65
 73
     4
 40
28.575
 49
19.05
 74
     0
 49
-3.174999999999999
 74
     0
 49
3.174999999999999
 74
     0
 49
-3.174999999999999
 74
     0
  0
LTYPE
  5
91
330
5
100
AcDbSymbolTableRecord
100
AcDbLinetypeTableRecord
  2
CENTERX2
 70
     0
  3
Center (2x) ________  __  ________  __  _____
 72
    65
 73
     4
 40
101.6
 49
63.5
 74
     0
 49
-12.7
 74
     0
 49
12.7
 74
     0
 49
-12.7
 74
     0
  0
LTYPE
  5
92
330
5
100
AcDbSymbolTableRecord
100
AcDbLinetypeTableRecord
  2
DASHDOT2
 70
     0
  3
Dash dot (.5x) _._._._._._._._._._._._._._._.
 72
    65
 73
     4
 40
12.7
 49
6.349999999999999
 74
     0
 49
-3.174999999999999
 74
     0
 49
0.0
 74
     0
 49
-3.174999999999999
 74
     0
  0
LTYPE
  5
93
330
5
100
AcDbSymbolTableRecord
100
AcDbLinetypeTableRecord
  2
DASHDOTX2
 70
     0
  3
Dash dot (2x) ____  .  ____  .  ____  .  ___
 72
    65
 73
     4
 40
50.8
 49
25.4
 74
     0
 49
-12.7
 74
     0
 49
0.0
 74
     0
 49
-12.7
 74
     0
  0
LTYPE
  5
94
330
5
100
AcDbSymbolTableRecord
100
AcDbLinetypeTableRecord
  2
DASHED2
 70
     0
  3
Dashed (.5x) _ _ _ _ _ _ _ _ _ _ _ _ _ _ _ _ _
 72
    65
 73
     2
 40
9.524999999999998
 49
6.349999999999999
 74
     0
 49
-3.174999999999999
 74
     0
  0
LTYPE
  5
95
330
5
100
AcDbSymbolTableRecord
100
AcDbLinetypeTableRecord
  2
DASHEDX2
 70
     0
  3
Dashed (2x) ____  ____  ____  ____  ____  ___
 72
    65
 73
     2
 40
38.1
 49
25.4
 74
     0
 49
-12.7
 74
     0
  0
LTYPE
  5
96
330
5
100
AcDbSymbolTableRecord
100
AcDbLinetypeTableRecord
  2
DIVIDE
 70
     0
  3
Divide ____ . . ____ . . ____ . . ____ . . ____
 72
    65
 73
     6
 40
31.75
 49
12.7
 74
     0
 49
-6.349999999999999
 74
     0
 49
0.0
 74
     0
 49
-6.349999999999999
 74
     0
 49
0.0
 74
     0
 49
-6.349999999999999
 74
     0
  0
LTYPE
  5
97
330
5
100
AcDbSymbolTableRecord
100
AcDbLinetypeTableRecord
  2
DIVIDE2
 70
     0
  3
Divide (.5x) __..__..__..__..__..__..__..__.._
 72
    65
 73
     6
 40
15.875
 49
6.349999999999999
 74
     0
 49
-3.174999999999999
 74
     0
 49
0.0
 74
     0
 49
-3.174999999999999
 74
     0
 49
0.0
 74
     0
 49
-3.174999999999999
 74
     0
  0
LTYPE
  5
98
330
5
100
AcDbSymbolTableRecord
100
AcDbLinetypeTableRecord
  2
DIVIDEX2
 70
     0
  3
Divide (2x) ________  .  .  ________  .  .  _
 72
    65
 73
     6
 40
63.49999999999999
 49
25.4
 74
     0
 49
-12.7
 74
     0
 49
0.0
 74
     0
 49
-12.7
 74
     0
 49
0.0
 74
     0
 49
-12.7
 74
     0
  0
LTYPE
  5
99
330
5
100
AcDbSymbolTableRecord
100
AcDbLinetypeTableRecord
  2
DOT
 70
     0
  3
Dot . . . . . . . . . . . . . . . . . . . . . .
 72
    65
 73
     2
 40
6.349999999999999
 49
0.0
 74
     0
 49
-6.349999999999999
 74
     0
  0
LTYPE
  5
9A
330
5
100
AcDbSymbolTableRecord
100
AcDbLinetypeTableRecord
  2
DOT2
 70
     0
  3
Dot (.5x) .....................................
 72
    65
 73
     2
 40
3.174999999999999
 49
0.0
 74
     0
 49
-3.174999999999999
 74
     0
  0
LTYPE
  5
9B
330
5
100
AcDbSymbolTableRecord
100
AcDbLinetypeTableRecord
  2
DOTX2
 70
     0
  3
Dot (2x) .  .  .  .  .  .  .  .  .  .  .  .  . 
 72
    65
 73
     2
 40
12.7
 49
0.0
 74
     0
 49
-12.7
 74
     0
  0
LTYPE
  5
9C
330
5
100
AcDbSymbolTableRecord
100
AcDbLinetypeTableRecord
  2
HIDDEN
 70
     0
  3
Hidden __ __ __ __ __ __ __ __ __ __ __ __ __ _
 72
    65
 73
     2
 40
9.524999999999998
 49
6.349999999999999
 74
     0
 49
-3.174999999999999
 74
     0
  0
LTYPE
  5
9D
330
5
100
AcDbSymbolTableRecord
100
AcDbLinetypeTableRecord
  2
HIDDEN2
 70
     0
  3
Hidden (.5x) _ _ _ _ _ _ _ _ _ _ _ _ _ _ _ _ _
 72
    65
 73
     2
 40
4.762499999999999
 49
3.174999999999999
 74
     0
 49
-1.587499999999999
 74
     0
  0
LTYPE
  5
9E
330
5
100
AcDbSymbolTableRecord
100
AcDbLinetypeTableRecord
  2
HIDDENX2
 70
     0
  3
Hidden (2x) ____ ____ ____ ____ ____ ____ ____
 72
    65
 73
     2
 40
19.05
 49
12.7
 74
     0
 49
-6.349999999999999
 74
     0
  0
LTYPE
  5
9F
330
5
100
AcDbSymbolTableRecord
100
AcDbLinetypeTableRecord
  2
PHANTOM
 70
     0
  3
Phantom ______  __  __  ______  __  __  ______
 72
    65
 73
     6
 40
63.5
 49
31.75
 74
     0
 49
-6.349999999999999
 74
     0
 49
6.349999999999999
 74
     0
 49
-6.349999999999999
 74
     0
 49
6.349999999999999
 74
     0
 49
-6.349999999999999
 74
     0
  0
LTYPE
  5
A0
330
5
100
AcDbSymbolTableRecord
100
AcDbLinetypeTableRecord
  2
PHANTOM2
 70
     0
  3
Phantom (.5x) ___ _ _ ___ _ _ ___ _ _ ___ _ _
 72
    65
 73
     6
 40
31.75
 49
15.875
 74
     0
 49
-3.174999999999999
 74
     0
 49
3.174999999999999
 74
     0
 49
-3.174999999999999
 74
     0
 49
3.174999999999999
 74
     0
 49
-3.174999999999999
 74
     0
  0
LTYPE
  5
A1
330
5
100
AcDbSymbolTableRecord
100
AcDbLinetypeTableRecord
  2
PHANTOMX2
 70
     0
  3
Phantom (2x) ____________    ____    ____   _
 72
    65
 73
     6
 40
127.0
 49
63.5
 74
     0
 49
-12.7
 74
     0
 49
12.7
 74
     0
 49
-12.7
 74
     0
 49
12.7
 74
     0
 49
-12.7
 74
     0
  0
LTYPE
  5
A2
330
5
100
AcDbSymbolTableRecord
100
AcDbLinetypeTableRecord
  2
ACAD_ISO02W100
 70
     0
  3
ISO dash __ __ __ __ __ __ __ __ __ __ __ __ __
 72
    65
 73
     2
 40
15.0
 49
12.0
 74
     0
 49
-3.0
 74
     0
  0
LTYPE
  5
A3
330
5
100
AcDbSymbolTableRecord
100
AcDbLinetypeTableRecord
  2
ACAD_ISO03W100
 70
     0
  3
ISO dash space __    __    __    __    __    __
 72
    65
 73
     2
 40
30.0
 49
12.0
 74
     0
 49
-18.0
 74
     0
  0
LTYPE
  5
A4
330
5
100
AcDbSymbolTableRecord
100
AcDbLinetypeTableRecord
  2
ACAD_ISO04W100
 70
     0
  3
ISO long-dash dot ____ . ____ . ____ . ____ . _
 72
    65
 73
     4
 40
30.0
 49
24.0
 74
     0
 49
-3.0
 74
     0
 49
0.0
 74
     0
 49
-3.0
 74
     0
  0
LTYPE
  5
A5
330
5
100
AcDbSymbolTableRecord
100
AcDbLinetypeTableRecord
  2
ACAD_ISO05W100
 70
     0
  3
ISO long-dash double-dot ____ .. ____ .. ____ .
 72
    65
 73
     6
 40
33.0
 49
24.0
 74
     0
 49
-3.0
 74
     0
 49
0.0
 74
     0
 49
-3.0
 74
     0
 49
0.0
 74
     0
 49
-3.0
 74
     0
  0
LTYPE
  5
A6
330
5
100
AcDbSymbolTableRecord
100
AcDbLinetypeTableRecord
  2
ACAD_ISO06W100
 70
     0
  3
ISO long-dash triple-dot ____ ... ____ ... ____
 72
    65
 73
     8
 40
36.0
 49
24.0
 74
     0
 49
-3.0
 74
     0
 49
0.0
 74
     0
 49
-3.0
 74
     0
 49
0.0
 74
     0
 49
-3.0
 74
     0
 49
0.0
 74
     0
 49
-3.0
 74
     0
  0
LTYPE
  5
A7
330
5
100
AcDbSymbolTableRecord
100
AcDbLinetypeTableRecord
  2
ACAD_ISO07W100
 70
     0
  3
ISO dot . . . . . . . . . . . . . . . . . . . .
 72
    65
 73
     2
 40
3.0
 49
0.0
 74
     0
 49
-3.0
 74
     0
  0
LTYPE
  5
A8
330
5
100
AcDbSymbolTableRecord
100
AcDbLinetypeTableRecord
  2
ACAD_ISO08W100
 70
     0
  3
ISO long-dash short-dash ____ __ ____ __ ____ _
 72
    65
 73
     4
 40
36.0
 49
24.0
 74
     0
 49
-3.0
 74
     0
 49
6.0
 74
     0
 49
-3.0
 74
     0
  0
LTYPE
  5
A9
330
5
100
AcDbSymbolTableRecord
100
AcDbLinetypeTableRecord
  2
ACAD_ISO09W100
 70
     0
  3
ISO long-dash double-short-dash ____ __ __ ____
 72
    65
 73
     6
 40
45.0
 49
24.0
 74
     0
 49
-3.0
 74
     0
 49
6.0
 74
     0
 49
-3.0
 74
     0
 49
6.0
 74
     0
 49
-3.0
 74
     0
  0
LTYPE
  5
AA
330
5
100
AcDbSymbolTableRecord
100
AcDbLinetypeTableRecord
  2
ACAD_ISO10W100
 70
     0
  3
ISO dash dot __ . __ . __ . __ . __ . __ . __ .
 72
    65
 73
     4
 40
18.0
 49
12.0
 74
     0
 49
-3.0
 74
     0
 49
0.0
 74
     0
 49
-3.0
 74
     0
  0
LTYPE
  5
AB
330
5
100
AcDbSymbolTableRecord
100
AcDbLinetypeTableRecord
  2
ACAD_ISO11W100
 70
     0
  3
ISO double-dash dot __ __ . __ __ . __ __ . __ 
 72
    65
 73
     6
 40
33.0
 49
12.0
 74
     0
 49
-3.0
 74
     0
 49
12.0
 74
     0
 49
-3.0
 74
     0
 49
0.0
 74
     0
 49
-3.0
 74
     0
  0
LTYPE
  5
AC
330
5
100
AcDbSymbolTableRecord
100
AcDbLinetypeTableRecord
  2
ACAD_ISO12W100
 70
     0
  3
ISO dash double-dot __ . . __ . . __ . . __ . .
 72
    65
 73
     6
 40
21.0
 49
12.0
 74
     0
 49
-3.0
 74
     0
 49
0.0
 74
     0
 49
-3.0
 74
     0
 49
0.0
 74
     0
 49
-3.0
 74
     0
  0
LTYPE
  5
AD
330
5
100
AcDbSymbolTableRecord
100
AcDbLinetypeTableRecord
  2
ACAD_ISO13W100
 70
     0
  3
ISO double-dash double-dot __ __ . . __ __ . . 
 72
    65
 73
     8
 40
36.0
 49
12.0
 74
     0
 49
-3.0
 74
     0
 49
12.0
 74
     0
 49
-3.0
 74
     0
 49
0.0
 74
     0
 49
-3.0
 74
     0
 49
0.0
 74
     0
 49
-3.0
 74
     0
  0
LTYPE
  5
AE
330
5
100
AcDbSymbolTableRecord
100
AcDbLinetypeTableRecord
  2
ACAD_ISO14W100
 70
     0
  3
ISO dash triple-dot __ . . . __ . . . __ . . . 
 72
    65
 73
     8
 40
24.0
 49
12.0
 74
     0
 49
-3.0
 74
     0
 49
0.0
 74
     0
 49
-3.0
 74
     0
 49
0.0
 74
     0
 49
-3.0
 74
     0
 49
0.0
 74
     0
 49
-3.0
 74
     0
  0
LTYPE
  5
AF
330
5
100
AcDbSymbolTableRecord
100
AcDbLinetypeTableRecord
  2
ACAD_ISO15W100
 70
     0
  3
ISO double-dash triple-dot __ __ . . . __ __ . 
 72
    65
 73
    10
 40
39.0
 49
12.0
 74
     0
 49
-3.0
 74
     0
 49
12.0
 74
     0
 49
-3.0
 74
     0
 49
0.0
 74
     0
 49
-3.0
 74
     0
 49
0.0
 74
     0
 49
-3.0
 74
     0
 49
0.0
 74
     0
 49
-3.0
 74
     0
  0
LTYPE
  5
B2
330
5
100
AcDbSymbolTableRecord
100
AcDbLinetypeTableRecord
  2
FENCELINE1
 70
     0
  3
Fenceline circle ----0-----0----0-----0----0---
 72
    65
 73
     4
 40
36.83
 49
6.349999999999999
 74
     0
 49
-2.54
 74
     4
 75
   133
340
B1
 46
2.54
 50
0.0
 44
-2.54
 45
0.0
 49
-2.54
 74
     0
 49
25.4
 74
     0
  0
LTYPE
  5
B3
330
5
100
AcDbSymbolTableRecord
100
AcDbLinetypeTableRecord
  2
FENCELINE2
 70
     0
  3
Fenceline square ----[]-----[]----[]-----[]----
 72
    65
 73
     4
 40
36.83
 49
6.349999999999999
 74
     0
 49
-2.54
 74
     4
 75
   132
340
B1
 46
2.54
 50
0.0
 44
-2.54
 45
0.0
 49
-2.54
 74
     0
 49
25.4
 74
     0
  0
LTYPE
  5
B4
330
5
100
AcDbSymbolTableRecord
100
AcDbLinetypeTableRecord
  2
TRACKS
 70
     0
  3
Tracks -|-|-|-|-|-|-|-|-|-|-|-|-|-|-|-|-|-|-|-|
 72
    65
 73
     2
 40
7.62
 49
3.81
 74
     4
 75
   130
340
B1
 46
6.349999999999999
 50
0.0
 44
0.0
 45
0.0
 49
3.81
 74
     0
  0
LTYPE
  5
B5
330
5
100
AcDbSymbolTableRecord
100
AcDbLinetypeTableRecord
  2
BATTING
 70
     0
  3
Batting SSSSSSSSSSSSSSSSSSSSSSSSSSSSSSSSSSSSSSS
 72
    65
 73
     4
 40
10.16254
 49
0.00254
 74
     0
 49
-2.54
 74
     4
 75
   134
340
B1
 46
2.54
 50
0.0
 44
-2.54
 45
0.0
 49
-5.08
 74
     4
 75
   134
340
B1
 46
2.54
 50
180.0
 44
2.54
 45
0.0
 49
-2.54
 74
     0
  0
LTYPE
  5
B6
330
5
100
AcDbSymbolTableRecord
100
AcDbLinetypeTableRecord
  2
HOT_WATER_SUPPLY
 70
     0
  3
Hot water supply ---- HW ---- HW ---- HW ----
 72
    65
 73
     3
 40
22.86
 49
12.7
 74
     0
 49
-5.08
 74
     2
 75
     0
340
5D
 46
2.54
 50
0.0
 44
-2.54
 45
-1.27
  9
HW
 49
-5.08
 74
     0
  0
LTYPE
  5
B7
330
5
100
AcDbSymbolTableRecord
100
AcDbLinetypeTableRecord
  2
GAS_LINE
 70
     0
  3
Gas line ----GAS----GAS----GAS----GAS----GAS---
 72
    65
 73
     3
 40
24.13
 49
12.7
 74
     0
 49
-5.08
 74
     2
 75
     0
340
5D
 46
2.54
 50
0.0
 44
-2.54
 45
-1.27
  9
GAS
 49
-6.349999999999999
 74
     0
  0
LTYPE
  5
B8
330
5
100
AcDbSymbolTableRecord
100
AcDbLinetypeTableRecord
  2
ZIGZAG
 70
     0
  3
Zig zag /\/\/\/\/\/\/\/\/\/\/\/\/\/\/\/\/\/\/\/
 72
    65
 73
     4
 40
20.32254
 49
0.00254
 74
     0
 49
-5.08
 74
     4
 75
   131
340
B1
 46
5.08
 50
0.0
 44
-5.08
 45
0.0
 49
-10.16
 74
     4
 75
   131
340
B1
 46
5.08
 50
180.0
 44
5.08
 45
0.0
 49
-5.08
 74
     0
  0
LTYPE
  5
D1
330
5
100
AcDbSymbolTableRecord
100
AcDbLinetypeTableRecord
  2
BYBLOCK_ACAD
 70
     0
  3

 72
    65
 73
     0
 40
0.0
  0
ENDTAB
  0
TABLE
  2
LAYER
  5
2
330
0
100
AcDbSymbolTable
 70
    25
  0
LAYER
  5
5C
330
2
100
AcDbSymbolTableRecord
100
AcDbLayerTableRecord
  2
0
 70
     0
 62
     7
  6
Continuous
370
    -3
390
F
347
21
  0
LAYER
  5
C8
330
2
100
AcDbSymbolTableRecord
100
AcDbLayerTableRecord
  2
Schraffur (ISO)
 70
     0
 62
     7
  6
Continuous
370
    18
390
F
347
21
  0
LAYER
  5
C9
330
2
100
AcDbSymbolTableRecord
100
AcDbLayerTableRecord
  2
Sichtbar (ISO)
 70
     0
 62
     7
  6
Continuous
370
    35
390
F
347
21
  0
LAYER
  5
CB
330
2
100
AcDbSymbolTableRecord
100
AcDbLayerTableRecord
  2
Skizziergeometrie (ISO)
 70
     0
 62
     7
  6
Continuous
370
    25
390
F
347
21
  0
LAYER
  5
CC
330
2
100
AcDbSymbolTableRecord
100
AcDbLayerTableRecord
  2
Symbol (ISO)
 70
     0
 62
     7
  6
Continuous
370
    25
390
F
347
21
  0
LAYER
  5
CD
330
2
100
AcDbSymbolTableRecord
100
AcDbLayerTableRecord
  2
Titel (ISO)
 70
     0
 62
     7
  6
Continuous
370
    50
390
F
347
21
  0
ENDTAB
  0
TABLE
  2
STYLE
  5
3
330
0
100
AcDbSymbolTable
 70
    25
  0
STYLE
  5
5D
330
3
100
AcDbSymbolTableRecord
100
AcDbTextStyleTableRecord
  2
Standard
 70
     0
 40
0.0
 41
1.0
 50
0.0
 71
     0
 42
0.2
  3
isocpeur.ttf
  4

1001
ACAD
1000
ISOCPEUR
1071
      256
  0
STYLE
  5
62
330
3
100
AcDbSymbolTableRecord
100
AcDbTextStyleTableRecord
  2
Annotative
 70
     0
 40
0.0
 41
1.0
 50
0.0
 71
     0
 42
0.2
  3
txt
  4

1001
AcadAnnotative
1000
AnnotativeData
1002
{
1070
     1
1070
     1
1002
}
  0
STYLE
  5
B1
330
3
100
AcDbSymbolTableRecord
100
AcDbTextStyleTableRecord
  2

 70
     1
 40
0.0
 41
1.0
 50
0.0
 71
     0
 42
0.2
  3
ltypeshp.shx
  4

  0
STYLE
  5
D2
330
3
100
AcDbSymbolTableRecord
100
AcDbTextStyleTableRecord
  2
Alternativer Text (GOST)
 70
     0
 40
0.0
 41
0.8000000119209289
 50
0.0
 71
     0
 42
0.2
  3
ARIAL.TTF
  4

1001
ACAD
1000
Arial
1071
      256
  0
STYLE
  5
D3
330
3
100
AcDbSymbolTableRecord
100
AcDbTextStyleTableRecord
  2
Bezeichnungstext (ANSI)
 70
     0
 40
0.0
 41
1.0
 50
0.0
 71
     0
 42
0.2
  3
TAHOMA.TTF
  4

1001
ACAD
1000
Tahoma
1071
      256
  0
STYLE
  5
D4
330
3
100
AcDbSymbolTableRecord
100
AcDbTextStyleTableRecord
  2
Bezeichnungstext (DIN)
 70
     0
 40
0.0
 41
1.0
 50
0.0
 71
     0
 42
0.2
  3
isocpeur.ttf
  4

1001
ACAD
1000
ISOCPEUR
1071
      256
  0
STYLE
  5
D5
330
3
100
AcDbSymbolTableRecord
100
AcDbTextStyleTableRecord
  2
Bezeichnungstext (ISO)
 70
     0
 40
0.0
 41
1.0
 50
0.0
 71
     0
 42
0.2
  3
TAHOMA.TTF
  4

1001
ACAD
1000
Tahoma
1071
      256
  0
STYLE
  5
D6
330
3
100
AcDbSymbolTableRecord
100
AcDbTextStyleTableRecord
  2
Bezeichnungstext (JIS)
 70
     0
 40
0.0
 41
1.0
 50
0.0
 71
     0
 42
0.2
  3
TAHOMA.TTF
  4

1001
ACAD
1000
Tahoma
1071
      256
  0
STYLE
  5
D7
330
3
100
AcDbSymbolTableRecord
100
AcDbTextStyleTableRecord
  2
Normale Textgröße (GOST)
 70
     0
 40
0.0
 41
1.0
 50
0.0
 71
     0
 42
0.2
  3
GOST Common.ttf
  4

1001
ACAD
1000
GOST Common
1071
      256
  0
STYLE
  5
D8
330
3
100
AcDbSymbolTableRecord
100
AcDbTextStyleTableRecord
  2
Notiztext (ANSI)
 70
     0
 40
0.0
 41
1.0
 50
0.0
 71
     0
 42
0.2
  3
TAHOMA.TTF
  4

1001
ACAD
1000
Tahoma
1071
      256
  0
STYLE
  5
D9
330
3
100
AcDbSymbolTableRecord
100
AcDbTextStyleTableRecord
  2
Notiztext (DIN)
 70
     0
 40
0.0
 41
1.0
 50
0.0
 71
     0
 42
0.2
  3
isocpeur.ttf
  4

1001
ACAD
1000
ISOCPEUR
1071
      256
  0
STYLE
  5
DA
330
3
100
AcDbSymbolTableRecord
100
AcDbTextStyleTableRecord
  2
Notiztext (ISO)
 70
     0
 40
0.0
 41
1.0
 50
0.0
 71
     0
 42
0.2
  3
TAHOMA.TTF
  4

1001
ACAD
1000
Tahoma
1071
      256
  0
STYLE
  5
DB
330
3
100
AcDbSymbolTableRecord
100
AcDbTextStyleTableRecord
  2
Notiztext (JIS)
 70
     0
 40
0.0
 41
1.0
 50
0.0
 71
     0
 42
0.2
  3
TAHOMA.TTF
  4

1001
ACAD
1000
Tahoma
1071
      256
  0
STYLE
  5
DC
330
3
100
AcDbSymbolTableRecord
100
AcDbTextStyleTableRecord
  2
Notiztext_03.5
 70
     0
 40
0.0
 41
0.899999976158142
 50
0.0
 71
     0
 42
0.2
  3
ARIAL.TTF
  4

1001
ACAD
1000
Arial
1071
      256
  0
STYLE
  5
DD
330
3
100
AcDbSymbolTableRecord
100
AcDbTextStyleTableRecord
  2
Plan_Kopf_01.5
 70
     0
 40
0.0
 41
0.899999976158142
 50
0.0
 71
     0
 42
0.2
  3
ARIAL.TTF
  4

1001
ACAD
1000
Arial
1071
      256
  0
STYLE
  5
DE
330
3
100
AcDbSymbolTableRecord
100
AcDbTextStyleTableRecord
  2
Plan_Kopf_02.0
 70
     0
 40
0.0
 41
0.899999976158142
 50
0.0
 71
     0
 42
0.2
  3
ARIAL.TTF
  4

1001
ACAD
1000
Arial
1071
      256
  0
STYLE
  5
DF
330
3
100
AcDbSymbolTableRecord
100
AcDbTextStyleTableRecord
  2
Plan_Kopf_02.5
 70
     0
 40
0.0
 41
0.899999976158142
 50
0.0
 71
     0
 42
0.2
  3
ARIAL.TTF
  4

1001
ACAD
1000
Arial
1071
      256
  0
STYLE
  5
E0
330
3
100
AcDbSymbolTableRecord
100
AcDbTextStyleTableRecord
  2
Plan_Kopf_03.5
 70
     0
 40
0.0
 41
0.899999976158142
 50
0.0
 71
     0
 42
0.2
  3
ARIAL.TTF
  4

1001
ACAD
1000
Arial
1071
      256
  0
STYLE
  5
E1
330
3
100
AcDbSymbolTableRecord
100
AcDbTextStyleTableRecord
  2
Plan_Kopf_05.0
 70
     0
 40
0.0
 41
0.899999976158142
 50
0.0
 71
     0
 42
0.2
  3
ARIAL.TTF
  4

1001
ACAD
1000
Arial
1071
      256
  0
STYLE
  5
E2
330
3
100
AcDbSymbolTableRecord
100
AcDbTextStyleTableRecord
  2
Stückliste
 70
     0
 40
0.0
 41
0.899999976158142
 50
0.0
 71
     0
 42
0.2
  3
isocpeur.ttf
  4

1001
ACAD
1000
ISOCPEUR
1071
      256
  0
STYLE
  5
E3
330
3
100
AcDbSymbolTableRecord
100
AcDbTextStyleTableRecord
  2
TolListe_12
 70
     0
 40
0.0
 41
1.0
 50
0.0
 71
     0
 42
0.2
  3
isocpeur.ttf
  4

1001
ACAD
1000
ISOCPEUR
1071
      256
  0
STYLE
  5
E4
330
3
100
AcDbSymbolTableRecord
100
AcDbTextStyleTableRecord
  2
Vergrößerter Text (GOST)
 70
     0
 40
0.0
 41
1.0
 50
0.0
 71
     0
 42
0.2
  3
GOST Common.ttf
  4

1001
ACAD
1000
GOST Common
1071
      256
  0
STYLE
  5
E5
330
3
100
AcDbSymbolTableRecord
100
AcDbTextStyleTableRecord
  2
Verkleinerter Text (GOST)
 70
     0
 40
0.0
 41
0.8000000119209289
 50
0.0
 71
     0
 42
0.2
  3
GOST Common.ttf
  4

1001
ACAD
1000
GOST Common
1071
      256
  0
STYLE
  5
148
330
3
100
AcDbSymbolTableRecord
100
AcDbTextStyleTableRecord
  2
TolListe_12-AIGDT
 70
     0
 40
0.0
 41
1.0
 50
0.0
 71
     0
 42
0.2
  3
AIGDT___.TTF
  4

1001
ACAD
1000
AIGDT
1071
      514
  0
STYLE
  5
1A1
330
3
100
AcDbSymbolTableRecord
100
AcDbTextStyleTableRecord
  2
TolListe_12-Arial
 70
     0
 40
0.0
 41
1.100000023841857
 50
0.0
 71
     0
 42
0.2
  3

  4

1001
ACAD
1000
Arial
1071
-33554176
  0
ENDTAB
  0
TABLE
  2
VIEW
  5
6
330
0
100
AcDbSymbolTable
 70
     0
  0
ENDTAB
  0
TABLE
  2
UCS
  5
7
330
0
100
AcDbSymbolTable
 70
     0
  0
ENDTAB
  0
TABLE
  2
APPID
  5
9
330
0
100
AcDbSymbolTable
 70
     4
  0
APPID
  5
5E
330
9
100
AcDbSymbolTableRecord
100
AcDbRegAppTableRecord
  2
ACAD
 70
     0
  0
APPID
  5
66
330
9
100
AcDbSymbolTableRecord
100
AcDbRegAppTableRecord
  2
AcadAnnotative
 70
     0
  0
APPID
  5
70
330
9
100
AcDbSymbolTableRecord
100
AcDbRegAppTableRecord
  2
ACAD_MLEADERVER
 70
     0
  0
APPID
  5
1A7
330
9
100
AcDbSymbolTableRecord
100
AcDbRegAppTableRecord
  2
AcadAnnoPO
 70
     0
  0
ENDTAB
  0
TABLE
  2
DIMSTYLE
  5
A
330
0
100
AcDbSymbolTable
 70
    12
100
AcDbDimStyleTable
 71
     0
  0
DIMSTYLE
105
60
330
A
100
AcDbSymbolTableRecord
100
AcDbDimStyleTableRecord
  2
Standard
 70
     0
340
5D
  0
DIMSTYLE
105
61
330
A
100
AcDbSymbolTableRecord
100
AcDbDimStyleTableRecord
  2
Annotative
 70
     0
340
5D
1001
AcadAnnotative
1000
AnnotativeData
1002
{
1070
     1
1070
     1
1002
}
  0
DIMSTYLE
105
F4
330
A
100
AcDbSymbolTableRecord
100
AcDbDimStyleTableRecord
  2
Sonstiges Objekt (DIN)
 70
     0
 40
5.0
 41
5.0
 42
0.0
 43
5.999999999999999
 44
3.174999999999999
 45
0.00000001
 46
10.0
 77
     1
 78
     8
 79
     2
140
5.25
143
0.03937
146
0.6666666666666666
147
0.8
171
     3
172
     1
176
   256
177
   256
178
   256
271
     2
272
     2
274
     3
278
    44
284
     8
286
     8
340
D4
341
E6
371
    -1
372
    -1
  0
DIMSTYLE
105
F5
330
A
100
AcDbSymbolTableRecord
100
AcDbDimStyleTableRecord
  2
Sonstiges Objekt (DIN)$7
 70
     0
 40
5.0
 41
5.0
 42
0.0
 43
5.999999999999999
 44
3.174999999999999
 45
0.00000001
 46
10.0
 77
     1
 78
     8
 79
     2
140
5.25
143
0.03937
146
0.6666666666666666
147
0.8
171
     3
172
     1
176
   256
177
   256
178
   256
271
     2
272
     2
274
     3
278
    44
284
     8
286
     8
340
D4
341
E6
371
    25
372
    -1
  0
DIMSTYLE
105
F6
330
A
100
AcDbSymbolTableRecord
100
AcDbDimStyleTableRecord
  2
Standard - Methode 2a (DIN)
 70
     0
 40
5.0
 41
2.5
 42
0.8
 43
5.999999999999999
 44
3.174999999999999
 45
0.00000001
 46
10.0
 77
     1
 78
     8
 79
     2
140
3.5
143
0.03937
147
0.8
170
     1
171
     3
172
     1
176
   256
177
   256
178
   256
179
     2
271
     2
272
     2
274
     3
278
    44
284
     8
286
     8
340
D9
371
    -1
372
    -1
  0
DIMSTYLE
105
F7
330
A
100
AcDbSymbolTableRecord
100
AcDbDimStyleTableRecord
  2
Standard - Methode 2a (DIN)$7
 70
     0
 40
5.0
 41
2.5
 42
0.8
 43
5.999999999999999
 44
3.174999999999999
 45
0.00000001
 46
10.0
 77
     1
 78
     8
 79
     2
140
3.5
143
0.03937
147
0.8
170
     1
171
     3
172
     1
176
   256
177
   256
178
   256
179
     2
271
     2
272
     2
274
     3
278
    44
284
     8
286
     8
340
D9
371
    -1
372
    -1
  0
DIMSTYLE
105
F8
330
A
100
AcDbSymbolTableRecord
100
AcDbDimStyleTableRecord
  2
Standard - Methode 2b (DIN)
 70
     0
 40
5.0
 41
2.5
 42
0.0
 43
5.999999999999999
 44
3.174999999999999
 45
0.00000001
 46
10.0
 77
     1
 78
     8
 79
     2
140
3.5
143
0.03937
147
0.8
171
     3
172
     1
176
   256
177
   256
178
   256
271
     2
272
     2
274
     3
278
    44
284
     8
286
     8
340
D9
371
    -1
372
    -1
  0
DIMSTYLE
105
F9
330
A
100
AcDbSymbolTableRecord
100
AcDbDimStyleTableRecord
  2
Standard - Methode 2b (DIN)$7
 70
     0
 40
5.0
 41
2.5
 42
0.0
 43
5.999999999999999
 44
3.174999999999999
 45
0.00000001
 46
10.0
 77
     1
 78
     8
 79
     2
140
3.5
143
0.03937
147
0.8
171
     3
172
     1
176
   256
177
   256
178
   256
271
     2
272
     2
274
     3
278
    44
284
     8
286
     8
340
D9
371
    -1
372
    -1
  0
DIMSTYLE
105
FA
330
A
100
AcDbSymbolTableRecord
100
AcDbDimStyleTableRecord
  2
Standard (DIN)
 70
     0
 40
5.0
 41
2.5
 42
0.8
 43
5.999999999999999
 44
3.174999999999999
 45
0.00000001
 46
10.0
 73
     0
 74
     0
 77
     1
 78
     8
 79
     2
140
3.5
143
0.03937
147
0.8
171
     3
172
     1
176
   256
177
   256
178
   256
271
     2
272
     3
274
     3
278
    44
340
D9
371
    -1
372
    -1
  0
DIMSTYLE
105
FB
330
A
100
AcDbSymbolTableRecord
100
AcDbDimStyleTableRecord
  2
Standard (DIN)$7
 70
     0
 40
5.0
 41
2.5
 42
0.8
 43
5.999999999999999
 44
3.174999999999999
 45
0.00000001
 46
10.0
 73
     0
 74
     0
 77
     1
 78
     8
 79
     2
140
3.5
143
0.03937
147
0.8
171
     3
172
     1
176
   256
177
   256
178
   256
271
     2
272
     3
274
     3
278
    44
340
D9
371
    -1
372
    -1
  0
DIMSTYLE
105
FC
330
A
100
AcDbSymbolTableRecord
100
AcDbDimStyleTableRecord
  2
Alternativ (ISO)
 70
     0
 40
5.0
 41
2.5
340
5D
342
FD
  0
DIMSTYLE
105
10E
330
A
100
AcDbSymbolTableRecord
100
AcDbDimStyleTableRecord
  2
Bezug (ISO)
 70
     0
 40
5.0
 41
2.5
340
5D
342
FD
  0
ENDTAB
  0
TABLE
  2
BLOCK_RECORD
  5
1
330
0
100
AcDbSymbolTable
 70
     8
  0
BLOCK_RECORD
  5
75
330
1
100
AcDbSymbolTableRecord
100
AcDbBlockTableRecord
  2
*Model_Space
340
78
 70
     0
280
     1
281
     0
  0
BLOCK_RECORD
  5
71
330
1
100
AcDbSymbolTableRecord
100
AcDbBlockTableRecord
  2
*Paper_Space
340
74
 70
     0
280
     1
281
     0
  0
BLOCK_RECORD
  5
79
330
1
100
AcDbSymbolTableRecord
100
AcDbBlockTableRecord
  2
*Paper_Space0
340
7C
 70
     0
280
     1
281
     0
  0
BLOCK_RECORD
  5
E6
330
1
100
AcDbSymbolTableRecord
100
AcDbBlockTableRecord
  2
Filled-1
340
0
 70
     0
280
     1
281
     0
  0
BLOCK_RECORD
  5
FD
330
1
100
AcDbSymbolTableRecord
100
AcDbBlockTableRecord
  2
_Closed
340
0
 70
     0
280
     1
281
     0
  0
BLOCK_RECORD
  5
104
330
1
100
AcDbSymbolTableRecord
100
AcDbBlockTableRecord
  2
DatumFilled45
340
0
 70
     0
280
     1
281
     0
  0
BLOCK_RECORD
  5
10F
330
1
100
AcDbSymbolTableRecord
100
AcDbBlockTableRecord
  2
Tolleranz Liste
340
0
 70
     0
280
     1
281
     0
  0
BLOCK_RECORD
  5
1AA
330
1
100
AcDbSymbolTableRecord
100
AcDbBlockTableRecord
  2
ProtoTyp
340
0
 70
     0
280
     1
281
     0
  0
BLOCK_RECORD
  5
1AF
330
1
100
AcDbSymbolTableRecord
100
AcDbBlockTableRecord
  2
Logo
340
0
 70
     0
280
     1
281
     0
  0
BLOCK_RECORD
  5
22C
330
1
100
AcDbSymbolTableRecord
100
AcDbBlockTableRecord
  2
P gross
340
0
102
{BLKREFS
331
34E
331
34F
331
350
102
}
 70
     0
280
     1
281
     0
  0
ENDTAB
  0
ENDSEC
  0
SECTION
  2
BLOCKS
  0
BLOCK
  5
76
330
75
100
AcDbEntity
  8
0
100
AcDbBlockBegin
  2
*Model_Space
 70
     0
 10
0.0
 20
0.0
 30
0.0
  3
*Model_Space
  1

  0
ENDBLK
  5
77
330
75
100
AcDbEntity
  8
0
100
AcDbBlockEnd
  0
BLOCK
  5
72
330
71
100
AcDbEntity
 67
     1
  8
0
100
AcDbBlockBegin
  2
*Paper_Space
 70
     0
 10
0.0
 20
0.0
 30
0.0
  3
*Paper_Space
  1

  0
ENDBLK
  5
73
330
71
100
AcDbEntity
 67
     1
  8
0
100
AcDbBlockEnd
  0
BLOCK
  5
7A
330
79
100
AcDbEntity
 67
     1
  8
0
100
AcDbBlockBegin
  2
*Paper_Space0
 70
     0
 10
0.0
 20
0.0
 30
0.0
  3
*Paper_Space0
  1

  0
ENDBLK
  5
7B
330
79
100
AcDbEntity
 67
     1
  8
0
100
AcDbBlockEnd
  0
BLOCK
  5
E7
330
E6
100
AcDbEntity
  8
0
100
AcDbBlockBegin
  2
Filled-1
 70
     0
 10
0.0
 20
0.0
 30
0.0
  3
Filled-1
  1

  0
LINE
  5
E9
330
E6
100
AcDbEntity
  8
0
 62
     0
100
AcDbLine
 10
-1.0
 20
0.0
 30
0.0
 11
0.0
 21
0.0
 31
0.0
  0
POLYLINE
  5
EA
330
E6
100
AcDbEntity
  8
0
 62
     0
100
AcDb2dPolyline
 66
     1
 10
0.0
 20
0.0
 30
0.0
 70
   128
  0
VERTEX
  5
EB
330
EA
100
AcDbEntity
  8
0
 62
     0
100
AcDbVertex
100
AcDb2dVertex
 10
-1.0
 20
-0.1
 30
0.0
  0
VERTEX
  5
EC
330
EA
100
AcDbEntity
  8
0
 62
     0
100
AcDbVertex
100
AcDb2dVertex
 10
0.0
 20
0.0
 30
0.0
  0
VERTEX
  5
EE
330
EA
100
AcDbEntity
  8
0
 62
     0
100
AcDbVertex
100
AcDb2dVertex
 10
-1.0
 20
0.1
 30
0.0
  0
VERTEX
  5
EF
330
EA
100
AcDbEntity
  8
0
 62
     0
100
AcDbVertex
100
AcDb2dVertex
 10
-1.0
 20
-0.1
 30
0.0
  0
SEQEND
  5
ED
330
EA
100
AcDbEntity
  8
0
 62
     0
  0
SOLID
  5
F0
330
E6
100
AcDbEntity
  8
0
 62
     0
100
AcDbTrace
 10
-1.0
 20
-0.1
 30
0.0
 11
0.0
 21
0.0
 31
0.0
 12
-1.0
 22
0.1
 32
0.0
 13
-1.0
 23
-0.1
 33
0.0
  0
LINE
  5
F1
330
E6
100
AcDbEntity
  8
0
 62
     0
100
AcDbLine
 10
-1.0
 20
-0.1
 30
0.0
 11
0.0
 21
0.0
 31
0.0
  0
LINE
  5
F2
330
E6
100
AcDbEntity
  8
0
 62
     0
100
AcDbLine
 10
0.0
 20
0.0
 30
0.0
 11
-1.0
 21
0.1
 31
0.0
  0
LINE
  5
F3
330
E6
100
AcDbEntity
  8
0
 62
     0
100
AcDbLine
 10
-1.0
 20
0.1
 30
0.0
 11
-1.0
 21
-0.1
 31
0.0
  0
ENDBLK
  5
E8
330
E6
100
AcDbEntity
  8
0
100
AcDbBlockEnd
  0
BLOCK
  5
102
330
FD
100
AcDbEntity
  8
0
100
AcDbBlockBegin
  2
_Closed
 70
     0
 10
0.0
 20
0.0
 30
0.0
  3
_Closed
  1

  0
LINE
  5
FE
330
FD
100
AcDbEntity
  8
0
  6
ByBlock
 62
     0
370
    -2
100
AcDbLine
 10
-1.0
 20
0.1666666666666666
 30
0.0
 11
0.0
 21
0.0
 31
0.0
  0
LINE
  5
FF
330
FD
100
AcDbEntity
  8
0
  6
ByBlock
 62
     0
370
    -2
100
AcDbLine
 10
0.0
 20
0.0
 30
0.0
 11
-1.0
 21
-0.1666666666666666
 31
0.0
  0
LINE
  5
100
330
FD
100
AcDbEntity
  8
0
  6
ByBlock
 62
     0
370
    -2
100
AcDbLine
 10
-1.0
 20
0.1666666666666666
 30
0.0
 11
-1.0
 21
-0.1666666666666666
 31
0.0
  0
LINE
  5
101
330
FD
100
AcDbEntity
  8
0
  6
ByBlock
 62
     0
370
    -2
100
AcDbLine
 10
0.0
 20
0.0
 30
0.0
 11
-1.0
 21
0.0
 31
0.0
  0
ENDBLK
  5
103
330
FD
100
AcDbEntity
  8
0
100
AcDbBlockEnd
  0
BLOCK
  5
105
330
104
100
AcDbEntity
  8
0
100
AcDbBlockBegin
  2
DatumFilled45
 70
     0
 10
0.0
 20
0.0
 30
0.0
  3
DatumFilled45
  1

  0
POLYLINE
  5
107
330
104
100
AcDbEntity
  8
0
 62
     0
100
AcDb2dPolyline
 66
     1
 10
0.0
 20
0.0
 30
0.0
 70
   128
  0
VERTEX
  5
108
330
107
100
AcDbEntity
  8
0
 62
     0
100
AcDbVertex
100
AcDb2dVertex
 10
0.0
 20
1.0
 30
0.0
  0
VERTEX
  5
109
330
107
100
AcDbEntity
  8
0
 62
     0
100
AcDbVertex
100
AcDb2dVertex
 10
0.0
 20
-1.0
 30
0.0
  0
VERTEX
  5
10B
330
107
100
AcDbEntity
  8
0
 62
     0
100
AcDbVertex
100
AcDb2dVertex
 10
-1.0
 20
0.0
 30
0.0
  0
VERTEX
  5
10C
330
107
100
AcDbEntity
  8
0
 62
     0
100
AcDbVertex
100
AcDb2dVertex
 10
0.0
 20
1.0
 30
0.0
  0
SEQEND
  5
10A
330
107
100
AcDbEntity
  8
0
 62
     0
  0
SOLID
  5
10D
330
104
100
AcDbEntity
  8
0
 62
     0
100
AcDbTrace
 10
0.0
 20
1.0
 30
0.0
 11
0.0
 21
-1.0
 31
0.0
 12
-1.0
 22
0.0
 32
0.0
 13
0.0
 23
1.0
 33
0.0
  0
ENDBLK
  5
106
330
104
100
AcDbEntity
  8
0
100
AcDbBlockEnd
  0
BLOCK
  5
110
330
10F
100
AcDbEntity
  8
0
100
AcDbBlockBegin
  2
Tolleranz Liste
 70
     2
 10
0.0
 20
0.0
 30
0.0
  3
Tolleranz Liste
  1

  0
LINE
  5
112
330
10F
100
AcDbEntity
  8
Titel (ISO)
 62
     7
100
AcDbLine
 10
-190.0
 20
0.0
 30
0.0
 11
0.0
 21
0.0
 31
0.0
  0
LINE
  5
113
330
10F
100
AcDbEntity
  8
Titel (ISO)
 62
     7
370
    18
100
AcDbLine
 10
-190.0
 20
2.999999999999989
 30
0.0
 11
0.0
 21
2.999999999999989
 31
0.0
  0
LINE
  5
114
330
10F
100
AcDbEntity
  8
Titel (ISO)
 62
     7
370
    18
100
AcDbLine
 10
-190.0
 20
5.999999999999978
 30
0.0
 11
0.0
 21
5.999999999999978
 31
0.0
  0
LINE
  5
115
330
10F
100
AcDbEntity
  8
Titel (ISO)
 62
     7
370
    18
100
AcDbLine
 10
-190.0
 20
8.999999999999968
 30
0.0
 11
0.0
 21
8.999999999999968
 31
0.0
  0
LINE
  5
116
330
10F
100
AcDbEntity
  8
Titel (ISO)
 62
     7
100
AcDbLine
 10
-190.0
 20
18.99999999999996
 30
0.0
 11
0.0
 21
18.99999999999996
 31
0.0
  0
LINE
  5
117
330
10F
100
AcDbEntity
  8
Titel (ISO)
 62
     7
370
    18
100
AcDbLine
 10
-130.861111
 20
13.7701170573068
 30
0.0
 11
-130.861111
 21
0.0
 31
0.0
  0
LINE
  5
118
330
10F
100
AcDbEntity
  8
Titel (ISO)
 62
     7
370
    18
100
AcDbLine
 10
-162.972222
 20
13.7701170573068
 30
0.0
 11
-162.972222
 21
0.0
 31
0.0
  0
LINE
  5
119
330
10F
100
AcDbEntity
  8
Titel (ISO)
 62
     7
370
    18
100
AcDbLine
 10
-154.944444
 20
13.7701170573068
 30
0.0
 11
-154.944444
 21
0.0
 31
0.0
  0
LINE
  5
11A
330
10F
100
AcDbEntity
  8
Titel (ISO)
 62
     7
370
    18
100
AcDbLine
 10
-146.916667
 20
13.7701170573068
 30
0.0
 11
-146.916667
 21
0.0
 31
0.0
  0
LINE
  5
11B
330
10F
100
AcDbEntity
  8
Titel (ISO)
 62
     7
370
    18
100
AcDbLine
 10
-138.888889
 20
13.7701170573068
 30
0.0
 11
-138.888889
 21
0.0
 31
0.0
  0
LINE
  5
11C
330
10F
100
AcDbEntity
  8
Titel (ISO)
 62
     7
370
    18
100
AcDbLine
 10
-183.25
 20
9.070117057306816
 30
0.0
 11
-183.25
 21
0.0
 31
0.0
  0
LINE
  5
11D
330
10F
100
AcDbEntity
  8
Titel (ISO)
 62
     7
100
AcDbLine
 10
-190.0
 20
18.99999999999996
 30
0.0
 11
-190.0
 21
0.0
 31
0.0
  0
LINE
  5
11E
330
10F
100
AcDbEntity
  8
Titel (ISO)
 62
     7
100
AcDbLine
 10
-171.0
 20
18.99999999999996
 30
0.0
 11
-171.0
 21
0.0
 31
0.0
  0
LINE
  5
11F
330
10F
100
AcDbEntity
  8
Titel (ISO)
 62
     7
370
    18
100
AcDbLine
 10
-190.0
 20
11.99999999999997
 30
0.0
 11
-171.0
 21
11.99999999999995
 31
0.0
  0
LINE
  5
120
330
10F
100
AcDbEntity
  8
Titel (ISO)
  6
Continuous
 62
     7
370
    25
100
AcDbLine
 10
-105.0
 20
7.570117057306813
 30
0.0
 11
-103.5
 21
7.570117057306813
 31
0.0
  0
LINE
  5
121
330
10F
100
AcDbEntity
  8
Titel (ISO)
  6
Continuous
 62
     7
370
    25
100
AcDbLine
 10
-112.5
 20
7.570117057306813
 30
0.0
 11
-111.0
 21
7.570117057306813
 31
0.0
  0
LINE
  5
122
330
10F
100
AcDbEntity
  8
Titel (ISO)
 62
     7
370
    18
100
AcDbLine
 10
-122.833333
 20
13.7701170573068
 30
0.0
 11
-122.833333
 21
0.0
 31
0.0
  0
LINE
  5
123
330
10F
100
AcDbEntity
  8
Titel (ISO)
 62
     7
370
    18
100
AcDbLine
 10
-114.805556
 20
13.7701170573068
 30
0.0
 11
-114.805556
 21
0.0
 31
0.0
  0
LINE
  5
124
330
10F
100
AcDbEntity
  8
Titel (ISO)
 62
     7
370
    18
100
AcDbLine
 10
-106.777778
 20
13.7701170573068
 30
0.0
 11
-106.777778
 21
0.0
 31
0.0
  0
LINE
  5
125
330
10F
100
AcDbEntity
  8
Titel (ISO)
 62
     7
100
AcDbLine
 10
-99.25000000000004
 20
18.99999999999996
 30
0.0
 11
-99.25000000000004
 21
0.0
 31
0.0
  0
LINE
  5
126
330
10F
100
AcDbEntity
  8
Titel (ISO)
 62
     7
370
    18
100
AcDbLine
 10
-95.75000000000002
 20
6.070117057306809
 30
0.0
 11
-95.75000000000002
 21
0.0
 31
0.0
  0
LINE
  5
127
330
10F
100
AcDbEntity
  8
Titel (ISO)
 62
     7
370
    18
100
AcDbLine
 10
-50.75000000000002
 20
6.070117057306809
 30
0.0
 11
-50.75000000000002
 21
0.0
 31
0.0
  0
LINE
  5
128
330
10F
100
AcDbEntity
  8
Titel (ISO)
 62
     7
370
    18
100
AcDbLine
 10
-60.25000000000002
 20
6.070117057306809
 30
0.0
 11
-60.25000000000002
 21
0.0
 31
0.0
  0
LINE
  5
129
330
10F
100
AcDbEntity
  8
Titel (ISO)
 62
     7
370
    18
100
AcDbLine
 10
-69.75000000000001
 20
13.7701170573068
 30
0.0
 11
-69.75000000000001
 21
9.070117057306816
 31
0.0
  0
LINE
  5
12A
330
10F
100
AcDbEntity
  8
Titel (ISO)
 62
     7
370
    18
100
AcDbLine
 10
-60.25000000000002
 20
13.7701170573068
 30
0.0
 11
-60.25000000000002
 21
9.070117057306816
 31
0.0
  0
LINE
  5
12B
330
10F
100
AcDbEntity
  8
Titel (ISO)
 62
     7
370
    18
100
AcDbLine
 10
-50.75000000000002
 20
13.7701170573068
 30
0.0
 11
-50.75000000000002
 21
9.070117057306816
 31
0.0
  0
LINE
  5
12C
330
10F
100
AcDbEntity
  8
Titel (ISO)
 62
     7
370
    18
100
AcDbLine
 10
-30.93750000000003
 20
13.7701170573068
 30
0.0
 11
-30.93750000000003
 21
9.070117057306816
 31
0.0
  0
LINE
  5
12D
330
10F
100
AcDbEntity
  8
Titel (ISO)
 62
     7
370
    18
100
AcDbLine
 10
-20.88650000000005
 20
6.070117057306809
 30
0.0
 11
-20.88650000000005
 21
0.0
 31
0.0
  0
LINE
  5
12E
330
10F
100
AcDbEntity
  8
Titel (ISO)
 62
     7
370
    18
100
AcDbLine
 10
-20.88650000000005
 20
13.7701170573068
 30
0.0
 11
-20.88650000000005
 21
9.070117057306816
 31
0.0
  0
LINE
  5
12F
330
10F
100
AcDbEntity
  8
Titel (ISO)
 62
     7
370
    18
100
AcDbLine
 10
-10.31250000000003
 20
13.7701170573068
 30
0.0
 11
-10.31250000000003
 21
9.070117057306816
 31
0.0
  0
LINE
  5
130
330
10F
100
AcDbEntity
  8
Titel (ISO)
 62
     7
370
    18
100
AcDbLine
 10
-10.31250000000003
 20
6.070117057306809
 30
0.0
 11
-10.31250000000003
 21
0.0
 31
0.0
  0
LINE
  5
131
330
10F
100
AcDbEntity
  8
Titel (ISO)
 62
     7
370
    18
100
AcDbLine
 10
-30.93750000000003
 20
6.070117057306809
 30
0.0
 11
-30.93750000000003
 21
0.0
 31
0.0
  0
LINE
  5
132
330
10F
100
AcDbEntity
  8
Titel (ISO)
 62
     7
100
AcDbLine
 10
0.0
 20
0.0
 30
0.0
 11
0.0
 21
18.99999999999996
 31
0.0
  0
LINE
  5
133
330
10F
100
AcDbEntity
  8
Titel (ISO)
 62
     7
370
    18
100
AcDbLine
 10
-69.75000000000001
 20
6.070117057306809
 30
0.0
 11
-69.75000000000001
 21
0.0
 31
0.0
  0
LINE
  5
134
330
10F
100
AcDbEntity
  8
Titel (ISO)
 62
     7
100
AcDbLine
 10
-79.25000000000003
 20
18.99999999999996
 30
0.0
 11
-79.25000000000003
 21
0.0
 31
0.0
  0
LINE
  5
135
330
10F
100
AcDbEntity
  8
Titel (ISO)
370
    18
100
AcDbLine
 10
-40.98894210789946
 20
8.999999999999968
 30
0.0
 11
-40.98894210789946
 21
13.7701170573068
 31
0.0
  0
LINE
  5
136
330
10F
100
AcDbEntity
  8
Titel (ISO)
370
    18
100
AcDbLine
 10
-40.81485039283569
 20
5.999999999999978
 30
0.0
 11
-40.81485039283569
 21
0.0
 31
0.0
  0
SPLINE
  5
137
330
10F
100
AcDbEntity
  8
Titel (ISO)
 62
     7
370
    18
100
AcDbSpline
210
0.0
220
0.0
230
1.0
 70
     8
 71
     4
 72
    15
 73
    10
 74
     0
 42
0.0000000001
 43
0.0000000001
 40
0.0
 40
0.0
 40
0.0
 40
0.0
 40
0.0
 40
0.2448862522902173
 40
0.372542829838283
 40
0.537712414826782
 40
0.6892572885860062
 40
0.7957086571447725
 40
1.0
 40
1.0
 40
1.0
 40
1.0
 40
1.0
 10
-66.28694873925519
 20
7.64651126040853
 30
0.0
 10
-66.28992133139053
 20
7.684326472464615
 30
0.0
 10
-66.30278798934259
 20
7.801058419170612
 30
0.0
 10
-66.54106167347689
 20
7.859647761643628
 30
0.0
 10
-66.76118299621641
 20
7.833028120844396
 30
0.0
 10
-66.95021102053759
 20
7.740235927209404
 30
0.0
 10
-66.9202360191262
 20
7.49058708009608
 30
0.0
 10
-66.82199748484567
 20
7.453245599066988
 30
0.0
 10
-66.75742436020357
 20
7.442433905354555
 30
0.0
 10
-66.71777189204616
 20
7.426104053762667
 30
0.0
  0
LINE
  5
138
330
10F
100
AcDbEntity
  8
0
100
AcDbLine
 10
-66.26659572485762
 20
7.671004611388436
 30
0.0
 11
-66.37244477211755
 21
7.81624801356239
 31
0.0
  0
ARC
  5
139
330
10F
100
AcDbEntity
  8
0
100
AcDbCircle
 10
-66.45038101106777
 20
7.648258902765228
 30
0.0
 40
0.1619243095334992
100
AcDbArc
 50
12.14398738960057
 51
60.02290540986514
  0
LINE
  5
13A
330
10F
100
AcDbEntity
  8
0
100
AcDbLine
 10
-66.89670837859369
 20
7.487238148935002
 30
0.0
 11
-66.71468159031151
 21
7.422119968654339
 31
0.0
  0
ARC
  5
13B
330
10F
100
AcDbEntity
  8
0
100
AcDbCircle
 10
-66.6890673438411
 20
7.78069177527314
 30
0.0
 40
0.3462460077174544
100
AcDbArc
 50
237.7261995458496
 51
262.9055232599758
  0
SPLINE
  5
13C
330
10F
100
AcDbEntity
  8
Titel (ISO)
 62
     7
370
    18
100
AcDbSpline
210
0.0
220
0.0
230
1.0
 70
     8
 71
     4
 72
    12
 73
     7
 74
     0
 42
0.0000000001
 43
0.0000000001
 40
0.0
 40
0.0
 40
0.0
 40
0.0
 40
0.0
 40
0.3933269697832906
 40
0.5579414211012799
 40
1.0
 40
1.0
 40
1.0
 40
1.0
 40
1.0
 10
-66.7177718920461
 20
7.426104053762667
 30
0.0
 10
-66.94102867992272
 20
7.36506224211622
 30
0.0
 10
-66.95038095686311
 20
7.40547820884279
 30
0.0
 10
-67.03925767066545
 20
6.865044071034649
 30
0.0
 10
-66.44367713306704
 20
6.956885902430158
 30
0.0
 10
-66.3418945025619
 20
7.013553608348583
 30
0.0
 10
-66.25537378160072
 20
7.154138853519782
 30
0.0
  0
SPLINE
  5
13D
330
10F
100
AcDbEntity
  8
Titel (ISO)
 62
     7
370
    18
100
AcDbSpline
210
0.0
220
0.0
230
1.0
 70
     8
 71
     4
 72
    12
 73
     7
 74
     0
 42
0.0000000001
 43
0.0000000001
 40
0.0
 40
0.0
 40
0.0
 40
0.0
 40
0.0
 40
0.3872212693569691
 40
0.5575199507602742
 40
1.0
 40
1.0
 40
1.0
 40
1.0
 40
1.0
 10
-23.59108108251476
 20
7.528905781183539
 30
0.0
 10
-23.70063657153558
 20
7.500278841709757
 30
0.0
 10
-23.87007003961081
 20
7.495055014400904
 30
0.0
 10
-23.87709660835664
 20
6.981211874419681
 30
0.0
 10
-23.33833653350904
 20
7.052090909862052
 30
0.0
 10
-23.20493964281642
 20
7.119913147019296
 30
0.0
 10
-23.12868297206911
 20
7.256940580940742
 30
0.0
  0
SPLINE
  5
13E
330
10F
100
AcDbEntity
  8
Titel (ISO)
 62
     7
370
    18
100
AcDbSpline
210
0.0
220
0.0
230
1.0
 70
     8
 71
     4
 72
    15
 73
    10
 74
     0
 42
0.0000000001
 43
0.0000000001
 40
0.0
 40
0.0
 40
0.0
 40
0.0
 40
0.0
 40
0.2448862522902173
 40
0.372542829838283
 40
0.537712414826782
 40
0.6892572885860062
 40
0.7957086571447725
 40
1.0
 40
1.0
 40
1.0
 40
1.0
 40
1.0
 10
-23.16025792972365
 20
7.74931298782949
 30
0.0
 10
-23.16323052185901
 20
7.787128199885575
 30
0.0
 10
-23.17609717981107
 20
7.903860146591572
 30
0.0
 10
-23.41437086394535
 20
7.962449489064589
 30
0.0
 10
-23.63449218668485
 20
7.935829848265356
 30
0.0
 10
-23.82352021100605
 20
7.843037654630364
 30
0.0
 10
-23.79354520959467
 20
7.59338880751704
 30
0.0
 10
-23.69530667531414
 20
7.556047326487949
 30
0.0
 10
-23.630733550672
 20
7.545235632775515
 30
0.0
 10
-23.59108108251462
 20
7.528905781183627
 30
0.0
  0
LINE
  5
13F
330
10F
100
AcDbEntity
  8
Skizziergeometrie (ISO)
100
AcDbLine
 10
-23.13990491532607
 20
7.773806338809468
 30
0.0
 11
-23.24575396258602
 21
7.91904974098335
 31
0.0
  0
LINE
  5
140
330
10F
100
AcDbEntity
  8
Skizziergeometrie (ISO)
100
AcDbLine
 10
-23.77001756906214
 20
7.590039876355962
 30
0.0
 11
-23.5879907807799
 21
7.524921696075281
 31
0.0
  0
ARC
  5
141
330
10F
100
AcDbEntity
  8
Skizziergeometrie (ISO)
100
AcDbCircle
 10
-23.32369020153624
 20
7.75106063018617
 30
0.0
 40
0.1619243095335294
100
AcDbArc
 50
12.14398738962304
 51
60.02290540987669
  0
ARC
  5
142
330
10F
100
AcDbEntity
  8
Skizziergeometrie (ISO)
100
AcDbCircle
 10
-23.56237653430956
 20
7.883493502694083
 30
0.0
 40
0.3462460077174411
100
AcDbArc
 50
237.7261995458445
 51
262.9055232599874
  0
TEXT
  5
143
330
10F
100
AcDbEntity
  8
Titel (ISO)
 62
     7
100
AcDbText
 10
-67.77000000000001
 20
10.07011705730681
 30
0.0
 40
1.500000059604644
  1
...50
  7
TolListe_12
100
AcDbText
  0
TEXT
  5
145
330
10F
100
AcDbEntity
  8
Titel (ISO)
 62
     7
100
AcDbText
 10
-67.77000000000001
 20
12.47011705730679
 30
0.0
 40
1.500000059604644
  1
>  10
  7
TolListe_12
100
AcDbText
  0
TEXT
  5
146
330
10F
100
AcDbEntity
  8
Titel (ISO)
 62
     7
100
AcDbText
 10
-77.52000000000001
 20
6.970117057306808
 30
0.0
 40
1.500000059604644
  1
Abmasse ±   Grad und Minuten)
  7
TolListe_12
100
AcDbText
  0
TEXT
  5
147
330
10F
100
AcDbEntity
  8
Titel (ISO)
 62
     7
100
AcDbText
 10
-77.27000000000001
 20
10.07011705730681
 30
0.0
 40
1.500000059604644
  1
...10
  7
TolListe_12
100
AcDbText
  0
MTEXT
  5
149
330
10F
100
AcDbEntity
  8
Titel (ISO)
 62
     7
100
AcDbMText
 10
-77.52000000000001
 20
0.4701170374385911
 30
0.0
 40
1.500000059604644
 41
0.0
 46
0.0
 71
     7
 72
     1
  1
\fAIGDT|b0|i0|p0;\fAIGDT|b0|i0;\H1.5000;`\fISOCPEUR|b0|i0;\W0.90;\H1.5000; 1\fAIGDT|b0|i0;\H1.5000;~\fISOCPEUR|b0|i0;\W0.90;\H1.5000;30
  7
TolListe_12-AIGDT
 73
     2
 44
1.0
  0
MTEXT
  5
14B
330
10F
100
AcDbEntity
  8
Titel (ISO)
 62
     7
100
AcDbMText
 10
-77.52000000000001
 20
3.470117037438589
 30
0.0
 40
1.500000059604644
 41
0.0
 46
0.0
 71
     7
 72
     1
  1
\fAIGDT|b0|i0|p0;\fAIGDT|b0|i0;\H1.5000;`\fISOCPEUR|b0|i0;\W0.90;\H1.5000; 1\fAIGDT|b0|i0;\H1.5000;~
  7
TolListe_12-AIGDT
 73
     2
 44
1.0
  0
TEXT
  5
14C
330
10F
100
AcDbEntity
  8
Titel (ISO)
 62
     7
100
AcDbText
 10
-97.77000000000001
 20
11.97011705730681
 30
0.0
 40
1.500000059604644
  1
für Winkelmasse
  7
TolListe_12
100
AcDbText
  0
TEXT
  5
14D
330
10F
100
AcDbEntity
  8
Titel (ISO)
 62
     7
100
AcDbText
 10
-97.97000000000004
 20
6.970117057306808
 30
0.0
 40
1.500000059604644
  1
Genauigkeitsgrad
  7
TolListe_12
100
AcDbText
  0
TEXT
  5
14E
330
10F
100
AcDbEntity
  8
Titel (ISO)
 62
     7
100
AcDbText
 10
-94.49929825881072
 20
0.9701170573068029
 30
0.0
 40
1.500000059604644
  1
c(grob)
  7
TolListe_12
100
AcDbText
  0
TEXT
  5
14F
330
10F
100
AcDbEntity
  8
Titel (ISO)
 62
     7
100
AcDbText
 10
-69.51999999999999
 20
15.97011705730679
 30
0.0
 40
1.500000059604644
  1
Nennmass in mm = Länge des kürzeren Winkelschenkels
  7
TolListe_12
100
AcDbText
  0
TEXT
  5
150
330
10F
100
AcDbEntity
  8
Titel (ISO)
 62
     7
100
AcDbText
 10
-8.332499999999996
 20
10.07011705730681
 30
0.0
 40
1.500000059604644
  1
..400
  7
TolListe_12
100
AcDbText
  0
TEXT
  5
151
330
10F
100
AcDbEntity
  8
Titel (ISO)
 62
     7
100
AcDbText
 10
-8.332499999999996
 20
12.47011705730679
 30
0.0
 40
1.500000059604644
  1
> 120
  7
TolListe_12
100
AcDbText
  0
TEXT
  5
152
330
10F
100
AcDbEntity
  8
Titel (ISO)
 62
     7
100
AcDbText
 10
-18.64499999999999
 20
10.07011705730681
 30
0.0
 40
1.500000059604644
  1
..120
  7
TolListe_12
100
AcDbText
  0
TEXT
  5
153
330
10F
100
AcDbEntity
  8
Titel (ISO)
 62
     7
100
AcDbText
 10
-18.64499999999999
 20
12.47011705730679
 30
0.0
 40
1.500000059604644
  1
>  50
  7
TolListe_12
100
AcDbText
  0
TEXT
  5
154
330
10F
100
AcDbEntity
  8
Titel (ISO)
 62
     7
100
AcDbText
 10
-28.95749999999999
 20
10.07011705730681
 30
0.0
 40
1.500000059604644
  1
...50
  7
TolListe_12
100
AcDbText
  0
TEXT
  5
155
330
10F
100
AcDbEntity
  8
Titel (ISO)
 62
     7
100
AcDbText
 10
-28.95749999999999
 20
12.47011705730679
 30
0.0
 40
1.500000059604644
  1
>  10
  7
TolListe_12
100
AcDbText
  0
TEXT
  5
156
330
10F
100
AcDbEntity
  8
Titel (ISO)
 62
     7
100
AcDbText
 10
-39.26999999999999
 20
10.07011705730681
 30
0.0
 40
1.500000059604644
  1
...10
  7
TolListe_12
100
AcDbText
  0
MTEXT
  5
157
330
10F
100
AcDbEntity
  8
Titel (ISO)
 62
     7
100
AcDbMText
 10
-17.895
 20
3.770673644983011
 30
0.0
 40
1.500000059604644
 41
0.0
 46
0.0
 71
     7
 72
     1
  1
\fAIGDT|b0|i0|p0;\fAIGDT|b0|i0;\H1.5000;`\fISOCPEUR|b0|i0;\W0.90;\H1.5000; 0,6
  7
TolListe_12-AIGDT
 73
     2
 44
1.0
  0
TEXT
  5
158
330
10F
100
AcDbEntity
  8
Titel (ISO)
 62
     7
100
AcDbText
 10
-34.52000000000002
 20
6.970117057306808
 30
0.0
 40
1.500000059604644
  1
Abmasse ±     (mm/100mm)
  7
TolListe_12
100
AcDbText
  0
MTEXT
  5
159
330
10F
100
AcDbEntity
  8
Titel (ISO)
 62
     7
100
AcDbMText
 10
-17.895
 20
0.7706736449830132
 30
0.0
 40
1.500000059604644
 41
0.0
 46
0.0
 71
     7
 72
     1
  1
\fAIGDT|b0|i0|p0;\fAIGDT|b0|i0;\H1.5000;`\fISOCPEUR|b0|i0;\W0.90;\H1.5000; 0,9
  7
TolListe_12-AIGDT
 73
     2
 44
1.0
  0
MTEXT
  5
15A
330
10F
100
AcDbEntity
  8
Titel (ISO)
 62
     7
100
AcDbMText
 10
-68.01999999999999
 20
0.4701170374385911
 30
0.0
 40
1.500000059604644
 41
0.0
 46
0.0
 71
     7
 72
     1
  1
\fAIGDT|b0|i0|p0;\fAIGDT|b0|i0;\H1.5000;`\fISOCPEUR|b0|i0;\W0.80;\H1.5000; 1\fAIGDT|b0|i0;\H1.5000;~
  7
TolListe_12-AIGDT
 73
     2
 44
1.0
  0
MTEXT
  5
15B
330
10F
100
AcDbEntity
  8
Titel (ISO)
 62
     7
100
AcDbMText
 10
-68.01999999999999
 20
3.470117037438589
 30
0.0
 40
1.500000059604644
 41
0.0
 46
0.0
 71
     7
 72
     1
  1
\fAIGDT|b0|i0|p0;\fAIGDT|b0|i0;\H1.5000;`\fISOCPEUR|b0|i0;\W0.80;\H1.5000; 30
  7
TolListe_12-AIGDT
 73
     2
 44
1.0
  0
MTEXT
  5
15C
330
10F
100
AcDbEntity
  8
Titel (ISO)
 62
     7
100
AcDbMText
 10
-58.52
 20
3.470117037438589
 30
0.0
 40
1.500000059604644
 41
0.0
 46
0.0
 71
     7
 72
     1
  1
\fAIGDT|b0|i0|p0;\fAIGDT|b0|i0;\H1.5000;`\fISOCPEUR|b0|i0;\W0.90;\H1.5000; 20
  7
TolListe_12-AIGDT
 73
     2
 44
1.0
  0
TEXT
  5
15D
330
10F
100
AcDbEntity
  8
Titel (ISO)
 62
     7
100
AcDbText
 10
-48.77000000000001
 20
10.07011705730681
 30
0.0
 40
1.500000059604644
  1
..400
  7
TolListe_12
100
AcDbText
  0
TEXT
  5
15E
330
10F
100
AcDbEntity
  8
Titel (ISO)
 62
     7
100
AcDbText
 10
-48.77000000000001
 20
12.47011705730679
 30
0.0
 40
1.500000059604644
  1
> 120
  7
TolListe_12
100
AcDbText
  0
MTEXT
  5
15F
330
10F
100
AcDbEntity
  8
Titel (ISO)
 62
     7
100
AcDbMText
 10
-48.01999999999999
 20
0.4701170374385911
 30
0.0
 40
1.500000059604644
 41
0.0
 46
0.0
 71
     7
 72
     1
  1
\fAIGDT|b0|i0|p0;\fAIGDT|b0|i0;\H1.5000;`\fISOCPEUR|b0|i0;\W0.90;\H1.5000; 15
  7
TolListe_12-AIGDT
 73
     2
 44
1.0
  0
MTEXT
  5
160
330
10F
100
AcDbEntity
  8
Titel (ISO)
 62
     7
100
AcDbMText
 10
-58.52
 20
0.4701170374385911
 30
0.0
 40
1.500000059604644
 41
0.0
 46
0.0
 71
     7
 72
     1
  1
\fAIGDT|b0|i0|p0;\fAIGDT|b0|i0;\H1.5000;`\fISOCPEUR|b0|i0;\W0.90;\H1.5000; 30
  7
TolListe_12-AIGDT
 73
     2
 44
1.0
  0
MTEXT
  5
161
330
10F
100
AcDbEntity
  8
Titel (ISO)
 62
     7
100
AcDbMText
 10
-48.01999999999999
 20
3.470117037438589
 30
0.0
 40
1.500000059604644
 41
0.0
 46
0.0
 71
     7
 72
     1
  1
\fAIGDT|b0|i0|p0;\fAIGDT|b0|i0;\H1.5000;`\fISOCPEUR|b0|i0;\W0.90;\H1.5000; 10
  7
TolListe_12-AIGDT
 73
     2
 44
1.0
  0
TEXT
  5
162
330
10F
100
AcDbEntity
  8
Titel (ISO)
 62
     7
100
AcDbText
 10
-139.52
 20
15.97011705730679
 30
0.0
 40
1.500000059604644
  1
Nennmass mm
  7
TolListe_12
100
AcDbText
  0
MTEXT
  5
163
330
10F
100
AcDbEntity
  8
Titel (ISO)
 62
     7
100
AcDbMText
 10
-38.52
 20
0.7706736449830132
 30
0.0
 40
1.500000059604644
 41
0.0
 46
0.0
 71
     7
 72
     1
  1
\fAIGDT|b0|i0|p0;\fAIGDT|b0|i0;\H1.5000;`\fISOCPEUR|b0|i0;\W0.90;\H1.5000; 2,5
  7
TolListe_12-AIGDT
 73
     2
 44
1.0
  0
MTEXT
  5
164
330
10F
100
AcDbEntity
  8
Titel (ISO)
 62
     7
100
AcDbMText
 10
-28.2075
 20
0.7706736449830132
 30
0.0
 40
1.500000059604644
 41
0.0
 46
0.0
 71
     7
 72
     1
  1
\fAIGDT|b0|i0|p0;\fAIGDT|b0|i0;\H1.5000;`\fISOCPEUR|b0|i0;\W0.90;\H1.5000; 1,7
  7
TolListe_12-AIGDT
 73
     2
 44
1.0
  0
MTEXT
  5
165
330
10F
100
AcDbEntity
  8
Titel (ISO)
 62
     7
100
AcDbMText
 10
-7.582500000000003
 20
3.770673644983011
 30
0.0
 40
1.500000059604644
 41
0.0
 46
0.0
 71
     7
 72
     1
  1
\fAIGDT|b0|i0|p0;\fAIGDT|b0|i0;\H1.5000;`\fISOCPEUR|b0|i0;\W0.90;\H1.5000; 0,3
  7
TolListe_12-AIGDT
 73
     2
 44
1.0
  0
MTEXT
  5
166
330
10F
100
AcDbEntity
  8
Titel (ISO)
 62
     7
100
AcDbMText
 10
-7.582500000000003
 20
0.7706736449830132
 30
0.0
 40
1.500000059604644
 41
0.0
 46
0.0
 71
     7
 72
     1
  1
\fAIGDT|b0|i0|p0;\fAIGDT|b0|i0;\H1.5000;`\fISOCPEUR|b0|i0;\W0.90;\H1.5000; 0,4
  7
TolListe_12-AIGDT
 73
     2
 44
1.0
  0
TEXT
  5
167
330
10F
100
AcDbEntity
  8
Titel (ISO)
 62
     7
100
AcDbText
 10
-58.26999999999999
 20
10.07011705730681
 30
0.0
 40
1.500000059604644
  1
..120
  7
TolListe_12
100
AcDbText
  0
TEXT
  5
168
330
10F
100
AcDbEntity
  8
Titel (ISO)
 62
     7
100
AcDbText
 10
-58.26999999999999
 20
12.47011705730679
 30
0.0
 40
1.500000059604644
  1
>  50
  7
TolListe_12
100
AcDbText
  0
MTEXT
  5
169
330
10F
100
AcDbEntity
  8
Titel (ISO)
 62
     7
100
AcDbMText
 10
-38.52
 20
3.770673644983011
 30
0.0
 40
1.500000059604644
 41
0.0
 46
0.0
 71
     7
 72
     1
  1
\fAIGDT|b0|i0|p0;\fAIGDT|b0|i0;\H1.5000;`\fISOCPEUR|b0|i0;\W0.90;\H1.5000; 1,7
  7
TolListe_12-AIGDT
 73
     2
 44
1.0
  0
MTEXT
  5
16A
330
10F
100
AcDbEntity
  8
Titel (ISO)
 62
     7
100
AcDbMText
 10
-28.2075
 20
3.770673644983011
 30
0.0
 40
1.500000059604644
 41
0.0
 46
0.0
 71
     7
 72
     1
  1
\fAIGDT|b0|i0|p0;\fAIGDT|b0|i0;\H1.5000;`\fISOCPEUR|b0|i0;\W0.90;\H1.5000; 0,9
  7
TolListe_12-AIGDT
 73
     2
 44
1.0
  0
MTEXT
  5
16B
330
10F
100
AcDbEntity
  8
Titel (ISO)
 62
     7
100
AcDbMText
 10
-137.908889
 20
6.770673644983009
 30
0.0
 40
1.500000059604644
 41
0.0
 46
0.0
 71
     7
 72
     1
  1
\fAIGDT|b0|i0|p0;\fAIGDT|b0|i0;\H1.5000;`\fISOCPEUR|b0|i0;\W0.90;\H1.5000; 0,2
  7
TolListe_12-AIGDT
 73
     2
 44
1.0
  0
TEXT
  5
16C
330
10F
100
AcDbEntity
  8
Titel (ISO)
 62
     7
100
AcDbText
 10
-137.908889
 20
10.07011705730681
 30
0.0
 40
1.500000059604644
  1
..400
  7
TolListe_12
100
AcDbText
  0
MTEXT
  5
16D
330
10F
100
AcDbEntity
  8
Titel (ISO)
 62
     7
100
AcDbMText
 10
-137.908889
 20
0.7706736449830132
 30
0.0
 40
1.500000059604644
 41
0.0
 46
0.0
 71
     7
 72
     1
  1
\fAIGDT|b0|i0|p0;\fAIGDT|b0|i0;\H1.5000;`\fISOCPEUR|b0|i0;\W0.90;\H1.5000; 1,2
  7
TolListe_12-AIGDT
 73
     2
 44
1.0
  0
MTEXT
  5
16E
330
10F
100
AcDbEntity
  8
Titel (ISO)
 62
     7
100
AcDbMText
 10
-137.908889
 20
3.770673644983011
 30
0.0
 40
1.500000059604644
 41
0.0
 46
0.0
 71
     7
 72
     1
  1
\fAIGDT|b0|i0|p0;\fAIGDT|b0|i0;\H1.5000;`\fISOCPEUR|b0|i0;\W0.90;\H1.5000; 0,5
  7
TolListe_12-AIGDT
 73
     2
 44
1.0
  0
MTEXT
  5
16F
330
10F
100
AcDbEntity
  8
Titel (ISO)
 62
     7
100
AcDbMText
 10
-145.936667
 20
0.7706736449830132
 30
0.0
 40
1.500000059604644
 41
0.0
 46
0.0
 71
     7
 72
     1
  1
\fAIGDT|b0|i0|p0;\fAIGDT|b0|i0;\H1.5000;`\fISOCPEUR|b0|i0;\W0.90;\H1.5000; 0,8
  7
TolListe_12-AIGDT
 73
     2
 44
1.0
  0
MTEXT
  5
170
330
10F
100
AcDbEntity
  8
Titel (ISO)
 62
     7
100
AcDbMText
 10
-153.964444
 20
0.7706736449830132
 30
0.0
 40
1.500000059604644
 41
0.0
 46
0.0
 71
     7
 72
     1
  1
\fAIGDT|b0|i0|p0;\fAIGDT|b0|i0;\H1.5000;`\fISOCPEUR|b0|i0;\W0.80;\H1.5000; 0,5
  7
TolListe_12-AIGDT
 73
     2
 44
1.0
  0
MTEXT
  5
171
330
10F
100
AcDbEntity
  8
Titel (ISO)
 62
     7
100
AcDbMText
 10
-145.936667
 20
6.770673644983009
 30
0.0
 40
1.500000059604644
 41
0.0
 46
0.0
 71
     7
 72
     1
  1
\fAIGDT|b0|i0|p0;\fAIGDT|b0|i0;\H1.5000;`\fISOCPEUR|b0|i0;\W0.90;\H1.5000; 0,15
  7
TolListe_12-AIGDT
 73
     2
 44
1.0
  0
MTEXT
  5
172
330
10F
100
AcDbEntity
  8
Titel (ISO)
 62
     7
100
AcDbMText
 10
-145.936667
 20
3.770673644983011
 30
0.0
 40
1.500000059604644
 41
0.0
 46
0.0
 71
     7
 72
     1
  1
\fAIGDT|b0|i0|p0;\fAIGDT|b0|i0;\H1.5000;`\fISOCPEUR|b0|i0;\W0.90;\H1.5000; 0,3
  7
TolListe_12-AIGDT
 73
     2
 44
1.0
  0
MTEXT
  5
173
330
10F
100
AcDbEntity
  8
Titel (ISO)
 62
     7
100
AcDbMText
 10
-153.964444
 20
3.770673644983011
 30
0.0
 40
1.500000059604644
 41
0.0
 46
0.0
 71
     7
 72
     1
  1
\fAIGDT|b0|i0|p0;\fAIGDT|b0|i0;\H1.5000;`\fISOCPEUR|b0|i0;\W0.80;\H1.5000; 0,2
  7
TolListe_12-AIGDT
 73
     2
 44
1.0
  0
TEXT
  5
174
330
10F
100
AcDbEntity
  8
Titel (ISO)
 62
     7
100
AcDbText
 10
-153.964444
 20
12.47011705730679
 30
0.0
 40
1.500000059604644
  1
>  6
  7
TolListe_12
100
AcDbText
  0
TEXT
  5
175
330
10F
100
AcDbEntity
  8
Titel (ISO)
 62
     7
100
AcDbText
 10
-153.964444
 20
10.07011705730681
 30
0.0
 40
1.500000059604644
  1
..30
  7
TolListe_12
100
AcDbText
  0
MTEXT
  5
176
330
10F
100
AcDbEntity
  8
Titel (ISO)
 62
     7
100
AcDbMText
 10
-161.992222
 20
3.770673644983011
 30
0.0
 40
1.500000059604644
 41
0.0
 46
0.0
 71
     7
 72
     1
  1
\fAIGDT|b0|i0|p0;\fAIGDT|b0|i0;\H1.5000;`\fISOCPEUR|b0|i0;\W0.90;\H1.5000; 0,1
  7
TolListe_12-AIGDT
 73
     2
 44
1.0
  0
MTEXT
  5
177
330
10F
100
AcDbEntity
  8
Titel (ISO)
 62
     7
100
AcDbMText
 10
-161.992222
 20
6.770673644983009
 30
0.0
 40
1.500000059604644
 41
0.0
 46
0.0
 71
     7
 72
     1
  1
\fAIGDT|b0|i0|p0;\fAIGDT|b0|i0;\H1.5000;`\fISOCPEUR|b0|i0;\W0.90;\H1.5000; 0,05
  7
TolListe_12-AIGDT
 73
     2
 44
1.0
  0
TEXT
  5
178
330
10F
100
AcDbEntity
  8
Titel (ISO)
 62
     7
100
AcDbText
 10
-161.992222
 20
10.07011705730681
 30
0.0
 40
1.500000059604644
  1
...6
  7
TolListe_12
100
AcDbText
  0
TEXT
  5
179
330
10F
100
AcDbEntity
  8
Titel (ISO)
 62
     7
100
AcDbText
 10
-161.992222
 20
12.47011705730679
 30
0.0
 40
1.500000059604644
  1
>  3
  7
TolListe_12
100
AcDbText
  0
MTEXT
  5
17A
330
10F
100
AcDbEntity
  8
Titel (ISO)
 62
     7
100
AcDbMText
 10
-153.964444
 20
6.770673644983009
 30
0.0
 40
1.500000059604644
 41
0.0
 46
0.0
 71
     7
 72
     1
  1
\fAIGDT|b0|i0|p0;\fAIGDT|b0|i0;\H1.5000;`\fISOCPEUR|b0|i0;\W0.80;\H1.5000; 0,1
  7
TolListe_12-AIGDT
 73
     2
 44
1.0
  0
MTEXT
  5
17B
330
10F
100
AcDbEntity
  8
Titel (ISO)
 62
     7
100
AcDbMText
 10
-161.992222
 20
0.7706736449830132
 30
0.0
 40
1.500000059604644
 41
0.0
 46
0.0
 71
     7
 72
     1
  1
\fAIGDT|b0|i0|p0;\fAIGDT|b0|i0;\H1.5000;`\fISOCPEUR|b0|i0;\W0.90;\H1.5000; 0,3
  7
TolListe_12-AIGDT
 73
     2
 44
1.0
  0
MTEXT
  5
17C
330
10F
100
AcDbEntity
  8
Titel (ISO)
 62
     7
100
AcDbMText
 10
-170.02
 20
3.770673644983011
 30
0.0
 40
1.500000059604644
 41
0.0
 46
0.0
 71
     7
 72
     1
  1
\fAIGDT|b0|i0|p0;\fAIGDT|b0|i0;\H1.5000;`\fISOCPEUR|b0|i0;\W0.90;\H1.5000; 0,1
  7
TolListe_12-AIGDT
 73
     2
 44
1.0
  0
MTEXT
  5
17D
330
10F
100
AcDbEntity
  8
Titel (ISO)
 62
     7
100
AcDbMText
 10
-170.02
 20
0.7706736449830132
 30
0.0
 40
1.500000059604644
 41
0.0
 46
0.0
 71
     7
 72
     1
  1
\fAIGDT|b0|i0|p0;\fAIGDT|b0|i0;\H1.5000;`\fISOCPEUR|b0|i0;\W0.90;\H1.5000; 0,2
  7
TolListe_12-AIGDT
 73
     2
 44
1.0
  0
MTEXT
  5
17E
330
10F
100
AcDbEntity
  8
Titel (ISO)
 62
     7
100
AcDbMText
 10
-170.02
 20
6.770673644983009
 30
0.0
 40
1.500000059604644
 41
0.0
 46
0.0
 71
     7
 72
     1
  1
\fAIGDT|b0|i0|p0;\fAIGDT|b0|i0;\H1.5000;`\fISOCPEUR|b0|i0;\W0.90;\H1.5000; 0,05
  7
TolListe_12-AIGDT
 73
     2
 44
1.0
  0
TEXT
  5
17F
330
10F
100
AcDbEntity
  8
Titel (ISO)
 62
     7
100
AcDbText
 10
-170.02
 20
12.47011705730679
 30
0.0
 40
1.500000059604644
  1
>  0,5
  7
TolListe_12
100
AcDbText
  0
TEXT
  5
180
330
10F
100
AcDbEntity
  8
Titel (ISO)
 62
     7
100
AcDbText
 10
-145.936667
 20
10.07011705730681
 30
0.0
 40
1.500000059604644
  1
..120
  7
TolListe_12
100
AcDbText
  0
TEXT
  5
181
330
10F
100
AcDbEntity
  8
Titel (ISO)
 62
     7
100
AcDbText
 10
-145.936667
 20
12.47011705730679
 30
0.0
 40
1.500000059604644
  1
>  30
  7
TolListe_12
100
AcDbText
  0
TEXT
  5
182
330
10F
100
AcDbEntity
  8
Titel (ISO)
 62
     7
100
AcDbText
 10
-137.908889
 20
12.47011705730679
 30
0.0
 40
1.500000059604644
  1
> 120
  7
TolListe_12
100
AcDbText
  0
TEXT
  5
183
330
10F
100
AcDbEntity
  8
Titel (ISO)
 62
     7
100
AcDbText
 10
-88.26999999999999
 20
3.970117057306801
 30
0.0
 40
1.500000059604644
  1
m(mittel)
  7
TolListe_12
100
AcDbText
  0
TEXT
  5
184
330
10F
100
AcDbEntity
  8
Titel (ISO)
 62
     7
100
AcDbText
 10
-189.02
 20
12.89999999999995
 30
0.0
 40
1.500000059604644
  1
für Längenmasse
  7
TolListe_12
100
AcDbText
  0
TEXT
  5
185
330
10F
100
AcDbEntity
  8
Titel (ISO)
 62
     7
100
AcDbText
 10
-189.02
 20
9.899999999999966
 30
0.0
 40
1.500000059604644
  1
Genauigkeitsgrad
  7
TolListe_12
100
AcDbText
  0
TEXT
  5
186
330
10F
100
AcDbEntity
  8
Titel (ISO)
 62
     7
100
AcDbText
 10
-170.02
 20
10.07011705730681
 30
0.0
 40
1.500000059604644
  1
...3
  7
TolListe_12
100
AcDbText
  0
TEXT
  5
187
330
10F
100
AcDbEntity
  8
Titel (ISO)
 62
     7
100
AcDbText
 10
-182.02
 20
3.899999999999987
 30
0.0
 40
1.500000059604644
  1
m (mittel)
  7
TolListe_12
100
AcDbText
  0
TEXT
  5
188
330
10F
100
AcDbEntity
  8
Titel (ISO)
 62
     7
100
AcDbText
 10
-182.02
 20
6.899999999999977
 30
0.0
 40
1.500000059604644
  1
f (fein)
  7
TolListe_12
100
AcDbText
  0
TEXT
  5
189
330
10F
100
AcDbEntity
  8
Titel (ISO)
 62
     7
100
AcDbText
 10
-182.02
 20
0.8999999999999985
 30
0.0
 40
1.500000059604644
  1
c (grob)
  7
TolListe_12
100
AcDbText
  0
TEXT
  5
18A
330
10F
100
AcDbEntity
  8
Titel (ISO)
 62
     7
100
AcDbText
 10
-189.02
 20
14.8701170573068
 30
0.0
 40
1.500000059604644
  1
toleranzen
  7
TolListe_12
100
AcDbText
  0
TEXT
  5
18B
330
10F
100
AcDbEntity
  8
Titel (ISO)
 62
     7
100
AcDbText
 10
-189.02
 20
16.77011705730679
 30
0.0
 40
1.500000059604644
  1
Allgemein-
  7
TolListe_12
100
AcDbText
  0
TEXT
  5
18C
330
10F
100
AcDbEntity
  8
Titel (ISO)
 62
     7
100
AcDbText
 10
-105.797778
 20
10.07011705730681
 30
0.0
 40
1.500000059604644
  1
..8000
  7
TolListe_12
100
AcDbText
  0
TEXT
  5
18D
330
10F
100
AcDbEntity
  8
Titel (ISO)
 62
     7
100
AcDbText
 10
-105.797778
 20
12.47011705730679
 30
0.0
 40
1.500000059604644
  1
> 4000
  7
TolListe_12
100
AcDbText
  0
MTEXT
  5
18E
330
10F
100
AcDbEntity
  8
Titel (ISO)
 62
     7
100
AcDbMText
 10
-105.797778
 20
3.470117037438589
 30
0.0
 40
1.500000059604644
 41
0.0
 46
0.0
 71
     7
 72
     1
  1
\fAIGDT|b0|i0|p0;\fAIGDT|b0|i0;\H1.5000;`\fISOCPEUR|b0|i0;\W0.80;\H1.5000; 3
  7
TolListe_12-AIGDT
 73
     2
 44
1.0
  0
MTEXT
  5
18F
330
10F
100
AcDbEntity
  8
Titel (ISO)
 62
     7
100
AcDbMText
 10
-105.797778
 20
0.4701170374385911
 30
0.0
 40
1.500000059604644
 41
0.0
 46
0.0
 71
     7
 72
     1
  1
\fAIGDT|b0|i0|p0;\fAIGDT|b0|i0;\H1.5000;`\fISOCPEUR|b0|i0;\W0.80;\H1.5000; 5
  7
TolListe_12-AIGDT
 73
     2
 44
1.0
  0
TEXT
  5
190
330
10F
100
AcDbEntity
  8
Titel (ISO)
 62
     7
100
AcDbText
 10
-97.77000000000001
 20
14.37011705730681
 30
0.0
 40
1.500000059604644
  1
toleranzen
  7
TolListe_12
100
AcDbText
  0
TEXT
  5
191
330
10F
100
AcDbEntity
  8
Titel (ISO)
 62
     7
100
AcDbText
 10
-97.77000000000001
 20
16.77011705730679
 30
0.0
 40
1.500000059604644
  1
Allgemein-
  7
TolListe_12
100
AcDbText
  0
MTEXT
  5
192
330
10F
100
AcDbEntity
  8
Titel (ISO)
 62
     7
100
AcDbMText
 10
-121.853333
 20
3.770673644983011
 30
0.0
 40
1.500000059604644
 41
0.0
 46
0.0
 71
     7
 72
     1
  1
\fAIGDT|b0|i0|p0;\fAIGDT|b0|i0;\H1.5000;`\fISOCPEUR|b0|i0;\W0.90;\H1.5000; 1,2
  7
TolListe_12-AIGDT
 73
     2
 44
1.0
  0
MTEXT
  5
193
330
10F
100
AcDbEntity
  8
Titel (ISO)
 62
     7
100
AcDbMText
 10
-121.853333
 20
0.4701170374385911
 30
0.0
 40
1.500000059604644
 41
0.0
 46
0.0
 71
     7
 72
     1
  1
\fAIGDT|b0|i0|p0;\fAIGDT|b0|i0;\H1.5000;`\fISOCPEUR|b0|i0;\W0.90;\H1.5000; 3
  7
TolListe_12-AIGDT
 73
     2
 44
1.0
  0
TEXT
  5
194
330
10F
100
AcDbEntity
  8
Titel (ISO)
 62
     7
100
AcDbText
 10
-113.825556
 20
10.07011705730681
 30
0.0
 40
1.500000059604644
  1
..4000
  7
TolListe_12
100
AcDbText
  0
TEXT
  5
195
330
10F
100
AcDbEntity
  8
Titel (ISO)
 62
     7
100
AcDbText
 10
-113.825556
 20
12.47011705730679
 30
0.0
 40
1.500000059604644
  1
> 2000
  7
TolListe_12
100
AcDbText
  0
TEXT
  5
196
330
10F
100
AcDbEntity
  8
Titel (ISO)
 62
     7
100
AcDbText
 10
-121.853333
 20
10.07011705730681
 30
0.0
 40
1.500000059604644
  1
..2000
  7
TolListe_12
100
AcDbText
  0
TEXT
  5
197
330
10F
100
AcDbEntity
  8
Titel (ISO)
 62
     7
100
AcDbText
 10
-121.853333
 20
12.47011705730679
 30
0.0
 40
1.500000059604644
  1
> 1000
  7
TolListe_12
100
AcDbText
  0
MTEXT
  5
198
330
10F
100
AcDbEntity
  8
Titel (ISO)
 62
     7
100
AcDbMText
 10
-121.853333
 20
6.770673644983009
 30
0.0
 40
1.500000059604644
 41
0.0
 46
0.0
 71
     7
 72
     1
  1
\fAIGDT|b0|i0|p0;\fAIGDT|b0|i0;\H1.5000;`\fISOCPEUR|b0|i0;\W0.90;\H1.5000; 0,5
  7
TolListe_12-AIGDT
 73
     2
 44
1.0
  0
MTEXT
  5
199
330
10F
100
AcDbEntity
  8
Titel (ISO)
 62
     7
100
AcDbMText
 10
-113.825556
 20
3.470117037438589
 30
0.0
 40
1.500000059604644
 41
0.0
 46
0.0
 71
     7
 72
     1
  1
\fAIGDT|b0|i0|p0;\fAIGDT|b0|i0;\H1.5000;`\fISOCPEUR|b0|i0;\W0.90;\H1.5000; 2
  7
TolListe_12-AIGDT
 73
     2
 44
1.0
  0
MTEXT
  5
19A
330
10F
100
AcDbEntity
  8
Titel (ISO)
 62
     7
100
AcDbMText
 10
-113.825556
 20
0.4701170374385911
 30
0.0
 40
1.500000059604644
 41
0.0
 46
0.0
 71
     7
 72
     1
  1
\fAIGDT|b0|i0|p0;\fAIGDT|b0|i0;\H1.5000;`\fISOCPEUR|b0|i0;\W0.90;\H1.5000; 4
  7
TolListe_12-AIGDT
 73
     2
 44
1.0
  0
MTEXT
  5
19B
330
10F
100
AcDbEntity
  8
Titel (ISO)
 62
     7
100
AcDbMText
 10
-129.881111
 20
6.770673644983009
 30
0.0
 40
1.500000059604644
 41
0.0
 46
0.0
 71
     7
 72
     1
  1
\fAIGDT|b0|i0|p0;\fAIGDT|b0|i0;\H1.5000;`\fISOCPEUR|b0|i0;\W0.90;\H1.5000; 0,3
  7
TolListe_12-AIGDT
 73
     2
 44
1.0
  0
TEXT
  5
19C
330
10F
100
AcDbEntity
  8
Titel (ISO)
 62
     7
100
AcDbText
 10
-129.881111
 20
10.07011705730681
 30
0.0
 40
1.500000059604644
  1
..1000
  7
TolListe_12
100
AcDbText
  0
TEXT
  5
19D
330
10F
100
AcDbEntity
  8
Titel (ISO)
 62
     7
100
AcDbText
 10
-129.881111
 20
12.47011705730679
 30
0.0
 40
1.500000059604644
  1
>  400
  7
TolListe_12
100
AcDbText
  0
MTEXT
  5
19E
330
10F
100
AcDbEntity
  8
Titel (ISO)
 62
     7
100
AcDbMText
 10
-129.881111
 20
0.4701170374385911
 30
0.0
 40
1.500000059604644
 41
0.0
 46
0.0
 71
     7
 72
     1
  1
\fAIGDT|b0|i0|p0;\fAIGDT|b0|i0;\H1.5000;`\fISOCPEUR|b0|i0;\W0.90;\H1.5000; 2
  7
TolListe_12-AIGDT
 73
     2
 44
1.0
  0
MTEXT
  5
19F
330
10F
100
AcDbEntity
  8
Titel (ISO)
 62
     7
100
AcDbMText
 10
-129.881111
 20
3.770673644983011
 30
0.0
 40
1.500000059604644
 41
0.0
 46
0.0
 71
     7
 72
     1
  1
\fAIGDT|b0|i0|p0;\fAIGDT|b0|i0;\H1.5000;`\fISOCPEUR|b0|i0;\W0.90;\H1.5000; 0,8
  7
TolListe_12-AIGDT
 73
     2
 44
1.0
  0
TEXT
  5
1A0
330
10F
100
AcDbEntity
  8
Titel (ISO)
 62
     7
100
AcDbText
 10
-94.3154314551193
 20
3.970117057306801
 30
0.0
 40
1.500000059604644
  1
f(fein)
 41
0.7999999523162842
  7
TolListe_12
100
AcDbText
  0
TEXT
  5
1A2
330
10F
100
AcDbEntity
  8
Titel (ISO)
 62
     7
100
AcDbText
 10
-189.02
 20
6.399999985098823
 30
0.0
 40
2.000000029802322
  1
 
 41
1.099999904632568
  7
TolListe_12-Arial
 11
-189.02
 21
7.399999999999984
 31
0.0
100
AcDbText
 73
     2
  0
TEXT
  5
1A4
330
10F
100
AcDbEntity
  8
Titel (ISO)
 62
     7
100
AcDbText
 10
-189.02
 20
3.399999985098824
 30
0.0
 40
2.000000029802322
  1
 
 41
1.099999904632568
  7
TolListe_12-Arial
 11
-189.02
 21
4.399999999999986
 31
0.0
100
AcDbText
 73
     2
  0
TEXT
  5
1A5
330
10F
100
AcDbEntity
  8
Titel (ISO)
 62
     7
100
AcDbText
 10
-189.02
 20
0.3999999850988356
 30
0.0
 40
2.000000029802322
  1
 
 41
1.099999904632568
  7
TolListe_12-Arial
 11
-189.02
 21
1.399999999999996
 31
0.0
100
AcDbText
 73
     2
  0
ATTDEF
  5
1A6
102
{ACAD_XDICTIONARY
360
358
102
}
330
10F
100
AcDbEntity
  8
Titel (ISO)
 62
     7
100
AcDbText
 10
-98.35000000000002
 20
3.499999985098831
 30
0.0
 40
2.000000029802322
  1

 41
0.899999976158142
  7
TolListe_12-Arial
 11
-98.35000000000002
 21
4.499999999999992
 31
0.0
100
AcDbAttributeDefinition
  3
TolWinkel_Fein
  2
TolWinkel_Fein
 70
     0
 74
     2
280
     0
  0
ATTDEF
  5
1A8
102
{ACAD_XDICTIONARY
360
35A
102
}
330
10F
100
AcDbEntity
  8
Titel (ISO)
 62
     7
100
AcDbText
 10
-98.35000000000002
 20
0.4999999850988424
 30
0.0
 40
2.000000029802322
  1
X
 41
1.1
  7
TolListe_12-Arial
100
AcDbAttributeDefinition
  3
TolWinkel_Grob
  2
TolWinkel_Grob_001
 70
     0
280
     0
  0
TEXT
  5
1A9
330
10F
100
AcDbEntity
  8
Titel (ISO)
 62
     7
100
AcDbText
 10
-23.10385197106264
 20
6.481150342666044
 30
0.0
 40
1.199999973177909
  1
R
 41
0.899999976158142
  7
TolListe_12
100
AcDbText
  0
ENDBLK
  5
111
330
10F
100
AcDbEntity
  8
0
100
AcDbBlockEnd
  0
BLOCK
  5
1AB
330
1AA
100
AcDbEntity
  8
0
100
AcDbBlockBegin
  2
ProtoTyp
 70
     0
 10
0.0
 20
0.0
 30
0.0
  3
ProtoTyp
  1

  0
MTEXT
  5
1AD
330
1AA
100
AcDbEntity
  8
Symbol (ISO)
100
AcDbMText
 10
-15.0
 20
5.000000000000088
 30
0.0
 40
5.0
 41
113.3539674448862
 46
0.0
 71
     9
 72
     5
  1
\fArial|b1|i0;\W1.20;\H5.0000;Prototyp 
  7
Notiztext (DIN)
 73
     1
 44
1.0
  0
ENDBLK
  5
1AC
330
1AA
100
AcDbEntity
  8
0
100
AcDbBlockEnd
  0
BLOCK
  5
1B0
330
1AF
100
AcDbEntity
  8
0
100
AcDbBlockBegin
  2
Logo
 70
     0
 10
0.0
 20
0.0
 30
0.0
  3
Logo
  1

  0
LINE
  5
1B2
102
{ACAD_REACTORS
330
1BD
102
}
330
1AF
100
AcDbEntity
  8
0
100
AcDbLine
 10
-63.82219267516564
 20
13.78707153306683
 30
0.0
 11
-63.44194367516561
 21
13.78707153306683
 31
0.0
  0
SPLINE
  5
1B3
102
{ACAD_REACTORS
330
1BD
102
}
330
1AF
100
AcDbEntity
  8
0
100
AcDbSpline
210
0.0
220
0.0
230
1.0
 70
     8
 71
     3
 72
    13
 73
     9
 74
     0
 42
0.0000000001
 43
0.0000000001
 40
-0.2488465402991201
 40
-0.2488465402991201
 40
-0.2488465402991201
 40
-0.2488465402991201
 40
-0.213514800971061
 40
-0.1813686001396738
 40
-0.151852207945606
 40
-0.122610058815004
 40
-0.0548379298616244
 40
0.0
 40
0.0
 40
0.0
 40
0.0
 10
-63.44194367516561
 20
13.78707153306683
 30
0.0
 10
-63.32417121073874
 20
13.78707153306683
 30
0.0
 10
-63.08419178569152
 20
13.80580234228952
 30
0.0
 10
-62.85168098131063
 20
14.06077992123113
 30
0.0
 10
-62.75106357115923
 20
14.3528991457025
 30
0.0
 10
-62.73688326920373
 20
14.7669903791009
 30
0.0
 10
-62.81190429146026
 20
15.35988989299784
 30
0.0
 10
-63.28410391460164
 20
15.46016853306682
 30
0.0
 10
-63.46689701414039
 20
15.46016853306682
 30
0.0
  0
LINE
  5
1B4
102
{ACAD_REACTORS
330
1BD
102
}
330
1AF
100
AcDbEntity
  8
0
100
AcDbLine
 10
-63.46689701414039
 20
15.46016853306682
 30
0.0
 11
-63.82219267516564
 21
15.46016853306682
 31
0.0
  0
LINE
  5
1B5
102
{ACAD_REACTORS
330
1BD
102
}
330
1AF
100
AcDbEntity
  8
0
100
AcDbLine
 10
-63.82219267516564
 20
15.46016853306682
 30
0.0
 11
-63.82219267516564
 21
13.78707153306683
 31
0.0
  0
LINE
  5
1B6
102
{ACAD_REACTORS
330
1BD
102
}
330
1AF
100
AcDbEntity
  8
0
100
AcDbLine
 10
-63.09258967516566
 20
16.44881753306684
 30
0.0
 11
-65.1910906751657
 21
16.44881753306684
 31
0.0
  0
SPLINE
  5
1B7
102
{ACAD_REACTORS
330
1BD
102
}
330
1AF
100
AcDbEntity
  8
0
100
AcDbSpline
210
0.0
220
0.0
230
1.0
 70
     8
 71
     3
 72
    11
 73
     7
 74
     0
 42
0.0000000001
 43
0.0000000001
 40
0.2936837717354933
 40
0.2936837717354933
 40
0.2936837717354933
 40
0.2936837717354933
 40
0.3486086586423288
 40
0.4181833865755395
 40
0.4874646771879993
 40
0.5758658507171156
 40
0.5758658507171156
 40
0.5758658507171156
 40
0.5758658507171156
 10
-61.3885963599133
 20
14.628373224245
 30
0.0
 10
-61.3866327111799
 20
14.81461430976022
 30
0.0
 10
-61.42180843855425
 20
15.22586839198035
 30
0.0
 10
-61.65248502722848
 20
15.84811296147202
 30
0.0
 10
-62.25323916657581
 20
16.38211568442156
 30
0.0
 10
-62.79106792157026
 20
16.42485607934071
 30
0.0
 10
-63.09258967516566
 20
16.44881753306684
 30
0.0
  0
SPLINE
  5
1B8
102
{ACAD_REACTORS
330
1BD
102
}
330
1AF
100
AcDbEntity
  8
0
100
AcDbSpline
210
0.0
220
0.0
230
1.0
 70
     8
 71
     3
 72
    10
 73
     6
 74
     0
 42
0.0000000001
 43
0.0000000001
 40
0.0
 40
0.0
 40
0.0
 40
0.0
 40
0.0653965997920125
 40
0.148785267001393
 40
0.2936837717354933
 40
0.2936837717354933
 40
0.2936837717354933
 40
0.2936837717354933
 10
-63.2280526751656
 20
12.79842253306682
 30
0.0
 10
-63.00807050524145
 20
12.79414883947174
 30
0.0
 10
-62.50758414980694
 20
12.78442566357808
 30
0.0
 10
-61.5936272368743
 20
13.31022024821636
 30
0.0
 10
-61.3937767031296
 20
14.13704668119749
 30
0.0
 10
-61.3885963599133
 20
14.628373224245
 30
0.0
  0
LINE
  5
1B9
102
{ACAD_REACTORS
330
1BD
102
}
330
1AF
100
AcDbEntity
  8
0
100
AcDbLine
 10
-63.82219267516564
 20
12.79842253306682
 30
0.0
 11
-63.2280526751656
 21
12.79842253306682
 31
0.0
  0
LINE
  5
1BA
102
{ACAD_REACTORS
330
1BD
102
}
330
1AF
100
AcDbEntity
  8
0
100
AcDbLine
 10
-63.82219267516564
 20
10.44087653306682
 30
0.0
 11
-63.82219267516564
 21
12.79842253306682
 31
0.0
  0
LINE
  5
1BB
102
{ACAD_REACTORS
330
1BD
102
}
330
1AF
100
AcDbEntity
  8
0
100
AcDbLine
 10
-65.1910906751657
 20
10.44087653306682
 30
0.0
 11
-63.82219267516564
 21
10.44087653306682
 31
0.0
  0
LINE
  5
1BC
102
{ACAD_REACTORS
330
1BD
102
}
330
1AF
100
AcDbEntity
  8
0
100
AcDbLine
 10
-65.1910906751657
 20
16.44881753306684
 30
0.0
 11
-65.1910906751657
 21
10.44087653306682
 31
0.0
  0
HATCH
  5
1BD
330
1AF
100
AcDbEntity
  8
Schraffur (ISO)
100
AcDbHatch
 10
0.0
 20
0.0
 30
0.0
210
0.0
220
0.0
230
1.0
  2
SOLID
 70
     1
 71
     1
 91
        2
 92
        0
 93
        4
 72
     1
 10
-63.82219267516564
 20
13.78707153306683
 11
-63.44194367516561
 21
13.78707153306683
 72
     4
 94
        3
 73
     0
 74
     0
 95
       13
 96
        9
 40
-0.2488465402991201
 40
-0.2488465402991201
 40
-0.2488465402991201
 40
-0.2488465402991201
 40
-0.213514800971061
 40
-0.1813686001396738
 40
-0.151852207945606
 40
-0.122610058815004
 40
-0.0548379298616244
 40
0.0
 40
0.0
 40
0.0
 40
0.0
 10
-63.44194367516561
 20
13.78707153306683
 10
-63.32417121073874
 20
13.78707153306683
 10
-63.08419178569152
 20
13.80580234228952
 10
-62.85168098131063
 20
14.06077992123113
 10
-62.75106357115923
 20
14.3528991457025
 10
-62.73688326920373
 20
14.7669903791009
 10
-62.81190429146026
 20
15.35988989299784
 10
-63.28410391460164
 20
15.46016853306682
 10
-63.46689701414039
 20
15.46016853306682
 72
     1
 10
-63.46689701414039
 20
15.46016853306682
 11
-63.82219267516564
 21
15.46016853306682
 72
     1
 10
-63.82219267516564
 20
15.46016853306682
 11
-63.82219267516564
 21
13.78707153306683
 97
        4
330
1B2
330
1B3
330
1B4
330
1B5
 92
        1
 93
        7
 72
     1
 10
-63.09258967516566
 20
16.44881753306684
 11
-65.1910906751657
 21
16.44881753306684
 72
     1
 10
-65.1910906751657
 20
16.44881753306684
 11
-65.1910906751657
 21
10.44087653306682
 72
     1
 10
-65.1910906751657
 20
10.44087653306682
 11
-63.82219267516564
 21
10.44087653306682
 72
     1
 10
-63.82219267516564
 20
10.44087653306682
 11
-63.82219267516564
 21
12.79842253306682
 72
     1
 10
-63.82219267516564
 20
12.79842253306682
 11
-63.2280526751656
 21
12.79842253306682
 72
     4
 94
        3
 73
     0
 74
     0
 95
       10
 96
        6
 40
0.0
 40
0.0
 40
0.0
 40
0.0
 40
0.0653965997920125
 40
0.148785267001393
 40
0.2936837717354933
 40
0.2936837717354933
 40
0.2936837717354933
 40
0.2936837717354933
 10
-63.2280526751656
 20
12.79842253306682
 10
-63.00807050524145
 20
12.79414883947174
 10
-62.50758414980694
 20
12.78442566357808
 10
-61.5936272368743
 20
13.31022024821636
 10
-61.3937767031296
 20
14.13704668119749
 10
-61.3885963599133
 20
14.628373224245
 72
     4
 94
        3
 73
     0
 74
     0
 95
       11
 96
        7
 40
0.2936837717354933
 40
0.2936837717354933
 40
0.2936837717354933
 40
0.2936837717354933
 40
0.3486086586423288
 40
0.4181833865755395
 40
0.4874646771879993
 40
0.5758658507171156
 40
0.5758658507171156
 40
0.5758658507171156
 40
0.5758658507171156
 10
-61.3885963599133
 20
14.628373224245
 10
-61.3866327111799
 20
14.81461430976022
 10
-61.42180843855425
 20
15.22586839198035
 10
-61.65248502722848
 20
15.84811296147202
 10
-62.25323916657581
 20
16.38211568442156
 10
-62.79106792157026
 20
16.42485607934071
 10
-63.09258967516566
 20
16.44881753306684
 97
        7
330
1B6
330
1BC
330
1BB
330
1BA
330
1B9
330
1B8
330
1B7
 75
     0
 76
     1
 98
        1
 10
0.0
 20
0.0
450
        0
451
        0
460
0.0
461
0.0
452
        0
462
0.0
453
        0
470

  0
LINE
  5
1BE
102
{ACAD_REACTORS
330
1C8
102
}
330
1AF
100
AcDbEntity
  8
0
100
AcDbLine
 10
-60.62809767516559
 20
16.44881753306684
 30
0.0
 11
-60.62809767516559
 21
10.40524878827717
 31
0.0
  0
LINE
  5
1BF
102
{ACAD_REACTORS
330
1C8
102
}
330
1AF
100
AcDbEntity
  8
0
100
AcDbLine
 10
-58.98987681977541
 20
16.44881753306684
 30
0.0
 11
-60.62809767516559
 21
16.44881753306684
 31
0.0
  0
LINE
  5
1C0
102
{ACAD_REACTORS
330
1C8
102
}
330
1AF
100
AcDbEntity
  8
0
100
AcDbLine
 10
-57.88930580282222
 20
12.61710582815194
 30
0.0
 11
-58.98987681977541
 21
16.44881753306684
 31
0.0
  0
LINE
  5
1C1
102
{ACAD_REACTORS
330
1C8
102
}
330
1AF
100
AcDbEntity
  8
0
100
AcDbLine
 10
-57.88930580282222
 20
16.44881753306684
 30
0.0
 11
-57.88930580282222
 21
12.61710582815194
 31
0.0
  0
LINE
  5
1C2
102
{ACAD_REACTORS
330
1C8
102
}
330
1AF
100
AcDbEntity
  8
0
100
AcDbLine
 10
-56.69354904308139
 20
16.44881753306684
 30
0.0
 11
-57.88930580282222
 21
16.44881753306684
 31
0.0
  0
LINE
  5
1C3
102
{ACAD_REACTORS
330
1C8
102
}
330
1AF
100
AcDbEntity
  8
0
100
AcDbLine
 10
-56.69354904308139
 20
10.40524878827717
 30
0.0
 11
-56.69354904308139
 21
16.44881753306684
 31
0.0
  0
LINE
  5
1C4
102
{ACAD_REACTORS
330
1C8
102
}
330
1AF
100
AcDbEntity
  8
0
100
AcDbLine
 10
-58.22507916596087
 20
10.40524878827717
 30
0.0
 11
-56.69354904308139
 21
10.40524878827717
 31
0.0
  0
LINE
  5
1C5
102
{ACAD_REACTORS
330
1C8
102
}
330
1AF
100
AcDbEntity
  8
0
100
AcDbLine
 10
-59.41118327390213
 20
14.53474967794081
 30
0.0
 11
-58.22507916596087
 21
10.40524878827717
 31
0.0
  0
LINE
  5
1C6
102
{ACAD_REACTORS
330
1C8
102
}
330
1AF
100
AcDbEntity
  8
0
100
AcDbLine
 10
-59.41118327390213
 20
10.40524878827717
 30
0.0
 11
-59.41118327390213
 21
14.53474967794081
 31
0.0
  0
LINE
  5
1C7
102
{ACAD_REACTORS
330
1C8
102
}
330
1AF
100
AcDbEntity
  8
0
100
AcDbLine
 10
-60.62809767516559
 20
10.40524878827717
 30
0.0
 11
-59.41118327390213
 21
10.40524878827717
 31
0.0
  0
HATCH
  5
1C8
330
1AF
100
AcDbEntity
  8
Schraffur (ISO)
100
AcDbHatch
 10
0.0
 20
0.0
 30
0.0
210
0.0
220
0.0
230
1.0
  2
SOLID
 70
     1
 71
     1
 91
        1
 92
        1
 93
       10
 72
     1
 10
-60.62809767516559
 20
16.44881753306684
 11
-60.62809767516559
 21
10.40524878827717
 72
     1
 10
-60.62809767516559
 20
10.40524878827717
 11
-59.41118327390213
 21
10.40524878827717
 72
     1
 10
-59.41118327390213
 20
10.40524878827717
 11
-59.41118327390213
 21
14.53474967794082
 72
     1
 10
-59.41118327390213
 20
14.53474967794081
 11
-58.22507916596087
 21
10.40524878827717
 72
     1
 10
-58.22507916596087
 20
10.40524878827717
 11
-56.69354904308139
 21
10.40524878827717
 72
     1
 10
-56.69354904308139
 20
10.40524878827717
 11
-56.69354904308139
 21
16.44881753306684
 72
     1
 10
-56.69354904308139
 20
16.44881753306684
 11
-57.88930580282222
 21
16.44881753306684
 72
     1
 10
-57.88930580282222
 20
16.44881753306684
 11
-57.88930580282222
 21
12.61710582815194
 72
     1
 10
-57.88930580282222
 20
12.61710582815194
 11
-58.98987681977541
 21
16.44881753306684
 72
     1
 10
-58.98987681977541
 20
16.44881753306684
 11
-60.62809767516559
 21
16.44881753306684
 97
       10
330
1BE
330
1C7
330
1C6
330
1C5
330
1C4
330
1C3
330
1C2
330
1C1
330
1C0
330
1BF
 75
     0
 76
     1
 98
        1
 10
0.0
 20
0.0
450
        0
451
        0
460
0.0
461
0.0
452
        0
462
0.0
453
        0
470

  0
LINE
  5
1C9
102
{ACAD_REACTORS
330
1D5
102
}
330
1AF
100
AcDbEntity
  8
0
100
AcDbLine
 10
-54.3920076751656
 20
11.58162453306683
 30
0.0
 11
-52.27805867516565
 21
11.58162453306683
 31
0.0
  0
LINE
  5
1CA
102
{ACAD_REACTORS
330
1D5
102
}
330
1AF
100
AcDbEntity
  8
0
100
AcDbLine
 10
-54.3920076751656
 20
12.95052253306684
 30
0.0
 11
-54.3920076751656
 21
11.58162453306683
 31
0.0
  0
LINE
  5
1CB
102
{ACAD_REACTORS
330
1D5
102
}
330
1AF
100
AcDbEntity
  8
0
100
AcDbLine
 10
-52.49194867516564
 20
12.95052253306684
 30
0.0
 11
-54.3920076751656
 21
12.95052253306684
 31
0.0
  0
LINE
  5
1CC
102
{ACAD_REACTORS
330
1D5
102
}
330
1AF
100
AcDbEntity
  8
0
100
AcDbLine
 10
-52.49194867516564
 20
14.09127053306683
 30
0.0
 11
-52.49194867516564
 21
12.95052253306684
 31
0.0
  0
LINE
  5
1CD
102
{ACAD_REACTORS
330
1D5
102
}
330
1AF
100
AcDbEntity
  8
0
100
AcDbLine
 10
-54.3920076751656
 20
14.09127053306683
 30
0.0
 11
-52.49194867516564
 21
14.09127053306683
 31
0.0
  0
LINE
  5
1CE
102
{ACAD_REACTORS
330
1D5
102
}
330
1AF
100
AcDbEntity
  8
0
100
AcDbLine
 10
-54.3920076751656
 20
15.30806953306683
 30
0.0
 11
-54.3920076751656
 21
14.09127053306683
 31
0.0
  0
LINE
  5
1CF
102
{ACAD_REACTORS
330
1D5
102
}
330
1AF
100
AcDbEntity
  8
0
100
AcDbLine
 10
-52.36836767516571
 20
15.30806953306683
 30
0.0
 11
-54.3920076751656
 21
15.30806953306683
 31
0.0
  0
LINE
  5
1D0
102
{ACAD_REACTORS
330
1D5
102
}
330
1AF
100
AcDbEntity
  8
0
100
AcDbLine
 10
-52.36836767516571
 20
16.44881753306684
 30
0.0
 11
-52.36836767516571
 21
15.30806953306683
 31
0.0
  0
LINE
  5
1D1
102
{ACAD_REACTORS
330
1D5
102
}
330
1AF
100
AcDbEntity
  8
0
100
AcDbLine
 10
-55.76090567516565
 20
16.44881753306684
 30
0.0
 11
-52.36836767516571
 21
16.44881753306684
 31
0.0
  0
LINE
  5
1D2
102
{ACAD_REACTORS
330
1D5
102
}
330
1AF
100
AcDbEntity
  8
0
100
AcDbLine
 10
-55.76090567516565
 20
10.44087653306682
 30
0.0
 11
-55.76090567516565
 21
16.44881753306684
 31
0.0
  0
LINE
  5
1D3
102
{ACAD_REACTORS
330
1D5
102
}
330
1AF
100
AcDbEntity
  8
0
100
AcDbLine
 10
-52.27805867516565
 20
10.44087653306682
 30
0.0
 11
-55.76090567516565
 21
10.44087653306682
 31
0.0
  0
LINE
  5
1D4
102
{ACAD_REACTORS
330
1D5
102
}
330
1AF
100
AcDbEntity
  8
0
100
AcDbLine
 10
-52.27805867516565
 20
11.58162453306683
 30
0.0
 11
-52.27805867516565
 21
10.44087653306682
 31
0.0
  0
HATCH
  5
1D5
330
1AF
100
AcDbEntity
  8
Schraffur (ISO)
100
AcDbHatch
 10
0.0
 20
0.0
 30
0.0
210
0.0
220
0.0
230
1.0
  2
SOLID
 70
     1
 71
     1
 91
        1
 92
        1
 93
       12
 72
     1
 10
-54.3920076751656
 20
11.58162453306683
 11
-52.27805867516565
 21
11.58162453306683
 72
     1
 10
-52.27805867516565
 20
11.58162453306683
 11
-52.27805867516565
 21
10.44087653306682
 72
     1
 10
-52.27805867516565
 20
10.44087653306682
 11
-55.76090567516565
 21
10.44087653306682
 72
     1
 10
-55.76090567516565
 20
10.44087653306682
 11
-55.76090567516565
 21
16.44881753306684
 72
     1
 10
-55.76090567516565
 20
16.44881753306684
 11
-52.36836767516571
 21
16.44881753306684
 72
     1
 10
-52.36836767516571
 20
16.44881753306684
 11
-52.36836767516571
 21
15.30806953306683
 72
     1
 10
-52.36836767516571
 20
15.30806953306683
 11
-54.3920076751656
 21
15.30806953306683
 72
     1
 10
-54.3920076751656
 20
15.30806953306683
 11
-54.3920076751656
 21
14.09127053306683
 72
     1
 10
-54.3920076751656
 20
14.09127053306683
 11
-52.49194867516564
 21
14.09127053306683
 72
     1
 10
-52.49194867516564
 20
14.09127053306683
 11
-52.49194867516564
 21
12.95052253306684
 72
     1
 10
-52.49194867516564
 20
12.95052253306684
 11
-54.3920076751656
 21
12.95052253306684
 72
     1
 10
-54.3920076751656
 20
12.95052253306684
 11
-54.3920076751656
 21
11.58162453306683
 97
       12
330
1C9
330
1D4
330
1D3
330
1D2
330
1D1
330
1D0
330
1CF
330
1CE
330
1CD
330
1CC
330
1CB
330
1CA
 75
     0
 76
     1
 98
        1
 10
0.0
 20
0.0
450
        0
451
        0
460
0.0
461
0.0
452
        0
462
0.0
453
        0
470

  0
SPLINE
  5
1D6
102
{ACAD_REACTORS
330
1DE
102
}
330
1AF
100
AcDbEntity
  8
0
100
AcDbSpline
210
0.0
220
0.0
230
1.0
 70
     8
 71
     3
 72
    15
 73
    11
 74
     0
 42
0.0000000001
 43
0.0000000001
 40
0.0
 40
0.0
 40
0.0
 40
0.0
 40
0.0672548563799885
 40
0.1521664902326495
 40
0.2281703146548317
 40
0.3255600897830795
 40
0.4120495207317158
 40
0.4985389234182298
 40
0.5654159866690202
 40
0.6509023544104405
 40
0.6509023544104405
 40
0.6509023544104405
 40
0.6509023544104405
 10
-51.7302616751656
 20
12.50372953306684
 30
0.0
 10
-51.72250972741318
 20
12.28042993765319
 30
0.0
 10
-51.7049706715673
 20
11.77520670867943
 30
0.0
 10
-51.45830183546912
 20
11.01272899934195
 30
0.0
 10
-50.70619437300852
 20
10.49759629449973
 30
0.0
 10
-49.8251698126684
 20
10.4107231579618
 30
0.0
 10
-48.92313273835776
 20
10.49749520180978
 30
0.0
 10
-48.18766130508738
 20
10.93968926311738
 30
0.0
 10
-47.88526518983896
 20
11.71052808496217
 30
0.0
 10
-47.86377509624168
 20
12.21864242747865
 30
0.0
 10
-47.85171767516569
 20
12.50372953306684
 30
0.0
  0
LINE
  5
1D7
102
{ACAD_REACTORS
330
1DE
102
}
330
1AF
100
AcDbEntity
  8
0
100
AcDbLine
 10
-51.7302616751656
 20
16.44881753306684
 30
0.0
 11
-51.7302616751656
 21
12.50372953306684
 31
0.0
  0
LINE
  5
1D8
102
{ACAD_REACTORS
330
1DE
102
}
330
1AF
100
AcDbEntity
  8
0
100
AcDbLine
 10
-50.36136367516565
 20
16.44881753306684
 30
0.0
 11
-51.7302616751656
 21
16.44881753306684
 31
0.0
  0
LINE
  5
1D9
102
{ACAD_REACTORS
330
1DE
102
}
330
1AF
100
AcDbEntity
  8
0
100
AcDbLine
 10
-50.36136367516565
 20
12.15437597654793
 30
0.0
 11
-50.36136367516565
 21
16.44881753306684
 31
0.0
  0
SPLINE
  5
1DA
102
{ACAD_REACTORS
330
1DE
102
}
330
1AF
100
AcDbEntity
  8
0
100
AcDbSpline
210
0.0
220
0.0
230
1.0
 70
     8
 71
     3
 72
    12
 73
     8
 74
     0
 42
0.0000000001
 43
0.0000000001
 40
0.0
 40
0.0
 40
0.0
 40
0.0
 40
0.0459373561447192
 40
0.0841298945751798
 40
0.1189845232173717
 40
0.1628560898790358
 40
0.2038542643486715
 40
0.2038542643486715
 40
0.2038542643486715
 40
0.2038542643486715
 10
-49.22061567516561
 20
12.15437553306683
 30
0.0
 10
-49.2268789446577
 20
11.99485470427934
 30
0.0
 10
-49.23834952647364
 20
11.70270749262533
 30
0.0
 10
-49.57024113653026
 20
11.41847892432864
 30
0.0
 10
-49.99594522261111
 20
11.40074526513182
 30
0.0
 10
-50.29158571586791
 20
11.73973014957667
 30
0.0
 10
-50.33863533382652
 20
12.01931596640863
 30
0.0
 10
-50.36136367516565
 20
12.15437597654793
 30
0.0
  0
LINE
  5
1DB
102
{ACAD_REACTORS
330
1DE
102
}
330
1AF
100
AcDbEntity
  8
0
100
AcDbLine
 10
-49.22061567516561
 20
16.44881753306684
 30
0.0
 11
-49.22061567516561
 21
12.15437553306683
 31
0.0
  0
LINE
  5
1DC
102
{ACAD_REACTORS
330
1DE
102
}
330
1AF
100
AcDbEntity
  8
0
100
AcDbLine
 10
-47.85171767516569
 20
16.44881753306684
 30
0.0
 11
-49.22061567516561
 21
16.44881753306684
 31
0.0
  0
LINE
  5
1DD
102
{ACAD_REACTORS
330
1DE
102
}
330
1AF
100
AcDbEntity
  8
0
100
AcDbLine
 10
-47.85171767516569
 20
12.50372953306684
 30
0.0
 11
-47.85171767516569
 21
16.44881753306684
 31
0.0
  0
HATCH
  5
1DE
330
1AF
100
AcDbEntity
  8
Schraffur (ISO)
100
AcDbHatch
 10
0.0
 20
0.0
 30
0.0
210
0.0
220
0.0
230
1.0
  2
SOLID
 70
     1
 71
     1
 91
        1
 92
        1
 93
        8
 72
     4
 94
        3
 73
     0
 74
     0
 95
       15
 96
       11
 40
0.0
 40
0.0
 40
0.0
 40
0.0
 40
0.0672548563799885
 40
0.1521664902326495
 40
0.2281703146548317
 40
0.3255600897830795
 40
0.4120495207317158
 40
0.4985389234182298
 40
0.5654159866690202
 40
0.6509023544104405
 40
0.6509023544104405
 40
0.6509023544104405
 40
0.6509023544104405
 10
-51.7302616751656
 20
12.50372953306684
 10
-51.72250972741318
 20
12.28042993765319
 10
-51.7049706715673
 20
11.77520670867943
 10
-51.45830183546912
 20
11.01272899934195
 10
-50.70619437300852
 20
10.49759629449973
 10
-49.8251698126684
 20
10.4107231579618
 10
-48.92313273835776
 20
10.49749520180978
 10
-48.18766130508738
 20
10.93968926311738
 10
-47.88526518983896
 20
11.71052808496217
 10
-47.86377509624168
 20
12.21864242747865
 10
-47.85171767516569
 20
12.50372953306684
 72
     1
 10
-47.85171767516569
 20
12.50372953306684
 11
-47.85171767516569
 21
16.44881753306684
 72
     1
 10
-47.85171767516569
 20
16.44881753306684
 11
-49.22061567516561
 21
16.44881753306684
 72
     1
 10
-49.22061567516561
 20
16.44881753306684
 11
-49.22061567516561
 21
12.15437553306683
 72
     4
 94
        3
 73
     0
 74
     0
 95
       12
 96
        8
 40
0.0
 40
0.0
 40
0.0
 40
0.0
 40
0.0459373561447192
 40
0.0841298945751798
 40
0.1189845232173717
 40
0.1628560898790358
 40
0.2038542643486715
 40
0.2038542643486715
 40
0.2038542643486715
 40
0.2038542643486715
 10
-49.22061567516561
 20
12.15437553306683
 10
-49.2268789446577
 20
11.99485470427934
 10
-49.23834952647364
 20
11.70270749262533
 10
-49.57024113653026
 20
11.41847892432864
 10
-49.99594522261111
 20
11.40074526513182
 10
-50.29158571586791
 20
11.73973014957667
 10
-50.33863533382652
 20
12.01931596640863
 10
-50.36136367516565
 20
12.15437597654793
 72
     1
 10
-50.36136367516565
 20
12.15437597654793
 11
-50.36136367516565
 21
16.44881753306684
 72
     1
 10
-50.36136367516565
 20
16.44881753306684
 11
-51.7302616751656
 21
16.44881753306684
 72
     1
 10
-51.7302616751656
 20
16.44881753306684
 11
-51.7302616751656
 21
12.50372953306684
 97
        8
330
1D6
330
1DD
330
1DC
330
1DB
330
1DA
330
1D9
330
1D8
330
1D7
 75
     0
 76
     1
 98
        1
 10
0.0
 20
0.0
450
        0
451
        0
460
0.0
461
0.0
452
        0
462
0.0
453
        0
470

  0
LINE
  5
1DF
102
{ACAD_REACTORS
330
1ED
102
}
330
1AF
100
AcDbEntity
  8
0
100
AcDbLine
 10
-44.98677667516563
 20
16.44881753306684
 30
0.0
 11
-44.26073767516562
 21
12.52868353306683
 31
0.0
  0
LINE
  5
1E0
102
{ACAD_REACTORS
330
1ED
102
}
330
1AF
100
AcDbEntity
  8
0
100
AcDbLine
 10
-47.01516967516568
 20
16.44881753306684
 30
0.0
 11
-44.98677667516563
 21
16.44881753306684
 31
0.0
  0
LINE
  5
1E1
102
{ACAD_REACTORS
330
1ED
102
}
330
1AF
100
AcDbEntity
  8
0
100
AcDbLine
 10
-47.01516967516568
 20
10.44087653306682
 30
0.0
 11
-47.01516967516568
 21
16.44881753306684
 31
0.0
  0
LINE
  5
1E2
102
{ACAD_REACTORS
330
1ED
102
}
330
1AF
100
AcDbEntity
  8
0
100
AcDbLine
 10
-45.79837167516565
 20
10.44087653306682
 30
0.0
 11
-47.01516967516568
 21
10.44087653306682
 31
0.0
  0
LINE
  5
1E3
102
{ACAD_REACTORS
330
1ED
102
}
330
1AF
100
AcDbEntity
  8
0
100
AcDbLine
 10
-45.79837167516565
 20
15.1559695330669
 30
0.0
 11
-45.79837167516565
 21
10.44087653306682
 31
0.0
  0
LINE
  5
1E4
102
{ACAD_REACTORS
330
1ED
102
}
330
1AF
100
AcDbEntity
  8
0
100
AcDbLine
 10
-44.83467667516558
 20
10.44087653306682
 30
0.0
 11
-45.79837167516565
 21
15.1559695330669
 31
0.0
  0
LINE
  5
1E5
102
{ACAD_REACTORS
330
1ED
102
}
330
1AF
100
AcDbEntity
  8
0
100
AcDbLine
 10
-43.74621267516555
 20
10.44087653306682
 30
0.0
 11
-44.83467667516558
 21
10.44087653306682
 31
0.0
  0
LINE
  5
1E6
102
{ACAD_REACTORS
330
1ED
102
}
330
1AF
100
AcDbEntity
  8
0
100
AcDbLine
 10
-42.83242567516563
 20
15.15596953306682
 30
0.0
 11
-43.74621267516555
 21
10.44087653306682
 31
0.0
  0
LINE
  5
1E7
102
{ACAD_REACTORS
330
1ED
102
}
330
1AF
100
AcDbEntity
  8
0
100
AcDbLine
 10
-42.83242567516563
 20
10.44087653306682
 30
0.0
 11
-42.83242567516563
 21
15.15596953306682
 31
0.0
  0
LINE
  5
1E8
102
{ACAD_REACTORS
330
1ED
102
}
330
1AF
100
AcDbEntity
  8
0
100
AcDbLine
 10
-41.53957767516555
 20
10.44087653306682
 30
0.0
 11
-42.83242567516563
 21
10.44087653306682
 31
0.0
  0
LINE
  5
1E9
102
{ACAD_REACTORS
330
1ED
102
}
330
1AF
100
AcDbEntity
  8
0
100
AcDbLine
 10
-41.53957767516555
 20
16.44881753306684
 30
0.0
 11
-41.53957767516555
 21
10.44087653306682
 31
0.0
  0
LINE
  5
1EA
102
{ACAD_REACTORS
330
1ED
102
}
330
1AF
100
AcDbEntity
  8
0
100
AcDbLine
 10
-43.54301667516562
 20
16.44881753306684
 30
0.0
 11
-41.53957767516555
 21
16.44881753306684
 31
0.0
  0
LINE
  5
1EB
102
{ACAD_REACTORS
330
1ED
102
}
330
1AF
100
AcDbEntity
  8
0
100
AcDbLine
 10
-44.24410167516565
 20
12.52868353306683
 30
0.0
 11
-43.54301667516562
 21
16.44881753306684
 31
0.0
  0
LINE
  5
1EC
102
{ACAD_REACTORS
330
1ED
102
}
330
1AF
100
AcDbEntity
  8
0
100
AcDbLine
 10
-44.26073767516562
 20
12.52868353306683
 30
0.0
 11
-44.24410167516565
 21
12.52868353306683
 31
0.0
  0
HATCH
  5
1ED
330
1AF
100
AcDbEntity
  8
Schraffur (ISO)
100
AcDbHatch
 10
0.0
 20
0.0
 30
0.0
210
0.0
220
0.0
230
1.0
  2
SOLID
 70
     1
 71
     1
 91
        1
 92
        1
 93
       14
 72
     1
 10
-44.98677667516563
 20
16.44881753306684
 11
-44.26073767516562
 21
12.52868353306683
 72
     1
 10
-44.26073767516562
 20
12.52868353306683
 11
-44.24410167516565
 21
12.52868353306683
 72
     1
 10
-44.24410167516565
 20
12.52868353306683
 11
-43.54301667516562
 21
16.44881753306684
 72
     1
 10
-43.54301667516562
 20
16.44881753306684
 11
-41.53957767516555
 21
16.44881753306684
 72
     1
 10
-41.53957767516555
 20
16.44881753306684
 11
-41.53957767516555
 21
10.44087653306682
 72
     1
 10
-41.53957767516555
 20
10.44087653306682
 11
-42.83242567516563
 21
10.44087653306682
 72
     1
 10
-42.83242567516563
 20
10.44087653306682
 11
-42.83242567516563
 21
15.15596953306682
 72
     1
 10
-42.83242567516563
 20
15.15596953306682
 11
-43.74621267516555
 21
10.44087653306682
 72
     1
 10
-43.74621267516555
 20
10.44087653306682
 11
-44.83467667516558
 21
10.44087653306682
 72
     1
 10
-44.83467667516558
 20
10.44087653306682
 11
-45.79837167516565
 21
15.1559695330669
 72
     1
 10
-45.79837167516565
 20
15.1559695330669
 11
-45.79837167516565
 21
10.44087653306682
 72
     1
 10
-45.79837167516565
 20
10.44087653306682
 11
-47.01516967516568
 21
10.44087653306682
 72
     1
 10
-47.01516967516568
 20
10.44087653306682
 11
-47.01516967516568
 21
16.44881753306684
 72
     1
 10
-47.01516967516568
 20
16.44881753306684
 11
-44.98677667516563
 21
16.44881753306684
 97
       14
330
1DF
330
1EC
330
1EB
330
1EA
330
1E9
330
1E8
330
1E7
330
1E6
330
1E5
330
1E4
330
1E3
330
1E2
330
1E1
330
1E0
 75
     0
 76
     1
 98
        1
 10
0.0
 20
0.0
450
        0
451
        0
460
0.0
461
0.0
452
        0
462
0.0
453
        0
470

  0
LINE
  5
1EE
102
{ACAD_REACTORS
330
1FA
102
}
330
1AF
100
AcDbEntity
  8
0
100
AcDbLine
 10
-39.2521406751656
 20
12.64632353306684
 30
0.0
 11
-38.24923267516571
 21
12.64632353306684
 31
0.0
  0
LINE
  5
1EF
102
{ACAD_REACTORS
330
1FA
102
}
330
1AF
100
AcDbEntity
  8
0
100
AcDbLine
 10
-38.24923267516571
 20
12.64632353306684
 30
0.0
 11
-38.75068667516565
 21
15.46016853306682
 31
0.0
  0
LINE
  5
1F0
102
{ACAD_REACTORS
330
1FA
102
}
330
1AF
100
AcDbEntity
  8
0
100
AcDbLine
 10
-38.75068667516565
 20
15.46016853306682
 30
0.0
 11
-38.76732267516559
 21
15.46016853306682
 31
0.0
  0
LINE
  5
1F1
102
{ACAD_REACTORS
330
1FA
102
}
330
1AF
100
AcDbEntity
  8
0
100
AcDbLine
 10
-38.76732267516559
 20
15.46016853306682
 30
0.0
 11
-39.2521406751656
 21
12.64632353306684
 31
0.0
  0
LINE
  5
1F2
102
{ACAD_REACTORS
330
1FA
102
}
330
1AF
100
AcDbEntity
  8
0
100
AcDbLine
 10
-37.80719267516563
 20
10.44087653306682
 30
0.0
 11
-36.36818667516561
 21
10.44087653306682
 31
0.0
  0
LINE
  5
1F3
102
{ACAD_REACTORS
330
1FA
102
}
330
1AF
100
AcDbEntity
  8
0
100
AcDbLine
 10
-38.02227067516558
 20
11.65767453306683
 30
0.0
 11
-37.80719267516563
 21
10.44087653306682
 31
0.0
  0
LINE
  5
1F4
102
{ACAD_REACTORS
330
1FA
102
}
330
1AF
100
AcDbEntity
  8
0
100
AcDbLine
 10
-39.43751167516563
 20
11.65767453306683
 30
0.0
 11
-38.02227067516558
 21
11.65767453306683
 31
0.0
  0
LINE
  5
1F5
102
{ACAD_REACTORS
330
1FA
102
}
330
1AF
100
AcDbEntity
  8
0
100
AcDbLine
 10
-39.64427267516566
 20
10.44087653306682
 30
0.0
 11
-39.43751167516563
 21
11.65767453306683
 31
0.0
  0
LINE
  5
1F6
102
{ACAD_REACTORS
330
1FA
102
}
330
1AF
100
AcDbEntity
  8
0
100
AcDbLine
 10
-41.0832786751656
 20
10.44087653306682
 30
0.0
 11
-39.64427267516566
 21
10.44087653306682
 31
0.0
  0
LINE
  5
1F7
102
{ACAD_REACTORS
330
1FA
102
}
330
1AF
100
AcDbEntity
  8
0
100
AcDbLine
 10
-39.57772867516564
 20
16.44881753306684
 30
0.0
 11
-41.0832786751656
 21
10.44087653306682
 31
0.0
  0
LINE
  5
1F8
102
{ACAD_REACTORS
330
1FA
102
}
330
1AF
100
AcDbEntity
  8
0
100
AcDbLine
 10
-37.84046467516564
 20
16.44881753306684
 30
0.0
 11
-39.57772867516564
 21
16.44881753306684
 31
0.0
  0
LINE
  5
1F9
102
{ACAD_REACTORS
330
1FA
102
}
330
1AF
100
AcDbEntity
  8
0
100
AcDbLine
 10
-36.36818667516561
 20
10.44087653306682
 30
0.0
 11
-37.84046467516564
 21
16.44881753306684
 31
0.0
  0
HATCH
  5
1FA
330
1AF
100
AcDbEntity
  8
Schraffur (ISO)
100
AcDbHatch
 10
0.0
 20
0.0
 30
0.0
210
0.0
220
0.0
230
1.0
  2
SOLID
 70
     1
 71
     1
 91
        2
 92
        0
 93
        4
 72
     1
 10
-39.2521406751656
 20
12.64632353306684
 11
-38.24923267516571
 21
12.64632353306684
 72
     1
 10
-38.24923267516571
 20
12.64632353306684
 11
-38.75068667516565
 21
15.46016853306682
 72
     1
 10
-38.75068667516565
 20
15.46016853306682
 11
-38.76732267516559
 21
15.46016853306682
 72
     1
 10
-38.76732267516559
 20
15.46016853306682
 11
-39.2521406751656
 21
12.64632353306684
 97
        4
330
1EE
330
1EF
330
1F0
330
1F1
 92
        1
 93
        8
 72
     1
 10
-37.80719267516563
 20
10.44087653306682
 11
-36.36818667516561
 21
10.44087653306682
 72
     1
 10
-36.36818667516561
 20
10.44087653306682
 11
-37.84046467516564
 21
16.44881753306684
 72
     1
 10
-37.84046467516564
 20
16.44881753306684
 11
-39.57772867516564
 21
16.44881753306684
 72
     1
 10
-39.57772867516564
 20
16.44881753306684
 11
-41.0832786751656
 21
10.44087653306682
 72
     1
 10
-41.0832786751656
 20
10.44087653306682
 11
-39.64427267516566
 21
10.44087653306682
 72
     1
 10
-39.64427267516566
 20
10.44087653306682
 11
-39.43751167516563
 21
11.65767453306683
 72
     1
 10
-39.43751167516563
 20
11.65767453306683
 11
-38.02227067516558
 21
11.65767453306683
 72
     1
 10
-38.02227067516558
 20
11.65767453306683
 11
-37.80719267516563
 21
10.44087653306682
 97
        8
330
1F2
330
1F9
330
1F8
330
1F7
330
1F6
330
1F5
330
1F4
330
1F3
 75
     0
 76
     1
 98
        1
 10
0.0
 20
0.0
450
        0
451
        0
460
0.0
461
0.0
452
        0
462
0.0
453
        0
470

  0
LINE
  5
1FB
102
{ACAD_REACTORS
330
203
102
}
330
1AF
100
AcDbEntity
  8
0
100
AcDbLine
 10
-33.7824906751656
 20
15.30806953306683
 30
0.0
 11
-33.7824906751656
 21
10.44087653306682
 31
0.0
  0
LINE
  5
1FC
102
{ACAD_REACTORS
330
203
102
}
330
1AF
100
AcDbEntity
  8
0
100
AcDbLine
 10
-32.52410267516563
 20
15.30806953306683
 30
0.0
 11
-33.7824906751656
 21
15.30806953306683
 31
0.0
  0
LINE
  5
1FD
102
{ACAD_REACTORS
330
203
102
}
330
1AF
100
AcDbEntity
  8
0
100
AcDbLine
 10
-32.52410267516563
 20
16.44881753306684
 30
0.0
 11
-32.52410267516563
 21
15.30806953306683
 31
0.0
  0
LINE
  5
1FE
102
{ACAD_REACTORS
330
203
102
}
330
1AF
100
AcDbEntity
  8
0
100
AcDbLine
 10
-36.36818667516561
 20
16.44881753306684
 30
0.0
 11
-32.52410267516563
 21
16.44881753306684
 31
0.0
  0
LINE
  5
1FF
102
{ACAD_REACTORS
330
203
102
}
330
1AF
100
AcDbEntity
  8
0
100
AcDbLine
 10
-36.36818667516561
 20
15.30806953306683
 30
0.0
 11
-36.36818667516561
 21
16.44881753306684
 31
0.0
  0
LINE
  5
200
102
{ACAD_REACTORS
330
203
102
}
330
1AF
100
AcDbEntity
  8
0
100
AcDbLine
 10
-35.15138767516564
 20
15.30806953306683
 30
0.0
 11
-36.36818667516561
 21
15.30806953306683
 31
0.0
  0
LINE
  5
201
102
{ACAD_REACTORS
330
203
102
}
330
1AF
100
AcDbEntity
  8
0
100
AcDbLine
 10
-35.15138767516564
 20
10.44087653306682
 30
0.0
 11
-35.15138767516564
 21
15.30806953306683
 31
0.0
  0
LINE
  5
202
102
{ACAD_REACTORS
330
203
102
}
330
1AF
100
AcDbEntity
  8
0
100
AcDbLine
 10
-33.7824906751656
 20
10.44087653306682
 30
0.0
 11
-35.15138767516564
 21
10.44087653306682
 31
0.0
  0
HATCH
  5
203
330
1AF
100
AcDbEntity
  8
Schraffur (ISO)
100
AcDbHatch
 10
0.0
 20
0.0
 30
0.0
210
0.0
220
0.0
230
1.0
  2
SOLID
 70
     1
 71
     1
 91
        1
 92
        1
 93
        8
 72
     1
 10
-33.7824906751656
 20
15.30806953306683
 11
-33.7824906751656
 21
10.44087653306682
 72
     1
 10
-33.7824906751656
 20
10.44087653306682
 11
-35.15138767516564
 21
10.44087653306682
 72
     1
 10
-35.15138767516564
 20
10.44087653306682
 11
-35.15138767516564
 21
15.30806953306683
 72
     1
 10
-35.15138767516564
 20
15.30806953306683
 11
-36.36818667516561
 21
15.30806953306683
 72
     1
 10
-36.36818667516561
 20
15.30806953306683
 11
-36.36818667516561
 21
16.44881753306684
 72
     1
 10
-36.36818667516561
 20
16.44881753306684
 11
-32.52410267516563
 21
16.44881753306684
 72
     1
 10
-32.52410267516563
 20
16.44881753306684
 11
-32.52410267516563
 21
15.30806953306683
 72
     1
 10
-32.52410267516563
 20
15.30806953306683
 11
-33.7824906751656
 21
15.30806953306683
 97
        8
330
1FB
330
202
330
201
330
200
330
1FF
330
1FE
330
1FD
330
1FC
 75
     0
 76
     1
 98
        1
 10
0.0
 20
0.0
450
        0
451
        0
460
0.0
461
0.0
452
        0
462
0.0
453
        0
470

  0
LINE
  5
204
102
{ACAD_REACTORS
330
210
102
}
330
1AF
100
AcDbEntity
  8
0
100
AcDbLine
 10
-30.66444567516566
 20
11.58162453306683
 30
0.0
 11
-28.55049667516564
 21
11.58162453306683
 31
0.0
  0
LINE
  5
205
102
{ACAD_REACTORS
330
210
102
}
330
1AF
100
AcDbEntity
  8
0
100
AcDbLine
 10
-30.66444567516566
 20
12.95052253306684
 30
0.0
 11
-30.66444567516566
 21
11.58162453306683
 31
0.0
  0
LINE
  5
206
102
{ACAD_REACTORS
330
210
102
}
330
1AF
100
AcDbEntity
  8
0
100
AcDbLine
 10
-28.76438667516563
 20
12.95052253306684
 30
0.0
 11
-30.66444567516566
 21
12.95052253306684
 31
0.0
  0
LINE
  5
207
102
{ACAD_REACTORS
330
210
102
}
330
1AF
100
AcDbEntity
  8
0
100
AcDbLine
 10
-28.76438667516563
 20
14.09127053306683
 30
0.0
 11
-28.76438667516563
 21
12.95052253306684
 31
0.0
  0
LINE
  5
208
102
{ACAD_REACTORS
330
210
102
}
330
1AF
100
AcDbEntity
  8
0
100
AcDbLine
 10
-30.66444567516566
 20
14.09127053306683
 30
0.0
 11
-28.76438667516563
 21
14.09127053306683
 31
0.0
  0
LINE
  5
209
102
{ACAD_REACTORS
330
210
102
}
330
1AF
100
AcDbEntity
  8
0
100
AcDbLine
 10
-30.66444567516566
 20
15.30806953306683
 30
0.0
 11
-30.66444567516566
 21
14.09127053306683
 31
0.0
  0
LINE
  5
20A
102
{ACAD_REACTORS
330
210
102
}
330
1AF
100
AcDbEntity
  8
0
100
AcDbLine
 10
-28.6408056751657
 20
15.30806953306683
 30
0.0
 11
-30.66444567516566
 21
15.30806953306683
 31
0.0
  0
LINE
  5
20B
102
{ACAD_REACTORS
330
210
102
}
330
1AF
100
AcDbEntity
  8
0
100
AcDbLine
 10
-28.6408056751657
 20
16.44881753306684
 30
0.0
 11
-28.6408056751657
 21
15.30806953306683
 31
0.0
  0
LINE
  5
20C
102
{ACAD_REACTORS
330
210
102
}
330
1AF
100
AcDbEntity
  8
0
100
AcDbLine
 10
-32.03334267516563
 20
16.44881753306684
 30
0.0
 11
-28.6408056751657
 21
16.44881753306684
 31
0.0
  0
LINE
  5
20D
102
{ACAD_REACTORS
330
210
102
}
330
1AF
100
AcDbEntity
  8
0
100
AcDbLine
 10
-32.03334267516563
 20
10.44087653306682
 30
0.0
 11
-32.03334267516563
 21
16.44881753306684
 31
0.0
  0
LINE
  5
20E
102
{ACAD_REACTORS
330
210
102
}
330
1AF
100
AcDbEntity
  8
0
100
AcDbLine
 10
-28.55049667516564
 20
10.44087653306682
 30
0.0
 11
-32.03334267516563
 21
10.44087653306682
 31
0.0
  0
LINE
  5
20F
102
{ACAD_REACTORS
330
210
102
}
330
1AF
100
AcDbEntity
  8
0
100
AcDbLine
 10
-28.55049667516564
 20
11.58162453306683
 30
0.0
 11
-28.55049667516564
 21
10.44087653306682
 31
0.0
  0
HATCH
  5
210
330
1AF
100
AcDbEntity
  8
Schraffur (ISO)
100
AcDbHatch
 10
0.0
 20
0.0
 30
0.0
210
0.0
220
0.0
230
1.0
  2
SOLID
 70
     1
 71
     1
 91
        1
 92
        1
 93
       12
 72
     1
 10
-30.66444567516566
 20
11.58162453306683
 11
-28.55049667516564
 21
11.58162453306683
 72
     1
 10
-28.55049667516564
 20
11.58162453306683
 11
-28.55049667516564
 21
10.44087653306682
 72
     1
 10
-28.55049667516564
 20
10.44087653306682
 11
-32.03334267516563
 21
10.44087653306682
 72
     1
 10
-32.03334267516563
 20
10.44087653306682
 11
-32.03334267516563
 21
16.44881753306684
 72
     1
 10
-32.03334267516563
 20
16.44881753306684
 11
-28.6408056751657
 21
16.44881753306684
 72
     1
 10
-28.6408056751657
 20
16.44881753306684
 11
-28.6408056751657
 21
15.30806953306683
 72
     1
 10
-28.6408056751657
 20
15.30806953306683
 11
-30.66444567516566
 21
15.30806953306683
 72
     1
 10
-30.66444567516566
 20
15.30806953306683
 11
-30.66444567516566
 21
14.09127053306683
 72
     1
 10
-30.66444567516566
 20
14.09127053306683
 11
-28.76438667516563
 21
14.09127053306683
 72
     1
 10
-28.76438667516563
 20
14.09127053306683
 11
-28.76438667516563
 21
12.95052253306684
 72
     1
 10
-28.76438667516563
 20
12.95052253306684
 11
-30.66444567516566
 21
12.95052253306684
 72
     1
 10
-30.66444567516566
 20
12.95052253306684
 11
-30.66444567516566
 21
11.58162453306683
 97
       12
330
204
330
20F
330
20E
330
20D
330
20C
330
20B
330
20A
330
209
330
208
330
207
330
206
330
205
 75
     0
 76
     1
 98
        1
 10
0.0
 20
0.0
450
        0
451
        0
460
0.0
461
0.0
452
        0
462
0.0
453
        0
470

  0
LINE
  5
211
102
{ACAD_REACTORS
330
21E
102
}
330
1AF
100
AcDbEntity
  8
0
100
AcDbLine
 10
-25.43246658829611
 20
16.4546514228036
 30
0.0
 11
-23.90435631161623
 21
16.46180057898531
 31
0.0
  0
LINE
  5
212
102
{ACAD_REACTORS
330
21E
102
}
330
1AF
100
AcDbEntity
  8
0
100
AcDbLine
 10
-26.01549057645176
 20
14.58511635645683
 30
0.0
 11
-25.43246658829611
 21
16.4546514228036
 31
0.0
  0
LINE
  5
213
102
{ACAD_REACTORS
330
21E
102
}
330
1AF
100
AcDbEntity
  8
0
100
AcDbLine
 10
-26.03093740740494
 20
14.58504408954738
 30
0.0
 11
-26.01549057645176
 21
14.58511635645683
 31
0.0
  0
LINE
  5
214
102
{ACAD_REACTORS
330
21E
102
}
330
1AF
100
AcDbEntity
  8
0
100
AcDbLine
 10
-26.64612930682606
 20
16.44881753306684
 30
0.0
 11
-26.03093740740494
 21
14.58504408954738
 31
0.0
  0
LINE
  5
215
102
{ACAD_REACTORS
330
21E
102
}
330
1AF
100
AcDbEntity
  8
0
100
AcDbLine
 10
-28.16787067516568
 20
16.44881753306684
 30
0.0
 11
-26.64612930682606
 21
16.44881753306684
 31
0.0
  0
LINE
  5
216
102
{ACAD_REACTORS
330
21E
102
}
330
1AF
100
AcDbEntity
  8
0
100
AcDbLine
 10
-26.87026967516569
 20
13.49475453306683
 30
0.0
 11
-28.16787067516568
 21
16.44881753306684
 31
0.0
  0
LINE
  5
217
102
{ACAD_REACTORS
330
21E
102
}
330
1AF
100
AcDbEntity
  8
0
100
AcDbLine
 10
-28.30689867516558
 20
10.44087653306682
 30
0.0
 11
-26.87026967516569
 21
13.49475453306683
 31
0.0
  0
LINE
  5
218
102
{ACAD_REACTORS
330
21E
102
}
330
1AF
100
AcDbEntity
  8
0
100
AcDbLine
 10
-26.78946667516559
 20
10.44087653306682
 30
0.0
 11
-28.30689867516558
 21
10.44087653306682
 31
0.0
  0
LINE
  5
219
102
{ACAD_REACTORS
330
21E
102
}
330
1AF
100
AcDbEntity
  8
0
100
AcDbLine
 10
-26.0800636751657
 20
12.44669253306682
 30
0.0
 11
-26.78946667516559
 21
10.44087653306682
 31
0.0
  0
LINE
  5
21A
102
{ACAD_REACTORS
330
21E
102
}
330
1AF
100
AcDbEntity
  8
0
100
AcDbLine
 10
-25.52255357088104
 20
10.44087653306682
 30
0.0
 11
-26.0800636751657
 21
12.44669253306682
 31
0.0
  0
LINE
  5
21B
102
{ACAD_REACTORS
330
21E
102
}
330
1AF
100
AcDbEntity
  8
0
100
AcDbLine
 10
-23.91733373362687
 20
10.44087653306682
 30
0.0
 11
-25.52255357088104
 21
10.44087653306682
 31
0.0
  0
LINE
  5
21C
102
{ACAD_REACTORS
330
21E
102
}
330
1AF
100
AcDbEntity
  8
0
100
AcDbLine
 10
-25.16745525516015
 20
13.49429112836466
 30
0.0
 11
-23.91733373362687
 21
10.44087653306682
 31
0.0
  0
LINE
  5
21D
102
{ACAD_REACTORS
330
21E
102
}
330
1AF
100
AcDbEntity
  8
0
100
AcDbLine
 10
-23.90435631161623
 20
16.46180057898531
 30
0.0
 11
-25.16745525516015
 21
13.49429112836466
 31
0.0
  0
HATCH
  5
21E
330
1AF
100
AcDbEntity
  8
Schraffur (ISO)
100
AcDbHatch
 10
0.0
 20
0.0
 30
0.0
210
0.0
220
0.0
230
1.0
  2
SOLID
 70
     1
 71
     1
 91
        1
 92
        1
 93
       13
 72
     1
 10
-25.43246658829611
 20
16.4546514228036
 11
-23.90435631161623
 21
16.46180057898531
 72
     1
 10
-23.90435631161623
 20
16.46180057898531
 11
-25.16745525516015
 21
13.49429112836467
 72
     1
 10
-25.16745525516015
 20
13.49429112836466
 11
-23.91733373362687
 21
10.44087653306682
 72
     1
 10
-23.91733373362687
 20
10.44087653306682
 11
-25.52255357088104
 21
10.44087653306682
 72
     1
 10
-25.52255357088104
 20
10.44087653306682
 11
-26.0800636751657
 21
12.44669253306682
 72
     1
 10
-26.0800636751657
 20
12.44669253306682
 11
-26.78946667516559
 21
10.44087653306682
 72
     1
 10
-26.78946667516559
 20
10.44087653306682
 11
-28.30689867516558
 21
10.44087653306682
 72
     1
 10
-28.30689867516558
 20
10.44087653306682
 11
-26.87026967516569
 21
13.49475453306683
 72
     1
 10
-26.87026967516569
 20
13.49475453306683
 11
-28.16787067516568
 21
16.44881753306684
 72
     1
 10
-28.16787067516568
 20
16.44881753306684
 11
-26.64612930682606
 21
16.44881753306684
 72
     1
 10
-26.64612930682606
 20
16.44881753306684
 11
-26.03093740740494
 21
14.58504408954738
 72
     1
 10
-26.03093740740494
 20
14.58504408954738
 11
-26.01549057645176
 21
14.58511635645683
 72
     1
 10
-26.01549057645176
 20
14.58511635645683
 11
-25.43246658829611
 21
16.4546514228036
 97
       13
330
211
330
21D
330
21C
330
21B
330
21A
330
219
330
218
330
217
330
216
330
215
330
214
330
213
330
212
 75
     0
 76
     1
 98
        1
 10
0.0
 20
0.0
450
        0
451
        0
460
0.0
461
0.0
452
        0
462
0.0
453
        0
470

  0
LINE
  5
21F
330
1AF
100
AcDbEntity
  8
Skizziergeometrie (ISO)
100
AcDbLine
 10
-66.74197817516563
 20
0.2208965330668366
 30
0.0
 11
-53.44197817516562
 21
0.2208965330668366
 31
0.0
  0
LINE
  5
220
330
1AF
100
AcDbEntity
  8
Skizziergeometrie (ISO)
100
AcDbLine
 10
-53.44197817516562
 20
0.2208965330668366
 30
0.0
 11
-53.44197817516562
 21
13.52089653306683
 31
0.0
  0
LINE
  5
221
330
1AF
100
AcDbEntity
  8
Skizziergeometrie (ISO)
100
AcDbLine
 10
-53.44197817516562
 20
13.52089653306683
 30
0.0
 11
-66.74197817516563
 21
13.52089653306683
 31
0.0
  0
LINE
  5
222
330
1AF
100
AcDbEntity
  8
Skizziergeometrie (ISO)
100
AcDbLine
 10
-66.74197817516563
 20
13.52089653306683
 30
0.0
 11
-66.74197817516563
 21
0.2208965330668366
 31
0.0
  0
LINE
  5
223
330
1AF
100
AcDbEntity
  8
Skizziergeometrie (ISO)
100
AcDbLine
 10
-74.30834701753944
 20
20.17089653306684
 30
0.0
 11
-61.00834701753945
 21
20.17089653306684
 31
0.0
  0
LINE
  5
224
330
1AF
100
AcDbEntity
  8
Skizziergeometrie (ISO)
100
AcDbLine
 10
-61.00834701753945
 20
20.17089653306684
 30
0.0
 11
-61.00834701753945
 21
6.870896533066837
 31
0.0
  0
LINE
  5
225
330
1AF
100
AcDbEntity
  8
Skizziergeometrie (ISO)
100
AcDbLine
 10
-61.00834701753945
 20
6.870896533066837
 30
0.0
 11
-74.30834701753944
 21
6.870896533066837
 31
0.0
  0
LINE
  5
226
330
1AF
100
AcDbEntity
  8
Skizziergeometrie (ISO)
100
AcDbLine
 10
-74.30834701753944
 20
6.870896533066837
 30
0.0
 11
-74.30834701753944
 21
20.17089653306684
 31
0.0
  0
LINE
  5
227
330
1AF
100
AcDbEntity
  8
Skizziergeometrie (ISO)
100
AcDbLine
 10
-49.79098967516563
 20
25.34881753306685
 30
0.0
 11
-36.49098967516564
 21
25.34881753306685
 31
0.0
  0
LINE
  5
228
330
1AF
100
AcDbEntity
  8
Skizziergeometrie (ISO)
100
AcDbLine
 10
-36.49098967516564
 20
25.34881753306685
 30
0.0
 11
-36.49098967516564
 21
12.04881753306685
 31
0.0
  0
LINE
  5
229
330
1AF
100
AcDbEntity
  8
Skizziergeometrie (ISO)
100
AcDbLine
 10
-36.49098967516564
 20
12.04881753306685
 30
0.0
 11
-49.79098967516563
 21
12.04881753306685
 31
0.0
  0
LINE
  5
22A
330
1AF
100
AcDbEntity
  8
Skizziergeometrie (ISO)
100
AcDbLine
 10
-49.79098967516563
 20
12.04881753306685
 30
0.0
 11
-49.79098967516563
 21
25.34881753306685
 31
0.0
  0
MTEXT
  5
22B
330
1AF
100
AcDbEntity
  8
Titel (ISO)
100
AcDbMText
 10
-23.23075129610368
 20
16.30481426074307
 30
0.0
 40
2.5
 41
0.0
 46
0.0
 71
     4
 72
     1
  1
\fAIGDT|b0|i0;\H2.5000;\}
  7
Notiztext (DIN)
 73
     1
 44
1.0
  0
ENDBLK
  5
1B1
330
1AF
100
AcDbEntity
  8
0
100
AcDbBlockEnd
  0
BLOCK
  5
22D
330
22C
100
AcDbEntity
  8
0
100
AcDbBlockBegin
  2
P gross
 70
     0
 10
0.0
 20
0.0
 30
0.0
  3
P gross
  1

  0
LINE
  5
22F
102
{ACAD_REACTORS
330
23D
102
}
330
22C
100
AcDbEntity
  8
0
100
AcDbLine
 10
8.769225522167296
 20
4.689310313762291
 30
0.0
 11
7.981577449080567
 21
4.689310313762327
 31
0.0
  0
LINE
  5
230
102
{ACAD_REACTORS
330
23D
102
}
330
22C
100
AcDbEntity
  8
0
100
AcDbLine
 10
7.981577449080567
 20
4.689310313762327
 30
0.0
 11
7.981577449080567
 21
0.7845927762325644
 31
0.0
  0
LINE
  5
231
102
{ACAD_REACTORS
330
23D
102
}
330
22C
100
AcDbEntity
  8
0
100
AcDbLine
 10
7.981577449080567
 20
0.7845927762325644
 30
0.0
 11
8.769225522167296
 21
0.7845927762325644
 31
0.0
  0
ARC
  5
232
102
{ACAD_REACTORS
330
23D
102
}
330
22C
100
AcDbEntity
  8
0
100
AcDbCircle
 10
8.769225522167296
 20
2.284592776232585
 30
0.0
 40
1.5
100
AcDbArc
 50
270.0
 51
0.0
  0
LINE
  5
233
102
{ACAD_REACTORS
330
23D
102
}
330
22C
100
AcDbEntity
  8
0
100
AcDbLine
 10
10.26922552216724
 20
2.284592776232585
 30
0.0
 11
10.26922552216728
 21
3.189310313762341
 31
0.0
  0
ARC
  5
234
102
{ACAD_REACTORS
330
23D
102
}
330
22C
100
AcDbEntity
  8
0
100
AcDbCircle
 10
8.769225522167296
 20
3.189310313762341
 30
0.0
 40
1.5
100
AcDbArc
 50
0.0
 51
90.0
  0
LINE
  5
235
102
{ACAD_REACTORS
330
23D
102
}
330
22C
100
AcDbEntity
  8
0
100
AcDbLine
 10
4.481577449080553
 20
7.033965470643472
 30
0.0
 11
4.481577449080553
 21
-7.033965470643472
 31
0.0
  0
LINE
  5
236
102
{ACAD_REACTORS
330
23D
102
}
330
22C
100
AcDbEntity
  8
0
100
AcDbLine
 10
9.557661927330194
 20
7.033965470643472
 30
0.0
 11
4.481577449080553
 21
7.033965470643472
 31
0.0
  0
ARC
  5
237
102
{ACAD_REACTORS
330
23D
102
}
330
22C
100
AcDbEntity
  8
0
100
AcDbCircle
 10
9.557661927330194
 20
3.033965470643487
 30
0.0
 40
4.0
100
AcDbArc
 50
0.0
 51
90.0
  0
LINE
  5
238
102
{ACAD_REACTORS
330
23D
102
}
330
22C
100
AcDbEntity
  8
0
100
AcDbLine
 10
13.55766192733018
 20
2.439937619351439
 30
0.0
 11
13.55766192733018
 21
3.033965470643487
 31
0.0
  0
ARC
  5
239
102
{ACAD_REACTORS
330
23D
102
}
330
22C
100
AcDbEntity
  8
0
100
AcDbCircle
 10
9.557661927330194
 20
2.439937619351439
 30
0.0
 40
4.0
100
AcDbArc
 50
270.0
 51
0.0
  0
LINE
  5
23A
102
{ACAD_REACTORS
330
23D
102
}
330
22C
100
AcDbEntity
  8
0
100
AcDbLine
 10
7.981577449080603
 20
-1.560062380648581
 30
0.0
 11
9.557661927330194
 21
-1.560062380648581
 31
0.0
  0
LINE
  5
23B
102
{ACAD_REACTORS
330
23D
102
}
330
22C
100
AcDbEntity
  8
0
100
AcDbLine
 10
7.981577449080567
 20
-7.033965470643508
 30
0.0
 11
7.981577449080603
 21
-1.560062380648581
 31
0.0
  0
LINE
  5
23C
102
{ACAD_REACTORS
330
23D
102
}
330
22C
100
AcDbEntity
  8
0
100
AcDbLine
 10
4.481577449080553
 20
-7.033965470643472
 30
0.0
 11
7.981577449080567
 21
-7.033965470643508
 31
0.0
  0
HATCH
  5
23D
330
22C
100
AcDbEntity
  8
Schraffur (ISO)
100
AcDbHatch
 10
0.0
 20
0.0
 30
0.0
210
0.0
220
0.0
230
1.0
  2
SOLID
 70
     1
 71
     1
 91
        2
 92
        0
 93
        6
 72
     1
 10
8.769225522167296
 20
4.689310313762291
 11
7.981577449080567
 21
4.689310313762327
 72
     1
 10
7.981577449080567
 20
4.689310313762327
 11
7.981577449080567
 21
0.7845927762325644
 72
     1
 10
7.981577449080567
 20
0.7845927762325644
 11
8.769225522167296
 21
0.7845927762325644
 72
     2
 10
8.769225522167296
 20
2.284592776232585
 40
1.5
 50
270.0
 51
360.0
 73
     1
 72
     1
 10
10.26922552216724
 20
2.284592776232585
 11
10.26922552216728
 21
3.189310313762341
 72
     2
 10
8.769225522167296
 20
3.189310313762341
 40
1.5
 50
0.0
 51
90.0
 73
     1
 97
        6
330
22F
330
230
330
231
330
232
330
233
330
234
 92
        1
 93
        8
 72
     1
 10
4.481577449080553
 20
7.033965470643472
 11
4.481577449080553
 21
-7.033965470643472
 72
     1
 10
4.481577449080553
 20
-7.033965470643472
 11
7.981577449080567
 21
-7.033965470643508
 72
     1
 10
7.981577449080567
 20
-7.033965470643508
 11
7.981577449080603
 21
-1.560062380648581
 72
     1
 10
7.981577449080603
 20
-1.560062380648581
 11
9.557661927330194
 21
-1.560062380648581
 72
     2
 10
9.557661927330194
 20
2.439937619351439
 40
4.0
 50
270.0
 51
360.0
 73
     1
 72
     1
 10
13.55766192733018
 20
2.439937619351439
 11
13.55766192733018
 21
3.033965470643487
 72
     2
 10
9.557661927330194
 20
3.033965470643487
 40
4.0
 50
0.0
 51
90.0
 73
     1
 72
     1
 10
9.557661927330194
 20
7.033965470643472
 11
4.481577449080553
 21
7.033965470643472
 97
        8
330
235
330
23C
330
23B
330
23A
330
239
330
238
330
237
330
236
 75
     0
 76
     1
 98
        1
 10
0.0
 20
0.0
450
        0
451
        0
460
0.0
461
0.0
452
        0
462
0.0
453
        0
470

  0
LINE
  5
23E
330
22C
100
AcDbEntity
  8
Skizziergeometrie (ISO)
100
AcDbLine
 10
-13.99999999999998
 20
14.00746616799352
 30
0.0
 11
14.00000000000002
 21
14.00746616799352
 31
0.0
  0
LINE
  5
23F
330
22C
100
AcDbEntity
  8
Skizziergeometrie (ISO)
100
AcDbLine
 10
14.00000000000002
 20
14.00746616799352
 30
0.0
 11
14.00000000000002
 21
-14.00746616799352
 31
0.0
  0
LINE
  5
240
330
22C
100
AcDbEntity
  8
Skizziergeometrie (ISO)
100
AcDbLine
 10
14.00000000000002
 20
-14.00746616799352
 30
0.0
 11
-13.99999999999998
 21
-14.00746616799352
 31
0.0
  0
LINE
  5
241
330
22C
100
AcDbEntity
  8
Skizziergeometrie (ISO)
100
AcDbLine
 10
-13.99999999999998
 20
-14.00746616799352
 30
0.0
 11
-13.99999999999998
 21
14.00746616799352
 31
0.0
  0
LINE
  5
242
330
22C
100
AcDbEntity
  8
Skizziergeometrie (ISO)
100
AcDbLine
 10
4.481577449080553
 20
7.033965470643472
 30
0.0
 11
4.481577449080553
 21
-7.033965470643472
 31
0.0
  0
LINE
  5
243
330
22C
100
AcDbEntity
  8
Skizziergeometrie (ISO)
100
AcDbLine
 10
4.481577449080553
 20
-7.033965470643472
 30
0.0
 11
7.981577449080567
 21
-7.033965470643508
 31
0.0
  0
LINE
  5
244
330
22C
100
AcDbEntity
  8
Skizziergeometrie (ISO)
100
AcDbLine
 10
7.981577449080567
 20
-7.033965470643508
 30
0.0
 11
7.981577449080603
 21
-1.560062380648581
 31
0.0
  0
LINE
  5
245
330
22C
100
AcDbEntity
  8
Skizziergeometrie (ISO)
100
AcDbLine
 10
7.981577449080603
 20
-1.560062380648581
 30
0.0
 11
9.557661927330194
 21
-1.560062380648581
 31
0.0
  0
LINE
  5
246
330
22C
100
AcDbEntity
  8
Skizziergeometrie (ISO)
100
AcDbLine
 10
9.557661927330194
 20
7.033965470643472
 30
0.0
 11
4.481577449080553
 21
7.033965470643472
 31
0.0
  0
ARC
  5
247
330
22C
100
AcDbEntity
  8
Skizziergeometrie (ISO)
100
AcDbCircle
 10
9.557661927330194
 20
2.439937619351439
 30
0.0
 40
4.0
100
AcDbArc
 50
270.0
 51
0.0
  0
LINE
  5
248
330
22C
100
AcDbEntity
  8
Skizziergeometrie (ISO)
100
AcDbLine
 10
13.55766192733018
 20
2.439937619351439
 30
0.0
 11
13.55766192733018
 21
3.033965470643487
 31
0.0
  0
ARC
  5
249
330
22C
100
AcDbEntity
  8
Skizziergeometrie (ISO)
100
AcDbCircle
 10
9.557661927330194
 20
3.033965470643487
 30
0.0
 40
4.0
100
AcDbArc
 50
0.0
 51
90.0
  0
LINE
  5
24A
330
22C
100
AcDbEntity
  8
Skizziergeometrie (ISO)
100
AcDbLine
 10
7.981577449080567
 20
0.7845927762325644
 30
0.0
 11
7.981577449080567
 21
4.689310313762327
 31
0.0
  0
LINE
  5
24B
330
22C
100
AcDbEntity
  8
Skizziergeometrie (ISO)
100
AcDbLine
 10
7.981577449080567
 20
4.689310313762327
 30
0.0
 11
8.769225522167296
 21
4.689310313762291
 31
0.0
  0
ARC
  5
24C
330
22C
100
AcDbEntity
  8
Skizziergeometrie (ISO)
100
AcDbCircle
 10
8.769225522167296
 20
3.189310313762341
 30
0.0
 40
1.5
100
AcDbArc
 50
0.0
 51
90.0
  0
LINE
  5
24D
330
22C
100
AcDbEntity
  8
Skizziergeometrie (ISO)
100
AcDbLine
 10
10.26922552216728
 20
3.189310313762341
 30
0.0
 11
10.26922552216724
 21
2.284592776232585
 31
0.0
  0
ARC
  5
24E
330
22C
100
AcDbEntity
  8
Skizziergeometrie (ISO)
100
AcDbCircle
 10
8.769225522167296
 20
2.284592776232585
 30
0.0
 40
1.5
100
AcDbArc
 50
270.0
 51
0.0
  0
LINE
  5
24F
330
22C
100
AcDbEntity
  8
Skizziergeometrie (ISO)
100
AcDbLine
 10
8.769225522167296
 20
0.7845927762325644
 30
0.0
 11
7.981577449080567
 21
0.7845927762325644
 31
0.0
  0
ENDBLK
  5
22E
330
22C
100
AcDbEntity
  8
0
100
AcDbBlockEnd
  0
ENDSEC
  0
SECTION
  2
ENTITIES
  0
POLYLINE
  5
250
330
75
100
AcDbEntity
  8
Sichtbar (ISO)
100
AcDb2dPolyline
 66
     1
 10
0.0
 20
0.0
 30
0.0
 70
   128
  0
VERTEX
  5
251
330
250
100
AcDbEntity
  8
Sichtbar (ISO)
100
AcDbVertex
100
AcDb2dVertex
 10
302.4114003479358
 20
967.5286995083407
 30
0.0
  0
VERTEX
  5
252
330
250
100
AcDbEntity
  8
Sichtbar (ISO)
100
AcDbVertex
100
AcDb2dVertex
 10
303.6718085110064
 20
967.7460704952792
 30
0.0
  0
VERTEX
  5
254
330
250
100
AcDbEntity
  8
Sichtbar (ISO)
100
AcDbVertex
100
AcDb2dVertex
 10
305.0096979439135
 20
967.9711090237216
 30
0.0
  0
VERTEX
  5
255
330
250
100
AcDbEntity
  8
Sichtbar (ISO)
100
AcDbVertex
100
AcDb2dVertex
 10
306.4204647838946
 20
968.2019745022373
 30
0.0
  0
VERTEX
  5
256
330
250
100
AcDbEntity
  8
Sichtbar (ISO)
100
AcDbVertex
100
AcDb2dVertex
 10
307.8993227779742
 20
968.4368263393954
 30
0.0
  0
VERTEX
  5
257
330
250
100
AcDbEntity
  8
Sichtbar (ISO)
100
AcDbVertex
100
AcDb2dVertex
 10
309.4372036754962
 20
968.6731468350009
 30
0.0
  0
VERTEX
  5
258
330
250
100
AcDbEntity
  8
Sichtbar (ISO)
100
AcDbVertex
100
AcDb2dVertex
 10
311.0268428623553
 20
968.9089046627596
 30
0.0
  0
VERTEX
  5
259
330
250
100
AcDbEntity
  8
Sichtbar (ISO)
100
AcDbVertex
100
AcDb2dVertex
 10
312.6626541912433
 20
969.1424022823886
 30
0.0
  0
VERTEX
  5
25A
330
250
100
AcDbEntity
  8
Sichtbar (ISO)
100
AcDbVertex
100
AcDb2dVertex
 10
314.3388035595294
 20
969.3718753964024
 30
0.0
  0
VERTEX
  5
25B
330
250
100
AcDbEntity
  8
Sichtbar (ISO)
100
AcDbVertex
100
AcDb2dVertex
 10
316.0421755611773
 20
969.594663253458
 30
0.0
  0
VERTEX
  5
25C
330
250
100
AcDbEntity
  8
Sichtbar (ISO)
100
AcDbVertex
100
AcDb2dVertex
 10
317.7631261646624
 20
969.8091350704746
 30
0.0
  0
VERTEX
  5
25D
330
250
100
AcDbEntity
  8
Sichtbar (ISO)
100
AcDbVertex
100
AcDb2dVertex
 10
319.4953491985675
 20
970.0142799526767
 30
0.0
  0
VERTEX
  5
25E
330
250
100
AcDbEntity
  8
Sichtbar (ISO)
100
AcDbVertex
100
AcDb2dVertex
 10
321.2325384914752
 20
970.2090488583163
 30
0.0
  0
VERTEX
  5
25F
330
250
100
AcDbEntity
  8
Sichtbar (ISO)
100
AcDbVertex
100
AcDb2dVertex
 10
322.9683902561541
 20
970.392421355875
 30
0.0
  0
VERTEX
  5
260
330
250
100
AcDbEntity
  8
Sichtbar (ISO)
100
AcDbVertex
100
AcDb2dVertex
 10
324.6903779804583
 20
970.5628811031894
 30
0.0
  0
VERTEX
  5
261
330
250
100
AcDbEntity
  8
Sichtbar (ISO)
100
AcDbVertex
100
AcDb2dVertex
 10
326.3828375637408
 20
970.7193504482821
 30
0.0
  0
VERTEX
  5
262
330
250
100
AcDbEntity
  8
Sichtbar (ISO)
100
AcDbVertex
100
AcDb2dVertex
 10
328.0397894680377
 20
970.8619915157871
 30
0.0
  0
VERTEX
  5
263
330
250
100
AcDbEntity
  8
Sichtbar (ISO)
100
AcDbVertex
100
AcDb2dVertex
 10
329.6553709804888
 20
970.9909855038242
 30
0.0
  0
VERTEX
  5
264
330
250
100
AcDbEntity
  8
Sichtbar (ISO)
100
AcDbVertex
100
AcDb2dVertex
 10
331.22372177242
 20
971.1064850002841
 30
0.0
  0
VERTEX
  5
265
330
250
100
AcDbEntity
  8
Sichtbar (ISO)
100
AcDbVertex
100
AcDb2dVertex
 10
332.736492425191
 20
971.2085758358554
 30
0.0
  0
VERTEX
  5
266
330
250
100
AcDbEntity
  8
Sichtbar (ISO)
100
AcDbVertex
100
AcDb2dVertex
 10
334.1787054836627
 20
971.2974201351718
 30
0.0
  0
VERTEX
  5
267
330
250
100
AcDbEntity
  8
Sichtbar (ISO)
100
AcDbVertex
100
AcDb2dVertex
 10
335.5452397167559
 20
971.3739429623203
 30
0.0
  0
VERTEX
  5
268
330
250
100
AcDbEntity
  8
Sichtbar (ISO)
100
AcDbVertex
100
AcDb2dVertex
 10
336.8320467769976
 20
971.4391838223056
 30
0.0
  0
VERTEX
  5
269
330
250
100
AcDbEntity
  8
Sichtbar (ISO)
100
AcDbVertex
100
AcDb2dVertex
 10
338.0350926220294
 20
971.4941440731601
 30
0.0
  0
VERTEX
  5
26A
330
250
100
AcDbEntity
  8
Sichtbar (ISO)
100
AcDbVertex
100
AcDb2dVertex
 10
339.1503241360064
 20
971.5398441464023
 30
0.0
  0
SEQEND
  5
253
330
250
100
AcDbEntity
  8
Sichtbar (ISO)
  0
LINE
  5
26B
330
75
100
AcDbEntity
  8
Sichtbar (ISO)
100
AcDbLine
 10
302.4114009085469
 20
967.5286995083407
 30
0.0
 11
340.4161078274127
 21
967.5286995083407
 31
0.0
  0
POLYLINE
  5
26C
330
75
100
AcDbEntity
  8
Sichtbar (ISO)
100
AcDb2dPolyline
 66
     1
 10
0.0
 20
0.0
 30
0.0
 70
   128
  0
VERTEX
  5
26D
330
26C
100
AcDbEntity
  8
Sichtbar (ISO)
100
AcDbVertex
100
AcDb2dVertex
 10
295.9530821144458
 20
966.1797176510409
 30
0.0
  0
VERTEX
  5
26E
330
26C
100
AcDbEntity
  8
Sichtbar (ISO)
100
AcDbVertex
100
AcDb2dVertex
 10
295.9648015797015
 20
966.1822067410067
 30
0.0
  0
VERTEX
  5
270
330
26C
100
AcDbEntity
  8
Sichtbar (ISO)
100
AcDbVertex
100
AcDb2dVertex
 10
295.9999707043047
 20
966.1897693783359
 30
0.0
  0
VERTEX
  5
271
330
26C
100
AcDbEntity
  8
Sichtbar (ISO)
100
AcDbVertex
100
AcDb2dVertex
 10
296.0586204826709
 20
966.2024341732578
 30
0.0
  0
VERTEX
  5
272
330
26C
100
AcDbEntity
  8
Sichtbar (ISO)
100
AcDbVertex
100
AcDb2dVertex
 10
296.140781909215
 20
966.2201915890292
 30
0.0
  0
VERTEX
  5
273
330
26C
100
AcDbEntity
  8
Sichtbar (ISO)
100
AcDbVertex
100
AcDb2dVertex
 10
296.2464895546313
 20
966.243079772623
 30
0.0
  0
VERTEX
  5
274
330
26C
100
AcDbEntity
  8
Sichtbar (ISO)
100
AcDbVertex
100
AcDb2dVertex
 10
296.3755431473132
 20
966.27104150358
 30
0.0
  0
VERTEX
  5
275
330
26C
100
AcDbEntity
  8
Sichtbar (ISO)
100
AcDbVertex
100
AcDb2dVertex
 10
296.5275731384631
 20
966.3039623409824
 30
0.0
  0
VERTEX
  5
276
330
26C
100
AcDbEntity
  8
Sichtbar (ISO)
100
AcDbVertex
100
AcDb2dVertex
 10
296.7023697197314
 20
966.3417469173984
 30
0.0
  0
VERTEX
  5
277
330
26C
100
AcDbEntity
  8
Sichtbar (ISO)
100
AcDbVertex
100
AcDb2dVertex
 10
296.8997278511401
 20
966.3842998653965
 30
0.0
  0
VERTEX
  5
278
330
26C
100
AcDbEntity
  8
Sichtbar (ISO)
100
AcDbVertex
100
AcDb2dVertex
 10
297.1194377243396
 20
966.431535354288
 30
0.0
  0
VERTEX
  5
279
330
26C
100
AcDbEntity
  8
Sichtbar (ISO)
100
AcDbVertex
100
AcDb2dVertex
 10
297.3612931072588
 20
966.4833580166416
 30
0.0
  0
VERTEX
  5
27A
330
26C
100
AcDbEntity
  8
Sichtbar (ISO)
100
AcDbVertex
100
AcDb2dVertex
 10
297.6250853836413
 20
966.5396820217685
 30
0.0
  0
VERTEX
  5
27B
330
26C
100
AcDbEntity
  8
Sichtbar (ISO)
100
AcDbVertex
100
AcDb2dVertex
 10
297.910608321416
 20
966.6004120022373
 30
0.0
  0
VERTEX
  5
27C
330
26C
100
AcDbEntity
  8
Sichtbar (ISO)
100
AcDbVertex
100
AcDb2dVertex
 10
298.2176533043261
 20
966.6654621273593
 30
0.0
  0
VERTEX
  5
27D
330
26C
100
AcDbEntity
  8
Sichtbar (ISO)
100
AcDbVertex
100
AcDb2dVertex
 10
298.5460141003009
 20
966.73472749296
 30
0.0
  0
VERTEX
  5
27E
330
26C
100
AcDbEntity
  8
Sichtbar (ISO)
100
AcDbVertex
100
AcDb2dVertex
 10
298.8954820930834
 20
966.8081318050937
 30
0.0
  0
VERTEX
  5
27F
330
26C
100
AcDbEntity
  8
Sichtbar (ISO)
100
AcDbVertex
100
AcDb2dVertex
 10
299.2658498585101
 20
966.8855701595859
 30
0.0
  0
VERTEX
  5
280
330
26C
100
AcDbEntity
  8
Sichtbar (ISO)
100
AcDbVertex
100
AcDb2dVertex
 10
299.6569099724169
 20
966.966956725748
 30
0.0
  0
VERTEX
  5
281
330
26C
100
AcDbEntity
  8
Sichtbar (ISO)
100
AcDbVertex
100
AcDb2dVertex
 10
300.0684538185473
 20
967.0521961361483
 30
0.0
  0
VERTEX
  5
282
330
26C
100
AcDbEntity
  8
Sichtbar (ISO)
100
AcDbVertex
100
AcDb2dVertex
 10
300.4997446834918
 20
967.1410595089511
 30
0.0
  0
VERTEX
  5
283
330
26C
100
AcDbEntity
  8
Sichtbar (ISO)
100
AcDbVertex
100
AcDb2dVertex
 10
300.9500422775622
 20
967.2332988888339
 30
0.0
  0
VERTEX
  5
284
330
26C
100
AcDbEntity
  8
Sichtbar (ISO)
100
AcDbVertex
100
AcDb2dVertex
 10
301.4189901649829
 20
967.328752151163
 30
0.0
  0
VERTEX
  5
285
330
26C
100
AcDbEntity
  8
Sichtbar (ISO)
100
AcDbVertex
100
AcDb2dVertex
 10
301.9062283336993
 20
967.4272667080478
 30
0.0
  0
VERTEX
  5
286
330
26C
100
AcDbEntity
  8
Sichtbar (ISO)
100
AcDbVertex
100
AcDb2dVertex
 10
302.4114003479358
 20
967.5286995083407
 30
0.0
  0
SEQEND
  5
26F
330
26C
100
AcDbEntity
  8
Sichtbar (ISO)
  0
LINE
  5
287
330
75
100
AcDbEntity
  8
Sichtbar (ISO)
100
AcDbLine
 10
304.4161078274127
 20
959.2409470502463
 30
0.0
 11
329.6161078274127
 21
959.2409470502463
 31
0.0
  0
LINE
  5
288
330
75
100
AcDbEntity
  8
Sichtbar (ISO)
100
AcDbLine
 10
340.4161078274127
 20
967.5286995083407
 30
0.0
 11
344.9850372719871
 21
972.0976289529152
 31
0.0
  0
LINE
  5
289
330
75
100
AcDbEntity
  8
Sichtbar (ISO)
100
AcDbLine
 10
303.8278035734884
 20
961.6329742204614
 30
0.0
 11
295.9531267465903
 21
966.1794210062524
 31
0.0
  0
LINE
  5
28A
330
75
100
AcDbEntity
  8
Sichtbar (ISO)
100
AcDbLine
 10
330.204412081337
 20
961.6329742204614
 30
0.0
 11
340.4161078274127
 21
967.5286995083407
 31
0.0
  0
ARC
  5
28B
330
75
100
AcDbEntity
  8
Sichtbar (ISO)
100
AcDbCircle
 10
304.2600787226654
 20
960.2286995083408
 30
0.0
 40
1.0
100
AcDbArc
 50
278.9764858216325
 51
317.0527809761237
  0
ARC
  5
28C
330
75
100
AcDbEntity
  8
Sichtbar (ISO)
100
AcDbCircle
 10
329.7721369321599
 20
960.2286995083408
 30
0.0
 40
1.0
100
AcDbArc
 50
222.9472190238671
 51
261.023514178365
  0
LINE
  5
28D
330
75
100
AcDbEntity
  8
Sichtbar (ISO)
100
AcDbLine
 10
329.6161078274127
 20
959.2409470502463
 30
0.0
 11
329.6161078274127
 21
956.0286995083409
 31
0.0
  0
LINE
  5
28E
330
75
100
AcDbEntity
  8
Sichtbar (ISO)
100
AcDbLine
 10
304.4161078274127
 20
959.2409470502463
 30
0.0
 11
304.4161078274127
 21
956.0286995083407
 31
0.0
  0
LINE
  5
28F
330
75
100
AcDbEntity
  8
Sichtbar (ISO)
100
AcDbLine
 10
282.0161078274127
 20
964.0286995083407
 30
0.0
 11
282.0161078274135
 21
1286.028699508341
 31
0.0
  0
LINE
  5
290
330
75
100
AcDbEntity
  8
Sichtbar (ISO)
100
AcDbLine
 10
290.0161078274127
 20
964.0286995083409
 30
0.0
 11
290.0161078274135
 21
1286.028699508341
 31
0.0
  0
ARC
  5
291
330
75
100
AcDbEntity
  8
Sichtbar (ISO)
100
AcDbCircle
 10
329.8970085769184
 20
1021.860580936261
 30
0.0
 40
52.00000000000001
100
AcDbArc
 50
286.8671998288901
 51
346.9101954600413
  0
ARC
  5
292
330
75
100
AcDbEntity
  8
Sichtbar (ISO)
100
AcDbCircle
 10
329.897008576919
 20
1228.19681808042
 30
0.0
 40
52.0
100
AcDbArc
 50
13.08980453995849
 51
79.74971895077366
  0
ARC
  5
293
330
75
100
AcDbEntity
  8
Sichtbar (ISO)
100
AcDbCircle
 10
285.0161078274119
 20
970.0685109493452
 30
0.0
 40
314.0000000000001
100
AcDbArc
 50
80.07249632622905
 51
89.08760826259729
  0
ARC
  5
294
330
75
100
AcDbEntity
  8
Sichtbar (ISO)
100
AcDbCircle
 10
285.0161078274127
 20
1279.988888067336
 30
0.0
 40
314.0000000000001
100
AcDbArc
 50
270.9123917374025
 51
271.9960885451964
  0
ARC
  5
295
330
75
100
AcDbEntity
  8
Sichtbar (ISO)
100
AcDbCircle
 10
-261.2420013422339
 20
1125.028699508341
 30
0.0
 40
652.0000000000012
100
AcDbArc
 50
349.8459154802532
 51
354.9295070209515
  0
ARC
  5
296
330
75
100
AcDbEntity
  8
Sichtbar (ISO)
100
AcDbCircle
 10
-261.2420013422339
 20
1125.028699508341
 30
0.0
 40
652.0000000000013
100
AcDbArc
 50
9.372208634539498
 51
10.15408451974685
  0
ARC
  5
297
330
75
100
AcDbEntity
  8
Sichtbar (ISO)
100
AcDbCircle
 10
-261.2420013422339
 20
1125.028699508341
 30
0.0
 40
652.0000000000012
100
AcDbArc
 50
5.070492979048398
 51
7.736940768697985
  0
ARC
  5
298
330
75
100
AcDbEntity
  8
Sichtbar (ISO)
100
AcDbCircle
 10
360.3161078274188
 20
1069.878750048221
 30
0.0
 40
27.99999999999391
100
AcDbArc
 50
354.9295070209519
 51
0.0
  0
ARC
  5
299
330
75
100
AcDbEntity
  8
Sichtbar (ISO)
100
AcDbCircle
 10
360.3161078274191
 20
1180.17864896846
 30
0.0
 40
27.99999999999391
100
AcDbArc
 50
0.0
 51
5.070492979048024
  0
LINE
  5
29A
330
75
100
AcDbEntity
  8
Sichtbar (ISO)
100
AcDbLine
 10
388.3161078274127
 20
1069.878750048221
 30
0.0
 11
388.3161078274129
 21
1180.17864896846
 31
0.0
  0
LINE
  5
29B
330
75
100
AcDbEntity
  8
Sichtbar (ISO)
100
AcDbLine
 10
282.0161078274135
 20
1286.028699508341
 30
0.0
 11
290.0161078274135
 21
1286.028699508341
 31
0.0
  0
LINE
  5
29C
330
75
100
AcDbEntity
  8
Sichtbar (ISO)
100
AcDbLine
 10
282.0161078274127
 20
964.0286995083407
 30
0.0
 11
290.0161078274127
 21
964.0286995083407
 31
0.0
  0
ARC
  5
29D
330
75
100
AcDbEntity
  8
Sichtbar (ISO)
100
AcDbCircle
 10
212.7161078297636
 20
1070.028699508341
 30
0.0
 40
28.00000000000002
100
AcDbArc
 50
180.0
 51
185.0566706522035
  0
ARC
  5
29E
330
75
100
AcDbEntity
  8
Sichtbar (ISO)
100
AcDbCircle
 10
212.7161078297633
 20
1180.028699508341
 30
0.0
 40
28.00000000000002
100
AcDbArc
 50
174.9433293477957
 51
180.0
  0
LINE
  5
29F
330
75
100
AcDbEntity
  8
Sichtbar (ISO)
100
AcDbLine
 10
184.7161078297633
 20
1180.028699508341
 30
0.0
 11
184.7161078297636
 21
1070.028699508341
 31
0.0
  0
ARC
  5
2A0
330
75
100
AcDbEntity
  8
Sichtbar (ISO)
100
AcDbCircle
 10
834.2875035680155
 20
1125.028699508341
 30
0.0
 40
651.9999999999988
100
AcDbArc
 50
185.0566706522038
 51
189.9511960325927
  0
ARC
  5
2A1
330
75
100
AcDbEntity
  8
Sichtbar (ISO)
100
AcDbCircle
 10
834.2875035680155
 20
1125.028699508341
 30
0.0
 40
651.9999999999992
100
AcDbArc
 50
170.0488039674069
 51
174.9433293477959
  0
ARC
  5
2A2
330
75
100
AcDbEntity
  8
Sichtbar (ISO)
100
AcDbCircle
 10
243.3143190680843
 20
1021.343140234116
 30
0.0
 40
51.99999999999994
100
AcDbArc
 50
189.9511960325932
 51
260.9114162333962
  0
ARC
  5
2A3
330
75
100
AcDbEntity
  8
Sichtbar (ISO)
100
AcDbCircle
 10
243.3143190680837
 20
1228.714258782566
 30
0.0
 40
51.99999999999995
100
AcDbArc
 50
99.08858376660418
 51
170.0488039674068
  0
ARC
  5
2A4
330
75
100
AcDbEntity
  8
Sichtbar (ISO)
100
AcDbCircle
 10
285.0161078292929
 20
968.0286995083413
 30
0.0
 40
315.9999999999994
100
AcDbArc
 50
90.90658756667201
 51
99.08858376660461
  0
ARC
  5
2A5
330
75
100
AcDbEntity
  8
Sichtbar (ISO)
100
AcDbCircle
 10
285.016107829292
 20
1282.02869950834
 30
0.0
 40
315.9999999999996
100
AcDbArc
 50
260.9114162333962
 51
269.0934124333287
  0
LINE
  5
2A6
330
75
100
AcDbEntity
  8
Sichtbar (ISO)
100
AcDbLine
 10
326.5136078274127
 20
932.0286995083407
 30
0.0
 11
307.5186078274127
 21
932.0286995083407
 31
0.0
  0
LINE
  5
2A7
330
75
100
AcDbEntity
  8
Sichtbar (ISO)
100
AcDbLine
 10
306.5186078274127
 20
933.0286995083406
 30
0.0
 11
327.5136078274127
 21
933.0286995083406
 31
0.0
  0
LINE
  5
2A8
330
75
100
AcDbEntity
  8
Sichtbar (ISO)
100
AcDbLine
 10
307.5186078274127
 20
932.0286995083407
 30
0.0
 11
306.5186078274127
 21
933.0286995083406
 31
0.0
  0
LINE
  5
2A9
330
75
100
AcDbEntity
  8
Sichtbar (ISO)
100
AcDbLine
 10
326.5136078274127
 20
932.0286995083407
 30
0.0
 11
327.5136078274127
 21
933.0286995083406
 31
0.0
  0
LINE
  5
2AA
330
75
100
AcDbEntity
  8
Sichtbar (ISO)
100
AcDbLine
 10
306.5186078274127
 20
933.0286995083406
 30
0.0
 11
306.5186078274127
 21
956.0286995083405
 31
0.0
  0
LINE
  5
2AB
330
75
100
AcDbEntity
  8
Sichtbar (ISO)
100
AcDbLine
 10
327.5136078274127
 20
933.0286995083406
 30
0.0
 11
327.5136078274127
 21
956.0286995083405
 31
0.0
  0
LINE
  5
2AC
330
75
100
AcDbEntity
  8
Sichtbar (ISO)
100
AcDbLine
 10
389.3347294773096
 20
1246.994780401536
 30
0.0
 11
387.5101801492389
 21
1264.354207673509
 31
0.0
  0
LINE
  5
2AD
330
75
100
AcDbEntity
  8
Sichtbar (ISO)
100
AcDbLine
 10
389.7450205384399
 20
1239.842670926207
 30
0.0
 11
384.941136742751
 21
1232.720620313448
 31
0.0
  0
LINE
  5
2AE
330
75
100
AcDbEntity
  8
Sichtbar (ISO)
100
AcDbLine
 10
382.8425177125076
 20
1233.185872951374
 30
0.0
 11
387.6798862491773
 21
1240.357566734152
 31
0.0
  0
LINE
  5
2AF
330
75
100
AcDbEntity
  8
Sichtbar (ISO)
100
AcDbLine
 10
384.7134128354386
 20
1212.786961557527
 30
0.0
 11
384.2186264233776
 21
1215.910920016118
 31
0.0
  0
LINE
  5
2B0
330
75
100
AcDbEntity
  8
Sichtbar (ISO)
100
AcDbLine
 10
386.6887895166289
 20
1213.099830487608
 30
0.0
 11
384.7134128354386
 21
1212.786961557527
 31
0.0
  0
LINE
  5
2B1
330
75
100
AcDbEntity
  8
Sichtbar (ISO)
100
AcDbLine
 10
384.1478829025505
 20
1229.142483470894
 30
0.0
 11
386.6887895166289
 21
1213.099830487608
 31
0.0
  0
LINE
  5
2B2
330
75
100
AcDbEntity
  8
Sichtbar (ISO)
100
AcDbLine
 10
389.4992239399755
 20
1264.563264600044
 30
0.0
 11
391.3998637665723
 21
1246.479884593592
 31
0.0
  0
LINE
  5
2B3
330
75
100
AcDbEntity
  8
Sichtbar (ISO)
100
AcDbLine
 10
387.3110273147839
 20
1266.249020322606
 30
0.0
 11
387.5101801492389
 21
1264.354207673509
 31
0.0
  0
LINE
  5
2B4
330
75
100
AcDbEntity
  8
Sichtbar (ISO)
100
AcDbLine
 10
389.4992239399755
 20
1264.563264600044
 30
0.0
 11
387.5101801492389
 21
1264.354207673509
 31
0.0
  0
LINE
  5
2B5
330
75
100
AcDbEntity
  8
Sichtbar (ISO)
100
AcDbLine
 10
389.4992239399755
 20
1264.563264600044
 30
0.0
 11
389.3000711055204
 21
1266.458077249141
 31
0.0
  0
LINE
  5
2B6
330
75
100
AcDbEntity
  8
Sichtbar (ISO)
100
AcDbLine
 10
389.3000711055204
 20
1266.458077249141
 30
0.0
 11
387.3110273147839
 21
1266.249020322606
 31
0.0
  0
ARC
  5
2B7
330
75
100
AcDbEntity
  8
Sichtbar (ISO)
100
AcDbCircle
 10
379.3895105236269
 20
1245.94949576886
 30
0.0
 40
10.00000000000002
100
AcDbArc
 50
325.9999999999995
 51
6.000000000000298
  0
ARC
  5
2B8
330
75
100
AcDbEntity
  8
Sichtbar (ISO)
100
AcDbCircle
 10
381.4546448128895
 20
1245.434599960915
 30
0.0
 40
10.00000000000002
100
AcDbArc
 50
326.0000000000007
 51
6.000000000000298
  0
ARC
  5
2B9
330
75
100
AcDbEntity
  8
Sichtbar (ISO)
100
AcDbCircle
 10
386.9877055752829
 20
1230.38990843402
 30
0.0
 40
5.000000000000081
100
AcDbArc
 50
146.0000000000008
 51
178.3253329268384
  0
ARC
  5
2BA
330
75
100
AcDbEntity
  8
Sichtbar (ISO)
100
AcDbCircle
 10
389.0863246055262
 20
1229.924655796095
 30
0.0
 40
4.999999999999979
100
AcDbArc
 50
146.0000000000005
 51
188.9999999999994
  0
LINE
  5
2BB
330
75
100
AcDbEntity
  8
Sichtbar (ISO)
100
AcDbLine
 10
303.5083998547037
 20
961.6329742204614
 30
0.0
 11
330.5238158001217
 21
961.6329742204614
 31
0.0
  0
LINE
  5
2BC
330
75
100
AcDbEntity
  8
Sichtbar (ISO)
100
AcDbLine
 10
304.9920603720054
 20
959.5473751619172
 30
0.0
 11
303.5083998547037
 21
961.6329742204614
 31
0.0
  0
LINE
  5
2BD
330
75
100
AcDbEntity
  8
Sichtbar (ISO)
100
AcDbLine
 10
329.04015528282
 20
959.5473751619172
 30
0.0
 11
330.5238158001217
 21
961.6329742204614
 31
0.0
  0
LINE
  5
2BE
330
75
100
AcDbEntity
  8
Sichtbar (ISO)
100
AcDbLine
 10
280.0162680597501
 20
1283.989142605699
 30
0.0
 11
280.0162680597497
 21
966.0682564109826
 31
0.0
  0
LINE
  5
2BF
330
75
100
AcDbEntity
  8
Sichtbar (ISO)
100
AcDbLine
 10
280.0162680597501
 20
1283.989142605699
 30
0.0
 11
282.0161078274131
 21
1286.014458681106
 31
0.0
  0
LINE
  5
2C0
330
75
100
AcDbEntity
  8
Sichtbar (ISO)
100
AcDbLine
 10
280.0162680597497
 20
966.0682564109826
 30
0.0
 11
282.0161078274127
 21
964.0429403355756
 31
0.0
  0
LINE
  5
2C1
330
75
100
AcDbEntity
  8
Sichtbar (ISO)
100
AcDbLine
 10
734.6545545357822
 20
959.2409470502463
 30
0.0
 11
759.8545545357823
 21
959.2409470502463
 31
0.0
  0
LINE
  5
2C2
330
75
100
AcDbEntity
  8
Sichtbar (ISO)
100
AcDbLine
 10
734.0662502818579
 20
961.6329742204614
 30
0.0
 11
727.892935696271
 21
965.1971390582424
 31
0.0
  0
LINE
  5
2C3
330
75
100
AcDbEntity
  8
Sichtbar (ISO)
100
AcDbLine
 10
760.4428587897066
 20
961.6329742204614
 30
0.0
 11
766.6161733752936
 21
965.1971390582424
 31
0.0
  0
ARC
  5
2C4
330
75
100
AcDbEntity
  8
Sichtbar (ISO)
100
AcDbCircle
 10
734.498525431035
 20
960.2286995083408
 30
0.0
 40
1.0
100
AcDbArc
 50
278.9764858216325
 51
317.0527809761254
  0
ARC
  5
2C5
330
75
100
AcDbEntity
  8
Sichtbar (ISO)
100
AcDbCircle
 10
760.0105836405295
 20
960.2286995083408
 30
0.0
 40
1.0
100
AcDbArc
 50
222.9472190238781
 51
261.0235141783675
  0
LINE
  5
2C6
330
75
100
AcDbEntity
  8
Sichtbar (ISO)
100
AcDbLine
 10
759.8545545357823
 20
959.2409470502463
 30
0.0
 11
759.8545545357823
 21
956.0286995083407
 31
0.0
  0
LINE
  5
2C7
330
75
100
AcDbEntity
  8
Sichtbar (ISO)
100
AcDbLine
 10
734.6545545357822
 20
959.2409470502463
 30
0.0
 11
734.6545545357822
 21
956.0286995083407
 31
0.0
  0
CIRCLE
  5
2C8
330
75
100
AcDbEntity
  8
Sichtbar (ISO)
100
AcDbCircle
 10
747.2545545357719
 20
1125.028699508341
 30
0.0
 40
161.0
  0
CIRCLE
  5
2C9
330
75
100
AcDbEntity
  8
Sichtbar (ISO)
100
AcDbCircle
 10
747.2545545357489
 20
1125.028699508341
 30
0.0
 40
12.2751846136683
  0
LINE
  5
2CA
330
75
100
AcDbEntity
  8
Sichtbar (ISO)
100
AcDbLine
 10
756.7520545357822
 20
932.0286995083407
 30
0.0
 11
737.7570545357822
 21
932.0286995083407
 31
0.0
  0
LINE
  5
2CB
330
75
100
AcDbEntity
  8
Sichtbar (ISO)
100
AcDbLine
 10
736.7570545357822
 20
933.0286995083406
 30
0.0
 11
757.7520545357822
 21
933.0286995083406
 31
0.0
  0
LINE
  5
2CC
330
75
100
AcDbEntity
  8
Sichtbar (ISO)
100
AcDbLine
 10
737.7570545357822
 20
932.0286995083407
 30
0.0
 11
736.7570545357822
 21
933.0286995083406
 31
0.0
  0
LINE
  5
2CD
330
75
100
AcDbEntity
  8
Sichtbar (ISO)
100
AcDbLine
 10
756.7520545357822
 20
932.0286995083407
 30
0.0
 11
757.7520545357822
 21
933.0286995083406
 31
0.0
  0
LINE
  5
2CE
330
75
100
AcDbEntity
  8
Sichtbar (ISO)
100
AcDbLine
 10
736.7570545357822
 20
933.0286995083406
 30
0.0
 11
736.7570545357822
 21
956.0286995083405
 31
0.0
  0
LINE
  5
2CF
330
75
100
AcDbEntity
  8
Sichtbar (ISO)
100
AcDbLine
 10
757.7520545357822
 20
933.0286995083406
 30
0.0
 11
757.7520545357822
 21
956.0286995083405
 31
0.0
  0
CIRCLE
  5
2D0
330
75
100
AcDbEntity
  8
Sichtbar (ISO)
100
AcDbCircle
 10
747.2545545357461
 20
1125.028699508341
 30
0.0
 40
5.400000000000003
  0
CIRCLE
  5
2D1
330
75
100
AcDbEntity
  8
Sichtbar (ISO)
100
AcDbCircle
 10
747.2545545357461
 20
1125.028699508341
 30
0.0
 40
5.500000000000004
  0
ARC
  5
2D2
330
75
100
AcDbEntity
  8
Sichtbar (ISO)
100
AcDbCircle
 10
747.2545545357486
 20
1125.028699508341
 30
0.0
 40
6.500000000000009
100
AcDbArc
 50
90.0
 51
149.9999999999995
  0
ARC
  5
2D3
330
75
100
AcDbEntity
  8
Sichtbar (ISO)
100
AcDbCircle
 10
747.2545545357486
 20
1125.028699508341
 30
0.0
 40
6.5
100
AcDbArc
 50
149.9999999999995
 51
210.0
  0
ARC
  5
2D4
330
75
100
AcDbEntity
  8
Sichtbar (ISO)
100
AcDbCircle
 10
747.2545545357486
 20
1125.028699508341
 30
0.0
 40
6.500000000000004
100
AcDbArc
 50
210.0000000000004
 51
270.0
  0
ARC
  5
2D5
330
75
100
AcDbEntity
  8
Sichtbar (ISO)
100
AcDbCircle
 10
747.2545545357486
 20
1125.028699508341
 30
0.0
 40
6.500000000000004
100
AcDbArc
 50
270.0
 51
329.9999999999995
  0
ARC
  5
2D6
330
75
100
AcDbEntity
  8
Sichtbar (ISO)
100
AcDbCircle
 10
747.2545545357486
 20
1125.028699508341
 30
0.0
 40
6.500000000000007
100
AcDbArc
 50
329.9999999999995
 51
30.00000000000046
  0
ARC
  5
2D7
330
75
100
AcDbEntity
  8
Sichtbar (ISO)
100
AcDbCircle
 10
747.2545545357486
 20
1125.028699508341
 30
0.0
 40
6.500000000000001
100
AcDbArc
 50
30.00000000000046
 51
90.00000000000076
  0
LINE
  5
2D8
330
75
100
AcDbEntity
  8
Sichtbar (ISO)
100
AcDbLine
 10
751.0073312181256
 20
1131.528699391677
 30
0.0
 11
752.8837195810981
 21
1128.278699609496
 31
0.0
  0
LINE
  5
2D9
330
75
100
AcDbEntity
  8
Sichtbar (ISO)
100
AcDbLine
 10
747.2545546629759
 20
1131.528699490287
 30
0.0
 11
751.0073312181256
 21
1131.528699391677
 31
0.0
  0
LINE
  5
2DA
330
75
100
AcDbEntity
  8
Sichtbar (ISO)
100
AcDbLine
 10
741.6253896176263
 20
1128.278699389132
 30
0.0
 11
743.5017779588148
 21
1131.5286993308
 31
0.0
  0
LINE
  5
2DB
330
75
100
AcDbEntity
  8
Sichtbar (ISO)
100
AcDbLine
 10
743.5017779588148
 20
1131.5286993308
 30
0.0
 11
747.2545546629759
 21
1131.528699490287
 31
0.0
  0
LINE
  5
2DC
330
75
100
AcDbEntity
  8
Sichtbar (ISO)
100
AcDbLine
 10
754.7601077950595
 20
1125.028699569218
 30
0.0
 11
752.8837194538708
 21
1121.77869962755
 31
0.0
  0
LINE
  5
2DD
330
75
100
AcDbEntity
  8
Sichtbar (ISO)
100
AcDbLine
 10
752.8837195810981
 20
1128.278699609496
 30
0.0
 11
754.7601077950595
 21
1125.028699569218
 31
0.0
  0
LINE
  5
2DE
330
75
100
AcDbEntity
  8
Sichtbar (ISO)
100
AcDbLine
 10
751.0073311126826
 20
1118.528699685882
 30
0.0
 11
747.2545544085212
 21
1118.528699526395
 31
0.0
  0
LINE
  5
2DF
330
75
100
AcDbEntity
  8
Sichtbar (ISO)
100
AcDbLine
 10
752.8837194538708
 20
1121.77869962755
 30
0.0
 11
751.0073311126826
 21
1118.528699685882
 31
0.0
  0
LINE
  5
2E0
330
75
100
AcDbEntity
  8
Sichtbar (ISO)
100
AcDbLine
 10
741.625389490399
 20
1121.778699407186
 30
0.0
 11
739.749001276438
 21
1125.028699447463
 31
0.0
  0
LINE
  5
2E1
330
75
100
AcDbEntity
  8
Sichtbar (ISO)
100
AcDbLine
 10
739.749001276438
 20
1125.028699447463
 30
0.0
 11
741.6253896176263
 21
1128.278699389132
 31
0.0
  0
LINE
  5
2E2
330
75
100
AcDbEntity
  8
Sichtbar (ISO)
100
AcDbLine
 10
747.2545544085212
 20
1118.528699526395
 30
0.0
 11
743.501777853372
 21
1118.528699625004
 31
0.0
  0
LINE
  5
2E3
330
75
100
AcDbEntity
  8
Sichtbar (ISO)
100
AcDbLine
 10
743.501777853372
 20
1118.528699625004
 30
0.0
 11
741.625389490399
 21
1121.778699407186
 31
0.0
  0
LINE
  5
2E4
330
75
100
AcDbEntity
  8
Sichtbar (ISO)
100
AcDbLine
 10
733.7468465630733
 20
961.6329742204614
 30
0.0
 11
760.7622625084912
 21
961.6329742204614
 31
0.0
  0
LINE
  5
2E5
330
75
100
AcDbEntity
  8
Sichtbar (ISO)
100
AcDbLine
 10
735.2305070803749
 20
959.5473751619172
 30
0.0
 11
733.7468465630733
 21
961.6329742204614
 31
0.0
  0
LINE
  5
2E6
330
75
100
AcDbEntity
  8
Sichtbar (ISO)
100
AcDbLine
 10
759.2786019911896
 20
959.5473751619172
 30
0.0
 11
760.7622625084912
 21
961.6329742204614
 31
0.0
  0
CIRCLE
  5
2E7
330
75
100
AcDbEntity
  8
Sichtbar (ISO)
100
AcDbCircle
 10
747.2545545357719
 20
1125.028699508341
 30
0.0
 40
160.9857591727651
  0
CIRCLE
  5
2E8
330
75
100
AcDbEntity
  8
Sichtbar (ISO)
100
AcDbCircle
 10
747.2545545357712
 20
1125.028699508341
 30
0.0
 40
158.9604430973581
  0
LINE
  5
2E9
330
75
100
AcDbEntity
  8
Sichtbar (ISO)
100
AcDbLine
 10
282.0161078272562
 20
445.6433941052714
 30
0.0
 11
282.0161078272562
 21
767.6433941052716
 31
0.0
  0
LINE
  5
2EA
330
75
100
AcDbEntity
  8
Sichtbar (ISO)
100
AcDbLine
 10
290.0161078272562
 20
445.6433941052715
 30
0.0
 11
290.0161078272562
 21
767.6433941052714
 31
0.0
  0
ARC
  5
2EB
330
75
100
AcDbEntity
  8
Sichtbar (ISO)
100
AcDbCircle
 10
329.8970085767618
 20
503.4752755331918
 30
0.0
 40
52.00000000000001
100
AcDbArc
 50
280.2502810492262
 51
346.9101954600416
  0
ARC
  5
2EC
330
75
100
AcDbEntity
  8
Sichtbar (ISO)
100
AcDbCircle
 10
329.8970085767618
 20
709.811512677351
 30
0.0
 40
52.00000000000001
100
AcDbArc
 50
13.08980453995852
 51
79.74971895077381
  0
ARC
  5
2ED
330
75
100
AcDbEntity
  8
Sichtbar (ISO)
100
AcDbCircle
 10
285.0161078272554
 20
451.6832055462759
 30
0.0
 40
314.0000000000001
100
AcDbArc
 50
80.07249632622919
 51
89.08760826259742
  0
ARC
  5
2EE
330
75
100
AcDbEntity
  8
Sichtbar (ISO)
100
AcDbCircle
 10
285.0161078272554
 20
761.603582664267
 30
0.0
 40
314.0
100
AcDbArc
 50
270.9123917374026
 51
279.9275036737709
  0
ARC
  5
2EF
330
75
100
AcDbEntity
  8
Sichtbar (ISO)
100
AcDbCircle
 10
-261.2420013423907
 20
606.6433941052714
 30
0.0
 40
652.0000000000012
100
AcDbArc
 50
349.8459154802532
 51
354.9295070209516
  0
ARC
  5
2F0
330
75
100
AcDbEntity
  8
Sichtbar (ISO)
100
AcDbCircle
 10
-261.2420013423907
 20
606.6433941052714
 30
0.0
 40
652.0000000000012
100
AcDbArc
 50
5.070492979048471
 51
10.15408451974685
  0
ARC
  5
2F1
330
75
100
AcDbEntity
  8
Sichtbar (ISO)
100
AcDbCircle
 10
360.316107827262
 20
551.4934446451522
 30
0.0
 40
27.99999999999391
100
AcDbArc
 50
354.9295070209518
 51
0.0
  0
ARC
  5
2F2
330
75
100
AcDbEntity
  8
Sichtbar (ISO)
100
AcDbCircle
 10
360.316107827262
 20
661.7933435653907
 30
0.0
 40
27.99999999999391
100
AcDbArc
 50
0.0
 51
5.070492979048039
  0
LINE
  5
2F3
330
75
100
AcDbEntity
  8
Sichtbar (ISO)
100
AcDbLine
 10
388.3161078272561
 20
621.6433941052871
 30
0.0
 11
388.316107827256
 21
661.7933435653907
 31
0.0
  0
LINE
  5
2F4
330
75
100
AcDbEntity
  8
Sichtbar (ISO)
100
AcDbLine
 10
388.316107827256
 20
551.4934446451522
 30
0.0
 11
388.3161078272561
 21
591.6433941052872
 31
0.0
  0
LINE
  5
2F5
330
75
100
AcDbEntity
  8
Sichtbar (ISO)
100
AcDbLine
 10
282.0161078272562
 20
767.6433941052716
 30
0.0
 11
290.0161078272562
 21
767.6433941052716
 31
0.0
  0
LINE
  5
2F6
330
75
100
AcDbEntity
  8
Sichtbar (ISO)
100
AcDbLine
 10
282.0161078272562
 20
445.6433941052714
 30
0.0
 11
290.0161078272562
 21
445.6433941052714
 31
0.0
  0
ARC
  5
2F7
330
75
100
AcDbEntity
  8
Sichtbar (ISO)
100
AcDbCircle
 10
212.7161078296065
 20
551.6433941052716
 30
0.0
 40
28.00000000000004
100
AcDbArc
 50
180.0
 51
185.0566706522039
  0
ARC
  5
2F8
330
75
100
AcDbEntity
  8
Sichtbar (ISO)
100
AcDbCircle
 10
212.7161078296067
 20
661.6433941052713
 30
0.0
 40
28.00000000000002
100
AcDbArc
 50
174.943329347796
 51
180.0
  0
LINE
  5
2F9
330
75
100
AcDbEntity
  8
Sichtbar (ISO)
100
AcDbLine
 10
184.7161078296067
 20
661.6433941052713
 30
0.0
 11
184.7161078296065
 21
551.6433941052717
 31
0.0
  0
ARC
  5
2FA
330
75
100
AcDbEntity
  8
Sichtbar (ISO)
100
AcDbCircle
 10
834.2875035678586
 20
606.6433941052711
 30
0.0
 40
651.9999999999992
100
AcDbArc
 50
185.0566706522041
 51
189.9511960325929
  0
ARC
  5
2FB
330
75
100
AcDbEntity
  8
Sichtbar (ISO)
100
AcDbCircle
 10
834.2875035678586
 20
606.6433941052711
 30
0.0
 40
651.9999999999989
100
AcDbArc
 50
170.0488039674071
 51
174.943329347796
  0
ARC
  5
2FC
330
75
100
AcDbEntity
  8
Sichtbar (ISO)
100
AcDbCircle
 10
243.314319067927
 20
502.9578348310465
 30
0.0
 40
51.99999999999992
100
AcDbArc
 50
189.9511960325928
 51
260.9114162333956
  0
ARC
  5
2FD
330
75
100
AcDbEntity
  8
Sichtbar (ISO)
100
AcDbCircle
 10
243.3143190679273
 20
710.3289533794963
 30
0.0
 40
51.99999999999992
100
AcDbArc
 50
99.08858376660413
 51
170.0488039674071
  0
ARC
  5
2FE
330
75
100
AcDbEntity
  8
Sichtbar (ISO)
100
AcDbCircle
 10
285.0161078291353
 20
449.6433941052718
 30
0.0
 40
315.9999999999997
100
AcDbArc
 50
90.90658756667151
 51
99.08858376660404
  0
ARC
  5
2FF
330
75
100
AcDbEntity
  8
Sichtbar (ISO)
100
AcDbCircle
 10
285.0161078291359
 20
763.6433941052711
 30
0.0
 40
315.9999999999996
100
AcDbArc
 50
260.9114162333956
 51
269.0934124333281
  0
ELLIPSE
  5
300
330
75
100
AcDbEntity
  8
Sichtbar (ISO)
100
AcDbEllipse
 10
390.7112053594768
 20
606.6433941053094
 30
0.0
 11
-0.000000000000003
 21
-3.500000000000012
 31
0.0
210
0.0
220
0.0
230
1.0
 40
0.1045284632676495
 41
3.141592653643742
 42
6.283185307233535
  0
LINE
  5
301
330
75
100
AcDbEntity
  8
Sichtbar (ISO)
100
AcDbLine
 10
391.3516097380966
 20
603.1433941053076
 30
0.0
 11
390.7112053594768
 21
603.1433941053094
 31
0.0
  0
ELLIPSE
  5
302
330
75
100
AcDbEntity
  8
Sichtbar (ISO)
100
AcDbEllipse
 10
388.6202202312825
 20
606.6433941053061
 30
0.0
 11
0.0000000000000047
 21
6.000000000000021
 31
0.0
210
0.0
220
0.0
230
1.0
 40
0.7299744923335979
 41
0.2966833769117194
 42
2.84490927667767
  0
ELLIPSE
  5
303
330
75
100
AcDbEntity
  8
Sichtbar (ISO)
100
AcDbEllipse
 10
391.861018455421
 20
606.6433941053068
 30
0.0
 11
-0.000000000000117
 21
6.000000000000962
 31
0.0
210
0.0
220
0.0
230
1.0
 40
0.1045284632676495
 41
2.193622912214127
 42
2.315492808033853
  0
POLYLINE
  5
304
330
75
100
AcDbEntity
  8
Sichtbar (ISO)
100
AcDb2dPolyline
 66
     1
 10
0.0
 20
0.0
 30
0.0
 70
   128
  0
VERTEX
  5
305
330
304
100
AcDbEntity
  8
Sichtbar (ISO)
100
AcDbVertex
100
AcDb2dVertex
 10
391.4545244540901
 20
601.6771911309876
 30
0.0
  0
VERTEX
  5
306
330
304
100
AcDbEntity
  8
Sichtbar (ISO)
100
AcDbVertex
100
AcDb2dVertex
 10
391.4543869849002
 20
601.7102335618654
 30
0.0
  0
VERTEX
  5
308
330
304
100
AcDbEntity
  8
Sichtbar (ISO)
100
AcDbVertex
100
AcDb2dVertex
 10
391.4540208367221
 20
601.743732564322
 30
0.0
  0
VERTEX
  5
309
330
304
100
AcDbEntity
  8
Sichtbar (ISO)
100
AcDbVertex
100
AcDb2dVertex
 10
391.4534316708024
 20
601.7776774095216
 30
0.0
  0
VERTEX
  5
30A
330
304
100
AcDbEntity
  8
Sichtbar (ISO)
100
AcDbVertex
100
AcDb2dVertex
 10
391.4526253906564
 20
601.8120597528139
 30
0.0
  0
VERTEX
  5
30B
330
304
100
AcDbEntity
  8
Sichtbar (ISO)
100
AcDbVertex
100
AcDb2dVertex
 10
391.4516079021148
 20
601.8468700574556
 30
0.0
  0
VERTEX
  5
30C
330
304
100
AcDbEntity
  8
Sichtbar (ISO)
100
AcDbVertex
100
AcDb2dVertex
 10
391.4503846125778
 20
601.8820975946108
 30
0.0
  0
VERTEX
  5
30D
330
304
100
AcDbEntity
  8
Sichtbar (ISO)
100
AcDbVertex
100
AcDb2dVertex
 10
391.4489616817226
 20
601.9177340196291
 30
0.0
  0
VERTEX
  5
30E
330
304
100
AcDbEntity
  8
Sichtbar (ISO)
100
AcDbVertex
100
AcDb2dVertex
 10
391.4473450130645
 20
601.9537697957674
 30
0.0
  0
VERTEX
  5
30F
330
304
100
AcDbEntity
  8
Sichtbar (ISO)
100
AcDbVertex
100
AcDb2dVertex
 10
391.4455400163192
 20
601.9901953862826
 30
0.0
  0
VERTEX
  5
310
330
304
100
AcDbEntity
  8
Sichtbar (ISO)
100
AcDbVertex
100
AcDb2dVertex
 10
391.4435530934325
 20
602.0270012544315
 30
0.0
  0
VERTEX
  5
311
330
304
100
AcDbEntity
  8
Sichtbar (ISO)
100
AcDbVertex
100
AcDb2dVertex
 10
391.4413896564356
 20
602.0641778634707
 30
0.0
  0
VERTEX
  5
312
330
304
100
AcDbEntity
  8
Sichtbar (ISO)
100
AcDbVertex
100
AcDb2dVertex
 10
391.4390556088439
 20
602.1017168687503
 30
0.0
  0
VERTEX
  5
313
330
304
100
AcDbEntity
  8
Sichtbar (ISO)
100
AcDbVertex
100
AcDb2dVertex
 10
391.4365568588036
 20
602.1396063493412
 30
0.0
  0
VERTEX
  5
314
330
304
100
AcDbEntity
  8
Sichtbar (ISO)
100
AcDbVertex
100
AcDb2dVertex
 10
391.4338993133034
 20
602.177837960593
 30
0.0
  0
VERTEX
  5
315
330
304
100
AcDbEntity
  8
Sichtbar (ISO)
100
AcDbVertex
100
AcDb2dVertex
 10
391.4310883791645
 20
602.2164033578556
 30
0.0
  0
VERTEX
  5
316
330
304
100
AcDbEntity
  8
Sichtbar (ISO)
100
AcDbVertex
100
AcDb2dVertex
 10
391.4281304618061
 20
602.2552918122928
 30
0.0
  0
VERTEX
  5
317
330
304
100
AcDbEntity
  8
Sichtbar (ISO)
100
AcDbVertex
100
AcDb2dVertex
 10
391.4250309694966
 20
602.2944937871616
 30
0.0
  0
VERTEX
  5
318
330
304
100
AcDbEntity
  8
Sichtbar (ISO)
100
AcDbVertex
100
AcDb2dVertex
 10
391.4217958083564
 20
602.3339997457187
 30
0.0
  0
VERTEX
  5
319
330
304
100
AcDbEntity
  8
Sichtbar (ISO)
100
AcDbVertex
100
AcDb2dVertex
 10
391.4184311347339
 20
602.3738013433139
 30
0.0
  0
VERTEX
  5
31A
330
304
100
AcDbEntity
  8
Sichtbar (ISO)
100
AcDbVertex
100
AcDb2dVertex
 10
391.4149421071036
 20
602.4138890432041
 30
0.0
  0
VERTEX
  5
31B
330
304
100
AcDbEntity
  8
Sichtbar (ISO)
100
AcDbVertex
100
AcDb2dVertex
 10
391.4113351304504
 20
602.4542521165531
 30
0.0
  0
VERTEX
  5
31C
330
304
100
AcDbEntity
  8
Sichtbar (ISO)
100
AcDbVertex
100
AcDb2dVertex
 10
391.4076158622942
 20
602.4948810266179
 30
0.0
  0
VERTEX
  5
31D
330
304
100
AcDbEntity
  8
Sichtbar (ISO)
100
AcDbVertex
100
AcDb2dVertex
 10
391.4037902090811
 20
602.535767428748
 30
0.0
  0
VERTEX
  5
31E
330
304
100
AcDbEntity
  8
Sichtbar (ISO)
100
AcDbVertex
100
AcDb2dVertex
 10
391.3998638281139
 20
602.5769017862003
 30
0.0
  0
SEQEND
  5
307
330
304
100
AcDbEntity
  8
Sichtbar (ISO)
  0
ELLIPSE
  5
31F
330
75
100
AcDbEntity
  8
Sichtbar (ISO)
100
AcDbEllipse
 10
391.2167324945111
 20
606.6433941053062
 30
0.0
 11
-0.0000000000000047
 21
-6.00000000000002
 31
0.0
210
0.0
220
0.0
230
1.0
 40
0.7299744923335976
 41
4.239505485672813
 42
5.18527247509747
  0
POLYLINE
  5
320
330
75
100
AcDbEntity
  8
Sichtbar (ISO)
100
AcDb2dPolyline
 66
     1
 10
0.0
 20
0.0
 30
0.0
 70
   128
  0
VERTEX
  5
321
330
320
100
AcDbEntity
  8
Sichtbar (ISO)
100
AcDbVertex
100
AcDb2dVertex
 10
391.3998638281139
 20
610.7098864244145
 30
0.0
  0
VERTEX
  5
322
330
320
100
AcDbEntity
  8
Sichtbar (ISO)
100
AcDbVertex
100
AcDb2dVertex
 10
391.4037902090811
 20
610.7510207818669
 30
0.0
  0
VERTEX
  5
324
330
320
100
AcDbEntity
  8
Sichtbar (ISO)
100
AcDbVertex
100
AcDb2dVertex
 10
391.4076158622942
 20
610.7919071839971
 30
0.0
  0
VERTEX
  5
325
330
320
100
AcDbEntity
  8
Sichtbar (ISO)
100
AcDbVertex
100
AcDb2dVertex
 10
391.4113351304504
 20
610.8325360940617
 30
0.0
  0
VERTEX
  5
326
330
320
100
AcDbEntity
  8
Sichtbar (ISO)
100
AcDbVertex
100
AcDb2dVertex
 10
391.4149421071036
 20
610.8728991674107
 30
0.0
  0
VERTEX
  5
327
330
320
100
AcDbEntity
  8
Sichtbar (ISO)
100
AcDbVertex
100
AcDb2dVertex
 10
391.4184311347339
 20
610.9129868673008
 30
0.0
  0
VERTEX
  5
328
330
320
100
AcDbEntity
  8
Sichtbar (ISO)
100
AcDbVertex
100
AcDb2dVertex
 10
391.4217958083564
 20
610.952788464896
 30
0.0
  0
VERTEX
  5
329
330
320
100
AcDbEntity
  8
Sichtbar (ISO)
100
AcDbVertex
100
AcDb2dVertex
 10
391.4250309694966
 20
610.9922944234531
 30
0.0
  0
VERTEX
  5
32A
330
320
100
AcDbEntity
  8
Sichtbar (ISO)
100
AcDbVertex
100
AcDb2dVertex
 10
391.4281304618061
 20
611.0314963983219
 30
0.0
  0
VERTEX
  5
32B
330
320
100
AcDbEntity
  8
Sichtbar (ISO)
100
AcDbVertex
100
AcDb2dVertex
 10
391.4310883791645
 20
611.0703848527592
 30
0.0
  0
VERTEX
  5
32C
330
320
100
AcDbEntity
  8
Sichtbar (ISO)
100
AcDbVertex
100
AcDb2dVertex
 10
391.4338993133034
 20
611.1089502500217
 30
0.0
  0
VERTEX
  5
32D
330
320
100
AcDbEntity
  8
Sichtbar (ISO)
100
AcDbVertex
100
AcDb2dVertex
 10
391.4365568588037
 20
611.1471818612735
 30
0.0
  0
VERTEX
  5
32E
330
320
100
AcDbEntity
  8
Sichtbar (ISO)
100
AcDbVertex
100
AcDb2dVertex
 10
391.4390556088439
 20
611.1850713418643
 30
0.0
  0
VERTEX
  5
32F
330
320
100
AcDbEntity
  8
Sichtbar (ISO)
100
AcDbVertex
100
AcDb2dVertex
 10
391.4413896564356
 20
611.2226103471439
 30
0.0
  0
VERTEX
  5
330
330
320
100
AcDbEntity
  8
Sichtbar (ISO)
100
AcDbVertex
100
AcDb2dVertex
 10
391.4435530934325
 20
611.2597869561831
 30
0.0
  0
VERTEX
  5
331
330
320
100
AcDbEntity
  8
Sichtbar (ISO)
100
AcDbVertex
100
AcDb2dVertex
 10
391.4455400163192
 20
611.2965928243319
 30
0.0
  0
VERTEX
  5
332
330
320
100
AcDbEntity
  8
Sichtbar (ISO)
100
AcDbVertex
100
AcDb2dVertex
 10
391.4473450130645
 20
611.3330184148471
 30
0.0
  0
VERTEX
  5
333
330
320
100
AcDbEntity
  8
Sichtbar (ISO)
100
AcDbVertex
100
AcDb2dVertex
 10
391.4489616817227
 20
611.3690541909853
 30
0.0
  0
VERTEX
  5
334
330
320
100
AcDbEntity
  8
Sichtbar (ISO)
100
AcDbVertex
100
AcDb2dVertex
 10
391.4503846125778
 20
611.4046906160036
 30
0.0
  0
VERTEX
  5
335
330
320
100
AcDbEntity
  8
Sichtbar (ISO)
100
AcDbVertex
100
AcDb2dVertex
 10
391.4516079021148
 20
611.4399181531588
 30
0.0
  0
VERTEX
  5
336
330
320
100
AcDbEntity
  8
Sichtbar (ISO)
100
AcDbVertex
100
AcDb2dVertex
 10
391.4526253906564
 20
611.4747284578005
 30
0.0
  0
VERTEX
  5
337
330
320
100
AcDbEntity
  8
Sichtbar (ISO)
100
AcDbVertex
100
AcDb2dVertex
 10
391.4534316708024
 20
611.5091108010927
 30
0.0
  0
VERTEX
  5
338
330
320
100
AcDbEntity
  8
Sichtbar (ISO)
100
AcDbVertex
100
AcDb2dVertex
 10
391.4540208367221
 20
611.5430556462923
 30
0.0
  0
VERTEX
  5
339
330
320
100
AcDbEntity
  8
Sichtbar (ISO)
100
AcDbVertex
100
AcDb2dVertex
 10
391.4543869849002
 20
611.5765546487489
 30
0.0
  0
VERTEX
  5
33A
330
320
100
AcDbEntity
  8
Sichtbar (ISO)
100
AcDbVertex
100
AcDb2dVertex
 10
391.4545244540901
 20
611.6095970796266
 30
0.0
  0
SEQEND
  5
323
330
320
100
AcDbEntity
  8
Sichtbar (ISO)
  0
ELLIPSE
  5
33B
330
75
100
AcDbEntity
  8
Sichtbar (ISO)
100
AcDbEllipse
 10
391.861018455421
 20
606.6433941053055
 30
0.0
 11
-0.000000000000182
 21
6.000000000000972
 31
0.0
210
0.0
220
0.0
230
1.0
 40
0.1045284632676495
 41
0.8260998455639825
 42
0.9479697413825514
  0
LINE
  5
33C
330
75
100
AcDbEntity
  8
Sichtbar (ISO)
100
AcDbLine
 10
390.7112053594768
 20
610.1433941053094
 30
0.0
 11
391.3516097380966
 21
610.1433941053076
 31
0.0
  0
ELLIPSE
  5
33D
330
75
100
AcDbEntity
  8
Sichtbar (ISO)
100
AcDbEllipse
 10
393.582735110686
 20
606.6433941052956
 30
0.0
 11
-0.0000000000018192
 21
60.0
 31
0.0
210
0.0
220
0.0
230
1.0
 40
0.1045284632676496
 41
1.318116071652521
 42
1.823476581936676
  0
LINE
  5
33E
330
75
100
AcDbEntity
  8
Sichtbar (ISO)
100
AcDbLine
 10
389.4992239398186
 20
591.6433941053128
 30
0.0
 11
387.510180149082
 21
591.6433941053127
 31
0.0
  0
ELLIPSE
  5
33F
330
75
100
AcDbEntity
  8
Sichtbar (ISO)
100
AcDbEllipse
 10
395.5717789014225
 20
606.6433941052958
 30
0.0
 11
0.0000000000018166
 21
-60.00000000000021
 31
0.0
210
0.0
220
0.0
230
1.0
 40
0.1045284632676495
 41
4.459708725242313
 42
4.96506923552647
  0
LINE
  5
340
330
75
100
AcDbEntity
  8
Sichtbar (ISO)
100
AcDbLine
 10
387.5101801490821
 20
621.6433941053128
 30
0.0
 11
389.4992239398186
 21
621.6433941053129
 31
0.0
  0
LINE
  5
341
330
75
100
AcDbEntity
  8
Sichtbar (ISO)
100
AcDbLine
 10
391.4546448127326
 20
591.6433941053071
 30
0.0
 11
391.3998637664154
 21
591.6433941053074
 31
0.0
  0
LINE
  5
342
330
75
100
AcDbEntity
  8
Sichtbar (ISO)
100
AcDbLine
 10
391.3998637664154
 20
621.6433941053074
 30
0.0
 11
391.4546448127327
 21
621.6433941053073
 31
0.0
  0
LINE
  5
343
330
75
100
AcDbEntity
  8
Sichtbar (ISO)
100
AcDbLine
 10
391.4546448127326
 20
591.6433941053071
 30
0.0
 11
391.4546448127326
 21
601.6768227544879
 31
0.0
  0
LINE
  5
344
330
75
100
AcDbEntity
  8
Sichtbar (ISO)
100
AcDbLine
 10
391.4546448127326
 20
611.6099654561264
 30
0.0
 11
391.4546448127327
 21
621.6433941053073
 31
0.0
  0
LINE
  5
345
330
75
100
AcDbEntity
  8
Sichtbar (ISO)
100
AcDbLine
 10
381.9898411794339
 20
621.6433941053028
 30
0.0
 11
382.8425177123508
 21
621.6433941053036
 31
0.0
  0
LINE
  5
346
330
75
100
AcDbEntity
  8
Sichtbar (ISO)
100
AcDbLine
 10
382.8425177123508
 20
591.6433941053035
 30
0.0
 11
381.9898411794339
 21
591.6433941053027
 31
0.0
  0
LINE
  5
347
330
75
100
AcDbEntity
  8
Sichtbar (ISO)
100
AcDbLine
 10
387.5101801490821
 20
621.6433941053057
 30
0.0
 11
382.8425177123508
 21
621.6433941053036
 31
0.0
  0
LINE
  5
348
330
75
100
AcDbEntity
  8
Sichtbar (ISO)
100
AcDbLine
 10
382.8425177123508
 20
591.6433941053035
 30
0.0
 11
387.510180149082
 21
591.6433941053055
 31
0.0
  0
LINE
  5
349
330
75
100
AcDbEntity
  8
Sichtbar (ISO)
100
AcDbLine
 10
389.4992239398186
 20
591.6433941053128
 30
0.0
 11
391.3998637664154
 21
591.6433941053074
 31
0.0
  0
LINE
  5
34A
330
75
100
AcDbEntity
  8
Sichtbar (ISO)
100
AcDbLine
 10
391.3998637664154
 20
621.6433941053075
 30
0.0
 11
389.4992239398186
 21
621.6433941053129
 31
0.0
  0
LINE
  5
34B
330
75
100
AcDbEntity
  8
Sichtbar (ISO)
100
AcDbLine
 10
280.0162680595931
 20
765.6038372026296
 30
0.0
 11
280.016268059593
 21
447.6829510079133
 31
0.0
  0
LINE
  5
34C
330
75
100
AcDbEntity
  8
Sichtbar (ISO)
100
AcDbLine
 10
280.0162680595931
 20
765.6038372026296
 30
0.0
 11
282.0161078272561
 21
767.6291532780366
 31
0.0
  0
LINE
  5
34D
330
75
100
AcDbEntity
  8
Sichtbar (ISO)
100
AcDbLine
 10
280.016268059593
 20
447.6829510079133
 30
0.0
 11
282.016107827256
 21
445.6576349325063
 31
0.0
  0
INSERT
  5
34E
330
75
100
AcDbEntity
  8
0
100
AcDbBlockReference
  2
P gross
 10
252.6987873250978
 20
608.4423699616618
 30
0.0
 41
1.5
 42
1.5
 43
1.5
  0
INSERT
  5
34F
330
75
100
AcDbEntity
  8
0
100
AcDbBlockReference
  2
P gross
 10
255.1832601078043
 20
1124.871732331694
 30
0.0
 41
1.5
 42
1.5
 43
1.5
  0
INSERT
  5
350
330
75
100
AcDbEntity
  8
0
100
AcDbBlockReference
  2
P gross
 10
747.1728345943185
 20
998.4979360180757
 30
0.0
 41
1.5
 42
1.5
 43
1.5
  0
ENDSEC
  0
SECTION
  2
OBJECTS
  0
DICTIONARY
  5
C
330
0
100
AcDbDictionary
281
     1
  3
ACAD_COLOR
350
6B
  3
ACAD_GROUP
350
D
  3
ACAD_LAYOUT
350
6A
  3
ACAD_MATERIAL
350
10
  3
ACAD_MLEADERSTYLE
350
6E
  3
ACAD_MLINESTYLE
350
67
  3
ACAD_PLOTSETTINGS
350
69
  3
ACAD_PLOTSTYLENAME
350
E
  3
ACAD_SCALELIST
350
3A
  3
ACAD_TABLESTYLE
350
6C
  3
ACAD_VISUALSTYLE
350
29
  3
ACDB_RECOMPOSE_DATA
350
35C
  3
AcDbVariableDictionary
350
351
  0
DICTIONARY
  5
358
330
1A6
100
AcDbDictionary
280
     1
281
     1
  3
ACAD_MLATT
360
359
  0
DICTIONARY
  5
35A
330
1A8
100
AcDbDictionary
280
     1
281
     1
  3
ACAD_MLATT
360
35B
  0
DICTIONARY
  5
6B
102
{ACAD_REACTORS
330
C
102
}
330
C
100
AcDbDictionary
281
     1
  0
DICTIONARY
  5
D
102
{ACAD_REACTORS
330
C
102
}
330
C
100
AcDbDictionary
281
     1
  0
DICTIONARY
  5
6A
102
{ACAD_REACTORS
330
C
102
}
330
C
100
AcDbDictionary
281
     1
  3
Layout1
350
74
  3
Layout2
350
7C
  3
Model
350
78
  0
DICTIONARY
  5
10
102
{ACAD_REACTORS
330
C
102
}
330
C
100
AcDbDictionary
281
     1
  3
ByBlock
350
19
  3
ByLayer
350
11
  3
Global
350
21
  0
DICTIONARY
  5
6E
102
{ACAD_REACTORS
330
C
102
}
330
C
100
AcDbDictionary
281
     1
  3
Standard
350
6F
  0
DICTIONARY
  5
67
102
{ACAD_REACTORS
330
C
102
}
330
C
100
AcDbDictionary
281
     1
  3
Standard
350
68
  0
DICTIONARY
  5
69
102
{ACAD_REACTORS
330
C
102
}
330
C
100
AcDbDictionary
281
     1
  0
ACDBDICTIONARYWDFLT
  5
E
102
{ACAD_REACTORS
330
C
102
}
330
C
100
AcDbDictionary
281
     1
  3
Normal
350
F
100
AcDbDictionaryWithDefault
340
F
  0
DICTIONARY
  5
3A
102
{ACAD_REACTORS
330
C
102
}
330
C
100
AcDbDictionary
281
     1
  3
A0
350
3B
  3
A1
350
3C
  3
A2
350
3D
  3
A3
350
3E
  3
A4
350
3F
  3
A5
350
40
  3
A6
350
41
  3
A7
350
42
  3
A8
350
43
  3
A9
350
44
  3
B0
350
45
  3
B1
350
46
  3
B2
350
47
  3
B3
350
48
  3
B4
350
49
  3
B5
350
4A
  3
B6
350
4B
  3
B7
350
4C
  3
B8
350
4D
  3
B9
350
4E
  3
C0
350
4F
  3
C1
350
50
  3
C2
350
51
  3
C3
350
52
  3
C4
350
53
  3
C5
350
54
  3
C6
350
55
  3
C7
350
56
  3
C8
350
57
  3
C9
350
58
  3
D0
350
59
  3
D1
350
5A
  3
D2
350
5B
  0
DICTIONARY
  5
6C
102
{ACAD_REACTORS
330
C
102
}
330
C
100
AcDbDictionary
281
     1
  3
Standard
350
6D
  0
DICTIONARY
  5
29
102
{ACAD_REACTORS
330
C
102
}
330
C
100
AcDbDictionary
281
     1
  3
2dWireframe
350
2F
  3
3D Hidden
350
31
  3
3dWireframe
350
30
  3
Basic
350
2E
  3
Brighten
350
35
  3
ColorChange
350
39
  3
Conceptual
350
32
  3
Dim
350
34
  3
Facepattern
350
38
  3
Flat
350
2A
  3
FlatWithEdges
350
2B
  3
Gouraud
350
2C
  3
GouraudWithEdges
350
2D
  3
Linepattern
350
37
  3
Realistic
350
33
  3
Thicken
350
36
  0
XRECORD
  5
35C
102
{ACAD_REACTORS
330
C
102
}
330
C
100
AcDbXrecord
280
     1
 90
        1
330
6D
330
1A6
330
1A8
  0
DICTIONARY
  5
351
102
{ACAD_REACTORS
330
C
102
}
330
C
100
AcDbDictionary
281
     1
  3
CANNOSCALE
350
354
  3
CMLEADERSTYLE
350
353
  3
CTABLESTYLE
350
352
  0
XRECORD
  5
359
102
{ACAD_REACTORS
330
358
102
}
330
358
100
AcDbXrecord
280
     1
 70
     4
 70
     0
 70
     0
 40
1.0
  2
TolWinkel_Fein
  1
Embedded Object
 10
-98.35000000000002
 20
4.499999999999992
 30
0.0
 40
2.000000029802322
 41
0.0
 46
0.0
 71
     4
 72
     5
  1
\W0.9000;
  7
TolListe_12-Arial
 73
     1
 44
1.0
  0
XRECORD
  5
35B
102
{ACAD_REACTORS
330
35A
102
}
330
35A
100
AcDbXrecord
280
     1
 70
     4
 70
     0
 70
     0
 40
1.0
  2
TolWinkel_Grob
  1
Embedded Object
 10
-98.35000000000002
 20
1.500000000000003
 30
0.0
 40
2.000000029802322
 41
0.0
 46
0.0
 71
     4
 72
     5
  1
\W1.1000;X
  7
TolListe_12-Arial
 73
     1
 44
1.0
  0
LAYOUT
  5
74
102
{ACAD_REACTORS
330
6A
102
}
330
6A
100
AcDbPlotSettings
  1

  2

  4

  6

 40
0.0
 41
0.0
 42
0.0
 43
0.0
 44
0.0
 45
0.0
 46
0.0
 47
0.0
 48
0.0
 49
0.0
140
0.0
141
0.0
142
1.0
143
1.0
 70
   688
 72
     0
 73
     0
 74
     5
  7

 75
    16
147
1.0
 76
     0
 77
     2
 78
   300
148
0.0
149
0.0
100
AcDbLayout
  1
Layout1
 70
     1
 71
     1
 10
0.0
 20
0.0
 11
12.0
 21
9.0
 12
0.0
 22
0.0
 32
0.0
 14
0.0
 24
0.0
 34
0.0
 15
0.0
 25
0.0
 35
0.0
146
0.0
 13
0.0
 23
0.0
 33
0.0
 16
1.0
 26
0.0
 36
0.0
 17
0.0
 27
1.0
 37
0.0
 76
     0
330
71
  0
LAYOUT
  5
7C
102
{ACAD_REACTORS
330
6A
102
}
330
6A
100
AcDbPlotSettings
  1

  2

  4

  6

 40
0.0
 41
0.0
 42
0.0
 43
0.0
 44
0.0
 45
0.0
 46
0.0
 47
0.0
 48
0.0
 49
0.0
140
0.0
141
0.0
142
1.0
143
1.0
 70
   688
 72
     0
 73
     0
 74
     5
  7

 75
    16
147
1.0
 76
     0
 77
     2
 78
   300
148
0.0
149
0.0
100
AcDbLayout
  1
Layout2
 70
     1
 71
     2
 10
0.0
 20
0.0
 11
12.0
 21
9.0
 12
0.0
 22
0.0
 32
0.0
 14
0.0
 24
0.0
 34
0.0
 15
0.0
 25
0.0
 35
0.0
146
0.0
 13
0.0
 23
0.0
 33
0.0
 16
1.0
 26
0.0
 36
0.0
 17
0.0
 27
1.0
 37
0.0
 76
     0
330
79
  0
LAYOUT
  5
78
102
{ACAD_REACTORS
330
6A
102
}
330
6A
100
AcDbPlotSettings
  1

  2

  4

  6

 40
0.0
 41
0.0
 42
0.0
 43
0.0
 44
0.0
 45
0.0
 46
0.0
 47
0.0
 48
0.0
 49
0.0
140
0.0
141
0.0
142
1.0
143
1.0
 70
  1712
 72
     0
 73
     0
 74
     0
  7

 75
     0
147
1.0
 76
     0
 77
     2
 78
   300
148
0.0
149
0.0
100
AcDbLayout
  1
Model
 70
     1
 71
     0
 10
0.0
 20
0.0
 11
12.0
 21
9.0
 12
0.0
 22
0.0
 32
0.0
 14
0.0
 24
0.0
 34
0.0
 15
0.0
 25
0.0
 35
0.0
146
0.0
 13
0.0
 23
0.0
 33
0.0
 16
1.0
 26
0.0
 36
0.0
 17
0.0
 27
1.0
 37
0.0
 76
     0
330
75
  0
MATERIAL
  5
19
102
{ACAD_XDICTIONARY
360
1A
102
}
102
{ACAD_REACTORS
330
10
102
}
330
10
100
AcDbMaterial
  1
ByBlock
 72
     0
 43
0.0208333333333333
 43
0.0
 43
0.0
 43
0.0
 43
0.0
 43
0.0208333333333333
 43
0.0
 43
0.0
 43
0.0
 43
0.0
 43
1.0
 43
0.0
 43
0.0
 43
0.0
 43
0.0
 43
1.0
 77
     0
 47
0.0208333333333333
 47
0.0
 47
0.0
 47
0.0
 47
0.0
 47
0.0208333333333333
 47
0.0
 47
0.0
 47
0.0
 47
0.0
 47
1.0
 47
0.0
 47
0.0
 47
0.0
 47
0.0
 47
1.0
171
     0
 49
0.0208333333333333
 49
0.0
 49
0.0
 49
0.0
 49
0.0
 49
0.0208333333333333
 49
0.0
 49
0.0
 49
0.0
 49
0.0
 49
1.0
 49
0.0
 49
0.0
 49
0.0
 49
0.0
 49
1.0
175
     0
142
0.0208333333333333
142
0.0
142
0.0
142
0.0
142
0.0
142
0.0208333333333333
142
0.0
142
0.0
142
0.0
142
0.0
142
1.0
142
0.0
142
0.0
142
0.0
142
0.0
142
1.0
179
     0
144
0.0208333333333333
144
0.0
144
0.0
144
0.0
144
0.0
144
0.0208333333333333
144
0.0
144
0.0
144
0.0
144
0.0
144
1.0
144
0.0
144
0.0
144
0.0
144
0.0
144
1.0
147
0.0208333333333333
147
0.0
147
0.0
147
0.0
147
0.0
147
0.0208333333333333
147
0.0
147
0.0
147
0.0
147
0.0
147
1.0
147
0.0
147
0.0
147
0.0
147
0.0
147
1.0
  0
MATERIAL
  5
11
102
{ACAD_XDICTIONARY
360
12
102
}
102
{ACAD_REACTORS
330
10
102
}
330
10
100
AcDbMaterial
  1
ByLayer
 72
     0
 43
0.0208333333333333
 43
0.0
 43
0.0
 43
0.0
 43
0.0
 43
0.0208333333333333
 43
0.0
 43
0.0
 43
0.0
 43
0.0
 43
1.0
 43
0.0
 43
0.0
 43
0.0
 43
0.0
 43
1.0
 77
     0
 47
0.0208333333333333
 47
0.0
 47
0.0
 47
0.0
 47
0.0
 47
0.0208333333333333
 47
0.0
 47
0.0
 47
0.0
 47
0.0
 47
1.0
 47
0.0
 47
0.0
 47
0.0
 47
0.0
 47
1.0
171
     0
 49
0.0208333333333333
 49
0.0
 49
0.0
 49
0.0
 49
0.0
 49
0.0208333333333333
 49
0.0
 49
0.0
 49
0.0
 49
0.0
 49
1.0
 49
0.0
 49
0.0
 49
0.0
 49
0.0
 49
1.0
175
     0
142
0.0208333333333333
142
0.0
142
0.0
142
0.0
142
0.0
142
0.0208333333333333
142
0.0
142
0.0
142
0.0
142
0.0
142
1.0
142
0.0
142
0.0
142
0.0
142
0.0
142
1.0
179
     0
144
0.0208333333333333
144
0.0
144
0.0
144
0.0
144
0.0
144
0.0208333333333333
144
0.0
144
0.0
144
0.0
144
0.0
144
1.0
144
0.0
144
0.0
144
0.0
144
0.0
144
1.0
147
0.0208333333333333
147
0.0
147
0.0
147
0.0
147
0.0
147
0.0208333333333333
147
0.0
147
0.0
147
0.0
147
0.0
147
1.0
147
0.0
147
0.0
147
0.0
147
0.0
147
1.0
  0
MATERIAL
  5
21
102
{ACAD_XDICTIONARY
360
22
102
}
102
{ACAD_REACTORS
330
10
102
}
330
10
100
AcDbMaterial
  1
Global
 72
     0
 43
0.0208333333333333
 43
0.0
 43
0.0
 43
0.0
 43
0.0
 43
0.0208333333333333
 43
0.0
 43
0.0
 43
0.0
 43
0.0
 43
1.0
 43
0.0
 43
0.0
 43
0.0
 43
0.0
 43
1.0
 77
     0
 47
0.0208333333333333
 47
0.0
 47
0.0
 47
0.0
 47
0.0
 47
0.0208333333333333
 47
0.0
 47
0.0
 47
0.0
 47
0.0
 47
1.0
 47
0.0
 47
0.0
 47
0.0
 47
0.0
 47
1.0
171
     0
 49
0.0208333333333333
 49
0.0
 49
0.0
 49
0.0
 49
0.0
 49
0.0208333333333333
 49
0.0
 49
0.0
 49
0.0
 49
0.0
 49
1.0
 49
0.0
 49
0.0
 49
0.0
 49
0.0
 49
1.0
175
     0
142
0.0208333333333333
142
0.0
142
0.0
142
0.0
142
0.0
142
0.0208333333333333
142
0.0
142
0.0
142
0.0
142
0.0
142
1.0
142
0.0
142
0.0
142
0.0
142
0.0
142
1.0
179
     0
144
0.0208333333333333
144
0.0
144
0.0
144
0.0
144
0.0
144
0.0208333333333333
144
0.0
144
0.0
144
0.0
144
0.0
144
1.0
144
0.0
144
0.0
144
0.0
144
0.0
144
1.0
147
0.0208333333333333
147
0.0
147
0.0
147
0.0
147
0.0
147
0.0208333333333333
147
0.0
147
0.0
147
0.0
147
0.0
147
1.0
147
0.0
147
0.0
147
0.0
147
0.0
147
1.0
  0
MLEADERSTYLE
  5
6F
102
{ACAD_REACTORS
330
6E
102
}
330
6E
100
AcDbMLeaderStyle
170
     2
171
     1
172
     0
 90
        2
 40
0.0
 41
0.0
173
     1
 91
-1056964608
340
63
 92
       -2
290
     1
 42
0.09
291
     1
 43
0.36
  3
Standard
 44
0.18
300

342
5D
174
     1
178
     6
175
     1
176
     0
 93
-1056964608
 45
0.18
292
     0
297
     0
 46
0.18
 94
-1056964608
 47
1.0
 49
1.0
140
1.0
293
     1
141
0.0
294
     1
177
     0
142
1.0
295
     1
296
     0
143
0.125
1001
ACAD_MLEADERVER
1070
     2
  0
MLINESTYLE
  5
68
102
{ACAD_REACTORS
330
67
102
}
330
67
100
AcDbMlineStyle
  2
STANDARD
 70
     0
  3

 62
   256
 51
90.0
 52
90.0
 71
     2
 49
0.5
 62
   256
  6
BYLAYER
 49
-0.5
 62
   256
  6
BYLAYER
  0
ACDBPLACEHOLDER
  5
F
102
{ACAD_REACTORS
330
E
102
}
330
E
  0
SCALE
  5
3B
102
{ACAD_REACTORS
330
3A
102
}
330
3A
100
AcDbScale
 70
     0
300
1:1
140
1.0
141
1.0
290
     1
  0
SCALE
  5
3C
102
{ACAD_REACTORS
330
3A
102
}
330
3A
100
AcDbScale
 70
     0
300
1:2
140
1.0
141
2.0
290
     0
  0
SCALE
  5
3D
102
{ACAD_REACTORS
330
3A
102
}
330
3A
100
AcDbScale
 70
     0
300
1:4
140
1.0
141
4.0
290
     0
  0
SCALE
  5
3E
102
{ACAD_REACTORS
330
3A
102
}
330
3A
100
AcDbScale
 70
     0
300
1:5
140
1.0
141
5.0
290
     0
  0
SCALE
  5
3F
102
{ACAD_REACTORS
330
3A
102
}
330
3A
100
AcDbScale
 70
     0
300
1:8
140
1.0
141
8.0
290
     0
  0
SCALE
  5
40
102
{ACAD_REACTORS
330
3A
102
}
330
3A
100
AcDbScale
 70
     0
300
1:10
140
1.0
141
10.0
290
     0
  0
SCALE
  5
41
102
{ACAD_REACTORS
330
3A
102
}
330
3A
100
AcDbScale
 70
     0
300
1:16
140
1.0
141
16.0
290
     0
  0
SCALE
  5
42
102
{ACAD_REACTORS
330
3A
102
}
330
3A
100
AcDbScale
 70
     0
300
1:20
140
1.0
141
20.0
290
     0
  0
SCALE
  5
43
102
{ACAD_REACTORS
330
3A
102
}
330
3A
100
AcDbScale
 70
     0
300
1:30
140
1.0
141
30.0
290
     0
  0
SCALE
  5
44
102
{ACAD_REACTORS
330
3A
102
}
330
3A
100
AcDbScale
 70
     0
300
1:40
140
1.0
141
40.0
290
     0
  0
SCALE
  5
45
102
{ACAD_REACTORS
330
3A
102
}
330
3A
100
AcDbScale
 70
     0
300
1:50
140
1.0
141
50.0
290
     0
  0
SCALE
  5
46
102
{ACAD_REACTORS
330
3A
102
}
330
3A
100
AcDbScale
 70
     0
300
1:100
140
1.0
141
100.0
290
     0
  0
SCALE
  5
47
102
{ACAD_REACTORS
330
3A
102
}
330
3A
100
AcDbScale
 70
     0
300
2:1
140
2.0
141
1.0
290
     0
  0
SCALE
  5
48
102
{ACAD_REACTORS
330
3A
102
}
330
3A
100
AcDbScale
 70
     0
300
4:1
140
4.0
141
1.0
290
     0
  0
SCALE
  5
49
102
{ACAD_REACTORS
330
3A
102
}
330
3A
100
AcDbScale
 70
     0
300
8:1
140
8.0
141
1.0
290
     0
  0
SCALE
  5
4A
102
{ACAD_REACTORS
330
3A
102
}
330
3A
100
AcDbScale
 70
     0
300
10:1
140
10.0
141
1.0
290
     0
  0
SCALE
  5
4B
102
{ACAD_REACTORS
330
3A
102
}
330
3A
100
AcDbScale
 70
     0
300
100:1
140
100.0
141
1.0
290
     0
  0
SCALE
  5
4C
102
{ACAD_REACTORS
330
3A
102
}
330
3A
100
AcDbScale
 70
     0
300
1/128" = 1'-0"
140
0.0078125
141
12.0
290
     0
  0
SCALE
  5
4D
102
{ACAD_REACTORS
330
3A
102
}
330
3A
100
AcDbScale
 70
     0
300
1/64" = 1'-0"
140
0.015625
141
12.0
290
     0
  0
SCALE
  5
4E
102
{ACAD_REACTORS
330
3A
102
}
330
3A
100
AcDbScale
 70
     0
300
1/32" = 1'-0"
140
0.03125
141
12.0
290
     0
  0
SCALE
  5
4F
102
{ACAD_REACTORS
330
3A
102
}
330
3A
100
AcDbScale
 70
     0
300
1/16" = 1'-0"
140
0.0625
141
12.0
290
     0
  0
SCALE
  5
50
102
{ACAD_REACTORS
330
3A
102
}
330
3A
100
AcDbScale
 70
     0
300
3/32" = 1'-0"
140
0.09375
141
12.0
290
     0
  0
SCALE
  5
51
102
{ACAD_REACTORS
330
3A
102
}
330
3A
100
AcDbScale
 70
     0
300
1/8" = 1'-0"
140
0.125
141
12.0
290
     0
  0
SCALE
  5
52
102
{ACAD_REACTORS
330
3A
102
}
330
3A
100
AcDbScale
 70
     0
300
3/16" = 1'-0"
140
0.1875
141
12.0
290
     0
  0
SCALE
  5
53
102
{ACAD_REACTORS
330
3A
102
}
330
3A
100
AcDbScale
 70
     0
300
1/4" = 1'-0"
140
0.25
141
12.0
290
     0
  0
SCALE
  5
54
102
{ACAD_REACTORS
330
3A
102
}
330
3A
100
AcDbScale
 70
     0
300
3/8" = 1'-0"
140
0.375
141
12.0
290
     0
  0
SCALE
  5
55
102
{ACAD_REACTORS
330
3A
102
}
330
3A
100
AcDbScale
 70
     0
300
1/2" = 1'-0"
140
0.5
141
12.0
290
     0
  0
SCALE
  5
56
102
{ACAD_REACTORS
330
3A
102
}
330
3A
100
AcDbScale
 70
     0
300
3/4" = 1'-0"
140
0.75
141
12.0
290
     0
  0
SCALE
  5
57
102
{ACAD_REACTORS
330
3A
102
}
330
3A
100
AcDbScale
 70
     0
300
1" = 1'-0"
140
1.0
141
12.0
290
     0
  0
SCALE
  5
58
102
{ACAD_REACTORS
330
3A
102
}
330
3A
100
AcDbScale
 70
     0
300
1-1/2" = 1'-0"
140
1.5
141
12.0
290
     0
  0
SCALE
  5
59
102
{ACAD_REACTORS
330
3A
102
}
330
3A
100
AcDbScale
 70
     0
300
3" = 1'-0"
140
3.0
141
12.0
290
     0
  0
SCALE
  5
5A
102
{ACAD_REACTORS
330
3A
102
}
330
3A
100
AcDbScale
 70
     0
300
6" = 1'-0"
140
6.0
141
12.0
290
     0
  0
SCALE
  5
5B
102
{ACAD_REACTORS
330
3A
102
}
330
3A
100
AcDbScale
 70
     0
300
1'-0" = 1'-0"
140
12.0
141
12.0
290
     0
  0
TABLESTYLE
  5
6D
102
{ACAD_XDICTIONARY
360
355
102
}
102
{ACAD_REACTORS
330
6C
102
}
330
6C
100
AcDbTableStyle
  3
Standard
 70
     0
 71
     0
 40
0.06
 41
0.06
280
     0
281
     0
  7
Standard
140
0.18
170
     2
 62
     0
 63
     7
283
     0
 90
      512
 91
        0
  1

274
    -2
284
     1
 64
     0
275
    -2
285
     1
 65
     0
276
    -2
286
     1
 66
     0
277
    -2
287
     1
 67
     0
278
    -2
288
     1
 68
     0
279
    -2
289
     1
 69
     0
  7
Standard
140
0.25
170
     5
 62
     0
 63
     7
283
     0
 90
      512
 91
        0
  1

274
    -2
284
     1
 64
     0
275
    -2
285
     1
 65
     0
276
    -2
286
     1
 66
     0
277
    -2
287
     1
 67
     0
278
    -2
288
     1
 68
     0
279
    -2
289
     1
 69
     0
  7
Standard
140
0.18
170
     5
 62
     0
 63
     7
283
     0
 90
      512
 91
        0
  1

274
    -2
284
     1
 64
     0
275
    -2
285
     1
 65
     0
276
    -2
286
     1
 66
     0
277
    -2
287
     1
 67
     0
278
    -2
288
     1
 68
     0
279
    -2
289
     1
 69
     0
  0
VISUALSTYLE
  5
2F
102
{ACAD_REACTORS
330
29
102
}
330
29
100
AcDbVisualStyle
  2
2dWireframe
 70
     4
 71
     0
 72
     2
 73
     0
 90
        0
 40
-0.6
 41
-30.0
 62
     5
 63
     7
421
 16777215
 74
     1
 91
        4
 64
     7
 65
   257
 75
     1
175
     1
 42
1.0
 92
        0
 66
   257
 43
1.0
 76
     1
 77
     6
 78
     2
 67
     7
 79
     5
170
     0
171
     0
290
     0
174
     0
 93
        1
 44
0.0
173
     0
291
     0
 45
0.0
  0
VISUALSTYLE
  5
31
102
{ACAD_REACTORS
330
29
102
}
330
29
100
AcDbVisualStyle
  2
3D Hidden
 70
     6
 71
     1
 72
     2
 73
     2
 90
        0
 40
-0.6
 41
-30.0
 62
     5
 63
     7
421
 16777215
 74
     2
 91
        2
 64
     7
 65
   257
 75
     2
175
     1
 42
40.0
 92
        0
 66
   257
 43
1.0
 76
     1
 77
     6
 78
     2
 67
     7
 79
     3
170
     0
171
     0
290
     0
174
     0
 93
        1
 44
0.0
173
     0
291
     0
 45
0.0
  0
VISUALSTYLE
  5
30
102
{ACAD_REACTORS
330
29
102
}
330
29
100
AcDbVisualStyle
  2
3dWireframe
 70
     5
 71
     0
 72
     2
 73
     0
 90
        0
 40
-0.6
 41
-30.0
 62
     5
 63
     7
421
 16777215
 74
     1
 91
        4
 64
     7
 65
   257
 75
     1
175
     1
 42
1.0
 92
        0
 66
   257
 43
1.0
 76
     1
 77
     6
 78
     2
 67
     7
 79
     5
170
     0
171
     0
290
     0
174
     0
 93
        1
 44
0.0
173
     0
291
     0
 45
0.0
  0
VISUALSTYLE
  5
2E
102
{ACAD_REACTORS
330
29
102
}
330
29
100
AcDbVisualStyle
  2
Basic
 70
     7
 71
     1
 72
     0
 73
     1
 90
        0
 40
-0.6
 41
-30.0
 62
     5
 63
     7
421
 16777215
 74
     0
 91
        4
 64
     7
 65
   257
 75
     1
175
     1
 42
1.0
 92
        8
 66
     7
 43
1.0
 76
     1
 77
     6
 78
     2
 67
     7
 79
     5
170
     0
171
     0
290
     0
174
     0
 93
        1
 44
0.0
173
     0
291
     1
 45
0.0
  0
VISUALSTYLE
  5
35
102
{ACAD_REACTORS
330
29
102
}
330
29
100
AcDbVisualStyle
  2
Brighten
 70
    12
 71
     2
 72
     2
 73
     0
 90
        0
 40
-0.6
 41
-30.0
 62
     5
 63
     7
421
 16777215
 74
     1
 91
        4
 64
     7
 65
   257
 75
     1
175
     1
 42
1.0
 92
        8
 66
     7
 43
1.0
 76
     1
 77
     6
 78
     2
 67
     7
 79
     5
170
     0
171
     0
290
     0
174
     0
 93
        1
 44
50.0
173
     0
291
     1
 45
0.0
  0
VISUALSTYLE
  5
39
102
{ACAD_REACTORS
330
29
102
}
330
29
100
AcDbVisualStyle
  2
ColorChange
 70
    16
 71
     2
 72
     2
 73
     3
 90
        0
 40
-0.6
 41
-30.0
 62
     5
 63
     8
421
  8421504
 74
     1
 91
        4
 64
     7
 65
   257
 75
     1
175
     1
 42
1.0
 92
        8
 66
     8
424
  8421504
 43
1.0
 76
     1
 77
     6
 78
     2
 67
     7
 79
     5
170
     0
171
     0
290
     0
174
     0
 93
        1
 44
0.0
173
     0
291
     1
 45
0.0
  0
VISUALSTYLE
  5
32
102
{ACAD_REACTORS
330
29
102
}
330
29
100
AcDbVisualStyle
  2
Conceptual
 70
     9
 71
     3
 72
     2
 73
     0
 90
        0
 40
-0.6
 41
-30.0
 62
     5
 63
     7
421
 16777215
 74
     2
 91
        2
 64
     7
 65
   257
 75
     1
175
     1
 42
40.0
 92
        8
 66
     7
 43
1.0
 76
     1
 77
     6
 78
     2
 67
     7
 79
     3
170
     0
171
     0
290
     0
174
     0
 93
        1
 44
0.0
173
     0
291
     0
 45
0.0
  0
VISUALSTYLE
  5
34
102
{ACAD_REACTORS
330
29
102
}
330
29
100
AcDbVisualStyle
  2
Dim
 70
    11
 71
     2
 72
     2
 73
     0
 90
        0
 40
-0.6
 41
-30.0
 62
     5
 63
     7
421
 16777215
 74
     1
 91
        4
 64
     7
 65
   257
 75
     1
175
     1
 42
1.0
 92
        8
 66
     7
 43
1.0
 76
     1
 77
     6
 78
     2
 67
     7
 79
     5
170
     0
171
     0
290
     0
174
     0
 93
        1
 44
-50.0
173
     0
291
     1
 45
0.0
  0
VISUALSTYLE
  5
38
102
{ACAD_REACTORS
330
29
102
}
330
29
100
AcDbVisualStyle
  2
Facepattern
 70
    15
 71
     2
 72
     2
 73
     0
 90
        0
 40
-0.6
 41
-30.0
 62
     5
 63
     7
421
 16777215
 74
     1
 91
        4
 64
     7
 65
   257
 75
     1
175
     1
 42
1.0
 92
        8
 66
     7
 43
1.0
 76
     1
 77
     6
 78
     2
 67
     7
 79
     5
170
     0
171
     0
290
     0
174
     0
 93
        1
 44
0.0
173
     0
291
     1
 45
0.0
  0
VISUALSTYLE
  5
2A
102
{ACAD_REACTORS
330
29
102
}
330
29
100
AcDbVisualStyle
  2
Flat
 70
     0
 71
     2
 72
     1
 73
     1
 90
        2
 40
-0.6
 41
30.0
 62
     5
 63
     7
421
 16777215
 74
     0
 91
        4
 64
     7
 65
   257
 75
     1
175
     1
 42
1.0
 92
        8
 66
     7
 43
1.0
 76
     1
 77
     6
 78
     2
 67
     7
 79
     5
170
     0
171
     0
290
     0
174
     0
 93
       13
 44
0.0
173
     0
291
     1
 45
0.0
  0
VISUALSTYLE
  5
2B
102
{ACAD_REACTORS
330
29
102
}
330
29
100
AcDbVisualStyle
  2
FlatWithEdges
 70
     1
 71
     2
 72
     1
 73
     1
 90
        2
 40
-0.6
 41
30.0
 62
     5
 63
     7
421
 16777215
 74
     1
 91
        4
 64
     7
 65
   257
 75
     1
175
     1
 42
1.0
 92
        0
 66
   257
 43
1.0
 76
     1
 77
     6
 78
     2
 67
     7
 79
     5
170
     0
171
     0
290
     0
174
     0
 93
       13
 44
0.0
173
     0
291
     1
 45
0.0
  0
VISUALSTYLE
  5
2C
102
{ACAD_REACTORS
330
29
102
}
330
29
100
AcDbVisualStyle
  2
Gouraud
 70
     2
 71
     2
 72
     2
 73
     1
 90
        2
 40
-0.6
 41
30.0
 62
     5
 63
     7
421
 16777215
 74
     0
 91
        4
 64
     7
 65
   257
 75
     1
175
     1
 42
1.0
 92
        0
 66
     7
 43
1.0
 76
     1
 77
     6
 78
     2
 67
     7
 79
     5
170
     0
171
     0
290
     0
174
     0
 93
       13
 44
0.0
173
     0
291
     1
 45
0.0
  0
VISUALSTYLE
  5
2D
102
{ACAD_REACTORS
330
29
102
}
330
29
100
AcDbVisualStyle
  2
GouraudWithEdges
 70
     3
 71
     2
 72
     2
 73
     1
 90
        2
 40
-0.6
 41
30.0
 62
     5
 63
     7
421
 16777215
 74
     1
 91
        4
 64
     7
 65
   257
 75
     1
175
     1
 42
1.0
 92
        0
 66
   257
 43
1.0
 76
     1
 77
     6
 78
     2
 67
     7
 79
     5
170
     0
171
     0
290
     0
174
     0
 93
       13
 44
0.0
173
     0
291
     1
 45
0.0
  0
VISUALSTYLE
  5
37
102
{ACAD_REACTORS
330
29
102
}
330
29
100
AcDbVisualStyle
  2
Linepattern
 70
    14
 71
     2
 72
     2
 73
     0
 90
        0
 40
-0.6
 41
-30.0
 62
     5
 63
     7
421
 16777215
 74
     1
 91
        4
 64
     7
 65
   257
 75
     7
175
     7
 42
1.0
 92
        8
 66
     7
 43
1.0
 76
     1
 77
     6
 78
     2
 67
     7
 79
     5
170
     0
171
     0
290
     0
174
     0
 93
        1
 44
0.0
173
     0
291
     1
 45
0.0
  0
VISUALSTYLE
  5
33
102
{ACAD_REACTORS
330
29
102
}
330
29
100
AcDbVisualStyle
  2
Realistic
 70
     8
 71
     2
 72
     2
 73
     0
 90
        0
 40
-0.6
 41
-30.0
 62
     5
 63
     7
421
 16777215
 74
     1
 91
        0
 64
     7
 65
   257
 75
     1
175
     1
 42
1.0
 92
        8
 66
     8
424
  7895160
 43
1.0
 76
     1
 77
     6
 78
     2
 67
     7
 79
     5
170
     0
171
     0
290
     0
174
     0
 93
       13
 44
0.0
173
     0
291
     0
 45
0.0
  0
VISUALSTYLE
  5
36
102
{ACAD_REACTORS
330
29
102
}
330
29
100
AcDbVisualStyle
  2
Thicken
 70
    13
 71
     2
 72
     2
 73
     0
 90
        0
 40
-0.6
 41
-30.0
 62
     5
 63
     7
421
 16777215
 74
     1
 91
        4
 64
     7
 65
   257
 75
     1
175
     1
 42
1.0
 92
       12
 66
     7
 43
1.0
 76
     1
 77
     6
 78
     2
 67
     7
 79
     5
170
     0
171
     0
290
     0
174
     0
 93
        1
 44
0.0
173
     0
291
     1
 45
0.0
  0
DICTIONARYVAR
  5
354
102
{ACAD_REACTORS
330
351
102
}
330
351
100
DictionaryVariables
280
     0
  1
1:1
  0
DICTIONARYVAR
  5
353
102
{ACAD_REACTORS
330
351
102
}
330
351
100
DictionaryVariables
280
     0
  1
STANDARD
  0
DICTIONARYVAR
  5
352
102
{ACAD_REACTORS
330
351
102
}
330
351
100
DictionaryVariables
280
     0
  1
STANDARD
  0
DICTIONARY
  5
1A
330
19
100
AcDbDictionary
280
     1
281
     1
  3
BUMPTILE
360
1C
  3
DIFFUSETILE
360
1B
  3
OPACITYTILE
360
1F
  3
REFLECTIONTILE
360
1E
  3
REFRACTIONTILE
360
20
  3
SPECULARTILE
360
1D
  0
DICTIONARY
  5
12
330
11
100
AcDbDictionary
280
     1
281
     1
  3
BUMPTILE
360
14
  3
DIFFUSETILE
360
13
  3
OPACITYTILE
360
17
  3
REFLECTIONTILE
360
16
  3
REFRACTIONTILE
360
18
  3
SPECULARTILE
360
15
  0
DICTIONARY
  5
22
330
21
100
AcDbDictionary
280
     1
281
     1
  3
BUMPTILE
360
24
  3
DIFFUSETILE
360
23
  3
OPACITYTILE
360
27
  3
REFLECTIONTILE
360
26
  3
REFRACTIONTILE
360
28
  3
SPECULARTILE
360
25
  0
DICTIONARY
  5
355
330
6D
100
AcDbDictionary
280
     1
281
     1
  3
ACAD_ROUNDTRIP_2008_TABLESTYLE_CELLSTYLEMAP
360
356
  0
XRECORD
  5
1C
102
{ACAD_REACTORS
330
1A
102
}
330
1A
100
AcDbXrecord
280
     1
270
     1
271
     1
  0
XRECORD
  5
1B
102
{ACAD_REACTORS
330
1A
102
}
330
1A
100
AcDbXrecord
280
     1
270
     1
271
     1
  0
XRECORD
  5
1F
102
{ACAD_REACTORS
330
1A
102
}
330
1A
100
AcDbXrecord
280
     1
270
     1
271
     1
  0
XRECORD
  5
1E
102
{ACAD_REACTORS
330
1A
102
}
330
1A
100
AcDbXrecord
280
     1
270
     1
271
     1
  0
XRECORD
  5
20
102
{ACAD_REACTORS
330
1A
102
}
330
1A
100
AcDbXrecord
280
     1
270
     1
271
     1
  0
XRECORD
  5
1D
102
{ACAD_REACTORS
330
1A
102
}
330
1A
100
AcDbXrecord
280
     1
270
     1
271
     1
  0
XRECORD
  5
14
102
{ACAD_REACTORS
330
12
102
}
330
12
100
AcDbXrecord
280
     1
270
     1
271
     1
  0
XRECORD
  5
13
102
{ACAD_REACTORS
330
12
102
}
330
12
100
AcDbXrecord
280
     1
270
     1
271
     1
  0
XRECORD
  5
17
102
{ACAD_REACTORS
330
12
102
}
330
12
100
AcDbXrecord
280
     1
270
     1
271
     1
  0
XRECORD
  5
16
102
{ACAD_REACTORS
330
12
102
}
330
12
100
AcDbXrecord
280
     1
270
     1
271
     1
  0
XRECORD
  5
18
102
{ACAD_REACTORS
330
12
102
}
330
12
100
AcDbXrecord
280
     1
270
     1
271
     1
  0
XRECORD
  5
15
102
{ACAD_REACTORS
330
12
102
}
330
12
100
AcDbXrecord
280
     1
270
     1
271
     1
  0
XRECORD
  5
24
102
{ACAD_REACTORS
330
22
102
}
330
22
100
AcDbXrecord
280
     1
270
     1
271
     1
  0
XRECORD
  5
23
102
{ACAD_REACTORS
330
22
102
}
330
22
100
AcDbXrecord
280
     1
270
     1
271
     1
  0
XRECORD
  5
27
102
{ACAD_REACTORS
330
22
102
}
330
22
100
AcDbXrecord
280
     1
270
     1
271
     1
  0
XRECORD
  5
26
102
{ACAD_REACTORS
330
22
102
}
330
22
100
AcDbXrecord
280
     1
270
     1
271
     1
  0
XRECORD
  5
28
102
{ACAD_REACTORS
330
22
102
}
330
22
100
AcDbXrecord
280
     1
270
     1
271
     1
  0
XRECORD
  5
25
102
{ACAD_REACTORS
330
22
102
}
330
22
100
AcDbXrecord
280
     1
270
     1
271
     1
  0
CELLSTYLEMAP
  5
356
102
{ACAD_REACTORS
330
355
102
}
330
355
100
AcDbCellStyleMap
 90
        3
300
CELLSTYLE
  1
TABLEFORMAT_BEGIN
 90
        5
170
     1
 91
        0
 92
    32768
 62
   257
 93
        1
300
CONTENTFORMAT
  1
CONTENTFORMAT_BEGIN
 90
        0
 91
        0
 92
      512
 93
        0
300

 40
0.0
140
1.0
 94
        5
 62
     0
340
5D
144
0.25
309
CONTENTFORMAT_END
171
     0
 94
        0
309
TABLEFORMAT_END
  1
CELLSTYLE_BEGIN
 90
        1
 91
        1
300
_TITLE
309
CELLSTYLE_END
300
CELLSTYLE
  1
TABLEFORMAT_BEGIN
 90
        5
170
     1
 91
        0
 92
        0
 62
   257
 93
        1
300
CONTENTFORMAT
  1
CONTENTFORMAT_BEGIN
 90
        0
 91
        0
 92
      512
 93
        0
300

 40
0.0
140
1.0
 94
        5
 62
     0
340
5D
144
0.18
309
CONTENTFORMAT_END
171
     0
 94
        0
309
TABLEFORMAT_END
  1
CELLSTYLE_BEGIN
 90
        2
 91
        1
300
_HEADER
309
CELLSTYLE_END
300
CELLSTYLE
  1
TABLEFORMAT_BEGIN
 90
        5
170
     1
 91
        0
 92
        0
 62
   257
 93
        1
300
CONTENTFORMAT
  1
CONTENTFORMAT_BEGIN
 90
        0
 91
        0
 92
      512
 93
        0
300

 40
0.0
140
1.0
 94
        2
 62
     0
340
5D
144
0.18
309
CONTENTFORMAT_END
171
     0
 94
        0
309
TABLEFORMAT_END
  1
CELLSTYLE_BEGIN
 90
        3
 91
        2
300
_DATA
309
CELLSTYLE_END
  0
ENDSEC
  0
EOF
