  0
SECTION
  2
HEADER
  9
$ACADVER
  1
AC1018
  9
$ACADMAINTVER
 70
   104
  9
$DWGCODEPAGE
  3
ANSI_1252
  9
$TITLE
  1
DD 80.10
  9
$CUSTOMPROPERTYTAG
  1
Manager
  9
$CUSTOMPROPERTY
  1

  9
$CUSTOMPROPERTYTAG
  1
Firma
  9
$CUSTOMPROPERTY
  1

  9
$CUSTOMPROPERTYTAG
  1
Kategorie
  9
$CUSTOMPROPERTY
  1

  9
$CUSTOMPROPERTYTAG
  1
Bauteilnummer
  9
$CUSTOMPROPERTY
  1
106183
  9
$CUSTOMPROPERTYTAG
  1
Bezeichnung
  9
$CUSTOMPROPERTY
  1
Zwischengefäss
  9
$CUSTOMPROPERTYTAG
  1
Projekt
  9
$CUSTOMPROPERTY
  1
Internet 2D
  9
$CUSTOMPROPERTYTAG
  1
Konstrukteur
  9
$CUSTOMPROPERTY
  1
GAD
  9
$CUSTOMPROPERTYTAG
  1
Ingenieur
  9
$CUSTOMPROPERTY
  1

  9
$CUSTOMPROPERTYTAG
  1
Bevollmächtigter
  9
$CUSTOMPROPERTY
  1

  9
$CUSTOMPROPERTYTAG
  1
Kostenstelle
  9
$CUSTOMPROPERTY
  1

  9
$CUSTOMPROPERTYTAG
  1
Zulieferer
  9
$CUSTOMPROPERTY
  1

  9
$CUSTOMPROPERTYTAG
  1
Benutzerstatus
  9
$CUSTOMPROPERTY
  1

  9
$CUSTOMPROPERTYTAG
  1
Konstruktionsstatus
  9
$CUSTOMPROPERTY
  1
InBearbeitung
  9
$CUSTOMPROPERTYTAG
  1
Kontrolliert von
  9
$CUSTOMPROPERTY
  1
GAD
  9
$CUSTOMPROPERTYTAG
  1
Datum Überprüfung
  9
$CUSTOMPROPERTY
  1
12/18/2007
  9
$CUSTOMPROPERTYTAG
  1
Konstruktion genehmigt von
  9
$CUSTOMPROPERTY
  1
GAD
  9
$CUSTOMPROPERTYTAG
  1
Datum Konstruktionsgenehmigung
  9
$CUSTOMPROPERTY
  1
12/18/2007
  9
$CUSTOMPROPERTYTAG
  1
Fertigung genehmigt von
  9
$CUSTOMPROPERTY
  1

  9
$CUSTOMPROPERTYTAG
  1
Massstab
  9
$CUSTOMPROPERTY
  1
1:5
  9
$CUSTOMPROPERTYTAG
  1
Gewicht
  9
$CUSTOMPROPERTY
  1
15.441
  9
$CUSTOMPROPERTYTAG
  1
AeDatum1
  9
$CUSTOMPROPERTY
  1
  
  9
$CUSTOMPROPERTYTAG
  1
AeDesc1
  9
$CUSTOMPROPERTY
  1

  9
$CUSTOMPROPERTYTAG
  1
AeIDX1
  9
$CUSTOMPROPERTY
  1

  9
$CUSTOMPROPERTYTAG
  1
TolLange_Fein
  9
$CUSTOMPROPERTY
  1

  9
$CUSTOMPROPERTYTAG
  1
TolLange_Grob
  9
$CUSTOMPROPERTY
  1

  9
$CUSTOMPROPERTYTAG
  1
TolLange_Mittel
  9
$CUSTOMPROPERTY
  1
X
  9
$CUSTOMPROPERTYTAG
  1
TolWinkel_Fein
  9
$CUSTOMPROPERTY
  1

  9
$CUSTOMPROPERTYTAG
  1
TolWinkel_Grob
  9
$CUSTOMPROPERTY
  1
X
  9
$CUSTOMPROPERTYTAG
  1
ProtoTyp_NR
  9
$CUSTOMPROPERTY
  1
1
  9
$CUSTOMPROPERTYTAG
  1
AeDatum2
  9
$CUSTOMPROPERTY
  1
  
  9
$CUSTOMPROPERTYTAG
  1
AeDatum3
  9
$CUSTOMPROPERTY
  1
  
  9
$CUSTOMPROPERTYTAG
  1
AeDatum4
  9
$CUSTOMPROPERTY
  1
  
  9
$CUSTOMPROPERTYTAG
  1
AeDatum5
  9
$CUSTOMPROPERTY
  1
  
  9
$CUSTOMPROPERTYTAG
  1
AeDesc2
  9
$CUSTOMPROPERTY
  1

  9
$CUSTOMPROPERTYTAG
  1
AeDesc3
  9
$CUSTOMPROPERTY
  1

  9
$CUSTOMPROPERTYTAG
  1
AeDesc4
  9
$CUSTOMPROPERTY
  1

  9
$CUSTOMPROPERTYTAG
  1
AeDesc5
  9
$CUSTOMPROPERTY
  1

  9
$CUSTOMPROPERTYTAG
  1
AeIDX2
  9
$CUSTOMPROPERTY
  1

  9
$CUSTOMPROPERTYTAG
  1
AeIDX3
  9
$CUSTOMPROPERTY
  1

  9
$CUSTOMPROPERTYTAG
  1
AeIDX4
  9
$CUSTOMPROPERTY
  1

  9
$CUSTOMPROPERTYTAG
  1
AeIDX5
  9
$CUSTOMPROPERTY
  1

  9
$CUSTOMPROPERTYTAG
  1
Fachgeprüft_am
  9
$CUSTOMPROPERTY
  1
  .  .    
  9
$CUSTOMPROPERTYTAG
  1
Fachgeprüft_von
  9
$CUSTOMPROPERTY
  1

  9
$CUSTOMPROPERTYTAG
  1
ZeichnungsNummer
  9
$CUSTOMPROPERTY
  1

  9
$CUSTOMPROPERTYTAG
  1
AIMD_MATERIAL
  9
$CUSTOMPROPERTY
  1

  9
$CUSTOMPROPERTYTAG
  1
AIMD_WEIGHT
  9
$CUSTOMPROPERTY
  1
15.441
  9
$CUSTOMPROPERTYTAG
  1
AIMD_DESCRIPTION
  9
$CUSTOMPROPERTY
  1
Zwischengefäss
  9
$CUSTOMPROPERTYTAG
  1
AIMD_ORIGIN
  9
$CUSTOMPROPERTY
  1

  9
$CUSTOMPROPERTYTAG
  1
AIMD_PARTNO
  9
$CUSTOMPROPERTY
  1
7142026
  9
$CUSTOMPROPERTYTAG
  1
AIMD_WEIGHT_UNIT
  9
$CUSTOMPROPERTY
  1
kg
  9
$CUSTOMPROPERTYTAG
  1
Einheit
  9
$CUSTOMPROPERTY
  1
Stk
  9
$INSBASE
 10
0.0
 20
0.0
 30
0.0
  9
$EXTMIN
 10
0.0
 20
0.0
 30
0.0
  9
$EXTMAX
 10
1050.0
 20
1485.0
 30
0.0
  9
$LIMMIN
 10
0.0
 20
0.0
  9
$LIMMAX
 10
1050.0
 20
1485.0
  9
$ORTHOMODE
 70
     0
  9
$REGENMODE
 70
     1
  9
$FILLMODE
 70
     1
  9
$QTEXTMODE
 70
     0
  9
$MIRRTEXT
 70
     0
  9
$LTSCALE
 40
5.0
  9
$ATTMODE
 70
     1
  9
$TEXTSIZE
 40
0.2
  9
$TRACEWID
 40
0.05
  9
$TEXTSTYLE
  7
Standard
  9
$CLAYER
  8
0
  9
$CELTYPE
  6
ByLayer
  9
$CECOLOR
 62
   256
  9
$CELTSCALE
 40
1.0
  9
$DISPSILH
 70
     0
  9
$DIMSCALE
 40
1.0
  9
$DIMASZ
 40
1.799999999999999
  9
$DIMEXO
 40
0.0625
  9
$DIMDLI
 40
0.38
  9
$DIMRND
 40
0.0
  9
$DIMDLE
 40
0.0
  9
$DIMEXE
 40
0.18
  9
$DIMTP
 40
0.0
  9
$DIMTM
 40
0.0
  9
$DIMTXT
 40
0.3499999940395355
  9
$DIMCEN
 40
0.09
  9
$DIMTSZ
 40
0.0
  9
$DIMTOL
 70
     0
  9
$DIMLIM
 70
     0
  9
$DIMTIH
 70
     1
  9
$DIMTOH
 70
     1
  9
$DIMSE1
 70
     0
  9
$DIMSE2
 70
     0
  9
$DIMTAD
 70
     0
  9
$DIMZIN
 70
     0
  9
$DIMBLK
  1

  9
$DIMASO
 70
     1
  9
$DIMSHO
 70
     1
  9
$DIMPOST
  1

  9
$DIMAPOST
  1

  9
$DIMALT
 70
     0
  9
$DIMALTD
 70
     2
  9
$DIMALTF
 40
25.4
  9
$DIMLFAC
 40
1.0
  9
$DIMTOFL
 70
     0
  9
$DIMTVP
 40
0.0
  9
$DIMTIX
 70
     0
  9
$DIMSOXD
 70
     0
  9
$DIMSAH
 70
     0
  9
$DIMBLK1
  1

  9
$DIMBLK2
  1

  9
$DIMSTYLE
  2
Standard
  9
$DIMCLRD
 70
     0
  9
$DIMCLRE
 70
     0
  9
$DIMCLRT
 70
     0
  9
$DIMTFAC
 40
1.0
  9
$DIMGAP
 40
0.09
  9
$DIMJUST
 70
     0
  9
$DIMSD1
 70
     0
  9
$DIMSD2
 70
     0
  9
$DIMTOLJ
 70
     1
  9
$DIMTZIN
 70
     0
  9
$DIMALTZ
 70
     0
  9
$DIMALTTZ
 70
     0
  9
$DIMUPT
 70
     0
  9
$DIMDEC
 70
     4
  9
$DIMTDEC
 70
     4
  9
$DIMALTU
 70
     2
  9
$DIMALTTD
 70
     2
  9
$DIMTXSTY
  7
Standard
  9
$DIMAUNIT
 70
     0
  9
$DIMADEC
 70
     0
  9
$DIMALTRND
 40
0.0
  9
$DIMAZIN
 70
     0
  9
$DIMDSEP
 70
    46
  9
$DIMATFIT
 70
     3
  9
$DIMFRAC
 70
     0
  9
$DIMLDRBLK
  1

  9
$DIMLUNIT
 70
     2
  9
$DIMLWD
 70
    -2
  9
$DIMLWE
 70
    -2
  9
$DIMTMOVE
 70
     0
  9
$LUNITS
 70
     2
  9
$LUPREC
 70
     4
  9
$SKETCHINC
 40
0.1
  9
$FILLETRAD
 40
0.0
  9
$AUNITS
 70
     0
  9
$AUPREC
 70
     0
  9
$MENU
  1
.
  9
$ELEVATION
 40
0.0
  9
$PELEVATION
 40
0.0
  9
$THICKNESS
 40
0.0
  9
$LIMCHECK
 70
     0
  9
$CHAMFERA
 40
0.0
  9
$CHAMFERB
 40
0.0
  9
$CHAMFERC
 40
0.0
  9
$CHAMFERD
 40
0.0
  9
$SKPOLY
 70
     0
  9
$TDCREATE
 40
2454453.716635556
  9
$TDUCREATE
 40
2454453.674968889
  9
$TDUPDATE
 40
2454453.716635556
  9
$TDUUPDATE
 40
2454453.674968889
  9
$TDINDWG
 40
0.0000368981
  9
$TDUSRTIMER
 40
0.0000368981
  9
$USRTIMER
 70
     1
  9
$ANGBASE
 50
0.0
  9
$ANGDIR
 70
     0
  9
$PDMODE
 70
     0
  9
$PDSIZE
 40
0.0
  9
$PLINEWID
 40
0.0
  9
$SPLFRAME
 70
     0
  9
$SPLINETYPE
 70
     6
  9
$SPLINESEGS
 70
     8
  9
$HANDSEED
  5
346
  9
$SURFTAB1
 70
     6
  9
$SURFTAB2
 70
     6
  9
$SURFTYPE
 70
     6
  9
$SURFU
 70
     6
  9
$SURFV
 70
     6
  9
$UCSBASE
  2

  9
$UCSNAME
  2

  9
$UCSORG
 10
0.0
 20
0.0
 30
0.0
  9
$UCSXDIR
 10
1.0
 20
0.0
 30
0.0
  9
$UCSYDIR
 10
0.0
 20
1.0
 30
0.0
  9
$UCSORTHOREF
  2

  9
$UCSORTHOVIEW
 70
     0
  9
$UCSORGTOP
 10
0.0
 20
0.0
 30
0.0
  9
$UCSORGBOTTOM
 10
0.0
 20
0.0
 30
0.0
  9
$UCSORGLEFT
 10
0.0
 20
0.0
 30
0.0
  9
$UCSORGRIGHT
 10
0.0
 20
0.0
 30
0.0
  9
$UCSORGFRONT
 10
0.0
 20
0.0
 30
0.0
  9
$UCSORGBACK
 10
0.0
 20
0.0
 30
0.0
  9
$PUCSBASE
  2

  9
$PUCSNAME
  2

  9
$PUCSORG
 10
0.0
 20
0.0
 30
0.0
  9
$PUCSXDIR
 10
1.0
 20
0.0
 30
0.0
  9
$PUCSYDIR
 10
0.0
 20
1.0
 30
0.0
  9
$PUCSORTHOREF
  2

  9
$PUCSORTHOVIEW
 70
     0
  9
$PUCSORGTOP
 10
0.0
 20
0.0
 30
0.0
  9
$PUCSORGBOTTOM
 10
0.0
 20
0.0
 30
0.0
  9
$PUCSORGLEFT
 10
0.0
 20
0.0
 30
0.0
  9
$PUCSORGRIGHT
 10
0.0
 20
0.0
 30
0.0
  9
$PUCSORGFRONT
 10
0.0
 20
0.0
 30
0.0
  9
$PUCSORGBACK
 10
0.0
 20
0.0
 30
0.0
  9
$USERI1
 70
     0
  9
$USERI2
 70
     0
  9
$USERI3
 70
     0
  9
$USERI4
 70
     0
  9
$USERI5
 70
     0
  9
$USERR1
 40
0.0
  9
$USERR2
 40
0.0
  9
$USERR3
 40
0.0
  9
$USERR4
 40
0.0
  9
$USERR5
 40
0.0
  9
$WORLDVIEW
 70
     1
  9
$SHADEDGE
 70
     3
  9
$SHADEDIF
 70
    70
  9
$TILEMODE
 70
     1
  9
$MAXACTVP
 70
    64
  9
$PINSBASE
 10
0.0
 20
0.0
 30
0.0
  9
$PLIMCHECK
 70
     0
  9
$PEXTMIN
 10
0.0
 20
0.0
 30
0.0
  9
$PEXTMAX
 10
1050.0
 20
1485.0
 30
0.0
  9
$PLIMMIN
 10
0.0
 20
0.0
  9
$PLIMMAX
 10
1050.0
 20
1485.0
  9
$UNITMODE
 70
     0
  9
$VISRETAIN
 70
     1
  9
$PLINEGEN
 70
     0
  9
$PSLTSCALE
 70
     1
  9
$TREEDEPTH
 70
  3020
  9
$CMLSTYLE
  2
Standard
  9
$CMLJUST
 70
     0
  9
$CMLSCALE
 40
1.0
  9
$PROXYGRAPHICS
 70
     1
  9
$MEASUREMENT
 70
     1
  9
$CELWEIGHT
370
    -1
  9
$ENDCAPS
280
     0
  9
$JOINSTYLE
280
     0
  9
$LWDISPLAY
290
     0
  9
$INSUNITS
 70
     0
  9
$HYPERLINKBASE
  1

  9
$STYLESHEET
  1

  9
$XEDIT
290
     1
  9
$CEPSNTYPE
380
     0
  9
$PSTYLEMODE
290
     1
  9
$FINGERPRINTGUID
  2
{5B26953F-A3F2-4AAA-911F-C8AAC9051BD2}
  9
$VERSIONGUID
  2
{A72A7026-D113-4E8A-A485-556706126E82}
  9
$EXTNAMES
290
     1
  9
$PSVPSCALE
 40
0.0
  9
$OLESTARTUP
290
     0
  9
$SORTENTS
280
   127
  9
$INDEXCTL
280
     0
  9
$HIDETEXT
280
     1
  9
$XCLIPFRAME
290
     0
  9
$HALOGAP
280
     0
  9
$OBSCOLOR
 70
   257
  9
$OBSLTYPE
280
     0
  9
$INTERSECTIONDISPLAY
280
     0
  9
$INTERSECTIONCOLOR
 70
   257
  9
$DIMASSOC
280
     1
  9
$PROJECTNAME
  1

  0
ENDSEC
  0
SECTION
  2
CLASSES
  0
CLASS
  1
ACDBDICTIONARYWDFLT
  2
AcDbDictionaryWithDefault
  3
ObjectDBX Classes
 90
        0
 91
        1
280
     0
281
     0
  0
CLASS
  1
MATERIAL
  2
AcDbMaterial
  3
ObjectDBX Classes
 90
     1024
 91
        3
280
     0
281
     0
  0
CLASS
  1
VISUALSTYLE
  2
AcDbVisualStyle
  3
ObjectDBX Classes
 90
     4095
 91
       16
280
     0
281
     0
  0
CLASS
  1
TABLESTYLE
  2
AcDbTableStyle
  3
ObjectDBX Classes
 90
     4095
 91
        1
280
     0
281
     0
  0
CLASS
  1
DICTIONARYVAR
  2
AcDbDictionaryVar
  3
ObjectDBX Classes
 90
        0
 91
        1
280
     0
281
     0
  0
ENDSEC
  0
SECTION
  2
TABLES
  0
TABLE
  2
VPORT
  5
8
330
0
100
AcDbSymbolTable
 70
     1
  0
VPORT
  5
28
330
8
100
AcDbSymbolTableRecord
100
AcDbViewportTableRecord
  2
*Active
 70
     0
 10
0.0
 20
0.0
 11
1.0
 21
1.0
 12
525.0
 22
742.4999999999999
 13
0.0
 23
0.0
 14
1.0
 24
1.0
 15
0.0
 25
0.0
 16
0.0
 26
0.0
 36
1.0
 17
0.0
 27
0.0
 37
0.0
 40
1485.0
 41
0.7070707070707071
 42
50.0
 43
0.0
 44
0.0
 50
0.0
 51
0.0
 71
     0
 72
   100
 73
     1
 74
     1
 75
     0
 76
     0
 77
     0
 78
     0
281
     0
 65
     1
110
0.0
120
0.0
130
0.0
111
1.0
121
0.0
131
0.0
112
0.0
122
1.0
132
0.0
 79
     0
146
0.0
  0
ENDTAB
  0
TABLE
  2
LTYPE
  5
5
330
0
100
AcDbSymbolTable
 70
    59
  0
LTYPE
  5
29
330
5
100
AcDbSymbolTableRecord
100
AcDbLinetypeTableRecord
  2
ByBlock
 70
     0
  3

 72
    65
 73
     0
 40
0.0
  0
LTYPE
  5
2A
330
5
100
AcDbSymbolTableRecord
100
AcDbLinetypeTableRecord
  2
ByLayer
 70
     0
  3

 72
    65
 73
     0
 40
0.0
  0
LTYPE
  5
2B
330
5
100
AcDbSymbolTableRecord
100
AcDbLinetypeTableRecord
  2
Continuous
 70
     0
  3
Solid line
 72
    65
 73
     0
 40
0.0
  0
LTYPE
  5
40
330
5
100
AcDbSymbolTableRecord
100
AcDbLinetypeTableRecord
  2
Section_View_Lines
 70
     0
  3
Section View Lines
 72
    65
 73
     4
 40
0.8406
 49
0.6614
 74
     0
 49
-0.0827
 74
     0
 49
0.0138
 74
     0
 49
-0.0827
 74
     0
  0
LTYPE
  5
41
330
5
100
AcDbSymbolTableRecord
100
AcDbLinetypeTableRecord
  2
CHAIN
 70
     0
  3
Chain ____ _ ____ _ ____ _ ____ _ ____ _ ____
 72
    65
 73
     4
 40
0.3543
 49
0.2362
 74
     0
 49
-0.0295
 74
     0
 49
0.0591
 74
     0
 49
-0.0295
 74
     0
  0
LTYPE
  5
42
330
5
100
AcDbSymbolTableRecord
100
AcDbLinetypeTableRecord
  2
DASH_DOT
 70
     0
  3
Dash dot _._._._._._._._._._._._._._._.
 72
    65
 73
     4
 40
0.37
 49
0.24
 74
     0
 49
-0.06
 74
     0
 49
0.01
 74
     0
 49
-0.06
 74
     0
  0
LTYPE
  5
43
330
5
100
AcDbSymbolTableRecord
100
AcDbLinetypeTableRecord
  2
DASH_DOUBLE_DOT
 70
     0
  3
Dash Double Dot __ __ . __ __ . __ __ . __ _
 72
    65
 73
     6
 40
0.4398
 49
0.24
 74
     0
 49
-0.06
 74
     0
 49
0.0098
 74
     0
 49
-0.06
 74
     0
 49
0.01
 74
     0
 49
-0.06
 74
     0
  0
LTYPE
  5
44
330
5
100
AcDbSymbolTableRecord
100
AcDbLinetypeTableRecord
  2
DASH_TRIPLE_DOT
 70
     0
  3
Dash Triple-Dot _ . . . _ . . . _ . . . _
 72
    65
 73
     8
 40
0.51
 49
0.24
 74
     0
 49
-0.06
 74
     0
 49
0.01
 74
     0
 49
-0.06
 74
     0
 49
0.01
 74
     0
 49
-0.06
 74
     0
 49
0.01
 74
     0
 49
-0.06
 74
     0
  0
LTYPE
  5
45
330
5
100
AcDbSymbolTableRecord
100
AcDbLinetypeTableRecord
  2
DASHED
 70
     0
  3
Dashed __ __ __ __ __ __ __ __ __ __ __ __ __ _
 72
    65
 73
     2
 40
0.2067
 49
0.1654
 74
     0
 49
-0.0413
 74
     0
  0
LTYPE
  5
46
330
5
100
AcDbSymbolTableRecord
100
AcDbLinetypeTableRecord
  2
DASHED_SPACE
 70
     0
  3
Dashed Space _._._._._._._._._._._._._._._.
 72
    65
 73
     2
 40
0.2067
 49
0.1654
 74
     0
 49
-0.0413
 74
     0
  0
LTYPE
  5
47
330
5
100
AcDbSymbolTableRecord
100
AcDbLinetypeTableRecord
  2
DOTTED
 70
     0
  3
Dotted . . . . . . . . . . . . . . . . . . . . 
 72
    65
 73
     2
 40
0.0482
 49
0.0069
 74
     0
 49
-0.0413
 74
     0
  0
LTYPE
  5
48
330
5
100
AcDbSymbolTableRecord
100
AcDbLinetypeTableRecord
  2
DOUBLE_DASH_CHAIN
 70
     0
  3
Double Dash Chain ___ _ _ ___ _ _ ___ _ _ ___ _
 72
    65
 73
     6
 40
1.240299999999999
 49
0.6614
 74
     0
 49
-0.0827
 74
     0
 49
0.1654
 74
     0
 49
-0.0827
 74
     0
 49
0.1654
 74
     0
 49
-0.0827
 74
     0
  0
LTYPE
  5
49
330
5
100
AcDbSymbolTableRecord
100
AcDbLinetypeTableRecord
  2
DOUBLE_DASH_DOT
 70
     0
  3
Double Dash Dot __ __ . __ __ . __ __ . __ _
 72
    65
 73
     6
 40
0.67
 49
0.24
 74
     0
 49
-0.06
 74
     0
 49
0.24
 74
     0
 49
-0.06
 74
     0
 49
0.01
 74
     0
 49
-0.06
 74
     0
  0
LTYPE
  5
4A
330
5
100
AcDbSymbolTableRecord
100
AcDbLinetypeTableRecord
  2
DOUBLE_DASH_DOUBLE_DOT
 70
     0
  3
Double-dash double-dot _ _ . . _ _ . . _
 72
    65
 73
     8
 40
0.7400000000000001
 49
0.24
 74
     0
 49
-0.06
 74
     0
 49
0.24
 74
     0
 49
-0.06
 74
     0
 49
0.01
 74
     0
 49
-0.06
 74
     0
 49
0.01
 74
     0
 49
-0.06
 74
     0
  0
LTYPE
  5
4B
330
5
100
AcDbSymbolTableRecord
100
AcDbLinetypeTableRecord
  2
DOUBLE_DASH_TRIPLE_DOT
 70
     0
  3
Double Dash Triple Dot __ __ . . . __ __ . . .
 72
    65
 73
    10
 40
0.8100000000000001
 49
0.24
 74
     0
 49
-0.06
 74
     0
 49
0.24
 74
     0
 49
-0.06
 74
     0
 49
0.01
 74
     0
 49
-0.06
 74
     0
 49
0.01
 74
     0
 49
-0.06
 74
     0
 49
0.01
 74
     0
 49
-0.06
 74
     0
  0
LTYPE
  5
4C
330
5
100
AcDbSymbolTableRecord
100
AcDbLinetypeTableRecord
  2
LONG_DASH_DOTTED
 70
     0
  3
Long-Dash Dot ____ . ____ . ____ . ____ . _
 72
    65
 73
     4
 40
0.3001
 49
0.2362
 74
     0
 49
-0.0295
 74
     0
 49
0.0049
 74
     0
 49
-0.0295
 74
     0
  0
LTYPE
  5
4D
330
5
100
AcDbSymbolTableRecord
100
AcDbLinetypeTableRecord
  2
LONG_DASH_DOUBLE_DOT
 70
     0
  3
Long Dash Double Dot ____ . . ____ . . ____ . .
 72
    65
 73
     6
 40
0.3345
 49
0.2362
 74
     0
 49
-0.0295
 74
     0
 49
0.0049
 74
     0
 49
-0.0295
 74
     0
 49
0.0049
 74
     0
 49
-0.0295
 74
     0
  0
LTYPE
  5
4E
330
5
100
AcDbSymbolTableRecord
100
AcDbLinetypeTableRecord
  2
LONG_DASH_TRIPLE_DOT
 70
     0
  3
Long Dash Triple Dot ____ ... ____ ... ____
 72
    65
 73
     8
 40
0.75
 49
0.48
 74
     0
 49
-0.06
 74
     0
 49
0.01
 74
     0
 49
-0.06
 74
     0
 49
0.01
 74
     0
 49
-0.06
 74
     0
 49
0.01
 74
     0
 49
-0.06
 74
     0
  0
LTYPE
  5
4F
330
5
100
AcDbSymbolTableRecord
100
AcDbLinetypeTableRecord
  2
BORDER
 70
     0
  3
Border __ __ . __ __ . __ __ . __ __ . __ __ .
 72
    65
 73
     6
 40
44.45
 49
12.7
 74
     0
 49
-6.349999999999999
 74
     0
 49
12.7
 74
     0
 49
-6.349999999999999
 74
     0
 49
0.0
 74
     0
 49
-6.349999999999999
 74
     0
  0
LTYPE
  5
50
330
5
100
AcDbSymbolTableRecord
100
AcDbLinetypeTableRecord
  2
BORDER2
 70
     0
  3
Border (.5x) __.__.__.__.__.__.__.__.__.__.__.
 72
    65
 73
     6
 40
22.225
 49
6.349999999999999
 74
     0
 49
-3.174999999999999
 74
     0
 49
6.349999999999999
 74
     0
 49
-3.174999999999999
 74
     0
 49
0.0
 74
     0
 49
-3.174999999999999
 74
     0
  0
LTYPE
  5
51
330
5
100
AcDbSymbolTableRecord
100
AcDbLinetypeTableRecord
  2
BORDERX2
 70
     0
  3
Border (2x) ____  ____  .  ____  ____  .  ___
 72
    65
 73
     6
 40
88.9
 49
25.4
 74
     0
 49
-12.7
 74
     0
 49
25.4
 74
     0
 49
-12.7
 74
     0
 49
0.0
 74
     0
 49
-12.7
 74
     0
  0
LTYPE
  5
52
330
5
100
AcDbSymbolTableRecord
100
AcDbLinetypeTableRecord
  2
CENTER
 70
     0
  3
Center ____ _ ____ _ ____ _ ____ _ ____ _ ____
 72
    65
 73
     4
 40
50.8
 49
31.75
 74
     0
 49
-6.349999999999999
 74
     0
 49
6.349999999999999
 74
     0
 49
-6.349999999999999
 74
     0
  0
LTYPE
  5
53
330
5
100
AcDbSymbolTableRecord
100
AcDbLinetypeTableRecord
  2
CENTER2
 70
     0
  3
Center (.5x) ___ _ ___ _ ___ _ ___ _ ___ _ ___
 72
    65
 73
     4
 40
28.575
 49
19.05
 74
     0
 49
-3.174999999999999
 74
     0
 49
3.174999999999999
 74
     0
 49
-3.174999999999999
 74
     0
  0
LTYPE
  5
54
330
5
100
AcDbSymbolTableRecord
100
AcDbLinetypeTableRecord
  2
CENTERX2
 70
     0
  3
Center (2x) ________  __  ________  __  _____
 72
    65
 73
     4
 40
101.6
 49
63.5
 74
     0
 49
-12.7
 74
     0
 49
12.7
 74
     0
 49
-12.7
 74
     0
  0
LTYPE
  5
55
330
5
100
AcDbSymbolTableRecord
100
AcDbLinetypeTableRecord
  2
DASHDOT2
 70
     0
  3
Dash dot (.5x) _._._._._._._._._._._._._._._.
 72
    65
 73
     4
 40
12.7
 49
6.349999999999999
 74
     0
 49
-3.174999999999999
 74
     0
 49
0.0
 74
     0
 49
-3.174999999999999
 74
     0
  0
LTYPE
  5
56
330
5
100
AcDbSymbolTableRecord
100
AcDbLinetypeTableRecord
  2
DASHDOTX2
 70
     0
  3
Dash dot (2x) ____  .  ____  .  ____  .  ___
 72
    65
 73
     4
 40
50.8
 49
25.4
 74
     0
 49
-12.7
 74
     0
 49
0.0
 74
     0
 49
-12.7
 74
     0
  0
LTYPE
  5
57
330
5
100
AcDbSymbolTableRecord
100
AcDbLinetypeTableRecord
  2
DASHED2
 70
     0
  3
Dashed (.5x) _ _ _ _ _ _ _ _ _ _ _ _ _ _ _ _ _
 72
    65
 73
     2
 40
9.524999999999998
 49
6.349999999999999
 74
     0
 49
-3.174999999999999
 74
     0
  0
LTYPE
  5
58
330
5
100
AcDbSymbolTableRecord
100
AcDbLinetypeTableRecord
  2
DASHEDX2
 70
     0
  3
Dashed (2x) ____  ____  ____  ____  ____  ___
 72
    65
 73
     2
 40
38.1
 49
25.4
 74
     0
 49
-12.7
 74
     0
  0
LTYPE
  5
59
330
5
100
AcDbSymbolTableRecord
100
AcDbLinetypeTableRecord
  2
DIVIDE
 70
     0
  3
Divide ____ . . ____ . . ____ . . ____ . . ____
 72
    65
 73
     6
 40
31.75
 49
12.7
 74
     0
 49
-6.349999999999999
 74
     0
 49
0.0
 74
     0
 49
-6.349999999999999
 74
     0
 49
0.0
 74
     0
 49
-6.349999999999999
 74
     0
  0
LTYPE
  5
5A
330
5
100
AcDbSymbolTableRecord
100
AcDbLinetypeTableRecord
  2
DIVIDE2
 70
     0
  3
Divide (.5x) __..__..__..__..__..__..__..__.._
 72
    65
 73
     6
 40
15.875
 49
6.349999999999999
 74
     0
 49
-3.174999999999999
 74
     0
 49
0.0
 74
     0
 49
-3.174999999999999
 74
     0
 49
0.0
 74
     0
 49
-3.174999999999999
 74
     0
  0
LTYPE
  5
5B
330
5
100
AcDbSymbolTableRecord
100
AcDbLinetypeTableRecord
  2
DIVIDEX2
 70
     0
  3
Divide (2x) ________  .  .  ________  .  .  _
 72
    65
 73
     6
 40
63.49999999999999
 49
25.4
 74
     0
 49
-12.7
 74
     0
 49
0.0
 74
     0
 49
-12.7
 74
     0
 49
0.0
 74
     0
 49
-12.7
 74
     0
  0
LTYPE
  5
5C
330
5
100
AcDbSymbolTableRecord
100
AcDbLinetypeTableRecord
  2
DOT
 70
     0
  3
Dot . . . . . . . . . . . . . . . . . . . . . .
 72
    65
 73
     2
 40
6.349999999999999
 49
0.0
 74
     0
 49
-6.349999999999999
 74
     0
  0
LTYPE
  5
5D
330
5
100
AcDbSymbolTableRecord
100
AcDbLinetypeTableRecord
  2
DOT2
 70
     0
  3
Dot (.5x) .....................................
 72
    65
 73
     2
 40
3.174999999999999
 49
0.0
 74
     0
 49
-3.174999999999999
 74
     0
  0
LTYPE
  5
5E
330
5
100
AcDbSymbolTableRecord
100
AcDbLinetypeTableRecord
  2
DOTX2
 70
     0
  3
Dot (2x) .  .  .  .  .  .  .  .  .  .  .  .  . 
 72
    65
 73
     2
 40
12.7
 49
0.0
 74
     0
 49
-12.7
 74
     0
  0
LTYPE
  5
5F
330
5
100
AcDbSymbolTableRecord
100
AcDbLinetypeTableRecord
  2
HIDDEN
 70
     0
  3
Hidden __ __ __ __ __ __ __ __ __ __ __ __ __ _
 72
    65
 73
     2
 40
9.524999999999998
 49
6.349999999999999
 74
     0
 49
-3.174999999999999
 74
     0
  0
LTYPE
  5
60
330
5
100
AcDbSymbolTableRecord
100
AcDbLinetypeTableRecord
  2
HIDDEN2
 70
     0
  3
Hidden (.5x) _ _ _ _ _ _ _ _ _ _ _ _ _ _ _ _ _
 72
    65
 73
     2
 40
4.762499999999999
 49
3.174999999999999
 74
     0
 49
-1.587499999999999
 74
     0
  0
LTYPE
  5
61
330
5
100
AcDbSymbolTableRecord
100
AcDbLinetypeTableRecord
  2
HIDDENX2
 70
     0
  3
Hidden (2x) ____ ____ ____ ____ ____ ____ ____
 72
    65
 73
     2
 40
19.05
 49
12.7
 74
     0
 49
-6.349999999999999
 74
     0
  0
LTYPE
  5
62
330
5
100
AcDbSymbolTableRecord
100
AcDbLinetypeTableRecord
  2
PHANTOM
 70
     0
  3
Phantom ______  __  __  ______  __  __  ______
 72
    65
 73
     6
 40
63.5
 49
31.75
 74
     0
 49
-6.349999999999999
 74
     0
 49
6.349999999999999
 74
     0
 49
-6.349999999999999
 74
     0
 49
6.349999999999999
 74
     0
 49
-6.349999999999999
 74
     0
  0
LTYPE
  5
63
330
5
100
AcDbSymbolTableRecord
100
AcDbLinetypeTableRecord
  2
PHANTOM2
 70
     0
  3
Phantom (.5x) ___ _ _ ___ _ _ ___ _ _ ___ _ _
 72
    65
 73
     6
 40
31.75
 49
15.875
 74
     0
 49
-3.174999999999999
 74
     0
 49
3.174999999999999
 74
     0
 49
-3.174999999999999
 74
     0
 49
3.174999999999999
 74
     0
 49
-3.174999999999999
 74
     0
  0
LTYPE
  5
64
330
5
100
AcDbSymbolTableRecord
100
AcDbLinetypeTableRecord
  2
PHANTOMX2
 70
     0
  3
Phantom (2x) ____________    ____    ____   _
 72
    65
 73
     6
 40
127.0
 49
63.5
 74
     0
 49
-12.7
 74
     0
 49
12.7
 74
     0
 49
-12.7
 74
     0
 49
12.7
 74
     0
 49
-12.7
 74
     0
  0
LTYPE
  5
65
330
5
100
AcDbSymbolTableRecord
100
AcDbLinetypeTableRecord
  2
ACAD_ISO02W100
 70
     0
  3
ISO dash __ __ __ __ __ __ __ __ __ __ __ __ __
 72
    65
 73
     2
 40
15.0
 49
12.0
 74
     0
 49
-3.0
 74
     0
  0
LTYPE
  5
66
330
5
100
AcDbSymbolTableRecord
100
AcDbLinetypeTableRecord
  2
ACAD_ISO03W100
 70
     0
  3
ISO dash space __    __    __    __    __    __
 72
    65
 73
     2
 40
30.0
 49
12.0
 74
     0
 49
-18.0
 74
     0
  0
LTYPE
  5
67
330
5
100
AcDbSymbolTableRecord
100
AcDbLinetypeTableRecord
  2
ACAD_ISO04W100
 70
     0
  3
ISO long-dash dot ____ . ____ . ____ . ____ . _
 72
    65
 73
     4
 40
30.0
 49
24.0
 74
     0
 49
-3.0
 74
     0
 49
0.0
 74
     0
 49
-3.0
 74
     0
  0
LTYPE
  5
68
330
5
100
AcDbSymbolTableRecord
100
AcDbLinetypeTableRecord
  2
ACAD_ISO05W100
 70
     0
  3
ISO long-dash double-dot ____ .. ____ .. ____ .
 72
    65
 73
     6
 40
33.0
 49
24.0
 74
     0
 49
-3.0
 74
     0
 49
0.0
 74
     0
 49
-3.0
 74
     0
 49
0.0
 74
     0
 49
-3.0
 74
     0
  0
LTYPE
  5
69
330
5
100
AcDbSymbolTableRecord
100
AcDbLinetypeTableRecord
  2
ACAD_ISO06W100
 70
     0
  3
ISO long-dash triple-dot ____ ... ____ ... ____
 72
    65
 73
     8
 40
36.0
 49
24.0
 74
     0
 49
-3.0
 74
     0
 49
0.0
 74
     0
 49
-3.0
 74
     0
 49
0.0
 74
     0
 49
-3.0
 74
     0
 49
0.0
 74
     0
 49
-3.0
 74
     0
  0
LTYPE
  5
6A
330
5
100
AcDbSymbolTableRecord
100
AcDbLinetypeTableRecord
  2
ACAD_ISO07W100
 70
     0
  3
ISO dot . . . . . . . . . . . . . . . . . . . .
 72
    65
 73
     2
 40
3.0
 49
0.0
 74
     0
 49
-3.0
 74
     0
  0
LTYPE
  5
6B
330
5
100
AcDbSymbolTableRecord
100
AcDbLinetypeTableRecord
  2
ACAD_ISO08W100
 70
     0
  3
ISO long-dash short-dash ____ __ ____ __ ____ _
 72
    65
 73
     4
 40
36.0
 49
24.0
 74
     0
 49
-3.0
 74
     0
 49
6.0
 74
     0
 49
-3.0
 74
     0
  0
LTYPE
  5
6C
330
5
100
AcDbSymbolTableRecord
100
AcDbLinetypeTableRecord
  2
ACAD_ISO09W100
 70
     0
  3
ISO long-dash double-short-dash ____ __ __ ____
 72
    65
 73
     6
 40
45.0
 49
24.0
 74
     0
 49
-3.0
 74
     0
 49
6.0
 74
     0
 49
-3.0
 74
     0
 49
6.0
 74
     0
 49
-3.0
 74
     0
  0
LTYPE
  5
6D
330
5
100
AcDbSymbolTableRecord
100
AcDbLinetypeTableRecord
  2
ACAD_ISO10W100
 70
     0
  3
ISO dash dot __ . __ . __ . __ . __ . __ . __ .
 72
    65
 73
     4
 40
18.0
 49
12.0
 74
     0
 49
-3.0
 74
     0
 49
0.0
 74
     0
 49
-3.0
 74
     0
  0
LTYPE
  5
6E
330
5
100
AcDbSymbolTableRecord
100
AcDbLinetypeTableRecord
  2
ACAD_ISO11W100
 70
     0
  3
ISO double-dash dot __ __ . __ __ . __ __ . __ 
 72
    65
 73
     6
 40
33.0
 49
12.0
 74
     0
 49
-3.0
 74
     0
 49
12.0
 74
     0
 49
-3.0
 74
     0
 49
0.0
 74
     0
 49
-3.0
 74
     0
  0
LTYPE
  5
6F
330
5
100
AcDbSymbolTableRecord
100
AcDbLinetypeTableRecord
  2
ACAD_ISO12W100
 70
     0
  3
ISO dash double-dot __ . . __ . . __ . . __ . .
 72
    65
 73
     6
 40
21.0
 49
12.0
 74
     0
 49
-3.0
 74
     0
 49
0.0
 74
     0
 49
-3.0
 74
     0
 49
0.0
 74
     0
 49
-3.0
 74
     0
  0
LTYPE
  5
70
330
5
100
AcDbSymbolTableRecord
100
AcDbLinetypeTableRecord
  2
ACAD_ISO13W100
 70
     0
  3
ISO double-dash double-dot __ __ . . __ __ . . 
 72
    65
 73
     8
 40
36.0
 49
12.0
 74
     0
 49
-3.0
 74
     0
 49
12.0
 74
     0
 49
-3.0
 74
     0
 49
0.0
 74
     0
 49
-3.0
 74
     0
 49
0.0
 74
     0
 49
-3.0
 74
     0
  0
LTYPE
  5
71
330
5
100
AcDbSymbolTableRecord
100
AcDbLinetypeTableRecord
  2
ACAD_ISO14W100
 70
     0
  3
ISO dash triple-dot __ . . . __ . . . __ . . . 
 72
    65
 73
     8
 40
24.0
 49
12.0
 74
     0
 49
-3.0
 74
     0
 49
0.0
 74
     0
 49
-3.0
 74
     0
 49
0.0
 74
     0
 49
-3.0
 74
     0
 49
0.0
 74
     0
 49
-3.0
 74
     0
  0
LTYPE
  5
72
330
5
100
AcDbSymbolTableRecord
100
AcDbLinetypeTableRecord
  2
ACAD_ISO15W100
 70
     0
  3
ISO double-dash triple-dot __ __ . . . __ __ . 
 72
    65
 73
    10
 40
39.0
 49
12.0
 74
     0
 49
-3.0
 74
     0
 49
12.0
 74
     0
 49
-3.0
 74
     0
 49
0.0
 74
     0
 49
-3.0
 74
     0
 49
0.0
 74
     0
 49
-3.0
 74
     0
 49
0.0
 74
     0
 49
-3.0
 74
     0
  0
LTYPE
  5
75
330
5
100
AcDbSymbolTableRecord
100
AcDbLinetypeTableRecord
  2
FENCELINE1
 70
     0
  3
Fenceline circle ----0-----0----0-----0----0---
 72
    65
 73
     4
 40
36.83
 49
6.349999999999999
 74
     0
 49
-2.54
 74
     4
 75
   133
340
74
 46
2.54
 50
0.0
 44
-2.54
 45
0.0
 49
-2.54
 74
     0
 49
25.4
 74
     0
  0
LTYPE
  5
76
330
5
100
AcDbSymbolTableRecord
100
AcDbLinetypeTableRecord
  2
FENCELINE2
 70
     0
  3
Fenceline square ----[]-----[]----[]-----[]----
 72
    65
 73
     4
 40
36.83
 49
6.349999999999999
 74
     0
 49
-2.54
 74
     4
 75
   132
340
74
 46
2.54
 50
0.0
 44
-2.54
 45
0.0
 49
-2.54
 74
     0
 49
25.4
 74
     0
  0
LTYPE
  5
77
330
5
100
AcDbSymbolTableRecord
100
AcDbLinetypeTableRecord
  2
TRACKS
 70
     0
  3
Tracks -|-|-|-|-|-|-|-|-|-|-|-|-|-|-|-|-|-|-|-|
 72
    65
 73
     2
 40
7.62
 49
3.81
 74
     4
 75
   130
340
74
 46
6.349999999999999
 50
0.0
 44
0.0
 45
0.0
 49
3.81
 74
     0
  0
LTYPE
  5
78
330
5
100
AcDbSymbolTableRecord
100
AcDbLinetypeTableRecord
  2
BATTING
 70
     0
  3
Batting SSSSSSSSSSSSSSSSSSSSSSSSSSSSSSSSSSSSSSS
 72
    65
 73
     4
 40
10.16254
 49
0.00254
 74
     0
 49
-2.54
 74
     4
 75
   134
340
74
 46
2.54
 50
0.0
 44
-2.54
 45
0.0
 49
-5.08
 74
     4
 75
   134
340
74
 46
2.54
 50
180.0
 44
2.54
 45
0.0
 49
-2.54
 74
     0
  0
LTYPE
  5
79
330
5
100
AcDbSymbolTableRecord
100
AcDbLinetypeTableRecord
  2
HOT_WATER_SUPPLY
 70
     0
  3
Hot water supply ---- HW ---- HW ---- HW ----
 72
    65
 73
     3
 40
22.86
 49
12.7
 74
     0
 49
-5.08
 74
     2
 75
     0
340
26
 46
2.54
 50
0.0
 44
-2.54
 45
-1.27
  9
HW
 49
-5.08
 74
     0
  0
LTYPE
  5
7A
330
5
100
AcDbSymbolTableRecord
100
AcDbLinetypeTableRecord
  2
GAS_LINE
 70
     0
  3
Gas line ----GAS----GAS----GAS----GAS----GAS---
 72
    65
 73
     3
 40
24.13
 49
12.7
 74
     0
 49
-5.08
 74
     2
 75
     0
340
26
 46
2.54
 50
0.0
 44
-2.54
 45
-1.27
  9
GAS
 49
-6.349999999999999
 74
     0
  0
LTYPE
  5
7B
330
5
100
AcDbSymbolTableRecord
100
AcDbLinetypeTableRecord
  2
ZIGZAG
 70
     0
  3
Zig zag /\/\/\/\/\/\/\/\/\/\/\/\/\/\/\/\/\/\/\/
 72
    65
 73
     4
 40
20.32254
 49
0.00254
 74
     0
 49
-5.08
 74
     4
 75
   131
340
74
 46
5.08
 50
0.0
 44
-5.08
 45
0.0
 49
-10.16
 74
     4
 75
   131
340
74
 46
5.08
 50
180.0
 44
5.08
 45
0.0
 49
-5.08
 74
     0
  0
ENDTAB
  0
TABLE
  2
LAYER
  5
2
330
0
100
AcDbSymbolTable
 70
    25
  0
LAYER
  5
25
330
2
100
AcDbSymbolTableRecord
100
AcDbLayerTableRecord
  2
0
 70
     0
 62
     7
  6
Continuous
370
    -3
390
F
  0
LAYER
  5
8B
330
2
100
AcDbSymbolTableRecord
100
AcDbLayerTableRecord
  2
Schraffur (ISO)
 70
     0
 62
     7
  6
Continuous
370
    18
390
F
  0
LAYER
  5
8C
330
2
100
AcDbSymbolTableRecord
100
AcDbLayerTableRecord
  2
Sichtbar (ISO)
 70
     0
 62
     7
  6
Continuous
370
    35
390
F
  0
LAYER
  5
8E
330
2
100
AcDbSymbolTableRecord
100
AcDbLayerTableRecord
  2
Skizziergeometrie (ISO)
 70
     0
 62
     7
  6
Continuous
370
    25
390
F
  0
LAYER
  5
8F
330
2
100
AcDbSymbolTableRecord
100
AcDbLayerTableRecord
  2
Symbol (ISO)
 70
     0
 62
     7
  6
Continuous
370
    25
390
F
  0
LAYER
  5
90
330
2
100
AcDbSymbolTableRecord
100
AcDbLayerTableRecord
  2
Titel (ISO)
 70
     0
 62
     7
  6
Continuous
370
    50
390
F
  0
ENDTAB
  0
TABLE
  2
STYLE
  5
3
330
0
100
AcDbSymbolTable
 70
    12
  0
STYLE
  5
26
330
3
100
AcDbSymbolTableRecord
100
AcDbTextStyleTableRecord
  2
Standard
 70
     0
 40
0.0
 41
1.0
 50
0.0
 71
     0
 42
0.2
  3
isocpeur.ttf
  4

1001
ACAD
1000
ISOCPEUR
1071
      256
  0
STYLE
  5
74
330
3
100
AcDbSymbolTableRecord
100
AcDbTextStyleTableRecord
  2

 70
     1
 40
0.0
 41
1.0
 50
0.0
 71
     0
 42
0.2
  3
ltypeshp.shx
  4

  0
STYLE
  5
94
330
3
100
AcDbSymbolTableRecord
100
AcDbTextStyleTableRecord
  2
Bezeichnungstext (DIN)
 70
     0
 40
0.0
 41
1.0
 50
0.0
 71
     0
 42
0.2
  3
isocpeur.ttf
  4

1001
ACAD
1000
ISOCPEUR
1071
      256
  0
STYLE
  5
95
330
3
100
AcDbSymbolTableRecord
100
AcDbTextStyleTableRecord
  2
Notiztext (DIN)
 70
     0
 40
0.0
 41
1.0
 50
0.0
 71
     0
 42
0.2
  3
isocpeur.ttf
  4

1001
ACAD
1000
ISOCPEUR
1071
      256
  0
STYLE
  5
96
330
3
100
AcDbSymbolTableRecord
100
AcDbTextStyleTableRecord
  2
Plan_Kopf_01.5
 70
     0
 40
0.0
 41
0.899999976158142
 50
0.0
 71
     0
 42
0.2
  3
ARIAL.TTF
  4

1001
ACAD
1000
Arial
1071
      256
  0
STYLE
  5
97
330
3
100
AcDbSymbolTableRecord
100
AcDbTextStyleTableRecord
  2
Plan_Kopf_02.0
 70
     0
 40
0.0
 41
0.899999976158142
 50
0.0
 71
     0
 42
0.2
  3
ARIAL.TTF
  4

1001
ACAD
1000
Arial
1071
      256
  0
STYLE
  5
98
330
3
100
AcDbSymbolTableRecord
100
AcDbTextStyleTableRecord
  2
Plan_Kopf_02.5
 70
     0
 40
0.0
 41
0.899999976158142
 50
0.0
 71
     0
 42
0.2
  3
ARIAL.TTF
  4

1001
ACAD
1000
Arial
1071
      256
  0
STYLE
  5
99
330
3
100
AcDbSymbolTableRecord
100
AcDbTextStyleTableRecord
  2
Plan_Kopf_05.0
 70
     0
 40
0.0
 41
0.899999976158142
 50
0.0
 71
     0
 42
0.2
  3
ARIAL.TTF
  4

1001
ACAD
1000
Arial
1071
      256
  0
STYLE
  5
9A
330
3
100
AcDbSymbolTableRecord
100
AcDbTextStyleTableRecord
  2
Stückliste
 70
     0
 40
0.0
 41
0.899999976158142
 50
0.0
 71
     0
 42
0.2
  3
isocpeur.ttf
  4

1001
ACAD
1000
ISOCPEUR
1071
      256
  0
STYLE
  5
9B
330
3
100
AcDbSymbolTableRecord
100
AcDbTextStyleTableRecord
  2
TolListe_12
 70
     0
 40
0.0
 41
1.0
 50
0.0
 71
     0
 42
0.2
  3
isocpeur.ttf
  4

1001
ACAD
1000
ISOCPEUR
1071
      256
  0
STYLE
  5
FE
330
3
100
AcDbSymbolTableRecord
100
AcDbTextStyleTableRecord
  2
TolListe_12-AIGDT
 70
     0
 40
0.0
 41
1.0
 50
0.0
 71
     0
 42
0.2
  3
AIGDT___.TTF
  4

1001
ACAD
1000
AIGDT
1071
      514
  0
STYLE
  5
157
330
3
100
AcDbSymbolTableRecord
100
AcDbTextStyleTableRecord
  2
TolListe_12-Arial
 70
     0
 40
0.0
 41
1.100000023841857
 50
0.0
 71
     0
 42
0.2
  3

  4

1001
ACAD
1000
Arial
1071
-33554176
  0
ENDTAB
  0
TABLE
  2
VIEW
  5
6
330
0
100
AcDbSymbolTable
 70
     0
  0
ENDTAB
  0
TABLE
  2
UCS
  5
7
330
0
100
AcDbSymbolTable
 70
     0
  0
ENDTAB
  0
TABLE
  2
APPID
  5
9
330
0
100
AcDbSymbolTable
 70
     1
  0
APPID
  5
27
330
9
100
AcDbSymbolTableRecord
100
AcDbRegAppTableRecord
  2
ACAD
 70
     0
  0
ENDTAB
  0
TABLE
  2
DIMSTYLE
  5
A
330
0
100
AcDbSymbolTable
 70
    11
100
AcDbDimStyleTable
 71
     0
  0
DIMSTYLE
105
3F
330
A
100
AcDbSymbolTableRecord
100
AcDbDimStyleTableRecord
  2
Standard
 70
     0
340
26
  0
DIMSTYLE
105
AA
330
A
100
AcDbSymbolTableRecord
100
AcDbDimStyleTableRecord
  2
Sonstiges Objekt (DIN)
 70
     0
 40
5.0
 41
5.0
 42
0.0
 43
6.0
 44
3.174999999999999
 45
0.00000001
 46
10.0
 77
     1
 78
     8
 79
     2
140
5.25
143
0.03937
146
0.6666666666666666
147
0.8
171
     3
172
     1
176
   256
177
   256
178
   256
271
     2
272
     2
274
     3
278
    44
284
     8
286
     8
340
94
341
9C
371
    -1
372
    -1
  0
DIMSTYLE
105
AB
330
A
100
AcDbSymbolTableRecord
100
AcDbDimStyleTableRecord
  2
Sonstiges Objekt (DIN)$7
 70
     0
 40
5.0
 41
5.0
 42
0.0
 43
6.0
 44
3.174999999999999
 45
0.00000001
 46
10.0
 77
     1
 78
     8
 79
     2
140
5.25
143
0.03937
146
0.6666666666666666
147
0.8
171
     3
172
     1
176
   256
177
   256
178
   256
271
     2
272
     2
274
     3
278
    44
284
     8
286
     8
340
94
341
9C
371
    25
372
    -1
  0
DIMSTYLE
105
AC
330
A
100
AcDbSymbolTableRecord
100
AcDbDimStyleTableRecord
  2
Standard - Methode 2a (DIN)
 70
     0
 40
5.0
 41
2.5
 42
0.8
 43
6.0
 44
3.174999999999999
 45
0.00000001
 46
10.0
 77
     1
 78
     8
 79
     2
140
3.5
143
0.03937
147
0.8
170
     1
171
     3
172
     1
176
   256
177
   256
178
   256
179
     2
271
     2
272
     2
274
     3
278
    44
284
     8
286
     8
340
95
371
    -1
372
    -1
  0
DIMSTYLE
105
AD
330
A
100
AcDbSymbolTableRecord
100
AcDbDimStyleTableRecord
  2
Standard - Methode 2a (DIN)$7
 70
     0
 40
5.0
 41
2.5
 42
0.8
 43
6.0
 44
3.174999999999999
 45
0.00000001
 46
10.0
 77
     1
 78
     8
 79
     2
140
3.5
143
0.03937
147
0.8
170
     1
171
     3
172
     1
176
   256
177
   256
178
   256
179
     2
271
     2
272
     2
274
     3
278
    44
284
     8
286
     8
340
95
371
    -1
372
    -1
  0
DIMSTYLE
105
AE
330
A
100
AcDbSymbolTableRecord
100
AcDbDimStyleTableRecord
  2
Standard - Methode 2b (DIN)
 70
     0
 40
5.0
 41
2.5
 42
0.0
 43
6.0
 44
3.174999999999999
 45
0.00000001
 46
10.0
 77
     1
 78
     8
 79
     2
140
3.5
143
0.03937
147
0.8
171
     3
172
     1
176
   256
177
   256
178
   256
271
     2
272
     2
274
     3
278
    44
284
     8
286
     8
340
95
371
    -1
372
    -1
  0
DIMSTYLE
105
AF
330
A
100
AcDbSymbolTableRecord
100
AcDbDimStyleTableRecord
  2
Standard - Methode 2b (DIN)$7
 70
     0
 40
5.0
 41
2.5
 42
0.0
 43
6.0
 44
3.174999999999999
 45
0.00000001
 46
10.0
 77
     1
 78
     8
 79
     2
140
3.5
143
0.03937
147
0.8
171
     3
172
     1
176
   256
177
   256
178
   256
271
     2
272
     2
274
     3
278
    44
284
     8
286
     8
340
95
371
    -1
372
    -1
  0
DIMSTYLE
105
B0
330
A
100
AcDbSymbolTableRecord
100
AcDbDimStyleTableRecord
  2
Standard (DIN)
 70
     0
 40
5.0
 41
2.5
 42
0.8
 43
6.0
 44
3.174999999999999
 45
0.00000001
 46
10.0
 73
     0
 74
     0
 77
     1
 78
     8
 79
     2
140
3.5
143
0.03937
147
0.8
171
     3
172
     1
176
   256
177
   256
178
   256
271
     2
272
     3
274
     3
278
    44
340
95
371
    -1
372
    -1
  0
DIMSTYLE
105
B1
330
A
100
AcDbSymbolTableRecord
100
AcDbDimStyleTableRecord
  2
Standard (DIN)$7
 70
     0
 40
5.0
 41
2.5
 42
0.8
 43
6.0
 44
3.174999999999999
 45
0.00000001
 46
10.0
 73
     0
 74
     0
 77
     1
 78
     8
 79
     2
140
3.5
143
0.03937
147
0.8
171
     3
172
     1
176
   256
177
   256
178
   256
271
     2
272
     3
274
     3
278
    44
340
95
371
    -1
372
    -1
  0
DIMSTYLE
105
B2
330
A
100
AcDbSymbolTableRecord
100
AcDbDimStyleTableRecord
  2
Alternativ (ISO)
 70
     0
 40
5.0
 41
2.5
340
26
342
B3
  0
DIMSTYLE
105
C4
330
A
100
AcDbSymbolTableRecord
100
AcDbDimStyleTableRecord
  2
Bezug (ISO)
 70
     0
 40
5.0
 41
2.5
340
26
342
B3
  0
ENDTAB
  0
TABLE
  2
BLOCK_RECORD
  5
1
330
0
100
AcDbSymbolTable
 70
     8
  0
BLOCK_RECORD
  5
37
330
1
100
AcDbSymbolTableRecord
100
AcDbBlockTableRecord
  2
*Model_Space
340
3A
  0
BLOCK_RECORD
  5
33
330
1
100
AcDbSymbolTableRecord
100
AcDbBlockTableRecord
  2
*Paper_Space
340
36
  0
BLOCK_RECORD
  5
3B
330
1
100
AcDbSymbolTableRecord
100
AcDbBlockTableRecord
  2
*Paper_Space0
340
3E
  0
BLOCK_RECORD
  5
9C
330
1
100
AcDbSymbolTableRecord
100
AcDbBlockTableRecord
  2
Filled-1
340
0
  0
BLOCK_RECORD
  5
B3
330
1
100
AcDbSymbolTableRecord
100
AcDbBlockTableRecord
  2
_Closed
340
0
  0
BLOCK_RECORD
  5
BA
330
1
100
AcDbSymbolTableRecord
100
AcDbBlockTableRecord
  2
DatumFilled45
340
0
  0
BLOCK_RECORD
  5
C5
330
1
100
AcDbSymbolTableRecord
100
AcDbBlockTableRecord
  2
Tolleranz Liste
340
0
  0
BLOCK_RECORD
  5
15F
330
1
100
AcDbSymbolTableRecord
100
AcDbBlockTableRecord
  2
ProtoTyp
340
0
  0
BLOCK_RECORD
  5
164
330
1
100
AcDbSymbolTableRecord
100
AcDbBlockTableRecord
  2
Logo
340
0
  0
BLOCK_RECORD
  5
1E1
330
1
100
AcDbSymbolTableRecord
100
AcDbBlockTableRecord
  2
P gross
340
0
102
{BLKREFS
331
339
331
33A
331
33B
102
}
  0
ENDTAB
  0
ENDSEC
  0
SECTION
  2
BLOCKS
  0
BLOCK
  5
38
330
37
100
AcDbEntity
  8
0
100
AcDbBlockBegin
  2
*Model_Space
 70
     0
 10
0.0
 20
0.0
 30
0.0
  3
*Model_Space
  1

  0
ENDBLK
  5
39
330
37
100
AcDbEntity
  8
0
100
AcDbBlockEnd
  0
BLOCK
  5
34
330
33
100
AcDbEntity
 67
     1
  8
0
100
AcDbBlockBegin
  2
*Paper_Space
 70
     0
 10
0.0
 20
0.0
 30
0.0
  3
*Paper_Space
  1

  0
ENDBLK
  5
35
330
33
100
AcDbEntity
 67
     1
  8
0
100
AcDbBlockEnd
  0
BLOCK
  5
3C
330
3B
100
AcDbEntity
 67
     1
  8
0
100
AcDbBlockBegin
  2
*Paper_Space0
 70
     0
 10
0.0
 20
0.0
 30
0.0
  3
*Paper_Space0
  1

  0
ENDBLK
  5
3D
330
3B
100
AcDbEntity
 67
     1
  8
0
100
AcDbBlockEnd
  0
BLOCK
  5
9D
330
9C
100
AcDbEntity
  8
0
100
AcDbBlockBegin
  2
Filled-1
 70
     0
 10
0.0
 20
0.0
 30
0.0
  3
Filled-1
  1

  0
LINE
  5
9F
330
9C
100
AcDbEntity
  8
0
 62
     0
100
AcDbLine
 10
-1.0
 20
0.0
 30
0.0
 11
0.0
 21
0.0
 31
0.0
  0
POLYLINE
  5
A0
330
9C
100
AcDbEntity
  8
0
 62
     0
100
AcDb2dPolyline
 66
     1
 10
0.0
 20
0.0
 30
0.0
 70
   128
  0
VERTEX
  5
A1
330
A0
100
AcDbEntity
  8
0
 62
     0
100
AcDbVertex
100
AcDb2dVertex
 10
-1.0
 20
-0.1
 30
0.0
  0
VERTEX
  5
A2
330
A0
100
AcDbEntity
  8
0
 62
     0
100
AcDbVertex
100
AcDb2dVertex
 10
0.0
 20
0.0
 30
0.0
  0
VERTEX
  5
A4
330
A0
100
AcDbEntity
  8
0
 62
     0
100
AcDbVertex
100
AcDb2dVertex
 10
-1.0
 20
0.1
 30
0.0
  0
VERTEX
  5
A5
330
A0
100
AcDbEntity
  8
0
 62
     0
100
AcDbVertex
100
AcDb2dVertex
 10
-1.0
 20
-0.1
 30
0.0
  0
SEQEND
  5
A3
330
A0
100
AcDbEntity
  8
0
 62
     0
  0
SOLID
  5
A6
330
9C
100
AcDbEntity
  8
0
 62
     0
100
AcDbTrace
 10
-1.0
 20
-0.1
 30
0.0
 11
0.0
 21
0.0
 31
0.0
 12
-1.0
 22
0.1
 32
0.0
 13
-1.0
 23
-0.1
 33
0.0
  0
LINE
  5
A7
330
9C
100
AcDbEntity
  8
0
 62
     0
100
AcDbLine
 10
-1.0
 20
-0.1
 30
0.0
 11
0.0
 21
0.0
 31
0.0
  0
LINE
  5
A8
330
9C
100
AcDbEntity
  8
0
 62
     0
100
AcDbLine
 10
0.0
 20
0.0
 30
0.0
 11
-1.0
 21
0.1
 31
0.0
  0
LINE
  5
A9
330
9C
100
AcDbEntity
  8
0
 62
     0
100
AcDbLine
 10
-1.0
 20
0.1
 30
0.0
 11
-1.0
 21
-0.1
 31
0.0
  0
ENDBLK
  5
9E
330
9C
100
AcDbEntity
  8
0
100
AcDbBlockEnd
  0
BLOCK
  5
B8
330
B3
100
AcDbEntity
  8
0
100
AcDbBlockBegin
  2
_Closed
 70
     0
 10
0.0
 20
0.0
 30
0.0
  3
_Closed
  1

  0
LINE
  5
B4
330
B3
100
AcDbEntity
  8
0
  6
ByBlock
 62
     0
370
    -2
100
AcDbLine
 10
-1.0
 20
0.1666666666666666
 30
0.0
 11
0.0
 21
0.0
 31
0.0
  0
LINE
  5
B5
330
B3
100
AcDbEntity
  8
0
  6
ByBlock
 62
     0
370
    -2
100
AcDbLine
 10
0.0
 20
0.0
 30
0.0
 11
-1.0
 21
-0.1666666666666666
 31
0.0
  0
LINE
  5
B6
330
B3
100
AcDbEntity
  8
0
  6
ByBlock
 62
     0
370
    -2
100
AcDbLine
 10
-1.0
 20
0.1666666666666666
 30
0.0
 11
-1.0
 21
-0.1666666666666666
 31
0.0
  0
LINE
  5
B7
330
B3
100
AcDbEntity
  8
0
  6
ByBlock
 62
     0
370
    -2
100
AcDbLine
 10
0.0
 20
0.0
 30
0.0
 11
-1.0
 21
0.0
 31
0.0
  0
ENDBLK
  5
B9
330
B3
100
AcDbEntity
  8
0
100
AcDbBlockEnd
  0
BLOCK
  5
BB
330
BA
100
AcDbEntity
  8
0
100
AcDbBlockBegin
  2
DatumFilled45
 70
     0
 10
0.0
 20
0.0
 30
0.0
  3
DatumFilled45
  1

  0
POLYLINE
  5
BD
330
BA
100
AcDbEntity
  8
0
 62
     0
100
AcDb2dPolyline
 66
     1
 10
0.0
 20
0.0
 30
0.0
 70
   128
  0
VERTEX
  5
BE
330
BD
100
AcDbEntity
  8
0
 62
     0
100
AcDbVertex
100
AcDb2dVertex
 10
0.0
 20
1.0
 30
0.0
  0
VERTEX
  5
BF
330
BD
100
AcDbEntity
  8
0
 62
     0
100
AcDbVertex
100
AcDb2dVertex
 10
0.0
 20
-1.0
 30
0.0
  0
VERTEX
  5
C1
330
BD
100
AcDbEntity
  8
0
 62
     0
100
AcDbVertex
100
AcDb2dVertex
 10
-1.0
 20
0.0
 30
0.0
  0
VERTEX
  5
C2
330
BD
100
AcDbEntity
  8
0
 62
     0
100
AcDbVertex
100
AcDb2dVertex
 10
0.0
 20
1.0
 30
0.0
  0
SEQEND
  5
C0
330
BD
100
AcDbEntity
  8
0
 62
     0
  0
SOLID
  5
C3
330
BA
100
AcDbEntity
  8
0
 62
     0
100
AcDbTrace
 10
0.0
 20
1.0
 30
0.0
 11
0.0
 21
-1.0
 31
0.0
 12
-1.0
 22
0.0
 32
0.0
 13
0.0
 23
1.0
 33
0.0
  0
ENDBLK
  5
BC
330
BA
100
AcDbEntity
  8
0
100
AcDbBlockEnd
  0
BLOCK
  5
C6
330
C5
100
AcDbEntity
  8
0
100
AcDbBlockBegin
  2
Tolleranz Liste
 70
     2
 10
0.0
 20
0.0
 30
0.0
  3
Tolleranz Liste
  1

  0
LINE
  5
C8
330
C5
100
AcDbEntity
  8
Titel (ISO)
 62
     7
100
AcDbLine
 10
-190.0
 20
0.0
 30
0.0
 11
0.0
 21
0.0
 31
0.0
  0
LINE
  5
C9
330
C5
100
AcDbEntity
  8
Titel (ISO)
 62
     7
370
    18
100
AcDbLine
 10
-190.0
 20
2.999999999999989
 30
0.0
 11
0.0
 21
2.999999999999989
 31
0.0
  0
LINE
  5
CA
330
C5
100
AcDbEntity
  8
Titel (ISO)
 62
     7
370
    18
100
AcDbLine
 10
-190.0
 20
5.999999999999978
 30
0.0
 11
0.0
 21
5.999999999999978
 31
0.0
  0
LINE
  5
CB
330
C5
100
AcDbEntity
  8
Titel (ISO)
 62
     7
370
    18
100
AcDbLine
 10
-190.0
 20
8.999999999999968
 30
0.0
 11
0.0
 21
8.999999999999968
 31
0.0
  0
LINE
  5
CC
330
C5
100
AcDbEntity
  8
Titel (ISO)
 62
     7
100
AcDbLine
 10
-190.0
 20
18.99999999999996
 30
0.0
 11
0.0
 21
18.99999999999996
 31
0.0
  0
LINE
  5
CD
330
C5
100
AcDbEntity
  8
Titel (ISO)
 62
     7
370
    18
100
AcDbLine
 10
-130.861111
 20
13.7701170573068
 30
0.0
 11
-130.861111
 21
0.0
 31
0.0
  0
LINE
  5
CE
330
C5
100
AcDbEntity
  8
Titel (ISO)
 62
     7
370
    18
100
AcDbLine
 10
-162.972222
 20
13.7701170573068
 30
0.0
 11
-162.972222
 21
0.0
 31
0.0
  0
LINE
  5
CF
330
C5
100
AcDbEntity
  8
Titel (ISO)
 62
     7
370
    18
100
AcDbLine
 10
-154.944444
 20
13.7701170573068
 30
0.0
 11
-154.944444
 21
0.0
 31
0.0
  0
LINE
  5
D0
330
C5
100
AcDbEntity
  8
Titel (ISO)
 62
     7
370
    18
100
AcDbLine
 10
-146.916667
 20
13.7701170573068
 30
0.0
 11
-146.916667
 21
0.0
 31
0.0
  0
LINE
  5
D1
330
C5
100
AcDbEntity
  8
Titel (ISO)
 62
     7
370
    18
100
AcDbLine
 10
-138.888889
 20
13.7701170573068
 30
0.0
 11
-138.888889
 21
0.0
 31
0.0
  0
LINE
  5
D2
330
C5
100
AcDbEntity
  8
Titel (ISO)
 62
     7
370
    18
100
AcDbLine
 10
-183.25
 20
9.070117057306816
 30
0.0
 11
-183.25
 21
0.0
 31
0.0
  0
LINE
  5
D3
330
C5
100
AcDbEntity
  8
Titel (ISO)
 62
     7
100
AcDbLine
 10
-190.0
 20
18.99999999999996
 30
0.0
 11
-190.0
 21
0.0
 31
0.0
  0
LINE
  5
D4
330
C5
100
AcDbEntity
  8
Titel (ISO)
 62
     7
100
AcDbLine
 10
-171.0
 20
18.99999999999996
 30
0.0
 11
-171.0
 21
0.0
 31
0.0
  0
LINE
  5
D5
330
C5
100
AcDbEntity
  8
Titel (ISO)
 62
     7
370
    18
100
AcDbLine
 10
-190.0
 20
11.99999999999997
 30
0.0
 11
-171.0
 21
11.99999999999995
 31
0.0
  0
LINE
  5
D6
330
C5
100
AcDbEntity
  8
Titel (ISO)
  6
ByBlock
 62
     7
370
    25
100
AcDbLine
 10
-105.0
 20
7.570117057306813
 30
0.0
 11
-103.5
 21
7.570117057306813
 31
0.0
  0
LINE
  5
D7
330
C5
100
AcDbEntity
  8
Titel (ISO)
  6
ByBlock
 62
     7
370
    25
100
AcDbLine
 10
-112.5
 20
7.570117057306813
 30
0.0
 11
-111.0
 21
7.570117057306813
 31
0.0
  0
LINE
  5
D8
330
C5
100
AcDbEntity
  8
Titel (ISO)
 62
     7
370
    18
100
AcDbLine
 10
-122.833333
 20
13.7701170573068
 30
0.0
 11
-122.833333
 21
0.0
 31
0.0
  0
LINE
  5
D9
330
C5
100
AcDbEntity
  8
Titel (ISO)
 62
     7
370
    18
100
AcDbLine
 10
-114.805556
 20
13.7701170573068
 30
0.0
 11
-114.805556
 21
0.0
 31
0.0
  0
LINE
  5
DA
330
C5
100
AcDbEntity
  8
Titel (ISO)
 62
     7
370
    18
100
AcDbLine
 10
-106.777778
 20
13.7701170573068
 30
0.0
 11
-106.777778
 21
0.0
 31
0.0
  0
LINE
  5
DB
330
C5
100
AcDbEntity
  8
Titel (ISO)
 62
     7
100
AcDbLine
 10
-99.25000000000004
 20
18.99999999999996
 30
0.0
 11
-99.25000000000004
 21
0.0
 31
0.0
  0
LINE
  5
DC
330
C5
100
AcDbEntity
  8
Titel (ISO)
 62
     7
370
    18
100
AcDbLine
 10
-95.75000000000002
 20
6.070117057306809
 30
0.0
 11
-95.75000000000002
 21
0.0
 31
0.0
  0
LINE
  5
DD
330
C5
100
AcDbEntity
  8
Titel (ISO)
 62
     7
370
    18
100
AcDbLine
 10
-50.75000000000002
 20
6.070117057306809
 30
0.0
 11
-50.75000000000002
 21
0.0
 31
0.0
  0
LINE
  5
DE
330
C5
100
AcDbEntity
  8
Titel (ISO)
 62
     7
370
    18
100
AcDbLine
 10
-60.25000000000002
 20
6.070117057306809
 30
0.0
 11
-60.25000000000002
 21
0.0
 31
0.0
  0
LINE
  5
DF
330
C5
100
AcDbEntity
  8
Titel (ISO)
 62
     7
370
    18
100
AcDbLine
 10
-69.75000000000001
 20
13.7701170573068
 30
0.0
 11
-69.75000000000001
 21
9.070117057306816
 31
0.0
  0
LINE
  5
E0
330
C5
100
AcDbEntity
  8
Titel (ISO)
 62
     7
370
    18
100
AcDbLine
 10
-60.25000000000002
 20
13.7701170573068
 30
0.0
 11
-60.25000000000002
 21
9.070117057306816
 31
0.0
  0
LINE
  5
E1
330
C5
100
AcDbEntity
  8
Titel (ISO)
 62
     7
370
    18
100
AcDbLine
 10
-50.75000000000002
 20
13.7701170573068
 30
0.0
 11
-50.75000000000002
 21
9.070117057306816
 31
0.0
  0
LINE
  5
E2
330
C5
100
AcDbEntity
  8
Titel (ISO)
 62
     7
370
    18
100
AcDbLine
 10
-30.93750000000003
 20
13.7701170573068
 30
0.0
 11
-30.93750000000003
 21
9.070117057306816
 31
0.0
  0
LINE
  5
E3
330
C5
100
AcDbEntity
  8
Titel (ISO)
 62
     7
370
    18
100
AcDbLine
 10
-20.88650000000005
 20
6.070117057306809
 30
0.0
 11
-20.88650000000005
 21
0.0
 31
0.0
  0
LINE
  5
E4
330
C5
100
AcDbEntity
  8
Titel (ISO)
 62
     7
370
    18
100
AcDbLine
 10
-20.88650000000005
 20
13.7701170573068
 30
0.0
 11
-20.88650000000005
 21
9.070117057306816
 31
0.0
  0
LINE
  5
E5
330
C5
100
AcDbEntity
  8
Titel (ISO)
 62
     7
370
    18
100
AcDbLine
 10
-10.31250000000003
 20
13.7701170573068
 30
0.0
 11
-10.31250000000003
 21
9.070117057306816
 31
0.0
  0
LINE
  5
E6
330
C5
100
AcDbEntity
  8
Titel (ISO)
 62
     7
370
    18
100
AcDbLine
 10
-10.31250000000003
 20
6.070117057306809
 30
0.0
 11
-10.31250000000003
 21
0.0
 31
0.0
  0
LINE
  5
E7
330
C5
100
AcDbEntity
  8
Titel (ISO)
 62
     7
370
    18
100
AcDbLine
 10
-30.93750000000003
 20
6.070117057306809
 30
0.0
 11
-30.93750000000003
 21
0.0
 31
0.0
  0
LINE
  5
E8
330
C5
100
AcDbEntity
  8
Titel (ISO)
 62
     7
100
AcDbLine
 10
0.0
 20
0.0
 30
0.0
 11
0.0
 21
18.99999999999996
 31
0.0
  0
LINE
  5
E9
330
C5
100
AcDbEntity
  8
Titel (ISO)
 62
     7
370
    18
100
AcDbLine
 10
-69.75000000000001
 20
6.070117057306809
 30
0.0
 11
-69.75000000000001
 21
0.0
 31
0.0
  0
LINE
  5
EA
330
C5
100
AcDbEntity
  8
Titel (ISO)
 62
     7
100
AcDbLine
 10
-79.25000000000003
 20
18.99999999999996
 30
0.0
 11
-79.25000000000003
 21
0.0
 31
0.0
  0
LINE
  5
EB
330
C5
100
AcDbEntity
  8
Titel (ISO)
370
    18
100
AcDbLine
 10
-40.98894210789946
 20
8.999999999999968
 30
0.0
 11
-40.98894210789946
 21
13.7701170573068
 31
0.0
  0
LINE
  5
EC
330
C5
100
AcDbEntity
  8
Titel (ISO)
370
    18
100
AcDbLine
 10
-40.81485039283569
 20
5.999999999999978
 30
0.0
 11
-40.81485039283569
 21
0.0
 31
0.0
  0
SPLINE
  5
ED
330
C5
100
AcDbEntity
  8
Titel (ISO)
 62
     7
370
    18
100
AcDbSpline
210
0.0
220
0.0
230
1.0
 70
     8
 71
     4
 72
    15
 73
    10
 74
     0
 42
0.0000000001
 43
0.0000000001
 40
0.0
 40
0.0
 40
0.0
 40
0.0
 40
0.0
 40
0.2448862522902173
 40
0.372542829838283
 40
0.537712414826782
 40
0.6892572885860062
 40
0.7957086571447725
 40
1.0
 40
1.0
 40
1.0
 40
1.0
 40
1.0
 10
-66.28694873925519
 20
7.64651126040853
 30
0.0
 10
-66.28992133139053
 20
7.684326472464615
 30
0.0
 10
-66.30278798934259
 20
7.801058419170612
 30
0.0
 10
-66.54106167347689
 20
7.859647761643628
 30
0.0
 10
-66.76118299621641
 20
7.833028120844396
 30
0.0
 10
-66.95021102053759
 20
7.740235927209404
 30
0.0
 10
-66.9202360191262
 20
7.49058708009608
 30
0.0
 10
-66.82199748484567
 20
7.453245599066988
 30
0.0
 10
-66.75742436020357
 20
7.442433905354555
 30
0.0
 10
-66.71777189204616
 20
7.426104053762667
 30
0.0
  0
LINE
  5
EE
330
C5
100
AcDbEntity
  8
0
100
AcDbLine
 10
-66.26659572485762
 20
7.671004611388436
 30
0.0
 11
-66.37244477211755
 21
7.81624801356239
 31
0.0
  0
ARC
  5
EF
330
C5
100
AcDbEntity
  8
0
100
AcDbCircle
 10
-66.45038101106777
 20
7.648258902765228
 30
0.0
 40
0.1619243095334992
100
AcDbArc
 50
12.14398738960057
 51
60.02290540986514
  0
LINE
  5
F0
330
C5
100
AcDbEntity
  8
0
100
AcDbLine
 10
-66.89670837859369
 20
7.487238148935002
 30
0.0
 11
-66.71468159031151
 21
7.422119968654339
 31
0.0
  0
ARC
  5
F1
330
C5
100
AcDbEntity
  8
0
100
AcDbCircle
 10
-66.6890673438411
 20
7.78069177527314
 30
0.0
 40
0.3462460077174544
100
AcDbArc
 50
237.7261995458496
 51
262.9055232599758
  0
SPLINE
  5
F2
330
C5
100
AcDbEntity
  8
Titel (ISO)
 62
     7
370
    18
100
AcDbSpline
210
0.0
220
0.0
230
1.0
 70
     8
 71
     4
 72
    12
 73
     7
 74
     0
 42
0.0000000001
 43
0.0000000001
 40
0.0
 40
0.0
 40
0.0
 40
0.0
 40
0.0
 40
0.3933269697832906
 40
0.5579414211012799
 40
1.0
 40
1.0
 40
1.0
 40
1.0
 40
1.0
 10
-66.7177718920461
 20
7.426104053762667
 30
0.0
 10
-66.94102867992272
 20
7.36506224211622
 30
0.0
 10
-66.95038095686311
 20
7.40547820884279
 30
0.0
 10
-67.03925767066545
 20
6.865044071034649
 30
0.0
 10
-66.44367713306704
 20
6.956885902430158
 30
0.0
 10
-66.3418945025619
 20
7.013553608348583
 30
0.0
 10
-66.25537378160072
 20
7.154138853519782
 30
0.0
  0
SPLINE
  5
F3
330
C5
100
AcDbEntity
  8
Titel (ISO)
 62
     7
370
    18
100
AcDbSpline
210
0.0
220
0.0
230
1.0
 70
     8
 71
     4
 72
    12
 73
     7
 74
     0
 42
0.0000000001
 43
0.0000000001
 40
0.0
 40
0.0
 40
0.0
 40
0.0
 40
0.0
 40
0.3872212693569691
 40
0.5575199507602742
 40
1.0
 40
1.0
 40
1.0
 40
1.0
 40
1.0
 10
-23.59108108251476
 20
7.528905781183539
 30
0.0
 10
-23.70063657153558
 20
7.500278841709757
 30
0.0
 10
-23.87007003961081
 20
7.495055014400904
 30
0.0
 10
-23.87709660835664
 20
6.981211874419681
 30
0.0
 10
-23.33833653350904
 20
7.052090909862052
 30
0.0
 10
-23.20493964281642
 20
7.119913147019296
 30
0.0
 10
-23.12868297206911
 20
7.256940580940742
 30
0.0
  0
SPLINE
  5
F4
330
C5
100
AcDbEntity
  8
Titel (ISO)
 62
     7
370
    18
100
AcDbSpline
210
0.0
220
0.0
230
1.0
 70
     8
 71
     4
 72
    15
 73
    10
 74
     0
 42
0.0000000001
 43
0.0000000001
 40
0.0
 40
0.0
 40
0.0
 40
0.0
 40
0.0
 40
0.2448862522902173
 40
0.372542829838283
 40
0.537712414826782
 40
0.6892572885860062
 40
0.7957086571447725
 40
1.0
 40
1.0
 40
1.0
 40
1.0
 40
1.0
 10
-23.16025792972365
 20
7.74931298782949
 30
0.0
 10
-23.16323052185901
 20
7.787128199885575
 30
0.0
 10
-23.17609717981107
 20
7.903860146591572
 30
0.0
 10
-23.41437086394535
 20
7.962449489064589
 30
0.0
 10
-23.63449218668485
 20
7.935829848265356
 30
0.0
 10
-23.82352021100605
 20
7.843037654630364
 30
0.0
 10
-23.79354520959467
 20
7.59338880751704
 30
0.0
 10
-23.69530667531414
 20
7.556047326487949
 30
0.0
 10
-23.630733550672
 20
7.545235632775515
 30
0.0
 10
-23.59108108251462
 20
7.528905781183627
 30
0.0
  0
LINE
  5
F5
330
C5
100
AcDbEntity
  8
Skizziergeometrie (ISO)
100
AcDbLine
 10
-23.13990491532607
 20
7.773806338809468
 30
0.0
 11
-23.24575396258602
 21
7.91904974098335
 31
0.0
  0
LINE
  5
F6
330
C5
100
AcDbEntity
  8
Skizziergeometrie (ISO)
100
AcDbLine
 10
-23.77001756906214
 20
7.590039876355962
 30
0.0
 11
-23.5879907807799
 21
7.524921696075281
 31
0.0
  0
ARC
  5
F7
330
C5
100
AcDbEntity
  8
Skizziergeometrie (ISO)
100
AcDbCircle
 10
-23.32369020153624
 20
7.75106063018617
 30
0.0
 40
0.1619243095335294
100
AcDbArc
 50
12.14398738962304
 51
60.02290540987669
  0
ARC
  5
F8
330
C5
100
AcDbEntity
  8
Skizziergeometrie (ISO)
100
AcDbCircle
 10
-23.56237653430956
 20
7.883493502694083
 30
0.0
 40
0.3462460077174411
100
AcDbArc
 50
237.7261995458445
 51
262.9055232599874
  0
TEXT
  5
F9
330
C5
100
AcDbEntity
  8
Titel (ISO)
 62
     7
100
AcDbText
 10
-67.77000000000001
 20
10.07011705730681
 30
0.0
 40
1.500000059604644
  1
...50
  7
TolListe_12
100
AcDbText
  0
TEXT
  5
FB
330
C5
100
AcDbEntity
  8
Titel (ISO)
 62
     7
100
AcDbText
 10
-67.77000000000001
 20
12.47011705730679
 30
0.0
 40
1.500000059604644
  1
>  10
  7
TolListe_12
100
AcDbText
  0
TEXT
  5
FC
330
C5
100
AcDbEntity
  8
Titel (ISO)
 62
     7
100
AcDbText
 10
-77.52000000000001
 20
6.970117057306808
 30
0.0
 40
1.500000059604644
  1
Abmasse ±   Grad und Minuten)
  7
TolListe_12
100
AcDbText
  0
TEXT
  5
FD
330
C5
100
AcDbEntity
  8
Titel (ISO)
 62
     7
100
AcDbText
 10
-77.27000000000001
 20
10.07011705730681
 30
0.0
 40
1.500000059604644
  1
...10
  7
TolListe_12
100
AcDbText
  0
TEXT
  5
FF
330
C5
100
AcDbEntity
  8
Titel (ISO)
 62
     7
100
AcDbText
 10
-77.52000000000001
 20
0.9701170573068029
 30
0.0
 40
1.500000059604644
  1
` 1~30
  7
TolListe_12-AIGDT
100
AcDbText
  0
TEXT
  5
101
330
C5
100
AcDbEntity
  8
Titel (ISO)
 62
     7
100
AcDbText
 10
-77.52000000000001
 20
3.970117057306801
 30
0.0
 40
1.500000059604644
  1
` 1~
  7
TolListe_12-AIGDT
100
AcDbText
  0
TEXT
  5
102
330
C5
100
AcDbEntity
  8
Titel (ISO)
 62
     7
100
AcDbText
 10
-97.77000000000001
 20
11.97011705730681
 30
0.0
 40
1.500000059604644
  1
für Winkelmasse
  7
TolListe_12
100
AcDbText
  0
TEXT
  5
103
330
C5
100
AcDbEntity
  8
Titel (ISO)
 62
     7
100
AcDbText
 10
-97.97000000000004
 20
6.970117057306808
 30
0.0
 40
1.500000059604644
  1
Genauigkeitsgrad
  7
TolListe_12
100
AcDbText
  0
TEXT
  5
104
330
C5
100
AcDbEntity
  8
Titel (ISO)
 62
     7
100
AcDbText
 10
-94.49929825881072
 20
0.9701170573068029
 30
0.0
 40
1.500000059604644
  1
c(grob)
  7
TolListe_12
100
AcDbText
  0
TEXT
  5
105
330
C5
100
AcDbEntity
  8
Titel (ISO)
 62
     7
100
AcDbText
 10
-69.51999999999999
 20
15.97011705730679
 30
0.0
 40
1.500000059604644
  1
Nennmass in mm = Länge des kürzeren Winkelschenkels
  7
TolListe_12
100
AcDbText
  0
TEXT
  5
106
330
C5
100
AcDbEntity
  8
Titel (ISO)
 62
     7
100
AcDbText
 10
-8.332499999999996
 20
10.07011705730681
 30
0.0
 40
1.500000059604644
  1
..400
  7
TolListe_12
100
AcDbText
  0
TEXT
  5
107
330
C5
100
AcDbEntity
  8
Titel (ISO)
 62
     7
100
AcDbText
 10
-8.332499999999996
 20
12.47011705730679
 30
0.0
 40
1.500000059604644
  1
> 120
  7
TolListe_12
100
AcDbText
  0
TEXT
  5
108
330
C5
100
AcDbEntity
  8
Titel (ISO)
 62
     7
100
AcDbText
 10
-18.64499999999999
 20
10.07011705730681
 30
0.0
 40
1.500000059604644
  1
..120
  7
TolListe_12
100
AcDbText
  0
TEXT
  5
109
330
C5
100
AcDbEntity
  8
Titel (ISO)
 62
     7
100
AcDbText
 10
-18.64499999999999
 20
12.47011705730679
 30
0.0
 40
1.500000059604644
  1
>  50
  7
TolListe_12
100
AcDbText
  0
TEXT
  5
10A
330
C5
100
AcDbEntity
  8
Titel (ISO)
 62
     7
100
AcDbText
 10
-28.95749999999999
 20
10.07011705730681
 30
0.0
 40
1.500000059604644
  1
...50
  7
TolListe_12
100
AcDbText
  0
TEXT
  5
10B
330
C5
100
AcDbEntity
  8
Titel (ISO)
 62
     7
100
AcDbText
 10
-28.95749999999999
 20
12.47011705730679
 30
0.0
 40
1.500000059604644
  1
>  10
  7
TolListe_12
100
AcDbText
  0
TEXT
  5
10C
330
C5
100
AcDbEntity
  8
Titel (ISO)
 62
     7
100
AcDbText
 10
-39.26999999999999
 20
10.07011705730681
 30
0.0
 40
1.500000059604644
  1
...10
  7
TolListe_12
100
AcDbText
  0
TEXT
  5
10D
330
C5
100
AcDbEntity
  8
Titel (ISO)
 62
     7
100
AcDbText
 10
-17.895
 20
3.970117057306801
 30
0.0
 40
1.500000059604644
  1
` 0,6
  7
TolListe_12-AIGDT
100
AcDbText
  0
TEXT
  5
10E
330
C5
100
AcDbEntity
  8
Titel (ISO)
 62
     7
100
AcDbText
 10
-34.52000000000002
 20
6.970117057306808
 30
0.0
 40
1.500000059604644
  1
Abmasse ±     (mm/100mm)
  7
TolListe_12
100
AcDbText
  0
TEXT
  5
10F
330
C5
100
AcDbEntity
  8
Titel (ISO)
 62
     7
100
AcDbText
 10
-17.895
 20
0.9701170573068029
 30
0.0
 40
1.500000059604644
  1
` 0,9
  7
TolListe_12-AIGDT
100
AcDbText
  0
TEXT
  5
110
330
C5
100
AcDbEntity
  8
Titel (ISO)
 62
     7
100
AcDbText
 10
-68.01999999999999
 20
0.9701170573068029
 30
0.0
 40
1.500000059604644
  1
` 1~
  7
TolListe_12-AIGDT
100
AcDbText
  0
TEXT
  5
111
330
C5
100
AcDbEntity
  8
Titel (ISO)
 62
     7
100
AcDbText
 10
-68.01999999999999
 20
3.970117057306801
 30
0.0
 40
1.500000059604644
  1
` 30
  7
TolListe_12-AIGDT
100
AcDbText
  0
TEXT
  5
112
330
C5
100
AcDbEntity
  8
Titel (ISO)
 62
     7
100
AcDbText
 10
-58.52
 20
3.970117057306801
 30
0.0
 40
1.500000059604644
  1
` 20
  7
TolListe_12-AIGDT
100
AcDbText
  0
TEXT
  5
113
330
C5
100
AcDbEntity
  8
Titel (ISO)
 62
     7
100
AcDbText
 10
-48.77000000000001
 20
10.07011705730681
 30
0.0
 40
1.500000059604644
  1
..400
  7
TolListe_12
100
AcDbText
  0
TEXT
  5
114
330
C5
100
AcDbEntity
  8
Titel (ISO)
 62
     7
100
AcDbText
 10
-48.77000000000001
 20
12.47011705730679
 30
0.0
 40
1.500000059604644
  1
> 120
  7
TolListe_12
100
AcDbText
  0
TEXT
  5
115
330
C5
100
AcDbEntity
  8
Titel (ISO)
 62
     7
100
AcDbText
 10
-48.01999999999999
 20
0.9701170573068029
 30
0.0
 40
1.500000059604644
  1
` 15
  7
TolListe_12-AIGDT
100
AcDbText
  0
TEXT
  5
116
330
C5
100
AcDbEntity
  8
Titel (ISO)
 62
     7
100
AcDbText
 10
-58.52
 20
0.9701170573068029
 30
0.0
 40
1.500000059604644
  1
` 30
  7
TolListe_12-AIGDT
100
AcDbText
  0
TEXT
  5
117
330
C5
100
AcDbEntity
  8
Titel (ISO)
 62
     7
100
AcDbText
 10
-48.01999999999999
 20
3.970117057306801
 30
0.0
 40
1.500000059604644
  1
` 10
  7
TolListe_12-AIGDT
100
AcDbText
  0
TEXT
  5
118
330
C5
100
AcDbEntity
  8
Titel (ISO)
 62
     7
100
AcDbText
 10
-139.52
 20
15.97011705730679
 30
0.0
 40
1.500000059604644
  1
Nennmass mm
  7
TolListe_12
100
AcDbText
  0
TEXT
  5
119
330
C5
100
AcDbEntity
  8
Titel (ISO)
 62
     7
100
AcDbText
 10
-38.52
 20
0.9701170573068029
 30
0.0
 40
1.500000059604644
  1
` 2,5
  7
TolListe_12-AIGDT
100
AcDbText
  0
TEXT
  5
11A
330
C5
100
AcDbEntity
  8
Titel (ISO)
 62
     7
100
AcDbText
 10
-28.2075
 20
0.9701170573068029
 30
0.0
 40
1.500000059604644
  1
` 1,7
  7
TolListe_12-AIGDT
100
AcDbText
  0
TEXT
  5
11B
330
C5
100
AcDbEntity
  8
Titel (ISO)
 62
     7
100
AcDbText
 10
-7.582500000000003
 20
3.970117057306801
 30
0.0
 40
1.500000059604644
  1
` 0,3
  7
TolListe_12-AIGDT
100
AcDbText
  0
TEXT
  5
11C
330
C5
100
AcDbEntity
  8
Titel (ISO)
 62
     7
100
AcDbText
 10
-7.582500000000003
 20
0.9701170573068029
 30
0.0
 40
1.500000059604644
  1
` 0,4
  7
TolListe_12-AIGDT
100
AcDbText
  0
TEXT
  5
11D
330
C5
100
AcDbEntity
  8
Titel (ISO)
 62
     7
100
AcDbText
 10
-58.26999999999999
 20
10.07011705730681
 30
0.0
 40
1.500000059604644
  1
..120
  7
TolListe_12
100
AcDbText
  0
TEXT
  5
11E
330
C5
100
AcDbEntity
  8
Titel (ISO)
 62
     7
100
AcDbText
 10
-58.26999999999999
 20
12.47011705730679
 30
0.0
 40
1.500000059604644
  1
>  50
  7
TolListe_12
100
AcDbText
  0
TEXT
  5
11F
330
C5
100
AcDbEntity
  8
Titel (ISO)
 62
     7
100
AcDbText
 10
-38.52
 20
3.970117057306801
 30
0.0
 40
1.500000059604644
  1
` 1,7
  7
TolListe_12-AIGDT
100
AcDbText
  0
TEXT
  5
120
330
C5
100
AcDbEntity
  8
Titel (ISO)
 62
     7
100
AcDbText
 10
-28.2075
 20
3.970117057306801
 30
0.0
 40
1.500000059604644
  1
` 0,9
  7
TolListe_12-AIGDT
100
AcDbText
  0
TEXT
  5
121
330
C5
100
AcDbEntity
  8
Titel (ISO)
 62
     7
100
AcDbText
 10
-137.908889
 20
6.970117057306808
 30
0.0
 40
1.500000059604644
  1
` 0,2
  7
TolListe_12-AIGDT
100
AcDbText
  0
TEXT
  5
122
330
C5
100
AcDbEntity
  8
Titel (ISO)
 62
     7
100
AcDbText
 10
-137.908889
 20
10.07011705730681
 30
0.0
 40
1.500000059604644
  1
..400
  7
TolListe_12
100
AcDbText
  0
TEXT
  5
123
330
C5
100
AcDbEntity
  8
Titel (ISO)
 62
     7
100
AcDbText
 10
-137.908889
 20
0.9701170573068029
 30
0.0
 40
1.500000059604644
  1
` 1,2
  7
TolListe_12-AIGDT
100
AcDbText
  0
TEXT
  5
124
330
C5
100
AcDbEntity
  8
Titel (ISO)
 62
     7
100
AcDbText
 10
-137.908889
 20
3.970117057306801
 30
0.0
 40
1.500000059604644
  1
` 0,5
  7
TolListe_12-AIGDT
100
AcDbText
  0
TEXT
  5
125
330
C5
100
AcDbEntity
  8
Titel (ISO)
 62
     7
100
AcDbText
 10
-145.936667
 20
0.9701170573068029
 30
0.0
 40
1.500000059604644
  1
` 0,8
  7
TolListe_12-AIGDT
100
AcDbText
  0
TEXT
  5
126
330
C5
100
AcDbEntity
  8
Titel (ISO)
 62
     7
100
AcDbText
 10
-153.964444
 20
0.9701170573068029
 30
0.0
 40
1.500000059604644
  1
` 0,5
  7
TolListe_12-AIGDT
100
AcDbText
  0
TEXT
  5
127
330
C5
100
AcDbEntity
  8
Titel (ISO)
 62
     7
100
AcDbText
 10
-145.936667
 20
6.970117057306808
 30
0.0
 40
1.500000059604644
  1
` 0,15
  7
TolListe_12-AIGDT
100
AcDbText
  0
TEXT
  5
128
330
C5
100
AcDbEntity
  8
Titel (ISO)
 62
     7
100
AcDbText
 10
-145.936667
 20
3.970117057306801
 30
0.0
 40
1.500000059604644
  1
` 0,3
  7
TolListe_12-AIGDT
100
AcDbText
  0
TEXT
  5
129
330
C5
100
AcDbEntity
  8
Titel (ISO)
 62
     7
100
AcDbText
 10
-153.964444
 20
3.970117057306801
 30
0.0
 40
1.500000059604644
  1
` 0,2
  7
TolListe_12-AIGDT
100
AcDbText
  0
TEXT
  5
12A
330
C5
100
AcDbEntity
  8
Titel (ISO)
 62
     7
100
AcDbText
 10
-153.964444
 20
12.47011705730679
 30
0.0
 40
1.500000059604644
  1
>  6
  7
TolListe_12
100
AcDbText
  0
TEXT
  5
12B
330
C5
100
AcDbEntity
  8
Titel (ISO)
 62
     7
100
AcDbText
 10
-153.964444
 20
10.07011705730681
 30
0.0
 40
1.500000059604644
  1
..30
  7
TolListe_12
100
AcDbText
  0
TEXT
  5
12C
330
C5
100
AcDbEntity
  8
Titel (ISO)
 62
     7
100
AcDbText
 10
-161.992222
 20
3.970117057306801
 30
0.0
 40
1.500000059604644
  1
` 0,1
  7
TolListe_12-AIGDT
100
AcDbText
  0
TEXT
  5
12D
330
C5
100
AcDbEntity
  8
Titel (ISO)
 62
     7
100
AcDbText
 10
-161.992222
 20
6.970117057306808
 30
0.0
 40
1.500000059604644
  1
` 0,05
  7
TolListe_12-AIGDT
100
AcDbText
  0
TEXT
  5
12E
330
C5
100
AcDbEntity
  8
Titel (ISO)
 62
     7
100
AcDbText
 10
-161.992222
 20
10.07011705730681
 30
0.0
 40
1.500000059604644
  1
...6
  7
TolListe_12
100
AcDbText
  0
TEXT
  5
12F
330
C5
100
AcDbEntity
  8
Titel (ISO)
 62
     7
100
AcDbText
 10
-161.992222
 20
12.47011705730679
 30
0.0
 40
1.500000059604644
  1
>  3
  7
TolListe_12
100
AcDbText
  0
TEXT
  5
130
330
C5
100
AcDbEntity
  8
Titel (ISO)
 62
     7
100
AcDbText
 10
-153.964444
 20
6.970117057306808
 30
0.0
 40
1.500000059604644
  1
` 0,1
  7
TolListe_12-AIGDT
100
AcDbText
  0
TEXT
  5
131
330
C5
100
AcDbEntity
  8
Titel (ISO)
 62
     7
100
AcDbText
 10
-161.992222
 20
0.9701170573068029
 30
0.0
 40
1.500000059604644
  1
` 0,3
  7
TolListe_12-AIGDT
100
AcDbText
  0
TEXT
  5
132
330
C5
100
AcDbEntity
  8
Titel (ISO)
 62
     7
100
AcDbText
 10
-170.02
 20
3.970117057306801
 30
0.0
 40
1.500000059604644
  1
` 0,1
  7
TolListe_12-AIGDT
100
AcDbText
  0
TEXT
  5
133
330
C5
100
AcDbEntity
  8
Titel (ISO)
 62
     7
100
AcDbText
 10
-170.02
 20
0.9701170573068029
 30
0.0
 40
1.500000059604644
  1
` 0,2
  7
TolListe_12-AIGDT
100
AcDbText
  0
TEXT
  5
134
330
C5
100
AcDbEntity
  8
Titel (ISO)
 62
     7
100
AcDbText
 10
-170.02
 20
6.970117057306808
 30
0.0
 40
1.500000059604644
  1
` 0,05
  7
TolListe_12-AIGDT
100
AcDbText
  0
TEXT
  5
135
330
C5
100
AcDbEntity
  8
Titel (ISO)
 62
     7
100
AcDbText
 10
-170.02
 20
12.47011705730679
 30
0.0
 40
1.500000059604644
  1
>  0,5
  7
TolListe_12
100
AcDbText
  0
TEXT
  5
136
330
C5
100
AcDbEntity
  8
Titel (ISO)
 62
     7
100
AcDbText
 10
-145.936667
 20
10.07011705730681
 30
0.0
 40
1.500000059604644
  1
..120
  7
TolListe_12
100
AcDbText
  0
TEXT
  5
137
330
C5
100
AcDbEntity
  8
Titel (ISO)
 62
     7
100
AcDbText
 10
-145.936667
 20
12.47011705730679
 30
0.0
 40
1.500000059604644
  1
>  30
  7
TolListe_12
100
AcDbText
  0
TEXT
  5
138
330
C5
100
AcDbEntity
  8
Titel (ISO)
 62
     7
100
AcDbText
 10
-137.908889
 20
12.47011705730679
 30
0.0
 40
1.500000059604644
  1
> 120
  7
TolListe_12
100
AcDbText
  0
TEXT
  5
139
330
C5
100
AcDbEntity
  8
Titel (ISO)
 62
     7
100
AcDbText
 10
-88.26999999999999
 20
3.970117057306801
 30
0.0
 40
1.500000059604644
  1
m(mittel)
  7
TolListe_12
100
AcDbText
  0
TEXT
  5
13A
330
C5
100
AcDbEntity
  8
Titel (ISO)
 62
     7
100
AcDbText
 10
-189.02
 20
12.89999999999995
 30
0.0
 40
1.500000059604644
  1
für Längenmasse
  7
TolListe_12
100
AcDbText
  0
TEXT
  5
13B
330
C5
100
AcDbEntity
  8
Titel (ISO)
 62
     7
100
AcDbText
 10
-189.02
 20
9.899999999999966
 30
0.0
 40
1.500000059604644
  1
Genauigkeitsgrad
  7
TolListe_12
100
AcDbText
  0
TEXT
  5
13C
330
C5
100
AcDbEntity
  8
Titel (ISO)
 62
     7
100
AcDbText
 10
-170.02
 20
10.07011705730681
 30
0.0
 40
1.500000059604644
  1
...3
  7
TolListe_12
100
AcDbText
  0
TEXT
  5
13D
330
C5
100
AcDbEntity
  8
Titel (ISO)
 62
     7
100
AcDbText
 10
-182.02
 20
3.899999999999987
 30
0.0
 40
1.500000059604644
  1
m (mittel)
  7
TolListe_12
100
AcDbText
  0
TEXT
  5
13E
330
C5
100
AcDbEntity
  8
Titel (ISO)
 62
     7
100
AcDbText
 10
-182.02
 20
6.899999999999977
 30
0.0
 40
1.500000059604644
  1
f (fein)
  7
TolListe_12
100
AcDbText
  0
TEXT
  5
13F
330
C5
100
AcDbEntity
  8
Titel (ISO)
 62
     7
100
AcDbText
 10
-182.02
 20
0.8999999999999985
 30
0.0
 40
1.500000059604644
  1
c (grob)
  7
TolListe_12
100
AcDbText
  0
TEXT
  5
140
330
C5
100
AcDbEntity
  8
Titel (ISO)
 62
     7
100
AcDbText
 10
-189.02
 20
14.8701170573068
 30
0.0
 40
1.500000059604644
  1
toleranzen
  7
TolListe_12
100
AcDbText
  0
TEXT
  5
141
330
C5
100
AcDbEntity
  8
Titel (ISO)
 62
     7
100
AcDbText
 10
-189.02
 20
16.77011705730679
 30
0.0
 40
1.500000059604644
  1
Allgemein-
  7
TolListe_12
100
AcDbText
  0
TEXT
  5
142
330
C5
100
AcDbEntity
  8
Titel (ISO)
 62
     7
100
AcDbText
 10
-105.797778
 20
10.07011705730681
 30
0.0
 40
1.500000059604644
  1
..8000
  7
TolListe_12
100
AcDbText
  0
TEXT
  5
143
330
C5
100
AcDbEntity
  8
Titel (ISO)
 62
     7
100
AcDbText
 10
-105.797778
 20
12.47011705730679
 30
0.0
 40
1.500000059604644
  1
> 4000
  7
TolListe_12
100
AcDbText
  0
TEXT
  5
144
330
C5
100
AcDbEntity
  8
Titel (ISO)
 62
     7
100
AcDbText
 10
-105.797778
 20
3.970117057306801
 30
0.0
 40
1.500000059604644
  1
` 3
  7
TolListe_12-AIGDT
100
AcDbText
  0
TEXT
  5
145
330
C5
100
AcDbEntity
  8
Titel (ISO)
 62
     7
100
AcDbText
 10
-105.797778
 20
0.9701170573068029
 30
0.0
 40
1.500000059604644
  1
` 5
  7
TolListe_12-AIGDT
100
AcDbText
  0
TEXT
  5
146
330
C5
100
AcDbEntity
  8
Titel (ISO)
 62
     7
100
AcDbText
 10
-97.77000000000001
 20
14.37011705730681
 30
0.0
 40
1.500000059604644
  1
toleranzen
  7
TolListe_12
100
AcDbText
  0
TEXT
  5
147
330
C5
100
AcDbEntity
  8
Titel (ISO)
 62
     7
100
AcDbText
 10
-97.77000000000001
 20
16.77011705730679
 30
0.0
 40
1.500000059604644
  1
Allgemein-
  7
TolListe_12
100
AcDbText
  0
TEXT
  5
148
330
C5
100
AcDbEntity
  8
Titel (ISO)
 62
     7
100
AcDbText
 10
-121.853333
 20
3.970117057306801
 30
0.0
 40
1.500000059604644
  1
` 1,2
  7
TolListe_12-AIGDT
100
AcDbText
  0
TEXT
  5
149
330
C5
100
AcDbEntity
  8
Titel (ISO)
 62
     7
100
AcDbText
 10
-121.853333
 20
0.9701170573068029
 30
0.0
 40
1.500000059604644
  1
` 3
  7
TolListe_12-AIGDT
100
AcDbText
  0
TEXT
  5
14A
330
C5
100
AcDbEntity
  8
Titel (ISO)
 62
     7
100
AcDbText
 10
-113.825556
 20
10.07011705730681
 30
0.0
 40
1.500000059604644
  1
..4000
  7
TolListe_12
100
AcDbText
  0
TEXT
  5
14B
330
C5
100
AcDbEntity
  8
Titel (ISO)
 62
     7
100
AcDbText
 10
-113.825556
 20
12.47011705730679
 30
0.0
 40
1.500000059604644
  1
> 2000
  7
TolListe_12
100
AcDbText
  0
TEXT
  5
14C
330
C5
100
AcDbEntity
  8
Titel (ISO)
 62
     7
100
AcDbText
 10
-121.853333
 20
10.07011705730681
 30
0.0
 40
1.500000059604644
  1
..2000
  7
TolListe_12
100
AcDbText
  0
TEXT
  5
14D
330
C5
100
AcDbEntity
  8
Titel (ISO)
 62
     7
100
AcDbText
 10
-121.853333
 20
12.47011705730679
 30
0.0
 40
1.500000059604644
  1
> 1000
  7
TolListe_12
100
AcDbText
  0
TEXT
  5
14E
330
C5
100
AcDbEntity
  8
Titel (ISO)
 62
     7
100
AcDbText
 10
-121.853333
 20
6.970117057306808
 30
0.0
 40
1.500000059604644
  1
` 0,5
  7
TolListe_12-AIGDT
100
AcDbText
  0
TEXT
  5
14F
330
C5
100
AcDbEntity
  8
Titel (ISO)
 62
     7
100
AcDbText
 10
-113.825556
 20
3.970117057306801
 30
0.0
 40
1.500000059604644
  1
` 2
  7
TolListe_12-AIGDT
100
AcDbText
  0
TEXT
  5
150
330
C5
100
AcDbEntity
  8
Titel (ISO)
 62
     7
100
AcDbText
 10
-113.825556
 20
0.9701170573068029
 30
0.0
 40
1.500000059604644
  1
` 4
  7
TolListe_12-AIGDT
100
AcDbText
  0
TEXT
  5
151
330
C5
100
AcDbEntity
  8
Titel (ISO)
 62
     7
100
AcDbText
 10
-129.881111
 20
6.970117057306808
 30
0.0
 40
1.500000059604644
  1
` 0,3
  7
TolListe_12-AIGDT
100
AcDbText
  0
TEXT
  5
152
330
C5
100
AcDbEntity
  8
Titel (ISO)
 62
     7
100
AcDbText
 10
-129.881111
 20
10.07011705730681
 30
0.0
 40
1.500000059604644
  1
..1000
  7
TolListe_12
100
AcDbText
  0
TEXT
  5
153
330
C5
100
AcDbEntity
  8
Titel (ISO)
 62
     7
100
AcDbText
 10
-129.881111
 20
12.47011705730679
 30
0.0
 40
1.500000059604644
  1
>  400
  7
TolListe_12
100
AcDbText
  0
TEXT
  5
154
330
C5
100
AcDbEntity
  8
Titel (ISO)
 62
     7
100
AcDbText
 10
-129.881111
 20
0.9701170573068029
 30
0.0
 40
1.500000059604644
  1
` 2
  7
TolListe_12-AIGDT
100
AcDbText
  0
TEXT
  5
155
330
C5
100
AcDbEntity
  8
Titel (ISO)
 62
     7
100
AcDbText
 10
-129.881111
 20
3.970117057306801
 30
0.0
 40
1.500000059604644
  1
` 0,8
  7
TolListe_12-AIGDT
100
AcDbText
  0
TEXT
  5
156
330
C5
100
AcDbEntity
  8
Titel (ISO)
 62
     7
100
AcDbText
 10
-94.3154314551193
 20
3.970117057306801
 30
0.0
 40
1.500000059604644
  1
f(fein)
 41
0.8000000119209289
  7
TolListe_12
100
AcDbText
  0
TEXT
  5
158
330
C5
100
AcDbEntity
  8
Titel (ISO)
 62
     7
100
AcDbText
 10
-189.02
 20
6.399999985098823
 30
0.0
 40
2.000000029802322
  1
 
 41
1.100000023841857
  7
TolListe_12-Arial
 11
-189.02
 21
7.399999999999984
 31
0.0
100
AcDbText
 73
     2
  0
TEXT
  5
15A
330
C5
100
AcDbEntity
  8
Titel (ISO)
 62
     7
100
AcDbText
 10
-189.02
 20
3.399999985098824
 30
0.0
 40
2.000000029802322
  1
 
 41
1.100000023841857
  7
TolListe_12-Arial
 11
-189.02
 21
4.399999999999986
 31
0.0
100
AcDbText
 73
     2
  0
TEXT
  5
15B
330
C5
100
AcDbEntity
  8
Titel (ISO)
 62
     7
100
AcDbText
 10
-189.02
 20
0.3999999850988356
 30
0.0
 40
2.000000029802322
  1
 
 41
1.100000023841857
  7
TolListe_12-Arial
 11
-189.02
 21
1.399999999999996
 31
0.0
100
AcDbText
 73
     2
  0
ATTDEF
  5
15C
330
C5
100
AcDbEntity
  8
Titel (ISO)
 62
     7
100
AcDbText
 10
-98.35000000000002
 20
3.499999985098831
 30
0.0
 40
2.000000029802322
  1
 
 41
0.899999976158142
  7
TolListe_12-Arial
 11
-98.35000000000002
 21
4.499999999999992
 31
0.0
100
AcDbAttributeDefinition
  3
TolWinkel_Fein
  2
TolWinkel_Fein
 70
     0
 74
     2
  0
ATTDEF
  5
15D
330
C5
100
AcDbEntity
  8
Titel (ISO)
 62
     7
100
AcDbText
 10
-98.35000000000002
 20
0.4999999850988424
 30
0.0
 40
2.000000029802322
  1
 
 41
1.100000023841857
  7
TolListe_12-Arial
 11
-98.35000000000002
 21
1.500000000000003
 31
0.0
100
AcDbAttributeDefinition
  3
TolWinkel_Grob
  2
TolWinkel_Grob
 70
     0
 74
     2
  0
TEXT
  5
15E
330
C5
100
AcDbEntity
  8
Titel (ISO)
 62
     7
100
AcDbText
 10
-23.10385197106264
 20
6.481150342666044
 30
0.0
 40
1.199999973177909
  1
R
 41
0.899999976158142
  7
TolListe_12
100
AcDbText
  0
ENDBLK
  5
C7
330
C5
100
AcDbEntity
  8
0
100
AcDbBlockEnd
  0
BLOCK
  5
160
330
15F
100
AcDbEntity
  8
0
100
AcDbBlockBegin
  2
ProtoTyp
 70
     0
 10
0.0
 20
0.0
 30
0.0
  3
ProtoTyp
  1

  0
MTEXT
  5
162
330
15F
100
AcDbEntity
  8
Symbol (ISO)
100
AcDbMText
 10
-15.0
 20
3.333333333333428
 30
0.0
 40
5.0
 41
113.3539674448862
 71
     9
 72
     5
  1
\fArial|b1|i0;\W1.20;\H5.0000;Prototyp 
  7
Notiztext (DIN)
 73
     1
 44
1.0
  0
ENDBLK
  5
161
330
15F
100
AcDbEntity
  8
0
100
AcDbBlockEnd
  0
BLOCK
  5
165
330
164
100
AcDbEntity
  8
0
100
AcDbBlockBegin
  2
Logo
 70
     0
 10
0.0
 20
0.0
 30
0.0
  3
Logo
  1

  0
LINE
  5
167
102
{ACAD_REACTORS
330
172
102
}
330
164
100
AcDbEntity
  8
0
100
AcDbLine
 10
-63.82219267516564
 20
13.78707153306683
 30
0.0
 11
-63.44194367516561
 21
13.78707153306683
 31
0.0
  0
SPLINE
  5
168
102
{ACAD_REACTORS
330
172
102
}
330
164
100
AcDbEntity
  8
0
100
AcDbSpline
210
0.0
220
0.0
230
1.0
 70
     8
 71
     3
 72
    13
 73
     9
 74
     0
 42
0.0000000001
 43
0.0000000001
 40
-0.2488465402991201
 40
-0.2488465402991201
 40
-0.2488465402991201
 40
-0.2488465402991201
 40
-0.213514800971061
 40
-0.1813686001396738
 40
-0.151852207945606
 40
-0.122610058815004
 40
-0.0548379298616244
 40
0.0
 40
0.0
 40
0.0
 40
0.0
 10
-63.44194367516561
 20
13.78707153306683
 30
0.0
 10
-63.32417121073874
 20
13.78707153306683
 30
0.0
 10
-63.08419178569152
 20
13.80580234228952
 30
0.0
 10
-62.85168098131063
 20
14.06077992123113
 30
0.0
 10
-62.75106357115923
 20
14.3528991457025
 30
0.0
 10
-62.73688326920373
 20
14.7669903791009
 30
0.0
 10
-62.81190429146026
 20
15.35988989299784
 30
0.0
 10
-63.28410391460164
 20
15.46016853306682
 30
0.0
 10
-63.46689701414039
 20
15.46016853306682
 30
0.0
  0
LINE
  5
169
102
{ACAD_REACTORS
330
172
102
}
330
164
100
AcDbEntity
  8
0
100
AcDbLine
 10
-63.46689701414039
 20
15.46016853306682
 30
0.0
 11
-63.82219267516564
 21
15.46016853306682
 31
0.0
  0
LINE
  5
16A
102
{ACAD_REACTORS
330
172
102
}
330
164
100
AcDbEntity
  8
0
100
AcDbLine
 10
-63.82219267516564
 20
15.46016853306682
 30
0.0
 11
-63.82219267516564
 21
13.78707153306683
 31
0.0
  0
LINE
  5
16B
102
{ACAD_REACTORS
330
172
102
}
330
164
100
AcDbEntity
  8
0
100
AcDbLine
 10
-63.09258967516566
 20
16.44881753306684
 30
0.0
 11
-65.1910906751657
 21
16.44881753306684
 31
0.0
  0
SPLINE
  5
16C
102
{ACAD_REACTORS
330
172
102
}
330
164
100
AcDbEntity
  8
0
100
AcDbSpline
210
0.0
220
0.0
230
1.0
 70
     8
 71
     3
 72
    11
 73
     7
 74
     0
 42
0.0000000001
 43
0.0000000001
 40
0.2936837717354933
 40
0.2936837717354933
 40
0.2936837717354933
 40
0.2936837717354933
 40
0.3486086586423288
 40
0.4181833865755395
 40
0.4874646771879993
 40
0.5758658507171156
 40
0.5758658507171156
 40
0.5758658507171156
 40
0.5758658507171156
 10
-61.3885963599133
 20
14.628373224245
 30
0.0
 10
-61.3866327111799
 20
14.81461430976022
 30
0.0
 10
-61.42180843855425
 20
15.22586839198035
 30
0.0
 10
-61.65248502722848
 20
15.84811296147202
 30
0.0
 10
-62.25323916657581
 20
16.38211568442156
 30
0.0
 10
-62.79106792157026
 20
16.42485607934071
 30
0.0
 10
-63.09258967516566
 20
16.44881753306684
 30
0.0
  0
SPLINE
  5
16D
102
{ACAD_REACTORS
330
172
102
}
330
164
100
AcDbEntity
  8
0
100
AcDbSpline
210
0.0
220
0.0
230
1.0
 70
     8
 71
     3
 72
    10
 73
     6
 74
     0
 42
0.0000000001
 43
0.0000000001
 40
0.0
 40
0.0
 40
0.0
 40
0.0
 40
0.0653965997920125
 40
0.148785267001393
 40
0.2936837717354933
 40
0.2936837717354933
 40
0.2936837717354933
 40
0.2936837717354933
 10
-63.2280526751656
 20
12.79842253306682
 30
0.0
 10
-63.00807050524145
 20
12.79414883947174
 30
0.0
 10
-62.50758414980694
 20
12.78442566357808
 30
0.0
 10
-61.5936272368743
 20
13.31022024821636
 30
0.0
 10
-61.3937767031296
 20
14.13704668119749
 30
0.0
 10
-61.3885963599133
 20
14.628373224245
 30
0.0
  0
LINE
  5
16E
102
{ACAD_REACTORS
330
172
102
}
330
164
100
AcDbEntity
  8
0
100
AcDbLine
 10
-63.82219267516564
 20
12.79842253306682
 30
0.0
 11
-63.2280526751656
 21
12.79842253306682
 31
0.0
  0
LINE
  5
16F
102
{ACAD_REACTORS
330
172
102
}
330
164
100
AcDbEntity
  8
0
100
AcDbLine
 10
-63.82219267516564
 20
10.44087653306682
 30
0.0
 11
-63.82219267516564
 21
12.79842253306682
 31
0.0
  0
LINE
  5
170
102
{ACAD_REACTORS
330
172
102
}
330
164
100
AcDbEntity
  8
0
100
AcDbLine
 10
-65.1910906751657
 20
10.44087653306682
 30
0.0
 11
-63.82219267516564
 21
10.44087653306682
 31
0.0
  0
LINE
  5
171
102
{ACAD_REACTORS
330
172
102
}
330
164
100
AcDbEntity
  8
0
100
AcDbLine
 10
-65.1910906751657
 20
16.44881753306684
 30
0.0
 11
-65.1910906751657
 21
10.44087653306682
 31
0.0
  0
HATCH
  5
172
330
164
100
AcDbEntity
  8
Schraffur (ISO)
100
AcDbHatch
 10
0.0
 20
0.0
 30
0.0
210
0.0
220
0.0
230
1.0
  2
SOLID
 70
     1
 71
     1
 91
        2
 92
        0
 93
        4
 72
     1
 10
-63.82219267516564
 20
13.78707153306683
 11
-63.44194367516561
 21
13.78707153306683
 72
     4
 94
        3
 73
     0
 74
     0
 95
       13
 96
        9
 40
-0.2488465402991201
 40
-0.2488465402991201
 40
-0.2488465402991201
 40
-0.2488465402991201
 40
-0.213514800971061
 40
-0.1813686001396738
 40
-0.151852207945606
 40
-0.122610058815004
 40
-0.0548379298616244
 40
0.0
 40
0.0
 40
0.0
 40
0.0
 10
-63.44194367516561
 20
13.78707153306683
 10
-63.32417121073874
 20
13.78707153306683
 10
-63.08419178569152
 20
13.80580234228952
 10
-62.85168098131063
 20
14.06077992123113
 10
-62.75106357115923
 20
14.3528991457025
 10
-62.73688326920373
 20
14.7669903791009
 10
-62.81190429146026
 20
15.35988989299784
 10
-63.28410391460164
 20
15.46016853306682
 10
-63.46689701414039
 20
15.46016853306682
 72
     1
 10
-63.46689701414039
 20
15.46016853306682
 11
-63.82219267516564
 21
15.46016853306682
 72
     1
 10
-63.82219267516564
 20
15.46016853306682
 11
-63.82219267516564
 21
13.78707153306683
 97
        4
330
167
330
168
330
169
330
16A
 92
        1
 93
        7
 72
     1
 10
-63.09258967516566
 20
16.44881753306684
 11
-65.1910906751657
 21
16.44881753306684
 72
     1
 10
-65.1910906751657
 20
16.44881753306684
 11
-65.1910906751657
 21
10.44087653306682
 72
     1
 10
-65.1910906751657
 20
10.44087653306682
 11
-63.82219267516564
 21
10.44087653306682
 72
     1
 10
-63.82219267516564
 20
10.44087653306682
 11
-63.82219267516564
 21
12.79842253306682
 72
     1
 10
-63.82219267516564
 20
12.79842253306682
 11
-63.2280526751656
 21
12.79842253306682
 72
     4
 94
        3
 73
     0
 74
     0
 95
       10
 96
        6
 40
0.0
 40
0.0
 40
0.0
 40
0.0
 40
0.0653965997920125
 40
0.148785267001393
 40
0.2936837717354933
 40
0.2936837717354933
 40
0.2936837717354933
 40
0.2936837717354933
 10
-63.2280526751656
 20
12.79842253306682
 10
-63.00807050524145
 20
12.79414883947174
 10
-62.50758414980694
 20
12.78442566357808
 10
-61.5936272368743
 20
13.31022024821636
 10
-61.3937767031296
 20
14.13704668119749
 10
-61.3885963599133
 20
14.628373224245
 72
     4
 94
        3
 73
     0
 74
     0
 95
       11
 96
        7
 40
0.2936837717354933
 40
0.2936837717354933
 40
0.2936837717354933
 40
0.2936837717354933
 40
0.3486086586423288
 40
0.4181833865755395
 40
0.4874646771879993
 40
0.5758658507171156
 40
0.5758658507171156
 40
0.5758658507171156
 40
0.5758658507171156
 10
-61.3885963599133
 20
14.628373224245
 10
-61.3866327111799
 20
14.81461430976022
 10
-61.42180843855425
 20
15.22586839198035
 10
-61.65248502722848
 20
15.84811296147202
 10
-62.25323916657581
 20
16.38211568442156
 10
-62.79106792157026
 20
16.42485607934071
 10
-63.09258967516566
 20
16.44881753306684
 97
        7
330
16B
330
171
330
170
330
16F
330
16E
330
16D
330
16C
 75
     0
 76
     1
 98
        1
 10
0.0
 20
0.0
450
        0
451
        0
460
0.0
461
0.0
452
        0
462
0.0
453
        0
470

  0
LINE
  5
173
102
{ACAD_REACTORS
330
17D
102
}
330
164
100
AcDbEntity
  8
0
100
AcDbLine
 10
-60.62809767516559
 20
16.44881753306684
 30
0.0
 11
-60.62809767516559
 21
10.40524878827717
 31
0.0
  0
LINE
  5
174
102
{ACAD_REACTORS
330
17D
102
}
330
164
100
AcDbEntity
  8
0
100
AcDbLine
 10
-58.98987681977541
 20
16.44881753306684
 30
0.0
 11
-60.62809767516559
 21
16.44881753306684
 31
0.0
  0
LINE
  5
175
102
{ACAD_REACTORS
330
17D
102
}
330
164
100
AcDbEntity
  8
0
100
AcDbLine
 10
-57.88930580282222
 20
12.61710582815194
 30
0.0
 11
-58.98987681977541
 21
16.44881753306684
 31
0.0
  0
LINE
  5
176
102
{ACAD_REACTORS
330
17D
102
}
330
164
100
AcDbEntity
  8
0
100
AcDbLine
 10
-57.88930580282222
 20
16.44881753306684
 30
0.0
 11
-57.88930580282222
 21
12.61710582815194
 31
0.0
  0
LINE
  5
177
102
{ACAD_REACTORS
330
17D
102
}
330
164
100
AcDbEntity
  8
0
100
AcDbLine
 10
-56.69354904308139
 20
16.44881753306684
 30
0.0
 11
-57.88930580282222
 21
16.44881753306684
 31
0.0
  0
LINE
  5
178
102
{ACAD_REACTORS
330
17D
102
}
330
164
100
AcDbEntity
  8
0
100
AcDbLine
 10
-56.69354904308139
 20
10.40524878827717
 30
0.0
 11
-56.69354904308139
 21
16.44881753306684
 31
0.0
  0
LINE
  5
179
102
{ACAD_REACTORS
330
17D
102
}
330
164
100
AcDbEntity
  8
0
100
AcDbLine
 10
-58.22507916596087
 20
10.40524878827717
 30
0.0
 11
-56.69354904308139
 21
10.40524878827717
 31
0.0
  0
LINE
  5
17A
102
{ACAD_REACTORS
330
17D
102
}
330
164
100
AcDbEntity
  8
0
100
AcDbLine
 10
-59.41118327390213
 20
14.53474967794081
 30
0.0
 11
-58.22507916596087
 21
10.40524878827717
 31
0.0
  0
LINE
  5
17B
102
{ACAD_REACTORS
330
17D
102
}
330
164
100
AcDbEntity
  8
0
100
AcDbLine
 10
-59.41118327390213
 20
10.40524878827717
 30
0.0
 11
-59.41118327390213
 21
14.53474967794081
 31
0.0
  0
LINE
  5
17C
102
{ACAD_REACTORS
330
17D
102
}
330
164
100
AcDbEntity
  8
0
100
AcDbLine
 10
-60.62809767516559
 20
10.40524878827717
 30
0.0
 11
-59.41118327390213
 21
10.40524878827717
 31
0.0
  0
HATCH
  5
17D
330
164
100
AcDbEntity
  8
Schraffur (ISO)
100
AcDbHatch
 10
0.0
 20
0.0
 30
0.0
210
0.0
220
0.0
230
1.0
  2
SOLID
 70
     1
 71
     1
 91
        1
 92
        1
 93
       10
 72
     1
 10
-60.62809767516559
 20
16.44881753306684
 11
-60.62809767516559
 21
10.40524878827717
 72
     1
 10
-60.62809767516559
 20
10.40524878827717
 11
-59.41118327390213
 21
10.40524878827717
 72
     1
 10
-59.41118327390213
 20
10.40524878827717
 11
-59.41118327390213
 21
14.53474967794082
 72
     1
 10
-59.41118327390213
 20
14.53474967794081
 11
-58.22507916596087
 21
10.40524878827717
 72
     1
 10
-58.22507916596087
 20
10.40524878827717
 11
-56.69354904308139
 21
10.40524878827717
 72
     1
 10
-56.69354904308139
 20
10.40524878827717
 11
-56.69354904308139
 21
16.44881753306684
 72
     1
 10
-56.69354904308139
 20
16.44881753306684
 11
-57.88930580282222
 21
16.44881753306684
 72
     1
 10
-57.88930580282222
 20
16.44881753306684
 11
-57.88930580282222
 21
12.61710582815194
 72
     1
 10
-57.88930580282222
 20
12.61710582815194
 11
-58.98987681977541
 21
16.44881753306684
 72
     1
 10
-58.98987681977541
 20
16.44881753306684
 11
-60.62809767516559
 21
16.44881753306684
 97
       10
330
173
330
17C
330
17B
330
17A
330
179
330
178
330
177
330
176
330
175
330
174
 75
     0
 76
     1
 98
        1
 10
0.0
 20
0.0
450
        0
451
        0
460
0.0
461
0.0
452
        0
462
0.0
453
        0
470

  0
LINE
  5
17E
102
{ACAD_REACTORS
330
18A
102
}
330
164
100
AcDbEntity
  8
0
100
AcDbLine
 10
-54.3920076751656
 20
11.58162453306683
 30
10.0
 11
-52.27805867516565
 21
11.58162453306683
 31
10.0
  0
LINE
  5
17F
102
{ACAD_REACTORS
330
18A
102
}
330
164
100
AcDbEntity
  8
0
100
AcDbLine
 10
-54.3920076751656
 20
12.95052253306684
 30
10.0
 11
-54.3920076751656
 21
11.58162453306683
 31
10.0
  0
LINE
  5
180
102
{ACAD_REACTORS
330
18A
102
}
330
164
100
AcDbEntity
  8
0
100
AcDbLine
 10
-52.49194867516564
 20
12.95052253306684
 30
10.0
 11
-54.3920076751656
 21
12.95052253306684
 31
10.0
  0
LINE
  5
181
102
{ACAD_REACTORS
330
18A
102
}
330
164
100
AcDbEntity
  8
0
100
AcDbLine
 10
-52.49194867516564
 20
14.09127053306683
 30
10.0
 11
-52.49194867516564
 21
12.95052253306684
 31
10.0
  0
LINE
  5
182
102
{ACAD_REACTORS
330
18A
102
}
330
164
100
AcDbEntity
  8
0
100
AcDbLine
 10
-54.3920076751656
 20
14.09127053306683
 30
10.0
 11
-52.49194867516564
 21
14.09127053306683
 31
10.0
  0
LINE
  5
183
102
{ACAD_REACTORS
330
18A
102
}
330
164
100
AcDbEntity
  8
0
100
AcDbLine
 10
-54.3920076751656
 20
15.30806953306683
 30
10.0
 11
-54.3920076751656
 21
14.09127053306683
 31
10.0
  0
LINE
  5
184
102
{ACAD_REACTORS
330
18A
102
}
330
164
100
AcDbEntity
  8
0
100
AcDbLine
 10
-52.36836767516571
 20
15.30806953306683
 30
10.0
 11
-54.3920076751656
 21
15.30806953306683
 31
10.0
  0
LINE
  5
185
102
{ACAD_REACTORS
330
18A
102
}
330
164
100
AcDbEntity
  8
0
100
AcDbLine
 10
-52.36836767516571
 20
16.44881753306684
 30
10.0
 11
-52.36836767516571
 21
15.30806953306683
 31
10.0
  0
LINE
  5
186
102
{ACAD_REACTORS
330
18A
102
}
330
164
100
AcDbEntity
  8
0
100
AcDbLine
 10
-55.76090567516565
 20
16.44881753306684
 30
10.0
 11
-52.36836767516571
 21
16.44881753306684
 31
10.0
  0
LINE
  5
187
102
{ACAD_REACTORS
330
18A
102
}
330
164
100
AcDbEntity
  8
0
100
AcDbLine
 10
-55.76090567516565
 20
10.44087653306682
 30
10.0
 11
-55.76090567516565
 21
16.44881753306684
 31
10.0
  0
LINE
  5
188
102
{ACAD_REACTORS
330
18A
102
}
330
164
100
AcDbEntity
  8
0
100
AcDbLine
 10
-52.27805867516565
 20
10.44087653306682
 30
10.0
 11
-55.76090567516565
 21
10.44087653306682
 31
10.0
  0
LINE
  5
189
102
{ACAD_REACTORS
330
18A
102
}
330
164
100
AcDbEntity
  8
0
100
AcDbLine
 10
-52.27805867516565
 20
11.58162453306683
 30
10.0
 11
-52.27805867516565
 21
10.44087653306682
 31
10.0
  0
HATCH
  5
18A
330
164
100
AcDbEntity
  8
Schraffur (ISO)
100
AcDbHatch
 10
0.0
 20
0.0
 30
0.0
210
0.0
220
0.0
230
1.0
  2
SOLID
 70
     1
 71
     1
 91
        1
 92
        1
 93
       12
 72
     1
 10
-54.3920076751656
 20
11.58162453306683
 11
-52.27805867516565
 21
11.58162453306683
 72
     1
 10
-52.27805867516565
 20
11.58162453306683
 11
-52.27805867516565
 21
10.44087653306682
 72
     1
 10
-52.27805867516565
 20
10.44087653306682
 11
-55.76090567516565
 21
10.44087653306682
 72
     1
 10
-55.76090567516565
 20
10.44087653306682
 11
-55.76090567516565
 21
16.44881753306684
 72
     1
 10
-55.76090567516565
 20
16.44881753306684
 11
-52.36836767516571
 21
16.44881753306684
 72
     1
 10
-52.36836767516571
 20
16.44881753306684
 11
-52.36836767516571
 21
15.30806953306683
 72
     1
 10
-52.36836767516571
 20
15.30806953306683
 11
-54.3920076751656
 21
15.30806953306683
 72
     1
 10
-54.3920076751656
 20
15.30806953306683
 11
-54.3920076751656
 21
14.09127053306683
 72
     1
 10
-54.3920076751656
 20
14.09127053306683
 11
-52.49194867516564
 21
14.09127053306683
 72
     1
 10
-52.49194867516564
 20
14.09127053306683
 11
-52.49194867516564
 21
12.95052253306684
 72
     1
 10
-52.49194867516564
 20
12.95052253306684
 11
-54.3920076751656
 21
12.95052253306684
 72
     1
 10
-54.3920076751656
 20
12.95052253306684
 11
-54.3920076751656
 21
11.58162453306683
 97
       12
330
17E
330
189
330
188
330
187
330
186
330
185
330
184
330
183
330
182
330
181
330
180
330
17F
 75
     0
 76
     1
 98
        1
 10
0.0
 20
0.0
450
        0
451
        0
460
0.0
461
0.0
452
        0
462
0.0
453
        0
470

  0
SPLINE
  5
18B
102
{ACAD_REACTORS
330
193
102
}
330
164
100
AcDbEntity
  8
0
100
AcDbSpline
210
0.0
220
0.0
230
1.0
 70
     8
 71
     3
 72
    15
 73
    11
 74
     0
 42
0.0000000001
 43
0.0000000001
 40
0.0
 40
0.0
 40
0.0
 40
0.0
 40
0.0672548563799885
 40
0.1521664902326495
 40
0.2281703146548317
 40
0.3255600897830795
 40
0.4120495207317158
 40
0.4985389234182298
 40
0.5654159866690202
 40
0.6509023544104405
 40
0.6509023544104405
 40
0.6509023544104405
 40
0.6509023544104405
 10
-51.7302616751656
 20
12.50372953306684
 30
0.0
 10
-51.72250972741318
 20
12.28042993765319
 30
0.0
 10
-51.7049706715673
 20
11.77520670867943
 30
0.0
 10
-51.45830183546912
 20
11.01272899934195
 30
0.0
 10
-50.70619437300852
 20
10.49759629449973
 30
0.0
 10
-49.8251698126684
 20
10.4107231579618
 30
0.0
 10
-48.92313273835776
 20
10.49749520180978
 30
0.0
 10
-48.18766130508738
 20
10.93968926311738
 30
0.0
 10
-47.88526518983896
 20
11.71052808496217
 30
0.0
 10
-47.86377509624168
 20
12.21864242747865
 30
0.0
 10
-47.85171767516569
 20
12.50372953306684
 30
0.0
  0
LINE
  5
18C
102
{ACAD_REACTORS
330
193
102
}
330
164
100
AcDbEntity
  8
0
100
AcDbLine
 10
-51.7302616751656
 20
16.44881753306684
 30
0.0
 11
-51.7302616751656
 21
12.50372953306684
 31
0.0
  0
LINE
  5
18D
102
{ACAD_REACTORS
330
193
102
}
330
164
100
AcDbEntity
  8
0
100
AcDbLine
 10
-50.36136367516565
 20
16.44881753306684
 30
0.0
 11
-51.7302616751656
 21
16.44881753306684
 31
0.0
  0
LINE
  5
18E
102
{ACAD_REACTORS
330
193
102
}
330
164
100
AcDbEntity
  8
0
100
AcDbLine
 10
-50.36136367516565
 20
12.15437597654793
 30
0.0
 11
-50.36136367516565
 21
16.44881753306684
 31
0.0
  0
SPLINE
  5
18F
102
{ACAD_REACTORS
330
193
102
}
330
164
100
AcDbEntity
  8
0
100
AcDbSpline
210
0.0
220
0.0
230
1.0
 70
     8
 71
     3
 72
    12
 73
     8
 74
     0
 42
0.0000000001
 43
0.0000000001
 40
0.0
 40
0.0
 40
0.0
 40
0.0
 40
0.0459373561447192
 40
0.0841298945751798
 40
0.1189845232173717
 40
0.1628560898790358
 40
0.2038542643486715
 40
0.2038542643486715
 40
0.2038542643486715
 40
0.2038542643486715
 10
-49.22061567516561
 20
12.15437553306683
 30
0.0
 10
-49.2268789446577
 20
11.99485470427934
 30
0.0
 10
-49.23834952647364
 20
11.70270749262533
 30
0.0
 10
-49.57024113653026
 20
11.41847892432864
 30
0.0
 10
-49.99594522261111
 20
11.40074526513182
 30
0.0
 10
-50.29158571586791
 20
11.73973014957667
 30
0.0
 10
-50.33863533382652
 20
12.01931596640863
 30
0.0
 10
-50.36136367516565
 20
12.15437597654793
 30
0.0
  0
LINE
  5
190
102
{ACAD_REACTORS
330
193
102
}
330
164
100
AcDbEntity
  8
0
100
AcDbLine
 10
-49.22061567516561
 20
16.44881753306684
 30
0.0
 11
-49.22061567516561
 21
12.15437553306683
 31
0.0
  0
LINE
  5
191
102
{ACAD_REACTORS
330
193
102
}
330
164
100
AcDbEntity
  8
0
100
AcDbLine
 10
-47.85171767516569
 20
16.44881753306684
 30
0.0
 11
-49.22061567516561
 21
16.44881753306684
 31
0.0
  0
LINE
  5
192
102
{ACAD_REACTORS
330
193
102
}
330
164
100
AcDbEntity
  8
0
100
AcDbLine
 10
-47.85171767516569
 20
12.50372953306684
 30
0.0
 11
-47.85171767516569
 21
16.44881753306684
 31
0.0
  0
HATCH
  5
193
330
164
100
AcDbEntity
  8
Schraffur (ISO)
100
AcDbHatch
 10
0.0
 20
0.0
 30
0.0
210
0.0
220
0.0
230
1.0
  2
SOLID
 70
     1
 71
     1
 91
        1
 92
        1
 93
        8
 72
     4
 94
        3
 73
     0
 74
     0
 95
       15
 96
       11
 40
0.0
 40
0.0
 40
0.0
 40
0.0
 40
0.0672548563799885
 40
0.1521664902326495
 40
0.2281703146548317
 40
0.3255600897830795
 40
0.4120495207317158
 40
0.4985389234182298
 40
0.5654159866690202
 40
0.6509023544104405
 40
0.6509023544104405
 40
0.6509023544104405
 40
0.6509023544104405
 10
-51.7302616751656
 20
12.50372953306684
 10
-51.72250972741318
 20
12.28042993765319
 10
-51.7049706715673
 20
11.77520670867943
 10
-51.45830183546912
 20
11.01272899934195
 10
-50.70619437300852
 20
10.49759629449973
 10
-49.8251698126684
 20
10.4107231579618
 10
-48.92313273835776
 20
10.49749520180978
 10
-48.18766130508738
 20
10.93968926311738
 10
-47.88526518983896
 20
11.71052808496217
 10
-47.86377509624168
 20
12.21864242747865
 10
-47.85171767516569
 20
12.50372953306684
 72
     1
 10
-47.85171767516569
 20
12.50372953306684
 11
-47.85171767516569
 21
16.44881753306684
 72
     1
 10
-47.85171767516569
 20
16.44881753306684
 11
-49.22061567516561
 21
16.44881753306684
 72
     1
 10
-49.22061567516561
 20
16.44881753306684
 11
-49.22061567516561
 21
12.15437553306683
 72
     4
 94
        3
 73
     0
 74
     0
 95
       12
 96
        8
 40
0.0
 40
0.0
 40
0.0
 40
0.0
 40
0.0459373561447192
 40
0.0841298945751798
 40
0.1189845232173717
 40
0.1628560898790358
 40
0.2038542643486715
 40
0.2038542643486715
 40
0.2038542643486715
 40
0.2038542643486715
 10
-49.22061567516561
 20
12.15437553306683
 10
-49.2268789446577
 20
11.99485470427934
 10
-49.23834952647364
 20
11.70270749262533
 10
-49.57024113653026
 20
11.41847892432864
 10
-49.99594522261111
 20
11.40074526513182
 10
-50.29158571586791
 20
11.73973014957667
 10
-50.33863533382652
 20
12.01931596640863
 10
-50.36136367516565
 20
12.15437597654793
 72
     1
 10
-50.36136367516565
 20
12.15437597654793
 11
-50.36136367516565
 21
16.44881753306684
 72
     1
 10
-50.36136367516565
 20
16.44881753306684
 11
-51.7302616751656
 21
16.44881753306684
 72
     1
 10
-51.7302616751656
 20
16.44881753306684
 11
-51.7302616751656
 21
12.50372953306684
 97
        8
330
18B
330
192
330
191
330
190
330
18F
330
18E
330
18D
330
18C
 75
     0
 76
     1
 98
        1
 10
0.0
 20
0.0
450
        0
451
        0
460
0.0
461
0.0
452
        0
462
0.0
453
        0
470

  0
LINE
  5
194
102
{ACAD_REACTORS
330
1A2
102
}
330
164
100
AcDbEntity
  8
0
100
AcDbLine
 10
-44.98677667516563
 20
16.44881753306684
 30
10.0
 11
-44.26073767516562
 21
12.52868353306683
 31
10.0
  0
LINE
  5
195
102
{ACAD_REACTORS
330
1A2
102
}
330
164
100
AcDbEntity
  8
0
100
AcDbLine
 10
-47.01516967516568
 20
16.44881753306684
 30
10.0
 11
-44.98677667516563
 21
16.44881753306684
 31
10.0
  0
LINE
  5
196
102
{ACAD_REACTORS
330
1A2
102
}
330
164
100
AcDbEntity
  8
0
100
AcDbLine
 10
-47.01516967516568
 20
10.44087653306682
 30
10.0
 11
-47.01516967516568
 21
16.44881753306684
 31
10.0
  0
LINE
  5
197
102
{ACAD_REACTORS
330
1A2
102
}
330
164
100
AcDbEntity
  8
0
100
AcDbLine
 10
-45.79837167516565
 20
10.44087653306682
 30
10.0
 11
-47.01516967516568
 21
10.44087653306682
 31
10.0
  0
LINE
  5
198
102
{ACAD_REACTORS
330
1A2
102
}
330
164
100
AcDbEntity
  8
0
100
AcDbLine
 10
-45.79837167516565
 20
15.1559695330669
 30
10.0
 11
-45.79837167516565
 21
10.44087653306682
 31
10.0
  0
LINE
  5
199
102
{ACAD_REACTORS
330
1A2
102
}
330
164
100
AcDbEntity
  8
0
100
AcDbLine
 10
-44.83467667516558
 20
10.44087653306682
 30
10.0
 11
-45.79837167516565
 21
15.1559695330669
 31
10.0
  0
LINE
  5
19A
102
{ACAD_REACTORS
330
1A2
102
}
330
164
100
AcDbEntity
  8
0
100
AcDbLine
 10
-43.74621267516555
 20
10.44087653306682
 30
10.0
 11
-44.83467667516558
 21
10.44087653306682
 31
10.0
  0
LINE
  5
19B
102
{ACAD_REACTORS
330
1A2
102
}
330
164
100
AcDbEntity
  8
0
100
AcDbLine
 10
-42.83242567516563
 20
15.15596953306682
 30
10.0
 11
-43.74621267516555
 21
10.44087653306682
 31
10.0
  0
LINE
  5
19C
102
{ACAD_REACTORS
330
1A2
102
}
330
164
100
AcDbEntity
  8
0
100
AcDbLine
 10
-42.83242567516563
 20
10.44087653306682
 30
10.0
 11
-42.83242567516563
 21
15.15596953306682
 31
10.0
  0
LINE
  5
19D
102
{ACAD_REACTORS
330
1A2
102
}
330
164
100
AcDbEntity
  8
0
100
AcDbLine
 10
-41.53957767516555
 20
10.44087653306682
 30
10.0
 11
-42.83242567516563
 21
10.44087653306682
 31
10.0
  0
LINE
  5
19E
102
{ACAD_REACTORS
330
1A2
102
}
330
164
100
AcDbEntity
  8
0
100
AcDbLine
 10
-41.53957767516555
 20
16.44881753306684
 30
10.0
 11
-41.53957767516555
 21
10.44087653306682
 31
10.0
  0
LINE
  5
19F
102
{ACAD_REACTORS
330
1A2
102
}
330
164
100
AcDbEntity
  8
0
100
AcDbLine
 10
-43.54301667516562
 20
16.44881753306684
 30
10.0
 11
-41.53957767516555
 21
16.44881753306684
 31
10.0
  0
LINE
  5
1A0
102
{ACAD_REACTORS
330
1A2
102
}
330
164
100
AcDbEntity
  8
0
100
AcDbLine
 10
-44.24410167516565
 20
12.52868353306683
 30
10.0
 11
-43.54301667516562
 21
16.44881753306684
 31
10.0
  0
LINE
  5
1A1
102
{ACAD_REACTORS
330
1A2
102
}
330
164
100
AcDbEntity
  8
0
100
AcDbLine
 10
-44.26073767516562
 20
12.52868353306683
 30
10.0
 11
-44.24410167516565
 21
12.52868353306683
 31
10.0
  0
HATCH
  5
1A2
330
164
100
AcDbEntity
  8
Schraffur (ISO)
100
AcDbHatch
 10
0.0
 20
0.0
 30
0.0
210
0.0
220
0.0
230
1.0
  2
SOLID
 70
     1
 71
     1
 91
        1
 92
        1
 93
       14
 72
     1
 10
-44.98677667516563
 20
16.44881753306684
 11
-44.26073767516562
 21
12.52868353306683
 72
     1
 10
-44.26073767516562
 20
12.52868353306683
 11
-44.24410167516565
 21
12.52868353306683
 72
     1
 10
-44.24410167516565
 20
12.52868353306683
 11
-43.54301667516562
 21
16.44881753306684
 72
     1
 10
-43.54301667516562
 20
16.44881753306684
 11
-41.53957767516555
 21
16.44881753306684
 72
     1
 10
-41.53957767516555
 20
16.44881753306684
 11
-41.53957767516555
 21
10.44087653306682
 72
     1
 10
-41.53957767516555
 20
10.44087653306682
 11
-42.83242567516563
 21
10.44087653306682
 72
     1
 10
-42.83242567516563
 20
10.44087653306682
 11
-42.83242567516563
 21
15.15596953306682
 72
     1
 10
-42.83242567516563
 20
15.15596953306682
 11
-43.74621267516555
 21
10.44087653306682
 72
     1
 10
-43.74621267516555
 20
10.44087653306682
 11
-44.83467667516558
 21
10.44087653306682
 72
     1
 10
-44.83467667516558
 20
10.44087653306682
 11
-45.79837167516565
 21
15.1559695330669
 72
     1
 10
-45.79837167516565
 20
15.1559695330669
 11
-45.79837167516565
 21
10.44087653306682
 72
     1
 10
-45.79837167516565
 20
10.44087653306682
 11
-47.01516967516568
 21
10.44087653306682
 72
     1
 10
-47.01516967516568
 20
10.44087653306682
 11
-47.01516967516568
 21
16.44881753306684
 72
     1
 10
-47.01516967516568
 20
16.44881753306684
 11
-44.98677667516563
 21
16.44881753306684
 97
       14
330
194
330
1A1
330
1A0
330
19F
330
19E
330
19D
330
19C
330
19B
330
19A
330
199
330
198
330
197
330
196
330
195
 75
     0
 76
     1
 98
        1
 10
0.0
 20
0.0
450
        0
451
        0
460
0.0
461
0.0
452
        0
462
0.0
453
        0
470

  0
LINE
  5
1A3
102
{ACAD_REACTORS
330
1AF
102
}
330
164
100
AcDbEntity
  8
0
100
AcDbLine
 10
-39.2521406751656
 20
12.64632353306684
 30
0.0
 11
-38.24923267516571
 21
12.64632353306684
 31
0.0
  0
LINE
  5
1A4
102
{ACAD_REACTORS
330
1AF
102
}
330
164
100
AcDbEntity
  8
0
100
AcDbLine
 10
-38.24923267516571
 20
12.64632353306684
 30
0.0
 11
-38.75068667516565
 21
15.46016853306682
 31
0.0
  0
LINE
  5
1A5
102
{ACAD_REACTORS
330
1AF
102
}
330
164
100
AcDbEntity
  8
0
100
AcDbLine
 10
-38.75068667516565
 20
15.46016853306682
 30
0.0
 11
-38.76732267516559
 21
15.46016853306682
 31
0.0
  0
LINE
  5
1A6
102
{ACAD_REACTORS
330
1AF
102
}
330
164
100
AcDbEntity
  8
0
100
AcDbLine
 10
-38.76732267516559
 20
15.46016853306682
 30
0.0
 11
-39.2521406751656
 21
12.64632353306684
 31
0.0
  0
LINE
  5
1A7
102
{ACAD_REACTORS
330
1AF
102
}
330
164
100
AcDbEntity
  8
0
100
AcDbLine
 10
-37.80719267516563
 20
10.44087653306682
 30
0.0
 11
-36.36818667516561
 21
10.44087653306682
 31
0.0
  0
LINE
  5
1A8
102
{ACAD_REACTORS
330
1AF
102
}
330
164
100
AcDbEntity
  8
0
100
AcDbLine
 10
-38.02227067516558
 20
11.65767453306683
 30
0.0
 11
-37.80719267516563
 21
10.44087653306682
 31
0.0
  0
LINE
  5
1A9
102
{ACAD_REACTORS
330
1AF
102
}
330
164
100
AcDbEntity
  8
0
100
AcDbLine
 10
-39.43751167516563
 20
11.65767453306683
 30
0.0
 11
-38.02227067516558
 21
11.65767453306683
 31
0.0
  0
LINE
  5
1AA
102
{ACAD_REACTORS
330
1AF
102
}
330
164
100
AcDbEntity
  8
0
100
AcDbLine
 10
-39.64427267516566
 20
10.44087653306682
 30
0.0
 11
-39.43751167516563
 21
11.65767453306683
 31
0.0
  0
LINE
  5
1AB
102
{ACAD_REACTORS
330
1AF
102
}
330
164
100
AcDbEntity
  8
0
100
AcDbLine
 10
-41.0832786751656
 20
10.44087653306682
 30
0.0
 11
-39.64427267516566
 21
10.44087653306682
 31
0.0
  0
LINE
  5
1AC
102
{ACAD_REACTORS
330
1AF
102
}
330
164
100
AcDbEntity
  8
0
100
AcDbLine
 10
-39.57772867516564
 20
16.44881753306684
 30
0.0
 11
-41.0832786751656
 21
10.44087653306682
 31
0.0
  0
LINE
  5
1AD
102
{ACAD_REACTORS
330
1AF
102
}
330
164
100
AcDbEntity
  8
0
100
AcDbLine
 10
-37.84046467516564
 20
16.44881753306684
 30
0.0
 11
-39.57772867516564
 21
16.44881753306684
 31
0.0
  0
LINE
  5
1AE
102
{ACAD_REACTORS
330
1AF
102
}
330
164
100
AcDbEntity
  8
0
100
AcDbLine
 10
-36.36818667516561
 20
10.44087653306682
 30
0.0
 11
-37.84046467516564
 21
16.44881753306684
 31
0.0
  0
HATCH
  5
1AF
330
164
100
AcDbEntity
  8
Schraffur (ISO)
100
AcDbHatch
 10
0.0
 20
0.0
 30
0.0
210
0.0
220
0.0
230
1.0
  2
SOLID
 70
     1
 71
     1
 91
        2
 92
        0
 93
        4
 72
     1
 10
-39.2521406751656
 20
12.64632353306684
 11
-38.24923267516571
 21
12.64632353306684
 72
     1
 10
-38.24923267516571
 20
12.64632353306684
 11
-38.75068667516565
 21
15.46016853306682
 72
     1
 10
-38.75068667516565
 20
15.46016853306682
 11
-38.76732267516559
 21
15.46016853306682
 72
     1
 10
-38.76732267516559
 20
15.46016853306682
 11
-39.2521406751656
 21
12.64632353306684
 97
        4
330
1A3
330
1A4
330
1A5
330
1A6
 92
        1
 93
        8
 72
     1
 10
-37.80719267516563
 20
10.44087653306682
 11
-36.36818667516561
 21
10.44087653306682
 72
     1
 10
-36.36818667516561
 20
10.44087653306682
 11
-37.84046467516564
 21
16.44881753306684
 72
     1
 10
-37.84046467516564
 20
16.44881753306684
 11
-39.57772867516564
 21
16.44881753306684
 72
     1
 10
-39.57772867516564
 20
16.44881753306684
 11
-41.0832786751656
 21
10.44087653306682
 72
     1
 10
-41.0832786751656
 20
10.44087653306682
 11
-39.64427267516566
 21
10.44087653306682
 72
     1
 10
-39.64427267516566
 20
10.44087653306682
 11
-39.43751167516563
 21
11.65767453306683
 72
     1
 10
-39.43751167516563
 20
11.65767453306683
 11
-38.02227067516558
 21
11.65767453306683
 72
     1
 10
-38.02227067516558
 20
11.65767453306683
 11
-37.80719267516563
 21
10.44087653306682
 97
        8
330
1A7
330
1AE
330
1AD
330
1AC
330
1AB
330
1AA
330
1A9
330
1A8
 75
     0
 76
     1
 98
        1
 10
0.0
 20
0.0
450
        0
451
        0
460
0.0
461
0.0
452
        0
462
0.0
453
        0
470

  0
LINE
  5
1B0
102
{ACAD_REACTORS
330
1B8
102
}
330
164
100
AcDbEntity
  8
0
100
AcDbLine
 10
-33.7824906751656
 20
15.30806953306683
 30
10.0
 11
-33.7824906751656
 21
10.44087653306682
 31
10.0
  0
LINE
  5
1B1
102
{ACAD_REACTORS
330
1B8
102
}
330
164
100
AcDbEntity
  8
0
100
AcDbLine
 10
-32.52410267516563
 20
15.30806953306683
 30
10.0
 11
-33.7824906751656
 21
15.30806953306683
 31
10.0
  0
LINE
  5
1B2
102
{ACAD_REACTORS
330
1B8
102
}
330
164
100
AcDbEntity
  8
0
100
AcDbLine
 10
-32.52410267516563
 20
16.44881753306684
 30
10.0
 11
-32.52410267516563
 21
15.30806953306683
 31
10.0
  0
LINE
  5
1B3
102
{ACAD_REACTORS
330
1B8
102
}
330
164
100
AcDbEntity
  8
0
100
AcDbLine
 10
-36.36818667516561
 20
16.44881753306684
 30
10.0
 11
-32.52410267516563
 21
16.44881753306684
 31
10.0
  0
LINE
  5
1B4
102
{ACAD_REACTORS
330
1B8
102
}
330
164
100
AcDbEntity
  8
0
100
AcDbLine
 10
-36.36818667516561
 20
15.30806953306683
 30
10.0
 11
-36.36818667516561
 21
16.44881753306684
 31
10.0
  0
LINE
  5
1B5
102
{ACAD_REACTORS
330
1B8
102
}
330
164
100
AcDbEntity
  8
0
100
AcDbLine
 10
-35.15138767516564
 20
15.30806953306683
 30
10.0
 11
-36.36818667516561
 21
15.30806953306683
 31
10.0
  0
LINE
  5
1B6
102
{ACAD_REACTORS
330
1B8
102
}
330
164
100
AcDbEntity
  8
0
100
AcDbLine
 10
-35.15138767516564
 20
10.44087653306682
 30
10.0
 11
-35.15138767516564
 21
15.30806953306683
 31
10.0
  0
LINE
  5
1B7
102
{ACAD_REACTORS
330
1B8
102
}
330
164
100
AcDbEntity
  8
0
100
AcDbLine
 10
-33.7824906751656
 20
10.44087653306682
 30
10.0
 11
-35.15138767516564
 21
10.44087653306682
 31
10.0
  0
HATCH
  5
1B8
330
164
100
AcDbEntity
  8
Schraffur (ISO)
100
AcDbHatch
 10
0.0
 20
0.0
 30
0.0
210
0.0
220
0.0
230
1.0
  2
SOLID
 70
     1
 71
     1
 91
        1
 92
        1
 93
        8
 72
     1
 10
-33.7824906751656
 20
15.30806953306683
 11
-33.7824906751656
 21
10.44087653306682
 72
     1
 10
-33.7824906751656
 20
10.44087653306682
 11
-35.15138767516564
 21
10.44087653306682
 72
     1
 10
-35.15138767516564
 20
10.44087653306682
 11
-35.15138767516564
 21
15.30806953306683
 72
     1
 10
-35.15138767516564
 20
15.30806953306683
 11
-36.36818667516561
 21
15.30806953306683
 72
     1
 10
-36.36818667516561
 20
15.30806953306683
 11
-36.36818667516561
 21
16.44881753306684
 72
     1
 10
-36.36818667516561
 20
16.44881753306684
 11
-32.52410267516563
 21
16.44881753306684
 72
     1
 10
-32.52410267516563
 20
16.44881753306684
 11
-32.52410267516563
 21
15.30806953306683
 72
     1
 10
-32.52410267516563
 20
15.30806953306683
 11
-33.7824906751656
 21
15.30806953306683
 97
        8
330
1B0
330
1B7
330
1B6
330
1B5
330
1B4
330
1B3
330
1B2
330
1B1
 75
     0
 76
     1
 98
        1
 10
0.0
 20
0.0
450
        0
451
        0
460
0.0
461
0.0
452
        0
462
0.0
453
        0
470

  0
LINE
  5
1B9
102
{ACAD_REACTORS
330
1C5
102
}
330
164
100
AcDbEntity
  8
0
100
AcDbLine
 10
-30.66444567516566
 20
11.58162453306683
 30
10.0
 11
-28.55049667516564
 21
11.58162453306683
 31
10.0
  0
LINE
  5
1BA
102
{ACAD_REACTORS
330
1C5
102
}
330
164
100
AcDbEntity
  8
0
100
AcDbLine
 10
-30.66444567516566
 20
12.95052253306684
 30
10.0
 11
-30.66444567516566
 21
11.58162453306683
 31
10.0
  0
LINE
  5
1BB
102
{ACAD_REACTORS
330
1C5
102
}
330
164
100
AcDbEntity
  8
0
100
AcDbLine
 10
-28.76438667516563
 20
12.95052253306684
 30
10.0
 11
-30.66444567516566
 21
12.95052253306684
 31
10.0
  0
LINE
  5
1BC
102
{ACAD_REACTORS
330
1C5
102
}
330
164
100
AcDbEntity
  8
0
100
AcDbLine
 10
-28.76438667516563
 20
14.09127053306683
 30
10.0
 11
-28.76438667516563
 21
12.95052253306684
 31
10.0
  0
LINE
  5
1BD
102
{ACAD_REACTORS
330
1C5
102
}
330
164
100
AcDbEntity
  8
0
100
AcDbLine
 10
-30.66444567516566
 20
14.09127053306683
 30
10.0
 11
-28.76438667516563
 21
14.09127053306683
 31
10.0
  0
LINE
  5
1BE
102
{ACAD_REACTORS
330
1C5
102
}
330
164
100
AcDbEntity
  8
0
100
AcDbLine
 10
-30.66444567516566
 20
15.30806953306683
 30
10.0
 11
-30.66444567516566
 21
14.09127053306683
 31
10.0
  0
LINE
  5
1BF
102
{ACAD_REACTORS
330
1C5
102
}
330
164
100
AcDbEntity
  8
0
100
AcDbLine
 10
-28.6408056751657
 20
15.30806953306683
 30
10.0
 11
-30.66444567516566
 21
15.30806953306683
 31
10.0
  0
LINE
  5
1C0
102
{ACAD_REACTORS
330
1C5
102
}
330
164
100
AcDbEntity
  8
0
100
AcDbLine
 10
-28.6408056751657
 20
16.44881753306684
 30
10.0
 11
-28.6408056751657
 21
15.30806953306683
 31
10.0
  0
LINE
  5
1C1
102
{ACAD_REACTORS
330
1C5
102
}
330
164
100
AcDbEntity
  8
0
100
AcDbLine
 10
-32.03334267516563
 20
16.44881753306684
 30
10.0
 11
-28.6408056751657
 21
16.44881753306684
 31
10.0
  0
LINE
  5
1C2
102
{ACAD_REACTORS
330
1C5
102
}
330
164
100
AcDbEntity
  8
0
100
AcDbLine
 10
-32.03334267516563
 20
10.44087653306682
 30
10.0
 11
-32.03334267516563
 21
16.44881753306684
 31
10.0
  0
LINE
  5
1C3
102
{ACAD_REACTORS
330
1C5
102
}
330
164
100
AcDbEntity
  8
0
100
AcDbLine
 10
-28.55049667516564
 20
10.44087653306682
 30
10.0
 11
-32.03334267516563
 21
10.44087653306682
 31
10.0
  0
LINE
  5
1C4
102
{ACAD_REACTORS
330
1C5
102
}
330
164
100
AcDbEntity
  8
0
100
AcDbLine
 10
-28.55049667516564
 20
11.58162453306683
 30
10.0
 11
-28.55049667516564
 21
10.44087653306682
 31
10.0
  0
HATCH
  5
1C5
330
164
100
AcDbEntity
  8
Schraffur (ISO)
100
AcDbHatch
 10
0.0
 20
0.0
 30
0.0
210
0.0
220
0.0
230
1.0
  2
SOLID
 70
     1
 71
     1
 91
        1
 92
        1
 93
       12
 72
     1
 10
-30.66444567516566
 20
11.58162453306683
 11
-28.55049667516564
 21
11.58162453306683
 72
     1
 10
-28.55049667516564
 20
11.58162453306683
 11
-28.55049667516564
 21
10.44087653306682
 72
     1
 10
-28.55049667516564
 20
10.44087653306682
 11
-32.03334267516563
 21
10.44087653306682
 72
     1
 10
-32.03334267516563
 20
10.44087653306682
 11
-32.03334267516563
 21
16.44881753306684
 72
     1
 10
-32.03334267516563
 20
16.44881753306684
 11
-28.6408056751657
 21
16.44881753306684
 72
     1
 10
-28.6408056751657
 20
16.44881753306684
 11
-28.6408056751657
 21
15.30806953306683
 72
     1
 10
-28.6408056751657
 20
15.30806953306683
 11
-30.66444567516566
 21
15.30806953306683
 72
     1
 10
-30.66444567516566
 20
15.30806953306683
 11
-30.66444567516566
 21
14.09127053306683
 72
     1
 10
-30.66444567516566
 20
14.09127053306683
 11
-28.76438667516563
 21
14.09127053306683
 72
     1
 10
-28.76438667516563
 20
14.09127053306683
 11
-28.76438667516563
 21
12.95052253306684
 72
     1
 10
-28.76438667516563
 20
12.95052253306684
 11
-30.66444567516566
 21
12.95052253306684
 72
     1
 10
-30.66444567516566
 20
12.95052253306684
 11
-30.66444567516566
 21
11.58162453306683
 97
       12
330
1B9
330
1C4
330
1C3
330
1C2
330
1C1
330
1C0
330
1BF
330
1BE
330
1BD
330
1BC
330
1BB
330
1BA
 75
     0
 76
     1
 98
        1
 10
0.0
 20
0.0
450
        0
451
        0
460
0.0
461
0.0
452
        0
462
0.0
453
        0
470

  0
LINE
  5
1C6
102
{ACAD_REACTORS
330
1D3
102
}
330
164
100
AcDbEntity
  8
0
100
AcDbLine
 10
-25.43246658829611
 20
16.4546514228036
 30
10.0
 11
-23.90435631161623
 21
16.46180057898531
 31
10.0
  0
LINE
  5
1C7
102
{ACAD_REACTORS
330
1D3
102
}
330
164
100
AcDbEntity
  8
0
100
AcDbLine
 10
-26.01549057645176
 20
14.58511635645683
 30
10.0
 11
-25.43246658829611
 21
16.4546514228036
 31
10.0
  0
LINE
  5
1C8
102
{ACAD_REACTORS
330
1D3
102
}
330
164
100
AcDbEntity
  8
0
100
AcDbLine
 10
-26.03093740740494
 20
14.58504408954738
 30
10.0
 11
-26.01549057645176
 21
14.58511635645683
 31
10.0
  0
LINE
  5
1C9
102
{ACAD_REACTORS
330
1D3
102
}
330
164
100
AcDbEntity
  8
0
100
AcDbLine
 10
-26.64612930682606
 20
16.44881753306684
 30
10.0
 11
-26.03093740740494
 21
14.58504408954738
 31
10.0
  0
LINE
  5
1CA
102
{ACAD_REACTORS
330
1D3
102
}
330
164
100
AcDbEntity
  8
0
100
AcDbLine
 10
-28.16787067516568
 20
16.44881753306684
 30
10.0
 11
-26.64612930682606
 21
16.44881753306684
 31
10.0
  0
LINE
  5
1CB
102
{ACAD_REACTORS
330
1D3
102
}
330
164
100
AcDbEntity
  8
0
100
AcDbLine
 10
-26.87026967516569
 20
13.49475453306683
 30
10.0
 11
-28.16787067516568
 21
16.44881753306684
 31
10.0
  0
LINE
  5
1CC
102
{ACAD_REACTORS
330
1D3
102
}
330
164
100
AcDbEntity
  8
0
100
AcDbLine
 10
-28.30689867516558
 20
10.44087653306682
 30
10.0
 11
-26.87026967516569
 21
13.49475453306683
 31
10.0
  0
LINE
  5
1CD
102
{ACAD_REACTORS
330
1D3
102
}
330
164
100
AcDbEntity
  8
0
100
AcDbLine
 10
-26.78946667516559
 20
10.44087653306682
 30
10.0
 11
-28.30689867516558
 21
10.44087653306682
 31
10.0
  0
LINE
  5
1CE
102
{ACAD_REACTORS
330
1D3
102
}
330
164
100
AcDbEntity
  8
0
100
AcDbLine
 10
-26.0800636751657
 20
12.44669253306682
 30
10.0
 11
-26.78946667516559
 21
10.44087653306682
 31
10.0
  0
LINE
  5
1CF
102
{ACAD_REACTORS
330
1D3
102
}
330
164
100
AcDbEntity
  8
0
100
AcDbLine
 10
-25.52255357088104
 20
10.44087653306682
 30
10.0
 11
-26.0800636751657
 21
12.44669253306682
 31
10.0
  0
LINE
  5
1D0
102
{ACAD_REACTORS
330
1D3
102
}
330
164
100
AcDbEntity
  8
0
100
AcDbLine
 10
-23.91733373362687
 20
10.44087653306682
 30
10.0
 11
-25.52255357088104
 21
10.44087653306682
 31
10.0
  0
LINE
  5
1D1
102
{ACAD_REACTORS
330
1D3
102
}
330
164
100
AcDbEntity
  8
0
100
AcDbLine
 10
-25.16745525516015
 20
13.49429112836466
 30
10.0
 11
-23.91733373362687
 21
10.44087653306682
 31
10.0
  0
LINE
  5
1D2
102
{ACAD_REACTORS
330
1D3
102
}
330
164
100
AcDbEntity
  8
0
100
AcDbLine
 10
-23.90435631161623
 20
16.46180057898531
 30
10.0
 11
-25.16745525516015
 21
13.49429112836466
 31
10.0
  0
HATCH
  5
1D3
330
164
100
AcDbEntity
  8
Schraffur (ISO)
100
AcDbHatch
 10
0.0
 20
0.0
 30
0.0
210
0.0
220
0.0
230
1.0
  2
SOLID
 70
     1
 71
     1
 91
        1
 92
        1
 93
       13
 72
     1
 10
-25.43246658829611
 20
16.4546514228036
 11
-23.90435631161623
 21
16.46180057898531
 72
     1
 10
-23.90435631161623
 20
16.46180057898531
 11
-25.16745525516015
 21
13.49429112836467
 72
     1
 10
-25.16745525516015
 20
13.49429112836466
 11
-23.91733373362687
 21
10.44087653306682
 72
     1
 10
-23.91733373362687
 20
10.44087653306682
 11
-25.52255357088104
 21
10.44087653306682
 72
     1
 10
-25.52255357088104
 20
10.44087653306682
 11
-26.0800636751657
 21
12.44669253306682
 72
     1
 10
-26.0800636751657
 20
12.44669253306682
 11
-26.78946667516559
 21
10.44087653306682
 72
     1
 10
-26.78946667516559
 20
10.44087653306682
 11
-28.30689867516558
 21
10.44087653306682
 72
     1
 10
-28.30689867516558
 20
10.44087653306682
 11
-26.87026967516569
 21
13.49475453306683
 72
     1
 10
-26.87026967516569
 20
13.49475453306683
 11
-28.16787067516568
 21
16.44881753306684
 72
     1
 10
-28.16787067516568
 20
16.44881753306684
 11
-26.64612930682606
 21
16.44881753306684
 72
     1
 10
-26.64612930682606
 20
16.44881753306684
 11
-26.03093740740494
 21
14.58504408954738
 72
     1
 10
-26.03093740740494
 20
14.58504408954738
 11
-26.01549057645176
 21
14.58511635645683
 72
     1
 10
-26.01549057645176
 20
14.58511635645683
 11
-25.43246658829611
 21
16.4546514228036
 97
       13
330
1C6
330
1D2
330
1D1
330
1D0
330
1CF
330
1CE
330
1CD
330
1CC
330
1CB
330
1CA
330
1C9
330
1C8
330
1C7
 75
     0
 76
     1
 98
        1
 10
0.0
 20
0.0
450
        0
451
        0
460
0.0
461
0.0
452
        0
462
0.0
453
        0
470

  0
LINE
  5
1D4
330
164
100
AcDbEntity
  8
Skizziergeometrie (ISO)
100
AcDbLine
 10
-66.74197817516563
 20
0.2208965330668366
 30
0.0
 11
-53.44197817516562
 21
0.2208965330668366
 31
0.0
  0
LINE
  5
1D5
330
164
100
AcDbEntity
  8
Skizziergeometrie (ISO)
100
AcDbLine
 10
-53.44197817516562
 20
0.2208965330668366
 30
0.0
 11
-53.44197817516562
 21
13.52089653306683
 31
0.0
  0
LINE
  5
1D6
330
164
100
AcDbEntity
  8
Skizziergeometrie (ISO)
100
AcDbLine
 10
-53.44197817516562
 20
13.52089653306683
 30
0.0
 11
-66.74197817516563
 21
13.52089653306683
 31
0.0
  0
LINE
  5
1D7
330
164
100
AcDbEntity
  8
Skizziergeometrie (ISO)
100
AcDbLine
 10
-66.74197817516563
 20
13.52089653306683
 30
0.0
 11
-66.74197817516563
 21
0.2208965330668366
 31
0.0
  0
LINE
  5
1D8
330
164
100
AcDbEntity
  8
Skizziergeometrie (ISO)
100
AcDbLine
 10
-74.30834701753944
 20
20.17089653306684
 30
0.0
 11
-61.00834701753945
 21
20.17089653306684
 31
0.0
  0
LINE
  5
1D9
330
164
100
AcDbEntity
  8
Skizziergeometrie (ISO)
100
AcDbLine
 10
-61.00834701753945
 20
20.17089653306684
 30
0.0
 11
-61.00834701753945
 21
6.870896533066837
 31
0.0
  0
LINE
  5
1DA
330
164
100
AcDbEntity
  8
Skizziergeometrie (ISO)
100
AcDbLine
 10
-61.00834701753945
 20
6.870896533066837
 30
0.0
 11
-74.30834701753944
 21
6.870896533066837
 31
0.0
  0
LINE
  5
1DB
330
164
100
AcDbEntity
  8
Skizziergeometrie (ISO)
100
AcDbLine
 10
-74.30834701753944
 20
6.870896533066837
 30
0.0
 11
-74.30834701753944
 21
20.17089653306684
 31
0.0
  0
LINE
  5
1DC
330
164
100
AcDbEntity
  8
Skizziergeometrie (ISO)
100
AcDbLine
 10
-49.79098967516563
 20
25.34881753306685
 30
0.0
 11
-36.49098967516564
 21
25.34881753306685
 31
0.0
  0
LINE
  5
1DD
330
164
100
AcDbEntity
  8
Skizziergeometrie (ISO)
100
AcDbLine
 10
-36.49098967516564
 20
25.34881753306685
 30
0.0
 11
-36.49098967516564
 21
12.04881753306685
 31
0.0
  0
LINE
  5
1DE
330
164
100
AcDbEntity
  8
Skizziergeometrie (ISO)
100
AcDbLine
 10
-36.49098967516564
 20
12.04881753306685
 30
0.0
 11
-49.79098967516563
 21
12.04881753306685
 31
0.0
  0
LINE
  5
1DF
330
164
100
AcDbEntity
  8
Skizziergeometrie (ISO)
100
AcDbLine
 10
-49.79098967516563
 20
12.04881753306685
 30
0.0
 11
-49.79098967516563
 21
25.34881753306685
 31
0.0
  0
MTEXT
  5
1E0
330
164
100
AcDbEntity
  8
Titel (ISO)
100
AcDbMText
 10
-23.23075129610368
 20
16.30481426074307
 30
0.0
 40
2.5
 41
0.0
 71
     4
 72
     1
  1
\fAIGDT|b0|i0;\H2.5000;}
  7
Notiztext (DIN)
 73
     1
 44
1.0
  0
ENDBLK
  5
166
330
164
100
AcDbEntity
  8
0
100
AcDbBlockEnd
  0
BLOCK
  5
1E2
330
1E1
100
AcDbEntity
  8
0
100
AcDbBlockBegin
  2
P gross
 70
     0
 10
0.0
 20
0.0
 30
0.0
  3
P gross
  1

  0
LINE
  5
1E4
102
{ACAD_REACTORS
330
1F2
102
}
330
1E1
100
AcDbEntity
  8
0
100
AcDbLine
 10
8.769225522167296
 20
4.689310313762291
 30
0.0
 11
7.981577449080567
 21
4.689310313762327
 31
0.0
  0
LINE
  5
1E5
102
{ACAD_REACTORS
330
1F2
102
}
330
1E1
100
AcDbEntity
  8
0
100
AcDbLine
 10
7.981577449080567
 20
4.689310313762327
 30
0.0
 11
7.981577449080567
 21
0.7845927762325644
 31
0.0
  0
LINE
  5
1E6
102
{ACAD_REACTORS
330
1F2
102
}
330
1E1
100
AcDbEntity
  8
0
100
AcDbLine
 10
7.981577449080567
 20
0.7845927762325644
 30
0.0
 11
8.769225522167296
 21
0.7845927762325644
 31
0.0
  0
ARC
  5
1E7
102
{ACAD_REACTORS
330
1F2
102
}
330
1E1
100
AcDbEntity
  8
0
100
AcDbCircle
 10
8.769225522167296
 20
2.284592776232585
 30
0.0
 40
1.5
100
AcDbArc
 50
270.0
 51
0.0
  0
LINE
  5
1E8
102
{ACAD_REACTORS
330
1F2
102
}
330
1E1
100
AcDbEntity
  8
0
100
AcDbLine
 10
10.26922552216724
 20
2.284592776232585
 30
0.0
 11
10.26922552216728
 21
3.189310313762341
 31
0.0
  0
ARC
  5
1E9
102
{ACAD_REACTORS
330
1F2
102
}
330
1E1
100
AcDbEntity
  8
0
100
AcDbCircle
 10
8.769225522167296
 20
3.189310313762341
 30
0.0
 40
1.5
100
AcDbArc
 50
0.0
 51
90.0
  0
LINE
  5
1EA
102
{ACAD_REACTORS
330
1F2
102
}
330
1E1
100
AcDbEntity
  8
0
100
AcDbLine
 10
4.481577449080553
 20
7.033965470643472
 30
0.0
 11
4.481577449080553
 21
-7.033965470643472
 31
0.0
  0
LINE
  5
1EB
102
{ACAD_REACTORS
330
1F2
102
}
330
1E1
100
AcDbEntity
  8
0
100
AcDbLine
 10
9.557661927330194
 20
7.033965470643472
 30
0.0
 11
4.481577449080553
 21
7.033965470643472
 31
0.0
  0
ARC
  5
1EC
102
{ACAD_REACTORS
330
1F2
102
}
330
1E1
100
AcDbEntity
  8
0
100
AcDbCircle
 10
9.557661927330194
 20
3.033965470643487
 30
0.0
 40
4.0
100
AcDbArc
 50
0.0
 51
90.0
  0
LINE
  5
1ED
102
{ACAD_REACTORS
330
1F2
102
}
330
1E1
100
AcDbEntity
  8
0
100
AcDbLine
 10
13.55766192733018
 20
2.439937619351439
 30
0.0
 11
13.55766192733018
 21
3.033965470643487
 31
0.0
  0
ARC
  5
1EE
102
{ACAD_REACTORS
330
1F2
102
}
330
1E1
100
AcDbEntity
  8
0
100
AcDbCircle
 10
9.557661927330194
 20
2.439937619351439
 30
0.0
 40
4.0
100
AcDbArc
 50
270.0
 51
0.0
  0
LINE
  5
1EF
102
{ACAD_REACTORS
330
1F2
102
}
330
1E1
100
AcDbEntity
  8
0
100
AcDbLine
 10
7.981577449080603
 20
-1.560062380648581
 30
0.0
 11
9.557661927330194
 21
-1.560062380648581
 31
0.0
  0
LINE
  5
1F0
102
{ACAD_REACTORS
330
1F2
102
}
330
1E1
100
AcDbEntity
  8
0
100
AcDbLine
 10
7.981577449080567
 20
-7.033965470643508
 30
0.0
 11
7.981577449080603
 21
-1.560062380648581
 31
0.0
  0
LINE
  5
1F1
102
{ACAD_REACTORS
330
1F2
102
}
330
1E1
100
AcDbEntity
  8
0
100
AcDbLine
 10
4.481577449080553
 20
-7.033965470643472
 30
0.0
 11
7.981577449080567
 21
-7.033965470643508
 31
0.0
  0
HATCH
  5
1F2
330
1E1
100
AcDbEntity
  8
Schraffur (ISO)
100
AcDbHatch
 10
0.0
 20
0.0
 30
0.0
210
0.0
220
0.0
230
1.0
  2
SOLID
 70
     1
 71
     1
 91
        2
 92
        0
 93
        6
 72
     1
 10
8.769225522167296
 20
4.689310313762291
 11
7.981577449080567
 21
4.689310313762327
 72
     1
 10
7.981577449080567
 20
4.689310313762327
 11
7.981577449080567
 21
0.7845927762325644
 72
     1
 10
7.981577449080567
 20
0.7845927762325644
 11
8.769225522167296
 21
0.7845927762325644
 72
     2
 10
8.769225522167296
 20
2.284592776232585
 40
1.5
 50
270.0
 51
360.0
 73
     1
 72
     1
 10
10.26922552216724
 20
2.284592776232585
 11
10.26922552216728
 21
3.189310313762341
 72
     2
 10
8.769225522167296
 20
3.189310313762341
 40
1.5
 50
0.0
 51
90.0
 73
     1
 97
        6
330
1E4
330
1E5
330
1E6
330
1E7
330
1E8
330
1E9
 92
        1
 93
        8
 72
     1
 10
4.481577449080553
 20
7.033965470643472
 11
4.481577449080553
 21
-7.033965470643472
 72
     1
 10
4.481577449080553
 20
-7.033965470643472
 11
7.981577449080567
 21
-7.033965470643508
 72
     1
 10
7.981577449080567
 20
-7.033965470643508
 11
7.981577449080603
 21
-1.560062380648581
 72
     1
 10
7.981577449080603
 20
-1.560062380648581
 11
9.557661927330194
 21
-1.560062380648581
 72
     2
 10
9.557661927330194
 20
2.439937619351439
 40
4.0
 50
270.0
 51
360.0
 73
     1
 72
     1
 10
13.55766192733018
 20
2.439937619351439
 11
13.55766192733018
 21
3.033965470643487
 72
     2
 10
9.557661927330194
 20
3.033965470643487
 40
4.0
 50
0.0
 51
90.0
 73
     1
 72
     1
 10
9.557661927330194
 20
7.033965470643472
 11
4.481577449080553
 21
7.033965470643472
 97
        8
330
1EA
330
1F1
330
1F0
330
1EF
330
1EE
330
1ED
330
1EC
330
1EB
 75
     0
 76
     1
 98
        1
 10
0.0
 20
0.0
450
        0
451
        0
460
0.0
461
0.0
452
        0
462
0.0
453
        0
470

  0
LINE
  5
1F3
330
1E1
100
AcDbEntity
  8
Skizziergeometrie (ISO)
100
AcDbLine
 10
-13.99999999999998
 20
14.00746616799352
 30
0.0
 11
14.00000000000002
 21
14.00746616799352
 31
0.0
  0
LINE
  5
1F4
330
1E1
100
AcDbEntity
  8
Skizziergeometrie (ISO)
100
AcDbLine
 10
14.00000000000002
 20
14.00746616799352
 30
0.0
 11
14.00000000000002
 21
-14.00746616799352
 31
0.0
  0
LINE
  5
1F5
330
1E1
100
AcDbEntity
  8
Skizziergeometrie (ISO)
100
AcDbLine
 10
14.00000000000002
 20
-14.00746616799352
 30
0.0
 11
-13.99999999999998
 21
-14.00746616799352
 31
0.0
  0
LINE
  5
1F6
330
1E1
100
AcDbEntity
  8
Skizziergeometrie (ISO)
100
AcDbLine
 10
-13.99999999999998
 20
-14.00746616799352
 30
0.0
 11
-13.99999999999998
 21
14.00746616799352
 31
0.0
  0
LINE
  5
1F7
330
1E1
100
AcDbEntity
  8
Skizziergeometrie (ISO)
100
AcDbLine
 10
4.481577449080553
 20
7.033965470643472
 30
0.0
 11
4.481577449080553
 21
-7.033965470643472
 31
0.0
  0
LINE
  5
1F8
330
1E1
100
AcDbEntity
  8
Skizziergeometrie (ISO)
100
AcDbLine
 10
4.481577449080553
 20
-7.033965470643472
 30
0.0
 11
7.981577449080567
 21
-7.033965470643508
 31
0.0
  0
LINE
  5
1F9
330
1E1
100
AcDbEntity
  8
Skizziergeometrie (ISO)
100
AcDbLine
 10
7.981577449080567
 20
-7.033965470643508
 30
0.0
 11
7.981577449080603
 21
-1.560062380648581
 31
0.0
  0
LINE
  5
1FA
330
1E1
100
AcDbEntity
  8
Skizziergeometrie (ISO)
100
AcDbLine
 10
7.981577449080603
 20
-1.560062380648581
 30
0.0
 11
9.557661927330194
 21
-1.560062380648581
 31
0.0
  0
LINE
  5
1FB
330
1E1
100
AcDbEntity
  8
Skizziergeometrie (ISO)
100
AcDbLine
 10
9.557661927330194
 20
7.033965470643472
 30
0.0
 11
4.481577449080553
 21
7.033965470643472
 31
0.0
  0
ARC
  5
1FC
330
1E1
100
AcDbEntity
  8
Skizziergeometrie (ISO)
100
AcDbCircle
 10
9.557661927330194
 20
2.439937619351439
 30
0.0
 40
4.0
100
AcDbArc
 50
270.0
 51
0.0
  0
LINE
  5
1FD
330
1E1
100
AcDbEntity
  8
Skizziergeometrie (ISO)
100
AcDbLine
 10
13.55766192733018
 20
2.439937619351439
 30
0.0
 11
13.55766192733018
 21
3.033965470643487
 31
0.0
  0
ARC
  5
1FE
330
1E1
100
AcDbEntity
  8
Skizziergeometrie (ISO)
100
AcDbCircle
 10
9.557661927330194
 20
3.033965470643487
 30
0.0
 40
4.0
100
AcDbArc
 50
0.0
 51
90.0
  0
LINE
  5
1FF
330
1E1
100
AcDbEntity
  8
Skizziergeometrie (ISO)
100
AcDbLine
 10
7.981577449080567
 20
0.7845927762325644
 30
0.0
 11
7.981577449080567
 21
4.689310313762327
 31
0.0
  0
LINE
  5
200
330
1E1
100
AcDbEntity
  8
Skizziergeometrie (ISO)
100
AcDbLine
 10
7.981577449080567
 20
4.689310313762327
 30
0.0
 11
8.769225522167296
 21
4.689310313762291
 31
0.0
  0
ARC
  5
201
330
1E1
100
AcDbEntity
  8
Skizziergeometrie (ISO)
100
AcDbCircle
 10
8.769225522167296
 20
3.189310313762341
 30
0.0
 40
1.5
100
AcDbArc
 50
0.0
 51
90.0
  0
LINE
  5
202
330
1E1
100
AcDbEntity
  8
Skizziergeometrie (ISO)
100
AcDbLine
 10
10.26922552216728
 20
3.189310313762341
 30
0.0
 11
10.26922552216724
 21
2.284592776232585
 31
0.0
  0
ARC
  5
203
330
1E1
100
AcDbEntity
  8
Skizziergeometrie (ISO)
100
AcDbCircle
 10
8.769225522167296
 20
2.284592776232585
 30
0.0
 40
1.5
100
AcDbArc
 50
270.0
 51
0.0
  0
LINE
  5
204
330
1E1
100
AcDbEntity
  8
Skizziergeometrie (ISO)
100
AcDbLine
 10
8.769225522167296
 20
0.7845927762325644
 30
0.0
 11
7.981577449080567
 21
0.7845927762325644
 31
0.0
  0
ENDBLK
  5
1E3
330
1E1
100
AcDbEntity
  8
0
100
AcDbBlockEnd
  0
ENDSEC
  0
SECTION
  2
ENTITIES
  0
LINE
  5
205
330
37
100
AcDbEntity
  8
Sichtbar (ISO)
100
AcDbLine
 10
259.8514720824788
 20
1408.182015583961
 30
0.0
 11
219.930417581522
 21
1408.182015583961
 31
0.0
  0
POLYLINE
  5
206
330
37
100
AcDbEntity
  8
Sichtbar (ISO)
100
AcDb2dPolyline
 66
     1
 10
0.0
 20
0.0
 30
0.0
 70
   128
  0
VERTEX
  5
207
330
206
100
AcDbEntity
  8
Sichtbar (ISO)
100
AcDbVertex
100
AcDb2dVertex
 10
265.5862992936703
 20
1399.991826295041
 30
0.0
  0
VERTEX
  5
208
330
206
100
AcDbEntity
  8
Sichtbar (ISO)
100
AcDbVertex
100
AcDb2dVertex
 10
265.4604476625058
 20
1399.992741822385
 30
0.0
  0
VERTEX
  5
20A
330
206
100
AcDbEntity
  8
Sichtbar (ISO)
100
AcDbVertex
100
AcDb2dVertex
 10
265.0850766831967
 20
1399.995869874142
 30
0.0
  0
VERTEX
  5
20B
330
206
100
AcDbEntity
  8
Sichtbar (ISO)
100
AcDbVertex
100
AcDb2dVertex
 10
264.4634479219052
 20
1400.001839875363
 30
0.0
  0
VERTEX
  5
20C
330
206
100
AcDbEntity
  8
Sichtbar (ISO)
100
AcDbVertex
100
AcDb2dVertex
 10
263.5989373857114
 20
1400.011262177609
 30
0.0
  0
VERTEX
  5
20D
330
206
100
AcDbEntity
  8
Sichtbar (ISO)
100
AcDbVertex
100
AcDb2dVertex
 10
262.5018972093197
 20
1400.024995087765
 30
0.0
  0
VERTEX
  5
20E
330
206
100
AcDbEntity
  8
Sichtbar (ISO)
100
AcDbVertex
100
AcDb2dVertex
 10
261.1846679383847
 20
1400.044392823361
 30
0.0
  0
VERTEX
  5
20F
330
206
100
AcDbEntity
  8
Sichtbar (ISO)
100
AcDbVertex
100
AcDb2dVertex
 10
259.6570533448788
 20
1400.070904969357
 30
0.0
  0
VERTEX
  5
210
330
206
100
AcDbEntity
  8
Sichtbar (ISO)
100
AcDbVertex
100
AcDb2dVertex
 10
257.929276817474
 20
1400.105962037228
 30
0.0
  0
VERTEX
  5
211
330
206
100
AcDbEntity
  8
Sichtbar (ISO)
100
AcDbVertex
100
AcDb2dVertex
 10
256.0249704057309
 20
1400.150822877072
 30
0.0
  0
VERTEX
  5
212
330
206
100
AcDbEntity
  8
Sichtbar (ISO)
100
AcDbVertex
100
AcDb2dVertex
 10
253.965014808807
 20
1400.206689118527
 30
0.0
  0
VERTEX
  5
213
330
206
100
AcDbEntity
  8
Sichtbar (ISO)
100
AcDbVertex
100
AcDb2dVertex
 10
251.7650645906063
 20
1400.274705170773
 30
0.0
  0
VERTEX
  5
214
330
206
100
AcDbEntity
  8
Sichtbar (ISO)
100
AcDbVertex
100
AcDb2dVertex
 10
249.4428962403866
 20
1400.355958222531
 30
0.0
  0
VERTEX
  5
215
330
206
100
AcDbEntity
  8
Sichtbar (ISO)
100
AcDbVertex
100
AcDb2dVertex
 10
247.0347493821713
 20
1400.450562714719
 30
0.0
  0
VERTEX
  5
216
330
206
100
AcDbEntity
  8
Sichtbar (ISO)
100
AcDbVertex
100
AcDb2dVertex
 10
244.5642989808651
 20
1400.558232545041
 30
0.0
  0
VERTEX
  5
217
330
206
100
AcDbEntity
  8
Sichtbar (ISO)
100
AcDbVertex
100
AcDb2dVertex
 10
242.0507544213864
 20
1400.678815125607
 30
0.0
  0
VERTEX
  5
218
330
206
100
AcDbEntity
  8
Sichtbar (ISO)
100
AcDbVertex
100
AcDb2dVertex
 10
239.5186990434261
 20
1400.811814545773
 30
0.0
  0
VERTEX
  5
219
330
206
100
AcDbEntity
  8
Sichtbar (ISO)
100
AcDbVertex
100
AcDb2dVertex
 10
237.0082133943173
 20
1400.954980134152
 30
0.0
  0
VERTEX
  5
21A
330
206
100
AcDbEntity
  8
Sichtbar (ISO)
100
AcDbVertex
100
AcDb2dVertex
 10
234.5406073266598
 20
1401.106385468625
 30
0.0
  0
VERTEX
  5
21B
330
206
100
AcDbEntity
  8
Sichtbar (ISO)
100
AcDbVertex
100
AcDb2dVertex
 10
232.1350949937436
 20
1401.264237641476
 30
0.0
  0
VERTEX
  5
21C
330
206
100
AcDbEntity
  8
Sichtbar (ISO)
100
AcDbVertex
100
AcDb2dVertex
 10
229.8185342485043
 20
1401.426018952512
 30
0.0
  0
VERTEX
  5
21D
330
206
100
AcDbEntity
  8
Sichtbar (ISO)
100
AcDbVertex
100
AcDb2dVertex
 10
227.6240247422787
 20
1401.587933777951
 30
0.0
  0
VERTEX
  5
21E
330
206
100
AcDbEntity
  8
Sichtbar (ISO)
100
AcDbVertex
100
AcDb2dVertex
 10
225.5679160291287
 20
1401.747235535763
 30
0.0
  0
VERTEX
  5
21F
330
206
100
AcDbEntity
  8
Sichtbar (ISO)
100
AcDbVertex
100
AcDb2dVertex
 10
223.6660665208431
 20
1401.901101349972
 30
0.0
  0
VERTEX
  5
220
330
206
100
AcDbEntity
  8
Sichtbar (ISO)
100
AcDbVertex
100
AcDb2dVertex
 10
221.9414371186825
 20
1402.046078919553
 30
0.0
  0
VERTEX
  5
221
330
206
100
AcDbEntity
  8
Sichtbar (ISO)
100
AcDbVertex
100
AcDb2dVertex
 10
220.4153639012905
 20
1402.178639649533
 30
0.0
  0
VERTEX
  5
222
330
206
100
AcDbEntity
  8
Sichtbar (ISO)
100
AcDbVertex
100
AcDb2dVertex
 10
219.0981870824429
 20
1402.29636120715
 30
0.0
  0
VERTEX
  5
223
330
206
100
AcDbEntity
  8
Sichtbar (ISO)
100
AcDbVertex
100
AcDb2dVertex
 10
218.0002117091747
 20
1402.39682125964
 30
0.0
  0
VERTEX
  5
224
330
206
100
AcDbEntity
  8
Sichtbar (ISO)
100
AcDbVertex
100
AcDb2dVertex
 10
217.1351683074566
 20
1402.477273224972
 30
0.0
  0
VERTEX
  5
225
330
206
100
AcDbEntity
  8
Sichtbar (ISO)
100
AcDbVertex
100
AcDb2dVertex
 10
216.5128362113568
 20
1402.535943268918
 30
0.0
  0
VERTEX
  5
226
330
206
100
AcDbEntity
  8
Sichtbar (ISO)
100
AcDbVertex
100
AcDb2dVertex
 10
216.1368066007229
 20
1402.571858643674
 30
0.0
  0
VERTEX
  5
227
330
206
100
AcDbEntity
  8
Sichtbar (ISO)
100
AcDbVertex
100
AcDb2dVertex
 10
216.0106658870312
 20
1402.584027527951
 30
0.0
  0
SEQEND
  5
209
330
206
100
AcDbEntity
  8
Sichtbar (ISO)
  0
LINE
  5
228
330
37
100
AcDbEntity
  8
Sichtbar (ISO)
100
AcDbLine
 10
259.8514720824788
 20
1409.169957842574
 30
0.0
 11
219.930417581522
 21
1409.169957842574
 31
0.0
  0
LINE
  5
229
330
37
100
AcDbEntity
  8
Sichtbar (ISO)
100
AcDbLine
 10
259.8514720824788
 20
1408.182015583961
 30
0.0
 11
265.5862995375557
 21
1399.991833184983
 31
0.0
  0
LINE
  5
22A
330
37
100
AcDbEntity
  8
Sichtbar (ISO)
100
AcDbLine
 10
219.930417581522
 20
1408.182015583961
 30
0.0
 11
216.0106661083465
 21
1402.584030330621
 31
0.0
  0
LINE
  5
22B
330
37
100
AcDbEntity
  8
Sichtbar (ISO)
100
AcDbLine
 10
219.930417581522
 20
1408.182015583961
 30
0.0
 11
219.930417581522
 21
1409.169957842574
 31
0.0
  0
LINE
  5
22C
330
37
100
AcDbEntity
  8
Sichtbar (ISO)
100
AcDbLine
 10
259.8514720824788
 20
1408.182015583961
 30
0.0
 11
259.8514720824788
 21
1409.169957842574
 31
0.0
  0
LINE
  5
22D
330
37
100
AcDbEntity
  8
Sichtbar (ISO)
100
AcDbLine
 10
219.930417581522
 20
796.0588391545581
 30
0.0
 11
259.8514720824788
 21
796.0588391545581
 31
0.0
  0
POLYLINE
  5
22E
330
37
100
AcDbEntity
  8
Sichtbar (ISO)
100
AcDb2dPolyline
 66
     1
 10
0.0
 20
0.0
 30
0.0
 70
   128
  0
VERTEX
  5
22F
330
22E
100
AcDbEntity
  8
Sichtbar (ISO)
100
AcDbVertex
100
AcDb2dVertex
 10
216.0106658870312
 20
801.6568272105683
 30
0.0
  0
VERTEX
  5
230
330
22E
100
AcDbEntity
  8
Sichtbar (ISO)
100
AcDbVertex
100
AcDb2dVertex
 10
216.136770837936
 20
801.6690151683318
 30
0.0
  0
VERTEX
  5
232
330
22E
100
AcDbEntity
  8
Sichtbar (ISO)
100
AcDbVertex
100
AcDb2dVertex
 10
216.5127474004361
 20
801.7049114696014
 30
0.0
  0
VERTEX
  5
233
330
22E
100
AcDbEntity
  8
Sichtbar (ISO)
100
AcDbVertex
100
AcDb2dVertex
 10
217.1350854570004
 20
801.7635624400604
 30
0.0
  0
VERTEX
  5
234
330
22E
100
AcDbEntity
  8
Sichtbar (ISO)
100
AcDbVertex
100
AcDb2dVertex
 10
218.0002504521938
 20
801.8440334788788
 30
0.0
  0
VERTEX
  5
235
330
22E
100
AcDbEntity
  8
Sichtbar (ISO)
100
AcDbVertex
100
AcDb2dVertex
 10
219.0981304580303
 20
801.9444744578827
 30
0.0
  0
VERTEX
  5
236
330
22E
100
AcDbEntity
  8
Sichtbar (ISO)
100
AcDbVertex
100
AcDb2dVertex
 10
220.4154592687222
 20
802.0622150889861
 30
0.0
  0
VERTEX
  5
237
330
22E
100
AcDbEntity
  8
Sichtbar (ISO)
100
AcDbVertex
100
AcDb2dVertex
 10
221.9420605832668
 20
802.1948330394256
 30
0.0
  0
VERTEX
  5
238
330
22E
100
AcDbEntity
  8
Sichtbar (ISO)
100
AcDbVertex
100
AcDb2dVertex
 10
223.6674636537167
 20
802.3398678294647
 30
0.0
  0
VERTEX
  5
239
330
22E
100
AcDbEntity
  8
Sichtbar (ISO)
100
AcDbVertex
100
AcDb2dVertex
 10
225.5687254602047
 20
802.493695496701
 30
0.0
  0
VERTEX
  5
23A
330
22E
100
AcDbEntity
  8
Sichtbar (ISO)
100
AcDbVertex
100
AcDb2dVertex
 10
227.6248580152127
 20
802.6529781810271
 30
0.0
  0
VERTEX
  5
23B
330
22E
100
AcDbEntity
  8
Sichtbar (ISO)
100
AcDbVertex
100
AcDb2dVertex
 10
229.8201650315853
 20
802.814969300412
 30
0.0
  0
VERTEX
  5
23C
330
22E
100
AcDbEntity
  8
Sichtbar (ISO)
100
AcDbVertex
100
AcDb2dVertex
 10
232.1374505693051
 20
802.976750611447
 30
0.0
  0
VERTEX
  5
23D
330
22E
100
AcDbEntity
  8
Sichtbar (ISO)
100
AcDbVertex
100
AcDb2dVertex
 10
234.5420187646481
 20
803.1345455638398
 30
0.0
  0
VERTEX
  5
23E
330
22E
100
AcDbEntity
  8
Sichtbar (ISO)
100
AcDbVertex
100
AcDb2dVertex
 10
237.0097416574093
 20
803.2859890452851
 30
0.0
  0
VERTEX
  5
23F
330
22E
100
AcDbEntity
  8
Sichtbar (ISO)
100
AcDbVertex
100
AcDb2dVertex
 10
239.5214766198727
 20
803.4292309276093
 30
0.0
  0
VERTEX
  5
240
330
22E
100
AcDbEntity
  8
Sichtbar (ISO)
100
AcDbVertex
100
AcDb2dVertex
 10
242.053655975494
 20
803.5621540538299
 30
0.0
  0
VERTEX
  5
241
330
22E
100
AcDbEntity
  8
Sichtbar (ISO)
100
AcDbVertex
100
AcDb2dVertex
 10
244.5660084420773
 20
803.6826794139374
 30
0.0
  0
VERTEX
  5
242
330
22E
100
AcDbEntity
  8
Sichtbar (ISO)
100
AcDbVertex
100
AcDb2dVertex
 10
247.0365136796566
 20
803.7903873912323
 30
0.0
  0
VERTEX
  5
243
330
22E
100
AcDbEntity
  8
Sichtbar (ISO)
100
AcDbVertex
100
AcDb2dVertex
 10
249.4458764726254
 20
803.8850109569061
 30
0.0
  0
VERTEX
  5
244
330
22E
100
AcDbEntity
  8
Sichtbar (ISO)
100
AcDbVertex
100
AcDb2dVertex
 10
251.7673247987362
 20
803.9662258616912
 30
0.0
  0
VERTEX
  5
245
330
22E
100
AcDbEntity
  8
Sichtbar (ISO)
100
AcDbVertex
100
AcDb2dVertex
 10
253.9661973649594
 20
804.0341846934783
 30
0.0
  0
VERTEX
  5
246
330
22E
100
AcDbEntity
  8
Sichtbar (ISO)
100
AcDbVertex
100
AcDb2dVertex
 10
256.0259574586484
 20
804.0900509349334
 30
0.0
  0
VERTEX
  5
247
330
22E
100
AcDbEntity
  8
Sichtbar (ISO)
100
AcDbVertex
100
AcDb2dVertex
 10
257.9307740861508
 20
804.1349308482635
 30
0.0
  0
VERTEX
  5
248
330
22E
100
AcDbEntity
  8
Sichtbar (ISO)
100
AcDbVertex
100
AcDb2dVertex
 10
259.6579545671078
 20
804.1699688426483
 30
0.0
  0
VERTEX
  5
249
330
22E
100
AcDbEntity
  8
Sichtbar (ISO)
100
AcDbVertex
100
AcDb2dVertex
 10
261.1852210694882
 20
804.1964619151581
 30
0.0
  0
VERTEX
  5
24A
330
22E
100
AcDbEntity
  8
Sichtbar (ISO)
100
AcDbVertex
100
AcDb2dVertex
 10
262.5024980241391
 20
804.2158596507537
 30
0.0
  0
VERTEX
  5
24B
330
22E
100
AcDbEntity
  8
Sichtbar (ISO)
100
AcDbVertex
100
AcDb2dVertex
 10
263.5997909242245
 20
804.2296116343964
 30
0.0
  0
VERTEX
  5
24C
330
22E
100
AcDbEntity
  8
Sichtbar (ISO)
100
AcDbVertex
100
AcDb2dVertex
 10
264.4638389283749
 20
804.2390339366424
 30
0.0
  0
VERTEX
  5
24D
330
22E
100
AcDbEntity
  8
Sichtbar (ISO)
100
AcDbVertex
100
AcDb2dVertex
 10
265.0851863557431
 20
804.2450039378632
 30
0.0
  0
VERTEX
  5
24E
330
22E
100
AcDbEntity
  8
Sichtbar (ISO)
100
AcDbVertex
100
AcDb2dVertex
 10
265.4604619676205
 20
804.2481129161346
 30
0.0
  0
VERTEX
  5
24F
330
22E
100
AcDbEntity
  8
Sichtbar (ISO)
100
AcDbVertex
100
AcDb2dVertex
 10
265.5862992936703
 20
804.2490284434784
 30
0.0
  0
SEQEND
  5
231
330
22E
100
AcDbEntity
  8
Sichtbar (ISO)
  0
LINE
  5
250
330
37
100
AcDbEntity
  8
Sichtbar (ISO)
100
AcDbLine
 10
219.930417581522
 20
795.070896895945
 30
0.0
 11
259.8514720824788
 21
795.070896895945
 31
0.0
  0
LINE
  5
251
330
37
100
AcDbEntity
  8
Sichtbar (ISO)
100
AcDbLine
 10
219.930417581522
 20
796.0588391545581
 30
0.0
 11
216.0106661083464
 21
801.6568244078982
 31
0.0
  0
LINE
  5
252
330
37
100
AcDbEntity
  8
Sichtbar (ISO)
100
AcDbLine
 10
259.8514720824788
 20
796.0588391545581
 30
0.0
 11
265.5862995375556
 21
804.2490215535361
 31
0.0
  0
LINE
  5
253
330
37
100
AcDbEntity
  8
Sichtbar (ISO)
100
AcDbLine
 10
259.8514720824788
 20
796.0588391545581
 30
0.0
 11
259.8514720824788
 21
795.070896895945
 31
0.0
  0
LINE
  5
254
330
37
100
AcDbEntity
  8
Sichtbar (ISO)
100
AcDbLine
 10
219.930417581522
 20
796.0588391545581
 30
0.0
 11
219.930417581522
 21
795.070896895945
 31
0.0
  0
LINE
  5
255
330
37
100
AcDbEntity
  8
Sichtbar (ISO)
100
AcDbLine
 10
326.5152335274739
 20
835.9214167183454
 30
0.0
 11
326.5152335274742
 21
1368.319438020174
 31
0.0
  0
LINE
  5
256
330
37
100
AcDbEntity
  8
Sichtbar (ISO)
100
AcDbLine
 10
201.3909448320003
 20
799.6204273692596
 30
0.0
 11
201.3909448320008
 21
1404.620427369259
 31
0.0
  0
LINE
  5
257
330
37
100
AcDbEntity
  8
Sichtbar (ISO)
100
AcDbLine
 10
209.3909448320004
 20
799.6204273692596
 30
0.0
 11
209.3909448320008
 21
1404.620427369259
 31
0.0
  0
LINE
  5
258
330
37
100
AcDbEntity
  8
Sichtbar (ISO)
100
AcDbLine
 10
287.0579821624541
 20
806.6515577350804
 30
0.0
 11
287.0579821624545
 21
1397.589297003439
 31
0.0
  0
ARC
  5
259
330
37
100
AcDbEntity
  8
Sichtbar (ISO)
100
AcDbCircle
 10
-268.6671643376462
 20
1102.120427369259
 30
0.0
 40
652.0000000000003
100
AcDbArc
 50
335.9031238206817
 51
354.9295070209515
  0
ARC
  5
25A
330
37
100
AcDbEntity
  8
Sichtbar (ISO)
100
AcDbCircle
 10
-268.6671643376462
 20
1102.120427369259
 30
0.0
 40
652.0000000000004
100
AcDbArc
 50
5.070492979048471
 51
24.09687617931835
  0
ARC
  5
25B
330
37
100
AcDbEntity
  8
Sichtbar (ISO)
100
AcDbCircle
 10
352.8909448320066
 20
1046.97047790914
 30
0.0
 40
27.99999999999391
100
AcDbArc
 50
354.9295070209516
 51
0.0
  0
ARC
  5
25C
330
37
100
AcDbEntity
  8
Sichtbar (ISO)
100
AcDbCircle
 10
352.8909448320066
 20
1157.270376829379
 30
0.0
 40
27.99999999999391
100
AcDbArc
 50
0.0
 51
5.070492979048398
  0
LINE
  5
25D
330
37
100
AcDbEntity
  8
Sichtbar (ISO)
100
AcDbLine
 10
380.8909448320004
 20
1046.97047790914
 30
0.0
 11
380.8909448320005
 21
1157.270376829379
 31
0.0
  0
LINE
  5
25E
330
37
100
AcDbEntity
  8
Sichtbar (ISO)
100
AcDbLine
 10
201.3909448320008
 20
1404.620427369259
 30
0.0
 11
209.3909448320008
 21
1404.620427369259
 31
0.0
  0
LINE
  5
25F
330
37
100
AcDbEntity
  8
Sichtbar (ISO)
100
AcDbLine
 10
201.3909448320003
 20
799.6204273692596
 30
0.0
 11
209.3909448320004
 21
799.6204273692596
 31
0.0
  0
ARC
  5
260
330
37
100
AcDbEntity
  8
Sichtbar (ISO)
100
AcDbCircle
 10
209.3909448319999
 20
800.6204273692659
 30
0.0
 40
601.9999999999937
100
AcDbArc
 50
89.36995060681766
 51
89.99999999999994
  0
ARC
  5
261
330
37
100
AcDbEntity
  8
Sichtbar (ISO)
100
AcDbCircle
 10
209.3909448319999
 20
800.6204273692659
 30
0.0
 40
601.9999999999939
100
AcDbArc
 50
82.5873226438221
 51
84.64376887081398
  0
ARC
  5
262
330
37
100
AcDbEntity
  8
Sichtbar (ISO)
100
AcDbCircle
 10
209.3909448320003
 20
1403.620427369253
 30
0.0
 40
601.9999999999939
100
AcDbArc
 50
275.356231129186
 51
277.4126773561778
  0
ARC
  5
263
330
37
100
AcDbEntity
  8
Sichtbar (ISO)
100
AcDbCircle
 10
209.3909448320003
 20
1403.620427369253
 30
0.0
 40
601.9999999999939
100
AcDbArc
 50
270.0
 51
270.6300493931824
  0
ARC
  5
264
330
37
100
AcDbEntity
  8
Sichtbar (ISO)
100
AcDbCircle
 10
279.4805038654701
 20
858.0964974537614
 30
0.0
 40
52.0
100
AcDbArc
 50
278.3790176620017
 51
334.7579106646938
  0
ARC
  5
265
330
37
100
AcDbEntity
  8
Sichtbar (ISO)
100
AcDbCircle
 10
279.4805038654705
 20
1346.144357284758
 30
0.0
 40
52.00000000000001
100
AcDbArc
 50
25.24208933530621
 51
81.62098233799822
  0
ARC
  5
266
330
37
100
AcDbEntity
  8
Sichtbar (ISO)
100
AcDbCircle
 10
58.89094483201187
 20
1047.120427374073
 30
0.0
 40
28.00000000000002
100
AcDbArc
 50
180.0
 51
185.0566706522054
  0
ARC
  5
267
330
37
100
AcDbEntity
  8
Sichtbar (ISO)
100
AcDbCircle
 10
58.89094483201227
 20
1157.120427364446
 30
0.0
 40
28.00000000000001
100
AcDbArc
 50
174.9433293477953
 51
180.0
  0
LINE
  5
268
330
37
100
AcDbEntity
  8
Sichtbar (ISO)
100
AcDbLine
 10
30.89094483201225
 20
1157.120427364446
 30
0.0
 11
30.89094483201189
 21
1047.120427374073
 31
0.0
  0
ARC
  5
269
330
37
100
AcDbEntity
  8
Sichtbar (ISO)
100
AcDbCircle
 10
680.4623405702632
 20
1102.12042736834
 30
0.0
 40
652.0000000048225
100
AcDbArc
 50
185.0566706517022
 51
203.9686320448658
  0
ARC
  5
26A
330
37
100
AcDbEntity
  8
Sichtbar (ISO)
100
AcDbCircle
 10
680.4623405702632
 20
1102.12042736834
 30
0.0
 40
652.0000000048221
100
AcDbArc
 50
156.0313679549866
 51
174.943329348137
  0
ARC
  5
26B
330
37
100
AcDbEntity
  8
Sichtbar (ISO)
100
AcDbCircle
 10
132.2015414720919
 20
858.3785635668284
 30
0.0
 40
51.9999999999999
100
AcDbArc
 50
203.9686320453267
 51
262.4579689911783
  0
ARC
  5
26C
330
37
100
AcDbEntity
  8
Sichtbar (ISO)
100
AcDbCircle
 10
132.2015414720936
 20
1345.862291171691
 30
0.0
 40
51.99999999999985
100
AcDbArc
 50
97.54203100882133
 51
156.0313679546732
  0
ARC
  5
26D
330
37
100
AcDbEntity
  8
Sichtbar (ISO)
100
AcDbCircle
 10
204.3909448305984
 20
800.6204273692683
 30
0.0
 40
601.9999999999993
100
AcDbArc
 50
90.47587983660976
 51
97.5420310088209
  0
ARC
  5
26E
330
37
100
AcDbEntity
  8
Sichtbar (ISO)
100
AcDbCircle
 10
204.3909448306004
 20
1403.620427369251
 30
0.0
 40
601.999999999999
100
AcDbArc
 50
262.4579689911784
 51
269.5241201633896
  0
LINE
  5
26F
330
37
100
AcDbEntity
  8
Sichtbar (ISO)
100
AcDbLine
 10
224.0409448320023
 20
1445.620427369255
 30
0.0
 11
255.7409448319985
 21
1445.620427369264
 31
0.0
  0
LINE
  5
270
330
37
100
AcDbEntity
  8
Sichtbar (ISO)
100
AcDbLine
 10
256.7409448319984
 20
1444.620427369264
 30
0.0
 11
223.0409448320024
 21
1444.620427369254
 31
0.0
  0
LINE
  5
271
330
37
100
AcDbEntity
  8
Sichtbar (ISO)
100
AcDbLine
 10
255.7409448319985
 20
1445.620427369264
 30
0.0
 11
256.7409448319984
 21
1444.620427369264
 31
0.0
  0
LINE
  5
272
330
37
100
AcDbEntity
  8
Sichtbar (ISO)
100
AcDbLine
 10
224.0409448320022
 20
1445.620427369255
 30
0.0
 11
223.0409448320024
 21
1444.620427369254
 31
0.0
  0
LINE
  5
273
330
37
100
AcDbEntity
  8
Sichtbar (ISO)
100
AcDbLine
 10
223.0409448320024
 20
1428.620427369254
 30
0.0
 11
256.7409448319984
 21
1428.620427369264
 31
0.0
  0
LINE
  5
274
330
37
100
AcDbEntity
  8
Sichtbar (ISO)
100
AcDbLine
 10
223.4409448320024
 20
1412.52284437593
 30
0.0
 11
256.3409448319985
 21
1412.52284437594
 31
0.0
  0
LINE
  5
275
330
37
100
AcDbEntity
  8
Sichtbar (ISO)
100
AcDbLine
 10
256.7409448319984
 20
1444.620427369264
 30
0.0
 11
256.7409448319984
 21
1428.620427369264
 31
0.0
  0
LINE
  5
276
330
37
100
AcDbEntity
  8
Sichtbar (ISO)
100
AcDbLine
 10
223.0409448320024
 20
1444.620427369254
 30
0.0
 11
223.0409448320024
 21
1428.620427369254
 31
0.0
  0
LINE
  5
277
330
37
100
AcDbEntity
  8
Sichtbar (ISO)
100
AcDbLine
 10
256.3409448319985
 20
1428.620427369264
 30
0.0
 11
256.3409448319985
 21
1412.52284437594
 31
0.0
  0
LINE
  5
278
330
37
100
AcDbEntity
  8
Sichtbar (ISO)
100
AcDbLine
 10
223.4409448320024
 20
1428.620427369254
 30
0.0
 11
223.4409448320024
 21
1412.52284437593
 31
0.0
  0
ARC
  5
279
330
37
100
AcDbEntity
  8
Sichtbar (ISO)
100
AcDbCircle
 10
221.8409178891507
 20
1411.01286678291
 30
0.0
 40
2.200026942852014
100
AcDbArc
 50
38.08661482171707
 51
43.34147940774494
  0
ARC
  5
27A
330
37
100
AcDbEntity
  8
Sichtbar (ISO)
100
AcDbCircle
 10
257.9409717748501
 20
1411.01286678292
 30
0.0
 40
2.200026942852044
100
AcDbArc
 50
136.6585205922818
 51
141.9133851783112
  0
LINE
  5
27B
330
37
100
AcDbEntity
  8
Sichtbar (ISO)
100
AcDbLine
 10
255.7409448320004
 20
758.6204273692596
 30
0.0
 11
224.0409448320004
 21
758.6204273692596
 31
0.0
  0
LINE
  5
27C
330
37
100
AcDbEntity
  8
Sichtbar (ISO)
100
AcDbLine
 10
223.0409448320004
 20
759.6204273692595
 30
0.0
 11
256.7409448320005
 21
759.6204273692595
 31
0.0
  0
LINE
  5
27D
330
37
100
AcDbEntity
  8
Sichtbar (ISO)
100
AcDbLine
 10
224.0409448320004
 20
758.6204273692596
 30
0.0
 11
223.0409448320004
 21
759.6204273692595
 31
0.0
  0
LINE
  5
27E
330
37
100
AcDbEntity
  8
Sichtbar (ISO)
100
AcDbLine
 10
255.7409448320004
 20
758.6204273692596
 30
0.0
 11
256.7409448320005
 21
759.6204273692595
 31
0.0
  0
LINE
  5
27F
330
37
100
AcDbEntity
  8
Sichtbar (ISO)
100
AcDbLine
 10
256.7409448320005
 20
775.6204273692596
 30
0.0
 11
223.0409448320004
 21
775.6204273692596
 31
0.0
  0
LINE
  5
280
330
37
100
AcDbEntity
  8
Sichtbar (ISO)
100
AcDbLine
 10
256.3409448320005
 20
791.7180103625841
 30
0.0
 11
223.4409448320004
 21
791.7180103625841
 31
0.0
  0
LINE
  5
281
330
37
100
AcDbEntity
  8
Sichtbar (ISO)
100
AcDbLine
 10
223.0409448320004
 20
759.6204273692595
 30
0.0
 11
223.0409448320004
 21
775.6204273692596
 31
0.0
  0
LINE
  5
282
330
37
100
AcDbEntity
  8
Sichtbar (ISO)
100
AcDbLine
 10
256.7409448320005
 20
759.6204273692595
 30
0.0
 11
256.7409448320005
 21
775.6204273692596
 31
0.0
  0
LINE
  5
283
330
37
100
AcDbEntity
  8
Sichtbar (ISO)
100
AcDbLine
 10
223.4409448320004
 20
775.6204273692596
 30
0.0
 11
223.4409448320004
 21
791.7180103625841
 31
0.0
  0
LINE
  5
284
330
37
100
AcDbEntity
  8
Sichtbar (ISO)
100
AcDbLine
 10
256.3409448320005
 20
775.6204273692596
 30
0.0
 11
256.3409448320005
 21
791.7180103625841
 31
0.0
  0
ARC
  5
285
330
37
100
AcDbEntity
  8
Sichtbar (ISO)
100
AcDbCircle
 10
257.9409717748523
 20
793.227987955604
 30
0.0
 40
2.200026942851837
100
AcDbArc
 50
218.086614821696
 51
223.3414794077243
  0
ARC
  5
286
330
37
100
AcDbEntity
  8
Sichtbar (ISO)
100
AcDbCircle
 10
221.8409178891486
 20
793.227987955604
 30
0.0
 40
2.200026942851836
100
AcDbArc
 50
316.6585205922757
 51
321.9133851783031
  0
ARC
  5
287
330
37
100
AcDbEntity
  8
Sichtbar (ISO)
100
AcDbCircle
 10
347.7420454712073
 20
1324.525468589107
 30
0.0
 40
2.500000000000022
100
AcDbArc
 50
132.999999999998
 51
196.9999999999983
  0
LINE
  5
288
330
37
100
AcDbEntity
  8
Sichtbar (ISO)
100
AcDbLine
 10
346.0370495710511
 20
1326.353852843155
 30
0.0
 11
376.6266042426072
 21
1354.879074052614
 31
0.0
  0
LINE
  5
289
330
37
100
AcDbEntity
  8
Sichtbar (ISO)
100
AcDbLine
 10
353.665699428865
 20
1296.599310481125
 30
0.0
 11
345.3512835812997
 21
1323.7945393273
 31
0.0
  0
LINE
  5
28A
330
37
100
AcDbEntity
  8
Sichtbar (ISO)
100
AcDbLine
 10
356.0564613187726
 20
1297.330239742932
 30
0.0
 11
353.665699428865
 21
1296.599310481125
 31
0.0
  0
LINE
  5
28B
330
37
100
AcDbEntity
  8
Sichtbar (ISO)
100
AcDbLine
 10
348.1987807653242
 20
1323.031554756391
 30
0.0
 11
356.0564613187726
 21
1297.330239742932
 31
0.0
  0
LINE
  5
28C
330
37
100
AcDbEntity
  8
Sichtbar (ISO)
100
AcDbLine
 10
379.1266042426072
 20
1353.792043115212
 30
0.0
 11
348.8845467550754
 21
1325.590868272246
 31
0.0
  0
LINE
  5
28D
330
37
100
AcDbEntity
  8
Sichtbar (ISO)
100
AcDbLine
 10
379.921608342451
 20
1399.715177562371
 30
0.0
 11
379.9216083424509
 21
1355.62042736926
 31
0.0
  0
LINE
  5
28E
330
37
100
AcDbEntity
  8
Sichtbar (ISO)
100
AcDbLine
 10
377.4216083424509
 20
1356.707458306662
 30
0.0
 11
377.421608342451
 21
1399.715177562371
 31
0.0
  0
ARC
  5
28F
330
37
100
AcDbEntity
  8
Sichtbar (ISO)
100
AcDbCircle
 10
350.5895426552317
 20
1323.762484018198
 30
0.0
 40
2.499999999999988
100
AcDbArc
 50
133.0000000000015
 51
197.0000000000025
  0
ARC
  5
290
330
37
100
AcDbEntity
  8
Sichtbar (ISO)
100
AcDbCircle
 10
377.4216083424509
 20
1355.62042736926
 30
0.0
 40
2.499999999999979
100
AcDbArc
 50
313.0000000000008
 51
0.0
  0
LINE
  5
291
330
37
100
AcDbEntity
  8
Sichtbar (ISO)
100
AcDbLine
 10
379.921608342451
 20
1399.715177562371
 30
0.0
 11
377.421608342451
 21
1399.715177562371
 31
0.0
  0
LINE
  5
292
330
37
100
AcDbEntity
  8
Sichtbar (ISO)
100
AcDbLine
 10
379.921608342451
 20
1399.715177562371
 30
0.0
 11
379.921608342451
 21
1401.62042736926
 31
0.0
  0
LINE
  5
293
330
37
100
AcDbEntity
  8
Sichtbar (ISO)
100
AcDbLine
 10
377.421608342451
 20
1401.62042736926
 30
0.0
 11
377.4216083424509
 21
1399.715177562371
 31
0.0
  0
LINE
  5
294
330
37
100
AcDbEntity
  8
Sichtbar (ISO)
100
AcDbLine
 10
379.921608342451
 20
1401.62042736926
 30
0.0
 11
377.421608342451
 21
1401.62042736926
 31
0.0
  0
ARC
  5
295
330
37
100
AcDbEntity
  8
Sichtbar (ISO)
100
AcDbCircle
 10
374.9216083424509
 20
1356.707458306662
 30
0.0
 40
2.500000000000018
100
AcDbArc
 50
313.0000000000023
 51
0.0
  0
LINE
  5
296
330
37
100
AcDbEntity
  8
Sichtbar (ISO)
100
AcDbLine
 10
256.3409448320005
 20
1412.369957842574
 30
0.0
 11
223.4409448320003
 21
1412.369957842574
 31
0.0
  0
LINE
  5
297
330
37
100
AcDbEntity
  8
Sichtbar (ISO)
100
AcDbLine
 10
256.3409448320005
 20
1412.369957842574
 30
0.0
 11
259.5409448320004
 21
1409.169957842574
 31
0.0
  0
LINE
  5
298
330
37
100
AcDbEntity
  8
Sichtbar (ISO)
100
AcDbLine
 10
223.4409448320003
 20
1412.369957842574
 30
0.0
 11
220.2409448320004
 21
1409.169957842574
 31
0.0
  0
LINE
  5
299
330
37
100
AcDbEntity
  8
Sichtbar (ISO)
100
AcDbLine
 10
223.4409448320004
 20
791.870896895945
 30
0.0
 11
256.3409448320004
 21
791.870896895945
 31
0.0
  0
LINE
  5
29A
330
37
100
AcDbEntity
  8
Sichtbar (ISO)
100
AcDbLine
 10
223.4409448320004
 20
791.870896895945
 30
0.0
 11
220.2409448320004
 21
795.070896895945
 31
0.0
  0
LINE
  5
29B
330
37
100
AcDbEntity
  8
Sichtbar (ISO)
100
AcDbLine
 10
256.3409448320005
 20
791.870896895945
 30
0.0
 11
259.5409448320004
 21
795.070896895945
 31
0.0
  0
LINE
  5
29C
330
37
100
AcDbEntity
  8
Sichtbar (ISO)
100
AcDbLine
 10
199.3909889817454
 20
1402.599663258271
 30
0.0
 11
199.3909889817451
 21
801.6411914802484
 31
0.0
  0
LINE
  5
29D
330
37
100
AcDbEntity
  8
Sichtbar (ISO)
100
AcDbLine
 10
199.3909889817454
 20
1402.599663258271
 30
0.0
 11
201.3909448320005
 21
1404.612952239807
 31
0.0
  0
LINE
  5
29E
330
37
100
AcDbEntity
  8
Sichtbar (ISO)
100
AcDbLine
 10
199.3909889817451
 20
801.6411914802484
 30
0.0
 11
201.3909448320003
 21
799.6279024987122
 31
0.0
  0
LINE
  5
29F
330
37
100
AcDbEntity
  8
Sichtbar (ISO)
100
AcDbLine
 10
747.135350611253
 20
1408.182015583961
 30
0.0
 11
707.2142961102963
 21
1408.182015583961
 31
0.0
  0
LINE
  5
2A0
330
37
100
AcDbEntity
  8
Sichtbar (ISO)
100
AcDbLine
 10
747.135350611253
 20
1409.169957842574
 30
0.0
 11
707.2142961102963
 21
1409.169957842574
 31
0.0
  0
LINE
  5
2A1
330
37
100
AcDbEntity
  8
Sichtbar (ISO)
100
AcDbLine
 10
747.1353506112531
 20
1408.182015583961
 30
0.0
 11
750.2461508969818
 21
1403.739332356525
 31
0.0
  0
LINE
  5
2A2
330
37
100
AcDbEntity
  8
Sichtbar (ISO)
100
AcDbLine
 10
707.2142961102963
 20
1408.182015583961
 30
0.0
 11
704.1034958245677
 21
1403.739332356525
 31
0.0
  0
LINE
  5
2A3
330
37
100
AcDbEntity
  8
Sichtbar (ISO)
100
AcDbLine
 10
707.2142961102963
 20
1408.182015583961
 30
0.0
 11
707.2142961102963
 21
1409.169957842574
 31
0.0
  0
LINE
  5
2A4
330
37
100
AcDbEntity
  8
Sichtbar (ISO)
100
AcDbLine
 10
747.1353506112531
 20
1408.182015583961
 30
0.0
 11
747.1353506112531
 21
1409.169957842574
 31
0.0
  0
LINE
  5
2A5
330
37
100
AcDbEntity
  8
Sichtbar (ISO)
100
AcDbLine
 10
707.2142961102964
 20
796.0588391545582
 30
0.0
 11
747.1353506112531
 21
796.0588391545582
 31
0.0
  0
LINE
  5
2A6
330
37
100
AcDbEntity
  8
Sichtbar (ISO)
100
AcDbLine
 10
707.2142961102964
 20
795.0708968959452
 30
0.0
 11
747.1353506112531
 21
795.0708968959452
 31
0.0
  0
LINE
  5
2A7
330
37
100
AcDbEntity
  8
Sichtbar (ISO)
100
AcDbLine
 10
707.2142961102963
 20
796.0588391545582
 30
0.0
 11
704.1034958245679
 21
800.5015223819944
 31
0.0
  0
LINE
  5
2A8
330
37
100
AcDbEntity
  8
Sichtbar (ISO)
100
AcDbLine
 10
747.1353506112531
 20
796.0588391545582
 30
0.0
 11
750.2461508969818
 21
800.5015223819944
 31
0.0
  0
LINE
  5
2A9
330
37
100
AcDbEntity
  8
Sichtbar (ISO)
100
AcDbLine
 10
747.1353506112531
 20
796.0588391545582
 30
0.0
 11
747.1353506112531
 21
795.0708968959452
 31
0.0
  0
LINE
  5
2AA
330
37
100
AcDbEntity
  8
Sichtbar (ISO)
100
AcDbLine
 10
707.2142961102963
 20
796.0588391545582
 30
0.0
 11
707.2142961102963
 21
795.0708968959452
 31
0.0
  0
CIRCLE
  5
2AB
330
37
100
AcDbEntity
  8
Sichtbar (ISO)
100
AcDbCircle
 10
727.1748233607633
 20
1102.12042736926
 30
0.0
 40
302.5000000000001
  0
CIRCLE
  5
2AC
330
37
100
AcDbEntity
  8
Sichtbar (ISO)
100
AcDbCircle
 10
727.1748233607187
 20
1102.12042736926
 30
0.0
 40
12.2751846088456
  0
LINE
  5
2AD
330
37
100
AcDbEntity
  8
Sichtbar (ISO)
100
AcDbLine
 10
711.3248233607764
 20
1445.620427369259
 30
0.0
 11
743.024823360773
 21
1445.620427369259
 31
0.0
  0
LINE
  5
2AE
330
37
100
AcDbEntity
  8
Sichtbar (ISO)
100
AcDbLine
 10
744.0248233607729
 20
1444.620427369259
 30
0.0
 11
710.3248233607765
 21
1444.620427369259
 31
0.0
  0
LINE
  5
2AF
330
37
100
AcDbEntity
  8
Sichtbar (ISO)
100
AcDbLine
 10
743.024823360773
 20
1445.620427369259
 30
0.0
 11
744.0248233607729
 21
1444.620427369259
 31
0.0
  0
LINE
  5
2B0
330
37
100
AcDbEntity
  8
Sichtbar (ISO)
100
AcDbLine
 10
711.3248233607764
 20
1445.620427369259
 30
0.0
 11
710.3248233607765
 21
1444.620427369259
 31
0.0
  0
LINE
  5
2B1
330
37
100
AcDbEntity
  8
Sichtbar (ISO)
100
AcDbLine
 10
710.3248233607768
 20
1428.620427369259
 30
0.0
 11
744.024823360773
 21
1428.620427369259
 31
0.0
  0
LINE
  5
2B2
330
37
100
AcDbEntity
  8
Sichtbar (ISO)
100
AcDbLine
 10
710.7248233607771
 20
1412.522844375935
 30
0.0
 11
743.6248233607734
 21
1412.522844375935
 31
0.0
  0
LINE
  5
2B3
330
37
100
AcDbEntity
  8
Sichtbar (ISO)
100
AcDbLine
 10
744.0248233607729
 20
1444.620427369259
 30
0.0
 11
744.024823360773
 21
1428.620427369259
 31
0.0
  0
LINE
  5
2B4
330
37
100
AcDbEntity
  8
Sichtbar (ISO)
100
AcDbLine
 10
710.3248233607766
 20
1444.620427369259
 30
0.0
 11
710.3248233607769
 21
1428.620427369259
 31
0.0
  0
LINE
  5
2B5
330
37
100
AcDbEntity
  8
Sichtbar (ISO)
100
AcDbLine
 10
743.6248233607731
 20
1428.620427369259
 30
0.0
 11
743.6248233607734
 21
1412.522844375935
 31
0.0
  0
LINE
  5
2B6
330
37
100
AcDbEntity
  8
Sichtbar (ISO)
100
AcDbLine
 10
710.7248233607768
 20
1428.620427369259
 30
0.0
 11
710.7248233607771
 21
1412.522844375935
 31
0.0
  0
ARC
  5
2B7
330
37
100
AcDbEntity
  8
Sichtbar (ISO)
100
AcDbCircle
 10
709.1247964179254
 20
1411.012866782915
 30
0.0
 40
2.200026942851733
100
AcDbArc
 50
38.08661482171266
 51
43.34147940773486
  0
ARC
  5
2B8
330
37
100
AcDbEntity
  8
Sichtbar (ISO)
100
AcDbCircle
 10
745.224850303625
 20
1411.012866782915
 30
0.0
 40
2.20002694285172
100
AcDbArc
 50
136.6585205922667
 51
141.9133851783068
  0
LINE
  5
2B9
330
37
100
AcDbEntity
  8
Sichtbar (ISO)
100
AcDbLine
 10
743.0248233607747
 20
758.6204273692597
 30
0.0
 11
711.3248233607747
 21
758.6204273692597
 31
0.0
  0
LINE
  5
2BA
330
37
100
AcDbEntity
  8
Sichtbar (ISO)
100
AcDbLine
 10
710.3248233607748
 20
759.6204273692598
 30
0.0
 11
744.0248233607747
 21
759.6204273692598
 31
0.0
  0
LINE
  5
2BB
330
37
100
AcDbEntity
  8
Sichtbar (ISO)
100
AcDbLine
 10
711.3248233607747
 20
758.6204273692597
 30
0.0
 11
710.3248233607748
 21
759.6204273692598
 31
0.0
  0
LINE
  5
2BC
330
37
100
AcDbEntity
  8
Sichtbar (ISO)
100
AcDbLine
 10
743.0248233607747
 20
758.6204273692597
 30
0.0
 11
744.0248233607747
 21
759.6204273692598
 31
0.0
  0
LINE
  5
2BD
330
37
100
AcDbEntity
  8
Sichtbar (ISO)
100
AcDbLine
 10
744.0248233607747
 20
775.6204273692597
 30
0.0
 11
710.3248233607748
 21
775.6204273692597
 31
0.0
  0
LINE
  5
2BE
330
37
100
AcDbEntity
  8
Sichtbar (ISO)
100
AcDbLine
 10
743.6248233607748
 20
791.7180103625842
 30
0.0
 11
710.7248233607747
 21
791.7180103625842
 31
0.0
  0
LINE
  5
2BF
330
37
100
AcDbEntity
  8
Sichtbar (ISO)
100
AcDbLine
 10
710.3248233607748
 20
759.6204273692598
 30
0.0
 11
710.3248233607748
 21
775.6204273692597
 31
0.0
  0
LINE
  5
2C0
330
37
100
AcDbEntity
  8
Sichtbar (ISO)
100
AcDbLine
 10
744.0248233607747
 20
759.6204273692598
 30
0.0
 11
744.0248233607747
 21
775.6204273692597
 31
0.0
  0
LINE
  5
2C1
330
37
100
AcDbEntity
  8
Sichtbar (ISO)
100
AcDbLine
 10
710.7248233607747
 20
775.6204273692599
 30
0.0
 11
710.7248233607747
 21
791.7180103625842
 31
0.0
  0
LINE
  5
2C2
330
37
100
AcDbEntity
  8
Sichtbar (ISO)
100
AcDbLine
 10
743.6248233607748
 20
775.6204273692599
 30
0.0
 11
743.6248233607748
 21
791.7180103625842
 31
0.0
  0
ARC
  5
2C3
330
37
100
AcDbEntity
  8
Sichtbar (ISO)
100
AcDbCircle
 10
745.2248503036265
 20
793.2279879556041
 30
0.0
 40
2.200026942851836
100
AcDbArc
 50
218.0866148216968
 51
223.3414794077252
  0
ARC
  5
2C4
330
37
100
AcDbEntity
  8
Sichtbar (ISO)
100
AcDbCircle
 10
709.1247964179229
 20
793.2279879556041
 30
0.0
 40
2.200026942851836
100
AcDbArc
 50
316.6585205922765
 51
321.9133851783046
  0
LINE
  5
2C5
330
37
100
AcDbEntity
  8
Sichtbar (ISO)
100
AcDbLine
 10
743.6248233607754
 20
1412.369957842574
 30
0.0
 11
710.7248233607752
 21
1412.369957842574
 31
0.0
  0
LINE
  5
2C6
330
37
100
AcDbEntity
  8
Sichtbar (ISO)
100
AcDbLine
 10
743.6248233607754
 20
1412.369957842574
 30
0.0
 11
746.8248233607753
 21
1409.169957842574
 31
0.0
  0
LINE
  5
2C7
330
37
100
AcDbEntity
  8
Sichtbar (ISO)
100
AcDbLine
 10
710.7248233607752
 20
1412.369957842574
 30
0.0
 11
707.5248233607752
 21
1409.169957842574
 31
0.0
  0
LINE
  5
2C8
330
37
100
AcDbEntity
  8
Sichtbar (ISO)
100
AcDbLine
 10
710.7248233607747
 20
791.8708968959451
 30
0.0
 11
743.6248233607748
 21
791.8708968959451
 31
0.0
  0
LINE
  5
2C9
330
37
100
AcDbEntity
  8
Sichtbar (ISO)
100
AcDbLine
 10
710.7248233607747
 20
791.8708968959451
 30
0.0
 11
707.5248233607748
 21
795.0708968959452
 31
0.0
  0
LINE
  5
2CA
330
37
100
AcDbEntity
  8
Sichtbar (ISO)
100
AcDbLine
 10
743.6248233607748
 20
791.8708968959451
 30
0.0
 11
746.8248233607749
 21
795.0708968959452
 31
0.0
  0
CIRCLE
  5
2CB
330
37
100
AcDbEntity
  8
Sichtbar (ISO)
100
AcDbCircle
 10
727.1748233607633
 20
1102.12042736926
 30
0.0
 40
302.4925248705475
  0
CIRCLE
  5
2CC
330
37
100
AcDbEntity
  8
Sichtbar (ISO)
100
AcDbCircle
 10
727.1748233607627
 20
1102.12042736926
 30
0.0
 40
300.4792358890112
  0
POLYLINE
  5
2CD
330
37
100
AcDbEntity
  8
Sichtbar (ISO)
100
AcDb2dPolyline
 66
     1
 10
0.0
 20
0.0
 30
0.0
 70
   128
  0
VERTEX
  5
2CE
330
2CD
100
AcDbEntity
  8
Sichtbar (ISO)
100
AcDbVertex
100
AcDb2dVertex
 10
265.5862992936703
 20
360.9027687360409
 30
0.0
  0
VERTEX
  5
2CF
330
2CD
100
AcDbEntity
  8
Sichtbar (ISO)
100
AcDbVertex
100
AcDb2dVertex
 10
265.4604476625058
 20
358.3699834992053
 30
0.0
  0
VERTEX
  5
2D1
330
2CD
100
AcDbEntity
  8
Sichtbar (ISO)
100
AcDbVertex
100
AcDb2dVertex
 10
265.0850671464535
 20
355.8673850347163
 30
0.0
  0
VERTEX
  5
2D2
330
2CD
100
AcDbEntity
  8
Sichtbar (ISO)
100
AcDbVertex
100
AcDb2dVertex
 10
264.4634336167904
 20
353.4140632201793
 30
0.0
  0
VERTEX
  5
2D3
330
2CD
100
AcDbEntity
  8
Sichtbar (ISO)
100
AcDbVertex
100
AcDb2dVertex
 10
263.5989087754818
 20
351.0293362189891
 30
0.0
  0
VERTEX
  5
2D4
330
2CD
100
AcDbEntity
  8
Sichtbar (ISO)
100
AcDbVertex
100
AcDb2dVertex
 10
262.5018590623471
 20
348.745340471423
 30
0.0
  0
VERTEX
  5
2D5
330
2CD
100
AcDbEntity
  8
Sichtbar (ISO)
100
AcDbVertex
100
AcDb2dVertex
 10
261.1846107179257
 20
346.5871087361934
 30
0.0
  0
VERTEX
  5
2D6
330
2CD
100
AcDbEntity
  8
Sichtbar (ISO)
100
AcDbVertex
100
AcDb2dVertex
 10
259.6569818193051
 20
344.571459655917
 30
0.0
  0
VERTEX
  5
2D7
330
2CD
100
AcDbEntity
  8
Sichtbar (ISO)
100
AcDbVertex
100
AcDb2dVertex
 10
257.9291814500424
 20
342.7156058599117
 30
0.0
  0
VERTEX
  5
2D8
330
2CD
100
AcDbEntity
  8
Sichtbar (ISO)
100
AcDbVertex
100
AcDb2dVertex
 10
256.0248559648129
 20
341.0472647000911
 30
0.0
  0
VERTEX
  5
2D9
330
2CD
100
AcDbEntity
  8
Sichtbar (ISO)
100
AcDbVertex
100
AcDb2dVertex
 10
253.9648765260312
 20
339.5844737340573
 30
0.0
  0
VERTEX
  5
2DA
330
2CD
100
AcDbEntity
  8
Sichtbar (ISO)
100
AcDbVertex
100
AcDb2dVertex
 10
251.7649024659725
 20
338.3390394498471
 30
0.0
  0
VERTEX
  5
2DB
330
2CD
100
AcDbEntity
  8
Sichtbar (ISO)
100
AcDbVertex
100
AcDb2dVertex
 10
249.4427102738949
 20
337.323586111224
 30
0.0
  0
VERTEX
  5
2DC
330
2CD
100
AcDbEntity
  8
Sichtbar (ISO)
100
AcDbVertex
100
AcDb2dVertex
 10
247.0345419580075
 20
336.5548340131406
 30
0.0
  0
VERTEX
  5
2DD
330
2CD
100
AcDbEntity
  8
Sichtbar (ISO)
100
AcDbVertex
100
AcDb2dVertex
 10
244.5640700990292
 20
336.0392562200193
 30
0.0
  0
VERTEX
  5
2DE
330
2CD
100
AcDbEntity
  8
Sichtbar (ISO)
100
AcDbVertex
100
AcDb2dVertex
 10
242.0505040818783
 20
335.7810894300107
 30
0.0
  0
VERTEX
  5
2DF
330
2CD
100
AcDbEntity
  8
Sichtbar (ISO)
100
AcDbVertex
100
AcDb2dVertex
 10
239.5184320146176
 20
335.7842985440855
 30
0.0
  0
VERTEX
  5
2E0
330
2CD
100
AcDbEntity
  8
Sichtbar (ISO)
100
AcDbVertex
100
AcDb2dVertex
 10
237.0079368287655
 20
336.0483518888121
 30
0.0
  0
VERTEX
  5
2E1
330
2CD
100
AcDbEntity
  8
Sichtbar (ISO)
100
AcDbVertex
100
AcDb2dVertex
 10
234.5403188401791
 20
336.5690771390563
 30
0.0
  0
VERTEX
  5
2E2
330
2CD
100
AcDbEntity
  8
Sichtbar (ISO)
100
AcDbVertex
100
AcDb2dVertex
 10
232.1347993547055
 20
337.3422042180663
 30
0.0
  0
VERTEX
  5
2E3
330
2CD
100
AcDbEntity
  8
Sichtbar (ISO)
100
AcDbVertex
100
AcDb2dVertex
 10
229.8182386094662
 20
338.3596268941528
 30
0.0
  0
VERTEX
  5
2E4
330
2CD
100
AcDbEntity
  8
Sichtbar (ISO)
100
AcDbVertex
100
AcDb2dVertex
 10
227.6237314874264
 20
339.6052829076416
 30
0.0
  0
VERTEX
  5
2E5
330
2CD
100
AcDbEntity
  8
Sichtbar (ISO)
100
AcDbVertex
100
AcDb2dVertex
 10
225.5676299268337
 20
341.0674778272279
 30
0.0
  0
VERTEX
  5
2E6
330
2CD
100
AcDbEntity
  8
Sichtbar (ISO)
100
AcDbVertex
100
AcDb2dVertex
 10
223.6657911473843
 20
342.7347055722841
 30
0.0
  0
VERTEX
  5
2E7
330
2CD
100
AcDbEntity
  8
Sichtbar (ISO)
100
AcDbVertex
100
AcDb2dVertex
 10
221.94118081871
 20
344.5869950105318
 30
0.0
  0
VERTEX
  5
2E8
330
2CD
100
AcDbEntity
  8
Sichtbar (ISO)
100
AcDbVertex
100
AcDb2dVertex
 10
220.415130251083
 20
346.5990976144442
 30
0.0
  0
VERTEX
  5
2E9
330
2CD
100
AcDbEntity
  8
Sichtbar (ISO)
100
AcDbVertex
100
AcDb2dVertex
 10
219.0979802543255
 20
348.7545720388064
 30
0.0
  0
VERTEX
  5
2EA
330
2CD
100
AcDbEntity
  8
Sichtbar (ISO)
100
AcDbVertex
100
AcDb2dVertex
 10
218.0000364715191
 20
351.0370091249118
 30
0.0
  0
VERTEX
  5
2EB
330
2CD
100
AcDbEntity
  8
Sichtbar (ISO)
100
AcDbVertex
100
AcDb2dVertex
 10
217.1350312167736
 20
353.4188989450107
 30
0.0
  0
VERTEX
  5
2EC
330
2CD
100
AcDbEntity
  8
Sichtbar (ISO)
100
AcDbVertex
100
AcDb2dVertex
 10
216.5127408439251
 20
355.8698353816638
 30
0.0
  0
VERTEX
  5
2ED
330
2CD
100
AcDbEntity
  8
Sichtbar (ISO)
100
AcDbVertex
100
AcDb2dVertex
 10
216.1367571288677
 20
358.3709273387561
 30
0.0
  0
VERTEX
  5
2EE
330
2CD
100
AcDbEntity
  8
Sichtbar (ISO)
100
AcDbVertex
100
AcDb2dVertex
 10
216.0106658870312
 20
360.9032870918148
 30
0.0
  0
VERTEX
  5
2EF
330
2CD
100
AcDbEntity
  8
Sichtbar (ISO)
100
AcDbVertex
100
AcDb2dVertex
 10
216.1368209058377
 20
363.4352511812816
 30
0.0
  0
VERTEX
  5
2F0
330
2CD
100
AcDbEntity
  8
Sichtbar (ISO)
100
AcDbVertex
100
AcDb2dVertex
 10
216.5128427678677
 20
365.9362069417606
 30
0.0
  0
VERTEX
  5
2F1
330
2CD
100
AcDbEntity
  8
Sichtbar (ISO)
100
AcDbVertex
100
AcDb2dVertex
 10
217.1352225476834
 20
368.3872590114245
 30
0.0
  0
VERTEX
  5
2F2
330
2CD
100
AcDbEntity
  8
Sichtbar (ISO)
100
AcDbVertex
100
AcDb2dVertex
 10
218.0004256898495
 20
370.7694528152118
 30
0.0
  0
VERTEX
  5
2F3
330
2CD
100
AcDbEntity
  8
Sichtbar (ISO)
100
AcDbVertex
100
AcDb2dVertex
 10
219.0983372861477
 20
373.0516210843692
 30
0.0
  0
VERTEX
  5
2F4
330
2CD
100
AcDbEntity
  8
Sichtbar (ISO)
100
AcDbVertex
100
AcDb2dVertex
 10
220.4156941110226
 20
375.2072647859225
 30
0.0
  0
VERTEX
  5
2F5
330
2CD
100
AcDbEntity
  8
Sichtbar (ISO)
100
AcDbVertex
100
AcDb2dVertex
 10
221.9423180753323
 20
377.2198931028017
 30
0.0
  0
VERTEX
  5
2F6
330
2CD
100
AcDbEntity
  8
Sichtbar (ISO)
100
AcDbVertex
100
AcDb2dVertex
 10
223.6677390271756
 20
379.072722559131
 30
0.0
  0
VERTEX
  5
2F7
330
2CD
100
AcDbEntity
  8
Sichtbar (ISO)
100
AcDbVertex
100
AcDb2dVertex
 10
225.5690127545925
 20
380.73915279404
 30
0.0
  0
VERTEX
  5
2F8
330
2CD
100
AcDbEntity
  8
Sichtbar (ISO)
100
AcDbVertex
100
AcDb2dVertex
 10
227.6251524621578
 20
382.2011629392274
 30
0.0
  0
VERTEX
  5
2F9
330
2CD
100
AcDbEntity
  8
Sichtbar (ISO)
100
AcDbVertex
100
AcDb2dVertex
 10
229.8204630548092
 20
383.4470263768799
 30
0.0
  0
VERTEX
  5
2FA
330
2CD
100
AcDbEntity
  8
Sichtbar (ISO)
100
AcDbVertex
100
AcDb2dVertex
 10
232.1377462083431
 20
384.4644490529662
 30
0.0
  0
VERTEX
  5
2FB
330
2CD
100
AcDbEntity
  8
Sichtbar (ISO)
100
AcDbVertex
100
AcDb2dVertex
 10
234.5423072511288
 20
385.2369872380859
 30
0.0
  0
VERTEX
  5
2FC
330
2CD
100
AcDbEntity
  8
Sichtbar (ISO)
100
AcDbVertex
100
AcDb2dVertex
 10
237.0100206071469
 20
385.7575146009093
 30
0.0
  0
VERTEX
  5
2FD
330
2CD
100
AcDbEntity
  8
Sichtbar (ISO)
100
AcDbVertex
100
AcDb2dVertex
 10
239.5217436486813
 20
386.0214129735594
 30
0.0
  0
VERTEX
  5
2FE
330
2CD
100
AcDbEntity
  8
Sichtbar (ISO)
100
AcDbVertex
100
AcDb2dVertex
 10
242.0539063150021
 20
386.0242763806943
 30
0.0
  0
VERTEX
  5
2FF
330
2CD
100
AcDbEntity
  8
Sichtbar (ISO)
100
AcDbVertex
100
AcDb2dVertex
 10
244.5662373239132
 20
385.7659426976804
 30
0.0
  0
VERTEX
  5
300
330
2CD
100
AcDbEntity
  8
Sichtbar (ISO)
100
AcDbVertex
100
AcDb2dVertex
 10
247.0367234880062
 20
385.2501288701657
 30
0.0
  0
VERTEX
  5
301
330
2CD
100
AcDbEntity
  8
Sichtbar (ISO)
100
AcDbVertex
100
AcDb2dVertex
 10
249.4460624391171
 20
384.4806853582028
 30
0.0
  0
VERTEX
  5
302
330
2CD
100
AcDbEntity
  8
Sichtbar (ISO)
100
AcDbVertex
100
AcDb2dVertex
 10
251.7674916917416
 20
383.4652034093502
 30
0.0
  0
VERTEX
  5
303
330
2CD
100
AcDbEntity
  8
Sichtbar (ISO)
100
AcDbVertex
100
AcDb2dVertex
 10
253.9663404161068
 20
382.2201315213802
 30
0.0
  0
VERTEX
  5
304
330
2CD
100
AcDbEntity
  8
Sichtbar (ISO)
100
AcDbVertex
100
AcDb2dVertex
 10
256.0260766679379
 20
380.7573071767452
 30
0.0
  0
VERTEX
  5
305
330
2CD
100
AcDbEntity
  8
Sichtbar (ISO)
100
AcDbVertex
100
AcDb2dVertex
 10
257.9308694535825
 20
379.0882948686245
 30
0.0
  0
VERTEX
  5
306
330
2CD
100
AcDbEntity
  8
Sichtbar (ISO)
100
AcDbVertex
100
AcDb2dVertex
 10
259.6580308610531
 20
377.232832079089
 30
0.0
  0
VERTEX
  5
307
330
2CD
100
AcDbEntity
  8
Sichtbar (ISO)
100
AcDbVertex
100
AcDb2dVertex
 10
261.1852782899472
 20
375.2174464513423
 30
0.0
  0
VERTEX
  5
308
330
2CD
100
AcDbEntity
  8
Sichtbar (ISO)
100
AcDbVertex
100
AcDb2dVertex
 10
262.5025409394833
 20
373.0589441110256
 30
0.0
  0
VERTEX
  5
309
330
2CD
100
AcDbEntity
  8
Sichtbar (ISO)
100
AcDbVertex
100
AcDb2dVertex
 10
263.599819534454
 20
370.7740417768123
 30
0.0
  0
VERTEX
  5
30A
330
2CD
100
AcDbEntity
  8
Sichtbar (ISO)
100
AcDbVertex
100
AcDb2dVertex
 10
264.4638532334897
 20
368.3901039411189
 30
0.0
  0
VERTEX
  5
30B
330
2CD
100
AcDbEntity
  8
Sichtbar (ISO)
100
AcDbVertex
100
AcDb2dVertex
 10
265.0851911241147
 20
365.937527780688
 30
0.0
  0
VERTEX
  5
30C
330
2CD
100
AcDbEntity
  8
Sichtbar (ISO)
100
AcDbVertex
100
AcDb2dVertex
 10
265.4604619676205
 20
363.4353939344051
 30
0.0
  0
VERTEX
  5
30D
330
2CD
100
AcDbEntity
  8
Sichtbar (ISO)
100
AcDbVertex
100
AcDb2dVertex
 10
265.5862992936703
 20
360.9027687360409
 30
0.0
  0
SEQEND
  5
2D0
330
2CD
100
AcDbEntity
  8
Sichtbar (ISO)
  0
CIRCLE
  5
30E
330
37
100
AcDbEntity
  8
Sichtbar (ISO)
100
AcDbCircle
 10
239.8909448320004
 20
360.9027687360436
 30
0.0
 40
19.96052725047836
  0
LINE
  5
30F
330
37
100
AcDbEntity
  8
Sichtbar (ISO)
100
AcDbLine
 10
326.515233527474
 20
94.70375808503819
 30
0.0
 11
326.515233527474
 21
627.1017793868667
 31
0.0
  0
LINE
  5
310
330
37
100
AcDbEntity
  8
Sichtbar (ISO)
100
AcDbLine
 10
201.3909448320005
 20
58.40276873595238
 30
0.0
 11
201.3909448320005
 21
663.4027687359524
 31
0.0
  0
LINE
  5
311
330
37
100
AcDbEntity
  8
Sichtbar (ISO)
100
AcDbLine
 10
209.3909448320006
 20
58.40276873595238
 30
0.0
 11
209.3909448320006
 21
663.4027687359524
 31
0.0
  0
LINE
  5
312
330
37
100
AcDbEntity
  8
Sichtbar (ISO)
100
AcDbLine
 10
287.0579821624543
 20
65.43389910177324
 30
0.0
 11
287.0579821624543
 21
656.3716383701317
 31
0.0
  0
ARC
  5
313
330
37
100
AcDbEntity
  8
Sichtbar (ISO)
100
AcDbCircle
 10
-268.6671643376462
 20
360.9027687359525
 30
0.0
 40
652.0000000000004
100
AcDbArc
 50
335.9031238206817
 51
354.9295070209516
  0
ARC
  5
314
330
37
100
AcDbEntity
  8
Sichtbar (ISO)
100
AcDbCircle
 10
-268.6671643376462
 20
360.9027687359525
 30
0.0
 40
652.0000000000004
100
AcDbArc
 50
5.070492979048471
 51
24.09687617931837
  0
ARC
  5
315
330
37
100
AcDbEntity
  8
Sichtbar (ISO)
100
AcDbCircle
 10
352.8909448320066
 20
305.7528192758331
 30
0.0
 40
27.99999999999391
100
AcDbArc
 50
354.9295070209516
 51
0.0
  0
ARC
  5
316
330
37
100
AcDbEntity
  8
Sichtbar (ISO)
100
AcDbCircle
 10
352.8909448320066
 20
416.0527181960718
 30
0.0
 40
27.99999999999391
100
AcDbArc
 50
0.0
 51
5.070492979048398
  0
LINE
  5
317
330
37
100
AcDbEntity
  8
Sichtbar (ISO)
100
AcDbLine
 10
380.8909448320004
 20
305.7528192758331
 30
0.0
 11
380.8909448320004
 21
416.0527181960718
 31
0.0
  0
LINE
  5
318
330
37
100
AcDbEntity
  8
Sichtbar (ISO)
100
AcDbLine
 10
201.3909448320005
 20
663.4027687359526
 30
0.0
 11
209.3909448320006
 21
663.4027687359526
 31
0.0
  0
LINE
  5
319
330
37
100
AcDbEntity
  8
Sichtbar (ISO)
100
AcDbLine
 10
201.3909448320005
 20
58.40276873595243
 30
0.0
 11
209.3909448320006
 21
58.40276873595243
 31
0.0
  0
ARC
  5
31A
330
37
100
AcDbEntity
  8
Sichtbar (ISO)
100
AcDbCircle
 10
209.3909448320002
 20
59.40276873595876
 30
0.0
 40
601.9999999999937
100
AcDbArc
 50
82.58732264382217
 51
90.0
  0
ARC
  5
31B
330
37
100
AcDbEntity
  8
Sichtbar (ISO)
100
AcDbCircle
 10
209.3909448320002
 20
662.4027687359462
 30
0.0
 40
601.9999999999939
100
AcDbArc
 50
270.0000000000001
 51
277.4126773561779
  0
ARC
  5
31C
330
37
100
AcDbEntity
  8
Sichtbar (ISO)
100
AcDbCircle
 10
279.4805038654703
 20
116.8788388204544
 30
0.0
 40
52.00000000000001
100
AcDbArc
 50
278.3790176620017
 51
334.7579106646938
  0
ARC
  5
31D
330
37
100
AcDbEntity
  8
Sichtbar (ISO)
100
AcDbCircle
 10
279.4805038654703
 20
604.9266986514505
 30
0.0
 40
52.00000000000001
100
AcDbArc
 50
25.24208933530621
 51
81.62098233799829
  0
ARC
  5
31E
330
37
100
AcDbEntity
  8
Sichtbar (ISO)
100
AcDbCircle
 10
58.890944832012
 20
305.9027687407655
 30
0.0
 40
28.00000000000003
100
AcDbArc
 50
180.0
 51
185.056670652205
  0
ARC
  5
31F
330
37
100
AcDbEntity
  8
Sichtbar (ISO)
100
AcDbCircle
 10
58.89094483201214
 20
415.9027687311395
 30
0.0
 40
28.00000000000003
100
AcDbArc
 50
174.9433293477951
 51
180.0
  0
LINE
  5
320
330
37
100
AcDbEntity
  8
Sichtbar (ISO)
100
AcDbLine
 10
30.89094483201215
 20
415.9027687311395
 30
0.0
 11
30.89094483201199
 21
305.9027687407655
 31
0.0
  0
ARC
  5
321
330
37
100
AcDbEntity
  8
Sichtbar (ISO)
100
AcDbCircle
 10
680.4623405702632
 20
360.9027687312178
 30
0.0
 40
652.0000000048228
100
AcDbArc
 50
185.0566706513685
 51
203.9686320445596
  0
ARC
  5
322
330
37
100
AcDbEntity
  8
Sichtbar (ISO)
100
AcDbCircle
 10
680.4623405702632
 20
360.9027687312178
 30
0.0
 40
652.0000000048228
100
AcDbArc
 50
156.0313679546801
 51
174.9433293478029
  0
ARC
  5
323
330
37
100
AcDbEntity
  8
Sichtbar (ISO)
100
AcDbCircle
 10
132.2015414720925
 20
117.1609049335201
 30
0.0
 40
51.99999999999998
100
AcDbArc
 50
203.968632045327
 51
262.4579689911787
  0
ARC
  5
324
330
37
100
AcDbEntity
  8
Sichtbar (ISO)
100
AcDbCircle
 10
132.2015414720931
 20
604.6446325383848
 30
0.0
 40
52.00000000000001
100
AcDbArc
 50
97.54203100882108
 51
156.0313679546729
  0
ARC
  5
325
330
37
100
AcDbEntity
  8
Sichtbar (ISO)
100
AcDbCircle
 10
204.390944830599
 20
59.40276873595964
 30
0.0
 40
601.9999999999993
100
AcDbArc
 50
90.47587983660987
 51
97.54203100882101
  0
ARC
  5
326
330
37
100
AcDbEntity
  8
Sichtbar (ISO)
100
AcDbCircle
 10
204.3909448305998
 20
662.4027687359454
 30
0.0
 40
601.9999999999996
100
AcDbArc
 50
262.4579689911787
 51
269.5241201633897
  0
CIRCLE
  5
327
330
37
100
AcDbEntity
  8
Sichtbar (ISO)
100
AcDbCircle
 10
239.8909448320004
 20
360.9027687360545
 30
0.0
 40
15.8499999999982
  0
CIRCLE
  5
328
330
37
100
AcDbEntity
  8
Sichtbar (ISO)
100
AcDbCircle
 10
239.8909448320004
 20
360.9027687360541
 30
0.0
 40
16.84999999999809
  0
CIRCLE
  5
329
330
37
100
AcDbEntity
  8
Sichtbar (ISO)
100
AcDbCircle
 10
239.8909448320004
 20
360.9027687360545
 30
0.0
 40
13.84999999999842
  0
LINE
  5
32A
330
37
100
AcDbEntity
  8
Sichtbar (ISO)
100
AcDbLine
 10
345.2420454712073
 20
375.9027687360185
 30
0.0
 11
346.0370495710511
 21
375.9027687360191
 31
0.0
  0
LINE
  5
32B
330
37
100
AcDbEntity
  8
Sichtbar (ISO)
100
AcDbLine
 10
346.037049571051
 20
345.902768736019
 30
0.0
 11
345.2420454712072
 21
345.9027687360184
 31
0.0
  0
LINE
  5
32C
330
37
100
AcDbEntity
  8
Sichtbar (ISO)
100
AcDbLine
 10
345.2420454712073
 20
345.9027687360184
 30
0.0
 11
345.2420454712073
 21
375.9027687360185
 31
0.0
  0
LINE
  5
32D
330
37
100
AcDbEntity
  8
Sichtbar (ISO)
100
AcDbLine
 10
346.0370495710511
 20
345.902768736019
 30
0.0
 11
376.6266042426072
 21
345.9027687360274
 31
0.0
  0
LINE
  5
32E
330
37
100
AcDbEntity
  8
Sichtbar (ISO)
100
AcDbLine
 10
376.6266042426072
 20
375.9027687360275
 30
0.0
 11
346.0370495710511
 21
375.9027687360191
 31
0.0
  0
LINE
  5
32F
330
37
100
AcDbEntity
  8
Sichtbar (ISO)
100
AcDbLine
 10
379.921608342451
 20
345.9027687360407
 30
0.0
 11
377.421608342451
 21
345.9027687360407
 31
0.0
  0
LINE
  5
330
330
37
100
AcDbEntity
  8
Sichtbar (ISO)
100
AcDbLine
 10
379.921608342451
 20
345.9027687360407
 30
0.0
 11
379.921608342451
 21
375.9027687360408
 31
0.0
  0
LINE
  5
331
330
37
100
AcDbEntity
  8
Sichtbar (ISO)
100
AcDbLine
 10
377.421608342451
 20
375.9027687360408
 30
0.0
 11
379.921608342451
 21
375.9027687360408
 31
0.0
  0
LINE
  5
332
330
37
100
AcDbEntity
  8
Sichtbar (ISO)
100
AcDbLine
 10
377.4216083424511
 20
375.9027687360408
 30
0.0
 11
377.421608342451
 21
345.9027687360407
 31
0.0
  0
LINE
  5
333
330
37
100
AcDbEntity
  8
Sichtbar (ISO)
100
AcDbLine
 10
376.6266042426072
 20
345.9027687360274
 30
0.0
 11
377.4216083424509
 21
345.902768736028
 31
0.0
  0
LINE
  5
334
330
37
100
AcDbEntity
  8
Sichtbar (ISO)
100
AcDbLine
 10
377.4216083424509
 20
375.9027687360281
 30
0.0
 11
376.6266042426072
 21
375.9027687360275
 31
0.0
  0
CIRCLE
  5
335
330
37
100
AcDbEntity
  8
Sichtbar (ISO)
100
AcDbCircle
 10
239.8909448320004
 20
360.902768736043
 30
0.0
 40
19.65000000000001
  0
LINE
  5
336
330
37
100
AcDbEntity
  8
Sichtbar (ISO)
100
AcDbLine
 10
199.3909889817452
 20
661.3820046249637
 30
0.0
 11
199.3909889817452
 21
60.42353284694126
 31
0.0
  0
LINE
  5
337
330
37
100
AcDbEntity
  8
Sichtbar (ISO)
100
AcDbLine
 10
199.3909889817452
 20
661.3820046249637
 30
0.0
 11
201.3909448320004
 21
663.3952936065
 31
0.0
  0
LINE
  5
338
330
37
100
AcDbEntity
  8
Sichtbar (ISO)
100
AcDbLine
 10
199.3909889817452
 20
60.42353284694122
 30
0.0
 11
201.3909448320004
 21
58.41024386540496
 31
0.0
  0
INSERT
  5
339
330
37
100
AcDbEntity
  8
0
100
AcDbBlockReference
  2
P gross
 10
150.8348280775364
 20
360.8013539729818
 30
0.0
 41
3.0
 42
3.0
 43
3.0
  0
INSERT
  5
33A
330
37
100
AcDbEntity
  8
0
100
AcDbBlockReference
  2
P gross
 10
149.1607109772125
 20
1102.435126736004
 30
0.0
 41
3.0
 42
3.0
 43
3.0
  0
INSERT
  5
33B
330
37
100
AcDbEntity
  8
0
100
AcDbBlockReference
  2
P gross
 10
728.4052276893929
 20
858.0140639292292
 30
0.0
 41
3.0
 42
3.0
 43
3.0
  0
ENDSEC
  0
SECTION
  2
OBJECTS
  0
DICTIONARY
  5
C
330
0
100
AcDbDictionary
281
     1
  3
ACAD_COLOR
350
30
  3
ACAD_GROUP
350
D
  3
ACAD_LAYOUT
350
2F
  3
ACAD_MATERIAL
350
10
  3
ACAD_MLINESTYLE
350
2C
  3
ACAD_PLOTSETTINGS
350
2E
  3
ACAD_PLOTSTYLENAME
350
E
  3
ACAD_TABLESTYLE
350
31
  3
ACAD_VISUALSTYLE
350
14
  3
AcDbVariableDictionary
350
33C
  0
DICTIONARY
  5
30
102
{ACAD_REACTORS
330
C
102
}
330
C
100
AcDbDictionary
281
     1
  0
DICTIONARY
  5
D
102
{ACAD_REACTORS
330
C
102
}
330
C
100
AcDbDictionary
281
     1
  0
DICTIONARY
  5
2F
102
{ACAD_REACTORS
330
C
102
}
330
C
100
AcDbDictionary
281
     1
  3
Layout1
350
36
  3
Layout2
350
3E
  3
Model
350
3A
  0
DICTIONARY
  5
10
102
{ACAD_REACTORS
330
C
102
}
330
C
100
AcDbDictionary
281
     1
  3
ByBlock
350
12
  3
ByLayer
350
11
  3
Global
350
13
  0
DICTIONARY
  5
2C
102
{ACAD_REACTORS
330
C
102
}
330
C
100
AcDbDictionary
281
     1
  3
Standard
350
2D
  0
DICTIONARY
  5
2E
102
{ACAD_REACTORS
330
C
102
}
330
C
100
AcDbDictionary
281
     1
  0
ACDBDICTIONARYWDFLT
  5
E
102
{ACAD_REACTORS
330
C
102
}
330
C
100
AcDbDictionary
281
     1
  3
Normal
350
F
100
AcDbDictionaryWithDefault
340
F
  0
DICTIONARY
  5
31
102
{ACAD_REACTORS
330
C
102
}
330
C
100
AcDbDictionary
281
     1
  3
Standard
350
32
  0
DICTIONARY
  5
14
102
{ACAD_REACTORS
330
C
102
}
330
C
100
AcDbDictionary
281
     1
  3
2dWireframe
350
1A
  3
3D Hidden
350
1C
  3
3dWireframe
350
1B
  3
Basic
350
19
  3
Brighten
350
20
  3
ColorChange
350
24
  3
Conceptual
350
1D
  3
Dim
350
1F
  3
Facepattern
350
23
  3
Flat
350
15
  3
FlatWithEdges
350
16
  3
Gouraud
350
17
  3
GouraudWithEdges
350
18
  3
Linepattern
350
22
  3
Realistic
350
1E
  3
Thicken
350
21
  0
DICTIONARY
  5
33C
102
{ACAD_REACTORS
330
C
102
}
330
C
100
AcDbDictionary
281
     1
  3
CTABLESTYLE
350
33D
  0
LAYOUT
  5
36
102
{ACAD_REACTORS
330
2F
102
}
330
2F
100
AcDbPlotSettings
  1

  2

  4

  6

 40
0.0
 41
0.0
 42
0.0
 43
0.0
 44
0.0
 45
0.0
 46
0.0
 47
0.0
 48
0.0
 49
0.0
140
0.0
141
0.0
142
1.0
143
1.0
 70
   688
 72
     0
 73
     0
 74
     5
  7

 75
    16
147
1.0
 76
     0
 77
     2
 78
   300
148
0.0
149
0.0
100
AcDbLayout
  1
Layout1
 70
     1
 71
     1
 10
0.0
 20
0.0
 11
12.0
 21
9.0
 12
0.0
 22
0.0
 32
0.0
 14
0.0
 24
0.0
 34
0.0
 15
0.0
 25
0.0
 35
0.0
146
0.0
 13
0.0
 23
0.0
 33
0.0
 16
1.0
 26
0.0
 36
0.0
 17
0.0
 27
1.0
 37
0.0
 76
     0
330
33
  0
LAYOUT
  5
3E
102
{ACAD_REACTORS
330
2F
102
}
330
2F
100
AcDbPlotSettings
  1

  2

  4

  6

 40
0.0
 41
0.0
 42
0.0
 43
0.0
 44
0.0
 45
0.0
 46
0.0
 47
0.0
 48
0.0
 49
0.0
140
0.0
141
0.0
142
1.0
143
1.0
 70
   688
 72
     0
 73
     0
 74
     5
  7

 75
    16
147
1.0
 76
     0
 77
     2
 78
   300
148
0.0
149
0.0
100
AcDbLayout
  1
Layout2
 70
     1
 71
     2
 10
0.0
 20
0.0
 11
12.0
 21
9.0
 12
0.0
 22
0.0
 32
0.0
 14
0.0
 24
0.0
 34
0.0
 15
0.0
 25
0.0
 35
0.0
146
0.0
 13
0.0
 23
0.0
 33
0.0
 16
1.0
 26
0.0
 36
0.0
 17
0.0
 27
1.0
 37
0.0
 76
     0
330
3B
  0
LAYOUT
  5
3A
102
{ACAD_REACTORS
330
2F
102
}
330
2F
100
AcDbPlotSettings
  1

  2

  4

  6

 40
0.0
 41
0.0
 42
0.0
 43
0.0
 44
0.0
 45
0.0
 46
0.0
 47
0.0
 48
0.0
 49
0.0
140
0.0
141
0.0
142
1.0
143
1.0
 70
  1712
 72
     0
 73
     0
 74
     0
  7

 75
     0
147
1.0
 76
     0
 77
     2
 78
   300
148
0.0
149
0.0
100
AcDbLayout
  1
Model
 70
     1
 71
     0
 10
0.0
 20
0.0
 11
12.0
 21
9.0
 12
0.0
 22
0.0
 32
0.0
 14
0.0
 24
0.0
 34
0.0
 15
0.0
 25
0.0
 35
0.0
146
0.0
 13
0.0
 23
0.0
 33
0.0
 16
1.0
 26
0.0
 36
0.0
 17
0.0
 27
1.0
 37
0.0
 76
     0
330
37
  0
MATERIAL
  5
12
102
{ACAD_XDICTIONARY
360
340
102
}
102
{ACAD_REACTORS
330
10
102
}
330
10
100
AcDbMaterial
  1
ByBlock
  0
MATERIAL
  5
11
102
{ACAD_XDICTIONARY
360
33E
102
}
102
{ACAD_REACTORS
330
10
102
}
330
10
100
AcDbMaterial
  1
ByLayer
  0
MATERIAL
  5
13
102
{ACAD_XDICTIONARY
360
342
102
}
102
{ACAD_REACTORS
330
10
102
}
330
10
100
AcDbMaterial
  1
Global
  0
MLINESTYLE
  5
2D
102
{ACAD_REACTORS
330
2C
102
}
330
2C
100
AcDbMlineStyle
  2
STANDARD
 70
     0
  3

 62
   256
 51
90.0
 52
90.0
 71
     2
 49
0.5
 62
   256
  6
BYLAYER
 49
-0.5
 62
   256
  6
BYLAYER
  0
ACDBPLACEHOLDER
  5
F
102
{ACAD_REACTORS
330
E
102
}
330
E
  0
TABLESTYLE
  5
32
102
{ACAD_XDICTIONARY
360
344
102
}
102
{ACAD_REACTORS
330
31
102
}
330
31
100
AcDbTableStyle
  3
Standard
 70
     0
 71
     0
 40
0.06
 41
0.06
280
     0
281
     0
  7
Standard
140
0.18
170
     2
 62
     0
 63
     7
283
     0
274
    -2
284
     1
 64
     0
275
    -2
285
     1
 65
     0
276
    -2
286
     1
 66
     0
277
    -2
287
     1
 67
     0
278
    -2
288
     1
 68
     0
279
    -2
289
     1
 69
     0
  7
Standard
140
0.25
170
     5
 62
     0
 63
     7
283
     0
274
    -2
284
     1
 64
     0
275
    -2
285
     1
 65
     0
276
    -2
286
     1
 66
     0
277
    -2
287
     1
 67
     0
278
    -2
288
     1
 68
     0
279
    -2
289
     1
 69
     0
  7
Standard
140
0.18
170
     5
 62
     0
 63
     7
283
     0
274
    -2
284
     1
 64
     0
275
    -2
285
     1
 65
     0
276
    -2
286
     1
 66
     0
277
    -2
287
     1
 67
     0
278
    -2
288
     1
 68
     0
279
    -2
289
     1
 69
     0
  0
VISUALSTYLE
  5
1A
102
{ACAD_REACTORS
330
14
102
}
330
14
100
AcDbVisualStyle
  2
2dWireframe
 70
     4
 71
     0
 72
     2
 73
     0
 90
        0
 40
-0.6
 41
-30.0
 62
     5
 63
     7
421
 16777215
 74
     1
 91
        4
 64
     7
 65
   257
 75
     1
175
     1
 42
1.0
 92
        0
 66
   257
 43
1.0
 76
     1
 77
     6
 78
     2
 67
     7
 79
     5
170
     0
171
     0
290
     0
174
     0
 93
        1
 44
0.0
173
     0
291
     0
 45
0.0
1001
ACAD
1000
AcDbSavedByObjectVersion
1070
     0
  0
VISUALSTYLE
  5
1C
102
{ACAD_REACTORS
330
14
102
}
330
14
100
AcDbVisualStyle
  2
3D Hidden
 70
     6
 71
     1
 72
     2
 73
     2
 90
        0
 40
-0.6
 41
-30.0
 62
     5
 63
     7
421
 16777215
 74
     2
 91
        2
 64
     7
 65
   257
 75
     2
175
     1
 42
40.0
 92
        0
 66
   257
 43
1.0
 76
     1
 77
     6
 78
     2
 67
     7
 79
     3
170
     0
171
     0
290
     0
174
     0
 93
        1
 44
0.0
173
     0
291
     0
 45
0.0
1001
ACAD
1000
AcDbSavedByObjectVersion
1070
     0
  0
VISUALSTYLE
  5
1B
102
{ACAD_REACTORS
330
14
102
}
330
14
100
AcDbVisualStyle
  2
3dWireframe
 70
     5
 71
     0
 72
     2
 73
     0
 90
        0
 40
-0.6
 41
-30.0
 62
     5
 63
     7
421
 16777215
 74
     1
 91
        4
 64
     7
 65
   257
 75
     1
175
     1
 42
1.0
 92
        0
 66
   257
 43
1.0
 76
     1
 77
     6
 78
     2
 67
     7
 79
     5
170
     0
171
     0
290
     0
174
     0
 93
        1
 44
0.0
173
     0
291
     0
 45
0.0
1001
ACAD
1000
AcDbSavedByObjectVersion
1070
     0
  0
VISUALSTYLE
  5
19
102
{ACAD_REACTORS
330
14
102
}
330
14
100
AcDbVisualStyle
  2
Basic
 70
     7
 71
     1
 72
     0
 73
     1
 90
        0
 40
-0.6
 41
-30.0
 62
     5
 63
     7
421
 16777215
 74
     0
 91
        4
 64
     7
 65
   257
 75
     1
175
     1
 42
1.0
 92
        8
 66
     7
 43
1.0
 76
     1
 77
     6
 78
     2
 67
     7
 79
     5
170
     0
171
     0
290
     0
174
     0
 93
        1
 44
0.0
173
     0
291
     1
 45
0.0
1001
ACAD
1000
AcDbSavedByObjectVersion
1070
     0
  0
VISUALSTYLE
  5
20
102
{ACAD_REACTORS
330
14
102
}
330
14
100
AcDbVisualStyle
  2
Brighten
 70
    12
 71
     2
 72
     2
 73
     0
 90
        0
 40
-0.6
 41
-30.0
 62
     5
 63
     7
421
 16777215
 74
     1
 91
        4
 64
     7
 65
   257
 75
     1
175
     1
 42
1.0
 92
        8
 66
     7
 43
1.0
 76
     1
 77
     6
 78
     2
 67
     7
 79
     5
170
     0
171
     0
290
     0
174
     0
 93
        1
 44
50.0
173
     0
291
     1
 45
0.0
1001
ACAD
1000
AcDbSavedByObjectVersion
1070
     0
  0
VISUALSTYLE
  5
24
102
{ACAD_REACTORS
330
14
102
}
330
14
100
AcDbVisualStyle
  2
ColorChange
 70
    16
 71
     2
 72
     2
 73
     3
 90
        0
 40
-0.6
 41
-30.0
 62
     5
 63
     8
421
  8421504
 74
     1
 91
        4
 64
     7
 65
   257
 75
     1
175
     1
 42
1.0
 92
        8
 66
     8
424
  8421504
 43
1.0
 76
     1
 77
     6
 78
     2
 67
     7
 79
     5
170
     0
171
     0
290
     0
174
     0
 93
        1
 44
0.0
173
     0
291
     1
 45
0.0
1001
ACAD
1000
AcDbSavedByObjectVersion
1070
     0
  0
VISUALSTYLE
  5
1D
102
{ACAD_REACTORS
330
14
102
}
330
14
100
AcDbVisualStyle
  2
Conceptual
 70
     9
 71
     3
 72
     2
 73
     0
 90
        0
 40
-0.6
 41
-30.0
 62
     5
 63
     7
421
 16777215
 74
     2
 91
        2
 64
     7
 65
   257
 75
     1
175
     1
 42
40.0
 92
        8
 66
     7
 43
1.0
 76
     1
 77
     6
 78
     2
 67
     7
 79
     3
170
     0
171
     0
290
     0
174
     0
 93
        1
 44
0.0
173
     0
291
     0
 45
0.0
1001
ACAD
1000
AcDbSavedByObjectVersion
1070
     0
  0
VISUALSTYLE
  5
1F
102
{ACAD_REACTORS
330
14
102
}
330
14
100
AcDbVisualStyle
  2
Dim
 70
    11
 71
     2
 72
     2
 73
     0
 90
        0
 40
-0.6
 41
-30.0
 62
     5
 63
     7
421
 16777215
 74
     1
 91
        4
 64
     7
 65
   257
 75
     1
175
     1
 42
1.0
 92
        8
 66
     7
 43
1.0
 76
     1
 77
     6
 78
     2
 67
     7
 79
     5
170
     0
171
     0
290
     0
174
     0
 93
        1
 44
-50.0
173
     0
291
     1
 45
0.0
1001
ACAD
1000
AcDbSavedByObjectVersion
1070
     0
  0
VISUALSTYLE
  5
23
102
{ACAD_REACTORS
330
14
102
}
330
14
100
AcDbVisualStyle
  2
Facepattern
 70
    15
 71
     2
 72
     2
 73
     0
 90
        0
 40
-0.6
 41
-30.0
 62
     5
 63
     7
421
 16777215
 74
     1
 91
        4
 64
     7
 65
   257
 75
     1
175
     1
 42
1.0
 92
        8
 66
     7
 43
1.0
 76
     1
 77
     6
 78
     2
 67
     7
 79
     5
170
     0
171
     0
290
     0
174
     0
 93
        1
 44
0.0
173
     0
291
     1
 45
0.0
1001
ACAD
1000
AcDbSavedByObjectVersion
1070
     0
  0
VISUALSTYLE
  5
15
102
{ACAD_REACTORS
330
14
102
}
330
14
100
AcDbVisualStyle
  2
Flat
 70
     0
 71
     2
 72
     1
 73
     1
 90
        2
 40
-0.6
 41
30.0
 62
     5
 63
     7
421
 16777215
 74
     0
 91
        4
 64
     7
 65
   257
 75
     1
175
     1
 42
1.0
 92
        8
 66
     7
 43
1.0
 76
     1
 77
     6
 78
     2
 67
     7
 79
     5
170
     0
171
     0
290
     0
174
     0
 93
       13
 44
0.0
173
     0
291
     1
 45
0.0
1001
ACAD
1000
AcDbSavedByObjectVersion
1070
     0
  0
VISUALSTYLE
  5
16
102
{ACAD_REACTORS
330
14
102
}
330
14
100
AcDbVisualStyle
  2
FlatWithEdges
 70
     1
 71
     2
 72
     1
 73
     1
 90
        2
 40
-0.6
 41
30.0
 62
     5
 63
     7
421
 16777215
 74
     1
 91
        4
 64
     7
 65
   257
 75
     1
175
     1
 42
1.0
 92
        0
 66
   257
 43
1.0
 76
     1
 77
     6
 78
     2
 67
     7
 79
     5
170
     0
171
     0
290
     0
174
     0
 93
       13
 44
0.0
173
     0
291
     1
 45
0.0
1001
ACAD
1000
AcDbSavedByObjectVersion
1070
     0
  0
VISUALSTYLE
  5
17
102
{ACAD_REACTORS
330
14
102
}
330
14
100
AcDbVisualStyle
  2
Gouraud
 70
     2
 71
     2
 72
     2
 73
     1
 90
        2
 40
-0.6
 41
30.0
 62
     5
 63
     7
421
 16777215
 74
     0
 91
        4
 64
     7
 65
   257
 75
     1
175
     1
 42
1.0
 92
        0
 66
     7
 43
1.0
 76
     1
 77
     6
 78
     2
 67
     7
 79
     5
170
     0
171
     0
290
     0
174
     0
 93
       13
 44
0.0
173
     0
291
     1
 45
0.0
1001
ACAD
1000
AcDbSavedByObjectVersion
1070
     0
  0
VISUALSTYLE
  5
18
102
{ACAD_REACTORS
330
14
102
}
330
14
100
AcDbVisualStyle
  2
GouraudWithEdges
 70
     3
 71
     2
 72
     2
 73
     1
 90
        2
 40
-0.6
 41
30.0
 62
     5
 63
     7
421
 16777215
 74
     1
 91
        4
 64
     7
 65
   257
 75
     1
175
     1
 42
1.0
 92
        0
 66
   257
 43
1.0
 76
     1
 77
     6
 78
     2
 67
     7
 79
     5
170
     0
171
     0
290
     0
174
     0
 93
       13
 44
0.0
173
     0
291
     1
 45
0.0
1001
ACAD
1000
AcDbSavedByObjectVersion
1070
     0
  0
VISUALSTYLE
  5
22
102
{ACAD_REACTORS
330
14
102
}
330
14
100
AcDbVisualStyle
  2
Linepattern
 70
    14
 71
     2
 72
     2
 73
     0
 90
        0
 40
-0.6
 41
-30.0
 62
     5
 63
     7
421
 16777215
 74
     1
 91
        4
 64
     7
 65
   257
 75
     7
175
     7
 42
1.0
 92
        8
 66
     7
 43
1.0
 76
     1
 77
     6
 78
     2
 67
     7
 79
     5
170
     0
171
     0
290
     0
174
     0
 93
        1
 44
0.0
173
     0
291
     1
 45
0.0
1001
ACAD
1000
AcDbSavedByObjectVersion
1070
     0
  0
VISUALSTYLE
  5
1E
102
{ACAD_REACTORS
330
14
102
}
330
14
100
AcDbVisualStyle
  2
Realistic
 70
     8
 71
     2
 72
     2
 73
     0
 90
        0
 40
-0.6
 41
-30.0
 62
     5
 63
     7
421
 16777215
 74
     1
 91
        0
 64
     7
 65
   257
 75
     1
175
     1
 42
1.0
 92
        8
 66
     8
424
  7895160
 43
1.0
 76
     1
 77
     6
 78
     2
 67
     7
 79
     5
170
     0
171
     0
290
     0
174
     0
 93
       13
 44
0.0
173
     0
291
     0
 45
0.0
1001
ACAD
1000
AcDbSavedByObjectVersion
1070
     0
  0
VISUALSTYLE
  5
21
102
{ACAD_REACTORS
330
14
102
}
330
14
100
AcDbVisualStyle
  2
Thicken
 70
    13
 71
     2
 72
     2
 73
     0
 90
        0
 40
-0.6
 41
-30.0
 62
     5
 63
     7
421
 16777215
 74
     1
 91
        4
 64
     7
 65
   257
 75
     1
175
     1
 42
1.0
 92
       12
 66
     7
 43
1.0
 76
     1
 77
     6
 78
     2
 67
     7
 79
     5
170
     0
171
     0
290
     0
174
     0
 93
        1
 44
0.0
173
     0
291
     1
 45
0.0
1001
ACAD
1000
AcDbSavedByObjectVersion
1070
     0
  0
DICTIONARYVAR
  5
33D
102
{ACAD_REACTORS
330
33C
102
}
330
33C
100
DictionaryVariables
280
     0
  1
STANDARD
  0
DICTIONARY
  5
340
330
12
100
AcDbDictionary
280
     1
281
     1
  3
ACAD_XREC_ROUNDTRIP
360
341
  0
DICTIONARY
  5
33E
330
11
100
AcDbDictionary
280
     1
281
     1
  3
ACAD_XREC_ROUNDTRIP
360
33F
  0
DICTIONARY
  5
342
330
13
100
AcDbDictionary
280
     1
281
     1
  3
ACAD_XREC_ROUNDTRIP
360
343
  0
DICTIONARY
  5
344
330
32
100
AcDbDictionary
280
     1
281
     1
  3
ACAD_XREC_ROUNDTRIP
360
345
  0
XRECORD
  5
341
102
{ACAD_REACTORS
330
340
102
}
330
340
100
AcDbXrecord
280
     1
102
MATERIAL
148
0.0
149
0.0
149
0.0
 93
        0
 94
       63
282
     0
 72
     1
 77
     1
171
     1
175
     1
179
     1
273
     0
  0
XRECORD
  5
33F
102
{ACAD_REACTORS
330
33E
102
}
330
33E
100
AcDbXrecord
280
     1
102
MATERIAL
148
0.0
149
0.0
149
0.0
 93
        0
 94
       63
282
     0
 72
     1
 77
     1
171
     1
175
     1
179
     1
273
     0
  0
XRECORD
  5
343
102
{ACAD_REACTORS
330
342
102
}
330
342
100
AcDbXrecord
280
     1
102
MATERIAL
148
0.0
149
0.0
149
0.0
 93
        0
 94
       63
282
     0
 72
     1
 77
     1
171
     1
175
     1
179
     1
273
     0
  0
XRECORD
  5
345
102
{ACAD_REACTORS
330
344
102
}
330
344
100
AcDbXrecord
280
     1
102
ACAD_ROUNDTRIP_PRE2007_TABLESTYLE
 90
      512
 91
        0
  1

 92
      512
 93
        0
  2

 94
      512
 95
        0
  3

  0
ENDSEC
  0
EOF
